  0
SECTION
  2
HEADER
  9
$ACADVER
  1
AC1015
  9
$ACADMAINTVER
 70
     6
  9
$DWGCODEPAGE
  3
ANSI_1252
  9
$INSBASE
 10
0.0
 20
0.0
 30
0.0
  9
$EXTMIN
 10
54.155411
 20
250.479202
 30
0.0
  9
$EXTMAX
 10
974.595032
 20
633.96875
 30
0.0
  9
$LIMMIN
 10
54.155411
 20
250.479202
  9
$LIMMAX
 10
974.595032
 20
633.96875
  9
$ORTHOMODE
 70
     0
  9
$REGENMODE
 70
     1
  9
$FILLMODE
 70
     1
  9
$QTEXTMODE
 70
     0
  9
$MIRRTEXT
 70
     1
  9
$LTSCALE
 40
1.0
  9
$ATTMODE
 70
     1
  9
$TEXTSIZE
 40
2.5
  9
$TRACEWID
 40
1.0
  9
$TEXTSTYLE
  7
Standard
  9
$CLAYER
  8
0
  9
$CELTYPE
  6
ByLayer
  9
$CECOLOR
 62
   256
  9
$CELTSCALE
 40
1.0
  9
$DISPSILH
 70
     0
  9
$DIMSCALE
 40
1.0
  9
$DIMASZ
 40
2.5
  9
$DIMEXO
 40
0.625
  9
$DIMDLI
 40
3.75
  9
$DIMRND
 40
0.0
  9
$DIMDLE
 40
0.0
  9
$DIMEXE
 40
1.25
  9
$DIMTP
 40
0.0
  9
$DIMTM
 40
0.0
  9
$DIMTXT
 40
2.5
  9
$DIMCEN
 40
2.5
  9
$DIMTSZ
 40
0.0
  9
$DIMTOL
 70
     0
  9
$DIMLIM
 70
     0
  9
$DIMTIH
 70
     0
  9
$DIMTOH
 70
     0
  9
$DIMSE1
 70
     0
  9
$DIMSE2
 70
     0
  9
$DIMTAD
 70
     1
  9
$DIMZIN
 70
     8
  9
$DIMBLK
  1

  9
$DIMASO
 70
     1
  9
$DIMSHO
 70
     1
  9
$DIMPOST
  1

  9
$DIMAPOST
  1

  9
$DIMALT
 70
     0
  9
$DIMALTD
 70
     3
  9
$DIMALTF
 40
0.03937
  9
$DIMLFAC
 40
1.0
  9
$DIMTOFL
 70
     1
  9
$DIMTVP
 40
0.0
  9
$DIMTIX
 70
     0
  9
$DIMSOXD
 70
     0
  9
$DIMSAH
 70
     0
  9
$DIMBLK1
  1

  9
$DIMBLK2
  1

  9
$DIMSTYLE
  2
ISO-25
  9
$DIMCLRD
 70
     0
  9
$DIMCLRE
 70
     0
  9
$DIMCLRT
 70
     0
  9
$DIMTFAC
 40
1.0
  9
$DIMGAP
 40
0.625
  9
$DIMJUST
 70
     0
  9
$DIMSD1
 70
     0
  9
$DIMSD2
 70
     0
  9
$DIMTOLJ
 70
     0
  9
$DIMTZIN
 70
     8
  9
$DIMALTZ
 70
     0
  9
$DIMALTTZ
 70
     0
  9
$DIMUPT
 70
     0
  9
$DIMDEC
 70
     2
  9
$DIMTDEC
 70
     2
  9
$DIMALTU
 70
     2
  9
$DIMALTTD
 70
     3
  9
$DIMTXSTY
  7
Standard
  9
$DIMAUNIT
 70
     0
  9
$DIMADEC
 70
     0
  9
$DIMALTRND
 40
0.0
  9
$DIMAZIN
 70
     0
  9
$DIMDSEP
 70
    44
  9
$DIMATFIT
 70
     3
  9
$DIMFRAC
 70
     0
  9
$DIMLDRBLK
  1

  9
$DIMLUNIT
 70
     2
  9
$DIMLWD
 70
    -2
  9
$DIMLWE
 70
    -2
  9
$DIMTMOVE
 70
     0
  9
$LUNITS
 70
     2
  9
$LUPREC
 70
     4
  9
$SKETCHINC
 40
1.0
  9
$FILLETRAD
 40
10.0
  9
$AUNITS
 70
     0
  9
$AUPREC
 70
     0
  9
$MENU
  1
.
  9
$ELEVATION
 40
0.0
  9
$PELEVATION
 40
0.0
  9
$THICKNESS
 40
0.0
  9
$LIMCHECK
 70
     0
  9
$CHAMFERA
 40
10.0
  9
$CHAMFERB
 40
10.0
  9
$CHAMFERC
 40
20.0
  9
$CHAMFERD
 40
0.0
  9
$SKPOLY
 70
     0
  9
$TDCREATE
 40
2455554.632273148
  9
$TDUCREATE
 40
2455554.590606481
  9
$TDUPDATE
 40
2455554.63227316
  9
$TDUUPDATE
 40
2455554.590606493
  9
$TDINDWG
 40
0.0000000116
  9
$TDUSRTIMER
 40
0.0000000116
  9
$USRTIMER
 70
     1
  9
$ANGBASE
 50
0.0
  9
$ANGDIR
 70
     0
  9
$PDMODE
 70
     0
  9
$PDSIZE
 40
0.0
  9
$PLINEWID
 40
0.0
  9
$SPLFRAME
 70
     0
  9
$SPLINETYPE
 70
     6
  9
$SPLINESEGS
 70
     8
  9
$HANDSEED
  5
151
  9
$SURFTAB1
 70
     6
  9
$SURFTAB2
 70
     6
  9
$SURFTYPE
 70
     6
  9
$SURFU
 70
     6
  9
$SURFV
 70
     6
  9
$UCSBASE
  2

  9
$UCSNAME
  2

  9
$UCSORG
 10
0.0
 20
0.0
 30
0.0
  9
$UCSXDIR
 10
1.0
 20
0.0
 30
0.0
  9
$UCSYDIR
 10
0.0
 20
1.0
 30
0.0
  9
$UCSORTHOREF
  2

  9
$UCSORTHOVIEW
 70
     0
  9
$UCSORGTOP
 10
0.0
 20
0.0
 30
0.0
  9
$UCSORGBOTTOM
 10
0.0
 20
0.0
 30
0.0
  9
$UCSORGLEFT
 10
0.0
 20
0.0
 30
0.0
  9
$UCSORGRIGHT
 10
0.0
 20
0.0
 30
0.0
  9
$UCSORGFRONT
 10
0.0
 20
0.0
 30
0.0
  9
$UCSORGBACK
 10
0.0
 20
0.0
 30
0.0
  9
$PUCSBASE
  2

  9
$PUCSNAME
  2

  9
$PUCSORG
 10
0.0
 20
0.0
 30
0.0
  9
$PUCSXDIR
 10
1.0
 20
0.0
 30
0.0
  9
$PUCSYDIR
 10
0.0
 20
1.0
 30
0.0
  9
$PUCSORTHOREF
  2

  9
$PUCSORTHOVIEW
 70
     0
  9
$PUCSORGTOP
 10
0.0
 20
0.0
 30
0.0
  9
$PUCSORGBOTTOM
 10
0.0
 20
0.0
 30
0.0
  9
$PUCSORGLEFT
 10
0.0
 20
0.0
 30
0.0
  9
$PUCSORGRIGHT
 10
0.0
 20
0.0
 30
0.0
  9
$PUCSORGFRONT
 10
0.0
 20
0.0
 30
0.0
  9
$PUCSORGBACK
 10
0.0
 20
0.0
 30
0.0
  9
$USERI1
 70
     0
  9
$USERI2
 70
     0
  9
$USERI3
 70
     0
  9
$USERI4
 70
     0
  9
$USERI5
 70
     0
  9
$USERR1
 40
0.0
  9
$USERR2
 40
0.0
  9
$USERR3
 40
0.0
  9
$USERR4
 40
0.0
  9
$USERR5
 40
0.0
  9
$WORLDVIEW
 70
     1
  9
$SHADEDGE
 70
     3
  9
$SHADEDIF
 70
    70
  9
$TILEMODE
 70
     1
  9
$MAXACTVP
 70
    64
  9
$PINSBASE
 10
0.0
 20
0.0
 30
0.0
  9
$PLIMCHECK
 70
     0
  9
$PEXTMIN
 10
1.000000E+20
 20
1.000000E+20
 30
1.000000E+20
  9
$PEXTMAX
 10
-1.000000E+20
 20
-1.000000E+20
 30
-1.000000E+20
  9
$PLIMMIN
 10
0.0
 20
0.0
  9
$PLIMMAX
 10
420.0
 20
297.0
  9
$UNITMODE
 70
     0
  9
$VISRETAIN
 70
     1
  9
$PLINEGEN
 70
     0
  9
$PSLTSCALE
 70
     1
  9
$TREEDEPTH
 70
  3020
  9
$CMLSTYLE
  2
Standard
  9
$CMLJUST
 70
     0
  9
$CMLSCALE
 40
20.0
  9
$PROXYGRAPHICS
 70
     1
  9
$MEASUREMENT
 70
     1
  9
$CELWEIGHT
370
    -1
  9
$ENDCAPS
280
     0
  9
$JOINSTYLE
280
     0
  9
$LWDISPLAY
290
     0
  9
$INSUNITS
 70
     4
  9
$HYPERLINKBASE
  1

  9
$STYLESHEET
  1

  9
$XEDIT
290
     1
  9
$CEPSNTYPE
380
     0
  9
$PSTYLEMODE
290
     1
  9
$FINGERPRINTGUID
  2
{73A14593-3F25-4B6E-BB6D-691FCCBF9780}
  9
$VERSIONGUID
  2
{FAEB1C32-E019-11D5-929B-00C0DF256EC4}
  9
$EXTNAMES
290
     1
  9
$PSVPSCALE
 40
0.0
  9
$OLESTARTUP
290
     0
  0
ENDSEC
  0
SECTION
  2
CLASSES
  0
CLASS
  1
ACDBDICTIONARYWDFLT
  2
AcDbDictionaryWithDefault
  3
ObjectDBX Classes
 90
        0
280
     0
281
     0
  0
CLASS
  1
VISUALSTYLE
  2
AcDbVisualStyle
  3
ObjectDBX Classes
 90
     4095
280
     0
281
     0
  0
CLASS
  1
DICTIONARYVAR
  2
AcDbDictionaryVar
  3
ObjectDBX Classes
 90
        0
280
     0
281
     0
  0
CLASS
  1
ACDBPLACEHOLDER
  2
AcDbPlaceHolder
  3
ObjectDBX Classes
 90
        0
280
     0
281
     0
  0
CLASS
  1
LAYOUT
  2
AcDbLayout
  3
ObjectDBX Classes
 90
        0
280
     0
281
     0
  0
ENDSEC
  0
SECTION
  2
TABLES
  0
TABLE
  2
VPORT
  5
8
330
0
100
AcDbSymbolTable
 70
     1
  0
VPORT
  5
29
330
8
100
AcDbSymbolTableRecord
100
AcDbViewportTableRecord
  2
*Active
 70
     0
 10
0.0
 20
0.0
 11
1.0
 21
1.0
 12
344.186916
 22
148.5
 13
0.0
 23
0.0
 14
10.0
 24
10.0
 15
10.0
 25
10.0
 16
0.0
 26
0.0
 36
1.0
 17
0.0
 27
0.0
 37
0.0
 40
297.0
 41
1.972973
 42
50.0
 43
0.0
 44
0.0
 50
0.0
 51
0.0
 71
     0
 72
   100
 73
     1
 74
     3
 75
     0
 76
     0
 77
     0
 78
     0
281
     0
 65
     1
110
0.0
120
0.0
130
0.0
111
1.0
121
0.0
131
0.0
112
0.0
122
1.0
132
0.0
 79
     0
146
0.0
  0
ENDTAB
  0
TABLE
  2
LTYPE
  5
5
330
0
100
AcDbSymbolTable
 70
     1
  0
LTYPE
  5
14
330
5
100
AcDbSymbolTableRecord
100
AcDbLinetypeTableRecord
  2
ByBlock
 70
     0
  3

 72
    65
 73
     0
 40
0.0
  0
LTYPE
  5
15
330
5
100
AcDbSymbolTableRecord
100
AcDbLinetypeTableRecord
  2
ByLayer
 70
     0
  3

 72
    65
 73
     0
 40
0.0
  0
LTYPE
  5
16
330
5
100
AcDbSymbolTableRecord
100
AcDbLinetypeTableRecord
  2
Continuous
 70
     0
  3
Solid line
 72
    65
 73
     0
 40
0.0
  0
ENDTAB
  0
TABLE
  2
LAYER
  5
2
330
0
100
AcDbSymbolTable
 70
     1
  0
LAYER
  5
10
330
2
100
AcDbSymbolTableRecord
100
AcDbLayerTableRecord
  2
0
 70
     0
 62
   106
  6
Continuous
370
     0
390
F
  0
ENDTAB
  0
TABLE
  2
STYLE
  5
3
330
0
100
AcDbSymbolTable
 70
     4
  0
STYLE
  5
11
330
3
100
AcDbSymbolTableRecord
100
AcDbTextStyleTableRecord
  2
Standard
 70
     0
 40
0.0
 41
1.0
 50
0.0
 71
     0
 42
2.5
  3
txt
  4

  0
STYLE
  5
3B
330
3
100
AcDbSymbolTableRecord
100
AcDbTextStyleTableRecord
  2
Default
 70
     0
 40
0.0
 41
1.0
 50
0.0
 71
     0
 42
0.2
  3

  4

1001
ACAD
1000
txt
1071
        0
  0
STYLE
  5
3C
330
3
100
AcDbSymbolTableRecord
100
AcDbTextStyleTableRecord
  2
ISO
 70
     0
 40
0.0
 41
1.0
 50
0.0
 71
     0
 42
0.2
  3

  4

1001
ACAD
1000
txt
1071
        0
  0
STYLE
  5
3D
330
3
100
AcDbSymbolTableRecord
100
AcDbTextStyleTableRecord
  2
GIANLU
 70
     0
 40
0.0
 41
1.0
 50
0.0
 71
     0
 42
0.2
  3

  4

1001
ACAD
1000
Arial
1071
        0
  0
ENDTAB
  0
TABLE
  2
VIEW
  5
6
330
0
100
AcDbSymbolTable
 70
     0
  0
ENDTAB
  0
TABLE
  2
UCS
  5
7
330
0
100
AcDbSymbolTable
 70
     0
  0
ENDTAB
  0
TABLE
  2
APPID
  5
9
330
0
100
AcDbSymbolTable
 70
     1
  0
APPID
  5
12
330
9
100
AcDbSymbolTableRecord
100
AcDbRegAppTableRecord
  2
ACAD
 70
     0
  0
ENDTAB
  0
TABLE
  2
DIMSTYLE
  5
A
330
0
100
AcDbSymbolTable
 70
     4
100
AcDbDimStyleTable
  0
DIMSTYLE
105
27
330
A
100
AcDbSymbolTableRecord
100
AcDbDimStyleTableRecord
  2
ISO-25
 70
     0
 41
2.5
 42
0.625
 43
3.75
 44
1.25
 73
     0
 74
     0
 77
     1
 78
     8
140
2.5
141
2.5
143
0.03937
147
0.625
171
     3
172
     1
271
     2
272
     2
274
     3
278
    44
283
     0
284
     8
340
11
  0
DIMSTYLE
105
3E
330
A
100
AcDbSymbolTableRecord
100
AcDbDimStyleTableRecord
  2
Default
 70
     0
  3
<>
 41
4.375
 42
1.05
 44
2.1
 73
     0
 74
     0
 77
     1
 78
     8
140
3.5
146
0.4
147
1.75
178
     3
271
     2
272
     3
284
     8
340
3B
341
3F
342
3F
  0
DIMSTYLE
105
46
330
A
100
AcDbSymbolTableRecord
100
AcDbDimStyleTableRecord
  2
ISO
 70
     0
  3
<>
 41
4.375
 42
1.05
 44
2.1
 73
     0
 74
     0
 77
     1
 78
     8
140
3.5
146
0.4
147
1.75
178
     3
271
     2
272
     3
284
     8
340
3C
341
3F
342
3F
  0
DIMSTYLE
105
47
330
A
100
AcDbSymbolTableRecord
100
AcDbDimStyleTableRecord
  2
zucchetti_unico
 70
     0
  3
<>
 41
3.0
 42
0.9
 44
1.8
 73
     0
 74
     0
 77
     1
 78
     8
140
3.0
146
0.6
147
1.5
176
   104
177
     3
178
     3
271
     2
272
     2
284
     8
340
3D
  0
ENDTAB
  0
TABLE
  2
BLOCK_RECORD
  5
1
330
0
100
AcDbSymbolTable
 70
     7
  0
BLOCK_RECORD
  5
1F
330
1
100
AcDbSymbolTableRecord
100
AcDbBlockTableRecord
  2
*Model_Space
340
22
  0
BLOCK_RECORD
  5
1B
330
1
100
AcDbSymbolTableRecord
100
AcDbBlockTableRecord
  2
*Paper_Space
340
1E
  0
BLOCK_RECORD
  5
23
330
1
100
AcDbSymbolTableRecord
100
AcDbBlockTableRecord
  2
*Paper_Space0
340
26
  0
BLOCK_RECORD
  5
3F
330
1
100
AcDbSymbolTableRecord
100
AcDbBlockTableRecord
  2
_CLOSED
340
0
  0
BLOCK_RECORD
  5
48
330
1
100
AcDbSymbolTableRecord
100
AcDbBlockTableRecord
  2
a
340
0
102
{BLKREFS
331
6F
102
}
  0
BLOCK_RECORD
  5
70
330
1
100
AcDbSymbolTableRecord
100
AcDbBlockTableRecord
  2
b
340
0
102
{BLKREFS
331
BB
102
}
  0
BLOCK_RECORD
  5
BC
330
1
100
AcDbSymbolTableRecord
100
AcDbBlockTableRecord
  2
c
340
0
102
{BLKREFS
331
D8
102
}
  0
BLOCK_RECORD
  5
D9
330
1
100
AcDbSymbolTableRecord
100
AcDbBlockTableRecord
  2
d
340
0
102
{BLKREFS
331
12E
102
}
  0
BLOCK_RECORD
  5
12F
330
1
100
AcDbSymbolTableRecord
100
AcDbBlockTableRecord
  2
e
340
0
102
{BLKREFS
331
14B
102
}
  0
ENDTAB
  0
ENDSEC
  0
SECTION
  2
BLOCKS
  0
BLOCK
  5
20
330
1F
100
AcDbEntity
  8
0
100
AcDbBlockBegin
  2
*Model_Space
 70
     0
 10
0.0
 20
0.0
 30
0.0
  3
*Model_Space
  1

  0
ENDBLK
  5
21
330
1F
100
AcDbEntity
  8
0
100
AcDbBlockEnd
  0
BLOCK
  5
1C
330
1B
100
AcDbEntity
 67
     1
  8
0
100
AcDbBlockBegin
  2
*Paper_Space
 70
     0
 10
0.0
 20
0.0
 30
0.0
  3
*Paper_Space
  1

  0
ENDBLK
  5
1D
330
1B
100
AcDbEntity
 67
     1
  8
0
100
AcDbBlockEnd
  0
BLOCK
  5
24
330
23
100
AcDbEntity
  8
0
100
AcDbBlockBegin
  2
*Paper_Space0
 70
     0
 10
0.0
 20
0.0
 30
0.0
  3
*Paper_Space0
  1

  0
ENDBLK
  5
25
330
23
100
AcDbEntity
  8
0
100
AcDbBlockEnd
  0
BLOCK
  5
40
330
3F
100
AcDbEntity
  8
0
100
AcDbBlockBegin
  2
_CLOSED
 70
     0
 10
0.0
 20
0.0
 30
0.0
  3
_CLOSED
  1

  0
LINE
  5
42
330
3F
100
AcDbEntity
  8
0
  6
ByBlock
 62
     0
370
    -2
100
AcDbLine
 10
-1.0
 20
0.166667
 30
0.0
 11
0.0
 21
0.0
 31
0.0
  0
LINE
  5
43
330
3F
100
AcDbEntity
  8
0
  6
ByBlock
 62
     0
370
    -2
100
AcDbLine
 10
0.0
 20
0.0
 30
0.0
 11
-1.0
 21
-0.166667
 31
0.0
  0
LINE
  5
44
330
3F
100
AcDbEntity
  8
0
  6
ByBlock
 62
     0
370
    -2
100
AcDbLine
 10
-1.0
 20
0.166667
 30
0.0
 11
-1.0
 21
-0.166667
 31
0.0
  0
LINE
  5
45
330
3F
100
AcDbEntity
  8
0
  6
ByBlock
 62
     0
370
    -2
100
AcDbLine
 10
0.0
 20
0.0
 30
0.0
 11
-1.0
 21
0.0
 31
0.0
  0
ENDBLK
  5
41
330
3F
100
AcDbEntity
  8
0
100
AcDbBlockEnd
  0
BLOCK
  5
6D
330
48
100
AcDbEntity
  8
0
100
AcDbBlockBegin
  2
a
 70
     0
 10
179.944763
 20
270.266083
 30
0.0
  3
a
  1

  0
LINE
  5
49
330
48
100
AcDbEntity
  8
0
  6
Continuous
 62
     0
370
    30
100
AcDbLine
 10
213.404976
 20
612.468719
 30
0.0
 11
213.404976
 21
603.968719
 31
0.0
  0
LINE
  5
4A
330
48
100
AcDbEntity
  8
0
  6
Continuous
 62
     0
370
    30
100
AcDbLine
 10
213.404976
 20
603.968719
 30
0.0
 11
213.404976
 21
595.468719
 31
0.0
  0
LINE
  5
4B
330
48
100
AcDbEntity
  8
0
  6
Continuous
 62
     0
370
     0
100
AcDbLine
 10
213.904976
 20
612.968719
 30
0.0
 11
213.904976
 21
603.968719
 31
0.0
  0
LINE
  5
4C
330
48
100
AcDbEntity
  8
0
  6
Continuous
 62
     0
370
     0
100
AcDbLine
 10
213.904976
 20
603.968719
 30
0.0
 11
213.904976
 21
594.968719
 31
0.0
  0
LINE
  5
4D
330
48
100
AcDbEntity
  8
0
  6
Continuous
 62
     0
370
     0
100
AcDbLine
 10
286.904976
 20
612.968719
 30
0.0
 11
286.904976
 21
603.968719
 31
0.0
  0
LINE
  5
4E
330
48
100
AcDbEntity
  8
0
  6
Continuous
 62
     0
370
     0
100
AcDbLine
 10
286.904976
 20
603.968719
 30
0.0
 11
286.904976
 21
594.968719
 31
0.0
  0
ARC
  5
4F
330
48
100
AcDbEntity
  8
0
  6
Continuous
 62
     0
370
    30
100
AcDbCircle
 10
250.404976
 20
603.968719
 30
0.0
 40
30.0
100
AcDbArc
 50
17.457603
 51
162.542397
  0
ARC
  5
50
330
48
100
AcDbEntity
  8
0
  6
Continuous
 62
     0
370
    30
100
AcDbCircle
 10
250.404976
 20
603.968719
 30
0.0
 40
30.0
100
AcDbArc
 50
197.457603
 51
342.542397
  0
ARC
  5
51
330
48
100
AcDbEntity
  8
0
  6
Continuous
 62
     0
370
     0
100
AcDbCircle
 10
250.404976
 20
603.968719
 30
0.0
 40
29.50000000000003
100
AcDbArc
 50
17.763262
 51
162.236738
  0
ARC
  5
52
330
48
100
AcDbEntity
  8
0
  6
Continuous
 62
     0
370
     0
100
AcDbCircle
 10
250.404976
 20
603.968719
 30
0.0
 40
29.50000000000001
100
AcDbArc
 50
197.763262
 51
342.236738
  0
LINE
  5
53
330
48
100
AcDbEntity
  8
0
  6
Continuous
 62
     0
370
    30
100
AcDbLine
 10
513.404976
 20
594.968719
 30
0.0
 11
513.404976
 21
612.968719
 31
0.0
  0
LINE
  5
54
330
48
100
AcDbEntity
  8
0
  6
Continuous
 62
     0
370
    30
100
AcDbLine
 10
513.404976
 20
594.968719
 30
0.0
 11
287.404976
 21
594.968719
 31
0.0
  0
LINE
  5
55
330
48
100
AcDbEntity
  8
0
  6
Continuous
 62
     0
370
    30
100
AcDbLine
 10
287.404976
 20
612.968719
 30
0.0
 11
287.404976
 21
594.968719
 31
0.0
  0
LINE
  5
56
330
48
100
AcDbEntity
  8
0
  6
Continuous
 62
     0
370
    30
100
AcDbLine
 10
587.404976
 20
595.468719
 30
0.0
 11
587.404976
 21
603.968719
 31
0.0
  0
LINE
  5
57
330
48
100
AcDbEntity
  8
0
  6
Continuous
 62
     0
370
    30
100
AcDbLine
 10
587.404976
 20
603.968719
 30
0.0
 11
587.404976
 21
612.468719
 31
0.0
  0
LINE
  5
58
330
48
100
AcDbEntity
  8
0
  6
Continuous
 62
     0
370
     0
100
AcDbLine
 10
586.904976
 20
594.968719
 30
0.0
 11
586.904976
 21
603.968719
 31
0.0
  0
LINE
  5
59
330
48
100
AcDbEntity
  8
0
  6
Continuous
 62
     0
370
     0
100
AcDbLine
 10
586.904976
 20
603.968719
 30
0.0
 11
586.904976
 21
612.968719
 31
0.0
  0
LINE
  5
5A
330
48
100
AcDbEntity
  8
0
  6
Continuous
 62
     0
370
     0
100
AcDbLine
 10
513.904976
 20
594.968719
 30
0.0
 11
513.904976
 21
603.968719
 31
0.0
  0
LINE
  5
5B
330
48
100
AcDbEntity
  8
0
  6
Continuous
 62
     0
370
     0
100
AcDbLine
 10
513.904976
 20
603.968719
 30
0.0
 11
513.904976
 21
612.968719
 31
0.0
  0
ARC
  5
5C
330
48
100
AcDbEntity
  8
0
  6
Continuous
 62
     0
370
    30
100
AcDbCircle
 10
550.404976
 20
603.968719
 30
0.0
 40
30.0
100
AcDbArc
 50
197.457603
 51
342.542397
  0
ARC
  5
5D
330
48
100
AcDbEntity
  8
0
  6
Continuous
 62
     0
370
    30
100
AcDbCircle
 10
550.404976
 20
603.968719
 30
0.0
 40
30.0
100
AcDbArc
 50
17.457603
 51
162.542397
  0
ARC
  5
5E
330
48
100
AcDbEntity
  8
0
  6
Continuous
 62
     0
370
     0
100
AcDbCircle
 10
550.404976
 20
603.968719
 30
0.0
 40
29.5
100
AcDbArc
 50
197.763262
 51
342.236738
  0
ARC
  5
5F
330
48
100
AcDbEntity
  8
0
  6
Continuous
 62
     0
370
     0
100
AcDbCircle
 10
550.404976
 20
603.968719
 30
0.0
 40
29.49999999999999
100
AcDbArc
 50
17.763262
 51
162.236738
  0
ARC
  5
60
330
48
100
AcDbEntity
  8
0
  6
Continuous
 62
     0
370
    30
100
AcDbCircle
 10
513.904979
 20
612.468716
 30
0.0
 40
0.5000034422844912
100
AcDbArc
 50
90.000394
 51
179.999606
  0
ARC
  5
61
330
48
100
AcDbEntity
  8
0
  6
Continuous
 62
     0
370
    30
100
AcDbCircle
 10
513.904979
 20
595.468723
 30
0.0
 40
0.5000034422867428
100
AcDbArc
 50
180.000394
 51
269.999606
  0
LINE
  5
62
330
48
100
AcDbEntity
  8
0
  6
Continuous
 62
     0
370
    30
100
AcDbLine
 10
586.904976
 20
612.968719
 30
0.0
 11
513.904976
 21
612.968719
 31
0.0
  0
LINE
  5
63
330
48
100
AcDbEntity
  8
0
  6
Continuous
 62
     0
370
    30
100
AcDbLine
 10
586.904976
 20
594.968719
 30
0.0
 11
513.904976
 21
594.968719
 31
0.0
  0
ARC
  5
64
330
48
100
AcDbEntity
  8
0
  6
Continuous
 62
     0
370
    30
100
AcDbCircle
 10
586.904973
 20
595.468722
 30
0.0
 40
0.500002770680315
100
AcDbArc
 50
270.000317
 51
359.988223
  0
ARC
  5
65
330
48
100
AcDbEntity
  8
0
  6
Continuous
 62
     0
370
    30
100
AcDbCircle
 10
586.904973
 20
612.468717
 30
0.0
 40
0.5000027706833698
100
AcDbArc
 50
0.011777
 51
89.999683
  0
LINE
  5
66
330
48
100
AcDbEntity
  8
0
  6
Continuous
 62
     0
370
    30
100
AcDbLine
 10
513.404976
 20
612.968719
 30
0.0
 11
287.404976
 21
612.968719
 31
0.0
  0
ARC
  5
67
330
48
100
AcDbEntity
  8
0
  6
Continuous
 62
     0
370
    30
100
AcDbCircle
 10
286.904972
 20
595.468723
 30
0.0
 40
0.5000034422815327
100
AcDbArc
 50
270.000394
 51
359.999606
  0
ARC
  5
68
330
48
100
AcDbEntity
  8
0
  6
Continuous
 62
     0
370
    30
100
AcDbCircle
 10
286.904972
 20
612.468716
 30
0.0
 40
0.5000034422815549
100
AcDbArc
 50
0.000394
 51
89.999606
  0
LINE
  5
69
330
48
100
AcDbEntity
  8
0
  6
Continuous
 62
     0
370
    30
100
AcDbLine
 10
213.904976
 20
594.968719
 30
0.0
 11
286.904976
 21
594.968719
 31
0.0
  0
LINE
  5
6A
330
48
100
AcDbEntity
  8
0
  6
Continuous
 62
     0
370
    30
100
AcDbLine
 10
213.904976
 20
612.968719
 30
0.0
 11
286.904976
 21
612.968719
 31
0.0
  0
ARC
  5
6B
330
48
100
AcDbEntity
  8
0
  6
Continuous
 62
     0
370
    30
100
AcDbCircle
 10
213.904979
 20
612.468717
 30
0.0
 40
0.5000027706859334
100
AcDbArc
 50
90.000317
 51
179.988223
  0
ARC
  5
6C
330
48
100
AcDbEntity
  8
0
  6
Continuous
 62
     0
370
    30
100
AcDbCircle
 10
213.904979
 20
595.468722
 30
0.0
 40
0.5000027706859111
100
AcDbArc
 50
180.011777
 51
269.999683
  0
ENDBLK
  5
6E
330
48
100
AcDbEntity
  8
0
100
AcDbBlockEnd
  0
BLOCK
  5
B9
330
70
100
AcDbEntity
  8
0
100
AcDbBlockBegin
  2
b
 70
     0
 10
179.944763
 20
270.266083
 30
0.0
  3
b
  1

  0
LINE
  5
71
330
70
100
AcDbEntity
  8
0
  6
Continuous
 62
     0
370
     0
100
AcDbLine
 10
250.40498
 20
268.031272
 30
0.0
 11
267.40498
 21
277.031273
 31
0.0
  0
ARC
  5
72
330
70
100
AcDbEntity
  8
0
  6
Continuous
 62
     0
370
    30
100
AcDbCircle
 10
267.40498
 20
285.031273
 30
0.0
 40
8.0
100
AcDbArc
 50
180.0
 51
270.0
  0
LINE
  5
73
330
70
100
AcDbEntity
  8
0
  6
Continuous
 62
     0
370
     0
100
AcDbLine
 10
250.40498
 20
268.031272
 30
0.0
 11
259.40498
 21
285.031273
 31
0.0
  0
LWPOLYLINE
  5
74
330
70
100
AcDbEntity
  8
0
  6
Continuous
 62
     0
370
     0
100
AcDbPolyline
 90
       22
 70
     0
 43
0.0
 10
233.405075
 20
277.031219
 10
233.475098
 20
276.994141
 10
233.682343
 20
276.88443
 10
234.019135
 20
276.706116
 10
234.473801
 20
276.465424
 10
235.033203
 20
276.169281
 10
235.683517
 20
275.824982
 10
236.41188
 20
275.439392
 10
237.206558
 20
275.018677
 10
238.057205
 20
274.568329
 10
238.954865
 20
274.093109
 10
239.892441
 20
273.596741
 10
240.863403
 20
273.082703
 10
241.861908
 20
272.554077
 10
242.883728
 20
272.013123
 10
243.924927
 20
271.461884
 10
244.981583
 20
270.902466
 10
246.050629
 20
270.336517
 10
247.129379
 20
269.765411
 10
248.215164
 20
269.190582
 10
249.305527
 20
268.613342
 10
250.404984
 20
268.031281
  0
LWPOLYLINE
  5
75
330
70
100
AcDbEntity
  8
0
  6
Continuous
 62
     0
370
     0
100
AcDbPolyline
 90
       22
 70
     0
 43
0.0
 10
241.405029
 20
285.031189
 10
241.442093
 20
284.961151
 10
241.551819
 20
284.753906
 10
241.730118
 20
284.417114
 10
241.970825
 20
283.962433
 10
242.266983
 20
283.403046
 10
242.611267
 20
282.752747
 10
242.996872
 20
282.024353
 10
243.417572
 20
281.229706
 10
243.86792
 20
280.379059
 10
244.343155
 20
279.481384
 10
244.839523
 20
278.543823
 10
245.353561
 20
277.572845
 10
245.882172
 20
276.574341
 10
246.423141
 20
275.552521
 10
246.974365
 20
274.511322
 10
247.533768
 20
273.454651
 10
248.099731
 20
272.38562
 10
248.670837
 20
271.306885
 10
249.245667
 20
270.2211
 10
249.822922
 20
269.130707
 10
250.404984
 20
268.031281
  0
LINE
  5
76
330
70
100
AcDbEntity
  8
0
  6
Continuous
 62
     0
370
    30
100
AcDbLine
 10
213.40498
 20
276.531273
 30
0.0
 11
213.40498
 21
259.531273
 31
0.0
  0
ARC
  5
77
330
70
100
AcDbEntity
  8
0
  6
Continuous
 62
     0
370
    30
100
AcDbCircle
 10
213.90498
 20
259.531273
 30
0.0
 40
0.5000000000000069
100
AcDbArc
 50
180.0
 51
270.0
  0
LINE
  5
78
330
70
100
AcDbEntity
  8
0
  6
Continuous
 62
     0
370
     0
100
AcDbLine
 10
213.90498
 20
277.031273
 30
0.0
 11
213.90498
 21
259.031273
 31
0.0
  0
LINE
  5
79
330
70
100
AcDbEntity
  8
0
  6
Continuous
 62
     0
370
    30
100
AcDbLine
 10
213.90498
 20
259.031273
 30
0.0
 11
286.90498
 21
259.031273
 31
0.0
  0
LINE
  5
7A
330
70
100
AcDbEntity
  8
0
  6
Continuous
 62
     0
370
     0
100
AcDbLine
 10
286.90498
 20
277.031273
 30
0.0
 11
286.90498
 21
259.031273
 31
0.0
  0
ARC
  5
7B
330
70
100
AcDbEntity
  8
0
  6
Continuous
 62
     0
370
    30
100
AcDbCircle
 10
286.90498
 20
259.531273
 30
0.0
 40
0.5
100
AcDbArc
 50
270.0
 51
0.0
  0
LINE
  5
7C
330
70
100
AcDbEntity
  8
0
  6
Continuous
 62
     0
370
    30
100
AcDbLine
 10
259.40498
 20
334.531273
 30
0.0
 11
259.40498
 21
285.031273
 31
0.0
  0
LINE
  5
7D
330
70
100
AcDbEntity
  8
0
  6
Continuous
 62
     0
370
     0
100
AcDbLine
 10
241.40498
 20
334.531273
 30
0.0
 11
259.40498
 21
334.531273
 31
0.0
  0
ARC
  5
7E
330
70
100
AcDbEntity
  8
0
  6
Continuous
 62
     0
370
    30
100
AcDbCircle
 10
258.90498
 20
334.531273
 30
0.0
 40
0.5
100
AcDbArc
 50
0.0
 51
90.0
  0
LINE
  5
7F
330
70
100
AcDbEntity
  8
0
  6
Continuous
 62
     0
370
     0
100
AcDbLine
 10
280.308099
 20
339.531273
 30
0.0
 11
220.40498
 21
339.531273
 31
0.0
  0
LINE
  5
80
330
70
100
AcDbEntity
  8
0
  6
Continuous
 62
     0
370
     0
100
AcDbLine
 10
280.40498
 20
339.531273
 30
0.0
 11
280.308099
 21
339.531273
 31
0.0
  0
LINE
  5
81
330
70
100
AcDbEntity
  8
0
  6
Continuous
 62
     0
370
    30
100
AcDbLine
 10
279.809714
 20
340.031273
 30
0.0
 11
279.90498
 21
340.031273
 31
0.0
  0
LINE
  5
82
330
70
100
AcDbEntity
  8
0
  6
Continuous
 62
     0
370
    30
100
AcDbLine
 10
220.90498
 20
340.031273
 30
0.0
 11
279.809714
 21
340.031273
 31
0.0
  0
LINE
  5
83
330
70
100
AcDbEntity
  8
0
  6
Continuous
 62
     0
370
     0
100
AcDbLine
 10
220.40498
 20
335.531273
 30
0.0
 11
280.308099
 21
335.531273
 31
0.0
  0
LINE
  5
84
330
70
100
AcDbEntity
  8
0
  6
Continuous
 62
     0
370
     0
100
AcDbLine
 10
280.308099
 20
335.531273
 30
0.0
 11
280.40498
 21
335.531273
 31
0.0
  0
LINE
  5
85
330
70
100
AcDbEntity
  8
0
  6
Continuous
 62
     0
370
    30
100
AcDbLine
 10
279.809714
 20
335.031273
 30
0.0
 11
220.90498
 21
335.031273
 31
0.0
  0
LINE
  5
86
330
70
100
AcDbEntity
  8
0
  6
Continuous
 62
     0
370
    30
100
AcDbLine
 10
279.90498
 20
335.031273
 30
0.0
 11
279.809714
 21
335.031273
 31
0.0
  0
LINE
  5
87
330
70
100
AcDbEntity
  8
0
  6
Continuous
 62
     0
370
    30
100
AcDbLine
 10
513.40498
 20
259.031273
 30
0.0
 11
513.40498
 21
268.031272
 31
0.0
  0
LINE
  5
88
330
70
100
AcDbEntity
  8
0
  6
Continuous
 62
     0
370
    30
100
AcDbLine
 10
513.40498
 20
268.031272
 30
0.0
 11
513.40498
 21
277.031273
 31
0.0
  0
LINE
  5
89
330
70
100
AcDbEntity
  8
0
  6
Continuous
 62
     0
370
    30
100
AcDbLine
 10
287.40498
 20
277.031273
 30
0.0
 11
287.40498
 21
268.031272
 31
0.0
  0
LINE
  5
8A
330
70
100
AcDbEntity
  8
0
  6
Continuous
 62
     0
370
    30
100
AcDbLine
 10
287.40498
 20
268.031272
 30
0.0
 11
287.40498
 21
259.031273
 31
0.0
  0
ARC
  5
8B
330
70
100
AcDbEntity
  8
0
  6
Continuous
 62
     0
370
    30
100
AcDbCircle
 10
533.40498
 20
285.031273
 30
0.0
 40
8.0
100
AcDbArc
 50
270.0
 51
360.0
  0
LINE
  5
8C
330
70
100
AcDbEntity
  8
0
  6
Continuous
 62
     0
370
     0
100
AcDbLine
 10
541.40498
 20
285.031273
 30
0.0
 11
550.40498
 21
268.031272
 31
0.0
  0
LINE
  5
8D
330
70
100
AcDbEntity
  8
0
  6
Continuous
 62
     0
370
     0
100
AcDbLine
 10
533.40498
 20
277.031273
 30
0.0
 11
550.40498
 21
268.031272
 31
0.0
  0
LINE
  5
8E
330
70
100
AcDbEntity
  8
0
  6
Continuous
 62
     0
370
     0
100
AcDbLine
 10
550.40498
 20
268.031272
 30
0.0
 11
567.404883
 21
277.031222
 31
0.0
  0
LINE
  5
8F
330
70
100
AcDbEntity
  8
0
  6
Continuous
 62
     0
370
     0
100
AcDbLine
 10
550.40498
 20
268.031272
 30
0.0
 11
559.404929
 21
285.031176
 31
0.0
  0
LINE
  5
90
330
70
100
AcDbEntity
  8
0
  6
Continuous
 62
     0
370
    30
100
AcDbLine
 10
587.40498
 20
259.531273
 30
0.0
 11
587.40498
 21
276.531273
 31
0.0
  0
ARC
  5
91
330
70
100
AcDbEntity
  8
0
  6
Continuous
 62
     0
370
    30
100
AcDbCircle
 10
586.90498
 20
259.531273
 30
0.0
 40
0.5000000000000069
100
AcDbArc
 50
270.0
 51
0.0
  0
LINE
  5
92
330
70
100
AcDbEntity
  8
0
  6
Continuous
 62
     0
370
     0
100
AcDbLine
 10
586.90498
 20
259.031273
 30
0.0
 11
586.90498
 21
277.031273
 31
0.0
  0
LINE
  5
93
330
70
100
AcDbEntity
  8
0
  6
Continuous
 62
     0
370
    30
100
AcDbLine
 10
586.90498
 20
259.031273
 30
0.0
 11
513.90498
 21
259.031273
 31
0.0
  0
LINE
  5
94
330
70
100
AcDbEntity
  8
0
  6
Continuous
 62
     0
370
     0
100
AcDbLine
 10
513.90498
 20
259.031273
 30
0.0
 11
513.90498
 21
277.031273
 31
0.0
  0
ARC
  5
95
330
70
100
AcDbEntity
  8
0
  6
Continuous
 62
     0
370
    30
100
AcDbCircle
 10
513.90498
 20
259.531273
 30
0.0
 40
0.5
100
AcDbArc
 50
180.0
 51
270.0
  0
LINE
  5
96
330
70
100
AcDbEntity
  8
0
  6
Continuous
 62
     0
370
    30
100
AcDbLine
 10
541.40498
 20
334.531273
 30
0.0
 11
541.40498
 21
285.031273
 31
0.0
  0
LINE
  5
97
330
70
100
AcDbEntity
  8
0
  6
Continuous
 62
     0
370
     0
100
AcDbLine
 10
541.40498
 20
334.531273
 30
0.0
 11
559.40498
 21
334.531273
 31
0.0
  0
ARC
  5
98
330
70
100
AcDbEntity
  8
0
  6
Continuous
 62
     0
370
    30
100
AcDbCircle
 10
541.90498
 20
334.531273
 30
0.0
 40
0.5
100
AcDbArc
 50
90.0
 51
180.0
  0
ARC
  5
99
330
70
100
AcDbEntity
  8
0
  6
Continuous
 62
     0
370
    30
100
AcDbCircle
 10
579.90498
 20
339.531273
 30
0.0
 40
0.4999999999932783
100
AcDbArc
 50
360.0
 51
90.0
  0
LINE
  5
9A
330
70
100
AcDbEntity
  8
0
  6
Continuous
 62
     0
370
     0
100
AcDbLine
 10
580.40498
 20
339.531273
 30
0.0
 11
520.40498
 21
339.531273
 31
0.0
  0
LINE
  5
9B
330
70
100
AcDbEntity
  8
0
  6
Continuous
 62
     0
370
    30
100
AcDbLine
 10
520.90498
 20
340.031273
 30
0.0
 11
579.90498
 21
340.031273
 31
0.0
  0
LINE
  5
9C
330
70
100
AcDbEntity
  8
0
  6
Continuous
 62
     0
370
    30
100
AcDbLine
 10
580.40498
 20
339.531273
 30
0.0
 11
580.40498
 21
335.531273
 31
0.0
  0
LINE
  5
9D
330
70
100
AcDbEntity
  8
0
  6
Continuous
 62
     0
370
     0
100
AcDbLine
 10
520.40498
 20
335.531273
 30
0.0
 11
580.40498
 21
335.531273
 31
0.0
  0
ARC
  5
9E
330
70
100
AcDbEntity
  8
0
  6
Continuous
 62
     0
370
    30
100
AcDbCircle
 10
579.90498
 20
335.531273
 30
0.0
 40
0.5000000000004903
100
AcDbArc
 50
270.0
 51
360.0
  0
LINE
  5
9F
330
70
100
AcDbEntity
  8
0
  6
Continuous
 62
     0
370
    30
100
AcDbLine
 10
579.90498
 20
335.031273
 30
0.0
 11
520.90498
 21
335.031273
 31
0.0
  0
ARC
  5
A0
330
70
100
AcDbEntity
  8
0
  6
Continuous
 62
     0
370
    30
100
AcDbCircle
 10
520.904995
 20
335.531288
 30
0.0
 40
0.5000150271636401
100
AcDbArc
 50
180.001722
 51
269.998278
  0
LINE
  5
A1
330
70
100
AcDbEntity
  8
0
  6
Continuous
 62
     0
370
    30
100
AcDbLine
 10
520.40498
 20
335.531273
 30
0.0
 11
520.40498
 21
339.531273
 31
0.0
  0
ARC
  5
A2
330
70
100
AcDbEntity
  8
0
  6
Continuous
 62
     0
370
    30
100
AcDbCircle
 10
520.904995
 20
339.531258
 30
0.0
 40
0.5000149691619085
100
AcDbArc
 50
90.009818
 51
179.998285
  0
ARC
  5
A3
330
70
100
AcDbEntity
  8
0
  6
Continuous
 62
     0
370
    30
100
AcDbCircle
 10
558.904976
 20
334.531269
 30
0.0
 40
0.5000034422899846
100
AcDbArc
 50
0.000394
 51
89.999606
  0
LINE
  5
A4
330
70
100
AcDbEntity
  8
0
  6
Continuous
 62
     0
370
    30
100
AcDbLine
 10
559.40498
 20
285.030281
 30
0.0
 11
559.40498
 21
334.531273
 31
0.0
  0
ARC
  5
A5
330
70
100
AcDbEntity
  8
0
  6
Continuous
 62
     0
370
    30
100
AcDbCircle
 10
513.904983
 20
276.531269
 30
0.0
 40
0.5000034422905548
100
AcDbArc
 50
90.000394
 51
179.999606
  0
LINE
  5
A6
330
70
100
AcDbEntity
  8
0
  6
Continuous
 62
     0
370
    30
100
AcDbLine
 10
586.90498
 20
277.031273
 30
0.0
 11
567.403988
 21
277.031273
 31
0.0
  0
LINE
  5
A7
330
70
100
AcDbEntity
  8
0
  6
Continuous
 62
     0
370
    30
100
AcDbLine
 10
533.40498
 20
277.031273
 30
0.0
 11
513.90498
 21
277.031273
 31
0.0
  0
ARC
  5
A8
330
70
100
AcDbEntity
  8
0
  6
Continuous
 62
     0
370
    30
100
AcDbCircle
 10
586.904977
 20
276.53127
 30
0.0
 40
0.5000027706758232
100
AcDbArc
 50
0.011777
 51
89.999683
  0
ARC
  5
A9
330
70
100
AcDbEntity
  8
0
  6
Continuous
 62
     0
370
    30
100
AcDbCircle
 10
567.404936
 20
285.031229
 30
0.0
 40
8.000007004850517
100
AcDbArc
 50
180.000376
 51
269.999624
  0
LINE
  5
AA
330
70
100
AcDbEntity
  8
0
  6
Continuous
 62
     0
370
    30
100
AcDbLine
 10
513.40498
 20
259.031273
 30
0.0
 11
287.40498
 21
259.031273
 31
0.0
  0
LINE
  5
AB
330
70
100
AcDbEntity
  8
0
  6
Continuous
 62
     0
370
    30
100
AcDbLine
 10
513.40498
 20
277.031273
 30
0.0
 11
287.40498
 21
277.031273
 31
0.0
  0
ARC
  5
AC
330
70
100
AcDbEntity
  8
0
  6
Continuous
 62
     0
370
    30
100
AcDbCircle
 10
220.905004
 20
335.531297
 30
0.0
 40
0.5000244664984774
100
AcDbArc
 50
180.002803
 51
269.997197
  0
LWPOLYLINE
  5
AD
330
70
100
AcDbEntity
  8
0
  6
Continuous
 62
     0
370
    30
100
AcDbPolyline
 90
        6
 70
     0
 43
0.0
 10
280.404968
 20
335.531281
 10
280.382385
 20
335.38266
 10
280.31662
 20
335.247467
 10
280.213654
 20
335.137939
 10
280.082764
 20
335.063934
 10
279.904968
 20
335.031281
  0
LINE
  5
AE
330
70
100
AcDbEntity
  8
0
  6
Continuous
 62
     0
370
    30
100
AcDbLine
 10
220.40498
 20
335.531273
 30
0.0
 11
220.40498
 21
339.531273
 31
0.0
  0
LINE
  5
AF
330
70
100
AcDbEntity
  8
0
  6
Continuous
 62
     0
370
    30
100
AcDbLine
 10
280.40498
 20
335.531273
 30
0.0
 11
280.40498
 21
339.531273
 31
0.0
  0
ARC
  5
B0
330
70
100
AcDbEntity
  8
0
  6
Continuous
 62
     0
370
    30
100
AcDbCircle
 10
220.904995
 20
339.531258
 30
0.0
 40
0.5000149691694264
100
AcDbArc
 50
90.009818
 51
179.998285
  0
ARC
  5
B1
330
70
100
AcDbEntity
  8
0
  6
Continuous
 62
     0
370
    30
100
AcDbCircle
 10
279.904965
 20
339.531258
 30
0.0
 40
0.5000149691623702
100
AcDbArc
 50
0.001715
 51
89.990182
  0
ARC
  5
B2
330
70
100
AcDbEntity
  8
0
  6
Continuous
 62
     0
370
    30
100
AcDbCircle
 10
241.904983
 20
334.531269
 30
0.0
 40
0.5000034422859629
100
AcDbArc
 50
90.000394
 51
179.999606
  0
LINE
  5
B3
330
70
100
AcDbEntity
  8
0
  6
Continuous
 62
     0
370
    30
100
AcDbLine
 10
241.40498
 20
285.030281
 30
0.0
 11
241.40498
 21
334.531273
 31
0.0
  0
ARC
  5
B4
330
70
100
AcDbEntity
  8
0
  6
Continuous
 62
     0
370
    30
100
AcDbCircle
 10
286.904976
 20
276.531269
 30
0.0
 40
0.5000034422815718
100
AcDbArc
 50
0.000394
 51
89.999606
  0
LINE
  5
B5
330
70
100
AcDbEntity
  8
0
  6
Continuous
 62
     0
370
    30
100
AcDbLine
 10
213.90498
 20
277.031273
 30
0.0
 11
233.405971
 21
277.031273
 31
0.0
  0
LINE
  5
B6
330
70
100
AcDbEntity
  8
0
  6
Continuous
 62
     0
370
    30
100
AcDbLine
 10
267.40498
 20
277.031273
 30
0.0
 11
286.90498
 21
277.031273
 31
0.0
  0
ARC
  5
B7
330
70
100
AcDbEntity
  8
0
  6
Continuous
 62
     0
370
    30
100
AcDbCircle
 10
213.904982
 20
276.53127
 30
0.0
 40
0.5000027706861299
100
AcDbArc
 50
90.000317
 51
179.988223
  0
ARC
  5
B8
330
70
100
AcDbEntity
  8
0
  6
Continuous
 62
     0
370
    30
100
AcDbCircle
 10
233.405024
 20
285.031229
 30
0.0
 40
8.000007004863338
100
AcDbArc
 50
270.000376
 51
359.999624
  0
ENDBLK
  5
BA
330
70
100
AcDbEntity
  8
0
100
AcDbBlockEnd
  0
BLOCK
  5
D6
330
BC
100
AcDbEntity
  8
0
100
AcDbBlockBegin
  2
c
 70
     0
 10
179.944763
 20
280.138855
 30
0.0
  3
c
  1

  0
LWPOLYLINE
  5
BD
330
BC
100
AcDbEntity
  8
0
  6
Continuous
 62
     0
370
     0
100
AcDbPolyline
 90
       41
 70
     0
 43
0.0
 10
725.303284
 20
594.96875
 10
724.156128
 20
594.989197
 10
723.011597
 20
595.050781
 10
721.872437
 20
595.15387
 10
720.741455
 20
595.298828
 10
719.621643
 20
595.486267
 10
718.516357
 20
595.717041
 10
717.429321
 20
595.992249
 10
716.365051
 20
596.31311
 10
715.328125
 20
596.680969
 10
714.324524
 20
597.097229
 10
713.360901
 20
597.563477
 10
712.44519
 20
598.081238
 10
711.587219
 20
598.651489
 10
710.79834
 20
599.274902
 10
710.091003
 20
599.951416
 10
709.480286
 20
600.678101
 10
708.981934
 20
601.451355
 10
708.611023
 20
602.263855
 10
708.381836
 20
603.105164
 10
708.303406
 20
603.961731
 10
708.379272
 20
604.818298
 10
708.60614
 20
605.659973
 10
708.974731
 20
606.473022
 10
709.471252
 20
607.24707
 10
710.080322
 20
607.974792
 10
710.786011
 20
608.651855
 10
711.573914
 20
609.276184
 10
712.430847
 20
609.847351
 10
713.345398
 20
610.365845
 10
714.308167
 20
610.832947
 10
715.311401
 20
611.250061
 10
716.347717
 20
611.618713
 10
717.41156
 20
611.940369
 10
718.498291
 20
612.216248
 10
719.603394
 20
612.447754
 10
720.722961
 20
612.635925
 10
721.853821
 20
612.781494
 10
722.99292
 20
612.885254
 10
724.137329
 20
612.947571
 10
725.303284
 20
612.96875
  0
ARC
  5
BE
330
BC
100
AcDbEntity
  8
0
  6
Continuous
 62
     0
370
     0
100
AcDbCircle
 10
725.303274
 20
603.968719
 30
0.0
 40
8.5
100
AcDbArc
 50
0.0
 51
180.0
  0
ARC
  5
BF
330
BC
100
AcDbEntity
  8
0
  6
Continuous
 62
     0
370
     0
100
AcDbCircle
 10
725.303274
 20
603.968719
 30
0.0
 40
8.5
100
AcDbArc
 50
180.0
 51
0.0
  0
ARC
  5
C0
330
BC
100
AcDbEntity
  8
0
  6
Continuous
 62
     0
370
    30
100
AcDbCircle
 10
725.303274
 20
603.968719
 30
0.0
 40
9.0
100
AcDbArc
 50
0.0
 51
180.0
  0
ARC
  5
C1
330
BC
100
AcDbEntity
  8
0
  6
Continuous
 62
     0
370
    30
100
AcDbCircle
 10
725.303274
 20
603.968719
 30
0.0
 40
9.0
100
AcDbArc
 50
180.0
 51
0.0
  0
LINE
  5
C2
330
BC
100
AcDbEntity
  8
0
  6
Continuous
 62
     0
370
     0
100
AcDbLine
 10
658.803273
 20
603.968719
 30
0.0
 11
658.803273
 21
612.968719
 31
0.0
  0
LINE
  5
C3
330
BC
100
AcDbEntity
  8
0
  6
Continuous
 62
     0
370
     0
100
AcDbLine
 10
658.803273
 20
594.968719
 30
0.0
 11
658.803273
 21
603.968719
 31
0.0
  0
LINE
  5
C4
330
BC
100
AcDbEntity
  8
0
  6
Continuous
 62
     0
370
     0
100
AcDbLine
 10
653.803273
 20
633.968719
 30
0.0
 11
653.803274
 21
601.559682
 31
0.0
  0
LINE
  5
C5
330
BC
100
AcDbEntity
  8
0
  6
Continuous
 62
     0
370
     0
100
AcDbLine
 10
653.803274
 20
601.559682
 30
0.0
 11
653.803273
 21
573.968719
 31
0.0
  0
LWPOLYLINE
  5
C6
330
BC
100
AcDbEntity
  8
0
  6
Continuous
 62
     0
370
    30
100
AcDbPolyline
 90
       22
 70
     0
 43
0.0
 10
653.303284
 20
574.46875
 10
653.303284
 20
574.533569
 10
653.303284
 20
574.733643
 10
653.303284
 20
575.076233
 10
653.303284
 20
575.566956
 10
653.303284
 20
576.209473
 10
653.303284
 20
577.005188
 10
653.303284
 20
577.953125
 10
653.303284
 20
579.049744
 10
653.303284
 20
580.288818
 10
653.303284
 20
581.661743
 10
653.303284
 20
583.157593
 10
653.303284
 20
584.763306
 10
653.303284
 20
586.464355
 10
653.303284
 20
588.244873
 10
653.303284
 20
590.088318
 10
653.303284
 20
591.977844
 10
653.303284
 20
593.896729
 10
653.303284
 20
595.828918
 10
653.303284
 20
597.759277
 10
653.303284
 20
599.673828
 10
653.303284
 20
601.599854
  0
LINE
  5
C7
330
BC
100
AcDbEntity
  8
0
  6
Continuous
 62
     0
370
    30
100
AcDbLine
 10
653.303274
 20
601.599833
 30
0.0
 11
653.303273
 21
633.468719
 31
0.0
  0
LINE
  5
C8
330
BC
100
AcDbEntity
  8
0
  6
Continuous
 62
     0
370
     0
100
AcDbLine
 10
657.803273
 20
601.559682
 30
0.0
 11
657.803273
 21
633.968719
 31
0.0
  0
LINE
  5
C9
330
BC
100
AcDbEntity
  8
0
  6
Continuous
 62
     0
370
     0
100
AcDbLine
 10
657.803273
 20
573.968719
 30
0.0
 11
657.803273
 21
601.559682
 31
0.0
  0
LINE
  5
CA
330
BC
100
AcDbEntity
  8
0
  6
Continuous
 62
     0
370
    30
100
AcDbLine
 10
658.303273
 20
633.468719
 30
0.0
 11
658.303274
 21
601.599833
 31
0.0
  0
LINE
  5
CB
330
BC
100
AcDbEntity
  8
0
  6
Continuous
 62
     0
370
    30
100
AcDbLine
 10
658.303274
 20
601.599833
 30
0.0
 11
658.303273
 21
574.468719
 31
0.0
  0
ARC
  5
CC
330
BC
100
AcDbEntity
  8
0
  6
Continuous
 62
     0
370
    30
100
AcDbCircle
 10
657.803258
 20
633.468704
 30
0.0
 40
0.500015027165898
100
AcDbArc
 50
0.001722
 51
89.998278
  0
ARC
  5
CD
330
BC
100
AcDbEntity
  8
0
  6
Continuous
 62
     0
370
    30
100
AcDbCircle
 10
657.803258
 20
574.468735
 30
0.0
 40
0.5000150271665144
100
AcDbArc
 50
270.001722
 51
359.998278
  0
LINE
  5
CE
330
BC
100
AcDbEntity
  8
0
  6
Continuous
 62
     0
370
    30
100
AcDbLine
 10
657.803273
 20
633.968719
 30
0.0
 11
653.803273
 21
633.968719
 31
0.0
  0
LINE
  5
CF
330
BC
100
AcDbEntity
  8
0
  6
Continuous
 62
     0
370
    30
100
AcDbLine
 10
657.803273
 20
573.968719
 30
0.0
 11
653.803273
 21
573.968719
 31
0.0
  0
ARC
  5
D0
330
BC
100
AcDbEntity
  8
0
  6
Continuous
 62
     0
370
    30
100
AcDbCircle
 10
653.803288
 20
633.468705
 30
0.0
 40
0.5000149691621409
100
AcDbArc
 50
90.001715
 51
179.990182
  0
ARC
  5
D1
330
BC
100
AcDbEntity
  8
0
  6
Continuous
 62
     0
370
    30
100
AcDbCircle
 10
653.803288
 20
574.468734
 30
0.0
 40
0.5000149691633349
100
AcDbArc
 50
180.009818
 51
269.998285
  0
ARC
  5
D2
330
BC
100
AcDbEntity
  8
0
  6
Continuous
 62
     0
370
    30
100
AcDbCircle
 10
658.803276
 20
595.468723
 30
0.0
 40
0.5000034422799072
100
AcDbArc
 50
180.000394
 51
269.999606
  0
ARC
  5
D3
330
BC
100
AcDbEntity
  8
0
  6
Continuous
 62
     0
370
    30
100
AcDbCircle
 10
658.803276
 20
612.468716
 30
0.0
 40
0.500003442282078
100
AcDbArc
 50
90.000394
 51
179.999606
  0
LINE
  5
D4
330
BC
100
AcDbEntity
  8
0
  6
Continuous
 62
     0
370
    30
100
AcDbLine
 10
725.303273
 20
594.968719
 30
0.0
 11
658.803273
 21
594.968719
 31
0.0
  0
LINE
  5
D5
330
BC
100
AcDbEntity
  8
0
  6
Continuous
 62
     0
370
    30
100
AcDbLine
 10
725.303273
 20
612.968719
 30
0.0
 11
658.803273
 21
612.968719
 31
0.0
  0
ENDBLK
  5
D7
330
BC
100
AcDbEntity
  8
0
100
AcDbBlockEnd
  0
BLOCK
  5
12C
330
D9
100
AcDbEntity
  8
0
100
AcDbBlockBegin
  2
d
 70
     0
 10
179.944763
 20
270.266083
 30
0.0
  3
d
  1

  0
LWPOLYLINE
  5
DA
330
D9
100
AcDbEntity
  8
0
  6
Continuous
 62
     0
370
     0
100
AcDbPolyline
 90
       11
 70
     0
 43
0.0
 10
690.545227
 20
468.236603
 10
692.162415
 20
467.860168
 10
693.773254
 20
467.435577
 10
695.370911
 20
466.963562
 10
696.948486
 20
466.444946
 10
698.497986
 20
465.880096
 10
700.009949
 20
465.269287
 10
701.472656
 20
464.612946
 10
702.872864
 20
463.911774
 10
704.19342
 20
463.167084
 10
705.556335
 20
462.280884
  0
ELLIPSE
  5
DB
330
D9
100
AcDbEntity
  8
0
  6
Continuous
 62
     0
370
     0
100
AcDbEllipse
 10
714.586873
 20
461.872637
 30
0.0
 11
8.0
 21
0.0
 31
0.0
210
0.0
220
0.0
230
-1.0
 40
0.707107
 41
3.141304557744882
 42
3.92699081698724
  0
LWPOLYLINE
  5
DC
330
D9
100
AcDbEntity
  8
0
  6
Continuous
 62
     0
370
     0
100
AcDbPolyline
 90
       22
 70
     0
 43
0.0
 10
690.545227
 20
468.236603
 10
691.72644
 20
468.480499
 10
692.905151
 20
468.69754
 10
694.078857
 20
468.886902
 10
695.244873
 20
469.047699
 10
696.400513
 20
469.179138
 10
697.542725
 20
469.28006
 10
698.668213
 20
469.34906
 10
699.773132
 20
469.384644
 10
700.852844
 20
469.384949
 10
701.902527
 20
469.348083
 10
702.916382
 20
469.271851
 10
703.887573
 20
469.15387
 10
704.807678
 20
468.991486
 10
705.66748
 20
468.782013
 10
706.455811
 20
468.522949
 10
707.159973
 20
468.212067
 10
707.766113
 20
467.847748
 10
708.25946
 20
467.429749
 10
708.625366
 20
466.959869
 10
708.85144
 20
466.441711
 10
708.929993
 20
465.87265
  0
LWPOLYLINE
  5
DD
330
D9
100
AcDbEntity
  8
0
  6
Continuous
 62
     0
370
     0
100
AcDbPolyline
 90
        7
 70
     0
 43
0.0
 10
708.929993
 20
465.87265
 10
708.861145
 20
465.308197
 10
708.657898
 20
464.722534
 10
708.326599
 20
464.124329
 10
707.877991
 20
463.521881
 10
707.324158
 20
462.92215
 10
706.63385
 20
462.293304
  0
LWPOLYLINE
  5
DE
330
D9
100
AcDbEntity
  8
0
  6
Continuous
 62
     0
370
     0
100
AcDbPolyline
 90
       11
 70
     0
 43
0.0
 10
685.925049
 20
476.162323
 10
686.300415
 20
475.834229
 10
686.708496
 20
475.366302
 10
687.142517
 20
474.776306
 10
687.596741
 20
474.079803
 10
688.06665
 20
473.289337
 10
688.548767
 20
472.415222
 10
689.039795
 20
471.466736
 10
689.537354
 20
470.450989
 10
690.039001
 20
469.37439
 10
690.545227
 20
468.236603
  0
LWPOLYLINE
  5
DF
330
D9
100
AcDbEntity
  8
0
  6
Continuous
 62
     0
370
     0
100
AcDbPolyline
 90
       11
 70
     0
 43
0.0
 10
695.165466
 20
476.162323
 10
694.790039
 20
475.834229
 10
694.381958
 20
475.366302
 10
693.947937
 20
474.776306
 10
693.493774
 20
474.079803
 10
693.023865
 20
473.289337
 10
692.541748
 20
472.415222
 10
692.050659
 20
471.466736
 10
691.553162
 20
470.450989
 10
691.051453
 20
469.37439
 10
690.545227
 20
468.236603
  0
LWPOLYLINE
  5
E0
330
D9
100
AcDbEntity
  8
0
  6
Continuous
 62
     0
370
     0
100
AcDbPolyline
 90
        2
 70
     0
 43
0.0
 10
694.717346
 20
467.162933
 10
695.223267
 20
469.044983
  0
ELLIPSE
  5
E1
330
D9
100
AcDbEntity
  8
0
  6
Continuous
 62
     0
370
     0
100
AcDbEllipse
 10
664.735845
 20
480.122637
 30
0.0
 11
5.196152539064805
 21
7.348469146071882
 31
0.0
210
0.0
220
0.0
230
1.0
 40
0.5
 41
6.28318524349623
 42
8.809298283767676
  0
ELLIPSE
  5
E2
330
D9
100
AcDbEntity
  8
0
  6
Continuous
 62
     0
370
     0
100
AcDbEllipse
 10
664.735845
 20
480.122637
 30
0.0
 11
5.196152539064805
 21
7.348469146071882
 31
0.0
210
0.0
220
0.0
230
1.0
 40
0.5
 41
2.52611297658809
 42
3.141592589906439
  0
ELLIPSE
  5
E3
330
D9
100
AcDbEntity
  8
0
  6
Continuous
 62
     0
370
     0
100
AcDbEllipse
 10
716.35464
 20
443.622636
 30
0.0
 11
5.196152539064805
 21
7.348469146071882
 31
0.0
210
0.0
220
0.0
230
1.0
 40
0.5
 41
6.235054135536286
 42
8.809298283767674
  0
ELLIPSE
  5
E4
330
D9
100
AcDbEntity
  8
0
  6
Continuous
 62
     0
370
     0
100
AcDbEllipse
 10
716.35464
 20
443.622636
 30
0.0
 11
5.196152539064805
 21
7.348469146071882
 31
0.0
210
0.0
220
0.0
230
1.0
 40
0.5
 41
2.526112976588089
 42
3.189723697866418
  0
ELLIPSE
  5
E5
330
D9
100
AcDbEntity
  8
0
  6
Continuous
 62
     0
370
     0
100
AcDbEllipse
 10
737.567843
 20
495.122638
 30
0.0
 11
-5.196152539064805
 21
7.348469146071882
 31
0.0
210
0.0
220
0.0
230
-1.0
 40
0.5
 41
6.283185265612924
 42
8.809298283767676
  0
ELLIPSE
  5
E6
330
D9
100
AcDbEntity
  8
0
  6
Continuous
 62
     0
370
     0
100
AcDbEllipse
 10
737.567843
 20
495.122638
 30
0.0
 11
-5.196152539064805
 21
7.348469146071882
 31
0.0
210
0.0
220
0.0
230
-1.0
 40
0.5
 41
2.52611297658809
 42
3.141592612023132
  0
LWPOLYLINE
  5
E7
330
D9
100
AcDbEntity
  8
0
  6
Continuous
 62
     0
370
     0
100
AcDbPolyline
 90
       37
 70
     0
 43
0.0
 10
762.248047
 20
484.374512
 10
762.1026
 20
485.77948
 10
761.870605
 20
487.264801
 10
761.547668
 20
488.825806
 10
761.130188
 20
490.456238
 10
760.615662
 20
492.148346
 10
760.002686
 20
493.892883
 10
759.291504
 20
495.679199
 10
758.483643
 20
497.495453
 10
757.582214
 20
499.328735
 10
756.59198
 20
501.165466
 10
755.519043
 20
502.991638
 10
754.370911
 20
504.793182
 10
753.156372
 20
506.556274
 10
751.885071
 20
508.267761
 10
750.567505
 20
509.915497
 10
749.214417
 20
511.488556
 10
747.836914
 20
512.977417
 10
746.445923
 20
514.374329
 10
745.05188
 20
515.673096
 10
743.664795
 20
516.869446
 10
742.293823
 20
517.960632
 10
740.947205
 20
518.945679
 10
739.632263
 20
519.825012
 10
738.333374
 20
520.612915
 10
737.014954
 20
521.329102
 10
735.683716
 20
521.964111
 10
734.348267
 20
522.508118
 10
733.018066
 20
522.951782
 10
731.703064
 20
523.286316
 10
730.413879
 20
523.504333
 10
729.161194
 20
523.599426
 10
727.955688
 20
523.566956
 10
726.8078
 20
523.403931
 10
725.727234
 20
523.109375
 10
724.722961
 20
522.684265
 10
723.782898
 20
522.117554
  0
LWPOLYLINE
  5
E8
330
D9
100
AcDbEntity
  8
0
  6
Continuous
 62
     0
370
     0
100
AcDbPolyline
 90
       12
 70
     0
 43
0.0
 10
758.417297
 20
473.123108
 10
759.191895
 20
473.750366
 10
759.883545
 20
474.478668
 10
760.489197
 20
475.301422
 10
761.007141
 20
476.210938
 10
761.436768
 20
477.198761
 10
761.778564
 20
478.255859
 10
762.034241
 20
479.372711
 10
762.206238
 20
480.539734
 10
762.297974
 20
481.747314
 10
762.313477
 20
482.986145
 10
762.248047
 20
484.374512
  0
ELLIPSE
  5
E9
330
D9
100
AcDbEntity
  8
0
  6
Continuous
 62
     0
370
     0
100
AcDbEllipse
 10
738.27495
 20
495.622638
 30
0.0
 11
-17.32050846354935
 21
24.49489715357294
 31
0.0
210
0.0
220
0.0
230
-0.9999999999999998
 40
0.5
 41
6.283185073882759
 42
8.728910497122401
  0
ELLIPSE
  5
EA
330
D9
100
AcDbEntity
  8
0
  6
Continuous
 62
     0
370
     0
100
AcDbEllipse
 10
738.27495
 20
495.622638
 30
0.0
 11
-17.32050846354935
 21
24.49489715357294
 31
0.0
210
0.0
220
0.0
230
-0.9999999999999998
 40
0.5
 41
2.445725189942814
 42
3.141592612023132
  0
LWPOLYLINE
  5
EB
330
D9
100
AcDbEntity
  8
0
  6
Continuous
 62
     0
370
     0
100
AcDbPolyline
 90
       46
 70
     0
 43
0.0
 10
758.713684
 20
482.345337
 10
758.565002
 20
483.769775
 10
758.325928
 20
485.278015
 10
757.991699
 20
486.864838
 10
757.558472
 20
488.523438
 10
757.023743
 20
490.2453
 10
756.386292
 20
492.020294
 10
755.646484
 20
493.8367
 10
754.806335
 20
495.68161
 10
753.869629
 20
497.540924
 10
752.841797
 20
499.399902
 10
751.729919
 20
501.243408
 10
750.542542
 20
503.056335
 10
749.289368
 20
504.824127
 10
747.98114
 20
506.53299
 10
746.629333
 20
508.170288
 10
745.245789
 20
509.725006
 10
743.842224
 20
511.187714
 10
742.430237
 20
512.550964
 10
741.020813
 20
513.809082
 10
739.624268
 20
514.958557
 10
738.249878
 20
515.997437
 10
736.905823
 20
516.925659
 10
735.590759
 20
517.749695
 10
734.260498
 20
518.497192
 10
732.914551
 20
519.162842
 10
731.561951
 20
519.736084
 10
730.212585
 20
520.206543
 10
728.877197
 20
520.56488
 10
727.566956
 20
520.802612
 10
726.293396
 20
520.912903
 10
725.068054
 20
520.890442
 10
723.9021
 20
520.731934
 10
722.806091
 20
520.436157
 10
721.789673
 20
520.00415
 10
720.861206
 20
519.439148
 10
720.02771
 20
518.74646
 10
719.294556
 20
517.933472
 10
718.665344
 20
517.009277
 10
718.141907
 20
515.984375
 10
717.724487
 20
514.870361
 10
717.41156
 20
513.679565
 10
717.200256
 20
512.424805
 10
717.086365
 20
511.118713
 10
717.064636
 20
509.773865
 10
717.129089
 20
508.399963
  0
LWPOLYLINE
  5
EC
330
D9
100
AcDbEntity
  8
0
  6
Continuous
 62
     0
370
     0
100
AcDbPolyline
 90
       30
 70
     0
 43
0.0
 10
731.648376
 20
479.914246
 10
733.021545
 20
478.561371
 10
734.395081
 20
477.306732
 10
735.759277
 20
476.154205
 10
737.105286
 20
475.106018
 10
738.425232
 20
474.162811
 10
739.712402
 20
473.323578
 10
740.998169
 20
472.565552
 10
742.302246
 20
471.880463
 10
743.61676
 20
471.27832
 10
744.932922
 20
470.768768
 10
746.241211
 20
470.360992
 10
747.531433
 20
470.063202
 10
748.793152
 20
469.882629
 10
750.015747
 20
469.825012
 10
751.18866
 20
469.894531
 10
752.301697
 20
470.093567
 10
753.345459
 20
470.422577
 10
754.311401
 20
470.879944
 10
755.192017
 20
471.462128
 10
755.981323
 20
472.163727
 10
756.674683
 20
472.97757
 10
757.269165
 20
473.894989
 10
757.763306
 20
474.906097
 10
758.157104
 20
476.000061
 10
758.452087
 20
477.165436
 10
758.651184
 20
478.390472
 10
758.75824
 20
479.663422
 10
758.778137
 20
480.972778
 10
758.713684
 20
482.345337
  0
LWPOLYLINE
  5
ED
330
D9
100
AcDbEntity
  8
0
  6
Continuous
 62
     0
370
     0
100
AcDbPolyline
 90
        9
 70
     0
 43
0.0
 10
717.129089
 20
508.399963
 10
717.280701
 20
506.953217
 10
717.525574
 20
505.420197
 10
717.868652
 20
503.806396
 10
718.313843
 20
502.118988
 10
718.863831
 20
500.366943
 10
719.519714
 20
498.561035
 10
720.280945
 20
496.713562
 10
721.256104
 20
494.611176
  0
ELLIPSE
  5
EE
330
D9
100
AcDbEntity
  8
0
  6
Continuous
 62
     0
370
    30
100
AcDbEllipse
 10
876.514326
 20
330.372632
 30
0.0
 11
-5.196152539064805
 21
-7.348469146071882
 31
0.0
210
0.0
220
0.0
230
-1.0
 40
0.5
 41
6.236772001111044
 42
8.469461310976186
  0
ELLIPSE
  5
EF
330
D9
100
AcDbEntity
  8
0
  6
Continuous
 62
     0
370
    30
100
AcDbEllipse
 10
876.514326
 20
330.372632
 30
0.0
 11
-5.196152539064805
 21
-7.348469146071882
 31
0.0
210
0.0
220
0.0
230
-1.0
 40
0.5
 41
2.1862760037966
 42
3.187960739867688
  0
ELLIPSE
  5
F0
330
D9
100
AcDbEntity
  8
0
  6
Continuous
 62
     0
370
    30
100
AcDbEllipse
 10
716.708193
 20
443.372636
 30
0.0
 11
5.196152539064805
 21
7.348469146071882
 31
0.0
210
0.0
220
0.0
230
1.0
 40
0.5
 41
6.283185243496231
 42
7.23850195697278
  0
ELLIPSE
  5
F1
330
D9
100
AcDbEntity
  8
0
  6
Continuous
 62
     0
370
    30
100
AcDbEllipse
 10
716.708193
 20
443.372636
 30
0.0
 11
5.196152539064805
 21
7.348469146071882
 31
0.0
210
0.0
220
0.0
230
1.0
 40
0.5
 41
0.9553166497931933
 42
3.141592589906437
  0
LWPOLYLINE
  5
F2
330
D9
100
AcDbEntity
  8
0
  6
Continuous
 62
     0
370
     0
100
AcDbPolyline
 90
       11
 70
     0
 43
0.0
 10
907.296082
 20
326.161316
 10
906.920776
 20
325.832916
 10
906.512634
 20
325.364594
 10
906.078918
 20
324.774872
 10
905.624817
 20
324.078186
 10
905.155029
 20
323.287781
 10
904.673218
 20
322.414215
 10
904.182312
 20
321.465942
 10
903.684998
 20
320.450806
 10
903.183594
 20
319.374664
 10
902.677307
 20
318.236603
  0
LWPOLYLINE
  5
F3
330
D9
100
AcDbEntity
  8
0
  6
Continuous
 62
     0
370
     0
100
AcDbPolyline
 90
       11
 70
     0
 43
0.0
 10
898.058472
 20
326.161316
 10
898.433777
 20
325.832916
 10
898.841919
 20
325.364594
 10
899.275635
 20
324.774872
 10
899.729736
 20
324.078186
 10
900.199524
 20
323.287781
 10
900.681335
 20
322.414215
 10
901.172241
 20
321.465942
 10
901.669556
 20
320.450806
 10
902.170959
 20
319.374664
 10
902.677307
 20
318.236603
  0
LWPOLYLINE
  5
F4
330
D9
100
AcDbEntity
  8
0
  6
Continuous
 62
     0
370
     0
100
AcDbPolyline
 90
       11
 70
     0
 43
0.0
 10
902.677307
 20
318.236603
 10
904.303467
 20
317.85788
 10
905.923157
 20
317.43045
 10
907.529663
 20
316.9552
 10
909.115662
 20
316.43277
 10
910.673096
 20
315.863556
 10
912.192017
 20
315.247925
 10
913.661011
 20
314.586243
 10
915.06604
 20
313.879242
 10
916.389587
 20
313.128357
 10
917.733093
 20
312.249268
  0
LWPOLYLINE
  5
F5
330
D9
100
AcDbEntity
  8
0
  6
Continuous
 62
     0
370
     0
100
AcDbPolyline
 90
       28
 70
     0
 43
0.0
 10
902.677307
 20
318.236603
 10
903.848267
 20
318.478485
 10
905.016846
 20
318.693939
 10
906.180542
 20
318.882233
 10
907.336853
 20
319.042572
 10
908.483032
 20
319.174103
 10
909.616211
 20
319.275604
 10
910.733032
 20
319.345856
 10
911.829773
 20
319.38327
 10
912.902161
 20
319.3862
 10
913.945557
 20
319.352783
 10
914.954163
 20
319.280823
 10
915.921387
 20
319.16806
 10
916.839783
 20
319.011932
 10
917.699585
 20
318.809906
 10
918.490417
 20
318.559235
 10
919.200623
 20
318.257812
 10
919.816223
 20
317.904388
 10
920.322937
 20
317.498016
 10
920.706909
 20
317.040192
 10
920.955261
 20
316.53421
 10
921.05896
 20
315.985962
 10
921.014221
 20
315.403687
 10
920.82251
 20
314.796631
 10
920.49115
 20
314.174927
 10
920.031616
 20
313.547791
 10
919.45752
 20
312.923401
 10
918.765991
 20
312.293365
  0
ELLIPSE
  5
F6
330
D9
100
AcDbEntity
  8
0
  6
Continuous
 62
     0
370
     0
100
AcDbEllipse
 10
928.840228
 20
293.372631
 30
0.0
 11
-4.907477398005649
 21
-6.940220860179
 31
0.0
210
0.0
220
0.0
230
-1.0
 40
0.5
 41
3.757072330591496
 42
6.898664984181294
  0
ELLIPSE
  5
F7
330
D9
100
AcDbEntity
  8
0
  6
Continuous
 62
     0
370
     0
100
AcDbEllipse
 10
928.840228
 20
293.372631
 30
0.0
 11
-4.907477398005649
 21
-6.940220860179
 31
0.0
210
0.0
220
0.0
230
-1.0
 40
0.5
 41
0.6154796770017075
 42
3.757072330591496
  0
ELLIPSE
  5
F8
330
D9
100
AcDbEntity
  8
0
  6
Continuous
 62
     0
370
     0
100
AcDbEllipse
 10
928.486674
 20
293.622631
 30
0.0
 11
-5.196152539064805
 21
-7.348469146071882
 31
0.0
210
0.0
220
0.0
230
-1.0
 40
0.5
 41
6.280169656867463
 42
6.898664984181291
  0
ELLIPSE
  5
F9
330
D9
100
AcDbEntity
  8
0
  6
Continuous
 62
     0
370
     0
100
AcDbEllipse
 10
928.486674
 20
293.622631
 30
0.0
 11
-5.196152539064805
 21
-7.348469146071882
 31
0.0
210
0.0
220
0.0
230
-1.0
 40
0.5
 41
0.6154796770017051
 42
3.144856619385143
  0
ELLIPSE
  5
FA
330
D9
100
AcDbEntity
  8
0
  6
Continuous
 62
     0
370
     0
100
AcDbEllipse
 10
876.867879
 20
330.122632
 30
0.0
 11
-5.196152539064805
 21
-7.348469146071882
 31
0.0
210
0.0
220
0.0
230
-1.0
 40
0.5
 41
0.0000000636833596
 42
0.6154796770017045
  0
ELLIPSE
  5
FB
330
D9
100
AcDbEntity
  8
0
  6
Continuous
 62
     0
370
     0
100
AcDbEllipse
 10
876.867879
 20
330.122632
 30
0.0
 11
-5.196152539064805
 21
-7.348469146071882
 31
0.0
210
0.0
220
0.0
230
-1.0
 40
0.5
 41
0.6154796770017045
 42
3.141592717273151
  0
ELLIPSE
  5
FC
330
D9
100
AcDbEntity
  8
0
  6
Continuous
 62
     0
370
     0
100
AcDbEllipse
 10
949.699878
 20
345.122633
 30
0.0
 11
-5.196152539064805
 21
7.348469146071882
 31
0.0
210
0.0
220
0.0
230
-1.0
 40
0.5
 41
2.52611297658809
 42
3.141592612023129
  0
ELLIPSE
  5
FD
330
D9
100
AcDbEntity
  8
0
  6
Continuous
 62
     0
370
     0
100
AcDbEllipse
 10
949.699878
 20
345.122633
 30
0.0
 11
-5.196152539064805
 21
7.348469146071882
 31
0.0
210
0.0
220
0.0
230
-1.0
 40
0.5
 41
6.283185265612927
 42
8.809298283767676
  0
LWPOLYLINE
  5
FE
330
D9
100
AcDbEntity
  8
0
  6
Continuous
 62
     0
370
     0
100
AcDbPolyline
 90
       10
 70
     0
 43
0.0
 10
970.555908
 20
323.127747
 10
971.39502
 20
323.816986
 10
972.133301
 20
324.622894
 10
972.767944
 20
325.535797
 10
973.298035
 20
326.54483
 10
973.724121
 20
327.638275
 10
974.048279
 20
328.803894
 10
974.273926
 20
330.029297
 10
974.405579
 20
331.302155
 10
974.448608
 20
332.62262
  0
LWPOLYLINE
  5
FF
330
D9
100
AcDbEntity
  8
0
  6
Continuous
 62
     0
370
     0
100
AcDbPolyline
 90
       38
 70
     0
 43
0.0
 10
974.448608
 20
332.62262
 10
974.407837
 20
333.965729
 10
974.281799
 20
335.395447
 10
974.065369
 20
336.907776
 10
973.75415
 20
338.497223
 10
973.344849
 20
340.156769
 10
972.835388
 20
341.877686
 10
972.225037
 20
343.649841
 10
971.514526
 20
345.461761
 10
970.706299
 20
347.300781
 10
969.804199
 20
349.153412
 10
968.813721
 20
351.005554
 10
967.741821
 20
352.842926
 10
966.596619
 20
354.651398
 10
965.387573
 20
356.417267
 10
964.124695
 20
358.127777
 10
962.818726
 20
359.771301
 10
961.480713
 20
361.337555
 10
960.121521
 20
362.817871
 10
958.751831
 20
364.205292
 10
957.381958
 20
365.494568
 10
956.021362
 20
366.682159
 10
954.678589
 20
367.766205
 10
953.36145
 20
368.746338
 10
952.049744
 20
369.641052
 10
950.711426
 20
370.469879
 10
949.353577
 20
371.222504
 10
947.984802
 20
371.888519
 10
946.614319
 20
372.457886
 10
945.252258
 20
372.921295
 10
943.909302
 20
373.270386
 10
942.596252
 20
373.497986
 10
941.324158
 20
373.598572
 10
940.103882
 20
373.568237
 10
938.945557
 20
373.40509
 10
937.858765
 20
373.109192
 10
936.851868
 20
372.682709
 10
935.914917
 20
372.117523
  0
ELLIPSE
  5
100
330
D9
100
AcDbEntity
  8
0
  6
Continuous
 62
     0
370
     0
100
AcDbEllipse
 10
950.406984
 20
345.622633
 30
0.0
 11
-17.32050846354934
 21
24.49489715357294
 31
0.0
210
0.0
220
0.0
230
-0.9999999999999998
 40
0.5
 41
2.52611297658809
 42
3.141592853406882
  0
ELLIPSE
  5
101
330
D9
100
AcDbEntity
  8
0
  6
Continuous
 62
     0
370
     0
100
AcDbEllipse
 10
950.406984
 20
345.622633
 30
0.0
 11
-17.32050846354934
 21
24.49489715357294
 31
0.0
210
0.0
220
0.0
230
-0.9999999999999998
 40
0.5
 41
6.283183636207275
 42
8.809298283767676
  0
LWPOLYLINE
  5
102
330
D9
100
AcDbEntity
  8
0
  6
Continuous
 62
     0
370
     0
100
AcDbPolyline
 90
       29
 70
     0
 43
0.0
 10
943.780396
 20
329.914246
 10
945.118225
 20
328.59491
 10
946.45282
 20
327.37207
 10
947.775452
 20
326.248535
 10
949.078003
 20
325.225555
 10
950.355225
 20
324.301758
 10
951.644348
 20
323.448792
 10
952.957336
 20
322.66272
 10
954.286682
 20
321.953674
 10
955.623962
 20
321.331573
 10
956.959961
 20
320.805847
 10
958.284851
 20
320.385284
 10
959.588257
 20
320.077545
 10
960.85968
 20
319.889099
 10
962.088501
 20
319.82489
 10
963.264587
 20
319.888123
 10
964.378174
 20
320.08017
 10
965.420288
 20
320.400452
 10
966.38324
 20
320.846405
 10
967.260376
 20
321.413696
 10
968.046448
 20
322.09613
 10
968.737732
 20
322.885986
 10
969.332031
 20
323.774353
 10
969.828613
 20
324.751129
 10
970.22821
 20
325.805603
 10
970.532776
 20
326.926605
 10
970.745605
 20
328.102875
 10
970.870667
 20
329.323181
 10
970.913086
 20
330.62262
  0
LWPOLYLINE
  5
103
330
D9
100
AcDbEntity
  8
0
  6
Continuous
 62
     0
370
     0
100
AcDbPolyline
 90
       10
 70
     0
 43
0.0
 10
929.193787
 20
360.12262
 10
929.238464
 20
358.726685
 10
929.37677
 20
357.236176
 10
929.614685
 20
355.655823
 10
929.95697
 20
353.992188
 10
930.407227
 20
352.253845
 10
930.967468
 20
350.451202
 10
931.638
 20
348.596497
 10
932.417358
 20
346.703491
 10
933.388123
 20
344.611176
  0
LWPOLYLINE
  5
104
330
D9
100
AcDbEntity
  8
0
  6
Continuous
 62
     0
370
     0
100
AcDbPolyline
 90
       46
 70
     0
 43
0.0
 10
970.913086
 20
330.62262
 10
970.87085
 20
331.979492
 10
970.740051
 20
333.425995
 10
970.515381
 20
334.957825
 10
970.192139
 20
336.569031
 10
969.767029
 20
338.251953
 10
969.237976
 20
339.997192
 10
968.604431
 20
341.793701
 10
967.867493
 20
343.629059
 10
967.029968
 20
345.489594
 10
966.096375
 20
347.360779
 10
965.072998
 20
349.22757
 10
963.967651
 20
351.074738
 10
962.789307
 20
352.88736
 10
961.548279
 20
354.651215
 10
960.255615
 20
356.353088
 10
958.922852
 20
357.98114
 10
957.561584
 20
359.525146
 10
956.183472
 20
360.976654
 10
954.799622
 20
362.329071
 10
953.420593
 20
363.577759
 10
952.05603
 20
364.719879
 10
950.714539
 20
365.754333
 10
949.395264
 20
366.687317
 10
948.053833
 20
367.550171
 10
946.68927
 20
368.338043
 10
945.310242
 20
369.039795
 10
943.926453
 20
369.644592
 10
942.54834
 20
370.142303
 10
941.187012
 20
370.523651
 10
939.854126
 20
370.780762
 10
938.56134
 20
370.907288
 10
937.320251
 20
370.898804
 10
936.141785
 20
370.752838
 10
935.036194
 20
370.469238
 10
934.012634
 20
370.050018
 10
933.078857
 20
369.499359
 10
932.24115
 20
368.823547
 10
931.503967
 20
368.03067
 10
930.870178
 20
367.130371
 10
930.340881
 20
366.133545
 10
929.915527
 20
365.051971
 10
929.592102
 20
363.89798
 10
929.367188
 20
362.684052
 10
929.236206
 20
361.422577
 10
929.193787
 20
360.12262
  0
LWPOLYLINE
  5
105
330
D9
100
AcDbEntity
  8
0
  6
Continuous
 62
     0
370
    30
100
AcDbPolyline
 90
       19
 70
     0
 43
0.0
 10
933.328369
 20
344.568909
 10
932.476013
 20
346.383545
 10
931.710632
 20
348.194092
 10
931.036072
 20
349.991852
 10
930.455627
 20
351.768158
 10
929.972168
 20
353.514526
 10
929.588013
 20
355.222717
 10
929.305298
 20
356.884613
 10
929.125549
 20
358.492615
 10
929.049927
 20
360.039215
 10
929.079224
 20
361.517334
 10
929.213928
 20
362.920288
 10
929.454163
 20
364.241577
 10
929.799744
 20
365.475006
 10
930.250244
 20
366.614349
 10
930.804688
 20
367.65329
 10
931.460938
 20
368.585358
 10
932.21637
 20
369.404114
 10
933.086487
 20
370.117554
  0
LWPOLYLINE
  5
106
330
D9
100
AcDbEntity
  8
0
  6
Continuous
 62
     0
370
    30
100
AcDbPolyline
 90
       19
 70
     0
 43
0.0
 10
967.727478
 20
321.127747
 10
966.787048
 20
320.556549
 10
965.765137
 20
320.114349
 10
964.66925
 20
319.803436
 10
963.506287
 20
319.624023
 10
962.283142
 20
319.576019
 10
961.006165
 20
319.658447
 10
959.681335
 20
319.869598
 10
958.314575
 20
320.207367
 10
956.911865
 20
320.669678
 10
955.479492
 20
321.253815
 10
954.023804
 20
321.956726
 10
952.551453
 20
322.774689
 10
951.069092
 20
323.703857
 10
949.583679
 20
324.739563
 10
948.102234
 20
325.87674
 10
946.631775
 20
327.109924
 10
945.179382
 20
328.433167
 10
943.720642
 20
329.871979
  0
LINE
  5
107
330
D9
100
AcDbEntity
  8
0
  6
Continuous
 62
     0
370
    30
100
AcDbLine
 10
967.727493
 20
321.127736
 30
0.0
 11
970.55592
 21
323.127736
 31
0.0
  0
LINE
  5
108
330
D9
100
AcDbEntity
  8
0
  6
Continuous
 62
     0
370
    30
100
AcDbLine
 10
933.086475
 20
370.117529
 30
0.0
 11
935.914903
 21
372.11753
 31
0.0
  0
LWPOLYLINE
  5
109
330
D9
100
AcDbEntity
  8
0
  6
Continuous
 62
     0
370
    30
100
AcDbPolyline
 90
       37
 70
     0
 43
0.0
 10
974.595032
 20
332.87262
 10
974.542786
 20
334.402313
 10
974.386414
 20
335.995148
 10
974.127075
 20
337.64325
 10
973.766357
 20
339.339142
 10
973.305908
 20
341.075043
 10
972.748169
 20
342.842773
 10
972.096008
 20
344.633789
 10
971.352539
 20
346.439545
 10
970.52124
 20
348.251434
 10
969.606506
 20
350.060669
 10
968.612793
 20
351.858429
 10
967.544617
 20
353.636017
 10
966.40741
 20
355.384827
 10
965.206848
 20
357.096375
 10
963.948547
 20
358.762177
 10
962.638733
 20
360.374207
 10
961.283752
 20
361.92453
 10
959.890259
 20
363.40567
 10
958.464905
 20
364.810364
 10
957.014648
 20
366.131805
 10
955.546326
 20
367.363525
 10
954.067078
 20
368.499603
 10
952.583862
 20
369.534363
 10
951.103638
 20
370.463013
 10
949.63324
 20
371.280975
 10
948.179443
 20
371.98407
 10
946.74884
 20
372.568817
 10
945.347717
 20
373.032074
 10
943.982361
 20
373.371307
 10
942.658691
 20
373.58429
 10
941.38269
 20
373.668884
 10
940.160156
 20
373.623413
 10
938.997559
 20
373.447083
 10
937.901672
 20
373.139557
 10
936.879456
 20
372.70108
 10
935.914917
 20
372.117523
  0
LWPOLYLINE
  5
10A
330
D9
100
AcDbEntity
  8
0
  6
Continuous
 62
     0
370
    30
100
AcDbPolyline
 90
       10
 70
     0
 43
0.0
 10
970.555908
 20
323.127747
 10
971.385681
 20
323.803162
 10
972.126221
 20
324.59201
 10
972.773193
 20
325.488556
 10
973.324219
 20
326.486877
 10
973.777405
 20
327.580902
 10
974.131348
 20
328.76474
 10
974.38562
 20
330.032928
 10
974.5401
 20
331.379883
 10
974.595032
 20
332.87262
  0
LWPOLYLINE
  5
10B
330
D9
100
AcDbEntity
  8
0
  6
Continuous
 62
     0
370
    30
100
AcDbPolyline
 90
       26
 70
     0
 43
0.0
 10
944.50354
 20
352.470978
 10
945.072571
 20
352.776794
 10
945.712036
 20
352.946075
 10
946.4021
 20
352.979889
 10
947.131653
 20
352.884888
 10
947.890381
 20
352.667755
 10
948.669678
 20
352.334595
 10
949.461609
 20
351.891571
 10
950.25592
 20
351.346375
 10
951.041931
 20
350.707214
 10
951.808655
 20
349.983459
 10
952.544678
 20
349.18634
 10
953.239075
 20
348.328247
 10
953.881104
 20
347.422424
 10
954.460876
 20
346.482635
 10
954.969666
 20
345.523376
 10
955.399231
 20
344.559204
 10
955.742981
 20
343.604431
 10
955.995422
 20
342.672791
 10
956.152405
 20
341.77713
 10
956.210083
 20
340.929413
 10
956.165466
 20
340.139496
 10
956.015625
 20
339.417786
 10
955.757324
 20
338.77536
 10
955.388428
 20
338.225525
 10
954.908081
 20
337.782776
  0
LINE
  5
10C
330
D9
100
AcDbEntity
  8
0
  6
Continuous
 62
     0
370
    30
100
AcDbLine
 10
907.296073
 20
326.161318
 30
0.0
 11
944.503725
 21
352.471102
 31
0.0
  0
LINE
  5
10D
330
D9
100
AcDbEntity
  8
0
  6
Continuous
 62
     0
370
    30
100
AcDbLine
 10
918.749779
 20
312.214903
 30
0.0
 11
954.89603
 21
337.774164
 31
0.0
  0
LWPOLYLINE
  5
10E
330
D9
100
AcDbEntity
  8
0
  6
Continuous
 62
     0
370
    30
100
AcDbPolyline
 90
       21
 70
     0
 43
0.0
 10
882.049622
 20
337.481232
 10
881.477295
 20
337.783722
 10
880.834961
 20
337.949127
 10
880.142334
 20
337.97879
 10
879.4104
 20
337.879425
 10
878.649719
 20
337.657776
 10
877.868469
 20
337.319824
 10
877.07489
 20
336.871979
 10
876.279419
 20
336.322021
 10
875.492676
 20
335.678009
 10
874.72583
 20
334.949646
 10
873.990173
 20
334.148224
 10
873.296875
 20
333.286224
 10
872.656677
 20
332.376862
 10
872.079163
 20
331.434204
 10
871.573486
 20
330.472717
 10
871.147705
 20
329.507172
 10
870.808411
 20
328.551971
 10
870.560669
 20
327.620361
 10
870.40918
 20
326.725342
 10
870.357483
 20
325.87262
  0
LWPOLYLINE
  5
10F
330
D9
100
AcDbEntity
  8
0
  6
Continuous
 62
     0
370
    30
100
AcDbPolyline
 90
        6
 70
     0
 43
0.0
 10
871.67157
 20
322.774292
 10
871.197632
 20
323.204346
 10
870.827026
 20
323.74408
 10
870.564819
 20
324.375885
 10
870.409363
 20
325.086243
 10
870.357483
 20
325.87262
  0
LINE
  5
110
330
D9
100
AcDbEntity
  8
0
  6
Continuous
 62
     0
370
    30
100
AcDbLine
 10
933.682827
 20
300.9711
 30
0.0
 11
917.688538
 21
312.280771
 31
0.0
  0
LINE
  5
111
330
D9
100
AcDbEntity
  8
0
  6
Continuous
 62
     0
370
    30
100
AcDbLine
 10
898.058481
 20
326.161318
 30
0.0
 11
882.064032
 21
337.471101
 31
0.0
  0
LINE
  5
112
330
D9
100
AcDbEntity
  8
0
  6
Continuous
 62
     0
370
    30
100
AcDbLine
 10
923.290521
 20
286.274162
 30
0.0
 11
871.671726
 21
322.774163
 31
0.0
  0
LWPOLYLINE
  5
113
330
D9
100
AcDbEntity
  8
0
  6
Continuous
 62
     0
370
    30
100
AcDbPolyline
 90
       26
 70
     0
 43
0.0
 10
933.683044
 20
300.970947
 10
934.161438
 20
300.535828
 10
934.534241
 20
299.988647
 10
934.796082
 20
299.348389
 10
934.949402
 20
298.627991
 10
934.99707
 20
297.839325
 10
934.942139
 20
296.992432
 10
934.787598
 20
296.097046
 10
934.537415
 20
295.165344
 10
934.19574
 20
294.210205
 10
933.767822
 20
293.245209
 10
933.260376
 20
292.28479
 10
932.681519
 20
291.343536
 10
932.040222
 20
290.435944
 10
931.346191
 20
289.575989
 10
930.610229
 20
288.776794
 10
929.843323
 20
288.050873
 10
929.056824
 20
287.409393
 10
928.26178
 20
286.861969
 10
927.469116
 20
286.416901
 10
926.688721
 20
286.081726
 10
925.928894
 20
285.862549
 10
925.198486
 20
285.765747
 10
924.50708
 20
285.797974
 10
923.866333
 20
285.965729
 10
923.290344
 20
286.274292
  0
LWPOLYLINE
  5
114
330
D9
100
AcDbEntity
  8
0
  6
Continuous
 62
     0
370
    30
100
AcDbPolyline
 90
        6
 70
     0
 43
0.0
 10
918.749634
 20
311.530426
 10
918.720703
 20
311.787964
 10
918.727539
 20
312.056
 10
918.767456
 20
312.299652
 10
918.820435
 20
312.475006
 10
918.850525
 20
312.543823
  0
ARC
  5
115
330
D9
100
AcDbEntity
  8
0
  6
Continuous
 62
     0
370
    30
100
AcDbCircle
 10
902.677277
 20
332.693514
 30
0.0
 40
8.000195926344794
100
AcDbArc
 50
234.736482
 51
305.263517
  0
LINE
  5
116
330
D9
100
AcDbEntity
  8
0
  6
Continuous
 62
     0
370
    30
100
AcDbLine
 10
871.318173
 20
323.024163
 30
0.0
 11
711.51204
 21
436.024167
 31
0.0
  0
LINE
  5
117
330
D9
100
AcDbEntity
  8
0
  6
Continuous
 62
     0
370
    30
100
AcDbLine
 10
881.710479
 20
337.721101
 30
0.0
 11
721.904346
 21
450.721105
 31
0.0
  0
LWPOLYLINE
  5
118
330
D9
100
AcDbEntity
  8
0
  6
Continuous
 62
     0
370
    30
100
AcDbPolyline
 90
       11
 70
     0
 43
0.0
 10
720.954468
 20
520.117554
 10
720.109192
 20
519.427551
 10
719.356689
 20
518.619751
 10
718.701721
 20
517.700256
 10
718.146729
 20
516.675293
 10
717.693542
 20
515.551147
 10
717.343628
 20
514.334045
 10
717.097412
 20
513.030212
 10
716.954895
 20
511.645599
 10
716.916077
 20
510.186432
 10
716.984131
 20
508.611938
  0
LWPOLYLINE
  5
119
330
D9
100
AcDbEntity
  8
0
  6
Continuous
 62
     0
370
    30
100
AcDbPolyline
 90
        9
 70
     0
 43
0.0
 10
721.196228
 20
494.568878
 10
720.3526
 20
496.364197
 10
719.593994
 20
498.15564
 10
718.924133
 20
499.934784
 10
718.346375
 20
501.693085
 10
717.863403
 20
503.422394
 10
717.477478
 20
505.114899
 10
717.190735
 20
506.762909
 10
716.984131
 20
508.611938
  0
LWPOLYLINE
  5
11A
330
D9
100
AcDbEntity
  8
0
  6
Continuous
 62
     0
370
    30
100
AcDbPolyline
 90
       19
 70
     0
 43
0.0
 10
755.595459
 20
471.127747
 10
754.655029
 20
470.55658
 10
753.633118
 20
470.11438
 10
752.537231
 20
469.803528
 10
751.374329
 20
469.624146
 10
750.151123
 20
469.576019
 10
748.874146
 20
469.658417
 10
747.549255
 20
469.869629
 10
746.182495
 20
470.207489
 10
744.779846
 20
470.669708
 10
743.347473
 20
471.253784
 10
741.891846
 20
471.956665
 10
740.419434
 20
472.774719
 10
738.937073
 20
473.703827
 10
737.451721
 20
474.739532
 10
735.970276
 20
475.87674
 10
734.499817
 20
477.109894
 10
733.047363
 20
478.433044
 10
731.588623
 20
479.871979
  0
LINE
  5
11B
330
D9
100
AcDbEntity
  8
0
  6
Continuous
 62
     0
370
    30
100
AcDbLine
 10
720.954441
 20
520.117534
 30
0.0
 11
723.782868
 21
522.117535
 31
0.0
  0
LINE
  5
11C
330
D9
100
AcDbEntity
  8
0
  6
Continuous
 62
     0
370
    30
100
AcDbLine
 10
755.595459
 20
471.127741
 30
0.0
 11
758.423886
 21
473.127741
 31
0.0
  0
LWPOLYLINE
  5
11D
330
D9
100
AcDbEntity
  8
0
  6
Continuous
 62
     0
370
    30
100
AcDbPolyline
 90
       45
 70
     0
 43
0.0
 10
758.423889
 20
473.127747
 10
759.289795
 20
473.837158
 10
760.058044
 20
474.670593
 10
760.723511
 20
475.621307
 10
761.28363
 20
476.682404
 10
761.736145
 20
477.847137
 10
762.079895
 20
479.108856
 10
762.314514
 20
480.461029
 10
762.440002
 20
481.897034
 10
762.45636
 20
483.410095
 10
762.364197
 20
484.993073
 10
762.164429
 20
486.638428
 10
761.858276
 20
488.338318
 10
761.447449
 20
490.084564
 10
760.934326
 20
491.868591
 10
760.321411
 20
493.681702
 10
759.611816
 20
495.514893
 10
758.809204
 20
497.359009
 10
757.917847
 20
499.204834
 10
756.942078
 20
501.043091
 10
755.88678
 20
502.864532
 10
754.757446
 20
504.660004
 10
753.559814
 20
506.420349
 10
752.299744
 20
508.136688
 10
750.983887
 20
509.800415
 10
749.618713
 20
511.402924
 10
748.211121
 20
512.936218
 10
746.768311
 20
514.392639
 10
745.297363
 20
515.764709
 10
743.805664
 20
517.045471
 10
742.300598
 20
518.228516
 10
740.789673
 20
519.307861
 10
739.280212
 20
520.278137
 10
737.77948
 20
521.134277
 10
736.294678
 20
521.87207
 10
734.832703
 20
522.48761
 10
733.400513
 20
522.977539
 10
732.004456
 20
523.338928
 10
730.651062
 20
523.569458
 10
729.346497
 20
523.666992
 10
728.097046
 20
523.6297
 10
726.909424
 20
523.45636
 10
725.79071
 20
523.146912
 10
724.748291
 20
522.701538
 10
723.782898
 20
522.117554
  0
LWPOLYLINE
  5
11E
330
D9
100
AcDbEntity
  8
0
  6
Continuous
 62
     0
370
    30
100
AcDbPolyline
 90
        6
 70
     0
 43
0.0
 10
742.76416
 20
487.774292
 10
743.238098
 20
488.204346
 10
743.608704
 20
488.74408
 10
743.87085
 20
489.375885
 10
744.026367
 20
490.086273
 10
744.078247
 20
490.87265
  0
LWPOLYLINE
  5
11F
330
D9
100
AcDbEntity
  8
0
  6
Continuous
 62
     0
370
    30
100
AcDbPolyline
 90
       21
 70
     0
 43
0.0
 10
732.386108
 20
502.481232
 10
732.958435
 20
502.783752
 10
733.600708
 20
502.949127
 10
734.293396
 20
502.97879
 10
735.02533
 20
502.879425
 10
735.78595
 20
502.657776
 10
736.567261
 20
502.319824
 10
737.36084
 20
501.871979
 10
738.156311
 20
501.322021
 10
738.942993
 20
500.67804
 10
739.7099
 20
499.949677
 10
740.445557
 20
499.148224
 10
741.138855
 20
498.286224
 10
741.779053
 20
497.376862
 10
742.356567
 20
496.434204
 10
742.862244
 20
495.472717
 10
743.288025
 20
494.507172
 10
743.627319
 20
493.551971
 10
743.875061
 20
492.620361
 10
744.02655
 20
491.725342
 10
744.078247
 20
490.87265
  0
LINE
  5
120
330
D9
100
AcDbEntity
  8
0
  6
Continuous
 62
     0
370
    30
100
AcDbLine
 10
706.61753
 20
462.214756
 30
0.0
 11
742.763996
 21
487.774169
 31
0.0
  0
LINE
  5
121
330
D9
100
AcDbEntity
  8
0
  6
Continuous
 62
     0
370
    30
100
AcDbLine
 10
695.164109
 20
476.161373
 30
0.0
 11
732.371691
 21
502.471107
 31
0.0
  0
LWPOLYLINE
  5
122
330
D9
100
AcDbEntity
  8
0
  6
Continuous
 62
     0
370
    30
100
AcDbPolyline
 90
        2
 70
     0
 43
0.0
 10
721.728394
 20
450.833679
 10
721.550964
 20
450.970947
  0
LWPOLYLINE
  5
123
330
D9
100
AcDbEntity
  8
0
  6
Continuous
 62
     0
370
    30
100
AcDbPolyline
 90
        2
 70
     0
 43
0.0
 10
711.158325
 20
436.274292
 10
711.347351
 20
436.152466
  0
LINE
  5
124
330
D9
100
AcDbEntity
  8
0
  6
Continuous
 62
     0
370
    30
100
AcDbLine
 10
659.539692
 20
472.774168
 30
0.0
 11
711.158487
 21
436.274167
 31
0.0
  0
LINE
  5
125
330
D9
100
AcDbEntity
  8
0
  6
Continuous
 62
     0
370
    30
100
AcDbLine
 10
669.931998
 20
487.471106
 30
0.0
 11
685.926375
 21
476.161373
 31
0.0
  0
LINE
  5
126
330
D9
100
AcDbEntity
  8
0
  6
Continuous
 62
     0
370
    30
100
AcDbLine
 10
705.556329
 20
462.280899
 30
0.0
 11
721.550793
 21
450.971105
 31
0.0
  0
LWPOLYLINE
  5
127
330
D9
100
AcDbEntity
  8
0
  6
Continuous
 62
     0
370
    30
100
AcDbPolyline
 90
        6
 70
     0
 43
0.0
 10
658.225464
 20
475.87265
 10
658.276184
 20
475.094513
 10
658.430542
 20
474.383301
 10
658.691467
 20
473.75061
 10
659.060913
 20
473.209747
 10
659.539551
 20
472.774292
  0
LWPOLYLINE
  5
128
330
D9
100
AcDbEntity
  8
0
  6
Continuous
 62
     0
370
    30
100
AcDbPolyline
 90
       21
 70
     0
 43
0.0
 10
669.917542
 20
487.481232
 10
669.345276
 20
487.783752
 10
668.702942
 20
487.949127
 10
668.010315
 20
487.97879
 10
667.278381
 20
487.879425
 10
666.5177
 20
487.657776
 10
665.73645
 20
487.319824
 10
664.942871
 20
486.871979
 10
664.1474
 20
486.322021
 10
663.360657
 20
485.67804
 10
662.593811
 20
484.949677
 10
661.858154
 20
484.148224
 10
661.164856
 20
483.286224
 10
660.524658
 20
482.376862
 10
659.947144
 20
481.434204
 10
659.441467
 20
480.472717
 10
659.015625
 20
479.507172
 10
658.676392
 20
478.551971
 10
658.42865
 20
477.620361
 10
658.2771
 20
476.725342
 10
658.225464
 20
475.87265
  0
ARC
  5
129
330
D9
100
AcDbEntity
  8
0
  6
Continuous
 62
     0
370
    30
100
AcDbCircle
 10
690.545242
 20
482.693611
 30
0.0
 40
8.000262717271163
100
AcDbArc
 50
234.735474
 51
305.264525
  0
LWPOLYLINE
  5
12A
330
D9
100
AcDbEntity
  8
0
  6
Continuous
 62
     0
370
    30
100
AcDbPolyline
 90
        5
 70
     0
 43
0.0
 10
706.718201
 20
462.543427
 10
706.695435
 20
462.49292
 10
706.648926
 20
462.353088
 10
706.60675
 20
462.149628
 10
706.586853
 20
461.87439
  0
LWPOLYLINE
  5
12B
330
D9
100
AcDbEntity
  8
0
  6
Continuous
 62
     0
370
    30
100
AcDbPolyline
 90
        2
 70
     0
 43
0.0
 10
706.617432
 20
461.530579
 10
706.586853
 20
461.871002
  0
ENDBLK
  5
12D
330
D9
100
AcDbEntity
  8
0
100
AcDbBlockEnd
  0
BLOCK
  5
149
330
12F
100
AcDbEntity
  8
0
100
AcDbBlockBegin
  2
e
 70
     0
 10
180.426666
 20
0.0
 30
0.0
  3
e
  1

  0
LWPOLYLINE
  5
130
330
12F
100
AcDbEntity
  8
0
  6
Continuous
 62
     0
370
     0
100
AcDbPolyline
 90
       41
 70
     0
 43
0.0
 10
63.155411
 20
612.96875
 10
64.302582
 20
612.948242
 10
65.447105
 20
612.886658
 10
66.58625
 20
612.783569
 10
67.717247
 20
612.638611
 10
68.837044
 20
612.451172
 10
69.942329
 20
612.220398
 10
71.029335
 20
611.94519
 10
72.093643
 20
611.624329
 10
73.130547
 20
611.25647
 10
74.134186
 20
610.84021
 10
75.097778
 20
610.373962
 10
76.013481
 20
609.856201
 10
76.871468
 20
609.28595
 10
77.660316
 20
608.662537
 10
78.367668
 20
607.986023
 10
78.978371
 20
607.259338
 10
79.476768
 20
606.486084
 10
79.847641
 20
605.673584
 10
80.076859
 20
604.832275
 10
80.155304
 20
603.975708
 10
80.079414
 20
603.119141
 10
79.85257
 20
602.277466
 10
79.483978
 20
601.464417
 10
78.987457
 20
600.690369
 10
78.378387
 20
599.962646
 10
77.672676
 20
599.285583
 10
76.884758
 20
598.661255
 10
76.027863
 20
598.090088
 10
75.113281
 20
597.571594
 10
74.150528
 20
597.104492
 10
73.147293
 20
596.687378
 10
72.11097
 20
596.318726
 10
71.047127
 20
595.99707
 10
69.960373
 20
595.721191
 10
68.855278
 20
595.489685
 10
67.735725
 20
595.301514
 10
66.604866
 20
595.155945
 10
65.465782
 20
595.052185
 10
64.321342
 20
594.989868
 10
63.155411
 20
594.96875
  0
ARC
  5
131
330
12F
100
AcDbEntity
  8
0
  6
Continuous
 62
     0
370
     0
100
AcDbCircle
 10
63.155409
 20
603.968719
 30
0.0
 40
8.5
100
AcDbArc
 50
180.0
 51
0.0
  0
ARC
  5
132
330
12F
100
AcDbEntity
  8
0
  6
Continuous
 62
     0
370
     0
100
AcDbCircle
 10
63.155409
 20
603.968719
 30
0.0
 40
8.5
100
AcDbArc
 50
0.0
 51
180.0
  0
ARC
  5
133
330
12F
100
AcDbEntity
  8
0
  6
Continuous
 62
     0
370
    30
100
AcDbCircle
 10
63.155409
 20
603.968719
 30
0.0
 40
9.0
100
AcDbArc
 50
180.0
 51
0.0
  0
ARC
  5
134
330
12F
100
AcDbEntity
  8
0
  6
Continuous
 62
     0
370
    30
100
AcDbCircle
 10
63.155409
 20
603.968719
 30
0.0
 40
9.0
100
AcDbArc
 50
0.0
 51
180.0
  0
LINE
  5
135
330
12F
100
AcDbEntity
  8
0
  6
Continuous
 62
     0
370
     0
100
AcDbLine
 10
129.655411
 20
603.968719
 30
0.0
 11
129.655411
 21
594.968719
 31
0.0
  0
LINE
  5
136
330
12F
100
AcDbEntity
  8
0
  6
Continuous
 62
     0
370
     0
100
AcDbLine
 10
129.655411
 20
612.968719
 30
0.0
 11
129.655411
 21
603.968719
 31
0.0
  0
LINE
  5
137
330
12F
100
AcDbEntity
  8
0
  6
Continuous
 62
     0
370
     0
100
AcDbLine
 10
134.655411
 20
573.968719
 30
0.0
 11
134.655409
 21
603.968719
 31
0.0
  0
LINE
  5
138
330
12F
100
AcDbEntity
  8
0
  6
Continuous
 62
     0
370
     0
100
AcDbLine
 10
134.655409
 20
603.968719
 30
0.0
 11
134.655411
 21
633.968719
 31
0.0
  0
LINE
  5
139
330
12F
100
AcDbEntity
  8
0
  6
Continuous
 62
     0
370
    30
100
AcDbLine
 10
135.155411
 20
633.468719
 30
0.0
 11
135.155409
 21
603.968719
 31
0.0
  0
LINE
  5
13A
330
12F
100
AcDbEntity
  8
0
  6
Continuous
 62
     0
370
    30
100
AcDbLine
 10
135.155409
 20
603.968719
 30
0.0
 11
135.155411
 21
574.468719
 31
0.0
  0
LINE
  5
13B
330
12F
100
AcDbEntity
  8
0
  6
Continuous
 62
     0
370
     0
100
AcDbLine
 10
130.655411
 20
603.968719
 30
0.0
 11
130.655411
 21
573.968719
 31
0.0
  0
LINE
  5
13C
330
12F
100
AcDbEntity
  8
0
  6
Continuous
 62
     0
370
     0
100
AcDbLine
 10
130.655411
 20
633.968719
 30
0.0
 11
130.655411
 21
603.968719
 31
0.0
  0
LINE
  5
13D
330
12F
100
AcDbEntity
  8
0
  6
Continuous
 62
     0
370
    30
100
AcDbLine
 10
130.155411
 20
574.468719
 30
0.0
 11
130.155409
 21
603.968719
 31
0.0
  0
LINE
  5
13E
330
12F
100
AcDbEntity
  8
0
  6
Continuous
 62
     0
370
    30
100
AcDbLine
 10
130.155409
 20
603.968719
 30
0.0
 11
130.155411
 21
633.468719
 31
0.0
  0
ARC
  5
13F
330
12F
100
AcDbEntity
  8
0
  6
Continuous
 62
     0
370
    30
100
AcDbCircle
 10
130.655426
 20
574.468735
 30
0.0
 40
0.5000150271673315
100
AcDbArc
 50
180.001722
 51
269.998278
  0
ARC
  5
140
330
12F
100
AcDbEntity
  8
0
  6
Continuous
 62
     0
370
    30
100
AcDbCircle
 10
130.655426
 20
633.468704
 30
0.0
 40
0.5000150271639563
100
AcDbArc
 50
90.001722
 51
179.998278
  0
LINE
  5
141
330
12F
100
AcDbEntity
  8
0
  6
Continuous
 62
     0
370
    30
100
AcDbLine
 10
130.655411
 20
573.968719
 30
0.0
 11
134.655411
 21
573.968719
 31
0.0
  0
LINE
  5
142
330
12F
100
AcDbEntity
  8
0
  6
Continuous
 62
     0
370
    30
100
AcDbLine
 10
130.655411
 20
633.968719
 30
0.0
 11
134.655411
 21
633.968719
 31
0.0
  0
ARC
  5
143
330
12F
100
AcDbEntity
  8
0
  6
Continuous
 62
     0
370
    30
100
AcDbCircle
 10
134.655396
 20
574.468734
 30
0.0
 40
0.5000149691635267
100
AcDbArc
 50
270.001715
 51
359.990182
  0
ARC
  5
144
330
12F
100
AcDbEntity
  8
0
  6
Continuous
 62
     0
370
    30
100
AcDbCircle
 10
134.655396
 20
633.468705
 30
0.0
 40
0.5000149691643279
100
AcDbArc
 50
0.009818
 51
89.998285
  0
ARC
  5
145
330
12F
100
AcDbEntity
  8
0
  6
Continuous
 62
     0
370
    30
100
AcDbCircle
 10
129.655407
 20
612.468716
 30
0.0
 40
0.500003442280927
100
AcDbArc
 50
0.000394
 51
89.999606
  0
ARC
  5
146
330
12F
100
AcDbEntity
  8
0
  6
Continuous
 62
     0
370
    30
100
AcDbCircle
 10
129.655407
 20
595.468723
 30
0.0
 40
0.5000034422819457
100
AcDbArc
 50
270.000394
 51
359.999606
  0
LINE
  5
147
330
12F
100
AcDbEntity
  8
0
  6
Continuous
 62
     0
370
    30
100
AcDbLine
 10
63.155411
 20
612.968719
 30
0.0
 11
129.655411
 21
612.968719
 31
0.0
  0
LINE
  5
148
330
12F
100
AcDbEntity
  8
0
  6
Continuous
 62
     0
370
    30
100
AcDbLine
 10
63.155411
 20
594.968719
 30
0.0
 11
129.655411
 21
594.968719
 31
0.0
  0
ENDBLK
  5
14A
330
12F
100
AcDbEntity
  8
0
100
AcDbBlockEnd
  0
ENDSEC
  0
SECTION
  2
ENTITIES
  0
INSERT
  5
6F
330
1F
100
AcDbEntity
  8
0
  6
Continuous
 62
   250
370
     0
100
AcDbBlockReference
  2
a
 10
179.944763
 20
270.266083
 30
0.0
  0
INSERT
  5
BB
330
1F
100
AcDbEntity
  8
0
  6
Continuous
 62
   250
370
     0
100
AcDbBlockReference
  2
b
 10
179.944763
 20
270.266083
 30
0.0
  0
INSERT
  5
D8
330
1F
100
AcDbEntity
  8
0
  6
Continuous
 62
   250
370
     0
100
AcDbBlockReference
  2
c
 10
179.944763
 20
280.138855
 30
0.0
  0
INSERT
  5
12E
330
1F
100
AcDbEntity
  8
0
  6
Continuous
 62
   250
370
     0
100
AcDbBlockReference
  2
d
 10
179.944763
 20
270.266083
 30
0.0
  0
INSERT
  5
14B
330
1F
100
AcDbEntity
  8
0
  6
Continuous
 62
   250
370
     0
100
AcDbBlockReference
  2
e
 10
180.426666
 20
0.0
 30
0.0
  0
ENDSEC
  0
SECTION
  2
OBJECTS
  0
DICTIONARY
  5
C
330
0
100
AcDbDictionary
281
     1
  3
ACAD_GROUP
350
D
  3
ACAD_LAYOUT
350
1A
  3
ACAD_MLEADERSTYLE
350
14E
  3
ACAD_MLINESTYLE
350
17
  3
ACAD_PLOTSETTINGS
350
19
  3
ACAD_PLOTSTYLENAME
350
E
  3
ACAD_VISUALSTYLE
350
2A
  3
AcDbVariableDictionary
350
14C
  0
DICTIONARY
  5
D
102
{ACAD_REACTORS
330
C
102
}
330
C
100
AcDbDictionary
281
     1
  0
DICTIONARY
  5
1A
102
{ACAD_REACTORS
330
C
102
}
330
C
100
AcDbDictionary
281
     1
  3
Layout1
350
1E
  3
Layout2
350
26
  3
Model
350
22
  0
DICTIONARY
  5
14E
102
{ACAD_REACTORS
330
C
102
}
330
C
100
AcDbDictionary
281
     1
  0
DICTIONARY
  5
17
102
{ACAD_REACTORS
330
C
102
}
330
C
100
AcDbDictionary
281
     1
  3
Standard
350
18
  0
DICTIONARY
  5
19
102
{ACAD_REACTORS
330
C
102
}
330
C
100
AcDbDictionary
281
     1
  0
ACDBDICTIONARYWDFLT
  5
E
102
{ACAD_REACTORS
330
C
102
}
330
C
100
AcDbDictionary
281
     1
  3
Normal
350
F
100
AcDbDictionaryWithDefault
340
F
  0
DICTIONARY
  5
2A
102
{ACAD_REACTORS
330
C
102
}
330
C
100
AcDbDictionary
281
     1
  3
2dWireframe
350
2F
  3
3D Hidden
350
31
  3
3dWireframe
350
30
  3
Basic
350
32
  3
Brighten
350
36
  3
ColorChange
350
3A
  3
Conceptual
350
34
  3
Dim
350
35
  3
Facepattern
350
39
  3
Flat
350
2B
  3
FlatWithEdges
350
2C
  3
Gouraud
350
2D
  3
GouraudWithEdges
350
2E
  3
Linepattern
350
38
  3
Realistic
350
33
  3
Thicken
350
37
  0
DICTIONARY
  5
14C
102
{ACAD_REACTORS
330
C
102
}
330
C
100
AcDbDictionary
281
     1
  3
PSOLHEIGHT
350
150
  3
PSOLWIDTH
350
14F
  0
LAYOUT
  5
1E
102
{ACAD_REACTORS
330
1A
102
}
330
1A
100
AcDbPlotSettings
  1

  2
none_device
  4

  6

 40
0.0
 41
0.0
 42
0.0
 43
0.0
 44
0.0
 45
0.0
 46
0.0
 47
0.0
 48
0.0
 49
0.0
140
0.0
141
0.0
142
1.0
143
1.0
 70
   688
 72
     0
 73
     0
 74
     5
  7

 75
    16
147
1.0
148
0.0
149
0.0
100
AcDbLayout
  1
Layout1
 70
     1
 71
     1
 10
0.0
 20
0.0
 11
420.0
 21
297.0
 12
0.0
 22
0.0
 32
0.0
 14
1.000000E+20
 24
1.000000E+20
 34
1.000000E+20
 15
-1.000000E+20
 25
-1.000000E+20
 35
-1.000000E+20
146
0.0
 13
0.0
 23
0.0
 33
0.0
 16
1.0
 26
0.0
 36
0.0
 17
0.0
 27
1.0
 37
0.0
 76
     0
330
1B
  0
LAYOUT
  5
26
102
{ACAD_REACTORS
330
1A
102
}
330
1A
100
AcDbPlotSettings
  1

  2
none_device
  4

  6

 40
0.0
 41
0.0
 42
0.0
 43
0.0
 44
0.0
 45
0.0
 46
0.0
 47
0.0
 48
0.0
 49
0.0
140
0.0
141
0.0
142
1.0
143
1.0
 70
   688
 72
     0
 73
     0
 74
     5
  7

 75
    16
147
1.0
148
0.0
149
0.0
100
AcDbLayout
  1
Layout2
 70
     1
 71
     2
 10
0.0
 20
0.0
 11
0.0
 21
0.0
 12
0.0
 22
0.0
 32
0.0
 14
0.0
 24
0.0
 34
0.0
 15
0.0
 25
0.0
 35
0.0
146
0.0
 13
0.0
 23
0.0
 33
0.0
 16
1.0
 26
0.0
 36
0.0
 17
0.0
 27
1.0
 37
0.0
 76
     0
330
23
  0
LAYOUT
  5
22
102
{ACAD_REACTORS
330
1A
102
}
330
1A
100
AcDbPlotSettings
  1

  2
none_device
  4

  6

 40
0.0
 41
0.0
 42
0.0
 43
0.0
 44
0.0
 45
0.0
 46
0.0
 47
0.0
 48
0.0
 49
0.0
140
0.0
141
0.0
142
1.0
143
1.0
 70
  1712
 72
     0
 73
     0
 74
     0
  7

 75
     0
147
1.0
148
0.0
149
0.0
100
AcDbLayout
  1
Model
 70
     1
 71
     0
 10
54.155411
 20
250.479202
 11
974.595032
 21
633.96875
 12
0.0
 22
0.0
 32
0.0
 14
54.155411
 24
250.479202
 34
0.0
 15
974.595032
 25
633.96875
 35
0.0
146
0.0
 13
0.0
 23
0.0
 33
0.0
 16
1.0
 26
0.0
 36
0.0
 17
0.0
 27
1.0
 37
0.0
 76
     0
330
1F
331
29
  0
MLINESTYLE
  5
18
102
{ACAD_REACTORS
330
17
102
}
330
17
100
AcDbMlineStyle
  2
Standard
 70
     0
  3

 62
   256
 51
90.0
 52
90.0
 71
     2
 49
0.5
 62
   256
  6
BYLAYER
 49
-0.5
 62
   256
  6
BYLAYER
  0
ACDBPLACEHOLDER
  5
F
102
{ACAD_REACTORS
330
E
102
}
330
E
  0
VISUALSTYLE
  5
2F
102
{ACAD_REACTORS
330
2A
102
}
330
2A
100
AcDbVisualStyle
  2
2dWireframe
 70
     4
 71
     0
 72
     2
 73
     0
 90
        0
 40
-0.6
 41
-30.0
 62
     5
 63
     7
 74
     1
 91
        4
 64
     7
 65
   257
 75
     1
175
     1
 42
1.0
 92
        0
 66
   257
 43
1.0
 76
     1
 77
     6
 78
     2
 67
     7
 79
     5
170
     0
171
     0
290
     0
174
     0
 93
        1
 44
0.0
173
     0
291
     0
 45
0.0
1001
ACAD
1000
AcDbSavedByObjectVersion
1070
     0
  0
VISUALSTYLE
  5
31
102
{ACAD_REACTORS
330
2A
102
}
330
2A
100
AcDbVisualStyle
  2
3D Hidden
 70
     6
 71
     1
 72
     2
 73
     2
 90
        0
 40
-0.6
 41
-30.0
 62
     5
 63
     7
 74
     2
 91
        2
 64
     7
 65
   257
 75
     2
175
     1
 42
40.0
 92
        0
 66
   257
 43
1.0
 76
     1
 77
     6
 78
     2
 67
     7
 79
     3
170
     0
171
     0
290
     0
174
     0
 93
        1
 44
0.0
173
     0
291
     0
 45
0.0
1001
ACAD
1000
AcDbSavedByObjectVersion
1070
     0
  0
VISUALSTYLE
  5
30
102
{ACAD_REACTORS
330
2A
102
}
330
2A
100
AcDbVisualStyle
  2
3dWireframe
 70
     5
 71
     0
 72
     2
 73
     0
 90
        0
 40
-0.6
 41
-30.0
 62
     5
 63
     7
 74
     1
 91
        4
 64
     7
 65
   257
 75
     1
175
     1
 42
1.0
 92
        0
 66
   257
 43
1.0
 76
     1
 77
     6
 78
     2
 67
     7
 79
     5
170
     0
171
     0
290
     0
174
     0
 93
        1
 44
0.0
173
     0
291
     0
 45
0.0
1001
ACAD
1000
AcDbSavedByObjectVersion
1070
     0
  0
VISUALSTYLE
  5
32
102
{ACAD_REACTORS
330
2A
102
}
330
2A
100
AcDbVisualStyle
  2
Basic
 70
     7
 71
     1
 72
     0
 73
     1
 90
        0
 40
-0.6
 41
-30.0
 62
     5
 63
     7
 74
     0
 91
        4
 64
     7
 65
   257
 75
     1
175
     1
 42
1.0
 92
        8
 66
     7
 43
1.0
 76
     1
 77
     6
 78
     2
 67
     7
 79
     5
170
     0
171
     0
290
     0
174
     0
 93
        1
 44
0.0
173
     0
291
     1
 45
0.0
1001
ACAD
1000
AcDbSavedByObjectVersion
1070
     0
  0
VISUALSTYLE
  5
36
102
{ACAD_REACTORS
330
2A
102
}
330
2A
100
AcDbVisualStyle
  2
Brighten
 70
    12
 71
     2
 72
     2
 73
     0
 90
        0
 40
-0.6
 41
-30.0
 62
     5
 63
     7
 74
     1
 91
        4
 64
     7
 65
   257
 75
     1
175
     1
 42
1.0
 92
        8
 66
     7
 43
1.0
 76
     1
 77
     6
 78
     2
 67
     7
 79
     5
170
     0
171
     0
290
     0
174
     0
 93
        1
 44
50.0
173
     0
291
     1
 45
0.0
1001
ACAD
1000
AcDbSavedByObjectVersion
1070
     0
  0
VISUALSTYLE
  5
3A
102
{ACAD_REACTORS
330
2A
102
}
330
2A
100
AcDbVisualStyle
  2
ColorChange
 70
    16
 71
     2
 72
     2
 73
     3
 90
        0
 40
-0.6
 41
-30.0
 62
     5
 63
     8
 74
     1
 91
        4
 64
     7
 65
   257
 75
     1
175
     1
 42
1.0
 92
        8
 66
     8
 43
1.0
 76
     1
 77
     6
 78
     2
 67
     7
 79
     5
170
     0
171
     0
290
     0
174
     0
 93
        1
 44
0.0
173
     0
291
     1
 45
0.0
1001
ACAD
1000
AcDbSavedByObjectVersion
1070
     0
  0
VISUALSTYLE
  5
34
102
{ACAD_REACTORS
330
2A
102
}
330
2A
100
AcDbVisualStyle
  2
Conceptual
 70
     9
 71
     3
 72
     2
 73
     0
 90
        0
 40
-0.6
 41
-30.0
 62
     5
 63
     7
 74
     2
 91
        2
 64
     7
 65
   257
 75
     1
175
     1
 42
40.0
 92
        8
 66
     7
 43
1.0
 76
     1
 77
     6
 78
     2
 67
     7
 79
     3
170
     0
171
     0
290
     0
174
     0
 93
        1
 44
0.0
173
     0
291
     0
 45
0.0
1001
ACAD
1000
AcDbSavedByObjectVersion
1070
     0
  0
VISUALSTYLE
  5
35
102
{ACAD_REACTORS
330
2A
102
}
330
2A
100
AcDbVisualStyle
  2
Dim
 70
    11
 71
     2
 72
     2
 73
     0
 90
        0
 40
-0.6
 41
-30.0
 62
     5
 63
     7
 74
     1
 91
        4
 64
     7
 65
   257
 75
     1
175
     1
 42
1.0
 92
        8
 66
     7
 43
1.0
 76
     1
 77
     6
 78
     2
 67
     7
 79
     5
170
     0
171
     0
290
     0
174
     0
 93
        1
 44
-50.0
173
     0
291
     1
 45
0.0
1001
ACAD
1000
AcDbSavedByObjectVersion
1070
     0
  0
VISUALSTYLE
  5
39
102
{ACAD_REACTORS
330
2A
102
}
330
2A
100
AcDbVisualStyle
  2
Facepattern
 70
    15
 71
     2
 72
     2
 73
     0
 90
        0
 40
-0.6
 41
-30.0
 62
     5
 63
     7
 74
     1
 91
        4
 64
     7
 65
   257
 75
     1
175
     1
 42
1.0
 92
        8
 66
     7
 43
1.0
 76
     1
 77
     6
 78
     2
 67
     7
 79
     5
170
     0
171
     0
290
     0
174
     0
 93
        1
 44
0.0
173
     0
291
     1
 45
0.0
1001
ACAD
1000
AcDbSavedByObjectVersion
1070
     0
  0
VISUALSTYLE
  5
2B
102
{ACAD_REACTORS
330
2A
102
}
330
2A
100
AcDbVisualStyle
  2
Flat
 70
     0
 71
     2
 72
     1
 73
     1
 90
        2
 40
-0.6
 41
30.0
 62
     5
 63
     7
 74
     0
 91
        4
 64
     7
 65
   257
 75
     1
175
     1
 42
1.0
 92
        8
 66
     7
 43
1.0
 76
     1
 77
     6
 78
     2
 67
     7
 79
     5
170
     0
171
     0
290
     0
174
     0
 93
       13
 44
0.0
173
     0
291
     1
 45
0.0
1001
ACAD
1000
AcDbSavedByObjectVersion
1070
     0
  0
VISUALSTYLE
  5
2C
102
{ACAD_REACTORS
330
2A
102
}
330
2A
100
AcDbVisualStyle
  2
FlatWithEdges
 70
     1
 71
     2
 72
     1
 73
     1
 90
        2
 40
-0.6
 41
30.0
 62
     5
 63
     7
 74
     1
 91
        4
 64
     7
 65
   257
 75
     1
175
     1
 42
1.0
 92
        0
 66
   257
 43
1.0
 76
     1
 77
     6
 78
     2
 67
     7
 79
     5
170
     0
171
     0
290
     0
174
     0
 93
       13
 44
0.0
173
     0
291
     1
 45
0.0
1001
ACAD
1000
AcDbSavedByObjectVersion
1070
     0
  0
VISUALSTYLE
  5
2D
102
{ACAD_REACTORS
330
2A
102
}
330
2A
100
AcDbVisualStyle
  2
Gouraud
 70
     2
 71
     2
 72
     2
 73
     1
 90
        2
 40
-0.6
 41
30.0
 62
     5
 63
     7
 74
     0
 91
        4
 64
     7
 65
   257
 75
     1
175
     1
 42
1.0
 92
        0
 66
     7
 43
1.0
 76
     1
 77
     6
 78
     2
 67
     7
 79
     5
170
     0
171
     0
290
     0
174
     0
 93
       13
 44
0.0
173
     0
291
     1
 45
0.0
1001
ACAD
1000
AcDbSavedByObjectVersion
1070
     0
  0
VISUALSTYLE
  5
2E
102
{ACAD_REACTORS
330
2A
102
}
330
2A
100
AcDbVisualStyle
  2
GouraudWithEdges
 70
     3
 71
     2
 72
     2
 73
     1
 90
        2
 40
-0.6
 41
30.0
 62
     5
 63
     7
 74
     1
 91
        4
 64
     7
 65
   257
 75
     1
175
     1
 42
1.0
 92
        0
 66
   257
 43
1.0
 76
     1
 77
     6
 78
     2
 67
     7
 79
     5
170
     0
171
     0
290
     0
174
     0
 93
       13
 44
0.0
173
     0
291
     1
 45
0.0
1001
ACAD
1000
AcDbSavedByObjectVersion
1070
     0
  0
VISUALSTYLE
  5
38
102
{ACAD_REACTORS
330
2A
102
}
330
2A
100
AcDbVisualStyle
  2
Linepattern
 70
    14
 71
     2
 72
     2
 73
     0
 90
        0
 40
-0.6
 41
-30.0
 62
     5
 63
     7
 74
     1
 91
        4
 64
     7
 65
   257
 75
     7
175
     7
 42
1.0
 92
        8
 66
     7
 43
1.0
 76
     1
 77
     6
 78
     2
 67
     7
 79
     5
170
     0
171
     0
290
     0
174
     0
 93
        1
 44
0.0
173
     0
291
     1
 45
0.0
1001
ACAD
1000
AcDbSavedByObjectVersion
1070
     0
  0
VISUALSTYLE
  5
33
102
{ACAD_REACTORS
330
2A
102
}
330
2A
100
AcDbVisualStyle
  2
Realistic
 70
     8
 71
     2
 72
     2
 73
     0
 90
        0
 40
-0.6
 41
-30.0
 62
     5
 63
     7
 74
     1
 91
        0
 64
     7
 65
   257
 75
     1
175
     1
 42
1.0
 92
        8
 66
     8
 43
1.0
 76
     1
 77
     6
 78
     2
 67
     7
 79
     5
170
     0
171
     0
290
     0
174
     0
 93
       13
 44
0.0
173
     0
291
     0
 45
0.0
1001
ACAD
1000
AcDbSavedByObjectVersion
1070
     0
  0
VISUALSTYLE
  5
37
102
{ACAD_REACTORS
330
2A
102
}
330
2A
100
AcDbVisualStyle
  2
Thicken
 70
    13
 71
     2
 72
     2
 73
     0
 90
        0
 40
-0.6
 41
-30.0
 62
     5
 63
     7
 74
     1
 91
        4
 64
     7
 65
   257
 75
     1
175
     1
 42
1.0
 92
       12
 66
     7
 43
1.0
 76
     1
 77
     6
 78
     2
 67
     7
 79
     5
170
     0
171
     0
290
     0
174
     0
 93
        1
 44
0.0
173
     0
291
     1
 45
0.0
1001
ACAD
1000
AcDbSavedByObjectVersion
1070
     0
  0
DICTIONARYVAR
  5
150
102
{ACAD_REACTORS
330
14C
102
}
330
14C
100
DictionaryVariables
280
     0
  1
80.000000
  0
DICTIONARYVAR
  5
14F
102
{ACAD_REACTORS
330
14C
102
}
330
14C
100
DictionaryVariables
280
     0
  1
5.000000
  0
ENDSEC
  0
EOF
