  0
SECTION
  2
HEADER
  9
$ACADVER
  1
AC1015
  9
$ACADMAINTVER
 70
     6
  9
$DWGCODEPAGE
  3
ANSI_1252
  9
$INSBASE
 10
0.0
 20
0.0
 30
0.0
  9
$EXTMIN
 10
192.140594
 20
182.050751
 30
0.0
  9
$EXTMAX
 10
757.085388
 20
701.452637
 30
0.0
  9
$LIMMIN
 10
192.140594
 20
182.050751
  9
$LIMMAX
 10
757.085388
 20
701.452637
  9
$ORTHOMODE
 70
     0
  9
$REGENMODE
 70
     1
  9
$FILLMODE
 70
     1
  9
$QTEXTMODE
 70
     0
  9
$MIRRTEXT
 70
     1
  9
$LTSCALE
 40
1.0
  9
$ATTMODE
 70
     1
  9
$TEXTSIZE
 40
2.5
  9
$TRACEWID
 40
1.0
  9
$TEXTSTYLE
  7
Standard
  9
$CLAYER
  8
0
  9
$CELTYPE
  6
ByLayer
  9
$CECOLOR
 62
   256
  9
$CELTSCALE
 40
1.0
  9
$DISPSILH
 70
     0
  9
$DIMSCALE
 40
1.0
  9
$DIMASZ
 40
2.5
  9
$DIMEXO
 40
0.625
  9
$DIMDLI
 40
3.75
  9
$DIMRND
 40
0.0
  9
$DIMDLE
 40
0.0
  9
$DIMEXE
 40
1.25
  9
$DIMTP
 40
0.0
  9
$DIMTM
 40
0.0
  9
$DIMTXT
 40
2.5
  9
$DIMCEN
 40
2.5
  9
$DIMTSZ
 40
0.0
  9
$DIMTOL
 70
     0
  9
$DIMLIM
 70
     0
  9
$DIMTIH
 70
     0
  9
$DIMTOH
 70
     0
  9
$DIMSE1
 70
     0
  9
$DIMSE2
 70
     0
  9
$DIMTAD
 70
     1
  9
$DIMZIN
 70
     8
  9
$DIMBLK
  1

  9
$DIMASO
 70
     1
  9
$DIMSHO
 70
     1
  9
$DIMPOST
  1

  9
$DIMAPOST
  1

  9
$DIMALT
 70
     0
  9
$DIMALTD
 70
     3
  9
$DIMALTF
 40
0.03937
  9
$DIMLFAC
 40
1.0
  9
$DIMTOFL
 70
     1
  9
$DIMTVP
 40
0.0
  9
$DIMTIX
 70
     0
  9
$DIMSOXD
 70
     0
  9
$DIMSAH
 70
     0
  9
$DIMBLK1
  1

  9
$DIMBLK2
  1

  9
$DIMSTYLE
  2
ISO-25
  9
$DIMCLRD
 70
     0
  9
$DIMCLRE
 70
     0
  9
$DIMCLRT
 70
     0
  9
$DIMTFAC
 40
1.0
  9
$DIMGAP
 40
0.625
  9
$DIMJUST
 70
     0
  9
$DIMSD1
 70
     0
  9
$DIMSD2
 70
     0
  9
$DIMTOLJ
 70
     0
  9
$DIMTZIN
 70
     8
  9
$DIMALTZ
 70
     0
  9
$DIMALTTZ
 70
     0
  9
$DIMUPT
 70
     0
  9
$DIMDEC
 70
     2
  9
$DIMTDEC
 70
     2
  9
$DIMALTU
 70
     2
  9
$DIMALTTD
 70
     3
  9
$DIMTXSTY
  7
Standard
  9
$DIMAUNIT
 70
     0
  9
$DIMADEC
 70
     0
  9
$DIMALTRND
 40
0.0
  9
$DIMAZIN
 70
     0
  9
$DIMDSEP
 70
    44
  9
$DIMATFIT
 70
     3
  9
$DIMFRAC
 70
     0
  9
$DIMLDRBLK
  1

  9
$DIMLUNIT
 70
     2
  9
$DIMLWD
 70
    -2
  9
$DIMLWE
 70
    -2
  9
$DIMTMOVE
 70
     0
  9
$LUNITS
 70
     2
  9
$LUPREC
 70
     4
  9
$SKETCHINC
 40
1.0
  9
$FILLETRAD
 40
10.0
  9
$AUNITS
 70
     0
  9
$AUPREC
 70
     0
  9
$MENU
  1
.
  9
$ELEVATION
 40
0.0
  9
$PELEVATION
 40
0.0
  9
$THICKNESS
 40
0.0
  9
$LIMCHECK
 70
     0
  9
$CHAMFERA
 40
10.0
  9
$CHAMFERB
 40
10.0
  9
$CHAMFERC
 40
20.0
  9
$CHAMFERD
 40
0.0
  9
$SKPOLY
 70
     0
  9
$TDCREATE
 40
2455554.631596088
  9
$TDUCREATE
 40
2455554.589929421
  9
$TDUPDATE
 40
2455554.6315961
  9
$TDUUPDATE
 40
2455554.589929433
  9
$TDINDWG
 40
0.0000000116
  9
$TDUSRTIMER
 40
0.0000000116
  9
$USRTIMER
 70
     1
  9
$ANGBASE
 50
0.0
  9
$ANGDIR
 70
     0
  9
$PDMODE
 70
     0
  9
$PDSIZE
 40
0.0
  9
$PLINEWID
 40
0.0
  9
$SPLFRAME
 70
     0
  9
$SPLINETYPE
 70
     6
  9
$SPLINESEGS
 70
     8
  9
$HANDSEED
  5
1D1
  9
$SURFTAB1
 70
     6
  9
$SURFTAB2
 70
     6
  9
$SURFTYPE
 70
     6
  9
$SURFU
 70
     6
  9
$SURFV
 70
     6
  9
$UCSBASE
  2

  9
$UCSNAME
  2

  9
$UCSORG
 10
0.0
 20
0.0
 30
0.0
  9
$UCSXDIR
 10
1.0
 20
0.0
 30
0.0
  9
$UCSYDIR
 10
0.0
 20
1.0
 30
0.0
  9
$UCSORTHOREF
  2

  9
$UCSORTHOVIEW
 70
     0
  9
$UCSORGTOP
 10
0.0
 20
0.0
 30
0.0
  9
$UCSORGBOTTOM
 10
0.0
 20
0.0
 30
0.0
  9
$UCSORGLEFT
 10
0.0
 20
0.0
 30
0.0
  9
$UCSORGRIGHT
 10
0.0
 20
0.0
 30
0.0
  9
$UCSORGFRONT
 10
0.0
 20
0.0
 30
0.0
  9
$UCSORGBACK
 10
0.0
 20
0.0
 30
0.0
  9
$PUCSBASE
  2

  9
$PUCSNAME
  2

  9
$PUCSORG
 10
0.0
 20
0.0
 30
0.0
  9
$PUCSXDIR
 10
1.0
 20
0.0
 30
0.0
  9
$PUCSYDIR
 10
0.0
 20
1.0
 30
0.0
  9
$PUCSORTHOREF
  2

  9
$PUCSORTHOVIEW
 70
     0
  9
$PUCSORGTOP
 10
0.0
 20
0.0
 30
0.0
  9
$PUCSORGBOTTOM
 10
0.0
 20
0.0
 30
0.0
  9
$PUCSORGLEFT
 10
0.0
 20
0.0
 30
0.0
  9
$PUCSORGRIGHT
 10
0.0
 20
0.0
 30
0.0
  9
$PUCSORGFRONT
 10
0.0
 20
0.0
 30
0.0
  9
$PUCSORGBACK
 10
0.0
 20
0.0
 30
0.0
  9
$USERI1
 70
     0
  9
$USERI2
 70
     0
  9
$USERI3
 70
     0
  9
$USERI4
 70
     0
  9
$USERI5
 70
     0
  9
$USERR1
 40
0.0
  9
$USERR2
 40
0.0
  9
$USERR3
 40
0.0
  9
$USERR4
 40
0.0
  9
$USERR5
 40
0.0
  9
$WORLDVIEW
 70
     1
  9
$SHADEDGE
 70
     3
  9
$SHADEDIF
 70
    70
  9
$TILEMODE
 70
     1
  9
$MAXACTVP
 70
    64
  9
$PINSBASE
 10
0.0
 20
0.0
 30
0.0
  9
$PLIMCHECK
 70
     0
  9
$PEXTMIN
 10
1.000000E+20
 20
1.000000E+20
 30
1.000000E+20
  9
$PEXTMAX
 10
-1.000000E+20
 20
-1.000000E+20
 30
-1.000000E+20
  9
$PLIMMIN
 10
0.0
 20
0.0
  9
$PLIMMAX
 10
420.0
 20
297.0
  9
$UNITMODE
 70
     0
  9
$VISRETAIN
 70
     1
  9
$PLINEGEN
 70
     0
  9
$PSLTSCALE
 70
     1
  9
$TREEDEPTH
 70
  3020
  9
$CMLSTYLE
  2
Standard
  9
$CMLJUST
 70
     0
  9
$CMLSCALE
 40
20.0
  9
$PROXYGRAPHICS
 70
     1
  9
$MEASUREMENT
 70
     1
  9
$CELWEIGHT
370
    -1
  9
$ENDCAPS
280
     0
  9
$JOINSTYLE
280
     0
  9
$LWDISPLAY
290
     0
  9
$INSUNITS
 70
     4
  9
$HYPERLINKBASE
  1

  9
$STYLESHEET
  1

  9
$XEDIT
290
     1
  9
$CEPSNTYPE
380
     0
  9
$PSTYLEMODE
290
     1
  9
$FINGERPRINTGUID
  2
{388EE35B-8938-416F-BEC9-5E811E13083A}
  9
$VERSIONGUID
  2
{FAEB1C32-E019-11D5-929B-00C0DF256EC4}
  9
$EXTNAMES
290
     1
  9
$PSVPSCALE
 40
0.0
  9
$OLESTARTUP
290
     0
  0
ENDSEC
  0
SECTION
  2
CLASSES
  0
CLASS
  1
ACDBDICTIONARYWDFLT
  2
AcDbDictionaryWithDefault
  3
ObjectDBX Classes
 90
        0
280
     0
281
     0
  0
CLASS
  1
VISUALSTYLE
  2
AcDbVisualStyle
  3
ObjectDBX Classes
 90
     4095
280
     0
281
     0
  0
CLASS
  1
DICTIONARYVAR
  2
AcDbDictionaryVar
  3
ObjectDBX Classes
 90
        0
280
     0
281
     0
  0
CLASS
  1
ACDBPLACEHOLDER
  2
AcDbPlaceHolder
  3
ObjectDBX Classes
 90
        0
280
     0
281
     0
  0
CLASS
  1
LAYOUT
  2
AcDbLayout
  3
ObjectDBX Classes
 90
        0
280
     0
281
     0
  0
ENDSEC
  0
SECTION
  2
TABLES
  0
TABLE
  2
VPORT
  5
8
330
0
100
AcDbSymbolTable
 70
     1
  0
VPORT
  5
29
330
8
100
AcDbSymbolTableRecord
100
AcDbViewportTableRecord
  2
*Active
 70
     0
 10
0.0
 20
0.0
 11
1.0
 21
1.0
 12
344.186916
 22
148.5
 13
0.0
 23
0.0
 14
10.0
 24
10.0
 15
10.0
 25
10.0
 16
0.0
 26
0.0
 36
1.0
 17
0.0
 27
0.0
 37
0.0
 40
297.0
 41
1.972973
 42
50.0
 43
0.0
 44
0.0
 50
0.0
 51
0.0
 71
     0
 72
   100
 73
     1
 74
     3
 75
     0
 76
     0
 77
     0
 78
     0
281
     0
 65
     1
110
0.0
120
0.0
130
0.0
111
1.0
121
0.0
131
0.0
112
0.0
122
1.0
132
0.0
 79
     0
146
0.0
  0
ENDTAB
  0
TABLE
  2
LTYPE
  5
5
330
0
100
AcDbSymbolTable
 70
     1
  0
LTYPE
  5
14
330
5
100
AcDbSymbolTableRecord
100
AcDbLinetypeTableRecord
  2
ByBlock
 70
     0
  3

 72
    65
 73
     0
 40
0.0
  0
LTYPE
  5
15
330
5
100
AcDbSymbolTableRecord
100
AcDbLinetypeTableRecord
  2
ByLayer
 70
     0
  3

 72
    65
 73
     0
 40
0.0
  0
LTYPE
  5
16
330
5
100
AcDbSymbolTableRecord
100
AcDbLinetypeTableRecord
  2
Continuous
 70
     0
  3
Solid line
 72
    65
 73
     0
 40
0.0
  0
ENDTAB
  0
TABLE
  2
LAYER
  5
2
330
0
100
AcDbSymbolTable
 70
     1
  0
LAYER
  5
10
330
2
100
AcDbSymbolTableRecord
100
AcDbLayerTableRecord
  2
0
 70
     0
 62
   106
  6
Continuous
370
     0
390
F
  0
ENDTAB
  0
TABLE
  2
STYLE
  5
3
330
0
100
AcDbSymbolTable
 70
     4
  0
STYLE
  5
11
330
3
100
AcDbSymbolTableRecord
100
AcDbTextStyleTableRecord
  2
Standard
 70
     0
 40
0.0
 41
1.0
 50
0.0
 71
     0
 42
2.5
  3
txt
  4

  0
STYLE
  5
3B
330
3
100
AcDbSymbolTableRecord
100
AcDbTextStyleTableRecord
  2
Default
 70
     0
 40
0.0
 41
1.0
 50
0.0
 71
     0
 42
0.2
  3

  4

1001
ACAD
1000
txt
1071
        0
  0
STYLE
  5
3C
330
3
100
AcDbSymbolTableRecord
100
AcDbTextStyleTableRecord
  2
ISO
 70
     0
 40
0.0
 41
1.0
 50
0.0
 71
     0
 42
0.2
  3

  4

1001
ACAD
1000
txt
1071
        0
  0
STYLE
  5
3D
330
3
100
AcDbSymbolTableRecord
100
AcDbTextStyleTableRecord
  2
GIANLU
 70
     0
 40
0.0
 41
1.0
 50
0.0
 71
     0
 42
0.2
  3

  4

1001
ACAD
1000
Arial
1071
        0
  0
ENDTAB
  0
TABLE
  2
VIEW
  5
6
330
0
100
AcDbSymbolTable
 70
     0
  0
ENDTAB
  0
TABLE
  2
UCS
  5
7
330
0
100
AcDbSymbolTable
 70
     0
  0
ENDTAB
  0
TABLE
  2
APPID
  5
9
330
0
100
AcDbSymbolTable
 70
     1
  0
APPID
  5
12
330
9
100
AcDbSymbolTableRecord
100
AcDbRegAppTableRecord
  2
ACAD
 70
     0
  0
ENDTAB
  0
TABLE
  2
DIMSTYLE
  5
A
330
0
100
AcDbSymbolTable
 70
     4
100
AcDbDimStyleTable
  0
DIMSTYLE
105
27
330
A
100
AcDbSymbolTableRecord
100
AcDbDimStyleTableRecord
  2
ISO-25
 70
     0
 41
2.5
 42
0.625
 43
3.75
 44
1.25
 73
     0
 74
     0
 77
     1
 78
     8
140
2.5
141
2.5
143
0.03937
147
0.625
171
     3
172
     1
271
     2
272
     2
274
     3
278
    44
283
     0
284
     8
340
11
  0
DIMSTYLE
105
3E
330
A
100
AcDbSymbolTableRecord
100
AcDbDimStyleTableRecord
  2
Default
 70
     0
  3
<>
 41
4.375
 42
1.05
 44
2.1
 73
     0
 74
     0
 77
     1
 78
     8
140
3.5
146
0.4
147
1.75
178
     3
271
     2
272
     3
284
     8
340
3B
341
3F
342
3F
  0
DIMSTYLE
105
46
330
A
100
AcDbSymbolTableRecord
100
AcDbDimStyleTableRecord
  2
ISO
 70
     0
  3
<>
 41
4.375
 42
1.05
 44
2.1
 73
     0
 74
     0
 77
     1
 78
     8
140
3.5
146
0.4
147
1.75
178
     3
271
     2
272
     3
284
     8
340
3C
341
3F
342
3F
  0
DIMSTYLE
105
47
330
A
100
AcDbSymbolTableRecord
100
AcDbDimStyleTableRecord
  2
zucchetti_unico
 70
     0
  3
<>
 41
3.0
 42
0.9
 44
1.8
 73
     0
 74
     0
 77
     1
 78
     8
140
3.0
146
0.6
147
1.5
176
   104
177
     3
178
     3
271
     2
272
     2
284
     8
340
3D
  0
ENDTAB
  0
TABLE
  2
BLOCK_RECORD
  5
1
330
0
100
AcDbSymbolTable
 70
     7
  0
BLOCK_RECORD
  5
1F
330
1
100
AcDbSymbolTableRecord
100
AcDbBlockTableRecord
  2
*Model_Space
340
22
  0
BLOCK_RECORD
  5
1B
330
1
100
AcDbSymbolTableRecord
100
AcDbBlockTableRecord
  2
*Paper_Space
340
1E
  0
BLOCK_RECORD
  5
23
330
1
100
AcDbSymbolTableRecord
100
AcDbBlockTableRecord
  2
*Paper_Space0
340
26
  0
BLOCK_RECORD
  5
3F
330
1
100
AcDbSymbolTableRecord
100
AcDbBlockTableRecord
  2
_CLOSED
340
0
  0
BLOCK_RECORD
  5
48
330
1
100
AcDbSymbolTableRecord
100
AcDbBlockTableRecord
  2
a
340
0
102
{BLKREFS
331
95
102
}
  0
BLOCK_RECORD
  5
96
330
1
100
AcDbSymbolTableRecord
100
AcDbBlockTableRecord
  2
b
340
0
102
{BLKREFS
331
C0
102
}
  0
BLOCK_RECORD
  5
C1
330
1
100
AcDbSymbolTableRecord
100
AcDbBlockTableRecord
  2
c
340
0
102
{BLKREFS
331
11A
102
}
  0
BLOCK_RECORD
  5
11B
330
1
100
AcDbSymbolTableRecord
100
AcDbBlockTableRecord
  2
d
340
0
102
{BLKREFS
331
170
102
}
  0
BLOCK_RECORD
  5
171
330
1
100
AcDbSymbolTableRecord
100
AcDbBlockTableRecord
  2
e
340
0
102
{BLKREFS
331
1CB
102
}
  0
ENDTAB
  0
ENDSEC
  0
SECTION
  2
BLOCKS
  0
BLOCK
  5
20
330
1F
100
AcDbEntity
  8
0
100
AcDbBlockBegin
  2
*Model_Space
 70
     0
 10
0.0
 20
0.0
 30
0.0
  3
*Model_Space
  1

  0
ENDBLK
  5
21
330
1F
100
AcDbEntity
  8
0
100
AcDbBlockEnd
  0
BLOCK
  5
1C
330
1B
100
AcDbEntity
 67
     1
  8
0
100
AcDbBlockBegin
  2
*Paper_Space
 70
     0
 10
0.0
 20
0.0
 30
0.0
  3
*Paper_Space
  1

  0
ENDBLK
  5
1D
330
1B
100
AcDbEntity
 67
     1
  8
0
100
AcDbBlockEnd
  0
BLOCK
  5
24
330
23
100
AcDbEntity
  8
0
100
AcDbBlockBegin
  2
*Paper_Space0
 70
     0
 10
0.0
 20
0.0
 30
0.0
  3
*Paper_Space0
  1

  0
ENDBLK
  5
25
330
23
100
AcDbEntity
  8
0
100
AcDbBlockEnd
  0
BLOCK
  5
40
330
3F
100
AcDbEntity
  8
0
100
AcDbBlockBegin
  2
_CLOSED
 70
     0
 10
0.0
 20
0.0
 30
0.0
  3
_CLOSED
  1

  0
LINE
  5
42
330
3F
100
AcDbEntity
  8
0
  6
ByBlock
 62
     0
370
    -2
100
AcDbLine
 10
-1.0
 20
0.166667
 30
0.0
 11
0.0
 21
0.0
 31
0.0
  0
LINE
  5
43
330
3F
100
AcDbEntity
  8
0
  6
ByBlock
 62
     0
370
    -2
100
AcDbLine
 10
0.0
 20
0.0
 30
0.0
 11
-1.0
 21
-0.166667
 31
0.0
  0
LINE
  5
44
330
3F
100
AcDbEntity
  8
0
  6
ByBlock
 62
     0
370
    -2
100
AcDbLine
 10
-1.0
 20
0.166667
 30
0.0
 11
-1.0
 21
-0.166667
 31
0.0
  0
LINE
  5
45
330
3F
100
AcDbEntity
  8
0
  6
ByBlock
 62
     0
370
    -2
100
AcDbLine
 10
0.0
 20
0.0
 30
0.0
 11
-1.0
 21
0.0
 31
0.0
  0
ENDBLK
  5
41
330
3F
100
AcDbEntity
  8
0
100
AcDbBlockEnd
  0
BLOCK
  5
93
330
48
100
AcDbEntity
  8
0
100
AcDbBlockBegin
  2
a
 70
     0
 10
392.501068
 20
192.602997
 30
0.0
  3
a
  1

  0
LINE
  5
49
330
48
100
AcDbEntity
  8
0
  6
Continuous
 62
     0
370
    30
100
AcDbLine
 10
467.542408
 20
701.45265
 30
0.0
 11
477.442408
 21
701.45265
 31
0.0
  0
LWPOLYLINE
  5
4A
330
48
100
AcDbEntity
  8
0
  6
Continuous
 62
     0
370
    30
100
AcDbPolyline
 90
       14
 70
     0
 43
0.0
 10
457.642395
 20
701.452637
 10
457.703156
 20
701.452637
 10
457.89444
 20
701.452637
 10
458.22702
 20
701.452637
 10
458.706451
 20
701.452637
 10
459.331818
 20
701.452637
 10
460.095154
 20
701.452637
 10
460.981415
 20
701.452637
 10
461.969391
 20
701.452637
 10
463.033325
 20
701.452637
 10
464.145264
 20
701.452637
 10
465.277039
 20
701.452637
 10
466.402496
 20
701.452637
 10
467.542419
 20
701.452637
  0
LINE
  5
4B
330
48
100
AcDbEntity
  8
0
  6
Continuous
 62
     0
370
    30
100
AcDbLine
 10
469.948694
 20
674.65265
 30
0.0
 11
478.442408
 21
674.65265
 31
0.0
  0
LINE
  5
4C
330
48
100
AcDbEntity
  8
0
  6
Continuous
 62
     0
370
    30
100
AcDbLine
 10
456.642408
 20
674.65265
 30
0.0
 11
465.136064
 21
674.65265
 31
0.0
  0
LWPOLYLINE
  5
4D
330
48
100
AcDbEntity
  8
0
  6
Continuous
 62
     0
370
    30
100
AcDbPolyline
 90
       10
 70
     0
 43
0.0
 10
464.042419
 20
693.087219
 10
464.085999
 20
693.699707
 10
464.228424
 20
694.295776
 10
464.46933
 20
694.854675
 10
464.805054
 20
695.358521
 10
465.226196
 20
695.792786
 10
465.718903
 20
696.145569
 10
466.267517
 20
696.406494
 10
466.854889
 20
696.570862
 10
467.542419
 20
696.635437
  0
LINE
  5
4E
330
48
100
AcDbEntity
  8
0
  6
Continuous
 62
     0
370
     0
100
AcDbLine
 10
467.542408
 20
700.45265
 30
0.0
 11
456.642408
 21
700.45265
 31
0.0
  0
LINE
  5
4F
330
48
100
AcDbEntity
  8
0
  6
Continuous
 62
     0
370
     0
100
AcDbLine
 10
478.442408
 20
700.45265
 30
0.0
 11
467.542408
 21
700.45265
 31
0.0
  0
LWPOLYLINE
  5
50
330
48
100
AcDbEntity
  8
0
  6
Continuous
 62
     0
370
    30
100
AcDbPolyline
 90
       10
 70
     0
 43
0.0
 10
467.542419
 20
696.635437
 10
468.148682
 20
696.58551
 10
468.736298
 20
696.435486
 10
469.28833
 20
696.190125
 10
469.787598
 20
695.852966
 10
470.217957
 20
695.433289
 10
470.565796
 20
694.942566
 10
470.821777
 20
694.395752
 10
470.980469
 20
693.810486
 10
471.042419
 20
693.12085
  0
LINE
  5
51
330
48
100
AcDbEntity
  8
0
  6
Continuous
 62
     0
370
    30
100
AcDbLine
 10
471.042408
 20
693.120879
 30
0.0
 11
471.042407
 21
677.062994
 31
0.0
  0
ELLIPSE
  5
52
330
48
100
AcDbEntity
  8
0
  6
Continuous
 62
     0
370
     0
100
AcDbEllipse
 10
467.542407
 20
677.062994
 30
0.0
 11
-3.499999999999999
 21
9.622371437195890E-8
 31
0.0
210
0.0
220
0.0
230
-1.0
 40
0.939693
 41
6.28318527792269
 42
9.424777931512478
  0
LWPOLYLINE
  5
53
330
48
100
AcDbEntity
  8
0
  6
Continuous
 62
     0
370
     0
100
AcDbPolyline
 90
       15
 70
     0
 43
0.0
 10
464.542419
 20
676.891968
 10
464.617584
 20
676.265564
 10
464.838715
 20
675.670471
 10
465.195282
 20
675.136475
 10
465.669067
 20
674.690247
 10
466.236572
 20
674.354004
 10
466.869415
 20
674.144958
 10
467.535828
 20
674.072937
 10
468.202515
 20
674.14209
 10
468.836487
 20
674.348816
 10
469.405792
 20
674.682983
 10
469.880585
 20
675.125732
 10
470.238251
 20
675.654968
 10
470.462708
 20
676.248779
 10
470.542419
 20
676.891968
  0
LWPOLYLINE
  5
54
330
48
100
AcDbEntity
  8
0
  6
Continuous
 62
     0
370
     0
100
AcDbPolyline
 90
       15
 70
     0
 43
0.0
 10
470.542419
 20
676.891968
 10
470.466949
 20
677.517883
 10
470.246429
 20
678.113159
 10
469.892303
 20
678.64447
 10
469.420532
 20
679.089966
 10
468.853485
 20
679.42749
 10
468.220886
 20
679.637939
 10
467.554688
 20
679.71106
 10
466.887787
 20
679.642944
 10
466.25354
 20
679.437622
 10
465.683838
 20
679.104736
 10
465.207062
 20
678.661377
 10
464.846954
 20
678.129456
 10
464.621826
 20
677.535645
 10
464.542419
 20
676.891968
  0
LWPOLYLINE
  5
55
330
48
100
AcDbEntity
  8
0
  6
Continuous
 62
     0
370
     0
100
AcDbPolyline
 90
       15
 70
     0
 43
0.0
 10
470.292419
 20
676.891968
 10
470.232239
 20
676.354431
 10
470.038727
 20
675.807922
 10
469.705658
 20
675.296448
 10
469.249023
 20
674.865662
 10
468.705841
 20
674.550476
 10
468.124451
 20
674.366394
 10
467.55191
 20
674.307861
 10
466.980377
 20
674.362366
 10
466.39859
 20
674.541992
 10
465.853241
 20
674.852783
 10
465.392944
 20
675.28009
 10
465.055206
 20
675.789551
 10
464.856903
 20
676.335632
 10
464.792419
 20
676.891968
  0
LWPOLYLINE
  5
56
330
48
100
AcDbEntity
  8
0
  6
Continuous
 62
     0
370
     0
100
AcDbPolyline
 90
       15
 70
     0
 43
0.0
 10
464.792419
 20
676.891968
 10
464.85257
 20
677.429504
 10
465.046082
 20
677.976013
 10
465.379181
 20
678.487488
 10
465.835785
 20
678.918335
 10
466.378998
 20
679.233459
 10
466.960358
 20
679.417603
 10
467.532898
 20
679.476135
 10
468.104431
 20
679.42157
 10
468.686249
 20
679.242004
 10
469.231567
 20
678.931213
 10
469.691864
 20
678.503845
 10
470.029602
 20
677.994446
 10
470.227905
 20
677.448364
 10
470.292419
 20
676.891968
  0
ELLIPSE
  5
57
330
48
100
AcDbEntity
  8
0
  6
Continuous
 62
     0
370
     0
100
AcDbEllipse
 10
467.542407
 20
677.062994
 30
0.0
 11
-2.249999999999999
 21
6.185810209625930E-8
 31
0.0
210
0.0
220
0.0
230
-1.0
 40
0.939693
 41
3.141592624332903
 42
6.28318527792269
  0
LINE
  5
58
330
48
100
AcDbEntity
  8
0
  6
Continuous
 62
     0
370
     0
100
AcDbLine
 10
483.942408
 20
662.35265
 30
0.0
 11
462.012273
 21
662.35265
 31
0.0
  0
LINE
  5
59
330
48
100
AcDbEntity
  8
0
  6
Continuous
 62
     0
370
     0
100
AcDbLine
 10
462.012273
 20
662.35265
 30
0.0
 11
451.142408
 21
662.35265
 31
0.0
  0
LINE
  5
5A
330
48
100
AcDbEntity
  8
0
  6
Continuous
 62
     0
370
    30
100
AcDbLine
 10
483.442317
 20
662.85265
 30
0.0
 11
462.180874
 21
662.85265
 31
0.0
  0
LINE
  5
5B
330
48
100
AcDbEntity
  8
0
  6
Continuous
 62
     0
370
    30
100
AcDbLine
 10
462.180874
 20
662.85265
 30
0.0
 11
451.6425
 21
662.85265
 31
0.0
  0
LWPOLYLINE
  5
5C
330
48
100
AcDbEntity
  8
0
  6
Continuous
 62
     0
370
     0
100
AcDbPolyline
 90
       16
 70
     0
 43
0.0
 10
476.442383
 20
663.352661
 10
476.370605
 20
663.352661
 10
476.156158
 20
663.352661
 10
475.802643
 20
663.352661
 10
475.315674
 20
663.352661
 10
474.703125
 20
663.352661
 10
473.974976
 20
663.352661
 10
473.142853
 20
663.352661
 10
472.220306
 20
663.352661
 10
471.222198
 20
663.352661
 10
470.164642
 20
663.352661
 10
469.064758
 20
663.352661
 10
467.940247
 20
663.352661
 10
466.809326
 20
663.352661
 10
465.690247
 20
663.352661
 10
464.54129
 20
663.352661
  0
LINE
  5
5D
330
48
100
AcDbEntity
  8
0
  6
Continuous
 62
     0
370
     0
100
AcDbLine
 10
464.541298
 20
663.35265
 30
0.0
 11
458.642427
 21
663.35265
 31
0.0
  0
LINE
  5
5E
330
48
100
AcDbEntity
  8
0
  6
Continuous
 62
     0
370
    30
100
AcDbLine
 10
435.393824
 20
539.85265
 30
0.0
 11
501.310357
 21
539.85265
 31
0.0
  0
LINE
  5
5F
330
48
100
AcDbEntity
  8
0
  6
Continuous
 62
     0
370
     0
100
AcDbLine
 10
431.840746
 20
540.85265
 30
0.0
 11
505.042408
 21
540.85265
 31
0.0
  0
LINE
  5
60
330
48
100
AcDbEntity
  8
0
  6
Continuous
 62
     0
370
     0
100
AcDbLine
 10
430.042408
 20
540.85265
 30
0.0
 11
431.840746
 21
540.85265
 31
0.0
  0
LINE
  5
61
330
48
100
AcDbEntity
  8
0
  6
Continuous
 62
     0
370
     0
100
AcDbLine
 10
431.840746
 20
640.85265
 30
0.0
 11
505.042408
 21
640.85265
 31
0.0
  0
LINE
  5
62
330
48
100
AcDbEntity
  8
0
  6
Continuous
 62
     0
370
     0
100
AcDbLine
 10
430.042408
 20
640.85265
 30
0.0
 11
431.840746
 21
640.85265
 31
0.0
  0
LINE
  5
63
330
48
100
AcDbEntity
  8
0
  6
Continuous
 62
     0
370
    30
100
AcDbLine
 10
433.744835
 20
642.85265
 30
0.0
 11
503.042408
 21
642.85265
 31
0.0
  0
LINE
  5
64
330
48
100
AcDbEntity
  8
0
  6
Continuous
 62
     0
370
    30
100
AcDbLine
 10
432.042408
 20
642.85265
 30
0.0
 11
433.744835
 21
642.85265
 31
0.0
  0
LINE
  5
65
330
48
100
AcDbEntity
  8
0
  6
Continuous
 62
     0
370
     0
100
AcDbLine
 10
467.542408
 20
535.55265
 30
0.0
 11
458.542408
 21
535.55265
 31
0.0
  0
LINE
  5
66
330
48
100
AcDbEntity
  8
0
  6
Continuous
 62
     0
370
     0
100
AcDbLine
 10
476.542408
 20
535.55265
 30
0.0
 11
467.542408
 21
535.55265
 31
0.0
  0
LINE
  5
67
330
48
100
AcDbEntity
  8
0
  6
Continuous
 62
     0
370
     0
100
AcDbLine
 10
476.542408
 20
488.55265
 30
0.0
 11
467.542408
 21
488.55265
 31
0.0
  0
LINE
  5
68
330
48
100
AcDbEntity
  8
0
  6
Continuous
 62
     0
370
     0
100
AcDbLine
 10
467.542408
 20
488.55265
 30
0.0
 11
458.542408
 21
488.55265
 31
0.0
  0
LINE
  5
69
330
48
100
AcDbEntity
  8
0
  6
Continuous
 62
     0
370
    30
100
AcDbLine
 10
467.542408
 20
488.05265
 30
0.0
 11
459.042408
 21
488.05265
 31
0.0
  0
LINE
  5
6A
330
48
100
AcDbEntity
  8
0
  6
Continuous
 62
     0
370
    30
100
AcDbLine
 10
476.042408
 20
488.05265
 30
0.0
 11
467.542408
 21
488.05265
 31
0.0
  0
LINE
  5
6B
330
48
100
AcDbEntity
  8
0
  6
Continuous
 62
     0
370
    30
100
AcDbLine
 10
449.042408
 20
536.05265
 30
0.0
 11
469.490556
 21
536.05265
 31
0.0
  0
LINE
  5
6C
330
48
100
AcDbEntity
  8
0
  6
Continuous
 62
     0
370
    30
100
AcDbLine
 10
469.490556
 20
536.05265
 30
0.0
 11
486.042408
 21
536.05265
 31
0.0
  0
LINE
  5
6D
330
48
100
AcDbEntity
  8
0
  6
Continuous
 62
     0
370
     0
100
AcDbLine
 10
469.648514
 20
537.55265
 30
0.0
 11
487.542408
 21
537.55265
 31
0.0
  0
LINE
  5
6E
330
48
100
AcDbEntity
  8
0
  6
Continuous
 62
     0
370
     0
100
AcDbLine
 10
447.542408
 20
537.55265
 30
0.0
 11
469.648514
 21
537.55265
 31
0.0
  0
ARC
  5
6F
330
48
100
AcDbEntity
  8
0
  6
Continuous
 62
     0
370
    30
100
AcDbCircle
 10
467.542408
 20
512.05265
 30
0.0
 40
30.0
100
AcDbArc
 50
267.130294
 51
53.130102
  0
ARC
  5
70
330
48
100
AcDbEntity
  8
0
  6
Continuous
 62
     0
370
    30
100
AcDbCircle
 10
467.542408
 20
512.05265
 30
0.0
 40
30.0
100
AcDbArc
 50
126.869898
 51
267.130294
  0
ARC
  5
71
330
48
100
AcDbEntity
  8
0
  6
Continuous
 62
     0
370
     0
100
AcDbCircle
 10
467.542408
 20
512.05265
 30
0.0
 40
29.49999999999999
100
AcDbArc
 50
267.130294
 51
54.445159
  0
ARC
  5
72
330
48
100
AcDbEntity
  8
0
  6
Continuous
 62
     0
370
     0
100
AcDbCircle
 10
467.542408
 20
512.05265
 30
0.0
 40
29.49999999999999
100
AcDbArc
 50
125.554841
 51
267.130294
  0
LINE
  5
73
330
48
100
AcDbEntity
  8
0
  6
Continuous
 62
     0
370
    30
100
AcDbLine
 10
447.542408
 20
537.55265
 30
0.0
 11
447.542408
 21
538.85265
 31
0.0
  0
LINE
  5
74
330
48
100
AcDbEntity
  8
0
  6
Continuous
 62
     0
370
    30
100
AcDbLine
 10
487.542408
 20
537.55265
 30
0.0
 11
487.542408
 21
538.85265
 31
0.0
  0
ARC
  5
75
330
48
100
AcDbEntity
  8
0
  6
Continuous
 62
     0
370
    30
100
AcDbCircle
 10
449.042476
 20
537.552718
 30
0.0
 40
1.500067841418702
100
AcDbArc
 50
180.002591
 51
269.989306
  0
ARC
  5
76
330
48
100
AcDbEntity
  8
0
  6
Continuous
 62
     0
370
    30
100
AcDbCircle
 10
486.04234
 20
537.552718
 30
0.0
 40
1.500067841418645
100
AcDbArc
 50
270.010694
 51
359.997409
  0
ARC
  5
77
330
48
100
AcDbEntity
  8
0
  6
Continuous
 62
     0
370
    30
100
AcDbCircle
 10
476.042405
 20
488.552653
 30
0.0
 40
0.500002770689776
100
AcDbArc
 50
270.011777
 51
359.999683
  0
ARC
  5
78
330
48
100
AcDbEntity
  8
0
  6
Continuous
 62
     0
370
    30
100
AcDbCircle
 10
459.042411
 20
488.552653
 30
0.0
 40
0.5000027706872765
100
AcDbArc
 50
180.000317
 51
269.988223
  0
LINE
  5
79
330
48
100
AcDbEntity
  8
0
  6
Continuous
 62
     0
370
    30
100
AcDbLine
 10
458.542408
 20
535.55265
 30
0.0
 11
458.542408
 21
488.55265
 31
0.0
  0
LINE
  5
7A
330
48
100
AcDbEntity
  8
0
  6
Continuous
 62
     0
370
    30
100
AcDbLine
 10
476.542408
 20
535.55265
 30
0.0
 11
476.542408
 21
488.55265
 31
0.0
  0
ARC
  5
7B
330
48
100
AcDbEntity
  8
0
  6
Continuous
 62
     0
370
    30
100
AcDbCircle
 10
476.042405
 20
535.552647
 30
0.0
 40
0.5000034422826047
100
AcDbArc
 50
0.000394
 51
89.999606
  0
ARC
  5
7C
330
48
100
AcDbEntity
  8
0
  6
Continuous
 62
     0
370
    30
100
AcDbCircle
 10
459.042411
 20
535.552648
 30
0.0
 40
0.5000027706877375
100
AcDbArc
 50
90.011777
 51
179.999683
  0
ARC
  5
7D
330
48
100
AcDbEntity
  8
0
  6
Continuous
 62
     0
370
    30
100
AcDbCircle
 10
432.042498
 20
640.85256
 30
0.0
 40
2.000090101177668
100
AcDbArc
 50
90.002581
 51
179.997419
  0
ARC
  5
7E
330
48
100
AcDbEntity
  8
0
  6
Continuous
 62
     0
370
    30
100
AcDbCircle
 10
503.042415
 20
640.852657
 30
0.0
 40
1.999993310799133
100
AcDbArc
 50
359.999808
 51
90.000192
  0
LINE
  5
7F
330
48
100
AcDbEntity
  8
0
  6
Continuous
 62
     0
370
    30
100
AcDbLine
 10
430.042408
 20
540.85265
 30
0.0
 11
430.042408
 21
640.85265
 31
0.0
  0
LINE
  5
80
330
48
100
AcDbEntity
  8
0
  6
Continuous
 62
     0
370
    30
100
AcDbLine
 10
505.042408
 20
540.85265
 30
0.0
 11
505.042408
 21
640.85265
 31
0.0
  0
ARC
  5
81
330
48
100
AcDbEntity
  8
0
  6
Continuous
 62
     0
370
    30
100
AcDbCircle
 10
432.042849
 20
540.853143
 30
0.0
 40
2.00044059225137
100
AcDbArc
 50
180.014101
 51
269.989956
  0
ARC
  5
82
330
48
100
AcDbEntity
  8
0
  6
Continuous
 62
     0
370
    30
100
AcDbCircle
 10
503.041967
 20
540.853143
 30
0.0
 40
2.000440628099545
100
AcDbArc
 50
270.013016
 51
359.985898
  0
LWPOLYLINE
  5
83
330
48
100
AcDbEntity
  8
0
  6
Continuous
 62
     0
370
    30
100
AcDbPolyline
 90
       48
 70
     0
 43
0.0
 10
503.042419
 20
538.852661
 10
502.963104
 20
538.852661
 10
502.725708
 20
538.852661
 10
502.331299
 20
538.852661
 10
501.781464
 20
538.852661
 10
501.078735
 20
538.852661
 10
500.226318
 20
538.852661
 10
499.227875
 20
538.852661
 10
498.087891
 20
538.852661
 10
496.811737
 20
538.852661
 10
495.404877
 20
538.852661
 10
493.873444
 20
538.852661
 10
492.224579
 20
538.852661
 10
490.465485
 20
538.852661
 10
488.603973
 20
538.852661
 10
486.648499
 20
538.852661
 10
484.607635
 20
538.852661
 10
482.490601
 20
538.852661
 10
480.306885
 20
538.852661
 10
478.066101
 20
538.852661
 10
475.778351
 20
538.852661
 10
473.453857
 20
538.852661
 10
471.102936
 20
538.852661
 10
468.736084
 20
538.852661
 10
466.363953
 20
538.852661
 10
463.997101
 20
538.852661
 10
461.646027
 20
538.852661
 10
459.321289
 20
538.852661
 10
457.033295
 20
538.852661
 10
454.792206
 20
538.852661
 10
452.608002
 20
538.852661
 10
450.49057
 20
538.852661
 10
448.449219
 20
538.852661
 10
446.493073
 20
538.852661
 10
444.631042
 20
538.852661
 10
442.871246
 20
538.852661
 10
441.221527
 20
538.852661
 10
439.689484
 20
538.852661
 10
438.281708
 20
538.852661
 10
437.004547
 20
538.852661
 10
435.863892
 20
538.852661
 10
434.864532
 20
538.852661
 10
434.011078
 20
538.852661
 10
433.307465
 20
538.852661
 10
432.756592
 20
538.852661
 10
432.361176
 20
538.852661
 10
432.122894
 20
538.852661
 10
432.042511
 20
538.852661
  0
LINE
  5
84
330
48
100
AcDbEntity
  8
0
  6
Continuous
 62
     0
370
    30
100
AcDbLine
 10
458.642408
 20
663.35265
 30
0.0
 11
458.642408
 21
674.65265
 31
0.0
  0
LINE
  5
85
330
48
100
AcDbEntity
  8
0
  6
Continuous
 62
     0
370
    30
100
AcDbLine
 10
476.442408
 20
663.35265
 30
0.0
 11
476.442408
 21
674.65265
 31
0.0
  0
ARC
  5
86
330
48
100
AcDbEntity
  8
0
  6
Continuous
 62
     0
370
    30
100
AcDbCircle
 10
476.942391
 20
663.352653
 30
0.0
 40
0.5000028940656763
100
AcDbArc
 50
180.000332
 51
269.999543
  0
ARC
  5
87
330
48
100
AcDbEntity
  8
0
  6
Continuous
 62
     0
370
    30
100
AcDbCircle
 10
458.142424
 20
663.352653
 30
0.0
 40
0.5000028982779778
100
AcDbArc
 50
270.000457
 51
359.999668
  0
ARC
  5
88
330
48
100
AcDbEntity
  8
0
  6
Continuous
 62
     0
370
    30
100
AcDbCircle
 10
483.44237
 20
662.352648
 30
0.0
 40
0.5000021958292555
100
AcDbArc
 50
0.000252
 51
89.998773
  0
ARC
  5
89
330
48
100
AcDbEntity
  8
0
  6
Continuous
 62
     0
370
    30
100
AcDbCircle
 10
451.642446
 20
662.352648
 30
0.0
 40
0.500002201083416
100
AcDbArc
 50
90.00114
 51
179.999748
  0
LINE
  5
8A
330
48
100
AcDbEntity
  8
0
  6
Continuous
 62
     0
370
    30
100
AcDbLine
 10
451.142408
 20
642.85265
 30
0.0
 11
451.142408
 21
662.35265
 31
0.0
  0
LINE
  5
8B
330
48
100
AcDbEntity
  8
0
  6
Continuous
 62
     0
370
    30
100
AcDbLine
 10
483.942408
 20
642.85265
 30
0.0
 11
483.942408
 21
662.35265
 31
0.0
  0
LWPOLYLINE
  5
8C
330
48
100
AcDbEntity
  8
0
  6
Continuous
 62
     0
370
    30
100
AcDbPolyline
 90
       13
 70
     0
 43
0.0
 10
465.292419
 20
677.062988
 10
465.367554
 20
677.596313
 10
465.588043
 20
678.095215
 10
465.941437
 20
678.527039
 10
466.405487
 20
678.861328
 10
466.949219
 20
679.072754
 10
467.534485
 20
679.147095
 10
468.120422
 20
679.077209
 10
468.665497
 20
678.868408
 10
469.132263
 20
678.537415
 10
469.489044
 20
678.107971
 10
469.713043
 20
677.610291
 10
469.792419
 20
677.062988
  0
LWPOLYLINE
  5
8D
330
48
100
AcDbEntity
  8
0
  6
Continuous
 62
     0
370
    30
100
AcDbPolyline
 90
       16
 70
     0
 43
0.0
 10
471.042419
 20
677.062988
 10
470.964813
 20
676.370972
 10
470.738312
 20
675.709595
 10
470.371582
 20
675.108643
 10
469.881653
 20
674.594116
 10
469.290802
 20
674.187988
 10
468.625153
 20
673.906677
 10
467.912903
 20
673.762634
 10
467.184845
 20
673.761414
 10
466.472046
 20
673.902954
 10
465.805176
 20
674.181702
 10
465.21283
 20
674.585815
 10
464.72113
 20
675.098694
 10
464.351929
 20
675.698364
 10
464.122375
 20
676.358765
 10
464.042419
 20
677.062988
  0
LINE
  5
8E
330
48
100
AcDbEntity
  8
0
  6
Continuous
 62
     0
370
    30
100
AcDbLine
 10
464.042408
 20
693.120726
 30
0.0
 11
464.042407
 21
677.062994
 31
0.0
  0
ARC
  5
8F
330
48
100
AcDbEntity
  8
0
  6
Continuous
 62
     0
370
    30
100
AcDbCircle
 10
457.642433
 20
700.452625
 30
0.0
 40
1.000025415546262
100
AcDbArc
 50
90.007186
 51
179.998544
  0
ARC
  5
90
330
48
100
AcDbEntity
  8
0
  6
Continuous
 62
     0
370
    30
100
AcDbCircle
 10
477.442383
 20
700.452625
 30
0.0
 40
1.000025415545252
100
AcDbArc
 50
0.001456
 51
89.992814
  0
LINE
  5
91
330
48
100
AcDbEntity
  8
0
  6
Continuous
 62
     0
370
    30
100
AcDbLine
 10
478.442408
 20
674.65265
 30
0.0
 11
478.442408
 21
700.45265
 31
0.0
  0
LINE
  5
92
330
48
100
AcDbEntity
  8
0
  6
Continuous
 62
     0
370
    30
100
AcDbLine
 10
456.642408
 20
674.65265
 30
0.0
 11
456.642408
 21
700.45265
 31
0.0
  0
ENDBLK
  5
94
330
48
100
AcDbEntity
  8
0
100
AcDbBlockEnd
  0
BLOCK
  5
BE
330
96
100
AcDbEntity
  8
0
100
AcDbBlockBegin
  2
b
 70
     0
 10
375.018368
 20
192.602997
 30
0.0
  3
b
  1

  0
ARC
  5
97
330
96
100
AcDbEntity
  8
0
  6
Continuous
 62
     0
370
     0
100
AcDbCircle
 10
467.542408
 20
247.511099
 30
0.0
 40
9.900000000000004
100
AcDbArc
 50
269.999999
 51
89.999999
  0
ARC
  5
98
330
96
100
AcDbEntity
  8
0
  6
Continuous
 62
     0
370
     0
100
AcDbCircle
 10
467.542408
 20
247.511099
 30
0.0
 40
9.900000000000004
100
AcDbArc
 50
89.999999
 51
269.999999
  0
ARC
  5
99
330
96
100
AcDbEntity
  8
0
  6
Continuous
 62
     0
370
    30
100
AcDbCircle
 10
467.542408
 20
247.511099
 30
0.0
 40
10.9
100
AcDbArc
 50
89.999999
 51
269.999999
  0
ARC
  5
9A
330
96
100
AcDbEntity
  8
0
  6
Continuous
 62
     0
370
    30
100
AcDbCircle
 10
467.542408
 20
247.511099
 30
0.0
 40
10.9
100
AcDbArc
 50
269.999999
 51
89.999999
  0
LINE
  5
9B
330
96
100
AcDbEntity
  8
0
  6
Continuous
 62
     0
370
    30
100
AcDbLine
 10
471.042408
 20
237.188309
 30
0.0
 11
471.042407
 21
193.069632
 31
0.0
  0
ELLIPSE
  5
9C
330
96
100
AcDbEntity
  8
0
  6
Continuous
 62
     0
370
     0
100
AcDbEllipse
 10
467.542407
 20
193.069632
 30
0.0
 11
-3.5
 21
3.502256748664405E-8
 31
0.0
210
0.0
220
0.0
230
1.0
 40
0.34202
 41
6.283185307179587
 42
9.42477796076938
  0
ARC
  5
9D
330
96
100
AcDbEntity
  8
0
  6
Continuous
 62
     0
370
    30
100
AcDbCircle
 10
467.542408
 20
247.5111
 30
0.0
 40
16.4
100
AcDbArc
 50
250.29342
 51
257.677465
  0
ARC
  5
9E
330
96
100
AcDbEntity
  8
0
  6
Continuous
 62
     0
370
    30
100
AcDbCircle
 10
467.542408
 20
247.5111
 30
0.0
 40
16.4
100
AcDbArc
 50
282.322533
 51
70.29342
  0
ARC
  5
9F
330
96
100
AcDbEntity
  8
0
  6
Continuous
 62
     0
370
    30
100
AcDbCircle
 10
467.542408
 20
247.5111
 30
0.0
 40
16.4
100
AcDbArc
 50
70.29342
 51
250.29342
  0
ARC
  5
A0
330
96
100
AcDbEntity
  8
0
  6
Continuous
 62
     0
370
     0
100
AcDbCircle
 10
467.534093
 20
247.489157
 30
0.0
 40
15.87653783081441
100
AcDbArc
 50
250.294966
 51
257.295232
  0
ARC
  5
A1
330
96
100
AcDbEntity
  8
0
  6
Continuous
 62
     0
370
     0
100
AcDbCircle
 10
467.542513
 20
247.511213
 30
0.0
 40
15.89985892753137
100
AcDbArc
 50
282.716148
 51
70.293639
  0
ARC
  5
A2
330
96
100
AcDbEntity
  8
0
  6
Continuous
 62
     0
370
     0
100
AcDbCircle
 10
467.542379
 20
247.511111
 30
0.0
 40
15.90000000002954
100
AcDbArc
 50
70.29331
 51
250.293531
  0
ARC
  5
A3
330
96
100
AcDbEntity
  8
0
  6
Continuous
 62
     0
370
    30
100
AcDbCircle
 10
467.542408
 20
247.511101
 30
0.0
 40
37.49999999999425
100
AcDbArc
 50
275.3554
 51
17.815939
  0
ARC
  5
A4
330
96
100
AcDbEntity
  8
0
  6
Continuous
 62
     0
370
    30
100
AcDbCircle
 10
467.542408
 20
247.511101
 30
0.0
 40
37.49999999999425
100
AcDbArc
 50
197.815939
 51
264.644599
  0
ARC
  5
A5
330
96
100
AcDbEntity
  8
0
  6
Continuous
 62
     0
370
    30
100
AcDbCircle
 10
467.542408
 20
247.511101
 30
0.0
 40
37.49999999999425
100
AcDbArc
 50
17.815939
 51
197.815939
  0
ARC
  5
A6
330
96
100
AcDbEntity
  8
0
  6
Continuous
 62
     0
370
     0
100
AcDbCircle
 10
467.542408
 20
247.511101
 30
0.0
 40
35.49999999999425
100
AcDbArc
 50
275.658071
 51
17.815939
  0
ARC
  5
A7
330
96
100
AcDbEntity
  8
0
  6
Continuous
 62
     0
370
     0
100
AcDbCircle
 10
467.542408
 20
247.511101
 30
0.0
 40
35.49999999999425
100
AcDbArc
 50
197.815939
 51
264.341928
  0
ARC
  5
A8
330
96
100
AcDbEntity
  8
0
  6
Continuous
 62
     0
370
     0
100
AcDbCircle
 10
467.542408
 20
247.511101
 30
0.0
 40
35.49999999999425
100
AcDbArc
 50
17.815939
 51
197.815939
  0
LINE
  5
A9
330
96
100
AcDbEntity
  8
0
  6
Continuous
 62
     0
370
    30
100
AcDbLine
 10
476.542408
 20
314.011106
 30
0.0
 11
476.542408
 21
283.915089
 31
0.0
  0
LINE
  5
AA
330
96
100
AcDbEntity
  8
0
  6
Continuous
 62
     0
370
     0
100
AcDbLine
 10
476.542408
 20
314.011106
 30
0.0
 11
458.542408
 21
314.011106
 31
0.0
  0
ARC
  5
AB
330
96
100
AcDbEntity
  8
0
  6
Continuous
 62
     0
370
    30
100
AcDbCircle
 10
476.042408
 20
314.011106
 30
0.0
 40
0.5
100
AcDbArc
 50
0.0
 51
90.0
  0
LINE
  5
AC
330
96
100
AcDbEntity
  8
0
  6
Continuous
 62
     0
370
     0
100
AcDbLine
 10
497.542408
 20
319.011106
 30
0.0
 11
469.044355
 21
319.011105
 31
0.0
  0
LINE
  5
AD
330
96
100
AcDbEntity
  8
0
  6
Continuous
 62
     0
370
     0
100
AcDbLine
 10
469.044355
 20
319.011105
 30
0.0
 11
437.542408
 21
319.011106
 31
0.0
  0
LWPOLYLINE
  5
AE
330
96
100
AcDbEntity
  8
0
  6
Continuous
 62
     0
370
    30
100
AcDbPolyline
 90
       24
 70
     0
 43
0.0
 10
438.042419
 20
319.511108
 10
438.102966
 20
319.511108
 10
438.286865
 20
319.511108
 10
438.602325
 20
319.511108
 10
439.056396
 20
319.511108
 10
439.654663
 20
319.511108
 10
440.400787
 20
319.511108
 10
441.296448
 20
319.511108
 10
442.340942
 20
319.511108
 10
443.531006
 20
319.511108
 10
444.860962
 20
319.511108
 10
446.32254
 20
319.511108
 10
447.905121
 20
319.511108
 10
449.596008
 20
319.511108
 10
451.380646
 20
319.511108
 10
453.243195
 20
319.511108
 10
455.16687
 20
319.511108
 10
457.13446
 20
319.511108
 10
459.128815
 20
319.511108
 10
461.133301
 20
319.511108
 10
463.13208
 20
319.511108
 10
465.110596
 20
319.511108
 10
467.055695
 20
319.511108
 10
469.019318
 20
319.511108
  0
LINE
  5
AF
330
96
100
AcDbEntity
  8
0
  6
Continuous
 62
     0
370
    30
100
AcDbLine
 10
469.019322
 20
319.511105
 30
0.0
 11
497.042408
 21
319.511106
 31
0.0
  0
LINE
  5
B0
330
96
100
AcDbEntity
  8
0
  6
Continuous
 62
     0
370
     0
100
AcDbLine
 10
469.044355
 20
315.011106
 30
0.0
 11
497.542408
 21
315.011106
 31
0.0
  0
LINE
  5
B1
330
96
100
AcDbEntity
  8
0
  6
Continuous
 62
     0
370
     0
100
AcDbLine
 10
437.542408
 20
315.011106
 30
0.0
 11
469.044355
 21
315.011106
 31
0.0
  0
LINE
  5
B2
330
96
100
AcDbEntity
  8
0
  6
Continuous
 62
     0
370
    30
100
AcDbLine
 10
497.042408
 20
314.511106
 30
0.0
 11
469.019322
 21
314.511105
 31
0.0
  0
LINE
  5
B3
330
96
100
AcDbEntity
  8
0
  6
Continuous
 62
     0
370
    30
100
AcDbLine
 10
469.019322
 20
314.511105
 30
0.0
 11
438.042408
 21
314.511106
 31
0.0
  0
ARC
  5
B4
330
96
100
AcDbEntity
  8
0
  6
Continuous
 62
     0
370
    30
100
AcDbCircle
 10
497.042384
 20
315.01113
 30
0.0
 40
0.5000238309862914
100
AcDbArc
 50
270.002731
 51
359.997269
  0
ARC
  5
B5
330
96
100
AcDbEntity
  8
0
  6
Continuous
 62
     0
370
    30
100
AcDbCircle
 10
438.042423
 20
315.011121
 30
0.0
 40
0.500015027163045
100
AcDbArc
 50
180.001722
 51
269.998278
  0
LINE
  5
B6
330
96
100
AcDbEntity
  8
0
  6
Continuous
 62
     0
370
    30
100
AcDbLine
 10
497.542408
 20
315.011106
 30
0.0
 11
497.542408
 21
319.011106
 31
0.0
  0
LINE
  5
B7
330
96
100
AcDbEntity
  8
0
  6
Continuous
 62
     0
370
    30
100
AcDbLine
 10
437.542408
 20
315.011106
 30
0.0
 11
437.542408
 21
319.011106
 31
0.0
  0
ARC
  5
B8
330
96
100
AcDbEntity
  8
0
  6
Continuous
 62
     0
370
    30
100
AcDbCircle
 10
497.042393
 20
319.011091
 30
0.0
 40
0.5000149691630204
100
AcDbArc
 50
0.001715
 51
89.990182
  0
ARC
  5
B9
330
96
100
AcDbEntity
  8
0
  6
Continuous
 62
     0
370
    30
100
AcDbCircle
 10
438.042423
 20
319.011091
 30
0.0
 40
0.5000149691641023
100
AcDbArc
 50
90.009818
 51
179.998285
  0
ARC
  5
BA
330
96
100
AcDbEntity
  8
0
  6
Continuous
 62
     0
370
    30
100
AcDbCircle
 10
459.042411
 20
314.011103
 30
0.0
 40
0.5000027706909388
100
AcDbArc
 50
90.011777
 51
179.999683
  0
LINE
  5
BB
330
96
100
AcDbEntity
  8
0
  6
Continuous
 62
     0
370
    30
100
AcDbLine
 10
458.542408
 20
314.011106
 30
0.0
 11
458.542408
 21
283.915089
 31
0.0
  0
LWPOLYLINE
  5
BC
330
96
100
AcDbEntity
  8
0
  6
Continuous
 62
     0
370
    30
100
AcDbPolyline
 90
       20
 70
     0
 43
0.0
 10
464.042419
 20
193.069626
 10
464.116302
 20
192.720169
 10
464.306671
 20
192.429947
 10
464.572632
 20
192.200714
 10
464.899139
 20
192.015717
 10
465.282654
 20
191.863083
 10
465.719513
 20
191.739517
 10
466.201965
 20
191.64502
 10
466.719391
 20
191.58075
 10
467.25882
 20
191.547974
 10
467.805786
 20
191.547333
 10
468.345734
 20
191.578918
 10
468.864197
 20
191.642075
 10
469.348022
 20
191.735565
 10
469.786835
 20
191.857956
 10
470.172546
 20
192.009521
 10
470.501526
 20
192.193253
 10
470.769562
 20
192.420883
 10
470.962616
 20
192.707672
 10
471.042419
 20
193.069626
  0
LINE
  5
BD
330
96
100
AcDbEntity
  8
0
  6
Continuous
 62
     0
370
    30
100
AcDbLine
 10
464.042408
 20
237.187888
 30
0.0
 11
464.042407
 21
193.069632
 31
0.0
  0
ENDBLK
  5
BF
330
96
100
AcDbEntity
  8
0
100
AcDbBlockEnd
  0
BLOCK
  5
118
330
C1
100
AcDbEntity
  8
0
100
AcDbBlockBegin
  2
c
 70
     0
 10
392.501068
 20
239.697708
 30
0.0
  3
c
  1

  0
LINE
  5
C2
330
C1
100
AcDbEntity
  8
0
  6
Continuous
 62
     0
370
    30
100
AcDbLine
 10
662.457784
 20
701.45265
 30
0.0
 11
682.257784
 21
701.45265
 31
0.0
  0
LINE
  5
C3
330
C1
100
AcDbEntity
  8
0
  6
Continuous
 62
     0
370
    30
100
AcDbLine
 10
661.457784
 20
674.65265
 30
0.0
 11
683.257784
 21
674.65265
 31
0.0
  0
LINE
  5
C4
330
C1
100
AcDbEntity
  8
0
  6
Continuous
 62
     0
370
    30
100
AcDbLine
 10
683.257784
 20
674.65265
 30
0.0
 11
683.257784
 21
689.18617
 31
0.0
  0
LWPOLYLINE
  5
C5
330
C1
100
AcDbEntity
  8
0
  6
Continuous
 62
     0
370
    30
100
AcDbPolyline
 90
       19
 70
     0
 43
0.0
 10
683.257812
 20
689.186157
 10
683.239685
 20
689.253662
 10
683.188477
 20
689.448181
 10
683.112122
 20
689.75415
 10
683.020935
 20
690.152832
 10
682.925476
 20
690.624878
 10
682.835449
 20
691.154907
 10
682.759644
 20
691.731079
 10
682.705933
 20
692.340881
 10
682.681519
 20
692.970581
 10
682.690796
 20
693.604309
 10
682.734497
 20
694.223694
 10
682.807983
 20
694.806152
 10
682.902832
 20
695.331421
 10
683.006409
 20
695.783264
 10
683.10498
 20
696.148376
 10
683.185791
 20
696.415344
 10
683.238831
 20
696.579468
 10
683.257812
 20
696.635437
  0
LINE
  5
C6
330
C1
100
AcDbEntity
  8
0
  6
Continuous
 62
     0
370
    30
100
AcDbLine
 10
683.257784
 20
696.635414
 30
0.0
 11
683.257784
 21
700.45265
 31
0.0
  0
LINE
  5
C7
330
C1
100
AcDbEntity
  8
0
  6
Continuous
 62
     0
370
     0
100
AcDbLine
 10
683.257784
 20
700.45265
 30
0.0
 11
661.457784
 21
700.45265
 31
0.0
  0
ARC
  5
C8
330
C1
100
AcDbEntity
  8
0
  6
Continuous
 62
     0
370
    30
100
AcDbCircle
 10
682.257784
 20
700.45265
 30
0.0
 40
0.9999999999967892
100
AcDbArc
 50
0.0
 51
90.0
  0
LINE
  5
C9
330
C1
100
AcDbEntity
  8
0
  6
Continuous
 62
     0
370
     0
100
AcDbLine
 10
725.602182
 20
673.77407
 30
0.0
 11
726.799253
 21
677.062994
 31
0.0
  0
LINE
  5
CA
330
C1
100
AcDbEntity
  8
0
  6
Continuous
 62
     0
370
     0
100
AcDbLine
 10
726.799253
 20
677.062994
 30
0.0
 11
727.996323
 21
680.351918
 31
0.0
  0
LWPOLYLINE
  5
CB
330
C1
100
AcDbEntity
  8
0
  6
Continuous
 62
     0
370
    30
100
AcDbPolyline
 90
        8
 70
     0
 43
0.0
 10
727.269104
 20
676.891968
 10
727.041687
 20
676.267151
 10
726.825562
 20
675.673401
 10
726.631531
 20
675.140259
 10
726.469238
 20
674.694336
 10
726.34668
 20
674.357605
 10
726.270081
 20
674.147156
 10
726.243042
 20
674.072937
  0
LWPOLYLINE
  5
CC
330
C1
100
AcDbEntity
  8
0
  6
Continuous
 62
     0
370
    30
100
AcDbPolyline
 90
        8
 70
     0
 43
0.0
 10
728.295166
 20
679.71106
 10
728.269775
 20
679.641357
 10
728.194763
 20
679.435181
 10
728.073608
 20
679.102295
 10
727.912415
 20
678.659546
 10
727.719238
 20
678.128784
 10
727.503723
 20
677.53656
 10
727.269104
 20
676.891968
  0
LINE
  5
CD
330
C1
100
AcDbEntity
  8
0
  6
Continuous
 62
     0
370
     0
100
AcDbLine
 10
688.757784
 20
662.35265
 30
0.0
 11
687.797267
 21
662.35265
 31
0.0
  0
LINE
  5
CE
330
C1
100
AcDbEntity
  8
0
  6
Continuous
 62
     0
370
     0
100
AcDbLine
 10
687.797267
 20
662.35265
 30
0.0
 11
655.957784
 21
662.35265
 31
0.0
  0
LWPOLYLINE
  5
CF
330
C1
100
AcDbEntity
  8
0
  6
Continuous
 62
     0
370
    30
100
AcDbPolyline
 90
        5
 70
     0
 43
0.0
 10
688.257751
 20
662.852661
 10
688.205505
 20
662.852661
 10
688.048218
 20
662.852661
 10
687.787048
 20
662.852661
 10
687.326538
 20
662.852661
  0
LINE
  5
D0
330
C1
100
AcDbEntity
  8
0
  6
Continuous
 62
     0
370
    30
100
AcDbLine
 10
687.326551
 20
662.85265
 30
0.0
 11
656.457783
 21
662.85265
 31
0.0
  0
LWPOLYLINE
  5
D1
330
C1
100
AcDbEntity
  8
0
  6
Continuous
 62
     0
370
     0
100
AcDbPolyline
 90
        4
 70
     0
 43
0.0
 10
681.257751
 20
663.352661
 10
681.208862
 20
663.352661
 10
681.062622
 20
663.352661
 10
680.736511
 20
663.352661
  0
LINE
  5
D2
330
C1
100
AcDbEntity
  8
0
  6
Continuous
 62
     0
370
     0
100
AcDbLine
 10
680.736528
 20
663.35265
 30
0.0
 11
663.457783
 21
663.35265
 31
0.0
  0
LINE
  5
D3
330
C1
100
AcDbEntity
  8
0
  6
Continuous
 62
     0
370
     0
100
AcDbLine
 10
683.831293
 20
540.85265
 30
0.0
 11
709.857785
 21
540.852651
 31
0.0
  0
LINE
  5
D4
330
C1
100
AcDbEntity
  8
0
  6
Continuous
 62
     0
370
     0
100
AcDbLine
 10
634.857785
 20
540.85265
 30
0.0
 11
683.831293
 21
540.85265
 31
0.0
  0
LINE
  5
D5
330
C1
100
AcDbEntity
  8
0
  6
Continuous
 62
     0
370
     0
100
AcDbLine
 10
683.831292
 20
640.85265
 30
0.0
 11
709.857785
 21
640.852651
 31
0.0
  0
LINE
  5
D6
330
C1
100
AcDbEntity
  8
0
  6
Continuous
 62
     0
370
     0
100
AcDbLine
 10
634.857785
 20
640.85265
 30
0.0
 11
683.831292
 21
640.85265
 31
0.0
  0
LINE
  5
D7
330
C1
100
AcDbEntity
  8
0
  6
Continuous
 62
     0
370
    30
100
AcDbLine
 10
683.219372
 20
642.85265
 30
0.0
 11
707.857785
 21
642.852651
 31
0.0
  0
LINE
  5
D8
330
C1
100
AcDbEntity
  8
0
  6
Continuous
 62
     0
370
    30
100
AcDbLine
 10
636.857785
 20
642.85265
 30
0.0
 11
683.219372
 21
642.85265
 31
0.0
  0
LINE
  5
D9
330
C1
100
AcDbEntity
  8
0
  6
Continuous
 62
     0
370
     0
100
AcDbLine
 10
663.357786
 20
529.05265
 30
0.0
 11
672.357786
 21
512.05265
 31
0.0
  0
LINE
  5
DA
330
C1
100
AcDbEntity
  8
0
  6
Continuous
 62
     0
370
     0
100
AcDbLine
 10
655.357786
 20
521.05265
 30
0.0
 11
672.357786
 21
512.05265
 31
0.0
  0
LINE
  5
DB
330
C1
100
AcDbEntity
  8
0
  6
Continuous
 62
     0
370
     0
100
AcDbLine
 10
672.357786
 20
512.05265
 30
0.0
 11
655.357786
 21
503.052651
 31
0.0
  0
LINE
  5
DC
330
C1
100
AcDbEntity
  8
0
  6
Continuous
 62
     0
370
     0
100
AcDbLine
 10
672.357786
 20
512.05265
 30
0.0
 11
663.357786
 21
495.052651
 31
0.0
  0
LINE
  5
DD
330
C1
100
AcDbEntity
  8
0
  6
Continuous
 62
     0
370
     0
100
AcDbLine
 10
681.357786
 20
535.552651
 30
0.0
 11
663.357786
 21
535.55265
 31
0.0
  0
ARC
  5
DE
330
C1
100
AcDbEntity
  8
0
  6
Continuous
 62
     0
370
    30
100
AcDbCircle
 10
680.857786
 20
535.552651
 30
0.0
 40
0.5
100
AcDbArc
 50
0.0
 51
90.0
  0
LINE
  5
DF
330
C1
100
AcDbEntity
  8
0
  6
Continuous
 62
     0
370
    30
100
AcDbLine
 10
681.357786
 20
535.552651
 30
0.0
 11
681.357786
 21
488.552651
 31
0.0
  0
LINE
  5
E0
330
C1
100
AcDbEntity
  8
0
  6
Continuous
 62
     0
370
     0
100
AcDbLine
 10
681.357786
 20
488.552651
 30
0.0
 11
663.357786
 21
488.55265
 31
0.0
  0
LINE
  5
E1
330
C1
100
AcDbEntity
  8
0
  6
Continuous
 62
     0
370
    30
100
AcDbLine
 10
680.857786
 20
488.052651
 30
0.0
 11
663.857786
 21
488.05265
 31
0.0
  0
ARC
  5
E2
330
C1
100
AcDbEntity
  8
0
  6
Continuous
 62
     0
370
    30
100
AcDbCircle
 10
680.857786
 20
488.552651
 30
0.0
 40
0.5
100
AcDbArc
 50
270.0
 51
0.0
  0
LINE
  5
E3
330
C1
100
AcDbEntity
  8
0
  6
Continuous
 62
     0
370
     0
100
AcDbLine
 10
605.857786
 20
521.05265
 30
0.0
 11
605.857786
 21
512.05265
 31
0.0
  0
LINE
  5
E4
330
C1
100
AcDbEntity
  8
0
  6
Continuous
 62
     0
370
     0
100
AcDbLine
 10
605.857786
 20
512.05265
 30
0.0
 11
605.857786
 21
503.05265
 31
0.0
  0
LINE
  5
E5
330
C1
100
AcDbEntity
  8
0
  6
Continuous
 62
     0
370
    30
100
AcDbLine
 10
653.960647
 20
536.05265
 30
0.0
 11
690.857786
 21
536.052651
 31
0.0
  0
LINE
  5
E6
330
C1
100
AcDbEntity
  8
0
  6
Continuous
 62
     0
370
    30
100
AcDbLine
 10
653.857786
 20
536.05265
 30
0.0
 11
653.960647
 21
536.05265
 31
0.0
  0
LINE
  5
E7
330
C1
100
AcDbEntity
  8
0
  6
Continuous
 62
     0
370
     0
100
AcDbLine
 10
652.357786
 20
537.55265
 30
0.0
 11
652.468987
 21
537.55265
 31
0.0
  0
LINE
  5
E8
330
C1
100
AcDbEntity
  8
0
  6
Continuous
 62
     0
370
     0
100
AcDbLine
 10
652.468987
 20
537.55265
 30
0.0
 11
692.357786
 21
537.552651
 31
0.0
  0
LINE
  5
E9
330
C1
100
AcDbEntity
  8
0
  6
Continuous
 62
     0
370
     0
100
AcDbLine
 10
600.857785
 20
542.05265
 30
0.0
 11
600.857786
 21
482.090271
 31
0.0
  0
LINE
  5
EA
330
C1
100
AcDbEntity
  8
0
  6
Continuous
 62
     0
370
    30
100
AcDbLine
 10
600.357786
 20
482.589644
 30
0.0
 11
600.357785
 21
541.515656
 31
0.0
  0
LINE
  5
EB
330
C1
100
AcDbEntity
  8
0
  6
Continuous
 62
     0
370
    30
100
AcDbLine
 10
600.357785
 20
541.515656
 30
0.0
 11
600.357785
 21
541.23882
 31
0.0
  0
LINE
  5
EC
330
C1
100
AcDbEntity
  8
0
  6
Continuous
 62
     0
370
     0
100
AcDbLine
 10
604.857786
 20
482.05265
 30
0.0
 11
604.857786
 21
482.090271
 31
0.0
  0
LINE
  5
ED
330
C1
100
AcDbEntity
  8
0
  6
Continuous
 62
     0
370
     0
100
AcDbLine
 10
604.857786
 20
482.090271
 30
0.0
 11
604.857785
 21
542.05265
 31
0.0
  0
LWPOLYLINE
  5
EE
330
C1
100
AcDbEntity
  8
0
  6
Continuous
 62
     0
370
    30
100
AcDbPolyline
 90
       45
 70
     0
 43
0.0
 10
605.357788
 20
541.515686
 10
605.357788
 20
541.549316
 10
605.357788
 20
541.454102
 10
605.357788
 20
541.221191
 10
605.357788
 20
540.843079
 10
605.357788
 20
540.314148
 10
605.357788
 20
539.630493
 10
605.357788
 20
538.790894
 10
605.357788
 20
537.796448
 10
605.357788
 20
536.65094
 10
605.357788
 20
535.360901
 10
605.357788
 20
533.935425
 10
605.357788
 20
532.386108
 10
605.357788
 20
530.726501
 10
605.357788
 20
528.971985
 10
605.357788
 20
527.139099
 10
605.357788
 20
525.245117
 10
605.357788
 20
523.307617
 10
605.357788
 20
521.343872
 10
605.357788
 20
519.370544
 10
605.357788
 20
517.403198
 10
605.357788
 20
515.456177
 10
605.357788
 20
513.542175
 10
605.357788
 20
511.622467
 10
605.357788
 20
509.656494
 10
605.357788
 20
507.656128
 10
605.357788
 20
505.634949
 10
605.357788
 20
503.608002
 10
605.357788
 20
501.591675
 10
605.357788
 20
499.603149
 10
605.357788
 20
497.660248
 10
605.357788
 20
495.78067
 10
605.357788
 20
493.981812
 10
605.357788
 20
492.279938
 10
605.357788
 20
490.689911
 10
605.357788
 20
489.224762
 10
605.357788
 20
487.895233
 10
605.357788
 20
486.709503
 10
605.357788
 20
485.673248
 10
605.357788
 20
484.789429
 10
605.357788
 20
484.05838
 10
605.357788
 20
483.478058
 10
605.357788
 20
483.044342
 10
605.357788
 20
482.751129
 10
605.357788
 20
482.58963
  0
ARC
  5
EF
330
C1
100
AcDbEntity
  8
0
  6
Continuous
 62
     0
370
    30
100
AcDbCircle
 10
604.857771
 20
482.552665
 30
0.0
 40
0.5000150271660276
100
AcDbArc
 50
270.001722
 51
359.998279
  0
ARC
  5
F0
330
C1
100
AcDbEntity
  8
0
  6
Continuous
 62
     0
370
    30
100
AcDbCircle
 10
604.85777
 20
541.552635
 30
0.0
 40
0.5000150271668643
100
AcDbArc
 50
0.001722
 51
89.998279
  0
LINE
  5
F1
330
C1
100
AcDbEntity
  8
0
  6
Continuous
 62
     0
370
    30
100
AcDbLine
 10
604.857786
 20
482.05265
 30
0.0
 11
600.857786
 21
482.05265
 31
0.0
  0
LINE
  5
F2
330
C1
100
AcDbEntity
  8
0
  6
Continuous
 62
     0
370
    30
100
AcDbLine
 10
604.857785
 20
542.05265
 30
0.0
 11
600.857785
 21
542.05265
 31
0.0
  0
ARC
  5
F3
330
C1
100
AcDbEntity
  8
0
  6
Continuous
 62
     0
370
    30
100
AcDbCircle
 10
600.857801
 20
482.552665
 30
0.0
 40
0.50001496916403
100
AcDbArc
 50
180.009819
 51
269.998285
  0
ARC
  5
F4
330
C1
100
AcDbEntity
  8
0
  6
Continuous
 62
     0
370
    30
100
AcDbCircle
 10
600.8578
 20
541.552635
 30
0.0
 40
0.5000149691656846
100
AcDbArc
 50
90.001716
 51
179.990182
  0
LINE
  5
F5
330
C1
100
AcDbEntity
  8
0
  6
Continuous
 62
     0
370
    30
100
AcDbLine
 10
692.357786
 20
537.552651
 30
0.0
 11
692.357786
 21
538.852651
 31
0.0
  0
LINE
  5
F6
330
C1
100
AcDbEntity
  8
0
  6
Continuous
 62
     0
370
    30
100
AcDbLine
 10
652.357786
 20
537.55265
 30
0.0
 11
652.357786
 21
538.85265
 31
0.0
  0
ARC
  5
F7
330
C1
100
AcDbEntity
  8
0
  6
Continuous
 62
     0
370
    30
100
AcDbCircle
 10
690.857718
 20
537.552718
 30
0.0
 40
1.50006784141881
100
AcDbArc
 50
270.010694
 51
359.99741
  0
ARC
  5
F8
330
C1
100
AcDbEntity
  8
0
  6
Continuous
 62
     0
370
    30
100
AcDbCircle
 10
653.857853
 20
537.552718
 30
0.0
 40
1.500067841418576
100
AcDbArc
 50
180.002591
 51
269.989307
  0
ARC
  5
F9
330
C1
100
AcDbEntity
  8
0
  6
Continuous
 62
     0
370
    30
100
AcDbCircle
 10
605.857789
 20
503.552653
 30
0.0
 40
0.5000034422792341
100
AcDbArc
 50
180.000395
 51
269.999606
  0
ARC
  5
FA
330
C1
100
AcDbEntity
  8
0
  6
Continuous
 62
     0
370
    30
100
AcDbCircle
 10
605.857788
 20
520.552647
 30
0.0
 40
0.5000027706889005
100
AcDbArc
 50
90.000318
 51
179.988224
  0
LINE
  5
FB
330
C1
100
AcDbEntity
  8
0
  6
Continuous
 62
     0
370
    30
100
AcDbLine
 10
605.857786
 20
521.05265
 30
0.0
 11
655.358709
 21
521.05265
 31
0.0
  0
LINE
  5
FC
330
C1
100
AcDbEntity
  8
0
  6
Continuous
 62
     0
370
    30
100
AcDbLine
 10
605.857786
 20
503.05265
 30
0.0
 11
655.358709
 21
503.05265
 31
0.0
  0
ARC
  5
FD
330
C1
100
AcDbEntity
  8
0
  6
Continuous
 62
     0
370
    30
100
AcDbCircle
 10
663.857789
 20
488.552653
 30
0.0
 40
0.5000027706894756
100
AcDbArc
 50
180.000318
 51
269.988224
  0
LINE
  5
FE
330
C1
100
AcDbEntity
  8
0
  6
Continuous
 62
     0
370
    30
100
AcDbLine
 10
663.357786
 20
535.55265
 30
0.0
 11
663.357786
 21
529.051727
 31
0.0
  0
LINE
  5
FF
330
C1
100
AcDbEntity
  8
0
  6
Continuous
 62
     0
370
    30
100
AcDbLine
 10
663.357786
 20
495.053574
 30
0.0
 11
663.357786
 21
488.55265
 31
0.0
  0
ARC
  5
100
330
C1
100
AcDbEntity
  8
0
  6
Continuous
 62
     0
370
    30
100
AcDbCircle
 10
663.857788
 20
535.552648
 30
0.0
 40
0.5000027706878505
100
AcDbArc
 50
90.011777
 51
179.999683
  0
ARC
  5
101
330
C1
100
AcDbEntity
  8
0
  6
Continuous
 62
     0
370
    30
100
AcDbCircle
 10
655.357735
 20
495.0526
 30
0.0
 40
8.000050784312016
100
AcDbArc
 50
0.000366
 51
89.999635
  0
ARC
  5
102
330
C1
100
AcDbEntity
  8
0
  6
Continuous
 62
     0
370
    30
100
AcDbCircle
 10
655.357784
 20
529.052652
 30
0.0
 40
8.000001558662554
100
AcDbArc
 50
270.000013
 51
359.999988
  0
ARC
  5
103
330
C1
100
AcDbEntity
  8
0
  6
Continuous
 62
     0
370
    30
100
AcDbCircle
 10
636.857875
 20
640.85256
 30
0.0
 40
2.000090101177242
100
AcDbArc
 50
90.002582
 51
179.997419
  0
ARC
  5
104
330
C1
100
AcDbEntity
  8
0
  6
Continuous
 62
     0
370
    30
100
AcDbCircle
 10
707.857791
 20
640.852657
 30
0.0
 40
1.999993306995635
100
AcDbArc
 50
359.999809
 51
90.000192
  0
LINE
  5
105
330
C1
100
AcDbEntity
  8
0
  6
Continuous
 62
     0
370
    30
100
AcDbLine
 10
634.857785
 20
540.85265
 30
0.0
 11
634.857785
 21
640.85265
 31
0.0
  0
LINE
  5
106
330
C1
100
AcDbEntity
  8
0
  6
Continuous
 62
     0
370
    30
100
AcDbLine
 10
709.857785
 20
540.852651
 30
0.0
 11
709.857785
 21
640.852651
 31
0.0
  0
ARC
  5
107
330
C1
100
AcDbEntity
  8
0
  6
Continuous
 62
     0
370
    30
100
AcDbCircle
 10
636.858226
 20
540.853142
 30
0.0
 40
2.000440595194583
100
AcDbArc
 50
180.014102
 51
269.989713
  0
ARC
  5
108
330
C1
100
AcDbEntity
  8
0
  6
Continuous
 62
     0
370
    30
100
AcDbCircle
 10
707.857345
 20
540.853143
 30
0.0
 40
2.000440601920614
100
AcDbArc
 50
270.010846
 51
359.985899
  0
LWPOLYLINE
  5
109
330
C1
100
AcDbEntity
  8
0
  6
Continuous
 62
     0
370
    30
100
AcDbPolyline
 90
       48
 70
     0
 43
0.0
 10
707.857727
 20
538.852661
 10
707.77832
 20
538.852661
 10
707.540588
 20
538.852661
 10
707.145996
 20
538.852661
 10
706.596069
 20
538.852661
 10
705.893066
 20
538.852661
 10
705.040588
 20
538.852661
 10
704.042114
 20
538.852661
 10
702.902039
 20
538.852661
 10
701.625732
 20
538.852661
 10
700.218689
 20
538.852661
 10
698.687195
 20
538.852661
 10
697.038269
 20
538.852661
 10
695.279114
 20
538.852661
 10
693.417542
 20
538.852661
 10
691.462036
 20
538.852661
 10
689.421204
 20
538.852661
 10
687.304138
 20
538.852661
 10
685.120422
 20
538.852661
 10
682.8797
 20
538.852661
 10
680.591919
 20
538.852661
 10
678.267456
 20
538.852661
 10
675.916565
 20
538.852661
 10
673.549805
 20
538.852661
 10
671.177734
 20
538.852661
 10
668.810974
 20
538.852661
 10
666.459961
 20
538.852661
 10
664.135315
 20
538.852661
 10
661.847412
 20
538.852661
 10
659.606384
 20
538.852661
 10
657.422241
 20
538.852661
 10
655.304932
 20
538.852661
 10
653.263672
 20
538.852661
 10
651.307617
 20
538.852661
 10
649.445679
 20
538.852661
 10
647.685974
 20
538.852661
 10
646.036316
 20
538.852661
 10
644.504395
 20
538.852661
 10
643.09668
 20
538.852661
 10
641.81958
 20
538.852661
 10
640.678955
 20
538.852661
 10
639.679688
 20
538.852661
 10
638.826294
 20
538.852661
 10
638.122803
 20
538.852661
 10
637.57196
 20
538.852661
 10
637.176453
 20
538.852661
 10
636.938171
 20
538.852661
 10
636.857849
 20
538.852661
  0
LINE
  5
10A
330
C1
100
AcDbEntity
  8
0
  6
Continuous
 62
     0
370
    30
100
AcDbLine
 10
663.457784
 20
663.35265
 30
0.0
 11
663.457784
 21
674.65265
 31
0.0
  0
LINE
  5
10B
330
C1
100
AcDbEntity
  8
0
  6
Continuous
 62
     0
370
    30
100
AcDbLine
 10
681.257784
 20
663.35265
 30
0.0
 11
681.257784
 21
674.65265
 31
0.0
  0
ARC
  5
10C
330
C1
100
AcDbEntity
  8
0
  6
Continuous
 62
     0
370
    30
100
AcDbCircle
 10
681.757768
 20
663.352653
 30
0.0
 40
0.5000028982364482
100
AcDbArc
 50
180.000333
 51
269.999544
  0
ARC
  5
10D
330
C1
100
AcDbEntity
  8
0
  6
Continuous
 62
     0
370
    30
100
AcDbCircle
 10
662.957779
 20
663.352654
 30
0.0
 40
0.5000034928242433
100
AcDbArc
 50
270.000389
 51
359.9996
  0
ARC
  5
10E
330
C1
100
AcDbEntity
  8
0
  6
Continuous
 62
     0
370
    30
100
AcDbCircle
 10
688.257747
 20
662.352648
 30
0.0
 40
0.5000022107656538
100
AcDbArc
 50
0.000254
 51
89.994658
  0
ARC
  5
10F
330
C1
100
AcDbEntity
  8
0
  6
Continuous
 62
     0
370
    30
100
AcDbCircle
 10
656.457784
 20
662.352647
 30
0.0
 40
0.5000028004030739
100
AcDbArc
 50
90.003736
 51
179.99968
  0
LINE
  5
110
330
C1
100
AcDbEntity
  8
0
  6
Continuous
 62
     0
370
    30
100
AcDbLine
 10
655.957785
 20
642.85265
 30
0.0
 11
655.957784
 21
662.35265
 31
0.0
  0
LINE
  5
111
330
C1
100
AcDbEntity
  8
0
  6
Continuous
 62
     0
370
    30
100
AcDbLine
 10
688.757785
 20
642.85265
 30
0.0
 11
688.757784
 21
662.35265
 31
0.0
  0
ARC
  5
112
330
C1
100
AcDbEntity
  8
0
  6
Continuous
 62
     0
370
    30
100
AcDbCircle
 10
725.77319
 20
674.243921
 30
0.0
 40
0.500003446071662
100
AcDbArc
 50
250.000395
 51
339.999606
  0
ARC
  5
113
330
C1
100
AcDbEntity
  8
0
  6
Continuous
 62
     0
370
    30
100
AcDbCircle
 10
727.825309
 20
679.88207
 30
0.0
 40
0.5000034460724863
100
AcDbArc
 50
340.000395
 51
69.999606
  0
LINE
  5
114
330
C1
100
AcDbEntity
  8
0
  6
Continuous
 62
     0
370
    30
100
AcDbLine
 10
683.257784
 20
696.635414
 30
0.0
 11
727.996323
 21
680.351918
 31
0.0
  0
LINE
  5
115
330
C1
100
AcDbEntity
  8
0
  6
Continuous
 62
     0
370
    30
100
AcDbLine
 10
683.257784
 20
689.18617
 30
0.0
 11
725.602182
 21
673.77407
 31
0.0
  0
ARC
  5
116
330
C1
100
AcDbEntity
  8
0
  6
Continuous
 62
     0
370
    30
100
AcDbCircle
 10
662.45781
 20
700.452625
 30
0.0
 40
1.000025415542593
100
AcDbArc
 50
90.007186
 51
179.998544
  0
LINE
  5
117
330
C1
100
AcDbEntity
  8
0
  6
Continuous
 62
     0
370
    30
100
AcDbLine
 10
661.457784
 20
674.65265
 30
0.0
 11
661.457784
 21
700.45265
 31
0.0
  0
ENDBLK
  5
119
330
C1
100
AcDbEntity
  8
0
100
AcDbBlockEnd
  0
BLOCK
  5
16E
330
11B
100
AcDbEntity
  8
0
100
AcDbBlockBegin
  2
d
 70
     0
 10
392.501068
 20
192.602997
 30
0.0
  3
d
  1

  0
LWPOLYLINE
  5
11C
330
11B
100
AcDbEntity
  8
0
  6
Continuous
 62
     0
370
     0
100
AcDbPolyline
 90
       28
 70
     0
 43
0.0
 10
678.172668
 20
363.698975
 10
678.958984
 20
363.199402
 10
679.851013
 20
362.746185
 10
680.841553
 20
362.354218
 10
681.918091
 20
362.037811
 10
683.062927
 20
361.809479
 10
684.253723
 20
361.678864
 10
685.465027
 20
361.651672
 10
686.6698
 20
361.729095
 10
687.841492
 20
361.907715
 10
688.955933
 20
362.17984
 10
689.992981
 20
362.534332
 10
690.937317
 20
362.957611
 10
691.779053
 20
363.435028
 10
692.520325
 20
363.957123
 10
693.197937
 20
364.5495
 10
693.799805
 20
365.214661
 10
694.305115
 20
365.945679
 10
694.69458
 20
366.731934
 10
694.952332
 20
367.559235
 10
695.067322
 20
368.410583
 10
695.034363
 20
369.267273
 10
694.85498
 20
370.110168
 10
694.537048
 20
370.921204
 10
694.093933
 20
371.684479
 10
693.543213
 20
372.387329
 10
692.90509
 20
373.020782
 10
692.173401
 20
373.598969
  0
LWPOLYLINE
  5
11D
330
11B
100
AcDbEntity
  8
0
  6
Continuous
 62
     0
370
     0
100
AcDbPolyline
 90
       28
 70
     0
 43
0.0
 10
692.173401
 20
373.598969
 10
691.387085
 20
374.098541
 10
690.495056
 20
374.551788
 10
689.504517
 20
374.943756
 10
688.427979
 20
375.260162
 10
687.283203
 20
375.488464
 10
686.092346
 20
375.61908
 10
684.881104
 20
375.646301
 10
683.676331
 20
375.568878
 10
682.504639
 20
375.390259
 10
681.390137
 20
375.118134
 10
680.353088
 20
374.763641
 10
679.408752
 20
374.340332
 10
678.567078
 20
373.862946
 10
677.825745
 20
373.340851
 10
677.148193
 20
372.748444
 10
676.546326
 20
372.083313
 10
676.041016
 20
371.352295
 10
675.651489
 20
370.56604
 10
675.393738
 20
369.738739
 10
675.278809
 20
368.88739
 10
675.311707
 20
368.030701
 10
675.491089
 20
367.187805
 10
675.809082
 20
366.37677
 10
676.252197
 20
365.613495
 10
676.802917
 20
364.910645
 10
677.440979
 20
364.277191
 10
678.172668
 20
363.698975
  0
ELLIPSE
  5
11E
330
11B
100
AcDbEntity
  8
0
  6
Continuous
 62
     0
370
    30
100
AcDbEllipse
 10
685.173047
 20
349.698522
 30
0.0
 11
-10.9
 21
0.0
 31
0.0
210
0.0
220
0.0
230
1.0
 40
0.707107
 41
0.7853981533910028
 42
3.141592645032659
  0
ELLIPSE
  5
11F
330
11B
100
AcDbEntity
  8
0
  6
Continuous
 62
     0
370
    30
100
AcDbEllipse
 10
685.173047
 20
349.698522
 30
0.0
 11
-10.9
 21
0.0
 31
0.0
210
0.0
220
0.0
230
1.0
 40
0.707107
 41
0.1289076151988331
 42
0.7853981533910028
  0
LWPOLYLINE
  5
120
330
11B
100
AcDbEntity
  8
0
  6
Continuous
 62
     0
370
    30
100
AcDbPolyline
 90
        6
 70
     0
 43
0.0
 10
675.63269
 20
360.324463
 10
675.854614
 20
360.461273
 10
676.154053
 20
360.465393
 10
676.52771
 20
360.346344
 10
676.967957
 20
360.117432
 10
677.465576
 20
359.792694
  0
ELLIPSE
  5
121
330
11B
100
AcDbEntity
  8
0
  6
Continuous
 62
     0
370
     0
100
AcDbEllipse
 10
685.173047
 20
367.941877
 30
0.0
 11
10.9
 21
0.0
 31
0.0
210
0.0
220
0.0
230
-1.0
 40
0.707107
 41
2.356194500198794
 42
3.141727364764131
  0
ELLIPSE
  5
122
330
11B
100
AcDbEntity
  8
0
  6
Continuous
 62
     0
370
     0
100
AcDbEllipse
 10
685.173047
 20
367.941877
 30
0.0
 11
10.9
 21
0.0
 31
0.0
210
0.0
220
0.0
230
-1.0
 40
0.707107
 41
6.283185298804208
 42
8.63937980737838
  0
LWPOLYLINE
  5
123
330
11B
100
AcDbEntity
  8
0
  6
Continuous
 62
     0
370
    30
100
AcDbPolyline
 90
        9
 70
     0
 43
0.0
 10
677.465576
 20
359.792694
 10
677.959961
 20
359.419708
 10
678.463867
 20
358.991516
 10
678.954224
 20
358.519226
 10
679.405029
 20
358.013947
 10
679.789307
 20
357.48822
 10
680.083984
 20
356.954773
 10
680.2724
 20
356.428162
 10
680.348633
 20
355.84613
  0
LWPOLYLINE
  5
124
330
11B
100
AcDbEntity
  8
0
  6
Continuous
 62
     0
370
    30
100
AcDbPolyline
 90
        4
 70
     0
 43
0.0
 10
680.348633
 20
355.84613
 10
680.301086
 20
355.413818
 10
680.164185
 20
355.025757
 10
679.881897
 20
354.618408
  0
ELLIPSE
  5
125
330
11B
100
AcDbEntity
  8
0
  6
Continuous
 62
     0
370
     0
100
AcDbEllipse
 10
646.677115
 20
324.182158
 30
0.0
 11
-2.558302450921195
 21
2.388532723160939
 31
0.0
210
0.0
220
0.0
230
-0.9999999999999998
 40
0.228002
 41
2.602303822329915
 42
3.141748184952914
  0
ELLIPSE
  5
126
330
11B
100
AcDbEntity
  8
0
  6
Continuous
 62
     0
370
     0
100
AcDbEllipse
 10
646.677115
 20
324.182158
 30
0.0
 11
-2.558302450921195
 21
2.388532723160939
 31
0.0
210
0.0
220
0.0
230
-0.9999999999999998
 40
0.228002
 41
6.270568683378171
 42
8.885489129509466
  0
LWPOLYLINE
  5
127
330
11B
100
AcDbEntity
  8
0
  6
Continuous
 62
     0
370
     0
100
AcDbPolyline
 90
       15
 70
     0
 43
0.0
 10
644.223572
 20
325.326324
 10
644.437988
 20
324.959686
 10
644.74762
 20
324.536499
 10
645.137329
 20
324.077667
 10
645.587341
 20
323.606354
 10
646.075317
 20
323.145966
 10
646.576721
 20
322.719727
 10
647.066589
 20
322.348694
 10
647.520203
 20
322.051727
 10
647.915222
 20
321.843445
 10
648.231628
 20
321.734497
 10
648.453247
 20
321.729828
 10
648.569702
 20
321.829224
 10
648.575195
 20
322.029175
 10
648.466187
 20
322.326324
  0
LWPOLYLINE
  5
128
330
11B
100
AcDbEntity
  8
0
  6
Continuous
 62
     0
370
     0
100
AcDbPolyline
 90
       15
 70
     0
 43
0.0
 10
648.466187
 20
322.326324
 10
648.25177
 20
322.692657
 10
647.942688
 20
323.115479
 10
647.555603
 20
323.571503
 10
647.107422
 20
324.04129
 10
646.619629
 20
324.502014
 10
646.118225
 20
324.928802
 10
645.628357
 20
325.300293
 10
645.174316
 20
325.598022
 10
644.778687
 20
325.807373
 10
644.461426
 20
325.917511
 10
644.238342
 20
325.923157
 10
644.120483
 20
325.824036
 10
644.114014
 20
325.624908
 10
644.223572
 20
325.326324
  0
LWPOLYLINE
  5
129
330
11B
100
AcDbEntity
  8
0
  6
Continuous
 62
     0
370
     0
100
AcDbPolyline
 90
       15
 70
     0
 43
0.0
 10
648.289429
 20
322.451324
 10
648.385254
 20
322.198975
 10
648.388977
 20
322.008698
 10
648.284851
 20
321.906738
 10
648.072449
 20
321.909088
 10
647.769043
 20
322.015533
 10
647.404907
 20
322.209961
 10
647.014832
 20
322.465851
 10
646.59613
 20
322.780853
 10
646.138062
 20
323.166687
 10
645.672241
 20
323.603088
 10
645.236816
 20
324.057922
 10
644.86731
 20
324.494293
 10
644.587097
 20
324.879944
 10
644.40033
 20
325.201324
  0
LWPOLYLINE
  5
12A
330
11B
100
AcDbEntity
  8
0
  6
Continuous
 62
     0
370
     0
100
AcDbPolyline
 90
       15
 70
     0
 43
0.0
 10
644.40033
 20
325.201324
 10
644.304504
 20
325.453674
 10
644.300781
 20
325.643951
 10
644.404907
 20
325.74588
 10
644.61731
 20
325.74353
 10
644.920715
 20
325.637085
 10
645.284851
 20
325.442688
 10
645.674927
 20
325.186768
 10
646.093628
 20
324.871765
 10
646.551697
 20
324.485962
 10
647.017517
 20
324.049561
 10
647.452942
 20
323.594696
 10
647.822449
 20
323.158325
 10
648.102661
 20
322.772675
 10
648.289429
 20
322.451324
  0
ELLIPSE
  5
12B
330
11B
100
AcDbEntity
  8
0
  6
Continuous
 62
     0
370
     0
100
AcDbEllipse
 10
646.677115
 20
324.182158
 30
0.0
 11
-1.644623004163625
 21
1.535485322032032
 31
0.0
210
0.0
220
0.0
230
-1.0
 40
0.228002
 41
5.743896475919746
 42
6.008329409240819
  0
ELLIPSE
  5
12C
330
11B
100
AcDbEntity
  8
0
  6
Continuous
 62
     0
370
     0
100
AcDbEllipse
 10
646.677115
 20
324.182158
 30
0.0
 11
-1.644623004163625
 21
1.535485322032032
 31
0.0
210
0.0
220
0.0
230
-1.0
 40
0.228002
 41
3.416430487855816
 42
5.743896475919746
  0
ELLIPSE
  5
12D
330
11B
100
AcDbEntity
  8
0
  6
Continuous
 62
     0
370
     0
100
AcDbEllipse
 10
685.173047
 20
341.001108
 30
0.0
 11
16.4
 21
0.0
 31
0.0
210
0.0
220
0.0
230
-1.0
 40
0.707107
 41
6.269279448157953
 42
8.983324497620279
  0
ELLIPSE
  5
12E
330
11B
100
AcDbEntity
  8
0
  6
Continuous
 62
     0
370
     0
100
AcDbEllipse
 10
685.173047
 20
341.001108
 30
0.0
 11
16.4
 21
0.0
 31
0.0
210
0.0
220
0.0
230
-1.0
 40
0.707107
 41
2.700139190440692
 42
3.312788884365008
  0
ELLIPSE
  5
12F
330
11B
100
AcDbEntity
  8
0
  6
Continuous
 62
     0
370
    30
100
AcDbEllipse
 10
685.173047
 20
327.212526
 30
0.0
 11
-16.4
 21
0.0
 31
0.0
210
0.0
220
0.0
230
1.0
 40
0.707107
 41
6.283185298622451
 42
6.724638770328686
  0
ELLIPSE
  5
130
330
11B
100
AcDbEntity
  8
0
  6
Continuous
 62
     0
370
    30
100
AcDbEllipse
 10
685.173047
 20
327.212526
 30
0.0
 11
-16.4
 21
0.0
 31
0.0
210
0.0
220
0.0
230
1.0
 40
0.707107
 41
0.4414534631490996
 42
3.141592645032658
  0
LWPOLYLINE
  5
131
330
11B
100
AcDbEntity
  8
0
  6
Continuous
 62
     0
370
     0
100
AcDbPolyline
 90
       33
 70
     0
 43
0.0
 10
699.548767
 20
346.158264
 10
700.144287
 20
345.140472
 10
700.597351
 20
344.084015
 10
700.901245
 20
343.003296
 10
701.053772
 20
341.907959
 10
701.053955
 20
340.806305
 10
700.90155
 20
339.708771
 10
700.597961
 20
338.62677
 10
700.145691
 20
337.57132
 10
699.549561
 20
336.552368
 10
698.815002
 20
335.57962
 10
697.94928
 20
334.662323
 10
696.960632
 20
333.809418
 10
695.858521
 20
333.029144
 10
694.653687
 20
332.328949
 10
693.357544
 20
331.715637
 10
691.982788
 20
331.194977
 10
690.542358
 20
330.772186
 10
689.050354
 20
330.45108
 10
687.521057
 20
330.234985
 10
685.969177
 20
330.125793
 10
684.409607
 20
330.124664
 10
682.857361
 20
330.231659
 10
681.327454
 20
330.445496
 10
679.834595
 20
330.764374
 10
678.392944
 20
331.18512
 10
677.016296
 20
331.70401
 10
675.718323
 20
332.31543
 10
674.512512
 20
333.013092
 10
673.410095
 20
333.7901
 10
672.419556
 20
334.640656
 10
671.549927
 20
335.557495
 10
670.797363
 20
336.551056
  0
LWPOLYLINE
  5
132
330
11B
100
AcDbEntity
  8
0
  6
Continuous
 62
     0
370
     0
100
AcDbPolyline
 90
        5
 70
     0
 43
0.0
 10
696.070801
 20
349.541504
 10
697.071777
 20
348.812347
 10
697.976501
 20
348.020996
 10
698.777588
 20
347.173553
 10
699.548767
 20
346.158264
  0
LWPOLYLINE
  5
133
330
11B
100
AcDbEntity
  8
0
  6
Continuous
 62
     0
370
     0
100
AcDbPolyline
 90
        8
 70
     0
 43
0.0
 10
670.797363
 20
336.551056
 10
670.243469
 20
337.487305
 10
669.810242
 20
338.457306
 10
669.502869
 20
339.449707
 10
669.323975
 20
340.455933
 10
669.273926
 20
341.470032
 10
669.353699
 20
342.484283
 10
669.592896
 20
343.598022
  0
LWPOLYLINE
  5
134
330
11B
100
AcDbEntity
  8
0
  6
Continuous
 62
     0
370
     0
100
AcDbPolyline
 90
       25
 70
     0
 43
0.0
 10
694.073059
 20
343.493591
 10
694.380737
 20
342.692261
 10
694.546387
 20
341.85498
 10
694.559753
 20
341.001038
 10
694.417725
 20
340.151367
 10
694.124939
 20
339.326843
 10
693.692993
 20
338.5466
 10
693.139587
 20
337.82663
 10
692.477661
 20
337.171173
 10
691.689148
 20
336.564026
 10
690.781067
 20
336.020355
 10
689.769958
 20
335.556885
 10
688.678284
 20
335.187286
 10
687.532959
 20
334.920746
 10
686.363098
 20
334.761353
 10
685.197571
 20
334.707886
 10
684.059631
 20
334.754639
 10
682.921936
 20
334.901276
 10
681.793274
 20
335.152344
 10
680.702271
 20
335.507782
 10
679.677368
 20
335.962189
 10
678.744507
 20
336.505219
 10
677.92511
 20
337.122192
 10
677.234314
 20
337.79538
 10
676.674194
 20
338.514801
  0
LWPOLYLINE
  5
135
330
11B
100
AcDbEntity
  8
0
  6
Continuous
 62
     0
370
     0
100
AcDbPolyline
 90
        8
 70
     0
 43
0.0
 10
676.674194
 20
338.514801
 10
676.319641
 20
339.121185
 10
676.043152
 20
339.772644
 10
675.858215
 20
340.462067
 10
675.776306
 20
341.179993
 10
675.806458
 20
341.914825
 10
675.954224
 20
342.653351
 10
676.273071
 20
343.493591
  0
LWPOLYLINE
  5
136
330
11B
100
AcDbEntity
  8
0
  6
Continuous
 62
     0
370
     0
100
AcDbPolyline
 90
       22
 70
     0
 43
0.0
 10
694.072998
 20
341.70871
 10
694.0
 20
340.903473
 10
693.781799
 20
340.111511
 10
693.42218
 20
339.345795
 10
692.92688
 20
338.618896
 10
692.304138
 20
337.94281
 10
691.56427
 20
337.328583
 10
690.719238
 20
336.786377
 10
689.783081
 20
336.325073
 10
688.771179
 20
335.952209
 10
687.700134
 20
335.673981
 10
686.587524
 20
335.494965
 10
685.45166
 20
335.41806
 10
684.311218
 20
335.44455
 10
683.184937
 20
335.574005
 10
682.091309
 20
335.804291
 10
681.048401
 20
336.131622
 10
680.073242
 20
336.550629
 10
679.181946
 20
337.054382
 10
678.389099
 20
337.634674
 10
677.707764
 20
338.281891
 10
677.126282
 20
339.019409
  0
LWPOLYLINE
  5
137
330
11B
100
AcDbEntity
  8
0
  6
Continuous
 62
     0
370
     0
100
AcDbPolyline
 90
        5
 70
     0
 43
0.0
 10
677.126282
 20
339.019409
 10
676.779419
 20
339.615753
 10
676.520691
 20
340.234039
 10
676.352783
 20
340.867828
 10
676.273071
 20
341.708221
  0
ELLIPSE
  5
138
330
11B
100
AcDbEntity
  8
0
  6
Continuous
 62
     0
370
     0
100
AcDbEllipse
 10
685.173047
 20
255.087634
 30
0.0
 11
-37.49999999999544
 21
0.0
 31
0.0
210
0.0
220
0.0
230
1.0
 40
0.707107
 41
6.283185298622452
 42
8.950326593005045
  0
ELLIPSE
  5
139
330
11B
100
AcDbEntity
  8
0
  6
Continuous
 62
     0
370
     0
100
AcDbEllipse
 10
685.173047
 20
255.087634
 30
0.0
 11
-37.49999999999544
 21
0.0
 31
0.0
210
0.0
220
0.0
230
1.0
 40
0.707107
 41
2.667141285825459
 42
3.141592645032657
  0
ELLIPSE
  5
13A
330
11B
100
AcDbEntity
  8
0
  6
Continuous
 62
     0
370
     0
100
AcDbEllipse
 10
685.173047
 20
325.798312
 30
0.0
 11
-37.49999999999425
 21
0.0
 31
0.0
210
0.0
220
0.0
230
1.0
 40
0.707107
 41
0.1548248394307166
 42
2.667141285825458
  0
ELLIPSE
  5
13B
330
11B
100
AcDbEntity
  8
0
  6
Continuous
 62
     0
370
     0
100
AcDbEllipse
 10
685.173047
 20
325.798312
 30
0.0
 11
-37.49999999999425
 21
0.0
 31
0.0
210
0.0
220
0.0
230
1.0
 40
0.707107
 41
2.667141285825459
 42
3.141592645032657
  0
ELLIPSE
  5
13C
330
11B
100
AcDbEntity
  8
0
  6
Continuous
 62
     0
370
     0
100
AcDbEllipse
 10
685.173047
 20
327.212526
 30
0.0
 11
-35.49999999999425
 21
0.0
 31
0.0
210
0.0
220
0.0
230
1.0
 40
0.707107
 41
0.1749651216455872
 42
2.667141285825459
  0
ELLIPSE
  5
13D
330
11B
100
AcDbEntity
  8
0
  6
Continuous
 62
     0
370
     0
100
AcDbEllipse
 10
685.173047
 20
327.212526
 30
0.0
 11
-35.49999999999425
 21
0.0
 31
0.0
210
0.0
220
0.0
230
1.0
 40
0.707107
 41
5.808733939415252
 42
6.013956274202767
  0
ELLIPSE
  5
13E
330
11B
100
AcDbEntity
  8
0
  6
Continuous
 62
     0
370
     0
100
AcDbEllipse
 10
685.173047
 20
327.212526
 30
0.0
 11
-35.49999999999425
 21
0.0
 31
0.0
210
0.0
220
0.0
230
1.0
 40
0.707107
 41
5.385413455587878
 42
5.808733939415252
  0
ELLIPSE
  5
13F
330
11B
100
AcDbEntity
  8
0
  6
Continuous
 62
     0
370
     0
100
AcDbEllipse
 10
685.173047
 20
327.212526
 30
0.0
 11
-35.49999999999425
 21
0.0
 31
0.0
210
0.0
220
0.0
230
1.0
 40
0.707107
 41
2.66714128582546
 42
4.400305373261295
  0
LWPOLYLINE
  5
140
330
11B
100
AcDbEntity
  8
0
  6
Continuous
 62
     0
370
     0
100
AcDbPolyline
 90
        7
 70
     0
 43
0.0
 10
694.173035
 20
226.214523
 10
694.136963
 20
226.448257
 10
694.026733
 20
226.744736
 10
693.848816
 20
227.097397
 10
693.608521
 20
227.500732
 10
693.31073
 20
227.949799
 10
692.871155
 20
228.559143
  0
ELLIPSE
  5
141
330
11B
100
AcDbEntity
  8
0
  6
Continuous
 62
     0
370
     0
100
AcDbEllipse
 10
685.173047
 20
218.105949
 30
0.0
 11
9.0
 21
0.0
 31
0.0
210
0.0
220
0.0
230
-1.0
 40
0.707107
 41
0.0000000085571361
 42
2.356194490192341
  0
ELLIPSE
  5
142
330
11B
100
AcDbEntity
  8
0
  6
Continuous
 62
     0
370
     0
100
AcDbEllipse
 10
685.173047
 20
218.105949
 30
0.0
 11
9.0
 21
0.0
 31
0.0
210
0.0
220
0.0
230
-1.0
 40
0.707107
 41
2.356194490192341
 42
3.141592662146925
  0
ELLIPSE
  5
143
330
11B
100
AcDbEntity
  8
0
  6
Continuous
 62
     0
370
     0
100
AcDbEllipse
 10
732.195648
 20
267.972958
 30
0.0
 11
5.196152393063845
 21
-7.348469249310151
 31
0.0
210
0.0
220
0.0
230
0.9999999999999999
 40
0.5
 41
0.6154797167381361
 42
3.141592665691407
  0
ELLIPSE
  5
144
330
11B
100
AcDbEntity
  8
0
  6
Continuous
 62
     0
370
     0
100
AcDbEllipse
 10
732.195648
 20
267.972958
 30
0.0
 11
5.196152393063845
 21
-7.348469249310151
 31
0.0
210
0.0
220
0.0
230
0.9999999999999999
 40
0.5
 41
0.0000000121016193
 42
0.6154797167381361
  0
LWPOLYLINE
  5
145
330
11B
100
AcDbEntity
  8
0
  6
Continuous
 62
     0
370
     0
100
AcDbPolyline
 90
       32
 70
     0
 43
0.0
 10
753.051697
 20
245.978058
 10
753.885559
 20
246.662323
 10
754.618652
 20
247.460205
 10
755.248901
 20
248.36171
 10
755.775818
 20
249.355774
 10
756.2005
 20
250.430649
 10
756.525452
 20
251.574188
 10
756.754333
 20
252.774231
 10
756.891907
 20
254.018799
 10
756.943787
 20
255.311905
 10
756.910522
 20
256.695374
 10
756.786316
 20
258.169495
 10
756.565979
 20
259.729492
 10
756.245178
 20
261.368896
 10
755.820862
 20
263.079498
 10
755.291382
 20
264.85144
 10
754.656616
 20
266.673309
 10
753.918091
 20
268.532349
 10
753.079102
 20
270.414673
 10
752.144592
 20
272.305664
 10
751.121094
 20
274.190308
 10
750.016663
 20
276.053558
 10
748.840637
 20
277.880768
 10
747.60321
 20
279.658112
 10
746.315491
 20
281.372772
 10
744.98877
 20
283.013428
 10
743.634644
 20
284.570312
 10
742.264282
 20
286.035492
 10
740.888611
 20
287.402802
 10
739.517761
 20
288.667969
 10
738.161011
 20
289.8284
 10
736.793213
 20
290.9086
  0
LWPOLYLINE
  5
146
330
11B
100
AcDbEntity
  8
0
  6
Continuous
 62
     0
370
     0
100
AcDbPolyline
 90
       12
 70
     0
 43
0.0
 10
736.793213
 20
290.9086
 10
735.545593
 20
291.816589
 10
734.270142
 20
292.668915
 10
732.973022
 20
293.45639
 10
731.661377
 20
294.169891
 10
730.342896
 20
294.800537
 10
729.026001
 20
295.339844
 10
727.719727
 20
295.780121
 10
726.43335
 20
296.114502
 10
725.176453
 20
296.337311
 10
723.958313
 20
296.444153
 10
722.673035
 20
296.424255
  0
ELLIPSE
  5
147
330
11B
100
AcDbEntity
  8
0
  6
Continuous
 62
     0
370
     0
100
AcDbEllipse
 10
732.902755
 20
268.472958
 30
0.0
 11
-17.32050797687948
 21
24.4948974977005
 31
0.0
210
0.0
220
0.0
230
-0.9999999999999999
 40
0.5
 41
1.00540243554746
 42
3.141592670260525
  0
ELLIPSE
  5
148
330
11B
100
AcDbEntity
  8
0
  6
Continuous
 62
     0
370
     0
100
AcDbEllipse
 10
732.902755
 20
268.472958
 30
0.0
 11
-17.32050797687948
 21
24.4948974977005
 31
0.0
210
0.0
220
0.0
230
-0.9999999999999999
 40
0.5
 41
0.4521146920001393
 42
1.00540243554746
  0
LWPOLYLINE
  5
149
330
11B
100
AcDbEntity
  8
0
  6
Continuous
 62
     0
370
     0
100
AcDbPolyline
 90
       46
 70
     0
 43
0.0
 10
731.504883
 20
248.12793
 10
732.832275
 20
247.165054
 10
734.191162
 20
246.267014
 10
735.573547
 20
245.44516
 10
736.970703
 20
244.710831
 10
738.372559
 20
244.074921
 10
739.768433
 20
243.547623
 10
741.146912
 20
243.138077
 10
742.496399
 20
242.854065
 10
743.805054
 20
242.701675
 10
745.06134
 20
242.685074
 10
746.254272
 20
242.806366
 10
747.373779
 20
243.065353
 10
748.411011
 20
243.459717
 10
749.358337
 20
243.984879
 10
750.2099
 20
244.634308
 10
750.961426
 20
245.399704
 10
751.610291
 20
246.271271
 10
752.155762
 20
247.238052
 10
752.598511
 20
248.288315
 10
752.940796
 20
249.409851
 10
753.186157
 20
250.590363
 10
753.339111
 20
251.817688
 10
753.405273
 20
253.088516
 10
753.386902
 20
254.445511
 10
753.278442
 20
255.893845
 10
753.074524
 20
257.428955
 10
752.77063
 20
259.044617
 10
752.363525
 20
260.732788
 10
751.851196
 20
262.483704
 10
751.233459
 20
264.286011
 10
750.511658
 20
266.126984
 10
749.688843
 20
267.992737
 10
748.769897
 20
269.868561
 10
747.761292
 20
271.739288
 10
746.671082
 20
273.589752
 10
745.508484
 20
275.40509
 10
744.283875
 20
277.171234
 10
743.008301
 20
278.875305
 10
741.693298
 20
280.505707
 10
740.350464
 20
282.052551
 10
738.991211
 20
283.507751
 10
737.626465
 20
284.865082
 10
736.266541
 20
286.120178
 10
734.920715
 20
287.270447
 10
733.593567
 20
288.317993
  0
LWPOLYLINE
  5
14A
330
11B
100
AcDbEntity
  8
0
  6
Continuous
 62
     0
370
     0
100
AcDbPolyline
 90
        5
 70
     0
 43
0.0
 10
726.276184
 20
252.764572
 10
727.490479
 20
251.563049
 10
728.700928
 20
250.44252
 10
729.900757
 20
249.404831
 10
731.504883
 20
248.12793
  0
LWPOLYLINE
  5
14B
330
11B
100
AcDbEntity
  8
0
  6
Continuous
 62
     0
370
     0
100
AcDbPolyline
 90
        9
 70
     0
 43
0.0
 10
733.593567
 20
288.317993
 10
732.293091
 20
289.262146
 10
730.962341
 20
290.144257
 10
729.608582
 20
290.953644
 10
728.240173
 20
291.679626
 10
726.866455
 20
292.31192
 10
725.497375
 20
292.840851
 10
724.143677
 20
293.257721
 10
722.673035
 20
293.579987
  0
LWPOLYLINE
  5
14C
330
11B
100
AcDbEntity
  8
0
  6
Continuous
 62
     0
370
    30
100
AcDbPolyline
 90
       19
 70
     0
 43
0.0
 10
750.223267
 20
243.978058
 10
749.282837
 20
243.406891
 10
748.260925
 20
242.964691
 10
747.165039
 20
242.653763
 10
746.002014
 20
242.474365
 10
744.778931
 20
242.426346
 10
743.501953
 20
242.508789
 10
742.177063
 20
242.719925
 10
740.810303
 20
243.057709
 10
739.407654
 20
243.520004
 10
737.975281
 20
244.104141
 10
736.519592
 20
244.807053
 10
735.04718
 20
245.625046
 10
733.564819
 20
246.554169
 10
732.079468
 20
247.589859
 10
730.598022
 20
248.727097
 10
729.127563
 20
249.960266
 10
727.675171
 20
251.283493
 10
726.216431
 20
252.722305
  0
LINE
  5
14D
330
11B
100
AcDbEntity
  8
0
  6
Continuous
 62
     0
370
    30
100
AcDbLine
 10
750.223263
 20
243.978061
 30
0.0
 11
753.05169
 21
245.978061
 31
0.0
  0
LWPOLYLINE
  5
14E
330
11B
100
AcDbEntity
  8
0
  6
Continuous
 62
     0
370
    30
100
AcDbPolyline
 90
       11
 70
     0
 43
0.0
 10
737.077332
 20
290.966614
 10
735.549438
 20
292.068268
 10
734.022278
 20
293.058777
 10
732.503601
 20
293.932953
 10
731.000732
 20
294.686279
 10
729.520813
 20
295.314789
 10
728.071045
 20
295.81488
 10
726.658142
 20
296.183685
 10
725.288635
 20
296.418549
 10
723.969116
 20
296.517395
 10
722.673035
 20
296.475433
  0
LWPOLYLINE
  5
14F
330
11B
100
AcDbEntity
  8
0
  6
Continuous
 62
     0
370
    30
100
AcDbPolyline
 90
       31
 70
     0
 43
0.0
 10
753.051697
 20
245.978058
 10
753.914734
 20
246.684753
 10
754.680664
 20
247.51445
 10
755.344604
 20
248.460648
 10
755.904053
 20
249.516617
 10
756.35675
 20
250.675522
 10
756.701416
 20
251.930832
 10
756.937683
 20
253.276108
 10
757.065674
 20
254.704742
 10
757.085388
 20
256.210052
 10
756.997253
 20
257.785034
 10
756.802185
 20
259.422272
 10
756.501526
 20
261.113892
 10
756.096924
 20
262.851898
 10
755.590515
 20
264.627869
 10
754.984924
 20
266.433136
 10
754.283264
 20
268.258789
 10
753.488953
 20
270.095856
 10
752.606201
 20
271.935181
 10
751.639465
 20
273.767609
 10
750.593445
 20
275.583954
 10
749.47345
 20
277.375122
 10
748.285217
 20
279.132202
 10
747.034546
 20
280.846222
 10
745.727905
 20
282.508667
 10
744.371765
 20
284.111237
 10
742.972839
 20
285.645691
 10
741.53833
 20
287.10434
 10
740.075134
 20
288.480164
 10
738.590393
 20
289.766205
 10
737.077332
 20
290.966614
  0
LWPOLYLINE
  5
150
330
11B
100
AcDbEntity
  8
0
  6
Continuous
 62
     0
370
    30
100
AcDbPolyline
 90
        6
 70
     0
 43
0.0
 10
737.391968
 20
260.624603
 10
737.865906
 20
261.054688
 10
738.236511
 20
261.594391
 10
738.498657
 20
262.226227
 10
738.654175
 20
262.936584
 10
738.706055
 20
263.722961
  0
LWPOLYLINE
  5
151
330
11B
100
AcDbEntity
  8
0
  6
Continuous
 62
     0
370
    30
100
AcDbPolyline
 90
       21
 70
     0
 43
0.0
 10
738.706055
 20
263.722961
 10
738.655212
 20
264.568146
 10
738.504639
 20
265.462677
 10
738.257812
 20
266.393829
 10
737.919312
 20
267.348755
 10
737.494263
 20
268.314209
 10
736.98938
 20
269.275665
 10
736.412659
 20
270.218445
 10
735.77301
 20
271.128052
 10
735.080261
 20
271.990479
 10
734.345093
 20
272.79245
 10
733.578552
 20
273.521484
 10
732.792114
 20
274.16629
 10
731.996704
 20
274.717316
 10
731.203308
 20
275.166107
 10
730.421875
 20
275.505066
 10
729.660767
 20
275.728088
 10
728.928894
 20
275.828796
 10
728.235779
 20
275.800476
 10
727.592957
 20
275.636658
 10
727.01416
 20
275.331696
  0
LINE
  5
152
330
11B
100
AcDbEntity
  8
0
  6
Continuous
 62
     0
370
    30
100
AcDbLine
 10
726.999496
 20
275.321427
 30
0.0
 11
722.673048
 21
272.262166
 31
0.0
  0
LINE
  5
153
330
11B
100
AcDbEntity
  8
0
  6
Continuous
 62
     0
370
    30
100
AcDbLine
 10
737.391801
 20
260.624489
 30
0.0
 11
721.927635
 21
249.689673
 31
0.0
  0
LWPOLYLINE
  5
154
330
11B
100
AcDbEntity
  8
0
  6
Continuous
 62
     0
370
    30
100
AcDbPolyline
 90
        8
 70
     0
 43
0.0
 10
678.873962
 20
213.447708
 10
678.209412
 20
213.972427
 10
677.626587
 20
214.548813
 10
677.133301
 20
215.170532
 10
676.736145
 20
215.831238
 10
676.440979
 20
216.523285
 10
676.252808
 20
217.238174
 10
676.173035
 20
218.105911
  0
LWPOLYLINE
  5
155
330
11B
100
AcDbEntity
  8
0
  6
Continuous
 62
     0
370
    30
100
AcDbPolyline
 90
       19
 70
     0
 43
0.0
 10
694.173035
 20
218.105942
 10
694.09375
 20
217.240692
 10
693.858093
 20
216.392471
 10
693.47229
 20
215.578842
 10
692.94519
 20
214.81366
 10
692.287109
 20
214.108856
 10
691.510376
 20
213.474976
 10
690.62854
 20
212.921387
 10
689.656372
 20
212.456146
 10
688.609924
 20
212.086121
 10
687.506531
 20
211.816849
 10
686.36438
 20
211.652496
 10
685.202393
 20
211.595657
 10
684.039978
 20
211.647171
 10
682.896362
 20
211.80603
 10
681.790649
 20
212.070221
 10
680.740845
 20
212.435196
 10
679.764526
 20
212.895752
 10
678.873962
 20
213.447708
  0
LINE
  5
156
330
11B
100
AcDbEntity
  8
0
  6
Continuous
 62
     0
370
    30
100
AcDbLine
 10
676.173047
 20
228.772784
 30
0.0
 11
676.173047
 21
218.105949
 31
0.0
  0
LINE
  5
157
330
11B
100
AcDbEntity
  8
0
  6
Continuous
 62
     0
370
    30
100
AcDbLine
 10
694.173047
 20
226.222895
 30
0.0
 11
694.173047
 21
218.105949
 31
0.0
  0
ARC
  5
158
330
11B
100
AcDbEntity
  8
0
  6
Continuous
 62
     0
370
    30
100
AcDbCircle
 10
701.56649
 20
226.218804
 30
0.0
 40
7.392941243479836
100
AcDbArc
 50
159.048904
 51
179.973721
  0
LWPOLYLINE
  5
159
330
11B
100
AcDbEntity
  8
0
  6
Continuous
 62
     0
370
    30
100
AcDbPolyline
 90
       14
 70
     0
 43
0.0
 10
664.554382
 20
348.45874
 10
662.715332
 20
347.528992
 10
660.955627
 20
346.520416
 10
659.281494
 20
345.436218
 10
657.699219
 20
344.27951
 10
656.214417
 20
343.054016
 10
654.832397
 20
341.763763
 10
653.55835
 20
340.412872
 10
652.397339
 20
339.005402
 10
651.35437
 20
337.545776
 10
650.433716
 20
336.039093
 10
649.639587
 20
334.490479
 10
648.975586
 20
332.905731
 10
648.4104
 20
331.167297
  0
LWPOLYLINE
  5
15A
330
11B
100
AcDbEntity
  8
0
  6
Continuous
 62
     0
370
    30
100
AcDbPolyline
 90
       21
 70
     0
 43
0.0
 10
722.673035
 20
325.798309
 10
722.594666
 20
327.556885
 10
722.359924
 20
329.307159
 10
721.970459
 20
331.040131
 10
721.428833
 20
332.747925
 10
720.737976
 20
334.422882
 10
719.901794
 20
336.05777
 10
718.924866
 20
337.645935
 10
717.812195
 20
339.181427
 10
716.568726
 20
340.658264
 10
715.200256
 20
342.071198
 10
713.712769
 20
343.415375
 10
712.112488
 20
344.686066
 10
710.405762
 20
345.878723
 10
708.599609
 20
346.989288
 10
706.701111
 20
348.013916
 10
704.717834
 20
348.948975
 10
702.657471
 20
349.791046
 10
700.52832
 20
350.537323
 10
698.338684
 20
351.185181
 10
696.073059
 20
351.737213
  0
LINE
  5
15B
330
11B
100
AcDbEntity
  8
0
  6
Continuous
 62
     0
370
    30
100
AcDbLine
 10
722.673047
 20
255.087633
 30
0.0
 11
722.673047
 21
325.798312
 31
0.0
  0
LINE
  5
15C
330
11B
100
AcDbEntity
  8
0
  6
Continuous
 62
     0
370
    30
100
AcDbLine
 10
647.673047
 20
255.087634
 30
0.0
 11
647.673047
 21
321.933175
 31
0.0
  0
LWPOLYLINE
  5
15D
330
11B
100
AcDbEntity
  8
0
  6
Continuous
 62
     0
370
    30
100
AcDbPolyline
 90
       43
 70
     0
 43
0.0
 10
718.370056
 20
242.444321
 10
717.194397
 20
240.944092
 10
715.891663
 20
239.504379
 10
714.467834
 20
238.130798
 10
712.929138
 20
236.827911
 10
711.281494
 20
235.600189
 10
709.531677
 20
234.451889
 10
707.686584
 20
233.386963
 10
705.75354
 20
232.409103
 10
703.739929
 20
231.521851
 10
701.653748
 20
230.728149
 10
699.503296
 20
230.030762
 10
697.296631
 20
229.432434
 10
695.042419
 20
228.935287
 10
692.749573
 20
228.54097
 10
690.427002
 20
228.251083
 10
688.083862
 20
228.066742
 10
685.729248
 20
227.988373
 10
683.372498
 20
228.016418
 10
681.022827
 20
228.150925
 10
678.689392
 20
228.391144
 10
676.381348
 20
228.736221
 10
674.10791
 20
229.18512
 10
671.877686
 20
229.735992
 10
669.699524
 20
230.386795
 10
667.582031
 20
231.135376
 10
665.533264
 20
231.978958
 10
663.561218
 20
232.914459
 10
661.673767
 20
233.938766
 10
659.878235
 20
235.048309
 10
658.181458
 20
236.239029
 10
656.590332
 20
237.506882
 10
655.111511
 20
238.847733
 10
653.751099
 20
240.25679
 10
652.514771
 20
241.729034
 10
651.408203
 20
243.259384
 10
650.436523
 20
244.842072
 10
649.604553
 20
246.470932
 10
648.916748
 20
248.139542
 10
648.376953
 20
249.840744
 10
647.988281
 20
251.566956
 10
647.753113
 20
253.310349
 10
647.673035
 20
255.087631
  0
LWPOLYLINE
  5
15E
330
11B
100
AcDbEntity
  8
0
  6
Continuous
 62
     0
370
    30
100
AcDbPolyline
 90
        9
 70
     0
 43
0.0
 10
722.673035
 20
255.087631
 10
722.605347
 20
253.453583
 10
722.40271
 20
251.826065
 10
722.066223
 20
250.212494
 10
721.597717
 20
248.619339
 10
720.999634
 20
247.052765
 10
720.274963
 20
245.518387
 10
719.427002
 20
244.021759
 10
718.370056
 20
242.444321
  0
LINE
  5
15F
330
11B
100
AcDbEntity
  8
0
  6
Continuous
 62
     0
370
    30
100
AcDbLine
 10
676.273047
 20
341.708215
 30
0.0
 11
676.273047
 21
345.248803
 31
0.0
  0
LINE
  5
160
330
11B
100
AcDbEntity
  8
0
  6
Continuous
 62
     0
370
    30
100
AcDbLine
 10
694.073047
 20
341.708215
 30
0.0
 11
694.073047
 21
345.248803
 31
0.0
  0
LWPOLYLINE
  5
161
330
11B
100
AcDbEntity
  8
0
  6
Continuous
 62
     0
370
    30
100
AcDbPolyline
 90
        3
 70
     0
 43
0.0
 10
669.003418
 20
342.966675
 10
668.852966
 20
342.161224
 10
668.773071
 20
341.000458
  0
LWPOLYLINE
  5
162
330
11B
100
AcDbEntity
  8
0
  6
Continuous
 62
     0
370
    30
100
AcDbPolyline
 90
        5
 70
     0
 43
0.0
 10
699.964417
 20
346.082642
 10
699.191589
 20
347.105164
 10
698.283386
 20
348.065826
 10
697.248413
 20
348.955627
 10
696.073059
 20
349.782593
  0
LWPOLYLINE
  5
163
330
11B
100
AcDbEntity
  8
0
  6
Continuous
 62
     0
370
    30
100
AcDbPolyline
 90
        6
 70
     0
 43
0.0
 10
701.572998
 20
341.001984
 10
701.51062
 20
342.026947
 10
701.324158
 20
343.043823
 10
701.015381
 20
344.043732
 10
700.587463
 20
345.018616
 10
699.964417
 20
346.082642
  0
LINE
  5
164
330
11B
100
AcDbEntity
  8
0
  6
Continuous
 62
     0
370
    30
100
AcDbLine
 10
668.773047
 20
327.212526
 30
0.0
 11
668.773047
 21
341.001108
 31
0.0
  0
LINE
  5
165
330
11B
100
AcDbEntity
  8
0
  6
Continuous
 62
     0
370
    30
100
AcDbLine
 10
701.573047
 20
327.212526
 30
0.0
 11
701.573047
 21
341.001108
 31
0.0
  0
ARC
  5
166
330
11B
100
AcDbEntity
  8
0
  6
Continuous
 62
     0
370
    30
100
AcDbCircle
 10
647.620758
 20
322.287101
 30
0.0
 40
0.6281896035089747
100
AcDbArc
 50
13.151373
 51
28.529603
  0
LWPOLYLINE
  5
167
330
11B
100
AcDbEntity
  8
0
  6
Continuous
 62
     0
370
    30
100
AcDbPolyline
 90
       15
 70
     0
 43
0.0
 10
644.822998
 20
325.613953
 10
644.892944
 20
325.597504
 10
645.062683
 20
325.530121
 10
645.29303
 20
325.409058
 10
645.564209
 20
325.240204
 10
645.862854
 20
325.029968
 10
646.17804
 20
324.7854
 10
646.499634
 20
324.514069
 10
646.817993
 20
324.224091
 10
647.12384
 20
323.923798
 10
647.408264
 20
323.621979
 10
647.662598
 20
323.328033
 10
647.878479
 20
323.051971
 10
648.04895
 20
322.804199
 10
648.172668
 20
322.587128
  0
LWPOLYLINE
  5
168
330
11B
100
AcDbEntity
  8
0
  6
Continuous
 62
     0
370
    30
100
AcDbPolyline
 90
       23
 70
     0
 43
0.0
 10
649.235657
 20
321.793793
 10
648.969604
 20
321.619812
 10
648.684937
 20
321.574768
 10
648.418579
 20
321.610657
 10
648.153687
 20
321.69635
 10
647.873474
 20
321.82428
 10
647.572021
 20
321.992584
 10
647.251343
 20
322.198395
 10
646.914612
 20
322.438629
 10
646.567505
 20
322.708679
 10
646.21698
 20
323.003082
 10
645.870178
 20
323.315826
 10
645.534363
 20
323.64032
 10
645.216553
 20
323.969727
 10
644.923157
 20
324.297516
 10
644.660095
 20
324.617279
 10
644.432617
 20
324.923096
 10
644.244019
 20
325.212067
 10
644.096497
 20
325.483276
 10
643.992554
 20
325.742188
 10
643.938416
 20
326.004822
 10
643.963379
 20
326.292175
 10
644.118774
 20
326.570374
  0
LINE
  5
169
330
11B
100
AcDbEntity
  8
0
  6
Continuous
 62
     0
370
    30
100
AcDbLine
 10
675.639916
 20
360.332219
 30
0.0
 11
644.118813
 21
326.570691
 31
0.0
  0
LINE
  5
16A
330
11B
100
AcDbEntity
  8
0
  6
Continuous
 62
     0
370
    30
100
AcDbLine
 10
679.887555
 20
354.624425
 30
0.0
 11
649.235418
 21
321.793625
 31
0.0
  0
LWPOLYLINE
  5
16B
330
11B
100
AcDbEntity
  8
0
  6
Continuous
 62
     0
370
    30
100
AcDbPolyline
 90
       28
 70
     0
 43
0.0
 10
696.073059
 20
367.941864
 10
695.995544
 20
368.899445
 10
695.765076
 20
369.841339
 10
695.387268
 20
370.750305
 10
694.870544
 20
371.61261
 10
694.224426
 20
372.417816
 10
693.458984
 20
373.157227
 10
692.585693
 20
373.822479
 10
691.616821
 20
374.406799
 10
690.564697
 20
374.903931
 10
689.443115
 20
375.308624
 10
688.266235
 20
375.616425
 10
687.049377
 20
375.823975
 10
685.808167
 20
375.928741
 10
684.558716
 20
375.929626
 10
683.3172
 20
375.826538
 10
682.099854
 20
375.620728
 10
680.922241
 20
375.314514
 10
679.799561
 20
374.911438
 10
678.746216
 20
374.415833
 10
677.775757
 20
373.832825
 10
676.900879
 20
373.168793
 10
676.133484
 20
372.430786
 10
675.485229
 20
371.626465
 10
674.96637
 20
370.765076
 10
674.586121
 20
369.85675
 10
674.353149
 20
368.915344
 10
674.273071
 20
367.941833
  0
LINE
  5
16C
330
11B
100
AcDbEntity
  8
0
  6
Continuous
 62
     0
370
    30
100
AcDbLine
 10
696.073047
 20
349.698522
 30
0.0
 11
696.073047
 21
367.941877
 31
0.0
  0
LINE
  5
16D
330
11B
100
AcDbEntity
  8
0
  6
Continuous
 62
     0
370
    30
100
AcDbLine
 10
674.273047
 20
358.868197
 30
0.0
 11
674.273047
 21
367.941877
 31
0.0
  0
ENDBLK
  5
16F
330
11B
100
AcDbEntity
  8
0
100
AcDbBlockEnd
  0
BLOCK
  5
1C9
330
171
100
AcDbEntity
  8
0
100
AcDbBlockBegin
  2
e
 70
     0
 10
366.311157
 20
0.0
 30
0.0
  3
e
  1

  0
LWPOLYLINE
  5
172
330
171
100
AcDbEntity
  8
0
  6
Continuous
 62
     0
370
    30
100
AcDbPolyline
 90
       27
 70
     0
 43
0.0
 10
238.200516
 20
701.452637
 10
238.261459
 20
701.452637
 10
238.4534
 20
701.452637
 10
238.787109
 20
701.452637
 10
239.268127
 20
701.452637
 10
239.895554
 20
701.452637
 10
240.661301
 20
701.452637
 10
241.550171
 20
701.452637
 10
242.540802
 20
701.452637
 10
243.60733
 20
701.452637
 10
244.721558
 20
701.452637
 10
245.855255
 20
701.452637
 10
246.982208
 20
701.452637
 10
248.079712
 20
701.452637
 10
249.175705
 20
701.452637
 10
250.30191
 20
701.452637
 10
251.435822
 20
701.452637
 10
252.551315
 20
701.452637
 10
253.620209
 20
701.452637
 10
254.614288
 20
701.452637
 10
255.507523
 20
701.452637
 10
256.278351
 20
701.452637
 10
256.911346
 20
701.452637
 10
257.398071
 20
701.452637
 10
257.737427
 20
701.452637
 10
257.934692
 20
701.452637
 10
258.000519
 20
701.452637
  0
LINE
  5
173
330
171
100
AcDbEntity
  8
0
  6
Continuous
 62
     0
370
    30
100
AcDbLine
 10
237.200521
 20
674.65265
 30
0.0
 11
259.000521
 21
674.65265
 31
0.0
  0
LINE
  5
174
330
171
100
AcDbEntity
  8
0
  6
Continuous
 62
     0
370
    30
100
AcDbLine
 10
237.200521
 20
674.65265
 30
0.0
 11
237.200521
 21
689.18617
 31
0.0
  0
LINE
  5
175
330
171
100
AcDbEntity
  8
0
  6
Continuous
 62
     0
370
    30
100
AcDbLine
 10
237.200521
 20
696.635414
 30
0.0
 11
237.200521
 21
700.45265
 31
0.0
  0
LINE
  5
176
330
171
100
AcDbEntity
  8
0
  6
Continuous
 62
     0
370
     0
100
AcDbLine
 10
259.000521
 20
700.45265
 30
0.0
 11
237.200521
 21
700.45265
 31
0.0
  0
LWPOLYLINE
  5
177
330
171
100
AcDbEntity
  8
0
  6
Continuous
 62
     0
370
    30
100
AcDbPolyline
 90
       10
 70
     0
 43
0.0
 10
237.200516
 20
696.635437
 10
237.217438
 20
696.585388
 10
237.266281
 20
696.434875
 10
237.341614
 20
696.188843
 10
237.43486
 20
695.85083
 10
237.534683
 20
695.430054
 10
237.628967
 20
694.938171
 10
237.706177
 20
694.390076
 10
237.757339
 20
693.80365
 10
237.777725
 20
693.12085
  0
LWPOLYLINE
  5
178
330
171
100
AcDbEntity
  8
0
  6
Continuous
 62
     0
370
    30
100
AcDbPolyline
 90
       11
 70
     0
 43
0.0
 10
237.777725
 20
693.12085
 10
237.763474
 20
692.538391
 10
237.723053
 20
691.96875
 10
237.661179
 20
691.422974
 10
237.583771
 20
690.910706
 10
237.497482
 20
690.441895
 10
237.409546
 20
690.02655
 10
237.327866
 20
689.679016
 10
237.26088
 20
689.412903
 10
237.216431
 20
689.24408
 10
237.200516
 20
689.186157
  0
ARC
  5
179
330
171
100
AcDbEntity
  8
0
  6
Continuous
 62
     0
370
    30
100
AcDbCircle
 10
238.200521
 20
700.45265
 30
0.0
 40
0.999999999996728
100
AcDbArc
 50
90.0
 51
180.0
  0
LINE
  5
17A
330
171
100
AcDbEntity
  8
0
  6
Continuous
 62
     0
370
     0
100
AcDbLine
 10
193.659053
 20
677.062994
 30
0.0
 11
194.856123
 21
673.77407
 31
0.0
  0
LINE
  5
17B
330
171
100
AcDbEntity
  8
0
  6
Continuous
 62
     0
370
     0
100
AcDbLine
 10
192.461982
 20
680.351918
 30
0.0
 11
193.659053
 21
677.062994
 31
0.0
  0
LINE
  5
17C
330
171
100
AcDbEntity
  8
0
  6
Continuous
 62
     0
370
    30
100
AcDbLine
 10
194.215266
 20
674.072907
 30
0.0
 11
193.189206
 21
676.891984
 31
0.0
  0
LINE
  5
17D
330
171
100
AcDbEntity
  8
0
  6
Continuous
 62
     0
370
    30
100
AcDbLine
 10
193.189206
 20
676.891984
 30
0.0
 11
192.163146
 21
679.711061
 31
0.0
  0
LINE
  5
17E
330
171
100
AcDbEntity
  8
0
  6
Continuous
 62
     0
370
     0
100
AcDbLine
 10
263.540003
 20
662.35265
 30
0.0
 11
231.700521
 21
662.35265
 31
0.0
  0
LINE
  5
17F
330
171
100
AcDbEntity
  8
0
  6
Continuous
 62
     0
370
     0
100
AcDbLine
 10
264.500521
 20
662.35265
 30
0.0
 11
263.540003
 21
662.35265
 31
0.0
  0
LINE
  5
180
330
171
100
AcDbEntity
  8
0
  6
Continuous
 62
     0
370
    30
100
AcDbLine
 10
263.069287
 20
662.85265
 30
0.0
 11
232.200538
 21
662.85265
 31
0.0
  0
LINE
  5
181
330
171
100
AcDbEntity
  8
0
  6
Continuous
 62
     0
370
    30
100
AcDbLine
 10
264.000523
 20
662.85265
 30
0.0
 11
263.069287
 21
662.85265
 31
0.0
  0
LINE
  5
182
330
171
100
AcDbEntity
  8
0
  6
Continuous
 62
     0
370
     0
100
AcDbLine
 10
256.479264
 20
663.35265
 30
0.0
 11
239.20054
 21
663.35265
 31
0.0
  0
LINE
  5
183
330
171
100
AcDbEntity
  8
0
  6
Continuous
 62
     0
370
     0
100
AcDbLine
 10
257.000523
 20
663.35265
 30
0.0
 11
256.479264
 21
663.35265
 31
0.0
  0
LINE
  5
184
330
171
100
AcDbEntity
  8
0
  6
Continuous
 62
     0
370
     0
100
AcDbLine
 10
210.60052
 20
540.852651
 30
0.0
 11
259.574024
 21
540.85265
 31
0.0
  0
LINE
  5
185
330
171
100
AcDbEntity
  8
0
  6
Continuous
 62
     0
370
     0
100
AcDbLine
 10
259.574024
 20
540.85265
 30
0.0
 11
285.60052
 21
540.85265
 31
0.0
  0
LINE
  5
186
330
171
100
AcDbEntity
  8
0
  6
Continuous
 62
     0
370
     0
100
AcDbLine
 10
210.600521
 20
640.852651
 30
0.0
 11
259.574025
 21
640.85265
 31
0.0
  0
LINE
  5
187
330
171
100
AcDbEntity
  8
0
  6
Continuous
 62
     0
370
     0
100
AcDbLine
 10
259.574025
 20
640.85265
 30
0.0
 11
285.600521
 21
640.85265
 31
0.0
  0
LINE
  5
188
330
171
100
AcDbEntity
  8
0
  6
Continuous
 62
     0
370
    30
100
AcDbLine
 10
212.600521
 20
642.852651
 30
0.0
 11
258.962105
 21
642.85265
 31
0.0
  0
LINE
  5
189
330
171
100
AcDbEntity
  8
0
  6
Continuous
 62
     0
370
    30
100
AcDbLine
 10
258.962105
 20
642.85265
 30
0.0
 11
283.600521
 21
642.85265
 31
0.0
  0
LINE
  5
18A
330
171
100
AcDbEntity
  8
0
  6
Continuous
 62
     0
370
     0
100
AcDbLine
 10
248.100519
 20
512.05265
 30
0.0
 11
257.10052
 21
529.05265
 31
0.0
  0
LINE
  5
18B
330
171
100
AcDbEntity
  8
0
  6
Continuous
 62
     0
370
     0
100
AcDbLine
 10
248.100519
 20
512.05265
 30
0.0
 11
265.100519
 21
521.05265
 31
0.0
  0
LINE
  5
18C
330
171
100
AcDbEntity
  8
0
  6
Continuous
 62
     0
370
     0
100
AcDbLine
 10
265.100519
 20
503.052651
 30
0.0
 11
248.100519
 21
512.05265
 31
0.0
  0
LINE
  5
18D
330
171
100
AcDbEntity
  8
0
  6
Continuous
 62
     0
370
     0
100
AcDbLine
 10
257.100519
 20
495.052651
 30
0.0
 11
248.100519
 21
512.05265
 31
0.0
  0
ARC
  5
18E
330
171
100
AcDbEntity
  8
0
  6
Continuous
 62
     0
370
    30
100
AcDbCircle
 10
239.60052
 20
535.552651
 30
0.0
 40
0.5
100
AcDbArc
 50
90.0
 51
180.0
  0
LINE
  5
18F
330
171
100
AcDbEntity
  8
0
  6
Continuous
 62
     0
370
     0
100
AcDbLine
 10
257.10052
 20
535.55265
 30
0.0
 11
239.10052
 21
535.552651
 31
0.0
  0
LINE
  5
190
330
171
100
AcDbEntity
  8
0
  6
Continuous
 62
     0
370
    30
100
AcDbLine
 10
239.10052
 20
535.552651
 30
0.0
 11
239.100519
 21
488.552651
 31
0.0
  0
LINE
  5
191
330
171
100
AcDbEntity
  8
0
  6
Continuous
 62
     0
370
     0
100
AcDbLine
 10
257.100519
 20
488.55265
 30
0.0
 11
239.100519
 21
488.552651
 31
0.0
  0
LINE
  5
192
330
171
100
AcDbEntity
  8
0
  6
Continuous
 62
     0
370
    30
100
AcDbLine
 10
256.600519
 20
488.05265
 30
0.0
 11
239.600519
 21
488.052651
 31
0.0
  0
ARC
  5
193
330
171
100
AcDbEntity
  8
0
  6
Continuous
 62
     0
370
    30
100
AcDbCircle
 10
239.600519
 20
488.552651
 30
0.0
 40
0.5
100
AcDbArc
 50
180.0
 51
270.0
  0
LINE
  5
194
330
171
100
AcDbEntity
  8
0
  6
Continuous
 62
     0
370
     0
100
AcDbLine
 10
314.60052
 20
512.05265
 30
0.0
 11
314.60052
 21
521.05265
 31
0.0
  0
LINE
  5
195
330
171
100
AcDbEntity
  8
0
  6
Continuous
 62
     0
370
     0
100
AcDbLine
 10
314.60052
 20
503.05265
 30
0.0
 11
314.60052
 21
512.05265
 31
0.0
  0
LINE
  5
196
330
171
100
AcDbEntity
  8
0
  6
Continuous
 62
     0
370
    30
100
AcDbLine
 10
229.60052
 20
536.052651
 30
0.0
 11
229.703381
 21
536.052651
 31
0.0
  0
LINE
  5
197
330
171
100
AcDbEntity
  8
0
  6
Continuous
 62
     0
370
    30
100
AcDbLine
 10
229.703381
 20
536.052651
 30
0.0
 11
266.60052
 21
536.05265
 31
0.0
  0
LINE
  5
198
330
171
100
AcDbEntity
  8
0
  6
Continuous
 62
     0
370
     0
100
AcDbLine
 10
228.211721
 20
537.552651
 30
0.0
 11
268.10052
 21
537.55265
 31
0.0
  0
LINE
  5
199
330
171
100
AcDbEntity
  8
0
  6
Continuous
 62
     0
370
     0
100
AcDbLine
 10
228.10052
 20
537.552651
 30
0.0
 11
228.211721
 21
537.552651
 31
0.0
  0
LINE
  5
19A
330
171
100
AcDbEntity
  8
0
  6
Continuous
 62
     0
370
     0
100
AcDbLine
 10
319.600519
 20
482.05265
 30
0.0
 11
319.60052
 21
542.015029
 31
0.0
  0
LINE
  5
19B
330
171
100
AcDbEntity
  8
0
  6
Continuous
 62
     0
370
    30
100
AcDbLine
 10
320.10052
 20
541.515656
 30
0.0
 11
320.100519
 21
482.589644
 31
0.0
  0
LINE
  5
19C
330
171
100
AcDbEntity
  8
0
  6
Continuous
 62
     0
370
     0
100
AcDbLine
 10
315.60052
 20
542.015029
 30
0.0
 11
315.600519
 21
482.05265
 31
0.0
  0
LINE
  5
19D
330
171
100
AcDbEntity
  8
0
  6
Continuous
 62
     0
370
     0
100
AcDbLine
 10
315.60052
 20
542.05265
 30
0.0
 11
315.60052
 21
542.015029
 31
0.0
  0
LWPOLYLINE
  5
19E
330
171
100
AcDbEntity
  8
0
  6
Continuous
 62
     0
370
    30
100
AcDbPolyline
 90
       45
 70
     0
 43
0.0
 10
315.100525
 20
482.58963
 10
315.100525
 20
482.555969
 10
315.100525
 20
482.651215
 10
315.100525
 20
482.884125
 10
315.100525
 20
483.262207
 10
315.100525
 20
483.791168
 10
315.100525
 20
484.474792
 10
315.100525
 20
485.314392
 10
315.100525
 20
486.308868
 10
315.100525
 20
487.454376
 10
315.100525
 20
488.744415
 10
315.100525
 20
490.169861
 10
315.100525
 20
491.719208
 10
315.100525
 20
493.378784
 10
315.100525
 20
495.133301
 10
315.100525
 20
496.966187
 10
315.100525
 20
498.860168
 10
315.100525
 20
500.797699
 10
315.100525
 20
502.761444
 10
315.100525
 20
504.734772
 10
315.100525
 20
506.702087
 10
315.100525
 20
508.649139
 10
315.100525
 20
510.563141
 10
315.100525
 20
512.482849
 10
315.100525
 20
514.448792
 10
315.100525
 20
516.449158
 10
315.100525
 20
518.470337
 10
315.100525
 20
520.497314
 10
315.100525
 20
522.513611
 10
315.100525
 20
524.502136
 10
315.100525
 20
526.445068
 10
315.100525
 20
528.324646
 10
315.100525
 20
530.123474
 10
315.100525
 20
531.825378
 10
315.100525
 20
533.415405
 10
315.100525
 20
534.880554
 10
315.100525
 20
536.210083
 10
315.100525
 20
537.395813
 10
315.100525
 20
538.432068
 10
315.100525
 20
539.315857
 10
315.100525
 20
540.046936
 10
315.100525
 20
540.627258
 10
315.100525
 20
541.060974
 10
315.100525
 20
541.354187
 10
315.100525
 20
541.515686
  0
ARC
  5
19F
330
171
100
AcDbEntity
  8
0
  6
Continuous
 62
     0
370
    30
100
AcDbCircle
 10
315.600534
 20
482.552665
 30
0.0
 40
0.5000150271660276
100
AcDbArc
 50
180.001721
 51
269.998278
  0
ARC
  5
1A0
330
171
100
AcDbEntity
  8
0
  6
Continuous
 62
     0
370
    30
100
AcDbCircle
 10
315.600535
 20
541.552635
 30
0.0
 40
0.5000150271668643
100
AcDbArc
 50
90.001721
 51
179.998278
  0
LINE
  5
1A1
330
171
100
AcDbEntity
  8
0
  6
Continuous
 62
     0
370
    30
100
AcDbLine
 10
315.600519
 20
482.05265
 30
0.0
 11
319.600519
 21
482.05265
 31
0.0
  0
LINE
  5
1A2
330
171
100
AcDbEntity
  8
0
  6
Continuous
 62
     0
370
    30
100
AcDbLine
 10
315.60052
 20
542.05265
 30
0.0
 11
319.60052
 21
542.05265
 31
0.0
  0
ARC
  5
1A3
330
171
100
AcDbEntity
  8
0
  6
Continuous
 62
     0
370
    30
100
AcDbCircle
 10
319.600504
 20
482.552665
 30
0.0
 40
0.50001496916403
100
AcDbArc
 50
270.001715
 51
359.990181
  0
ARC
  5
1A4
330
171
100
AcDbEntity
  8
0
  6
Continuous
 62
     0
370
    30
100
AcDbCircle
 10
319.600505
 20
541.552635
 30
0.0
 40
0.5000149691652884
100
AcDbArc
 50
0.009818
 51
89.998284
  0
LINE
  5
1A5
330
171
100
AcDbEntity
  8
0
  6
Continuous
 62
     0
370
    30
100
AcDbLine
 10
228.10052
 20
537.552651
 30
0.0
 11
228.10052
 21
538.852651
 31
0.0
  0
LINE
  5
1A6
330
171
100
AcDbEntity
  8
0
  6
Continuous
 62
     0
370
    30
100
AcDbLine
 10
268.10052
 20
537.55265
 30
0.0
 11
268.10052
 21
538.85265
 31
0.0
  0
ARC
  5
1A7
330
171
100
AcDbEntity
  8
0
  6
Continuous
 62
     0
370
    30
100
AcDbCircle
 10
229.600588
 20
537.552718
 30
0.0
 40
1.50006784141881
100
AcDbArc
 50
180.00259
 51
269.989306
  0
ARC
  5
1A8
330
171
100
AcDbEntity
  8
0
  6
Continuous
 62
     0
370
    30
100
AcDbCircle
 10
266.600452
 20
537.552718
 30
0.0
 40
1.500067841418576
100
AcDbArc
 50
270.010693
 51
359.997409
  0
ARC
  5
1A9
330
171
100
AcDbEntity
  8
0
  6
Continuous
 62
     0
370
    30
100
AcDbCircle
 10
314.600516
 20
503.552653
 30
0.0
 40
0.5000034422836395
100
AcDbArc
 50
270.000394
 51
359.999605
  0
ARC
  5
1AA
330
171
100
AcDbEntity
  8
0
  6
Continuous
 62
     0
370
    30
100
AcDbCircle
 10
314.600517
 20
520.552647
 30
0.0
 40
0.5000027706889325
100
AcDbArc
 50
0.011776
 51
89.999682
  0
LINE
  5
1AB
330
171
100
AcDbEntity
  8
0
  6
Continuous
 62
     0
370
    30
100
AcDbLine
 10
314.60052
 20
521.05265
 30
0.0
 11
265.099596
 21
521.05265
 31
0.0
  0
LINE
  5
1AC
330
171
100
AcDbEntity
  8
0
  6
Continuous
 62
     0
370
    30
100
AcDbLine
 10
314.60052
 20
503.05265
 30
0.0
 11
265.099596
 21
503.05265
 31
0.0
  0
ARC
  5
1AD
330
171
100
AcDbEntity
  8
0
  6
Continuous
 62
     0
370
    30
100
AcDbCircle
 10
256.600517
 20
488.552653
 30
0.0
 40
0.5000027706894756
100
AcDbArc
 50
270.011776
 51
359.999682
  0
LINE
  5
1AE
330
171
100
AcDbEntity
  8
0
  6
Continuous
 62
     0
370
    30
100
AcDbLine
 10
257.10052
 20
535.55265
 30
0.0
 11
257.10052
 21
529.051727
 31
0.0
  0
LINE
  5
1AF
330
171
100
AcDbEntity
  8
0
  6
Continuous
 62
     0
370
    30
100
AcDbLine
 10
257.100519
 20
495.053574
 30
0.0
 11
257.100519
 21
488.55265
 31
0.0
  0
ARC
  5
1B0
330
171
100
AcDbEntity
  8
0
  6
Continuous
 62
     0
370
    30
100
AcDbCircle
 10
256.600517
 20
535.552648
 30
0.0
 40
0.5000027706883435
100
AcDbArc
 50
0.000317
 51
89.988223
  0
ARC
  5
1B1
330
171
100
AcDbEntity
  8
0
  6
Continuous
 62
     0
370
    30
100
AcDbCircle
 10
265.10057
 20
495.0526
 30
0.0
 40
8.000050784295036
100
AcDbArc
 50
90.000365
 51
179.999634
  0
ARC
  5
1B2
330
171
100
AcDbEntity
  8
0
  6
Continuous
 62
     0
370
    30
100
AcDbCircle
 10
265.100521
 20
529.052652
 30
0.0
 40
8.000001558682754
100
AcDbArc
 50
180.000012
 51
269.999987
  0
ARC
  5
1B3
330
171
100
AcDbEntity
  8
0
  6
Continuous
 62
     0
370
    30
100
AcDbCircle
 10
283.600431
 20
640.85256
 30
0.0
 40
2.000090101177242
100
AcDbArc
 50
0.002581
 51
89.997418
  0
ARC
  5
1B4
330
171
100
AcDbEntity
  8
0
  6
Continuous
 62
     0
370
    30
100
AcDbCircle
 10
212.600514
 20
640.852657
 30
0.0
 40
1.999993306995323
100
AcDbArc
 50
89.999808
 51
180.000191
  0
LINE
  5
1B5
330
171
100
AcDbEntity
  8
0
  6
Continuous
 62
     0
370
    30
100
AcDbLine
 10
285.60052
 20
540.85265
 30
0.0
 11
285.600521
 21
640.85265
 31
0.0
  0
LINE
  5
1B6
330
171
100
AcDbEntity
  8
0
  6
Continuous
 62
     0
370
    30
100
AcDbLine
 10
210.60052
 20
540.852651
 30
0.0
 11
210.600521
 21
640.852651
 31
0.0
  0
ARC
  5
1B7
330
171
100
AcDbEntity
  8
0
  6
Continuous
 62
     0
370
    30
100
AcDbCircle
 10
283.600079
 20
540.853142
 30
0.0
 40
2.000440600079573
100
AcDbArc
 50
270.010692
 51
359.985898
  0
ARC
  5
1B8
330
171
100
AcDbEntity
  8
0
  6
Continuous
 62
     0
370
    30
100
AcDbCircle
 10
212.60096
 20
540.853143
 30
0.0
 40
2.000440596847144
100
AcDbArc
 50
180.014101
 51
269.989575
  0
LINE
  5
1B9
330
171
100
AcDbEntity
  8
0
  6
Continuous
 62
     0
370
    30
100
AcDbLine
 10
283.600439
 20
538.85265
 30
0.0
 11
258.962104
 21
538.85265
 31
0.0
  0
LINE
  5
1BA
330
171
100
AcDbEntity
  8
0
  6
Continuous
 62
     0
370
    30
100
AcDbLine
 10
258.962104
 20
538.85265
 30
0.0
 11
212.600596
 21
538.852651
 31
0.0
  0
LINE
  5
1BB
330
171
100
AcDbEntity
  8
0
  6
Continuous
 62
     0
370
    30
100
AcDbLine
 10
257.000521
 20
663.35265
 30
0.0
 11
257.000521
 21
674.65265
 31
0.0
  0
LINE
  5
1BC
330
171
100
AcDbEntity
  8
0
  6
Continuous
 62
     0
370
    30
100
AcDbLine
 10
239.200521
 20
663.35265
 30
0.0
 11
239.200521
 21
674.65265
 31
0.0
  0
ARC
  5
1BD
330
171
100
AcDbEntity
  8
0
  6
Continuous
 62
     0
370
    30
100
AcDbCircle
 10
238.700537
 20
663.352653
 30
0.0
 40
0.5000028982382307
100
AcDbArc
 50
270.000456
 51
359.999667
  0
ARC
  5
1BE
330
171
100
AcDbEntity
  8
0
  6
Continuous
 62
     0
370
    30
100
AcDbCircle
 10
257.500526
 20
663.352654
 30
0.0
 40
0.5000034928251323
100
AcDbArc
 50
180.0004
 51
269.999611
  0
ARC
  5
1BF
330
171
100
AcDbEntity
  8
0
  6
Continuous
 62
     0
370
    30
100
AcDbCircle
 10
232.200559
 20
662.352648
 30
0.0
 40
0.5000022107673626
100
AcDbArc
 50
90.005342
 51
179.999746
  0
ARC
  5
1C0
330
171
100
AcDbEntity
  8
0
  6
Continuous
 62
     0
370
    30
100
AcDbCircle
 10
264.000521
 20
662.352647
 30
0.0
 40
0.5000028004021083
100
AcDbArc
 50
0.00032
 51
89.996264
  0
LINE
  5
1C1
330
171
100
AcDbEntity
  8
0
  6
Continuous
 62
     0
370
    30
100
AcDbLine
 10
264.500521
 20
642.85265
 30
0.0
 11
264.500521
 21
662.35265
 31
0.0
  0
LINE
  5
1C2
330
171
100
AcDbEntity
  8
0
  6
Continuous
 62
     0
370
    30
100
AcDbLine
 10
231.700521
 20
642.85265
 30
0.0
 11
231.700521
 21
662.35265
 31
0.0
  0
ARC
  5
1C3
330
171
100
AcDbEntity
  8
0
  6
Continuous
 62
     0
370
    30
100
AcDbCircle
 10
194.685115
 20
674.243921
 30
0.0
 40
0.5000034460647191
100
AcDbArc
 50
200.000394
 51
289.999605
  0
ARC
  5
1C4
330
171
100
AcDbEntity
  8
0
  6
Continuous
 62
     0
370
    30
100
AcDbCircle
 10
192.632997
 20
679.88207
 30
0.0
 40
0.5000034460630399
100
AcDbArc
 50
110.000394
 51
199.999605
  0
LINE
  5
1C5
330
171
100
AcDbEntity
  8
0
  6
Continuous
 62
     0
370
    30
100
AcDbLine
 10
237.200521
 20
696.635414
 30
0.0
 11
192.461982
 21
680.351918
 31
0.0
  0
LINE
  5
1C6
330
171
100
AcDbEntity
  8
0
  6
Continuous
 62
     0
370
    30
100
AcDbLine
 10
237.200521
 20
689.18617
 30
0.0
 11
194.856123
 21
673.77407
 31
0.0
  0
ARC
  5
1C7
330
171
100
AcDbEntity
  8
0
  6
Continuous
 62
     0
370
    30
100
AcDbCircle
 10
258.000496
 20
700.452625
 30
0.0
 40
1.000025415542617
100
AcDbArc
 50
0.001456
 51
89.992814
  0
LINE
  5
1C8
330
171
100
AcDbEntity
  8
0
  6
Continuous
 62
     0
370
    30
100
AcDbLine
 10
259.000521
 20
674.65265
 30
0.0
 11
259.000521
 21
700.45265
 31
0.0
  0
ENDBLK
  5
1CA
330
171
100
AcDbEntity
  8
0
100
AcDbBlockEnd
  0
ENDSEC
  0
SECTION
  2
ENTITIES
  0
INSERT
  5
95
330
1F
100
AcDbEntity
  8
0
  6
Continuous
 62
   250
370
     0
100
AcDbBlockReference
  2
a
 10
392.501068
 20
192.602997
 30
0.0
  0
INSERT
  5
C0
330
1F
100
AcDbEntity
  8
0
  6
Continuous
 62
   250
370
     0
100
AcDbBlockReference
  2
b
 10
375.018368
 20
192.602997
 30
0.0
  0
INSERT
  5
11A
330
1F
100
AcDbEntity
  8
0
  6
Continuous
 62
   250
370
     0
100
AcDbBlockReference
  2
c
 10
392.501068
 20
239.697708
 30
0.0
  0
INSERT
  5
170
330
1F
100
AcDbEntity
  8
0
  6
Continuous
 62
   250
370
     0
100
AcDbBlockReference
  2
d
 10
392.501068
 20
192.602997
 30
0.0
  0
INSERT
  5
1CB
330
1F
100
AcDbEntity
  8
0
  6
Continuous
 62
   250
370
     0
100
AcDbBlockReference
  2
e
 10
366.311157
 20
0.0
 30
0.0
  0
ENDSEC
  0
SECTION
  2
OBJECTS
  0
DICTIONARY
  5
C
330
0
100
AcDbDictionary
281
     1
  3
ACAD_GROUP
350
D
  3
ACAD_LAYOUT
350
1A
  3
ACAD_MLEADERSTYLE
350
1CE
  3
ACAD_MLINESTYLE
350
17
  3
ACAD_PLOTSETTINGS
350
19
  3
ACAD_PLOTSTYLENAME
350
E
  3
ACAD_VISUALSTYLE
350
2A
  3
AcDbVariableDictionary
350
1CC
  0
DICTIONARY
  5
D
102
{ACAD_REACTORS
330
C
102
}
330
C
100
AcDbDictionary
281
     1
  0
DICTIONARY
  5
1A
102
{ACAD_REACTORS
330
C
102
}
330
C
100
AcDbDictionary
281
     1
  3
Layout1
350
1E
  3
Layout2
350
26
  3
Model
350
22
  0
DICTIONARY
  5
1CE
102
{ACAD_REACTORS
330
C
102
}
330
C
100
AcDbDictionary
281
     1
  0
DICTIONARY
  5
17
102
{ACAD_REACTORS
330
C
102
}
330
C
100
AcDbDictionary
281
     1
  3
Standard
350
18
  0
DICTIONARY
  5
19
102
{ACAD_REACTORS
330
C
102
}
330
C
100
AcDbDictionary
281
     1
  0
ACDBDICTIONARYWDFLT
  5
E
102
{ACAD_REACTORS
330
C
102
}
330
C
100
AcDbDictionary
281
     1
  3
Normal
350
F
100
AcDbDictionaryWithDefault
340
F
  0
DICTIONARY
  5
2A
102
{ACAD_REACTORS
330
C
102
}
330
C
100
AcDbDictionary
281
     1
  3
2dWireframe
350
2F
  3
3D Hidden
350
31
  3
3dWireframe
350
30
  3
Basic
350
32
  3
Brighten
350
36
  3
ColorChange
350
3A
  3
Conceptual
350
34
  3
Dim
350
35
  3
Facepattern
350
39
  3
Flat
350
2B
  3
FlatWithEdges
350
2C
  3
Gouraud
350
2D
  3
GouraudWithEdges
350
2E
  3
Linepattern
350
38
  3
Realistic
350
33
  3
Thicken
350
37
  0
DICTIONARY
  5
1CC
102
{ACAD_REACTORS
330
C
102
}
330
C
100
AcDbDictionary
281
     1
  3
PSOLHEIGHT
350
1D0
  3
PSOLWIDTH
350
1CF
  0
LAYOUT
  5
1E
102
{ACAD_REACTORS
330
1A
102
}
330
1A
100
AcDbPlotSettings
  1

  2
none_device
  4

  6

 40
0.0
 41
0.0
 42
0.0
 43
0.0
 44
0.0
 45
0.0
 46
0.0
 47
0.0
 48
0.0
 49
0.0
140
0.0
141
0.0
142
1.0
143
1.0
 70
   688
 72
     0
 73
     0
 74
     5
  7

 75
    16
147
1.0
148
0.0
149
0.0
100
AcDbLayout
  1
Layout1
 70
     1
 71
     1
 10
0.0
 20
0.0
 11
420.0
 21
297.0
 12
0.0
 22
0.0
 32
0.0
 14
1.000000E+20
 24
1.000000E+20
 34
1.000000E+20
 15
-1.000000E+20
 25
-1.000000E+20
 35
-1.000000E+20
146
0.0
 13
0.0
 23
0.0
 33
0.0
 16
1.0
 26
0.0
 36
0.0
 17
0.0
 27
1.0
 37
0.0
 76
     0
330
1B
  0
LAYOUT
  5
26
102
{ACAD_REACTORS
330
1A
102
}
330
1A
100
AcDbPlotSettings
  1

  2
none_device
  4

  6

 40
0.0
 41
0.0
 42
0.0
 43
0.0
 44
0.0
 45
0.0
 46
0.0
 47
0.0
 48
0.0
 49
0.0
140
0.0
141
0.0
142
1.0
143
1.0
 70
   688
 72
     0
 73
     0
 74
     5
  7

 75
    16
147
1.0
148
0.0
149
0.0
100
AcDbLayout
  1
Layout2
 70
     1
 71
     2
 10
0.0
 20
0.0
 11
0.0
 21
0.0
 12
0.0
 22
0.0
 32
0.0
 14
0.0
 24
0.0
 34
0.0
 15
0.0
 25
0.0
 35
0.0
146
0.0
 13
0.0
 23
0.0
 33
0.0
 16
1.0
 26
0.0
 36
0.0
 17
0.0
 27
1.0
 37
0.0
 76
     0
330
23
  0
LAYOUT
  5
22
102
{ACAD_REACTORS
330
1A
102
}
330
1A
100
AcDbPlotSettings
  1

  2
none_device
  4

  6

 40
0.0
 41
0.0
 42
0.0
 43
0.0
 44
0.0
 45
0.0
 46
0.0
 47
0.0
 48
0.0
 49
0.0
140
0.0
141
0.0
142
1.0
143
1.0
 70
  1712
 72
     0
 73
     0
 74
     0
  7

 75
     0
147
1.0
148
0.0
149
0.0
100
AcDbLayout
  1
Model
 70
     1
 71
     0
 10
192.140594
 20
182.050751
 11
757.085388
 21
701.452637
 12
0.0
 22
0.0
 32
0.0
 14
192.140594
 24
182.050751
 34
0.0
 15
757.085388
 25
701.452637
 35
0.0
146
0.0
 13
0.0
 23
0.0
 33
0.0
 16
1.0
 26
0.0
 36
0.0
 17
0.0
 27
1.0
 37
0.0
 76
     0
330
1F
331
29
  0
MLINESTYLE
  5
18
102
{ACAD_REACTORS
330
17
102
}
330
17
100
AcDbMlineStyle
  2
Standard
 70
     0
  3

 62
   256
 51
90.0
 52
90.0
 71
     2
 49
0.5
 62
   256
  6
BYLAYER
 49
-0.5
 62
   256
  6
BYLAYER
  0
ACDBPLACEHOLDER
  5
F
102
{ACAD_REACTORS
330
E
102
}
330
E
  0
VISUALSTYLE
  5
2F
102
{ACAD_REACTORS
330
2A
102
}
330
2A
100
AcDbVisualStyle
  2
2dWireframe
 70
     4
 71
     0
 72
     2
 73
     0
 90
        0
 40
-0.6
 41
-30.0
 62
     5
 63
     7
 74
     1
 91
        4
 64
     7
 65
   257
 75
     1
175
     1
 42
1.0
 92
        0
 66
   257
 43
1.0
 76
     1
 77
     6
 78
     2
 67
     7
 79
     5
170
     0
171
     0
290
     0
174
     0
 93
        1
 44
0.0
173
     0
291
     0
 45
0.0
1001
ACAD
1000
AcDbSavedByObjectVersion
1070
     0
  0
VISUALSTYLE
  5
31
102
{ACAD_REACTORS
330
2A
102
}
330
2A
100
AcDbVisualStyle
  2
3D Hidden
 70
     6
 71
     1
 72
     2
 73
     2
 90
        0
 40
-0.6
 41
-30.0
 62
     5
 63
     7
 74
     2
 91
        2
 64
     7
 65
   257
 75
     2
175
     1
 42
40.0
 92
        0
 66
   257
 43
1.0
 76
     1
 77
     6
 78
     2
 67
     7
 79
     3
170
     0
171
     0
290
     0
174
     0
 93
        1
 44
0.0
173
     0
291
     0
 45
0.0
1001
ACAD
1000
AcDbSavedByObjectVersion
1070
     0
  0
VISUALSTYLE
  5
30
102
{ACAD_REACTORS
330
2A
102
}
330
2A
100
AcDbVisualStyle
  2
3dWireframe
 70
     5
 71
     0
 72
     2
 73
     0
 90
        0
 40
-0.6
 41
-30.0
 62
     5
 63
     7
 74
     1
 91
        4
 64
     7
 65
   257
 75
     1
175
     1
 42
1.0
 92
        0
 66
   257
 43
1.0
 76
     1
 77
     6
 78
     2
 67
     7
 79
     5
170
     0
171
     0
290
     0
174
     0
 93
        1
 44
0.0
173
     0
291
     0
 45
0.0
1001
ACAD
1000
AcDbSavedByObjectVersion
1070
     0
  0
VISUALSTYLE
  5
32
102
{ACAD_REACTORS
330
2A
102
}
330
2A
100
AcDbVisualStyle
  2
Basic
 70
     7
 71
     1
 72
     0
 73
     1
 90
        0
 40
-0.6
 41
-30.0
 62
     5
 63
     7
 74
     0
 91
        4
 64
     7
 65
   257
 75
     1
175
     1
 42
1.0
 92
        8
 66
     7
 43
1.0
 76
     1
 77
     6
 78
     2
 67
     7
 79
     5
170
     0
171
     0
290
     0
174
     0
 93
        1
 44
0.0
173
     0
291
     1
 45
0.0
1001
ACAD
1000
AcDbSavedByObjectVersion
1070
     0
  0
VISUALSTYLE
  5
36
102
{ACAD_REACTORS
330
2A
102
}
330
2A
100
AcDbVisualStyle
  2
Brighten
 70
    12
 71
     2
 72
     2
 73
     0
 90
        0
 40
-0.6
 41
-30.0
 62
     5
 63
     7
 74
     1
 91
        4
 64
     7
 65
   257
 75
     1
175
     1
 42
1.0
 92
        8
 66
     7
 43
1.0
 76
     1
 77
     6
 78
     2
 67
     7
 79
     5
170
     0
171
     0
290
     0
174
     0
 93
        1
 44
50.0
173
     0
291
     1
 45
0.0
1001
ACAD
1000
AcDbSavedByObjectVersion
1070
     0
  0
VISUALSTYLE
  5
3A
102
{ACAD_REACTORS
330
2A
102
}
330
2A
100
AcDbVisualStyle
  2
ColorChange
 70
    16
 71
     2
 72
     2
 73
     3
 90
        0
 40
-0.6
 41
-30.0
 62
     5
 63
     8
 74
     1
 91
        4
 64
     7
 65
   257
 75
     1
175
     1
 42
1.0
 92
        8
 66
     8
 43
1.0
 76
     1
 77
     6
 78
     2
 67
     7
 79
     5
170
     0
171
     0
290
     0
174
     0
 93
        1
 44
0.0
173
     0
291
     1
 45
0.0
1001
ACAD
1000
AcDbSavedByObjectVersion
1070
     0
  0
VISUALSTYLE
  5
34
102
{ACAD_REACTORS
330
2A
102
}
330
2A
100
AcDbVisualStyle
  2
Conceptual
 70
     9
 71
     3
 72
     2
 73
     0
 90
        0
 40
-0.6
 41
-30.0
 62
     5
 63
     7
 74
     2
 91
        2
 64
     7
 65
   257
 75
     1
175
     1
 42
40.0
 92
        8
 66
     7
 43
1.0
 76
     1
 77
     6
 78
     2
 67
     7
 79
     3
170
     0
171
     0
290
     0
174
     0
 93
        1
 44
0.0
173
     0
291
     0
 45
0.0
1001
ACAD
1000
AcDbSavedByObjectVersion
1070
     0
  0
VISUALSTYLE
  5
35
102
{ACAD_REACTORS
330
2A
102
}
330
2A
100
AcDbVisualStyle
  2
Dim
 70
    11
 71
     2
 72
     2
 73
     0
 90
        0
 40
-0.6
 41
-30.0
 62
     5
 63
     7
 74
     1
 91
        4
 64
     7
 65
   257
 75
     1
175
     1
 42
1.0
 92
        8
 66
     7
 43
1.0
 76
     1
 77
     6
 78
     2
 67
     7
 79
     5
170
     0
171
     0
290
     0
174
     0
 93
        1
 44
-50.0
173
     0
291
     1
 45
0.0
1001
ACAD
1000
AcDbSavedByObjectVersion
1070
     0
  0
VISUALSTYLE
  5
39
102
{ACAD_REACTORS
330
2A
102
}
330
2A
100
AcDbVisualStyle
  2
Facepattern
 70
    15
 71
     2
 72
     2
 73
     0
 90
        0
 40
-0.6
 41
-30.0
 62
     5
 63
     7
 74
     1
 91
        4
 64
     7
 65
   257
 75
     1
175
     1
 42
1.0
 92
        8
 66
     7
 43
1.0
 76
     1
 77
     6
 78
     2
 67
     7
 79
     5
170
     0
171
     0
290
     0
174
     0
 93
        1
 44
0.0
173
     0
291
     1
 45
0.0
1001
ACAD
1000
AcDbSavedByObjectVersion
1070
     0
  0
VISUALSTYLE
  5
2B
102
{ACAD_REACTORS
330
2A
102
}
330
2A
100
AcDbVisualStyle
  2
Flat
 70
     0
 71
     2
 72
     1
 73
     1
 90
        2
 40
-0.6
 41
30.0
 62
     5
 63
     7
 74
     0
 91
        4
 64
     7
 65
   257
 75
     1
175
     1
 42
1.0
 92
        8
 66
     7
 43
1.0
 76
     1
 77
     6
 78
     2
 67
     7
 79
     5
170
     0
171
     0
290
     0
174
     0
 93
       13
 44
0.0
173
     0
291
     1
 45
0.0
1001
ACAD
1000
AcDbSavedByObjectVersion
1070
     0
  0
VISUALSTYLE
  5
2C
102
{ACAD_REACTORS
330
2A
102
}
330
2A
100
AcDbVisualStyle
  2
FlatWithEdges
 70
     1
 71
     2
 72
     1
 73
     1
 90
        2
 40
-0.6
 41
30.0
 62
     5
 63
     7
 74
     1
 91
        4
 64
     7
 65
   257
 75
     1
175
     1
 42
1.0
 92
        0
 66
   257
 43
1.0
 76
     1
 77
     6
 78
     2
 67
     7
 79
     5
170
     0
171
     0
290
     0
174
     0
 93
       13
 44
0.0
173
     0
291
     1
 45
0.0
1001
ACAD
1000
AcDbSavedByObjectVersion
1070
     0
  0
VISUALSTYLE
  5
2D
102
{ACAD_REACTORS
330
2A
102
}
330
2A
100
AcDbVisualStyle
  2
Gouraud
 70
     2
 71
     2
 72
     2
 73
     1
 90
        2
 40
-0.6
 41
30.0
 62
     5
 63
     7
 74
     0
 91
        4
 64
     7
 65
   257
 75
     1
175
     1
 42
1.0
 92
        0
 66
     7
 43
1.0
 76
     1
 77
     6
 78
     2
 67
     7
 79
     5
170
     0
171
     0
290
     0
174
     0
 93
       13
 44
0.0
173
     0
291
     1
 45
0.0
1001
ACAD
1000
AcDbSavedByObjectVersion
1070
     0
  0
VISUALSTYLE
  5
2E
102
{ACAD_REACTORS
330
2A
102
}
330
2A
100
AcDbVisualStyle
  2
GouraudWithEdges
 70
     3
 71
     2
 72
     2
 73
     1
 90
        2
 40
-0.6
 41
30.0
 62
     5
 63
     7
 74
     1
 91
        4
 64
     7
 65
   257
 75
     1
175
     1
 42
1.0
 92
        0
 66
   257
 43
1.0
 76
     1
 77
     6
 78
     2
 67
     7
 79
     5
170
     0
171
     0
290
     0
174
     0
 93
       13
 44
0.0
173
     0
291
     1
 45
0.0
1001
ACAD
1000
AcDbSavedByObjectVersion
1070
     0
  0
VISUALSTYLE
  5
38
102
{ACAD_REACTORS
330
2A
102
}
330
2A
100
AcDbVisualStyle
  2
Linepattern
 70
    14
 71
     2
 72
     2
 73
     0
 90
        0
 40
-0.6
 41
-30.0
 62
     5
 63
     7
 74
     1
 91
        4
 64
     7
 65
   257
 75
     7
175
     7
 42
1.0
 92
        8
 66
     7
 43
1.0
 76
     1
 77
     6
 78
     2
 67
     7
 79
     5
170
     0
171
     0
290
     0
174
     0
 93
        1
 44
0.0
173
     0
291
     1
 45
0.0
1001
ACAD
1000
AcDbSavedByObjectVersion
1070
     0
  0
VISUALSTYLE
  5
33
102
{ACAD_REACTORS
330
2A
102
}
330
2A
100
AcDbVisualStyle
  2
Realistic
 70
     8
 71
     2
 72
     2
 73
     0
 90
        0
 40
-0.6
 41
-30.0
 62
     5
 63
     7
 74
     1
 91
        0
 64
     7
 65
   257
 75
     1
175
     1
 42
1.0
 92
        8
 66
     8
 43
1.0
 76
     1
 77
     6
 78
     2
 67
     7
 79
     5
170
     0
171
     0
290
     0
174
     0
 93
       13
 44
0.0
173
     0
291
     0
 45
0.0
1001
ACAD
1000
AcDbSavedByObjectVersion
1070
     0
  0
VISUALSTYLE
  5
37
102
{ACAD_REACTORS
330
2A
102
}
330
2A
100
AcDbVisualStyle
  2
Thicken
 70
    13
 71
     2
 72
     2
 73
     0
 90
        0
 40
-0.6
 41
-30.0
 62
     5
 63
     7
 74
     1
 91
        4
 64
     7
 65
   257
 75
     1
175
     1
 42
1.0
 92
       12
 66
     7
 43
1.0
 76
     1
 77
     6
 78
     2
 67
     7
 79
     5
170
     0
171
     0
290
     0
174
     0
 93
        1
 44
0.0
173
     0
291
     1
 45
0.0
1001
ACAD
1000
AcDbSavedByObjectVersion
1070
     0
  0
DICTIONARYVAR
  5
1D0
102
{ACAD_REACTORS
330
1CC
102
}
330
1CC
100
DictionaryVariables
280
     0
  1
80.000000
  0
DICTIONARYVAR
  5
1CF
102
{ACAD_REACTORS
330
1CC
102
}
330
1CC
100
DictionaryVariables
280
     0
  1
5.000000
  0
ENDSEC
  0
EOF
