  0
SECTION
  2
HEADER
  9
$ACADVER
  1
AC1015
  9
$ACADMAINTVER
 70
     6
  9
$DWGCODEPAGE
  3
ANSI_1252
  9
$INSBASE
 10
0.0
 20
0.0
 30
0.0
  9
$EXTMIN
 10
70.517387
 20
109.294342
 30
0.0
  9
$EXTMAX
 10
567.8078
 20
512.780945
 30
0.0
  9
$LIMMIN
 10
70.517387
 20
109.294342
  9
$LIMMAX
 10
567.8078
 20
512.780945
  9
$ORTHOMODE
 70
     0
  9
$REGENMODE
 70
     1
  9
$FILLMODE
 70
     1
  9
$QTEXTMODE
 70
     0
  9
$MIRRTEXT
 70
     1
  9
$LTSCALE
 40
1.0
  9
$ATTMODE
 70
     1
  9
$TEXTSIZE
 40
2.5
  9
$TRACEWID
 40
1.0
  9
$TEXTSTYLE
  7
Standard
  9
$CLAYER
  8
0
  9
$CELTYPE
  6
ByLayer
  9
$CECOLOR
 62
   256
  9
$CELTSCALE
 40
1.0
  9
$DISPSILH
 70
     0
  9
$DIMSCALE
 40
1.0
  9
$DIMASZ
 40
2.5
  9
$DIMEXO
 40
0.625
  9
$DIMDLI
 40
3.75
  9
$DIMRND
 40
0.0
  9
$DIMDLE
 40
0.0
  9
$DIMEXE
 40
1.25
  9
$DIMTP
 40
0.0
  9
$DIMTM
 40
0.0
  9
$DIMTXT
 40
2.5
  9
$DIMCEN
 40
2.5
  9
$DIMTSZ
 40
0.0
  9
$DIMTOL
 70
     0
  9
$DIMLIM
 70
     0
  9
$DIMTIH
 70
     0
  9
$DIMTOH
 70
     0
  9
$DIMSE1
 70
     0
  9
$DIMSE2
 70
     0
  9
$DIMTAD
 70
     1
  9
$DIMZIN
 70
     8
  9
$DIMBLK
  1

  9
$DIMASO
 70
     1
  9
$DIMSHO
 70
     1
  9
$DIMPOST
  1

  9
$DIMAPOST
  1

  9
$DIMALT
 70
     0
  9
$DIMALTD
 70
     3
  9
$DIMALTF
 40
0.03937
  9
$DIMLFAC
 40
1.0
  9
$DIMTOFL
 70
     1
  9
$DIMTVP
 40
0.0
  9
$DIMTIX
 70
     0
  9
$DIMSOXD
 70
     0
  9
$DIMSAH
 70
     0
  9
$DIMBLK1
  1

  9
$DIMBLK2
  1

  9
$DIMSTYLE
  2
ISO-25
  9
$DIMCLRD
 70
     0
  9
$DIMCLRE
 70
     0
  9
$DIMCLRT
 70
     0
  9
$DIMTFAC
 40
1.0
  9
$DIMGAP
 40
0.625
  9
$DIMJUST
 70
     0
  9
$DIMSD1
 70
     0
  9
$DIMSD2
 70
     0
  9
$DIMTOLJ
 70
     0
  9
$DIMTZIN
 70
     8
  9
$DIMALTZ
 70
     0
  9
$DIMALTTZ
 70
     0
  9
$DIMUPT
 70
     0
  9
$DIMDEC
 70
     2
  9
$DIMTDEC
 70
     2
  9
$DIMALTU
 70
     2
  9
$DIMALTTD
 70
     3
  9
$DIMTXSTY
  7
Standard
  9
$DIMAUNIT
 70
     0
  9
$DIMADEC
 70
     0
  9
$DIMALTRND
 40
0.0
  9
$DIMAZIN
 70
     0
  9
$DIMDSEP
 70
    44
  9
$DIMATFIT
 70
     3
  9
$DIMFRAC
 70
     0
  9
$DIMLDRBLK
  1

  9
$DIMLUNIT
 70
     2
  9
$DIMLWD
 70
    -2
  9
$DIMLWE
 70
    -2
  9
$DIMTMOVE
 70
     0
  9
$LUNITS
 70
     2
  9
$LUPREC
 70
     4
  9
$SKETCHINC
 40
1.0
  9
$FILLETRAD
 40
10.0
  9
$AUNITS
 70
     0
  9
$AUPREC
 70
     0
  9
$MENU
  1
.
  9
$ELEVATION
 40
0.0
  9
$PELEVATION
 40
0.0
  9
$THICKNESS
 40
0.0
  9
$LIMCHECK
 70
     0
  9
$CHAMFERA
 40
10.0
  9
$CHAMFERB
 40
10.0
  9
$CHAMFERC
 40
20.0
  9
$CHAMFERD
 40
0.0
  9
$SKPOLY
 70
     0
  9
$TDCREATE
 40
2455554.630820475
  9
$TDUCREATE
 40
2455554.589153808
  9
$TDUPDATE
 40
2455554.630820486
  9
$TDUUPDATE
 40
2455554.589153819
  9
$TDINDWG
 40
0.0000000116
  9
$TDUSRTIMER
 40
0.0000000116
  9
$USRTIMER
 70
     1
  9
$ANGBASE
 50
0.0
  9
$ANGDIR
 70
     0
  9
$PDMODE
 70
     0
  9
$PDSIZE
 40
0.0
  9
$PLINEWID
 40
0.0
  9
$SPLFRAME
 70
     0
  9
$SPLINETYPE
 70
     6
  9
$SPLINESEGS
 70
     8
  9
$HANDSEED
  5
146
  9
$SURFTAB1
 70
     6
  9
$SURFTAB2
 70
     6
  9
$SURFTYPE
 70
     6
  9
$SURFU
 70
     6
  9
$SURFV
 70
     6
  9
$UCSBASE
  2

  9
$UCSNAME
  2

  9
$UCSORG
 10
0.0
 20
0.0
 30
0.0
  9
$UCSXDIR
 10
1.0
 20
0.0
 30
0.0
  9
$UCSYDIR
 10
0.0
 20
1.0
 30
0.0
  9
$UCSORTHOREF
  2

  9
$UCSORTHOVIEW
 70
     0
  9
$UCSORGTOP
 10
0.0
 20
0.0
 30
0.0
  9
$UCSORGBOTTOM
 10
0.0
 20
0.0
 30
0.0
  9
$UCSORGLEFT
 10
0.0
 20
0.0
 30
0.0
  9
$UCSORGRIGHT
 10
0.0
 20
0.0
 30
0.0
  9
$UCSORGFRONT
 10
0.0
 20
0.0
 30
0.0
  9
$UCSORGBACK
 10
0.0
 20
0.0
 30
0.0
  9
$PUCSBASE
  2

  9
$PUCSNAME
  2

  9
$PUCSORG
 10
0.0
 20
0.0
 30
0.0
  9
$PUCSXDIR
 10
1.0
 20
0.0
 30
0.0
  9
$PUCSYDIR
 10
0.0
 20
1.0
 30
0.0
  9
$PUCSORTHOREF
  2

  9
$PUCSORTHOVIEW
 70
     0
  9
$PUCSORGTOP
 10
0.0
 20
0.0
 30
0.0
  9
$PUCSORGBOTTOM
 10
0.0
 20
0.0
 30
0.0
  9
$PUCSORGLEFT
 10
0.0
 20
0.0
 30
0.0
  9
$PUCSORGRIGHT
 10
0.0
 20
0.0
 30
0.0
  9
$PUCSORGFRONT
 10
0.0
 20
0.0
 30
0.0
  9
$PUCSORGBACK
 10
0.0
 20
0.0
 30
0.0
  9
$USERI1
 70
     0
  9
$USERI2
 70
     0
  9
$USERI3
 70
     0
  9
$USERI4
 70
     0
  9
$USERI5
 70
     0
  9
$USERR1
 40
0.0
  9
$USERR2
 40
0.0
  9
$USERR3
 40
0.0
  9
$USERR4
 40
0.0
  9
$USERR5
 40
0.0
  9
$WORLDVIEW
 70
     1
  9
$SHADEDGE
 70
     3
  9
$SHADEDIF
 70
    70
  9
$TILEMODE
 70
     1
  9
$MAXACTVP
 70
    64
  9
$PINSBASE
 10
0.0
 20
0.0
 30
0.0
  9
$PLIMCHECK
 70
     0
  9
$PEXTMIN
 10
1.000000E+20
 20
1.000000E+20
 30
1.000000E+20
  9
$PEXTMAX
 10
-1.000000E+20
 20
-1.000000E+20
 30
-1.000000E+20
  9
$PLIMMIN
 10
0.0
 20
0.0
  9
$PLIMMAX
 10
420.0
 20
297.0
  9
$UNITMODE
 70
     0
  9
$VISRETAIN
 70
     1
  9
$PLINEGEN
 70
     0
  9
$PSLTSCALE
 70
     1
  9
$TREEDEPTH
 70
  3020
  9
$CMLSTYLE
  2
Standard
  9
$CMLJUST
 70
     0
  9
$CMLSCALE
 40
20.0
  9
$PROXYGRAPHICS
 70
     1
  9
$MEASUREMENT
 70
     1
  9
$CELWEIGHT
370
    -1
  9
$ENDCAPS
280
     0
  9
$JOINSTYLE
280
     0
  9
$LWDISPLAY
290
     0
  9
$INSUNITS
 70
     4
  9
$HYPERLINKBASE
  1

  9
$STYLESHEET
  1

  9
$XEDIT
290
     1
  9
$CEPSNTYPE
380
     0
  9
$PSTYLEMODE
290
     1
  9
$FINGERPRINTGUID
  2
{423F014B-D5EC-436B-877C-8E79F2CB0AE6}
  9
$VERSIONGUID
  2
{FAEB1C32-E019-11D5-929B-00C0DF256EC4}
  9
$EXTNAMES
290
     1
  9
$PSVPSCALE
 40
0.0
  9
$OLESTARTUP
290
     0
  0
ENDSEC
  0
SECTION
  2
CLASSES
  0
CLASS
  1
ACDBDICTIONARYWDFLT
  2
AcDbDictionaryWithDefault
  3
ObjectDBX Classes
 90
        0
280
     0
281
     0
  0
CLASS
  1
VISUALSTYLE
  2
AcDbVisualStyle
  3
ObjectDBX Classes
 90
     4095
280
     0
281
     0
  0
CLASS
  1
DICTIONARYVAR
  2
AcDbDictionaryVar
  3
ObjectDBX Classes
 90
        0
280
     0
281
     0
  0
CLASS
  1
ACDBPLACEHOLDER
  2
AcDbPlaceHolder
  3
ObjectDBX Classes
 90
        0
280
     0
281
     0
  0
CLASS
  1
LAYOUT
  2
AcDbLayout
  3
ObjectDBX Classes
 90
        0
280
     0
281
     0
  0
ENDSEC
  0
SECTION
  2
TABLES
  0
TABLE
  2
VPORT
  5
8
330
0
100
AcDbSymbolTable
 70
     1
  0
VPORT
  5
29
330
8
100
AcDbSymbolTableRecord
100
AcDbViewportTableRecord
  2
*Active
 70
     0
 10
0.0
 20
0.0
 11
1.0
 21
1.0
 12
344.186916
 22
148.5
 13
0.0
 23
0.0
 14
10.0
 24
10.0
 15
10.0
 25
10.0
 16
0.0
 26
0.0
 36
1.0
 17
0.0
 27
0.0
 37
0.0
 40
297.0
 41
1.972973
 42
50.0
 43
0.0
 44
0.0
 50
0.0
 51
0.0
 71
     0
 72
   100
 73
     1
 74
     3
 75
     0
 76
     0
 77
     0
 78
     0
281
     0
 65
     1
110
0.0
120
0.0
130
0.0
111
1.0
121
0.0
131
0.0
112
0.0
122
1.0
132
0.0
 79
     0
146
0.0
  0
ENDTAB
  0
TABLE
  2
LTYPE
  5
5
330
0
100
AcDbSymbolTable
 70
     1
  0
LTYPE
  5
14
330
5
100
AcDbSymbolTableRecord
100
AcDbLinetypeTableRecord
  2
ByBlock
 70
     0
  3

 72
    65
 73
     0
 40
0.0
  0
LTYPE
  5
15
330
5
100
AcDbSymbolTableRecord
100
AcDbLinetypeTableRecord
  2
ByLayer
 70
     0
  3

 72
    65
 73
     0
 40
0.0
  0
LTYPE
  5
16
330
5
100
AcDbSymbolTableRecord
100
AcDbLinetypeTableRecord
  2
Continuous
 70
     0
  3
Solid line
 72
    65
 73
     0
 40
0.0
  0
ENDTAB
  0
TABLE
  2
LAYER
  5
2
330
0
100
AcDbSymbolTable
 70
     1
  0
LAYER
  5
10
330
2
100
AcDbSymbolTableRecord
100
AcDbLayerTableRecord
  2
0
 70
     0
 62
   106
  6
Continuous
370
     0
390
F
  0
ENDTAB
  0
TABLE
  2
STYLE
  5
3
330
0
100
AcDbSymbolTable
 70
     4
  0
STYLE
  5
11
330
3
100
AcDbSymbolTableRecord
100
AcDbTextStyleTableRecord
  2
Standard
 70
     0
 40
0.0
 41
1.0
 50
0.0
 71
     0
 42
2.5
  3
txt
  4

  0
STYLE
  5
3B
330
3
100
AcDbSymbolTableRecord
100
AcDbTextStyleTableRecord
  2
Default
 70
     0
 40
0.0
 41
1.0
 50
0.0
 71
     0
 42
0.2
  3

  4

1001
ACAD
1000
txt
1071
        0
  0
STYLE
  5
3C
330
3
100
AcDbSymbolTableRecord
100
AcDbTextStyleTableRecord
  2
ISO
 70
     0
 40
0.0
 41
1.0
 50
0.0
 71
     0
 42
0.2
  3

  4

1001
ACAD
1000
txt
1071
        0
  0
STYLE
  5
3D
330
3
100
AcDbSymbolTableRecord
100
AcDbTextStyleTableRecord
  2
GIANLU
 70
     0
 40
0.0
 41
1.0
 50
0.0
 71
     0
 42
0.2
  3

  4

1001
ACAD
1000
Arial
1071
        0
  0
ENDTAB
  0
TABLE
  2
VIEW
  5
6
330
0
100
AcDbSymbolTable
 70
     0
  0
ENDTAB
  0
TABLE
  2
UCS
  5
7
330
0
100
AcDbSymbolTable
 70
     0
  0
ENDTAB
  0
TABLE
  2
APPID
  5
9
330
0
100
AcDbSymbolTable
 70
     1
  0
APPID
  5
12
330
9
100
AcDbSymbolTableRecord
100
AcDbRegAppTableRecord
  2
ACAD
 70
     0
  0
ENDTAB
  0
TABLE
  2
DIMSTYLE
  5
A
330
0
100
AcDbSymbolTable
 70
     4
100
AcDbDimStyleTable
  0
DIMSTYLE
105
27
330
A
100
AcDbSymbolTableRecord
100
AcDbDimStyleTableRecord
  2
ISO-25
 70
     0
 41
2.5
 42
0.625
 43
3.75
 44
1.25
 73
     0
 74
     0
 77
     1
 78
     8
140
2.5
141
2.5
143
0.03937
147
0.625
171
     3
172
     1
271
     2
272
     2
274
     3
278
    44
283
     0
284
     8
340
11
  0
DIMSTYLE
105
3E
330
A
100
AcDbSymbolTableRecord
100
AcDbDimStyleTableRecord
  2
Default
 70
     0
  3
<>
 41
4.375
 42
1.05
 44
2.1
 73
     0
 74
     0
 77
     1
 78
     8
140
3.5
146
0.4
147
1.75
178
     3
271
     2
272
     3
284
     8
340
3B
341
3F
342
3F
  0
DIMSTYLE
105
46
330
A
100
AcDbSymbolTableRecord
100
AcDbDimStyleTableRecord
  2
ISO
 70
     0
  3
<>
 41
4.375
 42
1.05
 44
2.1
 73
     0
 74
     0
 77
     1
 78
     8
140
3.5
146
0.4
147
1.75
178
     3
271
     2
272
     3
284
     8
340
3C
341
3F
342
3F
  0
DIMSTYLE
105
47
330
A
100
AcDbSymbolTableRecord
100
AcDbDimStyleTableRecord
  2
zucchetti_unico
 70
     0
  3
<>
 41
3.0
 42
0.9
 44
1.8
 73
     0
 74
     0
 77
     1
 78
     8
140
3.0
146
0.6
147
1.5
176
   104
177
     3
178
     3
271
     2
272
     2
284
     8
340
3D
  0
ENDTAB
  0
TABLE
  2
BLOCK_RECORD
  5
1
330
0
100
AcDbSymbolTable
 70
     7
  0
BLOCK_RECORD
  5
1F
330
1
100
AcDbSymbolTableRecord
100
AcDbBlockTableRecord
  2
*Model_Space
340
22
  0
BLOCK_RECORD
  5
1B
330
1
100
AcDbSymbolTableRecord
100
AcDbBlockTableRecord
  2
*Paper_Space
340
1E
  0
BLOCK_RECORD
  5
23
330
1
100
AcDbSymbolTableRecord
100
AcDbBlockTableRecord
  2
*Paper_Space0
340
26
  0
BLOCK_RECORD
  5
3F
330
1
100
AcDbSymbolTableRecord
100
AcDbBlockTableRecord
  2
_CLOSED
340
0
  0
BLOCK_RECORD
  5
48
330
1
100
AcDbSymbolTableRecord
100
AcDbBlockTableRecord
  2
a
340
0
102
{BLKREFS
331
75
102
}
  0
BLOCK_RECORD
  5
76
330
1
100
AcDbSymbolTableRecord
100
AcDbBlockTableRecord
  2
b
340
0
102
{BLKREFS
331
95
102
}
  0
BLOCK_RECORD
  5
96
330
1
100
AcDbSymbolTableRecord
100
AcDbBlockTableRecord
  2
c
340
0
102
{BLKREFS
331
D4
102
}
  0
BLOCK_RECORD
  5
D5
330
1
100
AcDbSymbolTableRecord
100
AcDbBlockTableRecord
  2
d
340
0
102
{BLKREFS
331
100
102
}
  0
BLOCK_RECORD
  5
101
330
1
100
AcDbSymbolTableRecord
100
AcDbBlockTableRecord
  2
e
340
0
102
{BLKREFS
331
140
102
}
  0
ENDTAB
  0
ENDSEC
  0
SECTION
  2
BLOCKS
  0
BLOCK
  5
20
330
1F
100
AcDbEntity
  8
0
100
AcDbBlockBegin
  2
*Model_Space
 70
     0
 10
0.0
 20
0.0
 30
0.0
  3
*Model_Space
  1

  0
ENDBLK
  5
21
330
1F
100
AcDbEntity
  8
0
100
AcDbBlockEnd
  0
BLOCK
  5
1C
330
1B
100
AcDbEntity
 67
     1
  8
0
100
AcDbBlockBegin
  2
*Paper_Space
 70
     0
 10
0.0
 20
0.0
 30
0.0
  3
*Paper_Space
  1

  0
ENDBLK
  5
1D
330
1B
100
AcDbEntity
 67
     1
  8
0
100
AcDbBlockEnd
  0
BLOCK
  5
24
330
23
100
AcDbEntity
  8
0
100
AcDbBlockBegin
  2
*Paper_Space0
 70
     0
 10
0.0
 20
0.0
 30
0.0
  3
*Paper_Space0
  1

  0
ENDBLK
  5
25
330
23
100
AcDbEntity
  8
0
100
AcDbBlockEnd
  0
BLOCK
  5
40
330
3F
100
AcDbEntity
  8
0
100
AcDbBlockBegin
  2
_CLOSED
 70
     0
 10
0.0
 20
0.0
 30
0.0
  3
_CLOSED
  1

  0
LINE
  5
42
330
3F
100
AcDbEntity
  8
0
  6
ByBlock
 62
     0
370
    -2
100
AcDbLine
 10
-1.0
 20
0.166667
 30
0.0
 11
0.0
 21
0.0
 31
0.0
  0
LINE
  5
43
330
3F
100
AcDbEntity
  8
0
  6
ByBlock
 62
     0
370
    -2
100
AcDbLine
 10
0.0
 20
0.0
 30
0.0
 11
-1.0
 21
-0.166667
 31
0.0
  0
LINE
  5
44
330
3F
100
AcDbEntity
  8
0
  6
ByBlock
 62
     0
370
    -2
100
AcDbLine
 10
-1.0
 20
0.166667
 30
0.0
 11
-1.0
 21
-0.166667
 31
0.0
  0
LINE
  5
45
330
3F
100
AcDbEntity
  8
0
  6
ByBlock
 62
     0
370
    -2
100
AcDbLine
 10
0.0
 20
0.0
 30
0.0
 11
-1.0
 21
0.0
 31
0.0
  0
ENDBLK
  5
41
330
3F
100
AcDbEntity
  8
0
100
AcDbBlockEnd
  0
BLOCK
  5
73
330
48
100
AcDbEntity
  8
0
100
AcDbBlockBegin
  2
a
 70
     0
 10
228.616226
 20
117.384766
 30
0.0
  3
a
  1

  0
LINE
  5
49
330
48
100
AcDbEntity
  8
0
  6
Continuous
 62
     0
370
     0
100
AcDbLine
 10
309.692173
 20
408.480881
 30
0.0
 11
300.692173
 21
408.480881
 31
0.0
  0
LINE
  5
4A
330
48
100
AcDbEntity
  8
0
  6
Continuous
 62
     0
370
     0
100
AcDbLine
 10
318.692173
 20
408.480881
 30
0.0
 11
309.692173
 21
408.480881
 31
0.0
  0
LINE
  5
4B
330
48
100
AcDbEntity
  8
0
  6
Continuous
 62
     0
370
     0
100
AcDbLine
 10
318.692173
 20
361.480881
 30
0.0
 11
309.692173
 21
361.480881
 31
0.0
  0
LINE
  5
4C
330
48
100
AcDbEntity
  8
0
  6
Continuous
 62
     0
370
     0
100
AcDbLine
 10
309.692173
 20
361.480881
 30
0.0
 11
300.692173
 21
361.480881
 31
0.0
  0
LINE
  5
4D
330
48
100
AcDbEntity
  8
0
  6
Continuous
 62
     0
370
    30
100
AcDbLine
 10
309.692173
 20
360.980881
 30
0.0
 11
301.192173
 21
360.980881
 31
0.0
  0
LINE
  5
4E
330
48
100
AcDbEntity
  8
0
  6
Continuous
 62
     0
370
    30
100
AcDbLine
 10
318.192173
 20
360.980881
 30
0.0
 11
309.692173
 21
360.980881
 31
0.0
  0
LINE
  5
4F
330
48
100
AcDbEntity
  8
0
  6
Continuous
 62
     0
370
    30
100
AcDbLine
 10
291.192173
 20
408.980881
 30
0.0
 11
311.640321
 21
408.980881
 31
0.0
  0
LINE
  5
50
330
48
100
AcDbEntity
  8
0
  6
Continuous
 62
     0
370
    30
100
AcDbLine
 10
311.640321
 20
408.980881
 30
0.0
 11
328.192173
 21
408.980881
 31
0.0
  0
LINE
  5
51
330
48
100
AcDbEntity
  8
0
  6
Continuous
 62
     0
370
     0
100
AcDbLine
 10
311.798279
 20
410.480881
 30
0.0
 11
329.692173
 21
410.480881
 31
0.0
  0
LINE
  5
52
330
48
100
AcDbEntity
  8
0
  6
Continuous
 62
     0
370
     0
100
AcDbLine
 10
289.692173
 20
410.480881
 30
0.0
 11
311.798279
 21
410.480881
 31
0.0
  0
LINE
  5
53
330
48
100
AcDbEntity
  8
0
  6
Continuous
 62
     0
370
     0
100
AcDbLine
 10
311.798279
 20
412.280881
 30
0.0
 11
329.692173
 21
412.280881
 31
0.0
  0
LINE
  5
54
330
48
100
AcDbEntity
  8
0
  6
Continuous
 62
     0
370
     0
100
AcDbLine
 10
289.692173
 20
412.280881
 30
0.0
 11
311.798279
 21
412.280881
 31
0.0
  0
ARC
  5
55
330
48
100
AcDbEntity
  8
0
  6
Continuous
 62
     0
370
    30
100
AcDbCircle
 10
309.692173
 20
384.980881
 30
0.0
 40
30.0
100
AcDbArc
 50
267.130294
 51
53.130102
  0
ARC
  5
56
330
48
100
AcDbEntity
  8
0
  6
Continuous
 62
     0
370
    30
100
AcDbCircle
 10
309.692173
 20
384.980881
 30
0.0
 40
30.0
100
AcDbArc
 50
126.869898
 51
267.130294
  0
ARC
  5
57
330
48
100
AcDbEntity
  8
0
  6
Continuous
 62
     0
370
     0
100
AcDbCircle
 10
309.692173
 20
384.980881
 30
0.0
 40
29.50000000000001
100
AcDbArc
 50
267.130294
 51
54.445159
  0
ARC
  5
58
330
48
100
AcDbEntity
  8
0
  6
Continuous
 62
     0
370
     0
100
AcDbCircle
 10
309.692173
 20
384.980881
 30
0.0
 40
29.49999999999999
100
AcDbArc
 50
125.554841
 51
267.130294
  0
LWPOLYLINE
  5
59
330
48
100
AcDbEntity
  8
0
  6
Continuous
 62
     0
370
    30
100
AcDbPolyline
 90
        6
 70
     0
 43
0.0
 10
289.692169
 20
412.280884
 10
289.715179
 20
412.430786
 10
289.782104
 20
412.566956
 10
289.88678
 20
412.676758
 10
290.019562
 20
412.750122
 10
290.192169
 20
412.780884
  0
ARC
  5
5A
330
48
100
AcDbEntity
  8
0
  6
Continuous
 62
     0
370
    30
100
AcDbCircle
 10
329.192158
 20
412.280866
 30
0.0
 40
0.5000150271647894
100
AcDbArc
 50
0.001722
 51
89.998278
  0
LINE
  5
5B
330
48
100
AcDbEntity
  8
0
  6
Continuous
 62
     0
370
    30
100
AcDbLine
 10
289.692173
 20
410.480881
 30
0.0
 11
289.692173
 21
412.280881
 31
0.0
  0
LINE
  5
5C
330
48
100
AcDbEntity
  8
0
  6
Continuous
 62
     0
370
    30
100
AcDbLine
 10
329.692173
 20
410.480881
 30
0.0
 11
329.692173
 21
412.280881
 31
0.0
  0
ARC
  5
5D
330
48
100
AcDbEntity
  8
0
  6
Continuous
 62
     0
370
    30
100
AcDbCircle
 10
291.192241
 20
410.480948
 30
0.0
 40
1.500067841418631
100
AcDbArc
 50
180.002591
 51
269.989306
  0
ARC
  5
5E
330
48
100
AcDbEntity
  8
0
  6
Continuous
 62
     0
370
    30
100
AcDbCircle
 10
328.192105
 20
410.480948
 30
0.0
 40
1.500067841418641
100
AcDbArc
 50
270.010694
 51
359.997409
  0
ARC
  5
5F
330
48
100
AcDbEntity
  8
0
  6
Continuous
 62
     0
370
    30
100
AcDbCircle
 10
318.19217
 20
361.480884
 30
0.0
 40
0.5000027706882109
100
AcDbArc
 50
270.011777
 51
359.999683
  0
ARC
  5
60
330
48
100
AcDbEntity
  8
0
  6
Continuous
 62
     0
370
    30
100
AcDbCircle
 10
301.192176
 20
361.480884
 30
0.0
 40
0.5000027706879027
100
AcDbArc
 50
180.000317
 51
269.988223
  0
LINE
  5
61
330
48
100
AcDbEntity
  8
0
  6
Continuous
 62
     0
370
    30
100
AcDbLine
 10
300.692173
 20
408.480881
 30
0.0
 11
300.692173
 21
361.480881
 31
0.0
  0
LINE
  5
62
330
48
100
AcDbEntity
  8
0
  6
Continuous
 62
     0
370
    30
100
AcDbLine
 10
318.692173
 20
408.480881
 30
0.0
 11
318.692173
 21
361.480881
 31
0.0
  0
ARC
  5
63
330
48
100
AcDbEntity
  8
0
  6
Continuous
 62
     0
370
    30
100
AcDbCircle
 10
318.19217
 20
408.480877
 30
0.0
 40
0.5000034422824848
100
AcDbArc
 50
0.000394
 51
89.999606
  0
ARC
  5
64
330
48
100
AcDbEntity
  8
0
  6
Continuous
 62
     0
370
    30
100
AcDbCircle
 10
301.192176
 20
408.480878
 30
0.0
 40
0.500002770687924
100
AcDbArc
 50
90.011777
 51
179.999683
  0
LINE
  5
65
330
48
100
AcDbEntity
  8
0
  6
Continuous
 62
     0
370
    30
100
AcDbLine
 10
275.192173
 20
412.780881
 30
0.0
 11
332.947773
 21
412.780881
 31
0.0
  0
LINE
  5
66
330
48
100
AcDbEntity
  8
0
  6
Continuous
 62
     0
370
    30
100
AcDbLine
 10
332.947773
 20
412.780881
 30
0.0
 11
344.192173
 21
412.780881
 31
0.0
  0
LINE
  5
67
330
48
100
AcDbEntity
  8
0
  6
Continuous
 62
     0
370
     0
100
AcDbLine
 10
272.192173
 20
415.780881
 30
0.0
 11
334.969999
 21
415.780881
 31
0.0
  0
LINE
  5
68
330
48
100
AcDbEntity
  8
0
  6
Continuous
 62
     0
370
     0
100
AcDbLine
 10
334.969999
 20
415.780881
 30
0.0
 11
347.192173
 21
415.780881
 31
0.0
  0
LINE
  5
69
330
48
100
AcDbEntity
  8
0
  6
Continuous
 62
     0
370
     0
100
AcDbLine
 10
272.192173
 20
510.780881
 30
0.0
 11
334.969999
 21
510.780881
 31
0.0
  0
LINE
  5
6A
330
48
100
AcDbEntity
  8
0
  6
Continuous
 62
     0
370
     0
100
AcDbLine
 10
334.969999
 20
510.780881
 30
0.0
 11
347.192173
 21
510.780881
 31
0.0
  0
LINE
  5
6B
330
48
100
AcDbEntity
  8
0
  6
Continuous
 62
     0
370
    30
100
AcDbLine
 10
274.192173
 20
512.780881
 30
0.0
 11
333.621848
 21
512.780881
 31
0.0
  0
LINE
  5
6C
330
48
100
AcDbEntity
  8
0
  6
Continuous
 62
     0
370
    30
100
AcDbLine
 10
333.621848
 20
512.780881
 30
0.0
 11
345.192173
 21
512.780881
 31
0.0
  0
ARC
  5
6D
330
48
100
AcDbEntity
  8
0
  6
Continuous
 62
     0
370
    30
100
AcDbCircle
 10
345.192177
 20
510.780885
 30
0.0
 40
1.999995518174108
100
AcDbArc
 50
359.999872
 51
90.000128
  0
ARC
  5
6E
330
48
100
AcDbEntity
  8
0
  6
Continuous
 62
     0
370
    30
100
AcDbCircle
 10
274.192154
 20
510.7809
 30
0.0
 40
1.999980862110024
100
AcDbArc
 50
89.999452
 51
180.000548
  0
LINE
  5
6F
330
48
100
AcDbEntity
  8
0
  6
Continuous
 62
     0
370
    30
100
AcDbLine
 10
347.192173
 20
415.780881
 30
0.0
 11
347.192173
 21
510.780881
 31
0.0
  0
LINE
  5
70
330
48
100
AcDbEntity
  8
0
  6
Continuous
 62
     0
370
    30
100
AcDbLine
 10
272.192173
 20
415.780881
 30
0.0
 11
272.192173
 21
510.780881
 31
0.0
  0
ARC
  5
71
330
48
100
AcDbEntity
  8
0
  6
Continuous
 62
     0
370
    30
100
AcDbCircle
 10
344.192141
 20
415.780913
 30
0.0
 40
3.000031826149677
100
AcDbArc
 50
270.008711
 51
359.999392
  0
ARC
  5
72
330
48
100
AcDbEntity
  8
0
  6
Continuous
 62
     0
370
    30
100
AcDbCircle
 10
275.192205
 20
415.780913
 30
0.0
 40
3.000031826149626
100
AcDbArc
 50
180.000608
 51
269.991289
  0
ENDBLK
  5
74
330
48
100
AcDbEntity
  8
0
100
AcDbBlockEnd
  0
BLOCK
  5
93
330
76
100
AcDbEntity
  8
0
100
AcDbBlockBegin
  2
b
 70
     0
 10
218.724102
 20
117.384766
 30
0.0
  3
b
  1

  0
LINE
  5
77
330
76
100
AcDbEntity
  8
0
  6
Continuous
 62
     0
370
    30
100
AcDbLine
 10
318.692173
 20
206.042841
 30
0.0
 11
318.692173
 21
203.971037
 31
0.0
  0
LINE
  5
78
330
76
100
AcDbEntity
  8
0
  6
Continuous
 62
     0
370
    30
100
AcDbLine
 10
318.692173
 20
238.202631
 30
0.0
 11
318.692173
 21
208.106615
 31
0.0
  0
LINE
  5
79
330
76
100
AcDbEntity
  8
0
  6
Continuous
 62
     0
370
     0
100
AcDbLine
 10
318.692173
 20
238.202631
 30
0.0
 11
300.692173
 21
238.202631
 31
0.0
  0
ARC
  5
7A
330
76
100
AcDbEntity
  8
0
  6
Continuous
 62
     0
370
    30
100
AcDbCircle
 10
318.192173
 20
238.202631
 30
0.0
 40
0.5
100
AcDbArc
 50
0.0
 51
90.0
  0
LINE
  5
7B
330
76
100
AcDbEntity
  8
0
  6
Continuous
 62
     0
370
     0
100
AcDbLine
 10
339.692173
 20
243.202631
 30
0.0
 11
311.19412
 21
243.20263
 31
0.0
  0
LINE
  5
7C
330
76
100
AcDbEntity
  8
0
  6
Continuous
 62
     0
370
     0
100
AcDbLine
 10
311.19412
 20
243.20263
 30
0.0
 11
279.692173
 21
243.202631
 31
0.0
  0
LWPOLYLINE
  5
7D
330
76
100
AcDbEntity
  8
0
  6
Continuous
 62
     0
370
    30
100
AcDbPolyline
 90
       24
 70
     0
 43
0.0
 10
280.192169
 20
243.702637
 10
280.252747
 20
243.702637
 10
280.436646
 20
243.702637
 10
280.752075
 20
243.702637
 10
281.206177
 20
243.702637
 10
281.804413
 20
243.702637
 10
282.550568
 20
243.702637
 10
283.446228
 20
243.702637
 10
284.490692
 20
243.702637
 10
285.680786
 20
243.702637
 10
287.010742
 20
243.702637
 10
288.472321
 20
243.702637
 10
290.054901
 20
243.702637
 10
291.745758
 20
243.702637
 10
293.530396
 20
243.702637
 10
295.392944
 20
243.702637
 10
297.31662
 20
243.702637
 10
299.28421
 20
243.702637
 10
301.278595
 20
243.702637
 10
303.283051
 20
243.702637
 10
305.28186
 20
243.702637
 10
307.260376
 20
243.702637
 10
309.205475
 20
243.702637
 10
311.169098
 20
243.702637
  0
LINE
  5
7E
330
76
100
AcDbEntity
  8
0
  6
Continuous
 62
     0
370
    30
100
AcDbLine
 10
311.169087
 20
243.70263
 30
0.0
 11
339.192173
 21
243.702631
 31
0.0
  0
LINE
  5
7F
330
76
100
AcDbEntity
  8
0
  6
Continuous
 62
     0
370
     0
100
AcDbLine
 10
311.19412
 20
239.202631
 30
0.0
 11
339.692173
 21
239.202631
 31
0.0
  0
LINE
  5
80
330
76
100
AcDbEntity
  8
0
  6
Continuous
 62
     0
370
     0
100
AcDbLine
 10
279.692173
 20
239.202631
 30
0.0
 11
311.19412
 21
239.202631
 31
0.0
  0
LINE
  5
81
330
76
100
AcDbEntity
  8
0
  6
Continuous
 62
     0
370
    30
100
AcDbLine
 10
339.192173
 20
238.702631
 30
0.0
 11
311.169087
 21
238.70263
 31
0.0
  0
LINE
  5
82
330
76
100
AcDbEntity
  8
0
  6
Continuous
 62
     0
370
    30
100
AcDbLine
 10
311.169087
 20
238.70263
 30
0.0
 11
280.192173
 21
238.702631
 31
0.0
  0
ARC
  5
83
330
76
100
AcDbEntity
  8
0
  6
Continuous
 62
     0
370
    30
100
AcDbCircle
 10
339.192158
 20
239.202646
 30
0.0
 40
0.500015027165461
100
AcDbArc
 50
270.001722
 51
359.998278
  0
ARC
  5
84
330
76
100
AcDbEntity
  8
0
  6
Continuous
 62
     0
370
    30
100
AcDbCircle
 10
280.192188
 20
239.202646
 30
0.0
 40
0.5000150271647414
100
AcDbArc
 50
180.001722
 51
269.998278
  0
LINE
  5
85
330
76
100
AcDbEntity
  8
0
  6
Continuous
 62
     0
370
    30
100
AcDbLine
 10
339.692173
 20
239.202631
 30
0.0
 11
339.692173
 21
243.202631
 31
0.0
  0
LINE
  5
86
330
76
100
AcDbEntity
  8
0
  6
Continuous
 62
     0
370
    30
100
AcDbLine
 10
279.692173
 20
239.202631
 30
0.0
 11
279.692173
 21
243.202631
 31
0.0
  0
ARC
  5
87
330
76
100
AcDbEntity
  8
0
  6
Continuous
 62
     0
370
    30
100
AcDbCircle
 10
339.192158
 20
243.202616
 30
0.0
 40
0.5000149691628907
100
AcDbArc
 50
0.001715
 51
89.990182
  0
ARC
  5
88
330
76
100
AcDbEntity
  8
0
  6
Continuous
 62
     0
370
    30
100
AcDbCircle
 10
280.192188
 20
243.202616
 30
0.0
 40
0.5000149691648182
100
AcDbArc
 50
90.009818
 51
179.998285
  0
ARC
  5
89
330
76
100
AcDbEntity
  8
0
  6
Continuous
 62
     0
370
    30
100
AcDbCircle
 10
301.192176
 20
238.202629
 30
0.0
 40
0.500002770689935
100
AcDbArc
 50
90.011777
 51
179.999683
  0
LINE
  5
8A
330
76
100
AcDbEntity
  8
0
  6
Continuous
 62
     0
370
    30
100
AcDbLine
 10
300.692173
 20
238.202631
 30
0.0
 11
300.692173
 21
208.106615
 31
0.0
  0
ARC
  5
8B
330
76
100
AcDbEntity
  8
0
  6
Continuous
 62
     0
370
    30
100
AcDbCircle
 10
309.692173
 20
171.702626
 30
0.0
 40
37.49999999999635
100
AcDbArc
 50
132.382387
 51
312.382387
  0
ARC
  5
8C
330
76
100
AcDbEntity
  8
0
  6
Continuous
 62
     0
370
    30
100
AcDbCircle
 10
309.692173
 20
171.702626
 30
0.0
 40
37.49999999999635
100
AcDbArc
 50
312.382387
 51
132.382387
  0
ARC
  5
8D
330
76
100
AcDbEntity
  8
0
  6
Continuous
 62
     0
370
     0
100
AcDbCircle
 10
309.692173
 20
171.702626
 30
0.0
 40
35.49999999999635
100
AcDbArc
 50
132.382387
 51
312.382387
  0
ARC
  5
8E
330
76
100
AcDbEntity
  8
0
  6
Continuous
 62
     0
370
     0
100
AcDbCircle
 10
309.692173
 20
171.702626
 30
0.0
 40
35.49999999999635
100
AcDbArc
 50
312.382387
 51
132.382387
  0
ARC
  5
8F
330
76
100
AcDbEntity
  8
0
  6
Continuous
 62
     0
370
    30
100
AcDbCircle
 10
309.692173
 20
171.702626
 30
0.0
 40
33.49999999999635
100
AcDbArc
 50
132.382387
 51
312.382387
  0
ARC
  5
90
330
76
100
AcDbEntity
  8
0
  6
Continuous
 62
     0
370
    30
100
AcDbCircle
 10
309.692173
 20
171.702626
 30
0.0
 40
33.49999999999635
100
AcDbArc
 50
312.382387
 51
132.382387
  0
ARC
  5
91
330
76
100
AcDbEntity
  8
0
  6
Continuous
 62
     0
370
     0
100
AcDbCircle
 10
309.692173
 20
171.70263
 30
0.0
 40
32.49999999999694
100
AcDbArc
 50
132.382387
 51
312.382387
  0
ARC
  5
92
330
76
100
AcDbEntity
  8
0
  6
Continuous
 62
     0
370
     0
100
AcDbCircle
 10
309.692173
 20
171.70263
 30
0.0
 40
32.49999999999694
100
AcDbArc
 50
312.382387
 51
132.382387
  0
ENDBLK
  5
94
330
76
100
AcDbEntity
  8
0
100
AcDbBlockEnd
  0
BLOCK
  5
D2
330
96
100
AcDbEntity
  8
0
100
AcDbBlockBegin
  2
c
 70
     0
 10
228.616226
 20
105.937607
 30
0.0
  3
c
  1

  0
LINE
  5
97
330
96
100
AcDbEntity
  8
0
  6
Continuous
 62
     0
370
     0
100
AcDbLine
 10
496.951271
 20
401.98088
 30
0.0
 11
505.951271
 21
384.980881
 31
0.0
  0
LINE
  5
98
330
96
100
AcDbEntity
  8
0
  6
Continuous
 62
     0
370
     0
100
AcDbLine
 10
488.951271
 20
393.980881
 30
0.0
 11
505.951271
 21
384.980881
 31
0.0
  0
LINE
  5
99
330
96
100
AcDbEntity
  8
0
  6
Continuous
 62
     0
370
     0
100
AcDbLine
 10
505.951271
 20
384.980881
 30
0.0
 11
488.951271
 21
375.980881
 31
0.0
  0
LINE
  5
9A
330
96
100
AcDbEntity
  8
0
  6
Continuous
 62
     0
370
     0
100
AcDbLine
 10
505.951271
 20
384.980881
 30
0.0
 11
496.951271
 21
367.980881
 31
0.0
  0
LINE
  5
9B
330
96
100
AcDbEntity
  8
0
  6
Continuous
 62
     0
370
     0
100
AcDbLine
 10
514.951271
 20
408.480881
 30
0.0
 11
496.951271
 21
408.480881
 31
0.0
  0
ARC
  5
9C
330
96
100
AcDbEntity
  8
0
  6
Continuous
 62
     0
370
    30
100
AcDbCircle
 10
514.451271
 20
408.480881
 30
0.0
 40
0.5
100
AcDbArc
 50
0.0
 51
90.0
  0
LINE
  5
9D
330
96
100
AcDbEntity
  8
0
  6
Continuous
 62
     0
370
    30
100
AcDbLine
 10
514.951271
 20
408.480881
 30
0.0
 11
514.951271
 21
361.480881
 31
0.0
  0
LINE
  5
9E
330
96
100
AcDbEntity
  8
0
  6
Continuous
 62
     0
370
     0
100
AcDbLine
 10
514.951271
 20
361.480881
 30
0.0
 11
496.951271
 21
361.480881
 31
0.0
  0
LINE
  5
9F
330
96
100
AcDbEntity
  8
0
  6
Continuous
 62
     0
370
    30
100
AcDbLine
 10
514.451271
 20
360.980881
 30
0.0
 11
497.451271
 21
360.980881
 31
0.0
  0
ARC
  5
A0
330
96
100
AcDbEntity
  8
0
  6
Continuous
 62
     0
370
    30
100
AcDbCircle
 10
514.451271
 20
361.480881
 30
0.0
 40
0.5
100
AcDbArc
 50
270.0
 51
360.0
  0
LINE
  5
A1
330
96
100
AcDbEntity
  8
0
  6
Continuous
 62
     0
370
     0
100
AcDbLine
 10
439.451271
 20
393.980881
 30
0.0
 11
439.451271
 21
384.980881
 31
0.0
  0
LINE
  5
A2
330
96
100
AcDbEntity
  8
0
  6
Continuous
 62
     0
370
     0
100
AcDbLine
 10
439.451271
 20
384.980881
 30
0.0
 11
439.451271
 21
375.980881
 31
0.0
  0
LINE
  5
A3
330
96
100
AcDbEntity
  8
0
  6
Continuous
 62
     0
370
    30
100
AcDbLine
 10
487.554132
 20
408.980881
 30
0.0
 11
524.451271
 21
408.980881
 31
0.0
  0
LINE
  5
A4
330
96
100
AcDbEntity
  8
0
  6
Continuous
 62
     0
370
    30
100
AcDbLine
 10
487.451271
 20
408.980881
 30
0.0
 11
487.554132
 21
408.980881
 31
0.0
  0
LINE
  5
A5
330
96
100
AcDbEntity
  8
0
  6
Continuous
 62
     0
370
     0
100
AcDbLine
 10
485.951271
 20
410.480881
 30
0.0
 11
486.062472
 21
410.480881
 31
0.0
  0
LINE
  5
A6
330
96
100
AcDbEntity
  8
0
  6
Continuous
 62
     0
370
     0
100
AcDbLine
 10
486.062472
 20
410.480881
 30
0.0
 11
525.951271
 21
410.480881
 31
0.0
  0
LINE
  5
A7
330
96
100
AcDbEntity
  8
0
  6
Continuous
 62
     0
370
     0
100
AcDbLine
 10
485.951271
 20
412.280881
 30
0.0
 11
486.062472
 21
412.280881
 31
0.0
  0
LINE
  5
A8
330
96
100
AcDbEntity
  8
0
  6
Continuous
 62
     0
370
     0
100
AcDbLine
 10
486.062472
 20
412.280881
 30
0.0
 11
525.951271
 21
412.280881
 31
0.0
  0
LWPOLYLINE
  5
A9
330
96
100
AcDbEntity
  8
0
  6
Continuous
 62
     0
370
     0
100
AcDbPolyline
 90
       45
 70
     0
 43
0.0
 10
434.451263
 20
414.980896
 10
434.451263
 20
414.917175
 10
434.451263
 20
414.720337
 10
434.451263
 20
414.382874
 10
434.451263
 20
413.898743
 10
434.451263
 20
413.263733
 10
434.451263
 20
412.4758
 10
434.451263
 20
411.535248
 10
434.451263
 20
410.444855
 10
434.451263
 20
409.209961
 10
434.451263
 20
407.83844
 10
434.451263
 20
406.340515
 10
434.451263
 20
404.728485
 10
434.451263
 20
403.01651
 10
434.451263
 20
401.220032
 10
434.451263
 20
399.355469
 10
434.451263
 20
397.439697
 10
434.451263
 20
395.489532
 10
434.451263
 20
393.521454
 10
434.451263
 20
391.551025
 10
434.451263
 20
389.592743
 10
434.451263
 20
387.65979
 10
434.451263
 20
385.756561
 10
434.451263
 20
383.820404
 10
434.451263
 20
381.842865
 10
434.451263
 20
379.835999
 10
434.451263
 20
377.813416
 10
434.451263
 20
375.790039
 10
434.451263
 20
373.781952
 10
434.451263
 20
371.805939
 10
434.451263
 20
369.87915
 10
434.451263
 20
368.018707
 10
434.451263
 20
366.241089
 10
434.451263
 20
364.561768
 10
434.451263
 20
362.994751
 10
434.451263
 20
361.552216
 10
434.451263
 20
360.24411
 10
434.451263
 20
359.078064
 10
434.451263
 20
358.059143
 10
434.451263
 20
357.189911
 10
434.451263
 20
356.470551
 10
434.451263
 20
355.898895
 10
434.451263
 20
355.470856
 10
434.451263
 20
355.180511
 10
434.451263
 20
355.018494
  0
LINE
  5
AA
330
96
100
AcDbEntity
  8
0
  6
Continuous
 62
     0
370
    30
100
AcDbLine
 10
433.951271
 20
355.517875
 30
0.0
 11
433.951271
 21
414.443887
 31
0.0
  0
LINE
  5
AB
330
96
100
AcDbEntity
  8
0
  6
Continuous
 62
     0
370
     0
100
AcDbLine
 10
438.451271
 20
354.980881
 30
0.0
 11
438.451271
 21
355.018502
 31
0.0
  0
LINE
  5
AC
330
96
100
AcDbEntity
  8
0
  6
Continuous
 62
     0
370
     0
100
AcDbLine
 10
438.451271
 20
355.018502
 30
0.0
 11
438.451271
 21
414.980881
 31
0.0
  0
LWPOLYLINE
  5
AD
330
96
100
AcDbEntity
  8
0
  6
Continuous
 62
     0
370
    30
100
AcDbPolyline
 90
       45
 70
     0
 43
0.0
 10
438.951263
 20
414.443878
 10
438.951263
 20
414.477539
 10
438.951263
 20
414.382324
 10
438.951263
 20
414.149414
 10
438.951263
 20
413.771332
 10
438.951263
 20
413.24234
 10
438.951263
 20
412.558746
 10
438.951263
 20
411.719147
 10
438.951263
 20
410.72467
 10
438.951263
 20
409.579132
 10
438.951263
 20
408.289093
 10
438.951263
 20
406.863647
 10
438.951263
 20
405.314331
 10
438.951263
 20
403.654755
 10
438.951263
 20
401.900238
 10
438.951263
 20
400.067322
 10
438.951263
 20
398.17334
 10
438.951263
 20
396.23584
 10
438.951263
 20
394.272095
 10
438.951263
 20
392.298767
 10
438.951263
 20
390.331421
 10
438.951263
 20
388.384399
 10
438.951263
 20
386.470367
 10
438.951263
 20
384.55072
 10
438.951263
 20
382.584747
 10
438.951263
 20
380.584381
 10
438.951263
 20
378.563171
 10
438.951263
 20
376.536224
 10
438.951263
 20
374.519897
 10
438.951263
 20
372.531403
 10
438.951263
 20
370.58847
 10
438.951263
 20
368.708923
 10
438.951263
 20
366.910034
 10
438.951263
 20
365.20816
 10
438.951263
 20
363.618164
 10
438.951263
 20
362.153015
 10
438.951263
 20
360.823456
 10
438.951263
 20
359.637756
 10
438.951263
 20
358.601501
 10
438.951263
 20
357.717651
 10
438.951263
 20
356.986603
 10
438.951263
 20
356.406311
 10
438.951263
 20
355.972565
 10
438.951263
 20
355.679382
 10
438.951263
 20
355.517883
  0
ARC
  5
AE
330
96
100
AcDbEntity
  8
0
  6
Continuous
 62
     0
370
    30
100
AcDbCircle
 10
438.451256
 20
355.480896
 30
0.0
 40
0.5000150271644253
100
AcDbArc
 50
270.001722
 51
359.998278
  0
ARC
  5
AF
330
96
100
AcDbEntity
  8
0
  6
Continuous
 62
     0
370
    30
100
AcDbCircle
 10
438.451256
 20
414.480866
 30
0.0
 40
0.5000150271653845
100
AcDbArc
 50
0.001722
 51
89.998278
  0
LINE
  5
B0
330
96
100
AcDbEntity
  8
0
  6
Continuous
 62
     0
370
    30
100
AcDbLine
 10
438.451271
 20
354.980881
 30
0.0
 11
434.451271
 21
354.980881
 31
0.0
  0
LINE
  5
B1
330
96
100
AcDbEntity
  8
0
  6
Continuous
 62
     0
370
    30
100
AcDbLine
 10
438.451271
 20
414.980881
 30
0.0
 11
434.451271
 21
414.980881
 31
0.0
  0
ARC
  5
B2
330
96
100
AcDbEntity
  8
0
  6
Continuous
 62
     0
370
    30
100
AcDbCircle
 10
434.451286
 20
355.480896
 30
0.0
 40
0.500014969164136
100
AcDbArc
 50
180.009818
 51
269.998285
  0
ARC
  5
B3
330
96
100
AcDbEntity
  8
0
  6
Continuous
 62
     0
370
    30
100
AcDbCircle
 10
434.451286
 20
414.480866
 30
0.0
 40
0.5000149691654561
100
AcDbArc
 50
90.001715
 51
179.990182
  0
ARC
  5
B4
330
96
100
AcDbEntity
  8
0
  6
Continuous
 62
     0
370
    30
100
AcDbCircle
 10
525.451256
 20
412.280866
 30
0.0
 40
0.5000150271645869
100
AcDbArc
 50
0.001722
 51
89.998278
  0
ARC
  5
B5
330
96
100
AcDbEntity
  8
0
  6
Continuous
 62
     0
370
    30
100
AcDbCircle
 10
486.451286
 20
412.280866
 30
0.0
 40
0.5000150271645869
100
AcDbArc
 50
90.001722
 51
179.998278
  0
LINE
  5
B6
330
96
100
AcDbEntity
  8
0
  6
Continuous
 62
     0
370
    30
100
AcDbLine
 10
525.951271
 20
410.480881
 30
0.0
 11
525.951271
 21
412.280881
 31
0.0
  0
LINE
  5
B7
330
96
100
AcDbEntity
  8
0
  6
Continuous
 62
     0
370
    30
100
AcDbLine
 10
485.951271
 20
410.480881
 30
0.0
 11
485.951271
 21
412.280881
 31
0.0
  0
ARC
  5
B8
330
96
100
AcDbEntity
  8
0
  6
Continuous
 62
     0
370
    30
100
AcDbCircle
 10
524.451203
 20
410.480948
 30
0.0
 40
1.500067841418646
100
AcDbArc
 50
270.010694
 51
359.997409
  0
ARC
  5
B9
330
96
100
AcDbEntity
  8
0
  6
Continuous
 62
     0
370
    30
100
AcDbCircle
 10
487.451339
 20
410.480948
 30
0.0
 40
1.500067841418609
100
AcDbArc
 50
180.002591
 51
269.989306
  0
ARC
  5
BA
330
96
100
AcDbEntity
  8
0
  6
Continuous
 62
     0
370
    30
100
AcDbCircle
 10
439.451274
 20
376.480884
 30
0.0
 40
0.5000034422816908
100
AcDbArc
 50
180.000394
 51
269.999606
  0
ARC
  5
BB
330
96
100
AcDbEntity
  8
0
  6
Continuous
 62
     0
370
    30
100
AcDbCircle
 10
439.451274
 20
393.480878
 30
0.0
 40
0.50000277068658
100
AcDbArc
 50
90.000317
 51
179.988223
  0
LINE
  5
BC
330
96
100
AcDbEntity
  8
0
  6
Continuous
 62
     0
370
    30
100
AcDbLine
 10
439.451271
 20
393.980881
 30
0.0
 11
488.952194
 21
393.980881
 31
0.0
  0
LINE
  5
BD
330
96
100
AcDbEntity
  8
0
  6
Continuous
 62
     0
370
    30
100
AcDbLine
 10
439.451271
 20
375.980881
 30
0.0
 11
488.952194
 21
375.980881
 31
0.0
  0
ARC
  5
BE
330
96
100
AcDbEntity
  8
0
  6
Continuous
 62
     0
370
    30
100
AcDbCircle
 10
497.451274
 20
361.480884
 30
0.0
 40
0.5000027706880794
100
AcDbArc
 50
180.000317
 51
269.988223
  0
LINE
  5
BF
330
96
100
AcDbEntity
  8
0
  6
Continuous
 62
     0
370
    30
100
AcDbLine
 10
496.951271
 20
408.480881
 30
0.0
 11
496.951271
 21
401.979957
 31
0.0
  0
LINE
  5
C0
330
96
100
AcDbEntity
  8
0
  6
Continuous
 62
     0
370
    30
100
AcDbLine
 10
496.951271
 20
367.981804
 30
0.0
 11
496.951271
 21
361.480881
 31
0.0
  0
ARC
  5
C1
330
96
100
AcDbEntity
  8
0
  6
Continuous
 62
     0
370
    30
100
AcDbCircle
 10
497.451274
 20
408.480878
 30
0.0
 40
0.5000027706880981
100
AcDbArc
 50
90.011777
 51
179.999683
  0
ARC
  5
C2
330
96
100
AcDbEntity
  8
0
  6
Continuous
 62
     0
370
    30
100
AcDbCircle
 10
488.95122
 20
367.98083
 30
0.0
 40
8.000050784311899
100
AcDbArc
 50
0.000365
 51
89.999635
  0
ARC
  5
C3
330
96
100
AcDbEntity
  8
0
  6
Continuous
 62
     0
370
    30
100
AcDbCircle
 10
488.95127
 20
401.980882
 30
0.0
 40
8.000001558662529
100
AcDbArc
 50
270.000013
 51
359.999987
  0
LINE
  5
C4
330
96
100
AcDbEntity
  8
0
  6
Continuous
 62
     0
370
    30
100
AcDbLine
 10
480.467413
 20
412.780881
 30
0.0
 11
540.451271
 21
412.780881
 31
0.0
  0
LINE
  5
C5
330
96
100
AcDbEntity
  8
0
  6
Continuous
 62
     0
370
    30
100
AcDbLine
 10
471.451271
 20
412.780881
 30
0.0
 11
480.467413
 21
412.780881
 31
0.0
  0
LINE
  5
C6
330
96
100
AcDbEntity
  8
0
  6
Continuous
 62
     0
370
     0
100
AcDbLine
 10
478.251425
 20
415.780881
 30
0.0
 11
543.451271
 21
415.780881
 31
0.0
  0
LINE
  5
C7
330
96
100
AcDbEntity
  8
0
  6
Continuous
 62
     0
370
     0
100
AcDbLine
 10
468.451271
 20
415.780881
 30
0.0
 11
478.251425
 21
415.780881
 31
0.0
  0
LINE
  5
C8
330
96
100
AcDbEntity
  8
0
  6
Continuous
 62
     0
370
     0
100
AcDbLine
 10
478.251425
 20
510.780881
 30
0.0
 11
543.451271
 21
510.780881
 31
0.0
  0
LINE
  5
C9
330
96
100
AcDbEntity
  8
0
  6
Continuous
 62
     0
370
     0
100
AcDbLine
 10
468.451271
 20
510.780881
 30
0.0
 11
478.251425
 21
510.780881
 31
0.0
  0
LINE
  5
CA
330
96
100
AcDbEntity
  8
0
  6
Continuous
 62
     0
370
    30
100
AcDbLine
 10
479.72875
 20
512.780881
 30
0.0
 11
541.451271
 21
512.780881
 31
0.0
  0
LINE
  5
CB
330
96
100
AcDbEntity
  8
0
  6
Continuous
 62
     0
370
    30
100
AcDbLine
 10
470.451271
 20
512.780881
 30
0.0
 11
479.72875
 21
512.780881
 31
0.0
  0
LWPOLYLINE
  5
CC
330
96
100
AcDbEntity
  8
0
  6
Continuous
 62
     0
370
    30
100
AcDbPolyline
 90
        8
 70
     0
 43
0.0
 10
468.451263
 20
510.780884
 10
468.5
 20
511.219177
 10
468.643646
 20
511.636749
 10
468.875305
 20
512.012268
 10
469.183716
 20
512.327881
 10
469.553802
 20
512.568237
 10
469.967621
 20
512.721497
 10
470.451263
 20
512.780884
  0
ARC
  5
CD
330
96
100
AcDbEntity
  8
0
  6
Continuous
 62
     0
370
    30
100
AcDbCircle
 10
541.45129
 20
510.7809
 30
0.0
 40
1.999980862109662
100
AcDbArc
 50
359.999452
 51
90.000548
  0
LINE
  5
CE
330
96
100
AcDbEntity
  8
0
  6
Continuous
 62
     0
370
    30
100
AcDbLine
 10
468.451271
 20
415.780881
 30
0.0
 11
468.451271
 21
510.780881
 31
0.0
  0
LINE
  5
CF
330
96
100
AcDbEntity
  8
0
  6
Continuous
 62
     0
370
    30
100
AcDbLine
 10
543.451271
 20
415.780881
 30
0.0
 11
543.451271
 21
510.780881
 31
0.0
  0
ARC
  5
D0
330
96
100
AcDbEntity
  8
0
  6
Continuous
 62
     0
370
    30
100
AcDbCircle
 10
471.451303
 20
415.780913
 30
0.0
 40
3.000031826149656
100
AcDbArc
 50
180.000608
 51
269.991289
  0
ARC
  5
D1
330
96
100
AcDbEntity
  8
0
  6
Continuous
 62
     0
370
    30
100
AcDbCircle
 10
540.451239
 20
415.780913
 30
0.0
 40
3.000031826149656
100
AcDbArc
 50
270.008711
 51
359.999392
  0
ENDBLK
  5
D3
330
96
100
AcDbEntity
  8
0
100
AcDbBlockEnd
  0
BLOCK
  5
FE
330
D5
100
AcDbEntity
  8
0
100
AcDbBlockBegin
  2
d
 70
     0
 10
228.616226
 20
117.384766
 30
0.0
  3
d
  1

  0
LWPOLYLINE
  5
D6
330
D5
100
AcDbEntity
  8
0
  6
Continuous
 62
     0
370
     0
100
AcDbPolyline
 90
        8
 70
     0
 43
0.0
 10
504.895508
 20
152.884979
 10
504.848419
 20
153.156097
 10
504.706604
 20
153.507217
 10
504.478973
 20
153.929108
 10
504.173309
 20
154.413849
 10
503.795929
 20
154.955032
 10
503.35202
 20
155.547302
 10
502.800873
 20
156.241623
  0
ELLIPSE
  5
D7
330
D5
100
AcDbEntity
  8
0
  6
Continuous
 62
     0
370
     0
100
AcDbEllipse
 10
495.8955
 20
144.7764
 30
0.0
 11
9.0
 21
0.0
 31
0.0
210
0.0
220
0.0
230
-1.0
 40
0.707107
 41
0.0000000209016647
 42
2.356194490192345
  0
ELLIPSE
  5
D8
330
D5
100
AcDbEntity
  8
0
  6
Continuous
 62
     0
370
     0
100
AcDbEllipse
 10
495.8955
 20
144.7764
 30
0.0
 11
9.0
 21
0.0
 31
0.0
210
0.0
220
0.0
230
-1.0
 40
0.707107
 41
2.356194490192345
 42
3.141592674491458
  0
ELLIPSE
  5
D9
330
D5
100
AcDbEntity
  8
0
  6
Continuous
 62
     0
370
     0
100
AcDbEllipse
 10
542.918101
 20
194.64341
 30
0.0
 11
5.196152539064805
 21
-7.348469146071882
 31
0.0
210
0.0
220
0.0
230
1.0
 40
0.5
 41
0.6154796770017041
 42
3.141592713657523
  0
ELLIPSE
  5
DA
330
D5
100
AcDbEntity
  8
0
  6
Continuous
 62
     0
370
     0
100
AcDbEllipse
 10
542.918101
 20
194.64341
 30
0.0
 11
5.196152539064805
 21
-7.348469146071882
 31
0.0
210
0.0
220
0.0
230
1.0
 40
0.5
 41
0.0000000600677321
 42
0.6154796770017041
  0
LWPOLYLINE
  5
DB
330
D5
100
AcDbEntity
  8
0
  6
Continuous
 62
     0
370
     0
100
AcDbPolyline
 90
       32
 70
     0
 43
0.0
 10
563.763672
 20
172.641098
 10
564.598999
 20
173.324265
 10
565.333557
 20
174.121246
 10
565.96521
 20
175.022034
 10
566.493408
 20
176.015594
 10
566.919312
 20
177.090149
 10
567.2453
 20
178.233536
 10
567.475159
 20
179.433594
 10
567.613525
 20
180.678314
 10
567.666138
 20
181.971329
 10
567.633545
 20
183.354614
 10
567.510071
 20
184.828644
 10
567.290344
 20
186.388657
 10
566.970093
 20
188.028198
 10
566.546326
 20
189.739059
 10
566.017273
 20
191.511383
 10
565.382812
 20
193.33374
 10
564.644531
 20
195.193359
 10
563.805664
 20
197.07637
 10
562.871216
 20
198.968124
 10
561.847656
 20
200.853577
 10
560.743042
 20
202.717682
 10
559.566711
 20
204.545776
 10
558.328979
 20
206.323975
 10
557.040833
 20
208.03949
 10
555.713684
 20
209.680954
 10
554.359009
 20
211.238632
 10
552.988159
 20
212.704514
 10
551.611938
 20
214.072449
 10
550.240479
 20
215.33815
 10
548.883179
 20
216.499054
 10
547.515686
 20
217.579041
  0
LWPOLYLINE
  5
DC
330
D5
100
AcDbEntity
  8
0
  6
Continuous
 62
     0
370
     0
100
AcDbPolyline
 90
       12
 70
     0
 43
0.0
 10
547.515686
 20
217.579041
 10
546.268066
 20
218.48703
 10
544.992615
 20
219.339355
 10
543.695496
 20
220.126831
 10
542.38385
 20
220.840347
 10
541.065308
 20
221.470978
 10
539.748474
 20
222.0103
 10
538.4422
 20
222.450577
 10
537.155823
 20
222.784958
 10
535.898865
 20
223.007751
 10
534.680786
 20
223.114609
 10
533.395508
 20
223.094711
  0
ELLIPSE
  5
DD
330
D5
100
AcDbEntity
  8
0
  6
Continuous
 62
     0
370
     0
100
AcDbEllipse
 10
543.625208
 20
195.14341
 30
0.0
 11
-17.32050846354934
 21
24.49489715357295
 31
0.0
210
0.0
220
0.0
230
-1.0
 40
0.5
 41
1.005402475283888
 42
3.141592593522062
  0
ELLIPSE
  5
DE
330
D5
100
AcDbEntity
  8
0
  6
Continuous
 62
     0
370
     0
100
AcDbEllipse
 10
543.625208
 20
195.14341
 30
0.0
 11
-17.32050846354934
 21
24.49489715357295
 31
0.0
210
0.0
220
0.0
230
-1.0
 40
0.5
 41
0.4521147702372081
 42
1.005402475283888
  0
LWPOLYLINE
  5
DF
330
D5
100
AcDbEntity
  8
0
  6
Continuous
 62
     0
370
     0
100
AcDbPolyline
 90
       46
 70
     0
 43
0.0
 10
542.227295
 20
174.79837
 10
543.554749
 20
173.83551
 10
544.913574
 20
172.937454
 10
546.296021
 20
172.115616
 10
547.693115
 20
171.381287
 10
549.094971
 20
170.745361
 10
550.490845
 20
170.218063
 10
551.869385
 20
169.808533
 10
553.218872
 20
169.524506
 10
554.527527
 20
169.372116
 10
555.783752
 20
169.35553
 10
556.976746
 20
169.476807
 10
558.096252
 20
169.735809
 10
559.133484
 20
170.130157
 10
560.080811
 20
170.655319
 10
560.932373
 20
171.304764
 10
561.683838
 20
172.07016
 10
562.332764
 20
172.941711
 10
562.878174
 20
173.908508
 10
563.320984
 20
174.958771
 10
563.663269
 20
176.080307
 10
563.908569
 20
177.260818
 10
564.061523
 20
178.488144
 10
564.127686
 20
179.758972
 10
564.109314
 20
181.115967
 10
564.000916
 20
182.564285
 10
563.796997
 20
184.099411
 10
563.493103
 20
185.715073
 10
563.085938
 20
187.403229
 10
562.573669
 20
189.154144
 10
561.955933
 20
190.956467
 10
561.234131
 20
192.79744
 10
560.411316
 20
194.663208
 10
559.492371
 20
196.539017
 10
558.483765
 20
198.409744
 10
557.393555
 20
200.260193
 10
556.230957
 20
202.075531
 10
555.006287
 20
203.84169
 10
553.730774
 20
205.545746
 10
552.415771
 20
207.176147
 10
551.072937
 20
208.722992
 10
549.713684
 20
210.178207
 10
548.348938
 20
211.535538
 10
546.988953
 20
212.790634
 10
545.643127
 20
213.940918
 10
544.315979
 20
214.988449
  0
LWPOLYLINE
  5
E0
330
D5
100
AcDbEntity
  8
0
  6
Continuous
 62
     0
370
     0
100
AcDbPolyline
 90
        5
 70
     0
 43
0.0
 10
536.998657
 20
179.435013
 10
538.212952
 20
178.23349
 10
539.42334
 20
177.112961
 10
540.62323
 20
176.075287
 10
542.227295
 20
174.79837
  0
LWPOLYLINE
  5
E1
330
D5
100
AcDbEntity
  8
0
  6
Continuous
 62
     0
370
     0
100
AcDbPolyline
 90
        9
 70
     0
 43
0.0
 10
544.315979
 20
214.988449
 10
543.015564
 20
215.932587
 10
541.684753
 20
216.814697
 10
540.331055
 20
217.624084
 10
538.962646
 20
218.350067
 10
537.588928
 20
218.982376
 10
536.219849
 20
219.511322
 10
534.866089
 20
219.928177
 10
533.395508
 20
220.250427
  0
LWPOLYLINE
  5
E2
330
D5
100
AcDbEntity
  8
0
  6
Continuous
 62
     0
370
    30
100
AcDbPolyline
 90
       19
 70
     0
 43
0.0
 10
560.94574
 20
170.648514
 10
560.005249
 20
170.077347
 10
558.983398
 20
169.635132
 10
557.887451
 20
169.324219
 10
556.724487
 20
169.144806
 10
555.501343
 20
169.096802
 10
554.224365
 20
169.17923
 10
552.899536
 20
169.390366
 10
551.532776
 20
169.728149
 10
550.130066
 20
170.19046
 10
548.697693
 20
170.774597
 10
547.242004
 20
171.477509
 10
545.769653
 20
172.295486
 10
544.287292
 20
173.224625
 10
542.80188
 20
174.260315
 10
541.320435
 20
175.397537
 10
539.850037
 20
176.630707
 10
538.397583
 20
177.953949
 10
536.938904
 20
179.392746
  0
LINE
  5
E3
330
D5
100
AcDbEntity
  8
0
  6
Continuous
 62
     0
370
    30
100
AcDbLine
 10
560.945717
 20
170.648514
 30
0.0
 11
563.774144
 21
172.648514
 31
0.0
  0
LWPOLYLINE
  5
E4
330
D5
100
AcDbEntity
  8
0
  6
Continuous
 62
     0
370
    30
100
AcDbPolyline
 90
       11
 70
     0
 43
0.0
 10
547.799805
 20
217.637054
 10
546.271912
 20
218.738708
 10
544.744751
 20
219.729233
 10
543.226074
 20
220.603424
 10
541.723145
 20
221.35672
 10
540.243286
 20
221.985245
 10
538.793518
 20
222.485336
 10
537.380554
 20
222.854141
 10
536.011108
 20
223.08902
 10
534.691589
 20
223.187851
 10
533.395508
 20
223.145905
  0
LWPOLYLINE
  5
E5
330
D5
100
AcDbEntity
  8
0
  6
Continuous
 62
     0
370
    30
100
AcDbPolyline
 90
       31
 70
     0
 43
0.0
 10
563.77417
 20
172.648514
 10
564.637207
 20
173.355209
 10
565.403137
 20
174.184906
 10
566.067078
 20
175.131104
 10
566.626526
 20
176.187073
 10
567.079224
 20
177.345978
 10
567.423828
 20
178.601273
 10
567.660156
 20
179.946548
 10
567.788147
 20
181.375198
 10
567.8078
 20
182.880524
 10
567.719666
 20
184.45549
 10
567.524597
 20
186.092712
 10
567.223999
 20
187.784348
 10
566.819397
 20
189.522354
 10
566.312988
 20
191.298325
 10
565.707397
 20
193.103592
 10
565.005737
 20
194.929245
 10
564.211365
 20
196.766312
 10
563.328613
 20
198.605652
 10
562.361938
 20
200.438065
 10
561.315918
 20
202.254395
 10
560.195862
 20
204.045593
 10
559.007629
 20
205.802658
 10
557.757019
 20
207.516663
 10
556.450378
 20
209.179123
 10
555.094177
 20
210.781693
 10
553.695312
 20
212.316162
 10
552.260742
 20
213.774811
 10
550.797546
 20
215.150604
 10
549.312805
 20
216.436646
 10
547.799805
 20
217.637054
  0
LWPOLYLINE
  5
E6
330
D5
100
AcDbEntity
  8
0
  6
Continuous
 62
     0
370
    30
100
AcDbPolyline
 90
        6
 70
     0
 43
0.0
 10
548.114441
 20
187.295059
 10
548.588379
 20
187.725128
 10
548.958923
 20
188.264847
 10
549.22113
 20
188.896667
 10
549.376587
 20
189.60704
 10
549.428528
 20
190.393417
  0
LWPOLYLINE
  5
E7
330
D5
100
AcDbEntity
  8
0
  6
Continuous
 62
     0
370
    30
100
AcDbPolyline
 90
       21
 70
     0
 43
0.0
 10
549.428528
 20
190.393417
 10
549.377686
 20
191.238617
 10
549.227051
 20
192.133118
 10
548.980286
 20
193.06427
 10
548.641785
 20
194.019211
 10
548.216736
 20
194.984665
 10
547.711853
 20
195.946106
 10
547.135132
 20
196.888885
 10
546.495483
 20
197.798508
 10
545.802734
 20
198.660934
 10
545.067566
 20
199.462906
 10
544.301025
 20
200.19194
 10
543.514526
 20
200.836746
 10
542.719177
 20
201.387772
 10
541.925781
 20
201.836563
 10
541.144348
 20
202.175507
 10
540.38324
 20
202.398529
 10
539.651367
 20
202.499237
 10
538.958252
 20
202.470932
 10
538.31543
 20
202.307114
 10
537.736572
 20
202.002151
  0
LINE
  5
E8
330
D5
100
AcDbEntity
  8
0
  6
Continuous
 62
     0
370
    30
100
AcDbLine
 10
537.721948
 20
201.991879
 30
0.0
 11
533.395501
 21
198.932619
 31
0.0
  0
LINE
  5
E9
330
D5
100
AcDbEntity
  8
0
  6
Continuous
 62
     0
370
    30
100
AcDbLine
 10
548.114254
 20
187.294941
 30
0.0
 11
532.087821
 21
175.962541
 31
0.0
  0
LWPOLYLINE
  5
EA
330
D5
100
AcDbEntity
  8
0
  6
Continuous
 62
     0
370
    30
100
AcDbPolyline
 90
        8
 70
     0
 43
0.0
 10
489.596436
 20
140.118164
 10
488.931824
 20
140.642883
 10
488.34903
 20
141.219269
 10
487.855743
 20
141.840988
 10
487.458618
 20
142.501694
 10
487.163422
 20
143.193741
 10
486.975281
 20
143.908615
 10
486.895508
 20
144.776367
  0
LWPOLYLINE
  5
EB
330
D5
100
AcDbEntity
  8
0
  6
Continuous
 62
     0
370
    30
100
AcDbPolyline
 90
       19
 70
     0
 43
0.0
 10
504.895508
 20
144.776398
 10
504.816223
 20
143.911148
 10
504.580566
 20
143.062927
 10
504.194763
 20
142.249283
 10
503.667633
 20
141.4841
 10
503.009583
 20
140.779297
 10
502.232849
 20
140.145432
 10
501.351013
 20
139.591843
 10
500.378815
 20
139.126602
 10
499.332397
 20
138.756561
 10
498.229004
 20
138.487305
 10
497.086823
 20
138.322952
 10
495.924866
 20
138.266113
 10
494.76239
 20
138.317627
 10
493.618805
 20
138.476471
 10
492.513092
 20
138.740677
 10
491.463287
 20
139.105637
 10
490.487
 20
139.566208
 10
489.596436
 20
140.118164
  0
LINE
  5
EC
330
D5
100
AcDbEntity
  8
0
  6
Continuous
 62
     0
370
    30
100
AcDbLine
 10
486.8955
 20
156.571022
 30
0.0
 11
486.8955
 21
144.776401
 31
0.0
  0
LINE
  5
ED
330
D5
100
AcDbEntity
  8
0
  6
Continuous
 62
     0
370
    30
100
AcDbLine
 10
504.8955
 20
152.893347
 30
0.0
 11
504.8955
 21
144.7764
 31
0.0
  0
ARC
  5
EE
330
D5
100
AcDbEntity
  8
0
  6
Continuous
 62
     0
370
    30
100
AcDbCircle
 10
512.331693
 20
152.882646
 30
0.0
 40
7.435696936020295
100
AcDbArc
 50
148.373338
 51
179.922942
  0
ELLIPSE
  5
EF
330
D5
100
AcDbEntity
  8
0
  6
Continuous
 62
     0
370
     0
100
AcDbEllipse
 10
495.8955
 20
183.172297
 30
0.0
 11
-37.49999999999727
 21
-1.378524143733641E-15
 31
0.0
210
0.0
220
0.0
230
1.0
 40
0.707107
 41
6.283185286277921
 42
7.808295671593319
  0
ELLIPSE
  5
F0
330
D5
100
AcDbEntity
  8
0
  6
Continuous
 62
     0
370
     0
100
AcDbEllipse
 10
495.8955
 20
183.172297
 30
0.0
 11
-37.49999999999727
 21
-1.378524143733641E-15
 31
0.0
210
0.0
220
0.0
230
1.0
 40
0.707107
 41
1.525110364413733
 42
3.141592632688129
  0
ELLIPSE
  5
F1
330
D5
100
AcDbEntity
  8
0
  6
Continuous
 62
     0
370
     0
100
AcDbEllipse
 10
495.8955
 20
250.347439
 30
0.0
 11
-37.49999999999635
 21
-1.378524143733607E-15
 31
0.0
210
0.0
220
0.0
230
1.0
 40
0.707107
 41
6.28318528627792
 42
7.808295671593319
  0
ELLIPSE
  5
F2
330
D5
100
AcDbEntity
  8
0
  6
Continuous
 62
     0
370
     0
100
AcDbEllipse
 10
495.8955
 20
250.347439
 30
0.0
 11
-37.49999999999635
 21
-1.378524143733607E-15
 31
0.0
210
0.0
220
0.0
230
1.0
 40
0.707107
 41
1.525110364413733
 42
3.141592632688129
  0
ELLIPSE
  5
F3
330
D5
100
AcDbEntity
  8
0
  6
Continuous
 62
     0
370
     0
100
AcDbEllipse
 10
495.8955
 20
251.761653
 30
0.0
 11
-35.49999999999635
 21
-1.305002856067808E-15
 31
0.0
210
0.0
220
0.0
230
1.0
 40
0.707107
 41
4.666703018003526
 42
7.808295671593319
  0
ELLIPSE
  5
F4
330
D5
100
AcDbEntity
  8
0
  6
Continuous
 62
     0
370
     0
100
AcDbEllipse
 10
495.8955
 20
251.761653
 30
0.0
 11
-35.49999999999635
 21
-1.305002856067808E-15
 31
0.0
210
0.0
220
0.0
230
1.0
 40
0.707107
 41
1.525110364413733
 42
4.666703018003526
  0
ELLIPSE
  5
F5
330
D5
100
AcDbEntity
  8
0
  6
Continuous
 62
     0
370
     0
100
AcDbEllipse
 10
495.8955
 20
250.347439
 30
0.0
 11
-33.49999999999635
 21
-1.231481568402008E-15
 31
0.0
210
0.0
220
0.0
230
1.0
 40
0.707107
 41
4.666703018003526
 42
6.283186668303575
  0
ELLIPSE
  5
F6
330
D5
100
AcDbEntity
  8
0
  6
Continuous
 62
     0
370
     0
100
AcDbEllipse
 10
495.8955
 20
250.347439
 30
0.0
 11
-33.49999999999635
 21
-1.231481568402008E-15
 31
0.0
210
0.0
220
0.0
230
1.0
 40
0.707107
 41
3.141592514218372
 42
4.666703018003526
  0
LWPOLYLINE
  5
F7
330
D5
100
AcDbEntity
  8
0
  6
Continuous
 62
     0
370
    30
100
AcDbPolyline
 90
       23
 70
     0
 43
0.0
 10
494.338837
 20
227.270294
 10
492.003143
 20
227.402817
 10
489.686188
 20
227.64856
 10
487.400146
 20
228.006119
 10
485.156067
 20
228.473434
 10
482.964966
 20
229.048294
 10
480.837799
 20
229.727631
 10
478.785065
 20
230.507645
 10
476.817017
 20
231.384064
 10
474.943451
 20
232.352219
 10
473.173615
 20
233.406601
 10
471.516327
 20
234.541382
 10
469.979492
 20
235.750046
 10
468.570587
 20
237.025757
 10
467.296021
 20
238.361343
 10
466.16098
 20
239.749222
 10
465.170502
 20
241.181839
 10
464.327942
 20
242.651672
 10
463.635773
 20
244.15123
 10
463.095825
 20
245.673615
 10
462.708801
 20
247.212799
 10
462.475311
 20
248.762802
 10
462.395508
 20
250.347412
  0
LWPOLYLINE
  5
F8
330
D5
100
AcDbEntity
  8
0
  6
Continuous
 62
     0
370
    30
100
AcDbPolyline
 90
       24
 70
     0
 43
0.0
 10
529.395508
 20
250.347443
 10
529.316345
 20
248.76947
 10
529.078857
 20
247.196304
 10
528.683167
 20
245.634308
 10
528.130066
 20
244.089859
 10
527.420288
 20
242.569305
 10
526.555603
 20
241.079697
 10
525.538696
 20
239.628937
 10
524.373413
 20
238.22493
 10
523.06488
 20
236.87561
 10
521.618652
 20
235.588837
 10
520.041565
 20
234.372055
 10
518.341614
 20
233.232361
 10
516.527039
 20
232.176529
 10
514.607361
 20
231.21048
 10
512.592163
 20
230.339905
 10
510.491913
 20
229.569611
 10
508.317291
 20
228.9039
 10
506.079407
 20
228.346649
 10
503.789673
 20
227.900909
 10
501.45993
 20
227.568741
 10
499.101959
 20
227.35202
 10
496.727631
 20
227.252335
 10
494.338837
 20
227.270294
  0
LWPOLYLINE
  5
F9
330
D5
100
AcDbEntity
  8
0
  6
Continuous
 62
     0
370
    30
100
AcDbPolyline
 90
       50
 70
     0
 43
0.0
 10
533.395508
 20
250.347443
 10
533.315918
 20
252.119049
 10
533.077759
 20
253.882156
 10
532.682495
 20
255.627563
 10
532.132874
 20
257.34726
 10
531.431946
 20
259.033356
 10
530.58374
 20
260.678619
 10
529.592896
 20
262.276123
 10
528.464417
 20
263.819855
 10
527.203674
 20
265.303772
 10
525.816345
 20
266.722443
 10
524.308777
 20
268.070953
 10
522.687256
 20
269.344574
 10
520.958313
 20
270.538574
 10
519.129089
 20
271.648865
 10
517.20697
 20
272.67157
 10
515.199707
 20
273.602966
 10
513.115173
 20
274.439606
 10
510.961761
 20
275.17868
 10
508.748199
 20
275.817505
 10
506.483093
 20
276.353516
 10
504.175507
 20
276.784698
 10
501.834778
 20
277.10968
 10
499.470184
 20
277.327026
 10
497.091248
 20
277.435944
 10
494.70752
 20
277.436157
 10
492.328613
 20
277.327576
 10
489.963989
 20
277.110443
 10
487.623138
 20
276.785889
 10
485.315399
 20
276.355103
 10
483.05011
 20
275.819489
 10
480.836273
 20
275.181061
 10
478.682678
 20
274.442291
 10
476.597992
 20
273.605835
 10
474.590576
 20
272.674622
 10
472.668274
 20
271.652191
 10
470.838623
 20
270.542297
 10
469.109222
 20
269.348633
 10
467.487213
 20
268.075348
 10
465.979218
 20
266.727081
 10
464.591614
 20
265.308533
 10
463.330475
 20
263.824799
 10
462.201569
 20
262.281311
 10
461.210236
 20
260.683929
 10
460.361633
 20
259.038757
 10
459.660187
 20
257.352753
 10
459.109955
 20
255.63324
 10
458.714294
 20
253.887878
 10
458.475586
 20
252.124893
 10
458.395508
 20
250.347443
  0
LINE
  5
FA
330
D5
100
AcDbEntity
  8
0
  6
Continuous
 62
     0
370
    30
100
AcDbLine
 10
533.3955
 20
183.172297
 30
0.0
 11
533.3955
 21
250.347439
 31
0.0
  0
LINE
  5
FB
330
D5
100
AcDbEntity
  8
0
  6
Continuous
 62
     0
370
    30
100
AcDbLine
 10
458.3955
 20
183.172298
 30
0.0
 11
458.3955
 21
250.34744
 31
0.0
  0
LWPOLYLINE
  5
FC
330
D5
100
AcDbEntity
  8
0
  6
Continuous
 62
     0
370
    30
100
AcDbPolyline
 90
       25
 70
     0
 43
0.0
 10
494.222961
 20
155.804138
 10
491.875916
 20
155.933563
 10
489.543793
 20
156.16951
 10
487.236755
 20
156.511124
 10
484.963593
 20
156.957016
 10
482.732941
 20
157.505707
 10
480.553406
 20
158.155441
 10
478.433502
 20
158.903961
 10
476.381317
 20
159.748611
 10
474.404785
 20
160.6866
 10
472.511658
 20
161.714935
 10
470.709167
 20
162.830154
 10
469.004517
 20
164.028717
 10
467.404449
 20
165.306808
 10
465.91571
 20
166.660492
 10
464.544495
 20
168.085281
 10
463.296753
 20
169.576141
 10
462.178375
 20
171.127991
 10
461.19519
 20
172.735672
 10
460.35257
 20
174.393051
 10
459.655487
 20
176.093338
 10
459.107941
 20
177.828842
 10
458.713562
 20
179.5914
 10
458.475555
 20
181.372696
 10
458.395508
 20
183.172287
  0
LWPOLYLINE
  5
FD
330
D5
100
AcDbEntity
  8
0
  6
Continuous
 62
     0
370
    30
100
AcDbPolyline
 90
       27
 70
     0
 43
0.0
 10
533.395508
 20
183.172302
 10
533.319824
 20
181.423187
 10
533.093445
 20
179.682327
 10
532.717773
 20
177.959061
 10
532.19574
 20
176.261185
 10
531.530457
 20
174.596268
 10
530.72583
 20
172.971405
 10
529.786377
 20
171.393066
 10
528.717285
 20
169.86676
 10
527.523621
 20
168.397766
 10
526.210632
 20
166.991272
 10
524.784119
 20
165.651611
 10
523.25
 20
164.382675
 10
521.61438
 20
163.188431
 10
519.883301
 20
162.072739
 10
518.063416
 20
161.038925
 10
516.161438
 20
160.090149
 10
514.18457
 20
159.229401
 10
512.139893
 20
158.459412
 10
510.035095
 20
157.782639
 10
507.877869
 20
157.201233
 10
505.676147
 20
156.717209
 10
503.438202
 20
156.33223
 10
501.17218
 20
156.047394
 10
498.886353
 20
155.863617
 10
496.589111
 20
155.781769
 10
494.222961
 20
155.804138
  0
ENDBLK
  5
FF
330
D5
100
AcDbEntity
  8
0
100
AcDbBlockEnd
  0
BLOCK
  5
13E
330
101
100
AcDbEntity
  8
0
100
AcDbBlockBegin
  2
e
 70
     0
 10
213.383087
 20
0.0
 30
0.0
  3
e
  1

  0
LINE
  5
102
330
101
100
AcDbEntity
  8
0
  6
Continuous
 62
     0
370
     0
100
AcDbLine
 10
108.017383
 20
384.980911
 30
0.0
 11
117.017383
 21
401.980911
 31
0.0
  0
LINE
  5
103
330
101
100
AcDbEntity
  8
0
  6
Continuous
 62
     0
370
     0
100
AcDbLine
 10
108.017383
 20
384.980911
 30
0.0
 11
125.017383
 21
393.980911
 31
0.0
  0
LINE
  5
104
330
101
100
AcDbEntity
  8
0
  6
Continuous
 62
     0
370
     0
100
AcDbLine
 10
125.017383
 20
375.980911
 30
0.0
 11
108.017383
 21
384.980911
 31
0.0
  0
LINE
  5
105
330
101
100
AcDbEntity
  8
0
  6
Continuous
 62
     0
370
     0
100
AcDbLine
 10
117.017383
 20
367.980912
 30
0.0
 11
108.017383
 21
384.980911
 31
0.0
  0
ARC
  5
106
330
101
100
AcDbEntity
  8
0
  6
Continuous
 62
     0
370
    30
100
AcDbCircle
 10
99.517384
 20
408.480911
 30
0.0
 40
0.5
100
AcDbArc
 50
90.0
 51
180.0
  0
LINE
  5
107
330
101
100
AcDbEntity
  8
0
  6
Continuous
 62
     0
370
     0
100
AcDbLine
 10
117.017384
 20
408.480911
 30
0.0
 11
99.017384
 21
408.480911
 31
0.0
  0
LINE
  5
108
330
101
100
AcDbEntity
  8
0
  6
Continuous
 62
     0
370
    30
100
AcDbLine
 10
99.017384
 20
408.480911
 30
0.0
 11
99.017384
 21
361.480911
 31
0.0
  0
LINE
  5
109
330
101
100
AcDbEntity
  8
0
  6
Continuous
 62
     0
370
     0
100
AcDbLine
 10
117.017384
 20
361.480911
 30
0.0
 11
99.017384
 21
361.480911
 31
0.0
  0
LINE
  5
10A
330
101
100
AcDbEntity
  8
0
  6
Continuous
 62
     0
370
    30
100
AcDbLine
 10
116.517384
 20
360.980911
 30
0.0
 11
99.517384
 21
360.980911
 31
0.0
  0
ARC
  5
10B
330
101
100
AcDbEntity
  8
0
  6
Continuous
 62
     0
370
    30
100
AcDbCircle
 10
99.517384
 20
361.480911
 30
0.0
 40
0.5
100
AcDbArc
 50
180.0
 51
270.0
  0
LINE
  5
10C
330
101
100
AcDbEntity
  8
0
  6
Continuous
 62
     0
370
     0
100
AcDbLine
 10
174.517384
 20
384.980911
 30
0.0
 11
174.517384
 21
393.980911
 31
0.0
  0
LINE
  5
10D
330
101
100
AcDbEntity
  8
0
  6
Continuous
 62
     0
370
     0
100
AcDbLine
 10
174.517384
 20
375.980911
 30
0.0
 11
174.517384
 21
384.980911
 31
0.0
  0
LINE
  5
10E
330
101
100
AcDbEntity
  8
0
  6
Continuous
 62
     0
370
    30
100
AcDbLine
 10
89.517384
 20
408.980911
 30
0.0
 11
89.620245
 21
408.980911
 31
0.0
  0
LINE
  5
10F
330
101
100
AcDbEntity
  8
0
  6
Continuous
 62
     0
370
    30
100
AcDbLine
 10
89.620245
 20
408.980911
 30
0.0
 11
126.517384
 21
408.980911
 31
0.0
  0
LINE
  5
110
330
101
100
AcDbEntity
  8
0
  6
Continuous
 62
     0
370
     0
100
AcDbLine
 10
88.128585
 20
410.480911
 30
0.0
 11
128.017384
 21
410.480911
 31
0.0
  0
LINE
  5
111
330
101
100
AcDbEntity
  8
0
  6
Continuous
 62
     0
370
     0
100
AcDbLine
 10
88.017384
 20
410.480911
 30
0.0
 11
88.128585
 21
410.480911
 31
0.0
  0
LINE
  5
112
330
101
100
AcDbEntity
  8
0
  6
Continuous
 62
     0
370
     0
100
AcDbLine
 10
88.128585
 20
412.280911
 30
0.0
 11
128.017384
 21
412.280911
 31
0.0
  0
LINE
  5
113
330
101
100
AcDbEntity
  8
0
  6
Continuous
 62
     0
370
     0
100
AcDbLine
 10
88.017384
 20
412.280911
 30
0.0
 11
88.128585
 21
412.280911
 31
0.0
  0
LWPOLYLINE
  5
114
330
101
100
AcDbEntity
  8
0
  6
Continuous
 62
     0
370
     0
100
AcDbPolyline
 90
       45
 70
     0
 43
0.0
 10
179.51738
 20
354.980927
 10
179.51738
 20
355.044617
 10
179.51738
 20
355.241455
 10
179.51738
 20
355.578918
 10
179.51738
 20
356.063049
 10
179.51738
 20
356.698059
 10
179.51738
 20
357.485992
 10
179.51738
 20
358.426544
 10
179.51738
 20
359.516937
 10
179.51738
 20
360.751831
 10
179.51738
 20
362.123352
 10
179.51738
 20
363.621277
 10
179.51738
 20
365.233307
 10
179.51738
 20
366.945282
 10
179.51738
 20
368.74176
 10
179.51738
 20
370.606323
 10
179.51738
 20
372.522095
 10
179.51738
 20
374.47226
 10
179.51738
 20
376.440338
 10
179.51738
 20
378.410767
 10
179.51738
 20
380.369049
 10
179.51738
 20
382.302002
 10
179.51738
 20
384.205231
 10
179.51738
 20
386.141388
 10
179.51738
 20
388.118927
 10
179.51738
 20
390.125793
 10
179.51738
 20
392.148376
 10
179.51738
 20
394.171753
 10
179.51738
 20
396.17984
 10
179.51738
 20
398.155853
 10
179.51738
 20
400.082642
 10
179.51738
 20
401.943085
 10
179.51738
 20
403.720703
 10
179.51738
 20
405.400024
 10
179.51738
 20
406.967041
 10
179.51738
 20
408.409576
 10
179.51738
 20
409.717682
 10
179.51738
 20
410.883728
 10
179.51738
 20
411.902649
 10
179.51738
 20
412.771881
 10
179.51738
 20
413.491241
 10
179.51738
 20
414.062897
 10
179.51738
 20
414.490936
 10
179.51738
 20
414.781281
 10
179.51738
 20
414.943298
  0
LINE
  5
115
330
101
100
AcDbEntity
  8
0
  6
Continuous
 62
     0
370
    30
100
AcDbLine
 10
180.017384
 20
355.517905
 30
0.0
 11
180.017384
 21
355.793712
 31
0.0
  0
LINE
  5
116
330
101
100
AcDbEntity
  8
0
  6
Continuous
 62
     0
370
    30
100
AcDbLine
 10
180.017384
 20
414.443917
 30
0.0
 11
180.017384
 21
355.517905
 31
0.0
  0
LINE
  5
117
330
101
100
AcDbEntity
  8
0
  6
Continuous
 62
     0
370
     0
100
AcDbLine
 10
175.517384
 20
414.94329
 30
0.0
 11
175.517384
 21
354.980911
 31
0.0
  0
LINE
  5
118
330
101
100
AcDbEntity
  8
0
  6
Continuous
 62
     0
370
     0
100
AcDbLine
 10
175.517384
 20
414.980911
 30
0.0
 11
175.517384
 21
414.94329
 31
0.0
  0
LWPOLYLINE
  5
119
330
101
100
AcDbEntity
  8
0
  6
Continuous
 62
     0
370
    30
100
AcDbPolyline
 90
       45
 70
     0
 43
0.0
 10
175.01738
 20
355.517914
 10
175.01738
 20
355.484253
 10
175.01738
 20
355.579468
 10
175.01738
 20
355.812378
 10
175.01738
 20
356.19046
 10
175.01738
 20
356.719452
 10
175.01738
 20
357.403046
 10
175.01738
 20
358.242645
 10
175.01738
 20
359.237122
 10
175.01738
 20
360.38266
 10
175.01738
 20
361.672699
 10
175.01738
 20
363.098145
 10
175.01738
 20
364.647461
 10
175.01738
 20
366.307037
 10
175.01738
 20
368.061554
 10
175.01738
 20
369.89447
 10
175.01738
 20
371.788452
 10
175.01738
 20
373.725952
 10
175.01738
 20
375.689697
 10
175.01738
 20
377.663025
 10
175.01738
 20
379.630371
 10
175.01738
 20
381.577393
 10
175.01738
 20
383.491425
 10
175.01738
 20
385.411072
 10
175.01738
 20
387.377045
 10
175.01738
 20
389.377411
 10
175.01738
 20
391.398621
 10
175.01738
 20
393.425568
 10
175.01738
 20
395.441895
 10
175.01738
 20
397.430389
 10
175.01738
 20
399.373322
 10
175.01738
 20
401.252869
 10
175.01738
 20
403.051758
 10
175.01738
 20
404.753632
 10
175.01738
 20
406.343628
 10
175.01738
 20
407.808777
 10
175.01738
 20
409.138336
 10
175.01738
 20
410.324036
 10
175.01738
 20
411.360291
 10
175.01738
 20
412.244141
 10
175.01738
 20
412.975189
 10
175.01738
 20
413.555481
 10
175.01738
 20
413.989227
 10
175.01738
 20
414.28241
 10
175.01738
 20
414.443909
  0
ARC
  5
11A
330
101
100
AcDbEntity
  8
0
  6
Continuous
 62
     0
370
    30
100
AcDbCircle
 10
175.517399
 20
355.480926
 30
0.0
 40
0.5000150271644253
100
AcDbArc
 50
180.001722
 51
269.998278
  0
ARC
  5
11B
330
101
100
AcDbEntity
  8
0
  6
Continuous
 62
     0
370
    30
100
AcDbCircle
 10
175.517399
 20
414.480896
 30
0.0
 40
0.5000150271653845
100
AcDbArc
 50
90.001722
 51
179.998278
  0
LINE
  5
11C
330
101
100
AcDbEntity
  8
0
  6
Continuous
 62
     0
370
    30
100
AcDbLine
 10
175.517384
 20
354.980911
 30
0.0
 11
179.517384
 21
354.980911
 31
0.0
  0
LINE
  5
11D
330
101
100
AcDbEntity
  8
0
  6
Continuous
 62
     0
370
    30
100
AcDbLine
 10
175.517384
 20
414.980911
 30
0.0
 11
179.517384
 21
414.980911
 31
0.0
  0
ARC
  5
11E
330
101
100
AcDbEntity
  8
0
  6
Continuous
 62
     0
370
    30
100
AcDbCircle
 10
179.517369
 20
355.480926
 30
0.0
 40
0.500014969164136
100
AcDbArc
 50
270.001715
 51
359.990182
  0
ARC
  5
11F
330
101
100
AcDbEntity
  8
0
  6
Continuous
 62
     0
370
    30
100
AcDbCircle
 10
179.517369
 20
414.480896
 30
0.0
 40
0.5000149691654561
100
AcDbArc
 50
0.009818
 51
89.998285
  0
ARC
  5
120
330
101
100
AcDbEntity
  8
0
  6
Continuous
 62
     0
370
    30
100
AcDbCircle
 10
88.517399
 20
412.280896
 30
0.0
 40
0.5000150271645869
100
AcDbArc
 50
90.001722
 51
179.998278
  0
ARC
  5
121
330
101
100
AcDbEntity
  8
0
  6
Continuous
 62
     0
370
    30
100
AcDbCircle
 10
127.517369
 20
412.280896
 30
0.0
 40
0.5000150271645869
100
AcDbArc
 50
0.001722
 51
89.998278
  0
LINE
  5
122
330
101
100
AcDbEntity
  8
0
  6
Continuous
 62
     0
370
    30
100
AcDbLine
 10
88.017384
 20
410.480911
 30
0.0
 11
88.017384
 21
412.280911
 31
0.0
  0
LINE
  5
123
330
101
100
AcDbEntity
  8
0
  6
Continuous
 62
     0
370
    30
100
AcDbLine
 10
128.017384
 20
410.480911
 30
0.0
 11
128.017384
 21
412.280911
 31
0.0
  0
ARC
  5
124
330
101
100
AcDbEntity
  8
0
  6
Continuous
 62
     0
370
    30
100
AcDbCircle
 10
89.517451
 20
410.480979
 30
0.0
 40
1.500067841418646
100
AcDbArc
 50
180.002591
 51
269.989306
  0
ARC
  5
125
330
101
100
AcDbEntity
  8
0
  6
Continuous
 62
     0
370
    30
100
AcDbCircle
 10
126.517316
 20
410.480979
 30
0.0
 40
1.500067841418609
100
AcDbArc
 50
270.010694
 51
359.997409
  0
ARC
  5
126
330
101
100
AcDbEntity
  8
0
  6
Continuous
 62
     0
370
    30
100
AcDbCircle
 10
174.51738
 20
376.480915
 30
0.0
 40
0.5000034422816766
100
AcDbArc
 50
270.000394
 51
359.999606
  0
ARC
  5
127
330
101
100
AcDbEntity
  8
0
  6
Continuous
 62
     0
370
    30
100
AcDbCircle
 10
174.517381
 20
393.480908
 30
0.0
 40
0.5000027706875024
100
AcDbArc
 50
0.011777
 51
89.999683
  0
LINE
  5
128
330
101
100
AcDbEntity
  8
0
  6
Continuous
 62
     0
370
    30
100
AcDbLine
 10
174.517384
 20
393.980911
 30
0.0
 11
125.01646
 21
393.980911
 31
0.0
  0
LINE
  5
129
330
101
100
AcDbEntity
  8
0
  6
Continuous
 62
     0
370
    30
100
AcDbLine
 10
174.517384
 20
375.980911
 30
0.0
 11
125.01646
 21
375.980911
 31
0.0
  0
ARC
  5
12A
330
101
100
AcDbEntity
  8
0
  6
Continuous
 62
     0
370
    30
100
AcDbCircle
 10
116.517381
 20
361.480914
 30
0.0
 40
0.5000027706879613
100
AcDbArc
 50
270.011777
 51
359.999683
  0
LINE
  5
12B
330
101
100
AcDbEntity
  8
0
  6
Continuous
 62
     0
370
    30
100
AcDbLine
 10
117.017384
 20
408.480911
 30
0.0
 11
117.017384
 21
401.979988
 31
0.0
  0
LINE
  5
12C
330
101
100
AcDbEntity
  8
0
  6
Continuous
 62
     0
370
    30
100
AcDbLine
 10
117.017384
 20
367.981835
 30
0.0
 11
117.017384
 21
361.480911
 31
0.0
  0
ARC
  5
12D
330
101
100
AcDbEntity
  8
0
  6
Continuous
 62
     0
370
    30
100
AcDbCircle
 10
116.517381
 20
408.480908
 30
0.0
 40
0.5000027706880235
100
AcDbArc
 50
0.000317
 51
89.988223
  0
ARC
  5
12E
330
101
100
AcDbEntity
  8
0
  6
Continuous
 62
     0
370
    30
100
AcDbCircle
 10
125.017434
 20
367.980861
 30
0.0
 40
8.000050784295045
100
AcDbArc
 50
90.000365
 51
179.999635
  0
ARC
  5
12F
330
101
100
AcDbEntity
  8
0
  6
Continuous
 62
     0
370
    30
100
AcDbCircle
 10
125.017385
 20
401.980913
 30
0.0
 40
8.000001558682694
100
AcDbArc
 50
180.000013
 51
269.999987
  0
LINE
  5
130
330
101
100
AcDbEntity
  8
0
  6
Continuous
 62
     0
370
    30
100
AcDbLine
 10
73.517384
 20
412.780911
 30
0.0
 11
82.533523
 21
412.780911
 31
0.0
  0
LINE
  5
131
330
101
100
AcDbEntity
  8
0
  6
Continuous
 62
     0
370
    30
100
AcDbLine
 10
82.533523
 20
412.780911
 30
0.0
 11
142.517384
 21
412.780911
 31
0.0
  0
LINE
  5
132
330
101
100
AcDbEntity
  8
0
  6
Continuous
 62
     0
370
     0
100
AcDbLine
 10
70.517384
 20
415.780911
 30
0.0
 11
80.317535
 21
415.780911
 31
0.0
  0
LINE
  5
133
330
101
100
AcDbEntity
  8
0
  6
Continuous
 62
     0
370
     0
100
AcDbLine
 10
80.317535
 20
415.780911
 30
0.0
 11
145.517384
 21
415.780911
 31
0.0
  0
LINE
  5
134
330
101
100
AcDbEntity
  8
0
  6
Continuous
 62
     0
370
     0
100
AcDbLine
 10
70.517384
 20
510.780911
 30
0.0
 11
80.317535
 21
510.780911
 31
0.0
  0
LINE
  5
135
330
101
100
AcDbEntity
  8
0
  6
Continuous
 62
     0
370
     0
100
AcDbLine
 10
80.317535
 20
510.780911
 30
0.0
 11
145.517384
 21
510.780911
 31
0.0
  0
LINE
  5
136
330
101
100
AcDbEntity
  8
0
  6
Continuous
 62
     0
370
    30
100
AcDbLine
 10
72.517384
 20
512.780911
 30
0.0
 11
81.794861
 21
512.780911
 31
0.0
  0
LINE
  5
137
330
101
100
AcDbEntity
  8
0
  6
Continuous
 62
     0
370
    30
100
AcDbLine
 10
81.794861
 20
512.780911
 30
0.0
 11
143.517384
 21
512.780911
 31
0.0
  0
LWPOLYLINE
  5
138
330
101
100
AcDbEntity
  8
0
  6
Continuous
 62
     0
370
    30
100
AcDbPolyline
 90
        8
 70
     0
 43
0.0
 10
145.51738
 20
510.780914
 10
145.468658
 20
511.219208
 10
145.325012
 20
511.63678
 10
145.093353
 20
512.012268
 10
144.784943
 20
512.327942
 10
144.414841
 20
512.568237
 10
144.001038
 20
512.721558
 10
143.51738
 20
512.780884
  0
ARC
  5
139
330
101
100
AcDbEntity
  8
0
  6
Continuous
 62
     0
370
    30
100
AcDbCircle
 10
72.517364
 20
510.780931
 30
0.0
 40
1.999980862110315
100
AcDbArc
 50
89.999452
 51
180.000548
  0
LINE
  5
13A
330
101
100
AcDbEntity
  8
0
  6
Continuous
 62
     0
370
    30
100
AcDbLine
 10
145.517384
 20
415.780911
 30
0.0
 11
145.517384
 21
510.780911
 31
0.0
  0
LINE
  5
13B
330
101
100
AcDbEntity
  8
0
  6
Continuous
 62
     0
370
    30
100
AcDbLine
 10
70.517384
 20
415.780911
 30
0.0
 11
70.517384
 21
510.780911
 31
0.0
  0
ARC
  5
13C
330
101
100
AcDbEntity
  8
0
  6
Continuous
 62
     0
370
    30
100
AcDbCircle
 10
142.517352
 20
415.780943
 30
0.0
 40
3.000031826149656
100
AcDbArc
 50
270.008711
 51
359.999392
  0
ARC
  5
13D
330
101
100
AcDbEntity
  8
0
  6
Continuous
 62
     0
370
    30
100
AcDbCircle
 10
73.517415
 20
415.780943
 30
0.0
 40
3.000031826149656
100
AcDbArc
 50
180.000608
 51
269.991289
  0
ENDBLK
  5
13F
330
101
100
AcDbEntity
  8
0
100
AcDbBlockEnd
  0
ENDSEC
  0
SECTION
  2
ENTITIES
  0
INSERT
  5
75
330
1F
100
AcDbEntity
  8
0
  6
Continuous
 62
   250
370
     0
100
AcDbBlockReference
  2
a
 10
228.616226
 20
117.384766
 30
0.0
  0
INSERT
  5
95
330
1F
100
AcDbEntity
  8
0
  6
Continuous
 62
   250
370
     0
100
AcDbBlockReference
  2
b
 10
218.724102
 20
117.384766
 30
0.0
  0
INSERT
  5
D4
330
1F
100
AcDbEntity
  8
0
  6
Continuous
 62
   250
370
     0
100
AcDbBlockReference
  2
c
 10
228.616226
 20
105.937607
 30
0.0
  0
INSERT
  5
100
330
1F
100
AcDbEntity
  8
0
  6
Continuous
 62
   250
370
     0
100
AcDbBlockReference
  2
d
 10
228.616226
 20
117.384766
 30
0.0
  0
INSERT
  5
140
330
1F
100
AcDbEntity
  8
0
  6
Continuous
 62
   250
370
     0
100
AcDbBlockReference
  2
e
 10
213.383087
 20
0.0
 30
0.0
  0
ENDSEC
  0
SECTION
  2
OBJECTS
  0
DICTIONARY
  5
C
330
0
100
AcDbDictionary
281
     1
  3
ACAD_GROUP
350
D
  3
ACAD_LAYOUT
350
1A
  3
ACAD_MLEADERSTYLE
350
143
  3
ACAD_MLINESTYLE
350
17
  3
ACAD_PLOTSETTINGS
350
19
  3
ACAD_PLOTSTYLENAME
350
E
  3
ACAD_VISUALSTYLE
350
2A
  3
AcDbVariableDictionary
350
141
  0
DICTIONARY
  5
D
102
{ACAD_REACTORS
330
C
102
}
330
C
100
AcDbDictionary
281
     1
  0
DICTIONARY
  5
1A
102
{ACAD_REACTORS
330
C
102
}
330
C
100
AcDbDictionary
281
     1
  3
Layout1
350
1E
  3
Layout2
350
26
  3
Model
350
22
  0
DICTIONARY
  5
143
102
{ACAD_REACTORS
330
C
102
}
330
C
100
AcDbDictionary
281
     1
  0
DICTIONARY
  5
17
102
{ACAD_REACTORS
330
C
102
}
330
C
100
AcDbDictionary
281
     1
  3
Standard
350
18
  0
DICTIONARY
  5
19
102
{ACAD_REACTORS
330
C
102
}
330
C
100
AcDbDictionary
281
     1
  0
ACDBDICTIONARYWDFLT
  5
E
102
{ACAD_REACTORS
330
C
102
}
330
C
100
AcDbDictionary
281
     1
  3
Normal
350
F
100
AcDbDictionaryWithDefault
340
F
  0
DICTIONARY
  5
2A
102
{ACAD_REACTORS
330
C
102
}
330
C
100
AcDbDictionary
281
     1
  3
2dWireframe
350
2F
  3
3D Hidden
350
31
  3
3dWireframe
350
30
  3
Basic
350
32
  3
Brighten
350
36
  3
ColorChange
350
3A
  3
Conceptual
350
34
  3
Dim
350
35
  3
Facepattern
350
39
  3
Flat
350
2B
  3
FlatWithEdges
350
2C
  3
Gouraud
350
2D
  3
GouraudWithEdges
350
2E
  3
Linepattern
350
38
  3
Realistic
350
33
  3
Thicken
350
37
  0
DICTIONARY
  5
141
102
{ACAD_REACTORS
330
C
102
}
330
C
100
AcDbDictionary
281
     1
  3
PSOLHEIGHT
350
145
  3
PSOLWIDTH
350
144
  0
LAYOUT
  5
1E
102
{ACAD_REACTORS
330
1A
102
}
330
1A
100
AcDbPlotSettings
  1

  2
none_device
  4

  6

 40
0.0
 41
0.0
 42
0.0
 43
0.0
 44
0.0
 45
0.0
 46
0.0
 47
0.0
 48
0.0
 49
0.0
140
0.0
141
0.0
142
1.0
143
1.0
 70
   688
 72
     0
 73
     0
 74
     5
  7

 75
    16
147
1.0
148
0.0
149
0.0
100
AcDbLayout
  1
Layout1
 70
     1
 71
     1
 10
0.0
 20
0.0
 11
420.0
 21
297.0
 12
0.0
 22
0.0
 32
0.0
 14
1.000000E+20
 24
1.000000E+20
 34
1.000000E+20
 15
-1.000000E+20
 25
-1.000000E+20
 35
-1.000000E+20
146
0.0
 13
0.0
 23
0.0
 33
0.0
 16
1.0
 26
0.0
 36
0.0
 17
0.0
 27
1.0
 37
0.0
 76
     0
330
1B
  0
LAYOUT
  5
26
102
{ACAD_REACTORS
330
1A
102
}
330
1A
100
AcDbPlotSettings
  1

  2
none_device
  4

  6

 40
0.0
 41
0.0
 42
0.0
 43
0.0
 44
0.0
 45
0.0
 46
0.0
 47
0.0
 48
0.0
 49
0.0
140
0.0
141
0.0
142
1.0
143
1.0
 70
   688
 72
     0
 73
     0
 74
     5
  7

 75
    16
147
1.0
148
0.0
149
0.0
100
AcDbLayout
  1
Layout2
 70
     1
 71
     2
 10
0.0
 20
0.0
 11
0.0
 21
0.0
 12
0.0
 22
0.0
 32
0.0
 14
0.0
 24
0.0
 34
0.0
 15
0.0
 25
0.0
 35
0.0
146
0.0
 13
0.0
 23
0.0
 33
0.0
 16
1.0
 26
0.0
 36
0.0
 17
0.0
 27
1.0
 37
0.0
 76
     0
330
23
  0
LAYOUT
  5
22
102
{ACAD_REACTORS
330
1A
102
}
330
1A
100
AcDbPlotSettings
  1

  2
none_device
  4

  6

 40
0.0
 41
0.0
 42
0.0
 43
0.0
 44
0.0
 45
0.0
 46
0.0
 47
0.0
 48
0.0
 49
0.0
140
0.0
141
0.0
142
1.0
143
1.0
 70
  1712
 72
     0
 73
     0
 74
     0
  7

 75
     0
147
1.0
148
0.0
149
0.0
100
AcDbLayout
  1
Model
 70
     1
 71
     0
 10
70.517387
 20
109.294342
 11
567.8078
 21
512.780945
 12
0.0
 22
0.0
 32
0.0
 14
70.517387
 24
109.294342
 34
0.0
 15
567.8078
 25
512.780945
 35
0.0
146
0.0
 13
0.0
 23
0.0
 33
0.0
 16
1.0
 26
0.0
 36
0.0
 17
0.0
 27
1.0
 37
0.0
 76
     0
330
1F
331
29
  0
MLINESTYLE
  5
18
102
{ACAD_REACTORS
330
17
102
}
330
17
100
AcDbMlineStyle
  2
Standard
 70
     0
  3

 62
   256
 51
90.0
 52
90.0
 71
     2
 49
0.5
 62
   256
  6
BYLAYER
 49
-0.5
 62
   256
  6
BYLAYER
  0
ACDBPLACEHOLDER
  5
F
102
{ACAD_REACTORS
330
E
102
}
330
E
  0
VISUALSTYLE
  5
2F
102
{ACAD_REACTORS
330
2A
102
}
330
2A
100
AcDbVisualStyle
  2
2dWireframe
 70
     4
 71
     0
 72
     2
 73
     0
 90
        0
 40
-0.6
 41
-30.0
 62
     5
 63
     7
 74
     1
 91
        4
 64
     7
 65
   257
 75
     1
175
     1
 42
1.0
 92
        0
 66
   257
 43
1.0
 76
     1
 77
     6
 78
     2
 67
     7
 79
     5
170
     0
171
     0
290
     0
174
     0
 93
        1
 44
0.0
173
     0
291
     0
 45
0.0
1001
ACAD
1000
AcDbSavedByObjectVersion
1070
     0
  0
VISUALSTYLE
  5
31
102
{ACAD_REACTORS
330
2A
102
}
330
2A
100
AcDbVisualStyle
  2
3D Hidden
 70
     6
 71
     1
 72
     2
 73
     2
 90
        0
 40
-0.6
 41
-30.0
 62
     5
 63
     7
 74
     2
 91
        2
 64
     7
 65
   257
 75
     2
175
     1
 42
40.0
 92
        0
 66
   257
 43
1.0
 76
     1
 77
     6
 78
     2
 67
     7
 79
     3
170
     0
171
     0
290
     0
174
     0
 93
        1
 44
0.0
173
     0
291
     0
 45
0.0
1001
ACAD
1000
AcDbSavedByObjectVersion
1070
     0
  0
VISUALSTYLE
  5
30
102
{ACAD_REACTORS
330
2A
102
}
330
2A
100
AcDbVisualStyle
  2
3dWireframe
 70
     5
 71
     0
 72
     2
 73
     0
 90
        0
 40
-0.6
 41
-30.0
 62
     5
 63
     7
 74
     1
 91
        4
 64
     7
 65
   257
 75
     1
175
     1
 42
1.0
 92
        0
 66
   257
 43
1.0
 76
     1
 77
     6
 78
     2
 67
     7
 79
     5
170
     0
171
     0
290
     0
174
     0
 93
        1
 44
0.0
173
     0
291
     0
 45
0.0
1001
ACAD
1000
AcDbSavedByObjectVersion
1070
     0
  0
VISUALSTYLE
  5
32
102
{ACAD_REACTORS
330
2A
102
}
330
2A
100
AcDbVisualStyle
  2
Basic
 70
     7
 71
     1
 72
     0
 73
     1
 90
        0
 40
-0.6
 41
-30.0
 62
     5
 63
     7
 74
     0
 91
        4
 64
     7
 65
   257
 75
     1
175
     1
 42
1.0
 92
        8
 66
     7
 43
1.0
 76
     1
 77
     6
 78
     2
 67
     7
 79
     5
170
     0
171
     0
290
     0
174
     0
 93
        1
 44
0.0
173
     0
291
     1
 45
0.0
1001
ACAD
1000
AcDbSavedByObjectVersion
1070
     0
  0
VISUALSTYLE
  5
36
102
{ACAD_REACTORS
330
2A
102
}
330
2A
100
AcDbVisualStyle
  2
Brighten
 70
    12
 71
     2
 72
     2
 73
     0
 90
        0
 40
-0.6
 41
-30.0
 62
     5
 63
     7
 74
     1
 91
        4
 64
     7
 65
   257
 75
     1
175
     1
 42
1.0
 92
        8
 66
     7
 43
1.0
 76
     1
 77
     6
 78
     2
 67
     7
 79
     5
170
     0
171
     0
290
     0
174
     0
 93
        1
 44
50.0
173
     0
291
     1
 45
0.0
1001
ACAD
1000
AcDbSavedByObjectVersion
1070
     0
  0
VISUALSTYLE
  5
3A
102
{ACAD_REACTORS
330
2A
102
}
330
2A
100
AcDbVisualStyle
  2
ColorChange
 70
    16
 71
     2
 72
     2
 73
     3
 90
        0
 40
-0.6
 41
-30.0
 62
     5
 63
     8
 74
     1
 91
        4
 64
     7
 65
   257
 75
     1
175
     1
 42
1.0
 92
        8
 66
     8
 43
1.0
 76
     1
 77
     6
 78
     2
 67
     7
 79
     5
170
     0
171
     0
290
     0
174
     0
 93
        1
 44
0.0
173
     0
291
     1
 45
0.0
1001
ACAD
1000
AcDbSavedByObjectVersion
1070
     0
  0
VISUALSTYLE
  5
34
102
{ACAD_REACTORS
330
2A
102
}
330
2A
100
AcDbVisualStyle
  2
Conceptual
 70
     9
 71
     3
 72
     2
 73
     0
 90
        0
 40
-0.6
 41
-30.0
 62
     5
 63
     7
 74
     2
 91
        2
 64
     7
 65
   257
 75
     1
175
     1
 42
40.0
 92
        8
 66
     7
 43
1.0
 76
     1
 77
     6
 78
     2
 67
     7
 79
     3
170
     0
171
     0
290
     0
174
     0
 93
        1
 44
0.0
173
     0
291
     0
 45
0.0
1001
ACAD
1000
AcDbSavedByObjectVersion
1070
     0
  0
VISUALSTYLE
  5
35
102
{ACAD_REACTORS
330
2A
102
}
330
2A
100
AcDbVisualStyle
  2
Dim
 70
    11
 71
     2
 72
     2
 73
     0
 90
        0
 40
-0.6
 41
-30.0
 62
     5
 63
     7
 74
     1
 91
        4
 64
     7
 65
   257
 75
     1
175
     1
 42
1.0
 92
        8
 66
     7
 43
1.0
 76
     1
 77
     6
 78
     2
 67
     7
 79
     5
170
     0
171
     0
290
     0
174
     0
 93
        1
 44
-50.0
173
     0
291
     1
 45
0.0
1001
ACAD
1000
AcDbSavedByObjectVersion
1070
     0
  0
VISUALSTYLE
  5
39
102
{ACAD_REACTORS
330
2A
102
}
330
2A
100
AcDbVisualStyle
  2
Facepattern
 70
    15
 71
     2
 72
     2
 73
     0
 90
        0
 40
-0.6
 41
-30.0
 62
     5
 63
     7
 74
     1
 91
        4
 64
     7
 65
   257
 75
     1
175
     1
 42
1.0
 92
        8
 66
     7
 43
1.0
 76
     1
 77
     6
 78
     2
 67
     7
 79
     5
170
     0
171
     0
290
     0
174
     0
 93
        1
 44
0.0
173
     0
291
     1
 45
0.0
1001
ACAD
1000
AcDbSavedByObjectVersion
1070
     0
  0
VISUALSTYLE
  5
2B
102
{ACAD_REACTORS
330
2A
102
}
330
2A
100
AcDbVisualStyle
  2
Flat
 70
     0
 71
     2
 72
     1
 73
     1
 90
        2
 40
-0.6
 41
30.0
 62
     5
 63
     7
 74
     0
 91
        4
 64
     7
 65
   257
 75
     1
175
     1
 42
1.0
 92
        8
 66
     7
 43
1.0
 76
     1
 77
     6
 78
     2
 67
     7
 79
     5
170
     0
171
     0
290
     0
174
     0
 93
       13
 44
0.0
173
     0
291
     1
 45
0.0
1001
ACAD
1000
AcDbSavedByObjectVersion
1070
     0
  0
VISUALSTYLE
  5
2C
102
{ACAD_REACTORS
330
2A
102
}
330
2A
100
AcDbVisualStyle
  2
FlatWithEdges
 70
     1
 71
     2
 72
     1
 73
     1
 90
        2
 40
-0.6
 41
30.0
 62
     5
 63
     7
 74
     1
 91
        4
 64
     7
 65
   257
 75
     1
175
     1
 42
1.0
 92
        0
 66
   257
 43
1.0
 76
     1
 77
     6
 78
     2
 67
     7
 79
     5
170
     0
171
     0
290
     0
174
     0
 93
       13
 44
0.0
173
     0
291
     1
 45
0.0
1001
ACAD
1000
AcDbSavedByObjectVersion
1070
     0
  0
VISUALSTYLE
  5
2D
102
{ACAD_REACTORS
330
2A
102
}
330
2A
100
AcDbVisualStyle
  2
Gouraud
 70
     2
 71
     2
 72
     2
 73
     1
 90
        2
 40
-0.6
 41
30.0
 62
     5
 63
     7
 74
     0
 91
        4
 64
     7
 65
   257
 75
     1
175
     1
 42
1.0
 92
        0
 66
     7
 43
1.0
 76
     1
 77
     6
 78
     2
 67
     7
 79
     5
170
     0
171
     0
290
     0
174
     0
 93
       13
 44
0.0
173
     0
291
     1
 45
0.0
1001
ACAD
1000
AcDbSavedByObjectVersion
1070
     0
  0
VISUALSTYLE
  5
2E
102
{ACAD_REACTORS
330
2A
102
}
330
2A
100
AcDbVisualStyle
  2
GouraudWithEdges
 70
     3
 71
     2
 72
     2
 73
     1
 90
        2
 40
-0.6
 41
30.0
 62
     5
 63
     7
 74
     1
 91
        4
 64
     7
 65
   257
 75
     1
175
     1
 42
1.0
 92
        0
 66
   257
 43
1.0
 76
     1
 77
     6
 78
     2
 67
     7
 79
     5
170
     0
171
     0
290
     0
174
     0
 93
       13
 44
0.0
173
     0
291
     1
 45
0.0
1001
ACAD
1000
AcDbSavedByObjectVersion
1070
     0
  0
VISUALSTYLE
  5
38
102
{ACAD_REACTORS
330
2A
102
}
330
2A
100
AcDbVisualStyle
  2
Linepattern
 70
    14
 71
     2
 72
     2
 73
     0
 90
        0
 40
-0.6
 41
-30.0
 62
     5
 63
     7
 74
     1
 91
        4
 64
     7
 65
   257
 75
     7
175
     7
 42
1.0
 92
        8
 66
     7
 43
1.0
 76
     1
 77
     6
 78
     2
 67
     7
 79
     5
170
     0
171
     0
290
     0
174
     0
 93
        1
 44
0.0
173
     0
291
     1
 45
0.0
1001
ACAD
1000
AcDbSavedByObjectVersion
1070
     0
  0
VISUALSTYLE
  5
33
102
{ACAD_REACTORS
330
2A
102
}
330
2A
100
AcDbVisualStyle
  2
Realistic
 70
     8
 71
     2
 72
     2
 73
     0
 90
        0
 40
-0.6
 41
-30.0
 62
     5
 63
     7
 74
     1
 91
        0
 64
     7
 65
   257
 75
     1
175
     1
 42
1.0
 92
        8
 66
     8
 43
1.0
 76
     1
 77
     6
 78
     2
 67
     7
 79
     5
170
     0
171
     0
290
     0
174
     0
 93
       13
 44
0.0
173
     0
291
     0
 45
0.0
1001
ACAD
1000
AcDbSavedByObjectVersion
1070
     0
  0
VISUALSTYLE
  5
37
102
{ACAD_REACTORS
330
2A
102
}
330
2A
100
AcDbVisualStyle
  2
Thicken
 70
    13
 71
     2
 72
     2
 73
     0
 90
        0
 40
-0.6
 41
-30.0
 62
     5
 63
     7
 74
     1
 91
        4
 64
     7
 65
   257
 75
     1
175
     1
 42
1.0
 92
       12
 66
     7
 43
1.0
 76
     1
 77
     6
 78
     2
 67
     7
 79
     5
170
     0
171
     0
290
     0
174
     0
 93
        1
 44
0.0
173
     0
291
     1
 45
0.0
1001
ACAD
1000
AcDbSavedByObjectVersion
1070
     0
  0
DICTIONARYVAR
  5
145
102
{ACAD_REACTORS
330
141
102
}
330
141
100
DictionaryVariables
280
     0
  1
80.000000
  0
DICTIONARYVAR
  5
144
102
{ACAD_REACTORS
330
141
102
}
330
141
100
DictionaryVariables
280
     0
  1
5.000000
  0
ENDSEC
  0
EOF
