  0
SECTION
  2
HEADER
  9
$ACADVER
  1
AC1015
  9
$ACADMAINTVER
 70
     6
  9
$DWGCODEPAGE
  3
ANSI_1252
  9
$INSBASE
 10
0.0
 20
0.0
 30
0.0
  9
$EXTMIN
 10
-50.652836
 20
92.624046
 30
0.0
  9
$EXTMAX
 10
458.965179
 20
370.804901
 30
0.0
  9
$LIMMIN
 10
-50.652836
 20
92.624046
  9
$LIMMAX
 10
458.965179
 20
370.804901
  9
$ORTHOMODE
 70
     0
  9
$REGENMODE
 70
     1
  9
$FILLMODE
 70
     1
  9
$QTEXTMODE
 70
     0
  9
$MIRRTEXT
 70
     1
  9
$LTSCALE
 40
1.0
  9
$ATTMODE
 70
     1
  9
$TEXTSIZE
 40
2.5
  9
$TRACEWID
 40
1.0
  9
$TEXTSTYLE
  7
Standard
  9
$CLAYER
  8
0
  9
$CELTYPE
  6
ByLayer
  9
$CECOLOR
 62
   256
  9
$CELTSCALE
 40
1.0
  9
$DISPSILH
 70
     0
  9
$DIMSCALE
 40
1.0
  9
$DIMASZ
 40
2.5
  9
$DIMEXO
 40
0.625
  9
$DIMDLI
 40
3.75
  9
$DIMRND
 40
0.0
  9
$DIMDLE
 40
0.0
  9
$DIMEXE
 40
1.25
  9
$DIMTP
 40
0.0
  9
$DIMTM
 40
0.0
  9
$DIMTXT
 40
2.5
  9
$DIMCEN
 40
2.5
  9
$DIMTSZ
 40
0.0
  9
$DIMTOL
 70
     0
  9
$DIMLIM
 70
     0
  9
$DIMTIH
 70
     0
  9
$DIMTOH
 70
     0
  9
$DIMSE1
 70
     0
  9
$DIMSE2
 70
     0
  9
$DIMTAD
 70
     1
  9
$DIMZIN
 70
     8
  9
$DIMBLK
  1

  9
$DIMASO
 70
     1
  9
$DIMSHO
 70
     1
  9
$DIMPOST
  1

  9
$DIMAPOST
  1

  9
$DIMALT
 70
     0
  9
$DIMALTD
 70
     3
  9
$DIMALTF
 40
0.03937
  9
$DIMLFAC
 40
1.0
  9
$DIMTOFL
 70
     1
  9
$DIMTVP
 40
0.0
  9
$DIMTIX
 70
     0
  9
$DIMSOXD
 70
     0
  9
$DIMSAH
 70
     0
  9
$DIMBLK1
  1

  9
$DIMBLK2
  1

  9
$DIMSTYLE
  2
ISO-25
  9
$DIMCLRD
 70
     0
  9
$DIMCLRE
 70
     0
  9
$DIMCLRT
 70
     0
  9
$DIMTFAC
 40
1.0
  9
$DIMGAP
 40
0.625
  9
$DIMJUST
 70
     0
  9
$DIMSD1
 70
     0
  9
$DIMSD2
 70
     0
  9
$DIMTOLJ
 70
     0
  9
$DIMTZIN
 70
     8
  9
$DIMALTZ
 70
     0
  9
$DIMALTTZ
 70
     0
  9
$DIMUPT
 70
     0
  9
$DIMDEC
 70
     2
  9
$DIMTDEC
 70
     2
  9
$DIMALTU
 70
     2
  9
$DIMALTTD
 70
     3
  9
$DIMTXSTY
  7
Standard
  9
$DIMAUNIT
 70
     0
  9
$DIMADEC
 70
     0
  9
$DIMALTRND
 40
0.0
  9
$DIMAZIN
 70
     0
  9
$DIMDSEP
 70
    44
  9
$DIMATFIT
 70
     3
  9
$DIMFRAC
 70
     0
  9
$DIMLDRBLK
  1

  9
$DIMLUNIT
 70
     2
  9
$DIMLWD
 70
    -2
  9
$DIMLWE
 70
    -2
  9
$DIMTMOVE
 70
     0
  9
$LUNITS
 70
     2
  9
$LUPREC
 70
     4
  9
$SKETCHINC
 40
1.0
  9
$FILLETRAD
 40
10.0
  9
$AUNITS
 70
     0
  9
$AUPREC
 70
     0
  9
$MENU
  1
.
  9
$ELEVATION
 40
0.0
  9
$PELEVATION
 40
0.0
  9
$THICKNESS
 40
0.0
  9
$LIMCHECK
 70
     0
  9
$CHAMFERA
 40
10.0
  9
$CHAMFERB
 40
10.0
  9
$CHAMFERC
 40
20.0
  9
$CHAMFERD
 40
0.0
  9
$SKPOLY
 70
     0
  9
$TDCREATE
 40
2455554.628645521
  9
$TDUCREATE
 40
2455554.586978854
  9
$TDUPDATE
 40
2455554.628645532
  9
$TDUUPDATE
 40
2455554.586978866
  9
$TDINDWG
 40
0.0000000116
  9
$TDUSRTIMER
 40
0.0000000116
  9
$USRTIMER
 70
     1
  9
$ANGBASE
 50
0.0
  9
$ANGDIR
 70
     0
  9
$PDMODE
 70
     0
  9
$PDSIZE
 40
0.0
  9
$PLINEWID
 40
0.0
  9
$SPLFRAME
 70
     0
  9
$SPLINETYPE
 70
     6
  9
$SPLINESEGS
 70
     8
  9
$HANDSEED
  5
128
  9
$SURFTAB1
 70
     6
  9
$SURFTAB2
 70
     6
  9
$SURFTYPE
 70
     6
  9
$SURFU
 70
     6
  9
$SURFV
 70
     6
  9
$UCSBASE
  2

  9
$UCSNAME
  2

  9
$UCSORG
 10
0.0
 20
0.0
 30
0.0
  9
$UCSXDIR
 10
1.0
 20
0.0
 30
0.0
  9
$UCSYDIR
 10
0.0
 20
1.0
 30
0.0
  9
$UCSORTHOREF
  2

  9
$UCSORTHOVIEW
 70
     0
  9
$UCSORGTOP
 10
0.0
 20
0.0
 30
0.0
  9
$UCSORGBOTTOM
 10
0.0
 20
0.0
 30
0.0
  9
$UCSORGLEFT
 10
0.0
 20
0.0
 30
0.0
  9
$UCSORGRIGHT
 10
0.0
 20
0.0
 30
0.0
  9
$UCSORGFRONT
 10
0.0
 20
0.0
 30
0.0
  9
$UCSORGBACK
 10
0.0
 20
0.0
 30
0.0
  9
$PUCSBASE
  2

  9
$PUCSNAME
  2

  9
$PUCSORG
 10
0.0
 20
0.0
 30
0.0
  9
$PUCSXDIR
 10
1.0
 20
0.0
 30
0.0
  9
$PUCSYDIR
 10
0.0
 20
1.0
 30
0.0
  9
$PUCSORTHOREF
  2

  9
$PUCSORTHOVIEW
 70
     0
  9
$PUCSORGTOP
 10
0.0
 20
0.0
 30
0.0
  9
$PUCSORGBOTTOM
 10
0.0
 20
0.0
 30
0.0
  9
$PUCSORGLEFT
 10
0.0
 20
0.0
 30
0.0
  9
$PUCSORGRIGHT
 10
0.0
 20
0.0
 30
0.0
  9
$PUCSORGFRONT
 10
0.0
 20
0.0
 30
0.0
  9
$PUCSORGBACK
 10
0.0
 20
0.0
 30
0.0
  9
$USERI1
 70
     0
  9
$USERI2
 70
     0
  9
$USERI3
 70
     0
  9
$USERI4
 70
     0
  9
$USERI5
 70
     0
  9
$USERR1
 40
0.0
  9
$USERR2
 40
0.0
  9
$USERR3
 40
0.0
  9
$USERR4
 40
0.0
  9
$USERR5
 40
0.0
  9
$WORLDVIEW
 70
     1
  9
$SHADEDGE
 70
     3
  9
$SHADEDIF
 70
    70
  9
$TILEMODE
 70
     1
  9
$MAXACTVP
 70
    64
  9
$PINSBASE
 10
0.0
 20
0.0
 30
0.0
  9
$PLIMCHECK
 70
     0
  9
$PEXTMIN
 10
1.000000E+20
 20
1.000000E+20
 30
1.000000E+20
  9
$PEXTMAX
 10
-1.000000E+20
 20
-1.000000E+20
 30
-1.000000E+20
  9
$PLIMMIN
 10
0.0
 20
0.0
  9
$PLIMMAX
 10
420.0
 20
297.0
  9
$UNITMODE
 70
     0
  9
$VISRETAIN
 70
     1
  9
$PLINEGEN
 70
     0
  9
$PSLTSCALE
 70
     1
  9
$TREEDEPTH
 70
  3020
  9
$CMLSTYLE
  2
Standard
  9
$CMLJUST
 70
     0
  9
$CMLSCALE
 40
20.0
  9
$PROXYGRAPHICS
 70
     1
  9
$MEASUREMENT
 70
     1
  9
$CELWEIGHT
370
    -1
  9
$ENDCAPS
280
     0
  9
$JOINSTYLE
280
     0
  9
$LWDISPLAY
290
     0
  9
$INSUNITS
 70
     4
  9
$HYPERLINKBASE
  1

  9
$STYLESHEET
  1

  9
$XEDIT
290
     1
  9
$CEPSNTYPE
380
     0
  9
$PSTYLEMODE
290
     1
  9
$FINGERPRINTGUID
  2
{A0521DBD-A8B2-43C6-A83F-09B3D5765C1D}
  9
$VERSIONGUID
  2
{FAEB1C32-E019-11D5-929B-00C0DF256EC4}
  9
$EXTNAMES
290
     1
  9
$PSVPSCALE
 40
0.0
  9
$OLESTARTUP
290
     0
  0
ENDSEC
  0
SECTION
  2
CLASSES
  0
CLASS
  1
ACDBDICTIONARYWDFLT
  2
AcDbDictionaryWithDefault
  3
ObjectDBX Classes
 90
        0
280
     0
281
     0
  0
CLASS
  1
VISUALSTYLE
  2
AcDbVisualStyle
  3
ObjectDBX Classes
 90
     4095
280
     0
281
     0
  0
CLASS
  1
DICTIONARYVAR
  2
AcDbDictionaryVar
  3
ObjectDBX Classes
 90
        0
280
     0
281
     0
  0
CLASS
  1
ACDBPLACEHOLDER
  2
AcDbPlaceHolder
  3
ObjectDBX Classes
 90
        0
280
     0
281
     0
  0
CLASS
  1
LAYOUT
  2
AcDbLayout
  3
ObjectDBX Classes
 90
        0
280
     0
281
     0
  0
ENDSEC
  0
SECTION
  2
TABLES
  0
TABLE
  2
VPORT
  5
8
330
0
100
AcDbSymbolTable
 70
     1
  0
VPORT
  5
29
330
8
100
AcDbSymbolTableRecord
100
AcDbViewportTableRecord
  2
*Active
 70
     0
 10
0.0
 20
0.0
 11
1.0
 21
1.0
 12
344.186916
 22
148.5
 13
0.0
 23
0.0
 14
10.0
 24
10.0
 15
10.0
 25
10.0
 16
0.0
 26
0.0
 36
1.0
 17
0.0
 27
0.0
 37
0.0
 40
297.0
 41
1.972973
 42
50.0
 43
0.0
 44
0.0
 50
0.0
 51
0.0
 71
     0
 72
   100
 73
     1
 74
     3
 75
     0
 76
     0
 77
     0
 78
     0
281
     0
 65
     1
110
0.0
120
0.0
130
0.0
111
1.0
121
0.0
131
0.0
112
0.0
122
1.0
132
0.0
 79
     0
146
0.0
  0
ENDTAB
  0
TABLE
  2
LTYPE
  5
5
330
0
100
AcDbSymbolTable
 70
     1
  0
LTYPE
  5
14
330
5
100
AcDbSymbolTableRecord
100
AcDbLinetypeTableRecord
  2
ByBlock
 70
     0
  3

 72
    65
 73
     0
 40
0.0
  0
LTYPE
  5
15
330
5
100
AcDbSymbolTableRecord
100
AcDbLinetypeTableRecord
  2
ByLayer
 70
     0
  3

 72
    65
 73
     0
 40
0.0
  0
LTYPE
  5
16
330
5
100
AcDbSymbolTableRecord
100
AcDbLinetypeTableRecord
  2
Continuous
 70
     0
  3
Solid line
 72
    65
 73
     0
 40
0.0
  0
ENDTAB
  0
TABLE
  2
LAYER
  5
2
330
0
100
AcDbSymbolTable
 70
     1
  0
LAYER
  5
10
330
2
100
AcDbSymbolTableRecord
100
AcDbLayerTableRecord
  2
0
 70
     0
 62
   106
  6
Continuous
370
     0
390
F
  0
ENDTAB
  0
TABLE
  2
STYLE
  5
3
330
0
100
AcDbSymbolTable
 70
     4
  0
STYLE
  5
11
330
3
100
AcDbSymbolTableRecord
100
AcDbTextStyleTableRecord
  2
Standard
 70
     0
 40
0.0
 41
1.0
 50
0.0
 71
     0
 42
2.5
  3
txt
  4

  0
STYLE
  5
3B
330
3
100
AcDbSymbolTableRecord
100
AcDbTextStyleTableRecord
  2
Default
 70
     0
 40
0.0
 41
1.0
 50
0.0
 71
     0
 42
0.2
  3

  4

1001
ACAD
1000
txt
1071
        0
  0
STYLE
  5
3C
330
3
100
AcDbSymbolTableRecord
100
AcDbTextStyleTableRecord
  2
ISO
 70
     0
 40
0.0
 41
1.0
 50
0.0
 71
     0
 42
0.2
  3

  4

1001
ACAD
1000
txt
1071
        0
  0
STYLE
  5
3D
330
3
100
AcDbSymbolTableRecord
100
AcDbTextStyleTableRecord
  2
GIANLU
 70
     0
 40
0.0
 41
1.0
 50
0.0
 71
     0
 42
0.2
  3

  4

1001
ACAD
1000
Arial
1071
        0
  0
ENDTAB
  0
TABLE
  2
VIEW
  5
6
330
0
100
AcDbSymbolTable
 70
     0
  0
ENDTAB
  0
TABLE
  2
UCS
  5
7
330
0
100
AcDbSymbolTable
 70
     0
  0
ENDTAB
  0
TABLE
  2
APPID
  5
9
330
0
100
AcDbSymbolTable
 70
     1
  0
APPID
  5
12
330
9
100
AcDbSymbolTableRecord
100
AcDbRegAppTableRecord
  2
ACAD
 70
     0
  0
ENDTAB
  0
TABLE
  2
DIMSTYLE
  5
A
330
0
100
AcDbSymbolTable
 70
     4
100
AcDbDimStyleTable
  0
DIMSTYLE
105
27
330
A
100
AcDbSymbolTableRecord
100
AcDbDimStyleTableRecord
  2
ISO-25
 70
     0
 41
2.5
 42
0.625
 43
3.75
 44
1.25
 73
     0
 74
     0
 77
     1
 78
     8
140
2.5
141
2.5
143
0.03937
147
0.625
171
     3
172
     1
271
     2
272
     2
274
     3
278
    44
283
     0
284
     8
340
11
  0
DIMSTYLE
105
3E
330
A
100
AcDbSymbolTableRecord
100
AcDbDimStyleTableRecord
  2
Default
 70
     0
  3
<>
 41
4.375
 42
1.05
 44
2.1
 73
     0
 74
     0
 77
     1
 78
     8
140
3.5
146
0.4
147
1.75
178
     3
271
     2
272
     3
284
     8
340
3B
341
3F
342
3F
  0
DIMSTYLE
105
46
330
A
100
AcDbSymbolTableRecord
100
AcDbDimStyleTableRecord
  2
ISO
 70
     0
  3
<>
 41
4.375
 42
1.05
 44
2.1
 73
     0
 74
     0
 77
     1
 78
     8
140
3.5
146
0.4
147
1.75
178
     3
271
     2
272
     3
284
     8
340
3C
341
3F
342
3F
  0
DIMSTYLE
105
47
330
A
100
AcDbSymbolTableRecord
100
AcDbDimStyleTableRecord
  2
zucchetti_unico
 70
     0
  3
<>
 41
3.0
 42
0.9
 44
1.8
 73
     0
 74
     0
 77
     1
 78
     8
140
3.0
146
0.6
147
1.5
176
   104
177
     3
178
     3
271
     2
272
     2
284
     8
340
3D
  0
ENDTAB
  0
TABLE
  2
BLOCK_RECORD
  5
1
330
0
100
AcDbSymbolTable
 70
     7
  0
BLOCK_RECORD
  5
1F
330
1
100
AcDbSymbolTableRecord
100
AcDbBlockTableRecord
  2
*Model_Space
340
22
  0
BLOCK_RECORD
  5
1B
330
1
100
AcDbSymbolTableRecord
100
AcDbBlockTableRecord
  2
*Paper_Space
340
1E
  0
BLOCK_RECORD
  5
23
330
1
100
AcDbSymbolTableRecord
100
AcDbBlockTableRecord
  2
*Paper_Space0
340
26
  0
BLOCK_RECORD
  5
3F
330
1
100
AcDbSymbolTableRecord
100
AcDbBlockTableRecord
  2
_CLOSED
340
0
  0
BLOCK_RECORD
  5
48
330
1
100
AcDbSymbolTableRecord
100
AcDbBlockTableRecord
  2
a
340
0
102
{BLKREFS
331
75
102
}
  0
BLOCK_RECORD
  5
76
330
1
100
AcDbSymbolTableRecord
100
AcDbBlockTableRecord
  2
b
340
0
102
{BLKREFS
331
90
102
}
  0
BLOCK_RECORD
  5
91
330
1
100
AcDbSymbolTableRecord
100
AcDbBlockTableRecord
  2
c
340
0
102
{BLKREFS
331
CB
102
}
  0
BLOCK_RECORD
  5
CC
330
1
100
AcDbSymbolTableRecord
100
AcDbBlockTableRecord
  2
d
340
0
102
{BLKREFS
331
E6
102
}
  0
BLOCK_RECORD
  5
E7
330
1
100
AcDbSymbolTableRecord
100
AcDbBlockTableRecord
  2
e
340
0
102
{BLKREFS
331
122
102
}
  0
ENDTAB
  0
ENDSEC
  0
SECTION
  2
BLOCKS
  0
BLOCK
  5
20
330
1F
100
AcDbEntity
  8
0
100
AcDbBlockBegin
  2
*Model_Space
 70
     0
 10
0.0
 20
0.0
 30
0.0
  3
*Model_Space
  1

  0
ENDBLK
  5
21
330
1F
100
AcDbEntity
  8
0
100
AcDbBlockEnd
  0
BLOCK
  5
1C
330
1B
100
AcDbEntity
 67
     1
  8
0
100
AcDbBlockBegin
  2
*Paper_Space
 70
     0
 10
0.0
 20
0.0
 30
0.0
  3
*Paper_Space
  1

  0
ENDBLK
  5
1D
330
1B
100
AcDbEntity
 67
     1
  8
0
100
AcDbBlockEnd
  0
BLOCK
  5
24
330
23
100
AcDbEntity
  8
0
100
AcDbBlockBegin
  2
*Paper_Space0
 70
     0
 10
0.0
 20
0.0
 30
0.0
  3
*Paper_Space0
  1

  0
ENDBLK
  5
25
330
23
100
AcDbEntity
  8
0
100
AcDbBlockEnd
  0
BLOCK
  5
40
330
3F
100
AcDbEntity
  8
0
100
AcDbBlockBegin
  2
_CLOSED
 70
     0
 10
0.0
 20
0.0
 30
0.0
  3
_CLOSED
  1

  0
LINE
  5
42
330
3F
100
AcDbEntity
  8
0
  6
ByBlock
 62
     0
370
    -2
100
AcDbLine
 10
-1.0
 20
0.166667
 30
0.0
 11
0.0
 21
0.0
 31
0.0
  0
LINE
  5
43
330
3F
100
AcDbEntity
  8
0
  6
ByBlock
 62
     0
370
    -2
100
AcDbLine
 10
0.0
 20
0.0
 30
0.0
 11
-1.0
 21
-0.166667
 31
0.0
  0
LINE
  5
44
330
3F
100
AcDbEntity
  8
0
  6
ByBlock
 62
     0
370
    -2
100
AcDbLine
 10
-1.0
 20
0.166667
 30
0.0
 11
-1.0
 21
-0.166667
 31
0.0
  0
LINE
  5
45
330
3F
100
AcDbEntity
  8
0
  6
ByBlock
 62
     0
370
    -2
100
AcDbLine
 10
0.0
 20
0.0
 30
0.0
 11
-1.0
 21
0.0
 31
0.0
  0
ENDBLK
  5
41
330
3F
100
AcDbEntity
  8
0
100
AcDbBlockEnd
  0
BLOCK
  5
73
330
48
100
AcDbEntity
  8
0
100
AcDbBlockBegin
  2
a
 70
     0
 10
106.655655
 20
98.457657
 30
0.0
  3
a
  1

  0
LINE
  5
49
330
48
100
AcDbEntity
  8
0
  6
Continuous
 62
     0
370
    30
100
AcDbLine
 10
195.034824
 20
358.804914
 30
0.0
 11
137.034821
 21
358.804914
 31
0.0
  0
LINE
  5
4A
330
48
100
AcDbEntity
  8
0
  6
Continuous
 62
     0
370
    30
100
AcDbLine
 10
253.034827
 20
358.804914
 30
0.0
 11
195.034824
 21
358.804914
 31
0.0
  0
LINE
  5
4B
330
48
100
AcDbEntity
  8
0
  6
Continuous
 62
     0
370
     0
100
AcDbLine
 10
195.034824
 20
360.804914
 30
0.0
 11
135.034821
 21
360.804914
 31
0.0
  0
LINE
  5
4C
330
48
100
AcDbEntity
  8
0
  6
Continuous
 62
     0
370
     0
100
AcDbLine
 10
255.034827
 20
360.804914
 30
0.0
 11
195.034824
 21
360.804914
 31
0.0
  0
LINE
  5
4D
330
48
100
AcDbEntity
  8
0
  6
Continuous
 62
     0
370
     0
100
AcDbLine
 10
195.034824
 20
368.804891
 30
0.0
 11
135.034821
 21
368.804891
 31
0.0
  0
LINE
  5
4E
330
48
100
AcDbEntity
  8
0
  6
Continuous
 62
     0
370
     0
100
AcDbLine
 10
255.034827
 20
368.804891
 30
0.0
 11
195.034824
 21
368.804891
 31
0.0
  0
ARC
  5
4F
330
48
100
AcDbEntity
  8
0
  6
Continuous
 62
     0
370
    30
100
AcDbCircle
 10
137.034824
 20
368.804888
 30
0.0
 40
2.000002395437773
100
AcDbArc
 50
76.424641
 51
179.999913
  0
ARC
  5
50
330
48
100
AcDbEntity
  8
0
  6
Continuous
 62
     0
370
    30
100
AcDbCircle
 10
253.034825
 20
368.804888
 30
0.0
 40
2.000002395437702
100
AcDbArc
 50
0.000087
 51
103.575359
  0
LWPOLYLINE
  5
51
330
48
100
AcDbEntity
  8
0
  6
Continuous
 62
     0
370
    30
100
AcDbPolyline
 90
       31
 70
     0
 43
0.0
 10
137.034821
 20
370.804901
 10
137.114456
 20
370.804901
 10
137.352798
 20
370.804901
 10
137.748962
 20
370.804901
 10
138.302048
 20
370.804901
 10
139.01088
 20
370.804901
 10
139.873199
 20
370.804901
 10
140.886459
 20
370.804901
 10
142.048096
 20
370.804901
 10
143.355209
 20
370.804901
 10
144.803848
 20
370.804901
 10
146.389908
 20
370.804901
 10
148.109299
 20
370.804901
 10
149.957504
 20
370.804901
 10
151.929138
 20
370.804901
 10
154.018753
 20
370.804901
 10
156.220856
 20
370.804901
 10
158.529449
 20
370.804901
 10
160.937973
 20
370.804901
 10
163.439789
 20
370.804901
 10
166.028259
 20
370.804901
 10
168.69632
 20
370.804901
 10
171.436493
 20
370.804901
 10
174.241257
 20
370.804901
 10
177.103043
 20
370.804901
 10
180.013992
 20
370.804901
 10
182.96611
 20
370.804901
 10
185.951279
 20
370.804901
 10
188.961304
 20
370.804901
 10
191.988083
 20
370.804901
 10
195.034821
 20
370.804901
  0
LINE
  5
52
330
48
100
AcDbEntity
  8
0
  6
Continuous
 62
     0
370
    30
100
AcDbLine
 10
195.034824
 20
370.804891
 30
0.0
 11
253.034778
 21
370.804891
 31
0.0
  0
LINE
  5
53
330
48
100
AcDbEntity
  8
0
  6
Continuous
 62
     0
370
    30
100
AcDbLine
 10
135.034821
 20
368.804891
 30
0.0
 11
135.034821
 21
360.804914
 31
0.0
  0
LINE
  5
54
330
48
100
AcDbEntity
  8
0
  6
Continuous
 62
     0
370
    30
100
AcDbLine
 10
255.034827
 20
368.804891
 30
0.0
 11
255.034827
 21
360.804914
 31
0.0
  0
ARC
  5
55
330
48
100
AcDbEntity
  8
0
  6
Continuous
 62
     0
370
    30
100
AcDbCircle
 10
137.034912
 20
360.805005
 30
0.0
 40
2.000090455225048
100
AcDbArc
 50
180.002591
 51
269.989306
  0
ARC
  5
56
330
48
100
AcDbEntity
  8
0
  6
Continuous
 62
     0
370
    30
100
AcDbCircle
 10
253.034737
 20
360.805005
 30
0.0
 40
2.000090455224917
100
AcDbArc
 50
270.010694
 51
359.997409
  0
LINE
  5
57
330
48
100
AcDbEntity
  8
0
  6
Continuous
 62
     0
370
     0
100
AcDbLine
 10
195.034824
 20
354.804916
 30
0.0
 11
186.034824
 21
354.804916
 31
0.0
  0
LINE
  5
58
330
48
100
AcDbEntity
  8
0
  6
Continuous
 62
     0
370
     0
100
AcDbLine
 10
204.034824
 20
354.804916
 30
0.0
 11
195.034824
 21
354.804916
 31
0.0
  0
LINE
  5
59
330
48
100
AcDbEntity
  8
0
  6
Continuous
 62
     0
370
     0
100
AcDbLine
 10
204.034824
 20
307.804916
 30
0.0
 11
195.034824
 21
307.804916
 31
0.0
  0
LINE
  5
5A
330
48
100
AcDbEntity
  8
0
  6
Continuous
 62
     0
370
     0
100
AcDbLine
 10
195.034824
 20
307.804916
 30
0.0
 11
186.034824
 21
307.804916
 31
0.0
  0
LINE
  5
5B
330
48
100
AcDbEntity
  8
0
  6
Continuous
 62
     0
370
    30
100
AcDbLine
 10
195.034824
 20
307.304916
 30
0.0
 11
186.534824
 21
307.304916
 31
0.0
  0
LINE
  5
5C
330
48
100
AcDbEntity
  8
0
  6
Continuous
 62
     0
370
    30
100
AcDbLine
 10
203.534824
 20
307.304916
 30
0.0
 11
195.034824
 21
307.304916
 31
0.0
  0
LINE
  5
5D
330
48
100
AcDbEntity
  8
0
  6
Continuous
 62
     0
370
    30
100
AcDbLine
 10
176.534824
 20
355.304916
 30
0.0
 11
196.982972
 21
355.304916
 31
0.0
  0
LINE
  5
5E
330
48
100
AcDbEntity
  8
0
  6
Continuous
 62
     0
370
    30
100
AcDbLine
 10
196.982972
 20
355.304916
 30
0.0
 11
213.534824
 21
355.304916
 31
0.0
  0
LINE
  5
5F
330
48
100
AcDbEntity
  8
0
  6
Continuous
 62
     0
370
     0
100
AcDbLine
 10
197.14093
 20
356.804916
 30
0.0
 11
215.034824
 21
356.804916
 31
0.0
  0
LINE
  5
60
330
48
100
AcDbEntity
  8
0
  6
Continuous
 62
     0
370
     0
100
AcDbLine
 10
175.034824
 20
356.804916
 30
0.0
 11
197.14093
 21
356.804916
 31
0.0
  0
LINE
  5
61
330
48
100
AcDbEntity
  8
0
  6
Continuous
 62
     0
370
     0
100
AcDbLine
 10
197.14093
 20
358.604916
 30
0.0
 11
215.034824
 21
358.604916
 31
0.0
  0
LINE
  5
62
330
48
100
AcDbEntity
  8
0
  6
Continuous
 62
     0
370
     0
100
AcDbLine
 10
175.034824
 20
358.604916
 30
0.0
 11
197.14093
 21
358.604916
 31
0.0
  0
ARC
  5
63
330
48
100
AcDbEntity
  8
0
  6
Continuous
 62
     0
370
    30
100
AcDbCircle
 10
195.034824
 20
331.304916
 30
0.0
 40
30.0
100
AcDbArc
 50
267.130294
 51
53.130102
  0
ARC
  5
64
330
48
100
AcDbEntity
  8
0
  6
Continuous
 62
     0
370
    30
100
AcDbCircle
 10
195.034824
 20
331.304916
 30
0.0
 40
30.0
100
AcDbArc
 50
126.869898
 51
267.130294
  0
ARC
  5
65
330
48
100
AcDbEntity
  8
0
  6
Continuous
 62
     0
370
     0
100
AcDbCircle
 10
195.034824
 20
331.304916
 30
0.0
 40
29.50000000000001
100
AcDbArc
 50
267.130294
 51
54.445159
  0
ARC
  5
66
330
48
100
AcDbEntity
  8
0
  6
Continuous
 62
     0
370
     0
100
AcDbCircle
 10
195.034824
 20
331.304916
 30
0.0
 40
29.5
100
AcDbArc
 50
125.554841
 51
267.130294
  0
LWPOLYLINE
  5
67
330
48
100
AcDbEntity
  8
0
  6
Continuous
 62
     0
370
    30
100
AcDbPolyline
 90
        2
 70
     0
 43
0.0
 10
175.034821
 20
358.604919
 10
175.076553
 20
358.804901
  0
ARC
  5
68
330
48
100
AcDbEntity
  8
0
  6
Continuous
 62
     0
370
    30
100
AcDbCircle
 10
214.536952
 20
358.605158
 30
0.0
 40
0.4978719538992022
100
AcDbArc
 50
359.972131
 51
23.654425
  0
LINE
  5
69
330
48
100
AcDbEntity
  8
0
  6
Continuous
 62
     0
370
    30
100
AcDbLine
 10
175.034824
 20
356.804916
 30
0.0
 11
175.034824
 21
358.604916
 31
0.0
  0
LINE
  5
6A
330
48
100
AcDbEntity
  8
0
  6
Continuous
 62
     0
370
    30
100
AcDbLine
 10
215.034824
 20
356.804916
 30
0.0
 11
215.034824
 21
358.604916
 31
0.0
  0
ARC
  5
6B
330
48
100
AcDbEntity
  8
0
  6
Continuous
 62
     0
370
    30
100
AcDbCircle
 10
176.534892
 20
356.804984
 30
0.0
 40
1.500067841418631
100
AcDbArc
 50
180.002591
 51
269.989306
  0
ARC
  5
6C
330
48
100
AcDbEntity
  8
0
  6
Continuous
 62
     0
370
    30
100
AcDbCircle
 10
213.534757
 20
356.804984
 30
0.0
 40
1.500067841418641
100
AcDbArc
 50
270.010694
 51
359.997409
  0
ARC
  5
6D
330
48
100
AcDbEntity
  8
0
  6
Continuous
 62
     0
370
    30
100
AcDbCircle
 10
203.534822
 20
307.804919
 30
0.0
 40
0.5000027706882109
100
AcDbArc
 50
270.011777
 51
359.999683
  0
ARC
  5
6E
330
48
100
AcDbEntity
  8
0
  6
Continuous
 62
     0
370
    30
100
AcDbCircle
 10
186.534827
 20
307.804919
 30
0.0
 40
0.5000027706879027
100
AcDbArc
 50
180.000317
 51
269.988223
  0
LINE
  5
6F
330
48
100
AcDbEntity
  8
0
  6
Continuous
 62
     0
370
    30
100
AcDbLine
 10
186.034824
 20
354.804916
 30
0.0
 11
186.034824
 21
307.804916
 31
0.0
  0
LINE
  5
70
330
48
100
AcDbEntity
  8
0
  6
Continuous
 62
     0
370
    30
100
AcDbLine
 10
204.034824
 20
354.804916
 30
0.0
 11
204.034824
 21
307.804916
 31
0.0
  0
ARC
  5
71
330
48
100
AcDbEntity
  8
0
  6
Continuous
 62
     0
370
    30
100
AcDbCircle
 10
203.534821
 20
354.804913
 30
0.0
 40
0.5000034422824848
100
AcDbArc
 50
0.000394
 51
89.999606
  0
ARC
  5
72
330
48
100
AcDbEntity
  8
0
  6
Continuous
 62
     0
370
    30
100
AcDbCircle
 10
186.534827
 20
354.804914
 30
0.0
 40
0.500002770687924
100
AcDbArc
 50
90.011777
 51
179.999683
  0
ENDBLK
  5
74
330
48
100
AcDbEntity
  8
0
100
AcDbBlockEnd
  0
BLOCK
  5
8E
330
76
100
AcDbEntity
  8
0
100
AcDbBlockBegin
  2
b
 70
     0
 10
100.415127
 20
98.457657
 30
0.0
  3
b
  1

  0
ARC
  5
77
330
76
100
AcDbEntity
  8
0
  6
Continuous
 62
     0
370
    30
100
AcDbCircle
 10
195.034824
 20
162.195106
 30
0.0
 40
60.000003098794
100
AcDbArc
 50
90.0
 51
270.0
  0
ARC
  5
78
330
76
100
AcDbEntity
  8
0
  6
Continuous
 62
     0
370
    30
100
AcDbCircle
 10
195.034824
 20
162.195106
 30
0.0
 40
60.000003098794
100
AcDbArc
 50
270.0
 51
90.0
  0
ARC
  5
79
330
76
100
AcDbEntity
  8
0
  6
Continuous
 62
     0
370
     0
100
AcDbCircle
 10
195.034824
 20
162.195106
 30
0.0
 40
57.53055198815407
100
AcDbArc
 50
90.0
 51
270.0
  0
ARC
  5
7A
330
76
100
AcDbEntity
  8
0
  6
Continuous
 62
     0
370
     0
100
AcDbCircle
 10
195.034824
 20
162.195106
 30
0.0
 40
57.53055198815407
100
AcDbArc
 50
270.0
 51
90.0
  0
LINE
  5
7B
330
76
100
AcDbEntity
  8
0
  6
Continuous
 62
     0
370
    30
100
AcDbLine
 10
204.034824
 20
228.695108
 30
0.0
 11
204.034824
 21
221.516271
 31
0.0
  0
LINE
  5
7C
330
76
100
AcDbEntity
  8
0
  6
Continuous
 62
     0
370
     0
100
AcDbLine
 10
204.034824
 20
228.695108
 30
0.0
 11
186.034824
 21
228.695108
 31
0.0
  0
ARC
  5
7D
330
76
100
AcDbEntity
  8
0
  6
Continuous
 62
     0
370
    30
100
AcDbCircle
 10
203.534824
 20
228.695108
 30
0.0
 40
0.5
100
AcDbArc
 50
0.0
 51
90.0
  0
LINE
  5
7E
330
76
100
AcDbEntity
  8
0
  6
Continuous
 62
     0
370
     0
100
AcDbLine
 10
225.034824
 20
233.695108
 30
0.0
 11
196.536771
 21
233.695107
 31
0.0
  0
LINE
  5
7F
330
76
100
AcDbEntity
  8
0
  6
Continuous
 62
     0
370
     0
100
AcDbLine
 10
196.536771
 20
233.695107
 30
0.0
 11
165.034824
 21
233.695108
 31
0.0
  0
LWPOLYLINE
  5
80
330
76
100
AcDbEntity
  8
0
  6
Continuous
 62
     0
370
    30
100
AcDbPolyline
 90
       24
 70
     0
 43
0.0
 10
165.534821
 20
234.195114
 10
165.595398
 20
234.195114
 10
165.779282
 20
234.195114
 10
166.094742
 20
234.195114
 10
166.548813
 20
234.195114
 10
167.147064
 20
234.195114
 10
167.893219
 20
234.195114
 10
168.788879
 20
234.195114
 10
169.833344
 20
234.195114
 10
171.023422
 20
234.195114
 10
172.353378
 20
234.195114
 10
173.814957
 20
234.195114
 10
175.397552
 20
234.195114
 10
177.088409
 20
234.195114
 10
178.873047
 20
234.195114
 10
180.735596
 20
234.195114
 10
182.659271
 20
234.195114
 10
184.626877
 20
234.195114
 10
186.621246
 20
234.195114
 10
188.625717
 20
234.195114
 10
190.624496
 20
234.195114
 10
192.603012
 20
234.195114
 10
194.548111
 20
234.195114
 10
196.511734
 20
234.195114
  0
LINE
  5
81
330
76
100
AcDbEntity
  8
0
  6
Continuous
 62
     0
370
    30
100
AcDbLine
 10
196.511739
 20
234.195107
 30
0.0
 11
224.534824
 21
234.195108
 31
0.0
  0
LINE
  5
82
330
76
100
AcDbEntity
  8
0
  6
Continuous
 62
     0
370
     0
100
AcDbLine
 10
196.536771
 20
229.695108
 30
0.0
 11
225.034824
 21
229.695108
 31
0.0
  0
LINE
  5
83
330
76
100
AcDbEntity
  8
0
  6
Continuous
 62
     0
370
     0
100
AcDbLine
 10
165.034824
 20
229.695108
 30
0.0
 11
196.536771
 21
229.695108
 31
0.0
  0
LINE
  5
84
330
76
100
AcDbEntity
  8
0
  6
Continuous
 62
     0
370
    30
100
AcDbLine
 10
224.534824
 20
229.195108
 30
0.0
 11
196.511739
 21
229.195107
 31
0.0
  0
LINE
  5
85
330
76
100
AcDbEntity
  8
0
  6
Continuous
 62
     0
370
    30
100
AcDbLine
 10
196.511739
 20
229.195107
 30
0.0
 11
165.534824
 21
229.195108
 31
0.0
  0
ARC
  5
86
330
76
100
AcDbEntity
  8
0
  6
Continuous
 62
     0
370
    30
100
AcDbCircle
 10
224.534809
 20
229.695123
 30
0.0
 40
0.500015027165461
100
AcDbArc
 50
270.001722
 51
359.998278
  0
ARC
  5
87
330
76
100
AcDbEntity
  8
0
  6
Continuous
 62
     0
370
    30
100
AcDbCircle
 10
165.534839
 20
229.695123
 30
0.0
 40
0.5000150271647414
100
AcDbArc
 50
180.001722
 51
269.998278
  0
LINE
  5
88
330
76
100
AcDbEntity
  8
0
  6
Continuous
 62
     0
370
    30
100
AcDbLine
 10
225.034824
 20
229.695108
 30
0.0
 11
225.034824
 21
233.695108
 31
0.0
  0
LINE
  5
89
330
76
100
AcDbEntity
  8
0
  6
Continuous
 62
     0
370
    30
100
AcDbLine
 10
165.034824
 20
229.695108
 30
0.0
 11
165.034824
 21
233.695108
 31
0.0
  0
ARC
  5
8A
330
76
100
AcDbEntity
  8
0
  6
Continuous
 62
     0
370
    30
100
AcDbCircle
 10
224.534809
 20
233.695093
 30
0.0
 40
0.5000149691628907
100
AcDbArc
 50
0.001715
 51
89.990182
  0
ARC
  5
8B
330
76
100
AcDbEntity
  8
0
  6
Continuous
 62
     0
370
    30
100
AcDbCircle
 10
165.534839
 20
233.695093
 30
0.0
 40
0.5000149691648182
100
AcDbArc
 50
90.009818
 51
179.998285
  0
ARC
  5
8C
330
76
100
AcDbEntity
  8
0
  6
Continuous
 62
     0
370
    30
100
AcDbCircle
 10
186.534827
 20
228.695105
 30
0.0
 40
0.500002770689935
100
AcDbArc
 50
90.011777
 51
179.999683
  0
LINE
  5
8D
330
76
100
AcDbEntity
  8
0
  6
Continuous
 62
     0
370
    30
100
AcDbLine
 10
186.034824
 20
228.695108
 30
0.0
 11
186.034824
 21
221.516271
 31
0.0
  0
ENDBLK
  5
8F
330
76
100
AcDbEntity
  8
0
100
AcDbBlockEnd
  0
BLOCK
  5
C9
330
91
100
AcDbEntity
  8
0
100
AcDbBlockBegin
  2
c
 70
     0
 10
106.655655
 20
77.944702
 30
0.0
  3
c
  1

  0
LINE
  5
92
330
91
100
AcDbEntity
  8
0
  6
Continuous
 62
     0
370
    30
100
AcDbLine
 10
439.874332
 20
358.804914
 30
0.0
 11
323.874326
 21
358.804914
 31
0.0
  0
ARC
  5
93
330
91
100
AcDbEntity
  8
0
  6
Continuous
 62
     0
370
    30
100
AcDbCircle
 10
439.874332
 20
360.804914
 30
0.0
 40
2.0
100
AcDbArc
 50
270.0
 51
360.0
  0
LINE
  5
94
330
91
100
AcDbEntity
  8
0
  6
Continuous
 62
     0
370
     0
100
AcDbLine
 10
441.874332
 20
360.804914
 30
0.0
 11
321.874326
 21
360.804914
 31
0.0
  0
LINE
  5
95
330
91
100
AcDbEntity
  8
0
  6
Continuous
 62
     0
370
    30
100
AcDbLine
 10
441.874332
 20
360.804914
 30
0.0
 11
441.874332
 21
368.804891
 31
0.0
  0
LINE
  5
96
330
91
100
AcDbEntity
  8
0
  6
Continuous
 62
     0
370
     0
100
AcDbLine
 10
441.874332
 20
368.804891
 30
0.0
 11
321.874326
 21
368.804891
 31
0.0
  0
ARC
  5
97
330
91
100
AcDbEntity
  8
0
  6
Continuous
 62
     0
370
    30
100
AcDbCircle
 10
439.874332
 20
368.804891
 30
0.0
 40
2.0
100
AcDbArc
 50
360.0
 51
89.984124
  0
ARC
  5
98
330
91
100
AcDbEntity
  8
0
  6
Continuous
 62
     0
370
    30
100
AcDbCircle
 10
323.87424
 20
368.8049
 30
0.0
 40
1.999914019455687
100
AcDbArc
 50
89.996012
 51
180.000271
  0
LINE
  5
99
330
91
100
AcDbEntity
  8
0
  6
Continuous
 62
     0
370
    30
100
AcDbLine
 10
323.874379
 20
370.804891
 30
0.0
 11
439.874332
 21
370.804891
 31
0.0
  0
LINE
  5
9A
330
91
100
AcDbEntity
  8
0
  6
Continuous
 62
     0
370
    30
100
AcDbLine
 10
321.874326
 20
368.804891
 30
0.0
 11
321.874326
 21
360.804914
 31
0.0
  0
ARC
  5
9B
330
91
100
AcDbEntity
  8
0
  6
Continuous
 62
     0
370
    30
100
AcDbCircle
 10
323.874416
 20
360.805005
 30
0.0
 40
2.000090455224801
100
AcDbArc
 50
180.002591
 51
269.989306
  0
LINE
  5
9C
330
91
100
AcDbEntity
  8
0
  6
Continuous
 62
     0
370
     0
100
AcDbLine
 10
372.874329
 20
348.304916
 30
0.0
 11
381.874329
 21
331.304916
 31
0.0
  0
LINE
  5
9D
330
91
100
AcDbEntity
  8
0
  6
Continuous
 62
     0
370
     0
100
AcDbLine
 10
364.874329
 20
340.304916
 30
0.0
 11
381.874329
 21
331.304916
 31
0.0
  0
LINE
  5
9E
330
91
100
AcDbEntity
  8
0
  6
Continuous
 62
     0
370
     0
100
AcDbLine
 10
381.874329
 20
331.304916
 30
0.0
 11
364.874329
 21
322.304917
 31
0.0
  0
LINE
  5
9F
330
91
100
AcDbEntity
  8
0
  6
Continuous
 62
     0
370
     0
100
AcDbLine
 10
381.874329
 20
331.304916
 30
0.0
 11
372.874329
 21
314.304917
 31
0.0
  0
LINE
  5
A0
330
91
100
AcDbEntity
  8
0
  6
Continuous
 62
     0
370
     0
100
AcDbLine
 10
390.874329
 20
354.804916
 30
0.0
 11
372.874329
 21
354.804916
 31
0.0
  0
ARC
  5
A1
330
91
100
AcDbEntity
  8
0
  6
Continuous
 62
     0
370
    30
100
AcDbCircle
 10
390.374329
 20
354.804916
 30
0.0
 40
0.5
100
AcDbArc
 50
0.0
 51
90.0
  0
LINE
  5
A2
330
91
100
AcDbEntity
  8
0
  6
Continuous
 62
     0
370
    30
100
AcDbLine
 10
390.874329
 20
354.804916
 30
0.0
 11
390.874329
 21
307.804916
 31
0.0
  0
LINE
  5
A3
330
91
100
AcDbEntity
  8
0
  6
Continuous
 62
     0
370
     0
100
AcDbLine
 10
390.874329
 20
307.804916
 30
0.0
 11
372.874329
 21
307.804916
 31
0.0
  0
LINE
  5
A4
330
91
100
AcDbEntity
  8
0
  6
Continuous
 62
     0
370
    30
100
AcDbLine
 10
390.374329
 20
307.304916
 30
0.0
 11
373.374329
 21
307.304916
 31
0.0
  0
ARC
  5
A5
330
91
100
AcDbEntity
  8
0
  6
Continuous
 62
     0
370
    30
100
AcDbCircle
 10
390.374329
 20
307.804916
 30
0.0
 40
0.5
100
AcDbArc
 50
270.0
 51
360.0
  0
LINE
  5
A6
330
91
100
AcDbEntity
  8
0
  6
Continuous
 62
     0
370
     0
100
AcDbLine
 10
315.374329
 20
340.304916
 30
0.0
 11
315.374329
 21
331.304916
 31
0.0
  0
LINE
  5
A7
330
91
100
AcDbEntity
  8
0
  6
Continuous
 62
     0
370
     0
100
AcDbLine
 10
315.374329
 20
331.304916
 30
0.0
 11
315.374329
 21
322.304916
 31
0.0
  0
LINE
  5
A8
330
91
100
AcDbEntity
  8
0
  6
Continuous
 62
     0
370
    30
100
AcDbLine
 10
363.47719
 20
355.304916
 30
0.0
 11
400.374329
 21
355.304916
 31
0.0
  0
LINE
  5
A9
330
91
100
AcDbEntity
  8
0
  6
Continuous
 62
     0
370
    30
100
AcDbLine
 10
363.374329
 20
355.304916
 30
0.0
 11
363.47719
 21
355.304916
 31
0.0
  0
LINE
  5
AA
330
91
100
AcDbEntity
  8
0
  6
Continuous
 62
     0
370
     0
100
AcDbLine
 10
361.874329
 20
356.804916
 30
0.0
 11
361.98553
 21
356.804916
 31
0.0
  0
LINE
  5
AB
330
91
100
AcDbEntity
  8
0
  6
Continuous
 62
     0
370
     0
100
AcDbLine
 10
361.98553
 20
356.804916
 30
0.0
 11
401.874329
 21
356.804916
 31
0.0
  0
LINE
  5
AC
330
91
100
AcDbEntity
  8
0
  6
Continuous
 62
     0
370
     0
100
AcDbLine
 10
361.874329
 20
358.604916
 30
0.0
 11
361.98553
 21
358.604916
 31
0.0
  0
LINE
  5
AD
330
91
100
AcDbEntity
  8
0
  6
Continuous
 62
     0
370
     0
100
AcDbLine
 10
361.98553
 20
358.604916
 30
0.0
 11
401.874329
 21
358.604916
 31
0.0
  0
LWPOLYLINE
  5
AE
330
91
100
AcDbEntity
  8
0
  6
Continuous
 62
     0
370
     0
100
AcDbPolyline
 90
       45
 70
     0
 43
0.0
 10
310.374329
 20
361.304932
 10
310.374329
 20
361.241211
 10
310.374329
 20
361.044373
 10
310.374329
 20
360.706909
 10
310.374329
 20
360.222778
 10
310.374329
 20
359.587769
 10
310.374329
 20
358.799835
 10
310.374329
 20
357.859283
 10
310.374329
 20
356.76889
 10
310.374329
 20
355.533997
 10
310.374329
 20
354.162476
 10
310.374329
 20
352.664551
 10
310.374329
 20
351.052521
 10
310.374329
 20
349.340546
 10
310.374329
 20
347.544067
 10
310.374329
 20
345.679504
 10
310.374329
 20
343.763733
 10
310.374329
 20
341.813568
 10
310.374329
 20
339.84549
 10
310.374329
 20
337.875061
 10
310.374329
 20
335.916779
 10
310.374329
 20
333.983826
 10
310.374329
 20
332.080597
 10
310.374329
 20
330.14444
 10
310.374329
 20
328.166901
 10
310.374329
 20
326.160034
 10
310.374329
 20
324.137451
 10
310.374329
 20
322.114075
 10
310.374329
 20
320.105988
 10
310.374329
 20
318.129974
 10
310.374329
 20
316.203186
 10
310.374329
 20
314.342743
 10
310.374329
 20
312.565125
 10
310.374329
 20
310.885803
 10
310.374329
 20
309.318787
 10
310.374329
 20
307.876251
 10
310.374329
 20
306.568146
 10
310.374329
 20
305.4021
 10
310.374329
 20
304.383179
 10
310.374329
 20
303.513947
 10
310.374329
 20
302.794586
 10
310.374329
 20
302.222931
 10
310.374329
 20
301.794891
 10
310.374329
 20
301.504547
 10
310.374329
 20
301.342529
  0
LINE
  5
AF
330
91
100
AcDbEntity
  8
0
  6
Continuous
 62
     0
370
    30
100
AcDbLine
 10
309.874329
 20
301.84191
 30
0.0
 11
309.874329
 21
360.767922
 31
0.0
  0
LINE
  5
B0
330
91
100
AcDbEntity
  8
0
  6
Continuous
 62
     0
370
     0
100
AcDbLine
 10
314.374329
 20
301.304916
 30
0.0
 11
314.374329
 21
301.342537
 31
0.0
  0
LINE
  5
B1
330
91
100
AcDbEntity
  8
0
  6
Continuous
 62
     0
370
     0
100
AcDbLine
 10
314.374329
 20
301.342537
 30
0.0
 11
314.374329
 21
361.304916
 31
0.0
  0
LWPOLYLINE
  5
B2
330
91
100
AcDbEntity
  8
0
  6
Continuous
 62
     0
370
    30
100
AcDbPolyline
 90
       45
 70
     0
 43
0.0
 10
314.874329
 20
360.767914
 10
314.874329
 20
360.801575
 10
314.874329
 20
360.70636
 10
314.874329
 20
360.47345
 10
314.874329
 20
360.095367
 10
314.874329
 20
359.566376
 10
314.874329
 20
358.882782
 10
314.874329
 20
358.043182
 10
314.874329
 20
357.048706
 10
314.874329
 20
355.903168
 10
314.874329
 20
354.613129
 10
314.874329
 20
353.187683
 10
314.874329
 20
351.638367
 10
314.874329
 20
349.97879
 10
314.874329
 20
348.224274
 10
314.874329
 20
346.391357
 10
314.874329
 20
344.497375
 10
314.874329
 20
342.559875
 10
314.874329
 20
340.59613
 10
314.874329
 20
338.622803
 10
314.874329
 20
336.655457
 10
314.874329
 20
334.708435
 10
314.874329
 20
332.794403
 10
314.874329
 20
330.874756
 10
314.874329
 20
328.908783
 10
314.874329
 20
326.908417
 10
314.874329
 20
324.887207
 10
314.874329
 20
322.86026
 10
314.874329
 20
320.843933
 10
314.874329
 20
318.855438
 10
314.874329
 20
316.912506
 10
314.874329
 20
315.032959
 10
314.874329
 20
313.23407
 10
314.874329
 20
311.532196
 10
314.874329
 20
309.9422
 10
314.874329
 20
308.477051
 10
314.874329
 20
307.147491
 10
314.874329
 20
305.961792
 10
314.874329
 20
304.925537
 10
314.874329
 20
304.041687
 10
314.874329
 20
303.310638
 10
314.874329
 20
302.730347
 10
314.874329
 20
302.2966
 10
314.874329
 20
302.003418
 10
314.874329
 20
301.841919
  0
ARC
  5
B3
330
91
100
AcDbEntity
  8
0
  6
Continuous
 62
     0
370
    30
100
AcDbCircle
 10
314.374314
 20
301.804931
 30
0.0
 40
0.5000150271644253
100
AcDbArc
 50
270.001722
 51
359.998278
  0
ARC
  5
B4
330
91
100
AcDbEntity
  8
0
  6
Continuous
 62
     0
370
    30
100
AcDbCircle
 10
314.374314
 20
360.804901
 30
0.0
 40
0.5000150271653845
100
AcDbArc
 50
0.001722
 51
89.998278
  0
LINE
  5
B5
330
91
100
AcDbEntity
  8
0
  6
Continuous
 62
     0
370
    30
100
AcDbLine
 10
314.374329
 20
301.304916
 30
0.0
 11
310.374329
 21
301.304916
 31
0.0
  0
LINE
  5
B6
330
91
100
AcDbEntity
  8
0
  6
Continuous
 62
     0
370
    30
100
AcDbLine
 10
314.374329
 20
361.304916
 30
0.0
 11
310.374329
 21
361.304916
 31
0.0
  0
ARC
  5
B7
330
91
100
AcDbEntity
  8
0
  6
Continuous
 62
     0
370
    30
100
AcDbCircle
 10
310.374344
 20
301.804931
 30
0.0
 40
0.500014969164136
100
AcDbArc
 50
180.009818
 51
269.998285
  0
ARC
  5
B8
330
91
100
AcDbEntity
  8
0
  6
Continuous
 62
     0
370
    30
100
AcDbCircle
 10
310.374344
 20
360.804901
 30
0.0
 40
0.5000149691654561
100
AcDbArc
 50
90.001715
 51
179.990182
  0
ARC
  5
B9
330
91
100
AcDbEntity
  8
0
  6
Continuous
 62
     0
370
    30
100
AcDbCircle
 10
401.376457
 20
358.605158
 30
0.0
 40
0.4978719538948733
100
AcDbArc
 50
359.972131
 51
23.654425
  0
ARC
  5
BA
330
91
100
AcDbEntity
  8
0
  6
Continuous
 62
     0
370
    30
100
AcDbCircle
 10
362.372201
 20
358.605158
 30
0.0
 40
0.4978719538943237
100
AcDbArc
 50
156.345575
 51
180.027869
  0
LINE
  5
BB
330
91
100
AcDbEntity
  8
0
  6
Continuous
 62
     0
370
    30
100
AcDbLine
 10
401.874329
 20
356.804916
 30
0.0
 11
401.874329
 21
358.604916
 31
0.0
  0
LINE
  5
BC
330
91
100
AcDbEntity
  8
0
  6
Continuous
 62
     0
370
    30
100
AcDbLine
 10
361.874329
 20
356.804916
 30
0.0
 11
361.874329
 21
358.604916
 31
0.0
  0
ARC
  5
BD
330
91
100
AcDbEntity
  8
0
  6
Continuous
 62
     0
370
    30
100
AcDbCircle
 10
400.374261
 20
356.804984
 30
0.0
 40
1.500067841418646
100
AcDbArc
 50
270.010694
 51
359.997409
  0
ARC
  5
BE
330
91
100
AcDbEntity
  8
0
  6
Continuous
 62
     0
370
    30
100
AcDbCircle
 10
363.374396
 20
356.804984
 30
0.0
 40
1.500067841418609
100
AcDbArc
 50
180.002591
 51
269.989306
  0
ARC
  5
BF
330
91
100
AcDbEntity
  8
0
  6
Continuous
 62
     0
370
    30
100
AcDbCircle
 10
315.374332
 20
322.80492
 30
0.0
 40
0.5000034422816908
100
AcDbArc
 50
180.000394
 51
269.999606
  0
ARC
  5
C0
330
91
100
AcDbEntity
  8
0
  6
Continuous
 62
     0
370
    30
100
AcDbCircle
 10
315.374331
 20
339.804914
 30
0.0
 40
0.50000277068658
100
AcDbArc
 50
90.000317
 51
179.988223
  0
LINE
  5
C1
330
91
100
AcDbEntity
  8
0
  6
Continuous
 62
     0
370
    30
100
AcDbLine
 10
315.374329
 20
340.304916
 30
0.0
 11
364.875252
 21
340.304916
 31
0.0
  0
LINE
  5
C2
330
91
100
AcDbEntity
  8
0
  6
Continuous
 62
     0
370
    30
100
AcDbLine
 10
315.374329
 20
322.304916
 30
0.0
 11
364.875252
 21
322.304916
 31
0.0
  0
ARC
  5
C3
330
91
100
AcDbEntity
  8
0
  6
Continuous
 62
     0
370
    30
100
AcDbCircle
 10
373.374331
 20
307.804919
 30
0.0
 40
0.5000027706880794
100
AcDbArc
 50
180.000317
 51
269.988223
  0
LINE
  5
C4
330
91
100
AcDbEntity
  8
0
  6
Continuous
 62
     0
370
    30
100
AcDbLine
 10
372.874329
 20
354.804916
 30
0.0
 11
372.874329
 21
348.303993
 31
0.0
  0
LINE
  5
C5
330
91
100
AcDbEntity
  8
0
  6
Continuous
 62
     0
370
    30
100
AcDbLine
 10
372.874329
 20
314.30584
 30
0.0
 11
372.874329
 21
307.804916
 31
0.0
  0
ARC
  5
C6
330
91
100
AcDbEntity
  8
0
  6
Continuous
 62
     0
370
    30
100
AcDbCircle
 10
373.374331
 20
354.804914
 30
0.0
 40
0.5000027706880981
100
AcDbArc
 50
90.011777
 51
179.999683
  0
ARC
  5
C7
330
91
100
AcDbEntity
  8
0
  6
Continuous
 62
     0
370
    30
100
AcDbCircle
 10
364.874278
 20
314.304866
 30
0.0
 40
8.000050784311899
100
AcDbArc
 50
0.000365
 51
89.999635
  0
ARC
  5
C8
330
91
100
AcDbEntity
  8
0
  6
Continuous
 62
     0
370
    30
100
AcDbCircle
 10
364.874327
 20
348.304918
 30
0.0
 40
8.000001558662529
100
AcDbArc
 50
270.000013
 51
359.999987
  0
ENDBLK
  5
CA
330
91
100
AcDbEntity
  8
0
100
AcDbBlockEnd
  0
BLOCK
  5
E4
330
CC
100
AcDbEntity
  8
0
100
AcDbBlockBegin
  2
d
 70
     0
 10
106.655655
 20
98.457657
 30
0.0
  3
d
  1

  0
ELLIPSE
  5
CD
330
CC
100
AcDbEntity
  8
0
  6
Continuous
 62
     0
370
     0
100
AcDbEllipse
 10
387.052864
 20
169.599226
 30
0.0
 11
60.000003098794
 21
0.0
 31
0.0
210
0.0
220
0.0
230
-1.0
 40
0.707107
 41
2.356194490192345
 42
3.141592674491458
  0
ELLIPSE
  5
CE
330
CC
100
AcDbEntity
  8
0
  6
Continuous
 62
     0
370
     0
100
AcDbEllipse
 10
387.052864
 20
169.599226
 30
0.0
 11
60.000003098794
 21
0.0
 31
0.0
210
0.0
220
0.0
230
-1.0
 40
0.707107
 41
0.0000000209016642
 42
2.356194490192345
  0
ELLIPSE
  5
CF
330
CC
100
AcDbEntity
  8
0
  6
Continuous
 62
     0
370
     0
100
AcDbEllipse
 10
387.052864
 20
175.256063
 30
0.0
 11
60.000003098794
 21
0.0
 31
0.0
210
0.0
220
0.0
230
-1.0
 40
0.707107
 41
2.356194490192345
 42
3.141592802862321
  0
ELLIPSE
  5
D0
330
CC
100
AcDbEntity
  8
0
  6
Continuous
 62
     0
370
     0
100
AcDbEllipse
 10
387.052864
 20
175.256063
 30
0.0
 11
60.000003098794
 21
0.0
 31
0.0
210
0.0
220
0.0
230
-1.0
 40
0.707107
 41
6.283182931810831
 42
8.63937979737193
  0
ELLIPSE
  5
D1
330
CC
100
AcDbEntity
  8
0
  6
Continuous
 62
     0
370
     0
100
AcDbEllipse
 10
387.052864
 20
176.630766
 30
0.0
 11
57.53055198815407
 21
0.0
 31
0.0
210
0.0
220
0.0
230
-1.0
 40
0.707107
 41
2.356194490192345
 42
5.497787143782138
  0
ELLIPSE
  5
D2
330
CC
100
AcDbEntity
  8
0
  6
Continuous
 62
     0
370
     0
100
AcDbEllipse
 10
387.052864
 20
176.630766
 30
0.0
 11
57.53055198815407
 21
0.0
 31
0.0
210
0.0
220
0.0
230
-1.0
 40
0.707107
 41
5.497787143782138
 42
8.63937979737193
  0
LWPOLYLINE
  5
D3
330
CC
100
AcDbEntity
  8
0
  6
Continuous
 62
     0
370
    30
100
AcDbPolyline
 90
       63
 70
     0
 43
0.0
 10
327.052856
 20
175.256058
 10
327.13147
 20
177.462997
 10
327.367035
 20
179.663528
 10
327.758667
 20
181.85112
 10
328.305145
 20
184.019562
 10
329.004303
 20
186.162872
 10
329.853851
 20
188.275146
 10
330.851349
 20
190.35054
 10
331.993439
 20
192.383881
 10
333.27652
 20
194.370087
 10
334.696991
 20
196.304153
 10
336.250916
 20
198.181259
 10
337.933929
 20
199.99704
 10
339.741455
 20
201.747208
 10
341.668732
 20
203.427658
 10
343.710846
 20
205.034363
 10
345.862366
 20
206.56369
 10
348.117676
 20
208.012192
 10
350.47113
 20
209.376404
 10
352.916962
 20
210.652969
 10
355.448914
 20
211.839005
 10
358.060516
 20
212.931747
 10
360.7453
 20
213.928528
 10
363.49649
 20
214.826981
 10
366.307098
 20
215.625031
 10
369.170105
 20
216.320663
 10
372.078369
 20
216.91214
 10
375.024384
 20
217.398224
 10
378.000763
 20
217.777786
 10
381.000031
 20
218.049652
 10
384.014648
 20
218.21312
 10
387.036926
 20
218.268036
 10
390.059265
 20
218.214355
 10
393.073975
 20
218.051971
 10
396.073425
 20
217.781143
 10
399.05011
 20
217.402771
 10
401.996552
 20
216.917877
 10
404.905182
 20
216.327469
 10
407.768646
 20
215.632797
 10
410.579834
 20
214.8358
 10
413.331726
 20
213.938446
 10
416.017303
 20
212.94278
 10
418.629639
 20
211.850983
 10
421.162415
 20
210.665848
 10
423.609253
 20
209.390259
 10
425.963898
 20
208.027115
 10
428.220276
 20
206.579498
 10
430.372833
 20
205.050934
 10
432.416046
 20
203.444977
 10
434.344482
 20
201.765244
 10
436.153259
 20
200.015762
 10
437.837677
 20
198.200699
 10
439.393036
 20
196.324234
 10
440.814941
 20
194.390762
 10
442.099548
 20
192.405151
 10
443.243164
 20
190.372314
 10
444.242096
 20
188.297241
 10
445.093353
 20
186.185379
 10
445.794128
 20
184.042389
 10
446.342041
 20
181.874146
 10
446.735352
 20
179.686707
 10
446.972595
 20
177.486176
 10
447.052856
 20
175.256165
  0
LINE
  5
D4
330
CC
100
AcDbEntity
  8
0
  6
Continuous
 62
     0
370
    30
100
AcDbLine
 10
327.052861
 20
175.256064
 30
0.0
 11
327.052861
 21
169.599226
 31
0.0
  0
LINE
  5
D5
330
CC
100
AcDbEntity
  8
0
  6
Continuous
 62
     0
370
    30
100
AcDbLine
 10
447.052867
 20
175.256062
 30
0.0
 11
447.052867
 21
169.599225
 31
0.0
  0
LWPOLYLINE
  5
D6
330
CC
100
AcDbEntity
  8
0
  6
Continuous
 62
     0
370
    30
100
AcDbPolyline
 90
       48
 70
     0
 43
0.0
 10
344.885956
 20
138.966232
 10
347.068298
 20
137.498505
 10
349.349457
 20
136.111404
 10
351.723328
 20
134.808441
 10
354.18399
 20
133.592438
 10
356.725586
 20
132.466217
 10
359.34198
 20
131.432388
 10
362.026611
 20
130.493378
 10
364.772858
 20
129.651291
 10
367.574066
 20
128.908203
 10
370.423248
 20
128.265778
 10
373.313477
 20
127.725571
 10
376.237579
 20
127.288841
 10
379.188385
 20
126.956757
 10
382.1586
 20
126.730057
 10
385.1409
 20
126.609055
 10
388.127869
 20
126.594009
 10
391.112183
 20
126.685196
 10
394.086456
 20
126.882561
 10
397.043427
 20
127.185356
 10
399.9758
 20
127.592773
 10
402.876221
 20
128.104004
 10
405.737579
 20
128.718018
 10
408.552887
 20
129.433151
 10
411.315277
 20
130.247589
 10
414.017914
 20
131.159546
 10
416.654022
 20
132.167068
 10
419.217255
 20
133.26767
 10
421.701355
 20
134.45874
 10
424.100098
 20
135.73764
 10
426.407532
 20
137.101486
 10
428.618164
 20
138.546982
 10
430.726501
 20
140.070831
 10
432.727081
 20
141.669708
 10
434.614899
 20
143.339981
 10
436.385223
 20
145.077759
 10
438.033417
 20
146.879105
 10
439.555054
 20
148.739929
 10
440.946167
 20
150.655731
 10
442.202911
 20
152.621979
 10
443.321503
 20
154.634048
 10
444.298706
 20
156.68692
 10
445.131622
 20
158.775345
 10
445.817474
 20
160.893906
 10
446.354004
 20
163.03688
 10
446.739624
 20
165.198456
 10
446.97287
 20
167.372726
 10
447.052856
 20
169.599213
  0
LWPOLYLINE
  5
D7
330
CC
100
AcDbEntity
  8
0
  6
Continuous
 62
     0
370
    30
100
AcDbPolyline
 90
       17
 70
     0
 43
0.0
 10
327.052856
 20
169.599228
 10
327.12677
 20
167.459366
 10
327.348175
 20
165.325394
 10
327.716583
 20
163.203247
 10
328.230652
 20
161.098587
 10
328.888367
 20
159.0168
 10
329.687683
 20
156.963287
 10
330.626495
 20
154.94342
 10
331.702118
 20
152.962173
 10
332.911255
 20
151.0242
 10
334.250458
 20
149.133942
 10
335.716125
 20
147.295822
 10
337.304565
 20
145.514099
 10
339.011688
 20
143.792557
 10
340.833221
 20
142.134903
 10
342.764832
 20
140.544861
 10
344.885956
 20
138.966232
  0
ELLIPSE
  5
D8
330
CC
100
AcDbEntity
  8
0
  6
Continuous
 62
     0
370
     0
100
AcDbEllipse
 10
387.052864
 20
132.122569
 30
0.0
 11
9.0
 21
0.0
 31
0.0
210
0.0
220
0.0
230
-1.0
 40
0.707107
 41
1.013316676663811
 42
2.128356454219289
  0
LWPOLYLINE
  5
D9
330
CC
100
AcDbEntity
  8
0
  6
Continuous
 62
     0
370
     0
100
AcDbPolyline
 90
       32
 70
     0
 43
0.0
 10
454.921021
 20
159.987274
 10
455.756378
 20
160.670425
 10
456.490936
 20
161.467407
 10
457.122559
 20
162.36821
 10
457.650757
 20
163.361755
 10
458.07666
 20
164.43631
 10
458.402649
 20
165.579712
 10
458.632507
 20
166.779755
 10
458.770905
 20
168.02449
 10
458.823486
 20
169.31749
 10
458.790924
 20
170.700775
 10
458.667419
 20
172.174805
 10
458.447693
 20
173.734818
 10
458.127472
 20
175.374359
 10
457.703674
 20
177.08522
 10
457.174622
 20
178.857544
 10
456.540192
 20
180.679916
 10
455.80191
 20
182.539536
 10
454.963043
 20
184.422531
 10
454.028564
 20
186.314285
 10
453.005005
 20
188.199738
 10
451.900421
 20
190.063843
 10
450.724091
 20
191.891937
 10
449.486359
 20
193.670135
 10
448.198212
 20
195.385651
 10
446.871033
 20
197.02713
 10
445.516357
 20
198.584793
 10
444.145508
 20
200.050674
 10
442.769287
 20
201.418625
 10
441.397858
 20
202.684326
 10
440.040558
 20
203.84523
 10
438.673035
 20
204.925201
  0
LWPOLYLINE
  5
DA
330
CC
100
AcDbEntity
  8
0
  6
Continuous
 62
     0
370
     0
100
AcDbPolyline
 90
       14
 70
     0
 43
0.0
 10
438.673035
 20
204.925201
 10
437.42334
 20
205.834656
 10
436.145691
 20
206.688232
 10
434.846375
 20
207.47673
 10
433.532471
 20
208.190964
 10
432.211792
 20
208.821991
 10
430.892792
 20
209.361343
 10
429.584534
 20
209.801239
 10
428.296356
 20
210.134811
 10
427.037811
 20
210.356384
 10
425.81839
 20
210.461548
 10
424.647308
 20
210.447449
 10
423.533295
 20
210.312805
 10
422.40741
 20
210.033752
  0
ELLIPSE
  5
DB
330
CC
100
AcDbEntity
  8
0
  6
Continuous
 62
     0
370
     0
100
AcDbEllipse
 10
434.782572
 20
182.489579
 30
0.0
 11
-17.32050846354934
 21
24.49489715357295
 31
0.0
210
0.0
220
0.0
230
-1.0
 40
0.5
 41
1.005402475283888
 42
3.141592593522062
  0
ELLIPSE
  5
DC
330
CC
100
AcDbEntity
  8
0
  6
Continuous
 62
     0
370
     0
100
AcDbEllipse
 10
434.782572
 20
182.489579
 30
0.0
 11
-17.32050846354934
 21
24.49489715357295
 31
0.0
210
0.0
220
0.0
230
-1.0
 40
0.5
 41
0.5278139567678304
 42
1.005402475283888
  0
LWPOLYLINE
  5
DD
330
CC
100
AcDbEntity
  8
0
  6
Continuous
 62
     0
370
     0
100
AcDbPolyline
 90
       38
 70
     0
 43
0.0
 10
444.378265
 20
156.870346
 10
445.686798
 20
156.71817
 10
446.942932
 20
156.701782
 10
448.135712
 20
156.823242
 10
449.255096
 20
157.082428
 10
450.292145
 20
157.476944
 10
451.239319
 20
158.002243
 10
452.090729
 20
158.65181
 10
452.842072
 20
159.417297
 10
453.490814
 20
160.288956
 10
454.036102
 20
161.255798
 10
454.478729
 20
162.306091
 10
454.820923
 20
163.427658
 10
455.066132
 20
164.60817
 10
455.218994
 20
165.83548
 10
455.285095
 20
167.106323
 10
455.266663
 20
168.463333
 10
455.158142
 20
169.911667
 10
454.954163
 20
171.446808
 10
454.650208
 20
173.062454
 10
454.243011
 20
174.75058
 10
453.730682
 20
176.50145
 10
453.112885
 20
178.303726
 10
452.391052
 20
180.144653
 10
451.568237
 20
182.01033
 10
450.649292
 20
183.886078
 10
449.640686
 20
185.756714
 10
448.550446
 20
187.607071
 10
447.387878
 20
189.422318
 10
446.1633
 20
191.188385
 10
444.887787
 20
192.892349
 10
443.572845
 20
194.522659
 10
442.230072
 20
196.069427
 10
440.87088
 20
197.524551
 10
439.506195
 20
198.881821
 10
438.146271
 20
200.136856
 10
436.800507
 20
201.287079
 10
435.473358
 20
202.33461
  0
LWPOLYLINE
  5
DE
330
CC
100
AcDbEntity
  8
0
  6
Continuous
 62
     0
370
     0
100
AcDbPolyline
 90
        6
 70
     0
 43
0.0
 10
435.473358
 20
202.33461
 10
434.154938
 20
203.291229
 10
432.805481
 20
204.183975
 10
431.432617
 20
205.001678
 10
430.045105
 20
205.733261
 10
428.347748
 20
206.49321
  0
LWPOLYLINE
  5
DF
330
CC
100
AcDbEntity
  8
0
  6
Continuous
 62
     0
370
    30
100
AcDbPolyline
 90
        8
 70
     0
 43
0.0
 10
452.103088
 20
157.994675
 10
451.195709
 20
157.440689
 10
450.212067
 20
157.007019
 10
449.158844
 20
156.695847
 10
448.042389
 20
156.507507
 10
446.868866
 20
156.441879
 10
445.644165
 20
156.498276
 10
444.299622
 20
156.68895
  0
LINE
  5
E0
330
CC
100
AcDbEntity
  8
0
  6
Continuous
 62
     0
370
    30
100
AcDbLine
 10
452.103081
 20
157.994682
 30
0.0
 11
454.931508
 21
159.994682
 31
0.0
  0
LWPOLYLINE
  5
E1
330
CC
100
AcDbEntity
  8
0
  6
Continuous
 62
     0
370
    30
100
AcDbPolyline
 90
       13
 70
     0
 43
0.0
 10
438.957184
 20
204.983231
 10
437.446564
 20
206.073013
 10
435.936615
 20
207.05423
 10
434.434814
 20
207.921844
 10
432.948181
 20
208.671432
 10
431.483734
 20
209.29921
 10
430.048309
 20
209.801651
 10
428.648468
 20
210.175919
 10
427.290588
 20
210.419479
 10
425.980988
 20
210.530228
 10
424.725861
 20
210.506409
 10
423.531891
 20
210.346756
 10
422.387115
 20
210.044327
  0
LWPOLYLINE
  5
E2
330
CC
100
AcDbEntity
  8
0
  6
Continuous
 62
     0
370
    30
100
AcDbPolyline
 90
       31
 70
     0
 43
0.0
 10
454.931519
 20
159.994675
 10
455.794556
 20
160.70137
 10
456.560486
 20
161.531067
 10
457.224426
 20
162.47728
 10
457.783875
 20
163.533234
 10
458.236572
 20
164.692154
 10
458.581207
 20
165.947449
 10
458.817535
 20
167.292725
 10
458.945496
 20
168.721359
 10
458.965179
 20
170.226685
 10
458.877045
 20
171.801651
 10
458.681976
 20
173.438889
 10
458.381348
 20
175.130508
 10
457.976746
 20
176.86853
 10
457.470337
 20
178.644501
 10
456.864746
 20
180.449768
 10
456.163086
 20
182.275421
 10
455.368744
 20
184.112488
 10
454.485992
 20
185.951813
 10
453.519287
 20
187.784225
 10
452.473267
 20
189.600555
 10
451.353241
 20
191.391754
 10
450.165009
 20
193.148819
 10
448.914398
 20
194.862823
 10
447.607727
 20
196.525299
 10
446.251556
 20
198.127853
 10
444.852661
 20
199.662323
 10
443.418121
 20
201.120972
 10
441.954926
 20
202.49678
 10
440.470184
 20
203.782806
 10
438.957184
 20
204.983231
  0
LWPOLYLINE
  5
E3
330
CC
100
AcDbEntity
  8
0
  6
Continuous
 62
     0
370
    30
100
AcDbPolyline
 90
       10
 70
     0
 43
0.0
 10
392.128967
 20
126.740662
 10
391.110565
 20
126.307495
 10
390.023041
 20
125.974777
 10
388.884857
 20
125.747673
 10
387.715393
 20
125.62973
 10
386.534607
 20
125.623062
 10
385.36264
 20
125.727356
 10
384.219666
 20
125.941299
 10
383.124939
 20
126.261398
 10
381.976166
 20
126.740913
  0
ENDBLK
  5
E5
330
CC
100
AcDbEntity
  8
0
100
AcDbBlockEnd
  0
BLOCK
  5
120
330
E7
100
AcDbEntity
  8
0
100
AcDbBlockBegin
  2
e
 70
     0
 10
105.813812
 20
0.0
 30
0.0
  3
e
  1

  0
LINE
  5
E8
330
E7
100
AcDbEntity
  8
0
  6
Continuous
 62
     0
370
    30
100
AcDbLine
 10
67.347171
 20
358.80493
 30
0.0
 11
-48.652835
 21
358.80493
 31
0.0
  0
ARC
  5
E9
330
E7
100
AcDbEntity
  8
0
  6
Continuous
 62
     0
370
    30
100
AcDbCircle
 10
-48.652835
 20
360.80493
 30
0.0
 40
2.0
100
AcDbArc
 50
180.0
 51
270.0
  0
LINE
  5
EA
330
E7
100
AcDbEntity
  8
0
  6
Continuous
 62
     0
370
     0
100
AcDbLine
 10
69.347171
 20
360.80493
 30
0.0
 11
-50.652835
 21
360.80493
 31
0.0
  0
LINE
  5
EB
330
E7
100
AcDbEntity
  8
0
  6
Continuous
 62
     0
370
    30
100
AcDbLine
 10
-50.652835
 20
360.80493
 30
0.0
 11
-50.652835
 21
368.804906
 31
0.0
  0
LINE
  5
EC
330
E7
100
AcDbEntity
  8
0
  6
Continuous
 62
     0
370
     0
100
AcDbLine
 10
69.347171
 20
368.804906
 30
0.0
 11
-50.652835
 21
368.804906
 31
0.0
  0
ARC
  5
ED
330
E7
100
AcDbEntity
  8
0
  6
Continuous
 62
     0
370
    30
100
AcDbCircle
 10
-48.652835
 20
368.804906
 30
0.0
 40
2.0
100
AcDbArc
 50
76.424554
 51
180.0
  0
ARC
  5
EE
330
E7
100
AcDbEntity
  8
0
  6
Continuous
 62
     0
370
    30
100
AcDbCircle
 10
67.347169
 20
368.804903
 30
0.0
 40
2.000002395437614
100
AcDbArc
 50
0.000087
 51
103.575359
  0
LINE
  5
EF
330
E7
100
AcDbEntity
  8
0
  6
Continuous
 62
     0
370
    30
100
AcDbLine
 10
-48.652826
 20
370.804906
 30
0.0
 11
67.347118
 21
370.804906
 31
0.0
  0
LINE
  5
F0
330
E7
100
AcDbEntity
  8
0
  6
Continuous
 62
     0
370
    30
100
AcDbLine
 10
69.347171
 20
368.804906
 30
0.0
 11
69.347171
 21
360.80493
 31
0.0
  0
ARC
  5
F1
330
E7
100
AcDbEntity
  8
0
  6
Continuous
 62
     0
370
    30
100
AcDbCircle
 10
67.347081
 20
360.80502
 30
0.0
 40
2.000090455224801
100
AcDbArc
 50
270.010694
 51
359.997409
  0
LINE
  5
F2
330
E7
100
AcDbEntity
  8
0
  6
Continuous
 62
     0
370
     0
100
AcDbLine
 10
9.347168
 20
331.304932
 30
0.0
 11
18.347168
 21
348.304931
 31
0.0
  0
LINE
  5
F3
330
E7
100
AcDbEntity
  8
0
  6
Continuous
 62
     0
370
     0
100
AcDbLine
 10
9.347168
 20
331.304932
 30
0.0
 11
26.347168
 21
340.304931
 31
0.0
  0
LINE
  5
F4
330
E7
100
AcDbEntity
  8
0
  6
Continuous
 62
     0
370
     0
100
AcDbLine
 10
26.347168
 20
322.304932
 30
0.0
 11
9.347168
 21
331.304932
 31
0.0
  0
LINE
  5
F5
330
E7
100
AcDbEntity
  8
0
  6
Continuous
 62
     0
370
     0
100
AcDbLine
 10
18.347168
 20
314.304932
 30
0.0
 11
9.347168
 21
331.304932
 31
0.0
  0
ARC
  5
F6
330
E7
100
AcDbEntity
  8
0
  6
Continuous
 62
     0
370
    30
100
AcDbCircle
 10
0.847168
 20
354.804932
 30
0.0
 40
0.5
100
AcDbArc
 50
90.0
 51
180.0
  0
LINE
  5
F7
330
E7
100
AcDbEntity
  8
0
  6
Continuous
 62
     0
370
     0
100
AcDbLine
 10
18.347168
 20
354.804932
 30
0.0
 11
0.347168
 21
354.804932
 31
0.0
  0
LINE
  5
F8
330
E7
100
AcDbEntity
  8
0
  6
Continuous
 62
     0
370
    30
100
AcDbLine
 10
0.347168
 20
354.804932
 30
0.0
 11
0.347168
 21
307.804932
 31
0.0
  0
LINE
  5
F9
330
E7
100
AcDbEntity
  8
0
  6
Continuous
 62
     0
370
     0
100
AcDbLine
 10
18.347168
 20
307.804932
 30
0.0
 11
0.347168
 21
307.804932
 31
0.0
  0
LINE
  5
FA
330
E7
100
AcDbEntity
  8
0
  6
Continuous
 62
     0
370
    30
100
AcDbLine
 10
17.847168
 20
307.304932
 30
0.0
 11
0.847168
 21
307.304932
 31
0.0
  0
ARC
  5
FB
330
E7
100
AcDbEntity
  8
0
  6
Continuous
 62
     0
370
    30
100
AcDbCircle
 10
0.847168
 20
307.804932
 30
0.0
 40
0.5
100
AcDbArc
 50
180.0
 51
270.0
  0
LINE
  5
FC
330
E7
100
AcDbEntity
  8
0
  6
Continuous
 62
     0
370
     0
100
AcDbLine
 10
75.847168
 20
331.304932
 30
0.0
 11
75.847168
 21
340.304932
 31
0.0
  0
LINE
  5
FD
330
E7
100
AcDbEntity
  8
0
  6
Continuous
 62
     0
370
     0
100
AcDbLine
 10
75.847168
 20
322.304932
 30
0.0
 11
75.847168
 21
331.304932
 31
0.0
  0
LINE
  5
FE
330
E7
100
AcDbEntity
  8
0
  6
Continuous
 62
     0
370
    30
100
AcDbLine
 10
-9.152832
 20
355.304932
 30
0.0
 11
-9.049971
 21
355.304932
 31
0.0
  0
LINE
  5
FF
330
E7
100
AcDbEntity
  8
0
  6
Continuous
 62
     0
370
    30
100
AcDbLine
 10
-9.049971
 20
355.304932
 30
0.0
 11
27.847168
 21
355.304932
 31
0.0
  0
LINE
  5
100
330
E7
100
AcDbEntity
  8
0
  6
Continuous
 62
     0
370
     0
100
AcDbLine
 10
-10.541631
 20
356.804932
 30
0.0
 11
29.347168
 21
356.804932
 31
0.0
  0
LINE
  5
101
330
E7
100
AcDbEntity
  8
0
  6
Continuous
 62
     0
370
     0
100
AcDbLine
 10
-10.652832
 20
356.804932
 30
0.0
 11
-10.541631
 21
356.804932
 31
0.0
  0
LINE
  5
102
330
E7
100
AcDbEntity
  8
0
  6
Continuous
 62
     0
370
     0
100
AcDbLine
 10
-10.541631
 20
358.604932
 30
0.0
 11
29.347168
 21
358.604932
 31
0.0
  0
LINE
  5
103
330
E7
100
AcDbEntity
  8
0
  6
Continuous
 62
     0
370
     0
100
AcDbLine
 10
-10.652832
 20
358.604932
 30
0.0
 11
-10.541631
 21
358.604932
 31
0.0
  0
LWPOLYLINE
  5
104
330
E7
100
AcDbEntity
  8
0
  6
Continuous
 62
     0
370
     0
100
AcDbPolyline
 90
       45
 70
     0
 43
0.0
 10
80.847168
 20
301.304932
 10
80.847168
 20
301.368652
 10
80.847168
 20
301.56546
 10
80.847168
 20
301.902924
 10
80.847168
 20
302.387085
 10
80.847168
 20
303.022095
 10
80.847168
 20
303.809998
 10
80.847168
 20
304.75058
 10
80.847168
 20
305.840973
 10
80.847168
 20
307.075836
 10
80.847168
 20
308.447357
 10
80.847168
 20
309.945312
 10
80.847168
 20
311.557312
 10
80.847168
 20
313.269287
 10
80.847168
 20
315.065765
 10
80.847168
 20
316.930328
 10
80.847168
 20
318.84613
 10
80.847168
 20
320.796265
 10
80.847168
 20
322.764374
 10
80.847168
 20
324.734802
 10
80.847168
 20
326.693054
 10
80.847168
 20
328.626007
 10
80.847168
 20
330.529236
 10
80.847168
 20
332.465393
 10
80.847168
 20
334.442932
 10
80.847168
 20
336.449799
 10
80.847168
 20
338.472412
 10
80.847168
 20
340.495789
 10
80.847168
 20
342.503876
 10
80.847168
 20
344.479889
 10
80.847168
 20
346.406647
 10
80.847168
 20
348.26709
 10
80.847168
 20
350.044739
 10
80.847168
 20
351.72403
 10
80.847168
 20
353.291046
 10
80.847168
 20
354.733582
 10
80.847168
 20
356.041687
 10
80.847168
 20
357.207764
 10
80.847168
 20
358.226685
 10
80.847168
 20
359.095917
 10
80.847168
 20
359.815277
 10
80.847168
 20
360.386902
 10
80.847168
 20
360.814972
 10
80.847168
 20
361.105286
 10
80.847168
 20
361.267303
  0
LINE
  5
105
330
E7
100
AcDbEntity
  8
0
  6
Continuous
 62
     0
370
    30
100
AcDbLine
 10
81.347168
 20
301.841926
 30
0.0
 11
81.347168
 21
302.117732
 31
0.0
  0
LINE
  5
106
330
E7
100
AcDbEntity
  8
0
  6
Continuous
 62
     0
370
    30
100
AcDbLine
 10
81.347168
 20
360.767938
 30
0.0
 11
81.347168
 21
301.841926
 31
0.0
  0
LINE
  5
107
330
E7
100
AcDbEntity
  8
0
  6
Continuous
 62
     0
370
     0
100
AcDbLine
 10
76.847168
 20
361.267311
 30
0.0
 11
76.847168
 21
301.304932
 31
0.0
  0
LINE
  5
108
330
E7
100
AcDbEntity
  8
0
  6
Continuous
 62
     0
370
     0
100
AcDbLine
 10
76.847168
 20
361.304932
 30
0.0
 11
76.847168
 21
361.267311
 31
0.0
  0
LWPOLYLINE
  5
109
330
E7
100
AcDbEntity
  8
0
  6
Continuous
 62
     0
370
    30
100
AcDbPolyline
 90
       45
 70
     0
 43
0.0
 10
76.347168
 20
301.841919
 10
76.347168
 20
301.808258
 10
76.347168
 20
301.903473
 10
76.347168
 20
302.136414
 10
76.347168
 20
302.514496
 10
76.347168
 20
303.043457
 10
76.347168
 20
303.727051
 10
76.347168
 20
304.566681
 10
76.347168
 20
305.561157
 10
76.347168
 20
306.706665
 10
76.347168
 20
307.996704
 10
76.347168
 20
309.42215
 10
76.347168
 20
310.971466
 10
76.347168
 20
312.631042
 10
76.347168
 20
314.38559
 10
76.347168
 20
316.218475
 10
76.347168
 20
318.112457
 10
76.347168
 20
320.049988
 10
76.347168
 20
322.013733
 10
76.347168
 20
323.987061
 10
76.347168
 20
325.954376
 10
76.347168
 20
327.901398
 10
76.347168
 20
329.81543
 10
76.347168
 20
331.735107
 10
76.347168
 20
333.70108
 10
76.347168
 20
335.701447
 10
76.347168
 20
337.722626
 10
76.347168
 20
339.749573
 10
76.347168
 20
341.76593
 10
76.347168
 20
343.754425
 10
76.347168
 20
345.697357
 10
76.347168
 20
347.576904
 10
76.347168
 20
349.375793
 10
76.347168
 20
351.077667
 10
76.347168
 20
352.667664
 10
76.347168
 20
354.132812
 10
76.347168
 20
355.462372
 10
76.347168
 20
356.648071
 10
76.347168
 20
357.684326
 10
76.347168
 20
358.568146
 10
76.347168
 20
359.299225
 10
76.347168
 20
359.879517
 10
76.347168
 20
360.313232
 10
76.347168
 20
360.606445
 10
76.347168
 20
360.767944
  0
ARC
  5
10A
330
E7
100
AcDbEntity
  8
0
  6
Continuous
 62
     0
370
    30
100
AcDbCircle
 10
76.847183
 20
301.804947
 30
0.0
 40
0.5000150271644253
100
AcDbArc
 50
180.001722
 51
269.998278
  0
ARC
  5
10B
330
E7
100
AcDbEntity
  8
0
  6
Continuous
 62
     0
370
    30
100
AcDbCircle
 10
76.847183
 20
360.804917
 30
0.0
 40
0.5000150271653845
100
AcDbArc
 50
90.001722
 51
179.998278
  0
LINE
  5
10C
330
E7
100
AcDbEntity
  8
0
  6
Continuous
 62
     0
370
    30
100
AcDbLine
 10
76.847168
 20
301.304932
 30
0.0
 11
80.847168
 21
301.304932
 31
0.0
  0
LINE
  5
10D
330
E7
100
AcDbEntity
  8
0
  6
Continuous
 62
     0
370
    30
100
AcDbLine
 10
76.847168
 20
361.304932
 30
0.0
 11
80.847168
 21
361.304932
 31
0.0
  0
ARC
  5
10E
330
E7
100
AcDbEntity
  8
0
  6
Continuous
 62
     0
370
    30
100
AcDbCircle
 10
80.847153
 20
301.804947
 30
0.0
 40
0.500014969164136
100
AcDbArc
 50
270.001715
 51
359.990182
  0
ARC
  5
10F
330
E7
100
AcDbEntity
  8
0
  6
Continuous
 62
     0
370
    30
100
AcDbCircle
 10
80.847153
 20
360.804917
 30
0.0
 40
0.5000149691654561
100
AcDbArc
 50
0.009818
 51
89.998285
  0
ARC
  5
110
330
E7
100
AcDbEntity
  8
0
  6
Continuous
 62
     0
370
    30
100
AcDbCircle
 10
-10.15496
 20
358.605174
 30
0.0
 40
0.4978719538948733
100
AcDbArc
 50
156.345575
 51
180.027869
  0
ARC
  5
111
330
E7
100
AcDbEntity
  8
0
  6
Continuous
 62
     0
370
    30
100
AcDbCircle
 10
28.849296
 20
358.605174
 30
0.0
 40
0.4978719538943237
100
AcDbArc
 50
359.972131
 51
23.654425
  0
LINE
  5
112
330
E7
100
AcDbEntity
  8
0
  6
Continuous
 62
     0
370
    30
100
AcDbLine
 10
-10.652832
 20
356.804932
 30
0.0
 11
-10.652832
 21
358.604932
 31
0.0
  0
LINE
  5
113
330
E7
100
AcDbEntity
  8
0
  6
Continuous
 62
     0
370
    30
100
AcDbLine
 10
29.347168
 20
356.804932
 30
0.0
 11
29.347168
 21
358.604932
 31
0.0
  0
ARC
  5
114
330
E7
100
AcDbEntity
  8
0
  6
Continuous
 62
     0
370
    30
100
AcDbCircle
 10
-9.152764
 20
356.804999
 30
0.0
 40
1.500067841418646
100
AcDbArc
 50
180.002591
 51
269.989306
  0
ARC
  5
115
330
E7
100
AcDbEntity
  8
0
  6
Continuous
 62
     0
370
    30
100
AcDbCircle
 10
27.8471
 20
356.804999
 30
0.0
 40
1.500067841418609
100
AcDbArc
 50
270.010694
 51
359.997409
  0
ARC
  5
116
330
E7
100
AcDbEntity
  8
0
  6
Continuous
 62
     0
370
    30
100
AcDbCircle
 10
75.847165
 20
322.804935
 30
0.0
 40
0.5000034422816766
100
AcDbArc
 50
270.000394
 51
359.999606
  0
ARC
  5
117
330
E7
100
AcDbEntity
  8
0
  6
Continuous
 62
     0
370
    30
100
AcDbCircle
 10
75.847165
 20
339.804929
 30
0.0
 40
0.5000027706875024
100
AcDbArc
 50
0.011777
 51
89.999683
  0
LINE
  5
118
330
E7
100
AcDbEntity
  8
0
  6
Continuous
 62
     0
370
    30
100
AcDbLine
 10
75.847168
 20
340.304932
 30
0.0
 11
26.346245
 21
340.304932
 31
0.0
  0
LINE
  5
119
330
E7
100
AcDbEntity
  8
0
  6
Continuous
 62
     0
370
    30
100
AcDbLine
 10
75.847168
 20
322.304932
 30
0.0
 11
26.346245
 21
322.304932
 31
0.0
  0
ARC
  5
11A
330
E7
100
AcDbEntity
  8
0
  6
Continuous
 62
     0
370
    30
100
AcDbCircle
 10
17.847165
 20
307.804934
 30
0.0
 40
0.5000027706879613
100
AcDbArc
 50
270.011777
 51
359.999683
  0
LINE
  5
11B
330
E7
100
AcDbEntity
  8
0
  6
Continuous
 62
     0
370
    30
100
AcDbLine
 10
18.347168
 20
354.804932
 30
0.0
 11
18.347168
 21
348.304008
 31
0.0
  0
LINE
  5
11C
330
E7
100
AcDbEntity
  8
0
  6
Continuous
 62
     0
370
    30
100
AcDbLine
 10
18.347168
 20
314.305855
 30
0.0
 11
18.347168
 21
307.804932
 31
0.0
  0
ARC
  5
11D
330
E7
100
AcDbEntity
  8
0
  6
Continuous
 62
     0
370
    30
100
AcDbCircle
 10
17.847165
 20
354.804929
 30
0.0
 40
0.5000027706880235
100
AcDbArc
 50
0.000317
 51
89.988223
  0
ARC
  5
11E
330
E7
100
AcDbEntity
  8
0
  6
Continuous
 62
     0
370
    30
100
AcDbCircle
 10
26.347219
 20
314.304881
 30
0.0
 40
8.000050784295045
100
AcDbArc
 50
90.000365
 51
179.999635
  0
ARC
  5
11F
330
E7
100
AcDbEntity
  8
0
  6
Continuous
 62
     0
370
    30
100
AcDbCircle
 10
26.347169
 20
348.304933
 30
0.0
 40
8.000001558682694
100
AcDbArc
 50
180.000013
 51
269.999987
  0
ENDBLK
  5
121
330
E7
100
AcDbEntity
  8
0
100
AcDbBlockEnd
  0
ENDSEC
  0
SECTION
  2
ENTITIES
  0
INSERT
  5
75
330
1F
100
AcDbEntity
  8
0
  6
Continuous
 62
   250
370
     0
100
AcDbBlockReference
  2
a
 10
106.655655
 20
98.457657
 30
0.0
  0
INSERT
  5
90
330
1F
100
AcDbEntity
  8
0
  6
Continuous
 62
   250
370
     0
100
AcDbBlockReference
  2
b
 10
100.415127
 20
98.457657
 30
0.0
  0
INSERT
  5
CB
330
1F
100
AcDbEntity
  8
0
  6
Continuous
 62
   250
370
     0
100
AcDbBlockReference
  2
c
 10
106.655655
 20
77.944702
 30
0.0
  0
INSERT
  5
E6
330
1F
100
AcDbEntity
  8
0
  6
Continuous
 62
   250
370
     0
100
AcDbBlockReference
  2
d
 10
106.655655
 20
98.457657
 30
0.0
  0
INSERT
  5
122
330
1F
100
AcDbEntity
  8
0
  6
Continuous
 62
   250
370
     0
100
AcDbBlockReference
  2
e
 10
105.813812
 20
0.0
 30
0.0
  0
ENDSEC
  0
SECTION
  2
OBJECTS
  0
DICTIONARY
  5
C
330
0
100
AcDbDictionary
281
     1
  3
ACAD_GROUP
350
D
  3
ACAD_LAYOUT
350
1A
  3
ACAD_MLEADERSTYLE
350
125
  3
ACAD_MLINESTYLE
350
17
  3
ACAD_PLOTSETTINGS
350
19
  3
ACAD_PLOTSTYLENAME
350
E
  3
ACAD_VISUALSTYLE
350
2A
  3
AcDbVariableDictionary
350
123
  0
DICTIONARY
  5
D
102
{ACAD_REACTORS
330
C
102
}
330
C
100
AcDbDictionary
281
     1
  0
DICTIONARY
  5
1A
102
{ACAD_REACTORS
330
C
102
}
330
C
100
AcDbDictionary
281
     1
  3
Layout1
350
1E
  3
Layout2
350
26
  3
Model
350
22
  0
DICTIONARY
  5
125
102
{ACAD_REACTORS
330
C
102
}
330
C
100
AcDbDictionary
281
     1
  0
DICTIONARY
  5
17
102
{ACAD_REACTORS
330
C
102
}
330
C
100
AcDbDictionary
281
     1
  3
Standard
350
18
  0
DICTIONARY
  5
19
102
{ACAD_REACTORS
330
C
102
}
330
C
100
AcDbDictionary
281
     1
  0
ACDBDICTIONARYWDFLT
  5
E
102
{ACAD_REACTORS
330
C
102
}
330
C
100
AcDbDictionary
281
     1
  3
Normal
350
F
100
AcDbDictionaryWithDefault
340
F
  0
DICTIONARY
  5
2A
102
{ACAD_REACTORS
330
C
102
}
330
C
100
AcDbDictionary
281
     1
  3
2dWireframe
350
2F
  3
3D Hidden
350
31
  3
3dWireframe
350
30
  3
Basic
350
32
  3
Brighten
350
36
  3
ColorChange
350
3A
  3
Conceptual
350
34
  3
Dim
350
35
  3
Facepattern
350
39
  3
Flat
350
2B
  3
FlatWithEdges
350
2C
  3
Gouraud
350
2D
  3
GouraudWithEdges
350
2E
  3
Linepattern
350
38
  3
Realistic
350
33
  3
Thicken
350
37
  0
DICTIONARY
  5
123
102
{ACAD_REACTORS
330
C
102
}
330
C
100
AcDbDictionary
281
     1
  3
PSOLHEIGHT
350
127
  3
PSOLWIDTH
350
126
  0
LAYOUT
  5
1E
102
{ACAD_REACTORS
330
1A
102
}
330
1A
100
AcDbPlotSettings
  1

  2
none_device
  4

  6

 40
0.0
 41
0.0
 42
0.0
 43
0.0
 44
0.0
 45
0.0
 46
0.0
 47
0.0
 48
0.0
 49
0.0
140
0.0
141
0.0
142
1.0
143
1.0
 70
   688
 72
     0
 73
     0
 74
     5
  7

 75
    16
147
1.0
148
0.0
149
0.0
100
AcDbLayout
  1
Layout1
 70
     1
 71
     1
 10
0.0
 20
0.0
 11
420.0
 21
297.0
 12
0.0
 22
0.0
 32
0.0
 14
1.000000E+20
 24
1.000000E+20
 34
1.000000E+20
 15
-1.000000E+20
 25
-1.000000E+20
 35
-1.000000E+20
146
0.0
 13
0.0
 23
0.0
 33
0.0
 16
1.0
 26
0.0
 36
0.0
 17
0.0
 27
1.0
 37
0.0
 76
     0
330
1B
  0
LAYOUT
  5
26
102
{ACAD_REACTORS
330
1A
102
}
330
1A
100
AcDbPlotSettings
  1

  2
none_device
  4

  6

 40
0.0
 41
0.0
 42
0.0
 43
0.0
 44
0.0
 45
0.0
 46
0.0
 47
0.0
 48
0.0
 49
0.0
140
0.0
141
0.0
142
1.0
143
1.0
 70
   688
 72
     0
 73
     0
 74
     5
  7

 75
    16
147
1.0
148
0.0
149
0.0
100
AcDbLayout
  1
Layout2
 70
     1
 71
     2
 10
0.0
 20
0.0
 11
0.0
 21
0.0
 12
0.0
 22
0.0
 32
0.0
 14
0.0
 24
0.0
 34
0.0
 15
0.0
 25
0.0
 35
0.0
146
0.0
 13
0.0
 23
0.0
 33
0.0
 16
1.0
 26
0.0
 36
0.0
 17
0.0
 27
1.0
 37
0.0
 76
     0
330
23
  0
LAYOUT
  5
22
102
{ACAD_REACTORS
330
1A
102
}
330
1A
100
AcDbPlotSettings
  1

  2
none_device
  4

  6

 40
0.0
 41
0.0
 42
0.0
 43
0.0
 44
0.0
 45
0.0
 46
0.0
 47
0.0
 48
0.0
 49
0.0
140
0.0
141
0.0
142
1.0
143
1.0
 70
  1712
 72
     0
 73
     0
 74
     0
  7

 75
     0
147
1.0
148
0.0
149
0.0
100
AcDbLayout
  1
Model
 70
     1
 71
     0
 10
-50.652836
 20
92.624046
 11
458.965179
 21
370.804901
 12
0.0
 22
0.0
 32
0.0
 14
-50.652836
 24
92.624046
 34
0.0
 15
458.965179
 25
370.804901
 35
0.0
146
0.0
 13
0.0
 23
0.0
 33
0.0
 16
1.0
 26
0.0
 36
0.0
 17
0.0
 27
1.0
 37
0.0
 76
     0
330
1F
331
29
  0
MLINESTYLE
  5
18
102
{ACAD_REACTORS
330
17
102
}
330
17
100
AcDbMlineStyle
  2
Standard
 70
     0
  3

 62
   256
 51
90.0
 52
90.0
 71
     2
 49
0.5
 62
   256
  6
BYLAYER
 49
-0.5
 62
   256
  6
BYLAYER
  0
ACDBPLACEHOLDER
  5
F
102
{ACAD_REACTORS
330
E
102
}
330
E
  0
VISUALSTYLE
  5
2F
102
{ACAD_REACTORS
330
2A
102
}
330
2A
100
AcDbVisualStyle
  2
2dWireframe
 70
     4
 71
     0
 72
     2
 73
     0
 90
        0
 40
-0.6
 41
-30.0
 62
     5
 63
     7
 74
     1
 91
        4
 64
     7
 65
   257
 75
     1
175
     1
 42
1.0
 92
        0
 66
   257
 43
1.0
 76
     1
 77
     6
 78
     2
 67
     7
 79
     5
170
     0
171
     0
290
     0
174
     0
 93
        1
 44
0.0
173
     0
291
     0
 45
0.0
1001
ACAD
1000
AcDbSavedByObjectVersion
1070
     0
  0
VISUALSTYLE
  5
31
102
{ACAD_REACTORS
330
2A
102
}
330
2A
100
AcDbVisualStyle
  2
3D Hidden
 70
     6
 71
     1
 72
     2
 73
     2
 90
        0
 40
-0.6
 41
-30.0
 62
     5
 63
     7
 74
     2
 91
        2
 64
     7
 65
   257
 75
     2
175
     1
 42
40.0
 92
        0
 66
   257
 43
1.0
 76
     1
 77
     6
 78
     2
 67
     7
 79
     3
170
     0
171
     0
290
     0
174
     0
 93
        1
 44
0.0
173
     0
291
     0
 45
0.0
1001
ACAD
1000
AcDbSavedByObjectVersion
1070
     0
  0
VISUALSTYLE
  5
30
102
{ACAD_REACTORS
330
2A
102
}
330
2A
100
AcDbVisualStyle
  2
3dWireframe
 70
     5
 71
     0
 72
     2
 73
     0
 90
        0
 40
-0.6
 41
-30.0
 62
     5
 63
     7
 74
     1
 91
        4
 64
     7
 65
   257
 75
     1
175
     1
 42
1.0
 92
        0
 66
   257
 43
1.0
 76
     1
 77
     6
 78
     2
 67
     7
 79
     5
170
     0
171
     0
290
     0
174
     0
 93
        1
 44
0.0
173
     0
291
     0
 45
0.0
1001
ACAD
1000
AcDbSavedByObjectVersion
1070
     0
  0
VISUALSTYLE
  5
32
102
{ACAD_REACTORS
330
2A
102
}
330
2A
100
AcDbVisualStyle
  2
Basic
 70
     7
 71
     1
 72
     0
 73
     1
 90
        0
 40
-0.6
 41
-30.0
 62
     5
 63
     7
 74
     0
 91
        4
 64
     7
 65
   257
 75
     1
175
     1
 42
1.0
 92
        8
 66
     7
 43
1.0
 76
     1
 77
     6
 78
     2
 67
     7
 79
     5
170
     0
171
     0
290
     0
174
     0
 93
        1
 44
0.0
173
     0
291
     1
 45
0.0
1001
ACAD
1000
AcDbSavedByObjectVersion
1070
     0
  0
VISUALSTYLE
  5
36
102
{ACAD_REACTORS
330
2A
102
}
330
2A
100
AcDbVisualStyle
  2
Brighten
 70
    12
 71
     2
 72
     2
 73
     0
 90
        0
 40
-0.6
 41
-30.0
 62
     5
 63
     7
 74
     1
 91
        4
 64
     7
 65
   257
 75
     1
175
     1
 42
1.0
 92
        8
 66
     7
 43
1.0
 76
     1
 77
     6
 78
     2
 67
     7
 79
     5
170
     0
171
     0
290
     0
174
     0
 93
        1
 44
50.0
173
     0
291
     1
 45
0.0
1001
ACAD
1000
AcDbSavedByObjectVersion
1070
     0
  0
VISUALSTYLE
  5
3A
102
{ACAD_REACTORS
330
2A
102
}
330
2A
100
AcDbVisualStyle
  2
ColorChange
 70
    16
 71
     2
 72
     2
 73
     3
 90
        0
 40
-0.6
 41
-30.0
 62
     5
 63
     8
 74
     1
 91
        4
 64
     7
 65
   257
 75
     1
175
     1
 42
1.0
 92
        8
 66
     8
 43
1.0
 76
     1
 77
     6
 78
     2
 67
     7
 79
     5
170
     0
171
     0
290
     0
174
     0
 93
        1
 44
0.0
173
     0
291
     1
 45
0.0
1001
ACAD
1000
AcDbSavedByObjectVersion
1070
     0
  0
VISUALSTYLE
  5
34
102
{ACAD_REACTORS
330
2A
102
}
330
2A
100
AcDbVisualStyle
  2
Conceptual
 70
     9
 71
     3
 72
     2
 73
     0
 90
        0
 40
-0.6
 41
-30.0
 62
     5
 63
     7
 74
     2
 91
        2
 64
     7
 65
   257
 75
     1
175
     1
 42
40.0
 92
        8
 66
     7
 43
1.0
 76
     1
 77
     6
 78
     2
 67
     7
 79
     3
170
     0
171
     0
290
     0
174
     0
 93
        1
 44
0.0
173
     0
291
     0
 45
0.0
1001
ACAD
1000
AcDbSavedByObjectVersion
1070
     0
  0
VISUALSTYLE
  5
35
102
{ACAD_REACTORS
330
2A
102
}
330
2A
100
AcDbVisualStyle
  2
Dim
 70
    11
 71
     2
 72
     2
 73
     0
 90
        0
 40
-0.6
 41
-30.0
 62
     5
 63
     7
 74
     1
 91
        4
 64
     7
 65
   257
 75
     1
175
     1
 42
1.0
 92
        8
 66
     7
 43
1.0
 76
     1
 77
     6
 78
     2
 67
     7
 79
     5
170
     0
171
     0
290
     0
174
     0
 93
        1
 44
-50.0
173
     0
291
     1
 45
0.0
1001
ACAD
1000
AcDbSavedByObjectVersion
1070
     0
  0
VISUALSTYLE
  5
39
102
{ACAD_REACTORS
330
2A
102
}
330
2A
100
AcDbVisualStyle
  2
Facepattern
 70
    15
 71
     2
 72
     2
 73
     0
 90
        0
 40
-0.6
 41
-30.0
 62
     5
 63
     7
 74
     1
 91
        4
 64
     7
 65
   257
 75
     1
175
     1
 42
1.0
 92
        8
 66
     7
 43
1.0
 76
     1
 77
     6
 78
     2
 67
     7
 79
     5
170
     0
171
     0
290
     0
174
     0
 93
        1
 44
0.0
173
     0
291
     1
 45
0.0
1001
ACAD
1000
AcDbSavedByObjectVersion
1070
     0
  0
VISUALSTYLE
  5
2B
102
{ACAD_REACTORS
330
2A
102
}
330
2A
100
AcDbVisualStyle
  2
Flat
 70
     0
 71
     2
 72
     1
 73
     1
 90
        2
 40
-0.6
 41
30.0
 62
     5
 63
     7
 74
     0
 91
        4
 64
     7
 65
   257
 75
     1
175
     1
 42
1.0
 92
        8
 66
     7
 43
1.0
 76
     1
 77
     6
 78
     2
 67
     7
 79
     5
170
     0
171
     0
290
     0
174
     0
 93
       13
 44
0.0
173
     0
291
     1
 45
0.0
1001
ACAD
1000
AcDbSavedByObjectVersion
1070
     0
  0
VISUALSTYLE
  5
2C
102
{ACAD_REACTORS
330
2A
102
}
330
2A
100
AcDbVisualStyle
  2
FlatWithEdges
 70
     1
 71
     2
 72
     1
 73
     1
 90
        2
 40
-0.6
 41
30.0
 62
     5
 63
     7
 74
     1
 91
        4
 64
     7
 65
   257
 75
     1
175
     1
 42
1.0
 92
        0
 66
   257
 43
1.0
 76
     1
 77
     6
 78
     2
 67
     7
 79
     5
170
     0
171
     0
290
     0
174
     0
 93
       13
 44
0.0
173
     0
291
     1
 45
0.0
1001
ACAD
1000
AcDbSavedByObjectVersion
1070
     0
  0
VISUALSTYLE
  5
2D
102
{ACAD_REACTORS
330
2A
102
}
330
2A
100
AcDbVisualStyle
  2
Gouraud
 70
     2
 71
     2
 72
     2
 73
     1
 90
        2
 40
-0.6
 41
30.0
 62
     5
 63
     7
 74
     0
 91
        4
 64
     7
 65
   257
 75
     1
175
     1
 42
1.0
 92
        0
 66
     7
 43
1.0
 76
     1
 77
     6
 78
     2
 67
     7
 79
     5
170
     0
171
     0
290
     0
174
     0
 93
       13
 44
0.0
173
     0
291
     1
 45
0.0
1001
ACAD
1000
AcDbSavedByObjectVersion
1070
     0
  0
VISUALSTYLE
  5
2E
102
{ACAD_REACTORS
330
2A
102
}
330
2A
100
AcDbVisualStyle
  2
GouraudWithEdges
 70
     3
 71
     2
 72
     2
 73
     1
 90
        2
 40
-0.6
 41
30.0
 62
     5
 63
     7
 74
     1
 91
        4
 64
     7
 65
   257
 75
     1
175
     1
 42
1.0
 92
        0
 66
   257
 43
1.0
 76
     1
 77
     6
 78
     2
 67
     7
 79
     5
170
     0
171
     0
290
     0
174
     0
 93
       13
 44
0.0
173
     0
291
     1
 45
0.0
1001
ACAD
1000
AcDbSavedByObjectVersion
1070
     0
  0
VISUALSTYLE
  5
38
102
{ACAD_REACTORS
330
2A
102
}
330
2A
100
AcDbVisualStyle
  2
Linepattern
 70
    14
 71
     2
 72
     2
 73
     0
 90
        0
 40
-0.6
 41
-30.0
 62
     5
 63
     7
 74
     1
 91
        4
 64
     7
 65
   257
 75
     7
175
     7
 42
1.0
 92
        8
 66
     7
 43
1.0
 76
     1
 77
     6
 78
     2
 67
     7
 79
     5
170
     0
171
     0
290
     0
174
     0
 93
        1
 44
0.0
173
     0
291
     1
 45
0.0
1001
ACAD
1000
AcDbSavedByObjectVersion
1070
     0
  0
VISUALSTYLE
  5
33
102
{ACAD_REACTORS
330
2A
102
}
330
2A
100
AcDbVisualStyle
  2
Realistic
 70
     8
 71
     2
 72
     2
 73
     0
 90
        0
 40
-0.6
 41
-30.0
 62
     5
 63
     7
 74
     1
 91
        0
 64
     7
 65
   257
 75
     1
175
     1
 42
1.0
 92
        8
 66
     8
 43
1.0
 76
     1
 77
     6
 78
     2
 67
     7
 79
     5
170
     0
171
     0
290
     0
174
     0
 93
       13
 44
0.0
173
     0
291
     0
 45
0.0
1001
ACAD
1000
AcDbSavedByObjectVersion
1070
     0
  0
VISUALSTYLE
  5
37
102
{ACAD_REACTORS
330
2A
102
}
330
2A
100
AcDbVisualStyle
  2
Thicken
 70
    13
 71
     2
 72
     2
 73
     0
 90
        0
 40
-0.6
 41
-30.0
 62
     5
 63
     7
 74
     1
 91
        4
 64
     7
 65
   257
 75
     1
175
     1
 42
1.0
 92
       12
 66
     7
 43
1.0
 76
     1
 77
     6
 78
     2
 67
     7
 79
     5
170
     0
171
     0
290
     0
174
     0
 93
        1
 44
0.0
173
     0
291
     1
 45
0.0
1001
ACAD
1000
AcDbSavedByObjectVersion
1070
     0
  0
DICTIONARYVAR
  5
127
102
{ACAD_REACTORS
330
123
102
}
330
123
100
DictionaryVariables
280
     0
  1
80.000000
  0
DICTIONARYVAR
  5
126
102
{ACAD_REACTORS
330
123
102
}
330
123
100
DictionaryVariables
280
     0
  1
5.000000
  0
ENDSEC
  0
EOF
