  0
SECTION
  2
HEADER
  9
$ACADVER
  1
AC1024
  9
$ACADMAINTVER
 70
     6
  9
$DWGCODEPAGE
  3
ANSI_1252
  9
$INSBASE
 10
0.0
 20
0.0
 30
0.0
  9
$EXTMIN
 10
1.000000E+20
 20
1.000000E+20
 30
1.000000E+20
  9
$EXTMAX
 10
-1.000000E+20
 20
-1.000000E+20
 30
-1.000000E+20
  9
$LIMMIN
 10
0.0
 20
0.0
  9
$LIMMAX
 10
420.0
 20
297.0
  9
$ORTHOMODE
 70
     0
  9
$REGENMODE
 70
     1
  9
$FILLMODE
 70
     1
  9
$QTEXTMODE
 70
     0
  9
$MIRRTEXT
 70
     1
  9
$LTSCALE
 40
1.0
  9
$ATTMODE
 70
     1
  9
$TEXTSIZE
 40
2.5
  9
$TRACEWID
 40
1.0
  9
$TEXTSTYLE
  7
Standard
  9
$CLAYER
  8
0
  9
$CELTYPE
  6
ByLayer
  9
$CECOLOR
 62
   256
  9
$CELTSCALE
 40
1.0
  9
$DISPSILH
 70
     0
  9
$DIMSCALE
 40
1.0
  9
$DIMASZ
 40
2.5
  9
$DIMEXO
 40
0.625
  9
$DIMDLI
 40
3.75
  9
$DIMRND
 40
0.0
  9
$DIMDLE
 40
0.0
  9
$DIMEXE
 40
1.25
  9
$DIMTP
 40
0.0
  9
$DIMTM
 40
0.0
  9
$DIMTXT
 40
2.5
  9
$DIMCEN
 40
2.5
  9
$DIMTSZ
 40
0.0
  9
$DIMTOL
 70
     0
  9
$DIMLIM
 70
     0
  9
$DIMTIH
 70
     0
  9
$DIMTOH
 70
     0
  9
$DIMSE1
 70
     0
  9
$DIMSE2
 70
     0
  9
$DIMTAD
 70
     1
  9
$DIMZIN
 70
     8
  9
$DIMBLK
  1

  9
$DIMASO
 70
     1
  9
$DIMSHO
 70
     1
  9
$DIMPOST
  1

  9
$DIMAPOST
  1

  9
$DIMALT
 70
     0
  9
$DIMALTD
 70
     3
  9
$DIMALTF
 40
0.03937
  9
$DIMLFAC
 40
1.0
  9
$DIMTOFL
 70
     1
  9
$DIMTVP
 40
0.0
  9
$DIMTIX
 70
     0
  9
$DIMSOXD
 70
     0
  9
$DIMSAH
 70
     0
  9
$DIMBLK1
  1

  9
$DIMBLK2
  1

  9
$DIMSTYLE
  2
ISO-25
  9
$DIMCLRD
 70
     0
  9
$DIMCLRE
 70
     0
  9
$DIMCLRT
 70
     0
  9
$DIMTFAC
 40
1.0
  9
$DIMGAP
 40
0.625
  9
$DIMJUST
 70
     0
  9
$DIMSD1
 70
     0
  9
$DIMSD2
 70
     0
  9
$DIMTOLJ
 70
     0
  9
$DIMTZIN
 70
     8
  9
$DIMALTZ
 70
     0
  9
$DIMALTTZ
 70
     0
  9
$DIMUPT
 70
     0
  9
$DIMDEC
 70
     2
  9
$DIMTDEC
 70
     2
  9
$DIMALTU
 70
     2
  9
$DIMALTTD
 70
     3
  9
$DIMTXSTY
  7
Standard
  9
$DIMAUNIT
 70
     0
  9
$DIMADEC
 70
     0
  9
$DIMALTRND
 40
0.0
  9
$DIMAZIN
 70
     0
  9
$DIMDSEP
 70
    44
  9
$DIMATFIT
 70
     3
  9
$DIMFRAC
 70
     0
  9
$DIMLDRBLK
  1

  9
$DIMLUNIT
 70
     2
  9
$DIMLWD
 70
    -2
  9
$DIMLWE
 70
    -2
  9
$DIMTMOVE
 70
     0
  9
$DIMFXL
 40
1.0
  9
$DIMFXLON
 70
     0
  9
$DIMJOGANG
 40
0.785398
  9
$DIMTFILL
 70
     0
  9
$DIMTFILLCLR
 70
     0
  9
$DIMARCSYM
 70
     0
  9
$DIMLTYPE
  6

  9
$DIMLTEX1
  6

  9
$DIMLTEX2
  6

  9
$DIMTXTDIRECTION
 70
     0
  9
$LUNITS
 70
     2
  9
$LUPREC
 70
     4
  9
$SKETCHINC
 40
1.0
  9
$FILLETRAD
 40
10.0
  9
$AUNITS
 70
     0
  9
$AUPREC
 70
     0
  9
$MENU
  1
.
  9
$ELEVATION
 40
0.0
  9
$PELEVATION
 40
0.0
  9
$THICKNESS
 40
0.0
  9
$LIMCHECK
 70
     0
  9
$CHAMFERA
 40
0.0
  9
$CHAMFERB
 40
0.0
  9
$CHAMFERC
 40
0.0
  9
$CHAMFERD
 40
0.0
  9
$SKPOLY
 70
     0
  9
$TDCREATE
 40
2457813.488486424
  9
$TDUCREATE
 40
2457813.446819757
  9
$TDUPDATE
 40
2457813.488487327
  9
$TDUUPDATE
 40
2457813.44682066
  9
$TDINDWG
 40
0.0000000116
  9
$TDUSRTIMER
 40
0.0000000116
  9
$USRTIMER
 70
     1
  9
$ANGBASE
 50
0.0
  9
$ANGDIR
 70
     0
  9
$PDMODE
 70
     0
  9
$PDSIZE
 40
0.0
  9
$PLINEWID
 40
0.0
  9
$SPLFRAME
 70
     0
  9
$SPLINETYPE
 70
     6
  9
$SPLINESEGS
 70
     8
  9
$HANDSEED
  5
137
  9
$SURFTAB1
 70
     6
  9
$SURFTAB2
 70
     6
  9
$SURFTYPE
 70
     6
  9
$SURFU
 70
     6
  9
$SURFV
 70
     6
  9
$UCSBASE
  2

  9
$UCSNAME
  2

  9
$UCSORG
 10
0.0
 20
0.0
 30
0.0
  9
$UCSXDIR
 10
1.0
 20
0.0
 30
0.0
  9
$UCSYDIR
 10
0.0
 20
1.0
 30
0.0
  9
$UCSORTHOREF
  2

  9
$UCSORTHOVIEW
 70
     0
  9
$UCSORGTOP
 10
0.0
 20
0.0
 30
0.0
  9
$UCSORGBOTTOM
 10
0.0
 20
0.0
 30
0.0
  9
$UCSORGLEFT
 10
0.0
 20
0.0
 30
0.0
  9
$UCSORGRIGHT
 10
0.0
 20
0.0
 30
0.0
  9
$UCSORGFRONT
 10
0.0
 20
0.0
 30
0.0
  9
$UCSORGBACK
 10
0.0
 20
0.0
 30
0.0
  9
$PUCSBASE
  2

  9
$PUCSNAME
  2

  9
$PUCSORG
 10
0.0
 20
0.0
 30
0.0
  9
$PUCSXDIR
 10
1.0
 20
0.0
 30
0.0
  9
$PUCSYDIR
 10
0.0
 20
1.0
 30
0.0
  9
$PUCSORTHOREF
  2

  9
$PUCSORTHOVIEW
 70
     0
  9
$PUCSORGTOP
 10
0.0
 20
0.0
 30
0.0
  9
$PUCSORGBOTTOM
 10
0.0
 20
0.0
 30
0.0
  9
$PUCSORGLEFT
 10
0.0
 20
0.0
 30
0.0
  9
$PUCSORGRIGHT
 10
0.0
 20
0.0
 30
0.0
  9
$PUCSORGFRONT
 10
0.0
 20
0.0
 30
0.0
  9
$PUCSORGBACK
 10
0.0
 20
0.0
 30
0.0
  9
$USERI1
 70
     0
  9
$USERI2
 70
     0
  9
$USERI3
 70
     0
  9
$USERI4
 70
     0
  9
$USERI5
 70
     0
  9
$USERR1
 40
0.0
  9
$USERR2
 40
0.0
  9
$USERR3
 40
0.0
  9
$USERR4
 40
0.0
  9
$USERR5
 40
0.0
  9
$WORLDVIEW
 70
     1
  9
$SHADEDGE
 70
     3
  9
$SHADEDIF
 70
    70
  9
$TILEMODE
 70
     1
  9
$MAXACTVP
 70
    64
  9
$PINSBASE
 10
0.0
 20
0.0
 30
0.0
  9
$PLIMCHECK
 70
     0
  9
$PEXTMIN
 10
1.000000E+20
 20
1.000000E+20
 30
1.000000E+20
  9
$PEXTMAX
 10
-1.000000E+20
 20
-1.000000E+20
 30
-1.000000E+20
  9
$PLIMMIN
 10
0.0
 20
0.0
  9
$PLIMMAX
 10
420.0
 20
297.0
  9
$UNITMODE
 70
     0
  9
$VISRETAIN
 70
     1
  9
$PLINEGEN
 70
     0
  9
$PSLTSCALE
 70
     1
  9
$TREEDEPTH
 70
  3020
  9
$CMLSTYLE
  2
Standard
  9
$CMLJUST
 70
     0
  9
$CMLSCALE
 40
20.0
  9
$PROXYGRAPHICS
 70
     1
  9
$MEASUREMENT
 70
     1
  9
$CELWEIGHT
370
    -1
  9
$ENDCAPS
280
     0
  9
$JOINSTYLE
280
     0
  9
$LWDISPLAY
290
     0
  9
$INSUNITS
 70
     4
  9
$HYPERLINKBASE
  1

  9
$STYLESHEET
  1

  9
$XEDIT
290
     1
  9
$CEPSNTYPE
380
     0
  9
$PSTYLEMODE
290
     1
  9
$FINGERPRINTGUID
  2
{3EB45AB4-8463-4633-945A-0515AA1FBE9F}
  9
$VERSIONGUID
  2
{FAEB1C32-E019-11D5-929B-00C0DF256EC4}
  9
$EXTNAMES
290
     1
  9
$PSVPSCALE
 40
0.0
  9
$OLESTARTUP
290
     0
  9
$SORTENTS
280
   127
  9
$INDEXCTL
280
     0
  9
$HIDETEXT
280
     1
  9
$XCLIPFRAME
280
     2
  9
$HALOGAP
280
     0
  9
$OBSCOLOR
 70
   257
  9
$OBSLTYPE
280
     0
  9
$INTERSECTIONDISPLAY
280
     0
  9
$INTERSECTIONCOLOR
 70
   257
  9
$DIMASSOC
280
     2
  9
$PROJECTNAME
  1

  9
$CAMERADISPLAY
290
     0
  9
$LENSLENGTH
 40
50.0
  9
$CAMERAHEIGHT
 40
0.0
  9
$STEPSPERSEC
 40
2.0
  9
$STEPSIZE
 40
6.0
  9
$3DDWFPREC
 40
2.0
  9
$PSOLWIDTH
 40
5.0
  9
$PSOLHEIGHT
 40
80.0
  9
$LOFTANG1
 40
1.570796
  9
$LOFTANG2
 40
1.570796
  9
$LOFTMAG1
 40
0.0
  9
$LOFTMAG2
 40
0.0
  9
$LOFTPARAM
 70
     7
  9
$LOFTNORMALS
280
     1
  9
$LATITUDE
 40
37.795
  9
$LONGITUDE
 40
-122.394
  9
$NORTHDIRECTION
 40
0.0
  9
$TIMEZONE
 70
 -8000
  9
$LIGHTGLYPHDISPLAY
280
     1
  9
$TILEMODELIGHTSYNCH
280
     1
  9
$CMATERIAL
347
44
  9
$SOLIDHIST
280
     0
  9
$SHOWHIST
280
     1
  9
$DWFFRAME
280
     2
  9
$DGNFRAME
280
     2
  9
$REALWORLDSCALE
290
     1
  9
$INTERFERECOLOR
 62
   256
  9
$CSHADOW
280
     0
  9
$SHADOWPLANELOCATION
 40
0.0
  0
ENDSEC
  0
SECTION
  2
CLASSES
  0
CLASS
  1
ACDBDICTIONARYWDFLT
  2
AcDbDictionaryWithDefault
  3
ObjectDBX Classes
 90
        0
 91
        4
280
     0
281
     0
  0
CLASS
  1
VISUALSTYLE
  2
AcDbVisualStyle
  3
ObjectDBX Classes
 90
     4095
 91
        4
280
     0
281
     0
  0
CLASS
  1
MATERIAL
  2
AcDbMaterial
  3
ObjectDBX Classes
 90
     1153
 91
        4
280
     0
281
     0
  0
CLASS
  1
SCALE
  2
AcDbScale
  3
ObjectDBX Classes
 90
     1153
 91
        4
280
     0
281
     0
  0
CLASS
  1
TABLESTYLE
  2
AcDbTableStyle
  3
ObjectDBX Classes
 90
     4095
 91
        4
280
     0
281
     0
  0
CLASS
  1
MLEADERSTYLE
  2
AcDbMLeaderStyle
  3
ACDB_MLEADERSTYLE_CLASS
 90
     4095
 91
        4
280
     0
281
     0
  0
CLASS
  1
SUN
  2
AcDbSun
  3
SCENEOE
 90
     1153
 91
        4
280
     0
281
     0
  0
CLASS
  1
DICTIONARYVAR
  2
AcDbDictionaryVar
  3
ObjectDBX Classes
 90
        0
 91
        4
280
     0
281
     0
  0
CLASS
  1
CELLSTYLEMAP
  2
AcDbCellStyleMap
  3
ObjectDBX Classes
 90
     1152
 91
        4
280
     0
281
     0
  0
ENDSEC
  0
SECTION
  2
TABLES
  0
TABLE
  2
VPORT
  5
8
330
0
100
AcDbSymbolTable
 70
     1
  0
VPORT
  5
29
330
8
100
AcDbSymbolTableRecord
100
AcDbViewportTableRecord
  2
*Active
 70
     0
 10
0.0
 20
0.0
 11
1.0
 21
1.0
 12
344.186916
 22
148.5
 13
0.0
 23
0.0
 14
10.0
 24
10.0
 15
10.0
 25
10.0
 16
0.0
 26
0.0
 36
1.0
 17
0.0
 27
0.0
 37
0.0
 40
297.0
 41
1.972973
 42
50.0
 43
0.0
 44
0.0
 50
0.0
 51
0.0
 71
     0
 72
   100
 73
     1
 74
     3
 75
     0
 76
     0
 77
     0
 78
     0
281
     0
 65
     1
110
0.0
120
0.0
130
0.0
111
1.0
121
0.0
131
0.0
112
0.0
122
1.0
132
0.0
 79
     0
146
0.0
348
2F
 60
     3
 61
     5
292
     1
282
     1
141
0.0
142
0.0
 63
   250
361
6D
  0
ENDTAB
  0
TABLE
  2
LTYPE
  5
5
330
0
100
AcDbSymbolTable
 70
     1
  0
LTYPE
  5
14
330
5
100
AcDbSymbolTableRecord
100
AcDbLinetypeTableRecord
  2
ByBlock
 70
     0
  3

 72
    65
 73
     0
 40
0.0
  0
LTYPE
  5
15
330
5
100
AcDbSymbolTableRecord
100
AcDbLinetypeTableRecord
  2
ByLayer
 70
     0
  3

 72
    65
 73
     0
 40
0.0
  0
LTYPE
  5
16
330
5
100
AcDbSymbolTableRecord
100
AcDbLinetypeTableRecord
  2
Continuous
 70
     0
  3
Solid line
 72
    65
 73
     0
 40
0.0
  0
ENDTAB
  0
TABLE
  2
LAYER
  5
2
330
0
100
AcDbSymbolTable
 70
     1
  0
LAYER
  5
10
330
2
100
AcDbSymbolTableRecord
100
AcDbLayerTableRecord
  2
0
 70
     0
 62
   106
  6
Continuous
370
     0
390
F
347
46
  0
ENDTAB
  0
TABLE
  2
STYLE
  5
3
330
0
100
AcDbSymbolTable
 70
     2
  0
STYLE
  5
11
330
3
100
AcDbSymbolTableRecord
100
AcDbTextStyleTableRecord
  2
Standard
 70
     0
 40
0.0
 41
1.0
 50
0.0
 71
     0
 42
2.5
  3
txt
  4

  0
STYLE
  5
6E
330
3
100
AcDbSymbolTableRecord
100
AcDbTextStyleTableRecord
  2
Default
 70
     0
 40
0.0
 41
1.0
 50
0.0
 71
     0
 42
2.5
  3

  4

1001
ACAD
1000
txt
1071
        0
  0
ENDTAB
  0
TABLE
  2
VIEW
  5
6
330
0
100
AcDbSymbolTable
 70
     0
  0
ENDTAB
  0
TABLE
  2
UCS
  5
7
330
0
100
AcDbSymbolTable
 70
     0
  0
ENDTAB
  0
TABLE
  2
APPID
  5
9
330
0
100
AcDbSymbolTable
 70
     1
  0
APPID
  5
12
330
9
100
AcDbSymbolTableRecord
100
AcDbRegAppTableRecord
  2
ACAD
 70
     0
  0
ENDTAB
  0
TABLE
  2
DIMSTYLE
  5
A
330
0
100
AcDbSymbolTable
 70
     2
100
AcDbDimStyleTable
  0
DIMSTYLE
105
27
330
A
100
AcDbSymbolTableRecord
100
AcDbDimStyleTableRecord
  2
ISO-25
 70
     0
 41
2.5
 42
0.625
 43
3.75
 44
1.25
 73
     0
 74
     0
 77
     1
 78
     8
140
2.5
141
2.5
143
0.03937
147
0.625
171
     3
172
     1
178
     0
271
     2
272
     2
274
     3
278
    44
283
     0
284
     8
340
11
  0
DIMSTYLE
105
6F
330
A
100
AcDbSymbolTableRecord
100
AcDbDimStyleTableRecord
  2
Default
 70
     0
  3
<>
 41
4.375
 42
1.05
 44
2.1
 49
10.01
 73
     0
 74
     0
 77
     1
 78
     8
140
3.5
146
0.4
147
1.75
172
     1
271
     2
178
     3
271
     2
272
     3
284
     8
340
6E
341
70
342
70
  0
ENDTAB
  0
TABLE
  2
BLOCK_RECORD
  5
1
330
0
100
AcDbSymbolTable
 70
     2
  0
BLOCK_RECORD
  5
1F
330
1
100
AcDbSymbolTableRecord
100
AcDbBlockTableRecord
  2
*Model_Space
340
22
 70
     0
280
     1
281
     0
  0
BLOCK_RECORD
  5
1B
330
1
100
AcDbSymbolTableRecord
100
AcDbBlockTableRecord
  2
*Paper_Space
340
1E
 70
     0
280
     1
281
     0
  0
BLOCK_RECORD
  5
23
330
1
100
AcDbSymbolTableRecord
100
AcDbBlockTableRecord
  2
*Paper_Space0
340
26
 70
     0
280
     1
281
     0
  0
BLOCK_RECORD
  5
70
330
1
100
AcDbSymbolTableRecord
100
AcDbBlockTableRecord
  2
_CLOSED
340
0
 70
     0
280
     1
281
     0
  0
ENDTAB
  0
ENDSEC
  0
SECTION
  2
BLOCKS
  0
BLOCK
  5
20
330
1F
100
AcDbEntity
  8
0
100
AcDbBlockBegin
  2
*Model_Space
 70
     0
 10
0.0
 20
0.0
 30
0.0
  3
*Model_Space
  1

  0
ENDBLK
  5
21
330
1F
100
AcDbEntity
  8
0
100
AcDbBlockEnd
  0
BLOCK
  5
1C
330
1B
100
AcDbEntity
 67
     1
  8
0
100
AcDbBlockBegin
  2
*Paper_Space
 70
     0
 10
0.0
 20
0.0
 30
0.0
  3
*Paper_Space
  1

  0
ENDBLK
  5
1D
330
1B
100
AcDbEntity
 67
     1
  8
0
100
AcDbBlockEnd
  0
BLOCK
  5
24
330
23
100
AcDbEntity
  8
0
100
AcDbBlockBegin
  2
*Paper_Space0
 70
     0
 10
0.0
 20
0.0
 30
0.0
  3
*Paper_Space0
  1

  0
ENDBLK
  5
25
330
23
100
AcDbEntity
  8
0
100
AcDbBlockEnd
  0
BLOCK
  5
71
330
70
100
AcDbEntity
  8
0
100
AcDbBlockBegin
  2
_CLOSED
 70
     0
 10
0.0
 20
0.0
 30
0.0
  3
_CLOSED
  1

  0
LINE
  5
73
330
70
100
AcDbEntity
  8
0
  6
ByBlock
 62
     0
370
    -2
100
AcDbLine
 10
-1.0
 20
0.166667
 30
0.0
 11
0.0
 21
0.0
 31
0.0
  0
LINE
  5
74
330
70
100
AcDbEntity
  8
0
  6
ByBlock
 62
     0
370
    -2
100
AcDbLine
 10
0.0
 20
0.0
 30
0.0
 11
-1.0
 21
-0.166667
 31
0.0
  0
LINE
  5
75
330
70
100
AcDbEntity
  8
0
  6
ByBlock
 62
     0
370
    -2
100
AcDbLine
 10
-1.0
 20
0.166667
 30
0.0
 11
-1.0
 21
-0.166667
 31
0.0
  0
LINE
  5
76
330
70
100
AcDbEntity
  8
0
  6
ByBlock
 62
     0
370
    -2
100
AcDbLine
 10
0.0
 20
0.0
 30
0.0
 11
-1.0
 21
0.0
 31
0.0
  0
ENDBLK
  5
72
330
70
100
AcDbEntity
  8
0
100
AcDbBlockEnd
  0
ENDSEC
  0
SECTION
  2
ENTITIES
  0
ELLIPSE
  5
77
330
1F
100
AcDbEntity
  8
0
  6
Continuous
 62
    18
420
        0
370
    30
100
AcDbEllipse
 10
-6.45896
 20
-1.121962
 30
0.0
 11
-24.32517357491819
 21
-51.5487432879136
 31
0.0
210
0.0
220
0.0
230
-1.0
 40
0.657285
 41
2.55652100448675
 42
5.698113658076545
  0
ELLIPSE
  5
78
330
1F
100
AcDbEntity
  8
0
  6
Continuous
 62
    18
420
        0
370
    30
100
AcDbEllipse
 10
-6.45896
 20
-1.121962
 30
0.0
 11
-24.32517357491819
 21
-51.5487432879136
 31
0.0
210
0.0
220
0.0
230
-1.0
 40
0.657285
 41
5.698113658076545
 42
8.839706311666337
  0
ELLIPSE
  5
79
330
1F
100
AcDbEntity
  8
0
  6
Continuous
 62
    18
420
        0
370
    30
100
AcDbEllipse
 10
-3.528374
 20
50.039405
 30
0.0
 11
-0.6827868225388928
 21
1.879836736257501
 31
0.0
210
0.0
220
0.0
230
-1.0
 40
0.62829
 41
5.27687664721404
 42
6.847672974005334
  0
ELLIPSE
  5
7A
330
1F
100
AcDbEntity
  8
0
  6
Continuous
 62
    18
420
        0
370
    30
100
AcDbEllipse
 10
-5.095827
 20
-1.765206
 30
0.0
 11
-25.17868843719587
 21
-53.35747112257694
 31
0.0
210
0.0
220
0.0
230
-1.0
 40
0.657285
 41
2.556521004486752
 42
5.698113658076543
  0
ELLIPSE
  5
7B
330
1F
100
AcDbEntity
  8
0
  6
Continuous
 62
    18
420
        0
370
    30
100
AcDbEllipse
 10
-5.095827
 20
-1.765206
 30
0.0
 11
-25.17868843719587
 21
-53.35747112257694
 31
0.0
210
0.0
220
0.0
230
-1.0
 40
0.657285
 41
5.698113658076543
 42
8.839706311666339
  0
LINE
  5
7C
330
1F
100
AcDbEntity
  8
0
  6
Continuous
 62
    18
420
        0
370
    30
100
AcDbLine
 10
-3.473375
 20
51.85711
 30
0.0
 11
3.00147
 21
48.801716
 31
0.0
  0
ELLIPSE
  5
7D
330
1F
100
AcDbEntity
  8
0
  6
Continuous
 62
    18
420
        0
370
    30
100
AcDbEllipse
 10
1.379018
 20
-4.820601
 30
0.0
 11
-25.17868843719631
 21
-53.35747112257787
 31
0.0
210
0.0
220
0.0
230
-1.0
 40
0.657285
 41
2.556521004486751
 42
5.698113658076542
  0
ELLIPSE
  5
7E
330
1F
100
AcDbEntity
  8
0
  6
Continuous
 62
    18
420
        0
370
    30
100
AcDbEllipse
 10
1.379018
 20
-4.820601
 30
0.0
 11
-25.17868843719631
 21
-53.35747112257787
 31
0.0
210
0.0
220
0.0
230
-1.0
 40
0.657285
 41
5.698113658076542
 42
8.839706311666337
  0
ELLIPSE
  5
7F
330
1F
100
AcDbEntity
  8
0
  6
Continuous
 62
    18
420
        0
370
    30
100
AcDbEllipse
 10
2.946472
 20
46.98401
 30
0.0
 11
-0.6827868225388914
 21
1.879836736257497
 31
0.0
210
0.0
220
0.0
230
-1.0
 40
0.62829
 41
0.5644876668329937
 42
2.135283993624247
  0
ELLIPSE
  5
80
330
1F
100
AcDbEntity
  8
0
  6
Continuous
 62
    18
420
        0
370
    30
100
AcDbEllipse
 10
2.742151
 20
-5.463845
 30
0.0
 11
-24.32517357491839
 21
-51.54874328791404
 31
0.0
210
0.0
220
0.0
230
-1.0
 40
0.657285
 41
2.55652100448675
 42
5.698113658076543
  0
ELLIPSE
  5
81
330
1F
100
AcDbEntity
  8
0
  6
Continuous
 62
    18
420
        0
370
    30
100
AcDbEllipse
 10
2.742151
 20
-5.463845
 30
0.0
 11
-24.32517357491839
 21
-51.54874328791404
 31
0.0
210
0.0
220
0.0
230
-1.0
 40
0.657285
 41
5.698113658076543
 42
8.839706311666337
  0
ARC
  5
82
330
1F
100
AcDbEntity
  8
0
  6
Continuous
 62
    18
420
        0
370
     0
100
AcDbCircle
 10
36.476753
 20
9.98733
 30
0.0
 40
4.220700438571531
100
AcDbArc
 50
68.156867
 51
107.301333
  0
ARC
  5
83
330
1F
100
AcDbEntity
  8
0
  6
Continuous
 62
    18
420
        0
370
     0
100
AcDbCircle
 10
-5.248888
 20
-53.02831
 30
0.0
 40
2.779388311214212
100
AcDbArc
 50
177.902281
 51
238.08407
  0
ARC
  5
84
330
1F
100
AcDbEntity
  8
0
  6
Continuous
 62
    18
420
        0
370
     0
100
AcDbCircle
 10
-48.185464
 20
-16.848512
 30
0.0
 40
0.5893274520258315
100
AcDbArc
 50
85.521819
 51
264.808403
  0
LWPOLYLINE
  5
85
330
1F
100
AcDbEntity
  8
0
  6
Continuous
 62
    18
420
        0
370
     0
100
AcDbPolyline
 90
      179
 70
     0
 43
0.0
 10
-4.775554
 20
51.306572
 10
-3.426105
 20
51.770164
 10
-2.062431
 20
52.18449
 10
-0.686501
 20
52.546898
 10
0.69957
 20
52.854805
 10
2.093529
 20
53.105698
 10
3.492986
 20
53.29718
 10
4.895426
 20
53.42696
 10
6.298216
 20
53.492901
 10
7.698616
 20
53.493027
 10
9.093792
 20
53.425552
 10
10.480834
 20
53.288891
 10
11.856767
 20
53.081688
 10
13.21857
 20
52.802826
 10
14.563196
 20
52.451462
 10
15.887595
 20
52.027008
 10
17.188726
 20
51.529175
 10
18.463585
 20
50.95797
 10
19.709229
 20
50.313702
 10
20.922785
 20
49.596989
 10
22.101486
 20
48.808746
 10
23.242683
 20
47.950211
 10
24.343868
 20
47.022911
 10
25.402687
 20
46.028664
 10
26.416965
 20
44.969574
 10
27.384712
 20
43.848003
 10
28.304144
 20
42.666565
 10
29.173685
 20
41.428097
 10
29.991987
 20
40.135643
 10
30.757921
 20
38.792431
 10
31.470598
 20
37.401844
 10
32.129353
 20
35.967392
 10
32.733757
 20
34.492691
 10
33.283607
 20
32.981434
 10
33.778923
 20
31.437366
 10
34.219933
 20
29.864252
 10
34.607079
 20
28.265856
 10
34.94099
 20
26.645916
 10
35.222481
 20
25.008121
 10
35.452534
 20
23.356094
 10
35.632278
 20
21.693363
 10
35.763
 20
20.023354
 10
35.846088
 20
18.349367
 10
35.88306
 20
16.67457
 10
35.875511
 20
15.001987
 10
35.82489
 20
13.328968
 10
35.730267
 20
11.624757
 10
35.59
 20
9.885586
 10
35.402637
 20
8.113366
 10
35.166832
 20
6.310229
 10
34.881355
 20
4.47852
 10
34.545109
 20
2.620804
 10
34.15715
 20
0.739856
 10
33.716702
 20
-1.161344
 10
33.223148
 20
-3.079623
 10
32.676086
 20
-5.011623
 10
32.075287
 20
-6.953817
 10
31.420748
 20
-8.902526
 10
30.712679
 20
-10.853937
 10
29.951515
 20
-12.804128
 10
29.137915
 20
-14.749084
 10
28.27277
 20
-16.684731
 10
27.357203
 20
-18.606953
 10
26.392559
 20
-20.511627
 10
25.380407
 20
-22.394648
 10
24.322527
 20
-24.251959
 10
23.220907
 20
-26.079576
 10
22.077721
 20
-27.873627
 10
20.895325
 20
-29.63036
 10
19.676235
 20
-31.346189
 10
18.423109
 20
-33.017708
 10
17.138729
 20
-34.641716
 10
15.825983
 20
-36.215229
 10
14.487841
 20
-37.735519
 10
13.127334
 20
-39.2001
 10
11.747531
 20
-40.606762
 10
10.351521
 20
-41.953571
 10
8.942392
 20
-43.23888
 10
7.523203
 20
-44.461315
 10
6.096973
 20
-45.619804
 10
4.666662
 20
-46.713539
 10
3.235148
 20
-47.742008
 10
1.805217
 20
-48.70496
 10
0.37955
 20
-49.60239
 10
-1.039293
 20
-50.434563
 10
-2.448879
 20
-51.201962
 10
-3.846915
 20
-51.905289
 10
-5.231248
 20
-52.545452
 10
-6.599877
 20
-53.123543
 10
-7.950951
 20
-53.640823
 10
-9.3004
 20
-54.104416
 10
-10.664074
 20
-54.518742
 10
-12.040004
 20
-54.881149
 10
-13.426075
 20
-55.189053
 10
-14.820033
 20
-55.439949
 10
-16.21949
 20
-55.631428
 10
-17.621931
 20
-55.761208
 10
-19.024721
 20
-55.827152
 10
-20.425119
 20
-55.827278
 10
-21.820297
 20
-55.759804
 10
-23.207338
 20
-55.623142
 10
-24.583271
 20
-55.415939
 10
-25.945074
 20
-55.137077
 10
-27.289701
 20
-54.785709
 10
-28.6141
 20
-54.361256
 10
-29.91523
 20
-53.863426
 10
-31.19009
 20
-53.292221
 10
-32.435734
 20
-52.647953
 10
-33.649288
 20
-51.931236
 10
-34.827991
 20
-51.142998
 10
-35.969189
 20
-50.284462
 10
-37.070374
 20
-49.357162
 10
-38.129192
 20
-48.362915
 10
-39.143471
 20
-47.303825
 10
-40.111217
 20
-46.182255
 10
-41.030647
 20
-45.000816
 10
-41.900192
 20
-43.762348
 10
-42.718491
 20
-42.469894
 10
-43.484428
 20
-41.126682
 10
-44.197102
 20
-39.736095
 10
-44.855858
 20
-38.30164
 10
-45.460262
 20
-36.826942
 10
-46.010113
 20
-35.315685
 10
-46.505428
 20
-33.771618
 10
-46.946438
 20
-32.198502
 10
-47.333584
 20
-30.600105
 10
-47.667496
 20
-28.980165
 10
-47.948986
 20
-27.342373
 10
-48.179039
 20
-25.690346
 10
-48.358784
 20
-24.027615
 10
-48.489506
 20
-22.357603
 10
-48.572594
 20
-20.683617
 10
-48.609566
 20
-19.008821
 10
-48.602016
 20
-17.336237
 10
-48.551395
 20
-15.663218
 10
-48.456772
 20
-13.959007
 10
-48.316505
 20
-12.219836
 10
-48.129143
 20
-10.447618
 10
-47.893337
 20
-8.644479
 10
-47.607857
 20
-6.81277
 10
-47.271614
 20
-4.955055
 10
-46.883656
 20
-3.074107
 10
-46.443203
 20
-1.172906
 10
-45.949654
 20
0.745373
 10
-45.402588
 20
2.677372
 10
-44.801792
 20
4.619566
 10
-44.147251
 20
6.568275
 10
-43.439182
 20
8.519687
 10
-42.67802
 20
10.469877
 10
-41.864418
 20
12.414834
 10
-40.999275
 20
14.35048
 10
-40.08371
 20
16.272701
 10
-39.119064
 20
18.177376
 10
-38.106911
 20
20.060398
 10
-37.04903
 20
21.917707
 10
-35.947411
 20
23.745327
 10
-34.804226
 20
25.539375
 10
-33.62183
 20
27.296108
 10
-32.40274
 20
29.011938
 10
-31.149612
 20
30.683458
 10
-29.865234
 20
32.307465
 10
-28.552488
 20
33.880978
 10
-27.214346
 20
35.401268
 10
-25.853838
 20
36.865849
 10
-24.474035
 20
38.272511
 10
-23.078026
 20
39.619324
 10
-21.668896
 20
40.904629
 10
-20.249708
 20
42.127064
 10
-18.823479
 20
43.285553
 10
-17.393167
 20
44.379292
 10
-15.961653
 20
45.407761
 10
-14.531722
 20
46.370708
 10
-13.106055
 20
47.268139
 10
-11.687212
 20
48.100311
 10
-10.277626
 20
48.86771
 10
-8.87959
 20
49.571037
 10
-7.495256
 20
50.211201
 10
-6.126627
 20
50.789291
 10
-4.775554
 20
51.306572
  0
LWPOLYLINE
  5
86
330
1F
100
AcDbEntity
  8
0
  6
Continuous
 62
    18
420
        0
370
     0
100
AcDbPolyline
 90
      180
 70
     0
 43
0.0
 10
-4.453364
 20
51.77956
 10
-3.095737
 20
52.246113
 10
-1.723868
 20
52.663387
 10
-0.339714
 20
53.028751
 10
1.054623
 20
53.33963
 10
2.456903
 20
53.593525
 10
3.864753
 20
53.788044
 10
5.275674
 20
53.92091
 10
6.68705
 20
53.989986
 10
8.096159
 20
53.993301
 10
9.500188
 20
53.92907
 10
10.896242
 20
53.795696
 10
12.281365
 20
53.591827
 10
13.652557
 20
53.316338
 10
15.006786
 20
52.968353
 10
16.341017
 20
52.547287
 10
17.652222
 20
52.052818
 10
18.93741
 20
51.484932
 10
20.193644
 20
50.843903
 10
21.41806
 20
50.130318
 10
22.607895
 20
49.345058
 10
23.760498
 20
48.489323
 10
24.873354
 20
47.56459
 10
25.944107
 20
46.572643
 10
26.970566
 20
45.515537
 10
27.950727
 20
44.395584
 10
28.882786
 20
43.215359
 10
29.765146
 20
41.977654
 10
30.596432
 20
40.685463
 10
31.375488
 20
39.341976
 10
32.101387
 20
37.950527
 10
32.773438
 20
36.514603
 10
33.391167
 20
35.037773
 10
33.954338
 20
33.523712
 10
34.462925
 20
31.976126
 10
34.917126
 20
30.398766
 10
35.317333
 20
28.795376
 10
35.664139
 20
27.169683
 10
35.958317
 20
25.52537
 10
36.200806
 20
23.866055
 10
36.392712
 20
22.195271
 10
36.535267
 20
20.516447
 10
36.629841
 20
18.832901
 10
36.67791
 20
17.147814
 10
36.681046
 20
15.464229
 10
36.640858
 20
13.783658
 10
36.557087
 20
12.078286
 10
36.42804
 20
10.337481
 10
36.252247
 20
8.563089
 10
36.028339
 20
6.757171
 10
35.755058
 20
4.922004
 10
35.431278
 20
3.060079
 10
35.056015
 20
1.174099
 10
34.628441
 20
-0.73303
 10
34.147907
 20
-2.658206
 10
33.613934
 20
-4.598141
 10
33.026249
 20
-6.549376
 10
32.384777
 20
-8.508296
 10
31.689657
 20
-10.471148
 10
30.941252
 20
-12.434061
 10
30.140144
 20
-14.39307
 10
29.287142
 20
-16.344137
 10
28.383286
 20
-18.283178
 10
27.429838
 20
-20.206091
 10
26.428282
 20
-22.108782
 10
25.380314
 20
-23.987194
 10
24.287842
 20
-25.837337
 10
23.15296
 20
-27.655312
 10
21.977947
 20
-29.437338
 10
20.765249
 20
-31.179785
 10
19.517458
 20
-32.879192
 10
18.237297
 20
-34.532288
 10
16.927599
 20
-36.136024
 10
15.591289
 20
-37.68758
 10
14.231359
 20
-39.184383
 10
12.850854
 20
-40.624119
 10
11.452838
 20
-42.004753
 10
10.040386
 20
-43.32452
 10
8.616557
 20
-44.58194
 10
7.184374
 20
-45.775814
 10
5.74681
 20
-46.905228
 10
4.306767
 20
-47.96954
 10
2.867058
 20
-48.968384
 10
1.430401
 20
-49.901646
 10
-0.000601
 20
-50.769466
 10
-1.423467
 20
-51.572227
 10
-2.83585
 20
-52.310528
 10
-4.235539
 20
-52.985172
 10
-5.620471
 20
-53.597164
 10
-6.988731
 20
-54.147675
 10
-8.342968
 20
-54.639557
 10
-9.707952
 20
-55.081802
 10
-11.086218
 20
-55.47345
 10
-12.475735
 20
-55.811886
 10
-13.874331
 20
-56.094582
 10
-15.279701
 20
-56.31908
 10
-16.689407
 20
-56.483047
 10
-18.100889
 20
-56.584278
 10
-19.511477
 20
-56.620708
 10
-20.918404
 20
-56.590462
 10
-22.318811
 20
-56.491844
 10
-23.709772
 20
-56.32338
 10
-25.088308
 20
-56.083824
 10
-26.451399
 20
-55.772179
 10
-27.796007
 20
-55.387711
 10
-29.119101
 20
-54.929962
 10
-30.417669
 20
-54.398769
 10
-31.688744
 20
-53.794258
 10
-32.92942
 20
-53.116859
 10
-34.136887
 20
-52.36731
 10
-35.308426
 20
-51.546642
 10
-36.44146
 20
-50.656204
 10
-37.53355
 20
-49.697624
 10
-38.582417
 20
-48.672825
 10
-39.585968
 20
-47.583988
 10
-40.54229
 20
-46.433567
 10
-41.449684
 20
-45.224236
 10
-42.306667
 20
-43.9589
 10
-43.111969
 20
-42.640652
 10
-43.864548
 20
-41.272758
 10
-44.563595
 20
-39.858631
 10
-45.20853
 20
-38.401802
 10
-45.798996
 20
-36.905895
 10
-46.334862
 20
-35.374603
 10
-46.816219
 20
-33.811661
 10
-47.243362
 20
-32.220818
 10
-47.616783
 20
-30.605814
 10
-47.937164
 20
-28.970354
 10
-48.205372
 20
-27.318092
 10
-48.422424
 20
-25.652607
 10
-48.589493
 20
-23.977381
 10
-48.707878
 20
-22.29579
 10
-48.779007
 20
-20.611084
 10
-48.804409
 20
-18.926376
 10
-48.785698
 20
-17.244635
 10
-48.723953
 20
-15.556235
 10
-48.617733
 20
-13.83293
 10
-48.465492
 20
-12.075088
 10
-48.265804
 20
-10.284661
 10
-48.017361
 20
-8.46382
 10
-47.71896
 20
-6.61495
 10
-47.369553
 20
-4.740647
 10
-46.968227
 20
-2.843717
 10
-46.514244
 20
-0.927165
 10
-46.007038
 20
1.005813
 10
-45.446232
 20
2.95184
 10
-44.831646
 20
4.907379
 10
-44.163322
 20
6.868742
 10
-43.441502
 20
8.832115
 10
-42.666656
 20
10.793577
 10
-41.839485
 20
12.749123
 10
-40.960915
 20
14.694689
 10
-40.032089
 20
16.626179
 10
-39.054386
 20
18.53949
 10
-38.0294
 20
20.430546
 10
-36.958931
 20
22.295319
 10
-35.844978
 20
24.129858
 10
-34.689735
 20
25.930321
 10
-33.495567
 20
27.693001
 10
-32.264988
 20
29.414349
 10
-31.000666
 20
31.090996
 10
-29.705374
 20
32.71978
 10
-28.382
 20
34.297764
 10
-27.033503
 20
35.822247
 10
-25.662903
 20
37.290791
 10
-24.273258
 20
38.701214
 10
-22.867641
 20
40.051617
 10
-21.44912
 20
41.340374
 10
-20.020739
 20
42.566154
 10
-18.585497
 20
43.727898
 10
-17.146336
 20
44.824821
 10
-15.706114
 20
45.85643
 10
-14.267598
 20
46.822479
 10
-12.833451
 20
47.722988
 10
-11.406215
 20
48.55822
 10
-9.988306
 20
49.328663
 10
-8.582003
 20
50.035019
 10
-7.189443
 20
50.678204
 10
-5.812617
 20
51.259296
 10
-4.453364
 20
51.77956
  0
LWPOLYLINE
  5
87
330
1F
100
AcDbEntity
  8
0
  6
Continuous
 62
    18
420
        0
370
     0
100
AcDbPolyline
 90
      180
 70
     0
 43
0.0
 10
-3.978999
 20
51.966259
 10
-2.611021
 20
52.436371
 10
-1.228692
 20
52.856827
 10
0.166015
 20
53.224979
 10
1.570983
 20
53.538227
 10
2.983954
 20
53.79406
 10
4.402538
 20
53.990059
 10
5.824216
 20
54.12394
 10
7.246352
 20
54.193542
 10
8.666205
 20
54.19688
 10
10.080938
 20
54.132156
 10
11.487637
 20
53.997772
 10
12.883321
 20
53.792347
 10
14.264967
 20
53.514755
 10
15.629521
 20
53.16412
 10
16.973923
 20
52.739841
 10
18.295126
 20
52.241604
 10
19.590113
 20
51.669388
 10
20.855923
 20
51.023472
 10
22.089676
 20
50.304443
 10
23.288582
 20
49.513199
 10
24.449972
 20
48.650936
 10
25.571314
 20
47.719154
 10
26.650229
 20
46.719646
 10
27.684513
 20
45.65448
 10
28.672148
 20
44.52599
 10
29.611313
 20
43.336765
 10
30.500402
 20
42.089622
 10
31.338026
 20
40.787582
 10
32.12302
 20
39.433849
 10
32.854454
 20
38.031796
 10
33.531628
 20
36.584919
 10
34.154068
 20
35.096832
 10
34.721531
 20
33.571228
 10
35.233997
 20
32.011841
 10
35.691662
 20
30.422455
 10
36.094917
 20
28.806841
 10
36.44437
 20
27.168753
 10
36.740788
 20
25.511904
 10
36.98513
 20
23.839937
 10
37.178497
 20
22.156414
 10
37.32214
 20
20.464792
 10
37.417435
 20
18.76841
 10
37.46587
 20
17.070477
 10
37.469032
 20
15.374054
 10
37.428535
 20
13.680671
 10
37.344124
 20
11.962296
 10
37.214092
 20
10.20822
 10
37.036961
 20
8.420299
 10
36.811344
 20
6.600612
 10
36.53598
 20
4.751453
 10
36.209732
 20
2.875333
 10
35.831608
 20
0.974973
 10
35.400776
 20
-0.946696
 10
34.916576
 20
-2.886549
 10
34.378532
 20
-4.841275
 10
33.786366
 20
-6.807386
 10
33.140003
 20
-8.781242
 10
32.439587
 20
-10.759059
 10
31.685474
 20
-12.736938
 10
30.878258
 20
-14.710883
 10
30.018753
 20
-16.676825
 10
29.108006
 20
-18.63065
 10
28.147287
 20
-20.568224
 10
27.138096
 20
-22.48542
 10
26.082138
 20
-24.378155
 10
24.981337
 20
-26.242405
 10
23.837803
 20
-28.07424
 10
22.653831
 20
-29.869852
 10
21.431889
 20
-31.625584
 10
20.174583
 20
-33.337948
 10
18.884661
 20
-35.003647
 10
17.564978
 20
-36.61961
 10
16.218479
 20
-38.182995
 10
14.848182
 20
-39.691208
 10
13.45715
 20
-41.141922
 10
12.048476
 20
-42.533085
 10
10.625256
 20
-43.862911
 10
9.190571
 20
-45.129917
 10
7.747469
 20
-46.332897
 10
6.298944
 20
-47.470921
 10
4.847921
 20
-48.54335
 10
3.397236
 20
-49.549805
 10
1.949626
 20
-50.490185
 10
0.507714
 20
-51.364624
 10
-0.926001
 20
-52.173504
 10
-2.349152
 20
-52.917431
 10
-3.759513
 20
-53.597221
 10
-5.155004
 20
-54.213879
 10
-6.533696
 20
-54.768585
 10
-7.898258
 20
-55.264217
 10
-9.273649
 20
-55.709835
 10
-10.662422
 20
-56.104469
 10
-12.062533
 20
-56.445488
 10
-13.471793
 20
-56.730335
 10
-14.887878
 20
-56.956547
 10
-16.308331
 20
-57.121765
 10
-17.730576
 20
-57.223766
 10
-19.151918
 20
-57.260475
 10
-20.569571
 20
-57.229996
 10
-21.980656
 20
-57.130627
 10
-23.382223
 20
-56.96088
 10
-24.771267
 20
-56.719498
 10
-26.144751
 20
-56.405476
 10
-27.499611
 20
-56.018074
 10
-28.832792
 20
-55.556839
 10
-30.14126
 20
-55.021595
 10
-31.422026
 20
-54.412476
 10
-32.672161
 20
-53.729912
 10
-33.888832
 20
-52.974644
 10
-35.069305
 20
-52.147724
 10
-36.210979
 20
-51.250496
 10
-37.311394
 20
-50.284607
 10
-38.368259
 20
-49.251991
 10
-39.379459
 20
-48.154858
 10
-40.343075
 20
-46.995663
 10
-41.257389
 20
-45.777115
 10
-42.120903
 20
-44.502132
 10
-42.932343
 20
-43.173832
 10
-43.690662
 20
-41.795509
 10
-44.395039
 20
-40.370602
 10
-45.044891
 20
-38.902664
 10
-45.639858
 20
-37.395351
 10
-46.179813
 20
-35.852383
 10
-46.664837
 20
-34.277527
 10
-47.095238
 20
-32.674553
 10
-47.471504
 20
-31.047235
 10
-47.794331
 20
-29.399307
 10
-48.064583
 20
-27.734449
 10
-48.283287
 20
-26.056265
 10
-48.45163
 20
-24.368267
 10
-48.570919
 20
-22.673855
 10
-48.642593
 20
-20.976305
 10
-48.668186
 20
-19.278753
 10
-48.64933
 20
-17.58419
 10
-48.587116
 20
-15.882917
 10
-48.480087
 20
-14.146473
 10
-48.326683
 20
-12.375228
 10
-48.125473
 20
-10.571151
 10
-47.875134
 20
-8.736427
 10
-47.574463
 20
-6.873461
 10
-47.222389
 20
-4.984868
 10
-46.818005
 20
-3.073475
 10
-46.360561
 20
-1.142311
 10
-45.849487
 20
0.805404
 10
-45.284405
 20
2.766268
 10
-44.665134
 20
4.736717
 10
-43.991714
 20
6.713034
 10
-43.264389
 20
8.691376
 10
-42.483639
 20
10.667792
 10
-41.650162
 20
12.638247
 10
-40.764889
 20
14.598647
 10
-39.828983
 20
16.544863
 10
-38.843826
 20
18.472763
 10
-37.811028
 20
20.378237
 10
-36.732395
 20
22.257225
 10
-35.609951
 20
24.105751
 10
-34.4459
 20
25.919943
 10
-33.242626
 20
27.696062
 10
-32.002666
 20
29.430532
 10
-30.728703
 20
31.119965
 10
-29.423536
 20
32.761166
 10
-28.090073
 20
34.351181
 10
-26.731293
 20
35.887287
 10
-25.350245
 20
37.367027
 10
-23.950005
 20
38.7882
 10
-22.53367
 20
40.148899
 10
-21.104334
 20
41.447487
 10
-19.665062
 20
42.682613
 10
-18.21888
 20
43.85321
 10
-16.768745
 20
44.9585
 10
-15.317542
 20
45.997974
 10
-13.868059
 20
46.97139
 10
-12.422977
 20
47.878765
 10
-10.984859
 20
48.72036
 10
-9.55614
 20
49.496677
 10
-8.139114
 20
50.20842
 10
-6.735938
 20
50.856506
 10
-5.348615
 20
51.442032
 10
-3.978999
 20
51.966259
  0
LINE
  5
88
330
1F
100
AcDbEntity
  8
0
  6
Continuous
 62
    18
420
        0
370
     0
100
AcDbLine
 10
44.521981
 20
10.849615
 30
0.0
 11
38.047136
 21
13.905009
 31
0.0
  0
LINE
  5
89
330
1F
100
AcDbEntity
  8
0
  6
Continuous
 62
    18
420
        0
370
     0
100
AcDbLine
 10
-0.243434
 20
-58.442917
 30
0.0
 11
-6.71828
 21
-55.387523
 31
0.0
  0
LINE
  5
8A
330
1F
100
AcDbEntity
  8
0
  6
Continuous
 62
    18
420
        0
370
     0
100
AcDbLine
 10
-41.763945
 20
-20.490816
 30
0.0
 11
-48.238791
 21
-17.435422
 31
0.0
  0
ARC
  5
8B
330
1F
100
AcDbEntity
  8
0
  6
Continuous
 62
    18
420
        0
370
     0
100
AcDbCircle
 10
44.468655
 20
10.262705
 30
0.0
 40
0.5893274520258243
100
AcDbArc
 50
265.521819
 51
84.808403
  0
ARC
  5
8C
330
1F
100
AcDbEntity
  8
0
  6
Continuous
 62
    18
420
        0
370
     0
100
AcDbCircle
 10
0.175429
 20
-57.505275
 30
0.0
 40
1.026946926333009
100
AcDbArc
 50
245.928771
 51
13.332661
  0
ARC
  5
8D
330
1F
100
AcDbEntity
  8
0
  6
Continuous
 62
    18
420
        0
370
     0
100
AcDbCircle
 10
-40.193563
 20
-16.573137
 30
0.0
 40
4.220700438572758
100
AcDbArc
 50
248.156867
 51
287.301333
  0
LWPOLYLINE
  5
8E
330
1F
100
AcDbEntity
  8
0
  6
Continuous
 62
    18
420
        0
370
     0
100
AcDbPolyline
 90
      180
 70
     0
 43
0.0
 10
3.499371
 20
48.437317
 10
4.867349
 20
48.907425
 10
6.249678
 20
49.327885
 10
7.644384
 20
49.696033
 10
9.049352
 20
50.009281
 10
10.462323
 20
50.265114
 10
11.880907
 20
50.461117
 10
13.302586
 20
50.594994
 10
14.724722
 20
50.664597
 10
16.144575
 20
50.667938
 10
17.559307
 20
50.603214
 10
18.966005
 20
50.468826
 10
20.361691
 20
50.263405
 10
21.743336
 20
49.985809
 10
23.107891
 20
49.635178
 10
24.452293
 20
49.210899
 10
25.773495
 20
48.712662
 10
27.068481
 20
48.140442
 10
28.334293
 20
47.49453
 10
29.568045
 20
46.775501
 10
30.766951
 20
45.984257
 10
31.928341
 20
45.121994
 10
33.049683
 20
44.190212
 10
34.128597
 20
43.190701
 10
35.162884
 20
42.125534
 10
36.150517
 20
40.997047
 10
37.089684
 20
39.807823
 10
37.978771
 20
38.56068
 10
38.816395
 20
37.258636
 10
39.601391
 20
35.904903
 10
40.332825
 20
34.50285
 10
41.009998
 20
33.055977
 10
41.632439
 20
31.56789
 10
42.199902
 20
30.042282
 10
42.712368
 20
28.482899
 10
43.170029
 20
26.893511
 10
43.573288
 20
25.277897
 10
43.922737
 20
23.639809
 10
44.219158
 20
21.98296
 10
44.463497
 20
20.310993
 10
44.656864
 20
18.62747
 10
44.80051
 20
16.935848
 10
44.895805
 20
15.239466
 10
44.944241
 20
13.541532
 10
44.947399
 20
11.84511
 10
44.906902
 20
10.151727
 10
44.822495
 20
8.433352
 10
44.692463
 20
6.679275
 10
44.515331
 20
4.891355
 10
44.289715
 20
3.071668
 10
44.014351
 20
1.222509
 10
43.688103
 20
-0.653611
 10
43.309978
 20
-2.553971
 10
42.879147
 20
-4.47564
 10
42.394943
 20
-6.415493
 10
41.856903
 20
-8.370219
 10
41.264736
 20
-10.33633
 10
40.618374
 20
-12.310186
 10
39.917953
 20
-14.288003
 10
39.163845
 20
-16.265882
 10
38.356628
 20
-18.239828
 10
37.497124
 20
-20.205769
 10
36.586376
 20
-22.159594
 10
35.625656
 20
-24.097168
 10
34.616463
 20
-26.014366
 10
33.560509
 20
-27.907099
 10
32.459705
 20
-29.771349
 10
31.316172
 20
-31.603184
 10
30.1322
 20
-33.398796
 10
28.910257
 20
-35.154526
 10
27.652952
 20
-36.86689
 10
26.363029
 20
-38.532593
 10
25.043346
 20
-40.148556
 10
23.696848
 20
-41.711941
 10
22.326551
 20
-43.220154
 10
20.93552
 20
-44.670868
 10
19.526846
 20
-46.062027
 10
18.103624
 20
-47.391857
 10
16.66894
 20
-48.658863
 10
15.225838
 20
-49.861839
 10
13.777314
 20
-50.999866
 10
12.32629
 20
-52.072292
 10
10.875606
 20
-53.078751
 10
9.427995
 20
-54.019127
 10
7.986083
 20
-54.893566
 10
6.552368
 20
-55.702446
 10
5.129218
 20
-56.446377
 10
3.718857
 20
-57.126163
 10
2.323365
 20
-57.742821
 10
0.944674
 20
-58.297531
 10
-0.419889
 20
-58.793163
 10
-1.79528
 20
-59.238781
 10
-3.184053
 20
-59.633411
 10
-4.584164
 20
-59.97443
 10
-5.993424
 20
-60.259281
 10
-7.409509
 20
-60.485493
 10
-8.829962
 20
-60.650711
 10
-10.252206
 20
-60.752708
 10
-11.673549
 20
-60.789417
 10
-13.091202
 20
-60.758942
 10
-14.502286
 20
-60.659573
 10
-15.903853
 20
-60.489822
 10
-17.292898
 20
-60.24844
 10
-18.666382
 20
-59.934418
 10
-20.021242
 20
-59.54702
 10
-21.354424
 20
-59.085785
 10
-22.662891
 20
-58.550541
 10
-23.943657
 20
-57.941422
 10
-25.193792
 20
-57.258854
 10
-26.410463
 20
-56.50359
 10
-27.590937
 20
-55.676666
 10
-28.732611
 20
-54.779438
 10
-29.833027
 20
-53.813553
 10
-30.889891
 20
-52.780937
 10
-31.901091
 20
-51.6838
 10
-32.864704
 20
-50.524609
 10
-33.779018
 20
-49.306057
 10
-34.642536
 20
-48.031075
 10
-35.453976
 20
-46.702778
 10
-36.212292
 20
-45.324455
 10
-36.916668
 20
-43.899544
 10
-37.566521
 20
-42.431606
 10
-38.161488
 20
-40.924294
 10
-38.701443
 20
-39.381329
 10
-39.18647
 20
-37.806469
 10
-39.616867
 20
-36.203499
 10
-39.993134
 20
-34.57618
 10
-40.31596
 20
-32.928253
 10
-40.586212
 20
-31.263393
 10
-40.80492
 20
-29.585209
 10
-40.973259
 20
-27.897211
 10
-41.092548
 20
-26.202799
 10
-41.164223
 20
-24.505249
 10
-41.189816
 20
-22.807697
 10
-41.170963
 20
-21.113134
 10
-41.108746
 20
-19.411861
 10
-41.001717
 20
-17.675417
 10
-40.848312
 20
-15.904172
 10
-40.647106
 20
-14.100095
 10
-40.396767
 20
-12.265371
 10
-40.096092
 20
-10.402405
 10
-39.744019
 20
-8.513812
 10
-39.339634
 20
-6.602419
 10
-38.882191
 20
-4.671255
 10
-38.371117
 20
-2.72354
 10
-37.806034
 20
-0.762675
 10
-37.186768
 20
1.207772
 10
-36.513344
 20
3.184089
 10
-35.786018
 20
5.162432
 10
-35.005268
 20
7.138848
 10
-34.171791
 20
9.109303
 10
-33.286522
 20
11.069703
 10
-32.350613
 20
13.015919
 10
-31.365459
 20
14.943819
 10
-30.332657
 20
16.849293
 10
-29.254025
 20
18.728281
 10
-28.13158
 20
20.576807
 10
-26.967531
 20
22.390999
 10
-25.764256
 20
24.167118
 10
-24.524296
 20
25.901588
 10
-23.250332
 20
27.591021
 10
-21.945168
 20
29.232224
 10
-20.611702
 20
30.822237
 10
-19.252924
 20
32.358345
 10
-17.871874
 20
33.838081
 10
-16.471634
 20
35.259258
 10
-15.0553
 20
36.619957
 10
-13.625964
 20
37.918541
 10
-12.186692
 20
39.153667
 10
-10.74051
 20
40.324268
 10
-9.290376
 20
41.429558
 10
-7.839172
 20
42.469028
 10
-6.389689
 20
43.442444
 10
-4.944608
 20
44.349819
 10
-3.50649
 20
45.191418
 10
-2.07777
 20
45.967731
 10
-0.660745
 20
46.679478
 10
0.742431
 20
47.327564
 10
2.129755
 20
47.91309
 10
3.499371
 20
48.437317
  0
LWPOLYLINE
  5
8F
330
1F
100
AcDbEntity
  8
0
  6
Continuous
 62
    18
420
        0
370
     0
100
AcDbPolyline
 90
      180
 70
     0
 43
0.0
 10
3.949242
 20
47.81448
 10
5.306869
 20
48.281033
 10
6.678739
 20
48.698307
 10
8.062892
 20
49.063671
 10
9.45723
 20
49.37455
 10
10.859509
 20
49.628448
 10
12.26736
 20
49.822968
 10
13.67828
 20
49.95583
 10
15.089656
 20
50.024906
 10
16.498766
 20
50.028221
 10
17.902794
 20
49.963989
 10
19.298847
 20
49.83062
 10
20.683971
 20
49.626747
 10
22.055164
 20
49.351257
 10
23.409393
 20
49.003277
 10
24.743624
 20
48.582207
 10
26.054829
 20
48.087738
 10
27.340015
 20
47.519852
 10
28.596251
 20
46.878826
 10
29.820667
 20
46.165237
 10
31.010502
 20
45.379982
 10
32.163105
 20
44.524242
 10
33.275959
 20
43.59951
 10
34.346714
 20
42.607563
 10
35.373173
 20
41.550457
 10
36.353333
 20
40.430508
 10
37.285393
 20
39.250282
 10
38.167751
 20
38.012573
 10
38.999039
 20
36.720383
 10
39.778095
 20
35.376896
 10
40.503994
 20
33.985451
 10
41.176044
 20
32.549522
 10
41.793774
 20
31.072695
 10
42.356945
 20
29.558632
 10
42.865532
 20
28.011047
 10
43.319733
 20
26.433685
 10
43.71994
 20
24.830296
 10
44.066746
 20
23.204603
 10
44.36092
 20
21.560291
 10
44.603413
 20
19.900974
 10
44.795319
 20
18.23019
 10
44.937874
 20
16.551367
 10
45.032448
 20
14.867822
 10
45.080517
 20
13.182734
 10
45.083652
 20
11.499149
 10
45.043465
 20
9.818579
 10
44.959694
 20
8.113207
 10
44.830647
 20
6.372402
 10
44.654854
 20
4.59801
 10
44.430946
 20
2.792091
 10
44.157665
 20
0.956924
 10
43.833881
 20
-0.905
 10
43.458618
 20
-2.79098
 10
43.031048
 20
-4.698109
 10
42.55051
 20
-6.623285
 10
42.016541
 20
-8.56322
 10
41.428856
 20
-10.514455
 10
40.787384
 20
-12.473375
 10
40.092262
 20
-14.436227
 10
39.343857
 20
-16.399141
 10
38.542751
 20
-18.358149
 10
37.689747
 20
-20.309216
 10
36.785892
 20
-22.248257
 10
35.832443
 20
-24.171169
 10
34.830887
 20
-26.07386
 10
33.782921
 20
-27.952274
 10
32.690449
 20
-29.802418
 10
31.555567
 20
-31.62039
 10
30.380554
 20
-33.402416
 10
29.167856
 20
-35.144863
 10
27.920065
 20
-36.844269
 10
26.639902
 20
-38.497368
 10
25.330204
 20
-40.101105
 10
23.993895
 20
-41.65266
 10
22.633966
 20
-43.14946
 10
21.25346
 20
-44.589199
 10
19.855444
 20
-45.969833
 10
18.442993
 20
-47.289597
 10
17.019163
 20
-48.547016
 10
15.586981
 20
-49.740894
 10
14.149417
 20
-50.870308
 10
12.709373
 20
-51.93462
 10
11.269664
 20
-52.93346
 10
9.833007
 20
-53.866726
 10
8.402005
 20
-54.734547
 10
6.979139
 20
-55.537308
 10
5.566757
 20
-56.275604
 10
4.167068
 20
-56.950253
 10
2.782135
 20
-57.562244
 10
1.413875
 20
-58.112755
 10
0.059638
 20
-58.604637
 10
-1.305346
 20
-59.046883
 10
-2.683611
 20
-59.438526
 10
-4.073128
 20
-59.776966
 10
-5.471725
 20
-60.059662
 10
-6.877095
 20
-60.284161
 10
-8.2868
 20
-60.448128
 10
-9.698282
 20
-60.549355
 10
-11.108871
 20
-60.585789
 10
-12.515798
 20
-60.555538
 10
-13.916204
 20
-60.456921
 10
-15.307166
 20
-60.28846
 10
-16.685701
 20
-60.048904
 10
-18.048792
 20
-59.737259
 10
-19.3934
 20
-59.352791
 10
-20.716496
 20
-58.895042
 10
-22.015062
 20
-58.36385
 10
-23.286137
 20
-57.759338
 10
-24.526814
 20
-57.08194
 10
-25.734278
 20
-56.332386
 10
-26.905821
 20
-55.511723
 10
-28.038855
 20
-54.621281
 10
-29.130943
 20
-53.662704
 10
-30.179811
 20
-52.637901
 10
-31.183361
 20
-51.549068
 10
-32.139683
 20
-50.398643
 10
-33.047081
 20
-49.189316
 10
-33.90406
 20
-47.923981
 10
-34.709362
 20
-46.605732
 10
-35.461941
 20
-45.237839
 10
-36.160988
 20
-43.823711
 10
-36.805923
 20
-42.366882
 10
-37.396389
 20
-40.870972
 10
-37.932259
 20
-39.339684
 10
-38.413612
 20
-37.776741
 10
-38.840755
 20
-36.185898
 10
-39.214176
 20
-34.570892
 10
-39.534561
 20
-32.935432
 10
-39.802765
 20
-31.283171
 10
-40.019817
 20
-29.617685
 10
-40.186886
 20
-27.942461
 10
-40.305271
 20
-26.26087
 10
-40.376404
 20
-24.576164
 10
-40.401802
 20
-22.891457
 10
-40.383091
 20
-21.209715
 10
-40.321346
 20
-19.521315
 10
-40.215126
 20
-17.79801
 10
-40.062885
 20
-16.040167
 10
-39.863197
 20
-14.249741
 10
-39.614754
 20
-12.4289
 10
-39.316353
 20
-10.580029
 10
-38.966946
 20
-8.705727
 10
-38.56562
 20
-6.808796
 10
-38.111637
 20
-4.892244
 10
-37.604431
 20
-2.959267
 10
-37.043625
 20
-1.013239
 10
-36.429043
 20
0.942299
 10
-35.760715
 20
2.903663
 10
-35.038895
 20
4.867036
 10
-34.26405
 20
6.828498
 10
-33.436878
 20
8.784043
 10
-32.558308
 20
10.729609
 10
-31.629482
 20
12.661099
 10
-30.651781
 20
14.574411
 10
-29.626795
 20
16.465467
 10
-28.556324
 20
18.330238
 10
-27.442373
 20
20.164778
 10
-26.28713
 20
21.965242
 10
-25.09296
 20
23.727922
 10
-23.862383
 20
25.44927
 10
-22.598059
 20
27.125917
 10
-21.302769
 20
28.754702
 10
-19.979395
 20
30.332685
 10
-18.630898
 20
31.857168
 10
-17.260298
 20
33.32571
 10
-15.870652
 20
34.736134
 10
-14.465034
 20
36.086536
 10
-13.046514
 20
37.375298
 10
-11.618133
 20
38.601074
 10
-10.182892
 20
39.762817
 10
-8.74373
 20
40.859745
 10
-7.303508
 20
41.89135
 10
-5.864992
 20
42.857403
 10
-4.430845
 20
43.757912
 10
-3.003609
 20
44.59314
 10
-1.585699
 20
45.363583
 10
-0.179396
 20
46.069942
 10
1.213163
 20
46.713123
 10
2.589989
 20
47.294216
 10
3.949242
 20
47.81448
  0
LWPOLYLINE
  5
90
330
1F
100
AcDbEntity
  8
0
  6
Continuous
 62
    18
420
        0
370
     0
100
AcDbPolyline
 90
      179
 70
     0
 43
0.0
 10
4.234141
 20
47.055016
 10
5.583591
 20
47.518608
 10
6.947264
 20
47.932934
 10
8.323194
 20
48.295341
 10
9.709265
 20
48.603249
 10
11.103224
 20
48.854141
 10
12.502681
 20
49.04562
 10
13.905121
 20
49.175404
 10
15.307911
 20
49.241344
 10
16.708311
 20
49.24147
 10
18.103487
 20
49.173996
 10
19.49053
 20
49.037334
 10
20.866461
 20
48.830132
 10
22.228264
 20
48.55127
 10
23.572891
 20
48.199905
 10
24.897289
 20
47.775448
 10
26.198421
 20
47.277618
 10
27.47328
 20
46.706413
 10
28.718924
 20
46.062145
 10
29.93248
 20
45.345428
 10
31.111181
 20
44.55719
 10
32.252377
 20
43.698654
 10
33.353561
 20
42.771355
 10
34.412384
 20
41.777107
 10
35.426662
 20
40.718018
 10
36.394409
 20
39.596447
 10
37.313839
 20
38.415009
 10
38.18338
 20
37.17654
 10
39.001682
 20
35.884087
 10
39.767616
 20
34.540874
 10
40.480293
 20
33.150288
 10
41.13905
 20
31.715834
 10
41.743454
 20
30.241133
 10
42.293304
 20
28.729877
 10
42.788616
 20
27.18581
 10
43.22963
 20
25.612696
 10
43.616776
 20
24.014299
 10
43.950687
 20
22.39436
 10
44.232178
 20
20.756565
 10
44.462227
 20
19.104538
 10
44.641975
 20
17.441807
 10
44.772694
 20
15.771796
 10
44.855785
 20
14.09781
 10
44.892754
 20
12.423014
 10
44.885208
 20
10.75043
 10
44.834587
 20
9.077412
 10
44.739964
 20
7.3732
 10
44.599697
 20
5.634029
 10
44.412334
 20
3.86181
 10
44.176529
 20
2.058672
 10
43.891048
 20
0.226963
 10
43.554802
 20
-1.630752
 10
43.166847
 20
-3.5117
 10
42.726395
 20
-5.412901
 10
42.232845
 20
-7.33118
 10
41.68578
 20
-9.26318
 10
41.08498
 20
-11.205373
 10
40.430443
 20
-13.154082
 10
39.722374
 20
-15.105494
 10
38.961208
 20
-17.055685
 10
38.14761
 20
-19.000641
 10
37.282467
 20
-20.936287
 10
36.366898
 20
-22.858509
 10
35.402256
 20
-24.763184
 10
34.390102
 20
-26.646204
 10
33.332222
 20
-28.503515
 10
32.230602
 20
-30.331133
 10
31.087416
 20
-32.125183
 10
29.90502
 20
-33.881916
 10
28.68593
 20
-35.597748
 10
27.432804
 20
-37.269264
 10
26.148424
 20
-38.893272
 10
24.835678
 20
-40.466785
 10
23.497536
 20
-41.987076
 10
22.137028
 20
-43.451656
 10
20.757225
 20
-44.858318
 10
19.361217
 20
-46.205128
 10
17.952087
 20
-47.490437
 10
16.532898
 20
-48.712872
 10
15.106668
 20
-49.871361
 10
13.676357
 20
-50.965099
 10
12.244843
 20
-51.993568
 10
10.814912
 20
-52.956516
 10
9.389245
 20
-53.853947
 10
7.970403
 20
-54.686119
 10
6.560816
 20
-55.453518
 10
5.16278
 20
-56.156845
 10
3.778447
 20
-56.797009
 10
2.409818
 20
-57.375099
 10
1.058744
 20
-57.89238
 10
-0.290705
 20
-58.355972
 10
-1.654379
 20
-58.770298
 10
-3.030308
 20
-59.132706
 10
-4.416379
 20
-59.440609
 10
-5.810338
 20
-59.691505
 10
-7.209795
 20
-59.882984
 10
-8.612236
 20
-60.012768
 10
-10.015025
 20
-60.078709
 10
-11.415425
 20
-60.078835
 10
-12.810602
 20
-60.01136
 10
-14.197643
 20
-59.874699
 10
-15.573576
 20
-59.667496
 10
-16.935379
 20
-59.388634
 10
-18.280006
 20
-59.037266
 10
-19.604404
 20
-58.612812
 10
-20.905535
 20
-58.114983
 10
-22.180395
 20
-57.543777
 10
-23.426037
 20
-56.899509
 10
-24.639593
 20
-56.182793
 10
-25.818295
 20
-55.394554
 10
-26.959494
 20
-54.536018
 10
-28.060677
 20
-53.608719
 10
-29.119497
 20
-52.614471
 10
-30.133776
 20
-51.555382
 10
-31.101522
 20
-50.433811
 10
-32.020954
 20
-49.252373
 10
-32.890495
 20
-48.013905
 10
-33.708797
 20
-46.721451
 10
-34.474731
 20
-45.378239
 10
-35.187408
 20
-43.987652
 10
-35.846165
 20
-42.553196
 10
-36.450569
 20
-41.078499
 10
-37.00042
 20
-39.567242
 10
-37.495731
 20
-38.023174
 10
-37.936745
 20
-36.450058
 10
-38.323891
 20
-34.851662
 10
-38.657803
 20
-33.231724
 10
-38.939293
 20
-31.593929
 10
-39.169342
 20
-29.941902
 10
-39.349091
 20
-28.279171
 10
-39.479809
 20
-26.609159
 10
-39.562901
 20
-24.935173
 10
-39.599869
 20
-23.260378
 10
-39.592319
 20
-21.587793
 10
-39.541702
 20
-19.914776
 10
-39.447075
 20
-18.210564
 10
-39.306808
 20
-16.471394
 10
-39.11945
 20
-14.699174
 10
-38.88364
 20
-12.896036
 10
-38.598164
 20
-11.064327
 10
-38.261917
 20
-9.206612
 10
-37.873959
 20
-7.325664
 10
-37.43351
 20
-5.424463
 10
-36.93996
 20
-3.506184
 10
-36.392895
 20
-1.574184
 10
-35.792095
 20
0.36801
 10
-35.137558
 20
2.316718
 10
-34.429489
 20
4.26813
 10
-33.668324
 20
6.218321
 10
-32.854725
 20
8.163278
 10
-31.98958
 20
10.098924
 10
-31.074013
 20
12.021146
 10
-30.109369
 20
13.925819
 10
-29.097216
 20
15.808841
 10
-28.039337
 20
17.666151
 10
-26.937716
 20
19.493771
 10
-25.794531
 20
21.287819
 10
-24.612135
 20
23.044552
 10
-23.393044
 20
24.760382
 10
-22.139917
 20
26.431902
 10
-20.855539
 20
28.055908
 10
-19.542793
 20
29.629423
 10
-18.204651
 20
31.149712
 10
-16.844143
 20
32.614292
 10
-15.46434
 20
34.020954
 10
-14.068332
 20
35.367767
 10
-12.659202
 20
36.653072
 10
-11.240012
 20
37.875507
 10
-9.813784
 20
39.033997
 10
-8.383471
 20
40.127735
 10
-6.951957
 20
41.156204
 10
-5.522027
 20
42.119152
 10
-4.09636
 20
43.016582
 10
-2.677517
 20
43.848755
 10
-1.267931
 20
44.616154
 10
0.130105
 20
45.319481
 10
1.514439
 20
45.959644
 10
2.883068
 20
46.537735
 10
4.234141
 20
47.055016
  0
ELLIPSE
  5
91
330
1F
100
AcDbEntity
  8
0
  6
Continuous
 62
    18
420
        0
370
    30
100
AcDbEllipse
 10
2.742151
 20
-5.463845
 30
0.0
 11
-8.535148622779005
 21
-18.08727834663781
 31
0.0
210
0.0
220
0.0
230
-1.0
 40
0.657285
 41
2.55652100448675
 42
5.698113658076545
  0
ELLIPSE
  5
92
330
1F
100
AcDbEntity
  8
0
  6
Continuous
 62
    18
420
        0
370
    30
100
AcDbEllipse
 10
2.742151
 20
-5.463845
 30
0.0
 11
-8.535148622779005
 21
-18.08727834663781
 31
0.0
210
0.0
220
0.0
230
-1.0
 40
0.657285
 41
5.698113658076545
 42
8.839706311666337
  0
LINE
  5
93
330
1F
100
AcDbEntity
  8
0
  6
Continuous
 62
    18
420
        0
370
    30
100
AcDbLine
 10
3.292134
 20
12.713211
 30
0.0
 11
4.655294
 21
12.069954
 31
0.0
  0
ELLIPSE
  5
94
330
1F
100
AcDbEntity
  8
0
  6
Continuous
 62
    18
420
        0
370
    30
100
AcDbEllipse
 10
4.10531
 20
-6.107102
 30
0.0
 11
-8.535148622778893
 21
-18.08727834663757
 31
0.0
210
0.0
220
0.0
230
-1.0
 40
0.657285
 41
2.55652100448675
 42
5.698113658076545
  0
ELLIPSE
  5
95
330
1F
100
AcDbEntity
  8
0
  6
Continuous
 62
    18
420
        0
370
    30
100
AcDbEllipse
 10
4.10531
 20
-6.107102
 30
0.0
 11
-8.535148622778893
 21
-18.08727834663757
 31
0.0
210
0.0
220
0.0
230
-1.0
 40
0.657285
 41
5.698113658076545
 42
8.839706311666337
  0
ELLIPSE
  5
96
330
1F
100
AcDbEntity
  8
0
  6
Continuous
 62
    18
420
        0
370
    30
100
AcDbEllipse
 10
4.614045
 20
10.706675
 30
0.0
 11
-0.5120901169041692
 21
1.409877552193125
 31
0.0
210
0.0
220
0.0
230
-1.0
 40
0.62829
 41
0.5644876668330218
 42
2.135283993624241
  0
ELLIPSE
  5
97
330
1F
100
AcDbEntity
  8
0
  6
Continuous
 62
    18
420
        0
370
    30
100
AcDbEllipse
 10
5.12766
 20
-6.589536
 30
0.0
 11
-7.895012476070444
 21
-16.73073247063968
 31
0.0
210
0.0
220
0.0
230
-1.0
 40
0.657285
 41
2.556521004486749
 42
5.698113658076542
  0
ELLIPSE
  5
98
330
1F
100
AcDbEntity
  8
0
  6
Continuous
 62
    18
420
        0
370
    30
100
AcDbEllipse
 10
5.12766
 20
-6.589536
 30
0.0
 11
-7.895012476070444
 21
-16.73073247063968
 31
0.0
210
0.0
220
0.0
230
-1.0
 40
0.657285
 41
5.698113658076542
 42
8.839706311666335
  0
ELLIPSE
  5
99
330
1F
100
AcDbEntity
  8
0
  6
Continuous
 62
    18
420
        0
370
    30
100
AcDbEllipse
 10
5.12766
 20
-6.589536
 30
0.0
 11
-3.414059449112268
 21
-7.234911338656539
 31
0.0
210
0.0
220
0.0
230
-1.0
 40
0.657285
 41
2.556521004486754
 42
5.698113658076547
  0
ELLIPSE
  5
9A
330
1F
100
AcDbEntity
  8
0
  6
Continuous
 62
    18
420
        0
370
    30
100
AcDbEllipse
 10
5.12766
 20
-6.589536
 30
0.0
 11
-3.414059449112268
 21
-7.234911338656539
 31
0.0
210
0.0
220
0.0
230
-1.0
 40
0.657285
 41
5.698113658076547
 42
8.83970631166634
  0
LINE
  5
9B
330
1F
100
AcDbEntity
  8
0
  6
Continuous
 62
    18
420
        0
370
    30
100
AcDbLine
 10
5.347653
 20
0.681287
 30
0.0
 11
22.391312
 21
-7.361391
 31
0.0
  0
ELLIPSE
  5
9C
330
1F
100
AcDbEntity
  8
0
  6
Continuous
 62
    18
420
        0
370
    30
100
AcDbEllipse
 10
22.171318
 20
-14.632214
 30
0.0
 11
-3.41405944911085
 21
-7.234911338653531
 31
0.0
210
0.0
220
0.0
230
-1.0
 40
0.657285
 41
2.556521004486749
 42
5.698113658076542
  0
ELLIPSE
  5
9D
330
1F
100
AcDbEntity
  8
0
  6
Continuous
 62
    18
420
        0
370
    30
100
AcDbEllipse
 10
22.171318
 20
-14.632214
 30
0.0
 11
-3.41405944911085
 21
-7.234911338653531
 31
0.0
210
0.0
220
0.0
230
-1.0
 40
0.657285
 41
5.698113658076542
 42
8.839706311666335
  0
LINE
  5
9E
330
1F
100
AcDbEntity
  8
0
  6
Continuous
 62
    18
420
        0
370
    30
100
AcDbLine
 10
22.391312
 20
-7.361391
 30
0.0
 11
22.170319
 21
-14.631742
 31
0.0
  0
LINE
  5
9F
330
1F
100
AcDbEntity
  8
0
  6
Continuous
 62
    18
420
        0
370
     0
100
AcDbLine
 10
18.730044
 20
-0.795165
 30
0.0
 11
17.366884
 21
-0.151908
 31
0.0
  0
LINE
  5
A0
330
1F
100
AcDbEntity
  8
0
  6
Continuous
 62
    18
420
        0
370
     0
100
AcDbLine
 10
3.555327
 20
-24.284159
 30
0.0
 11
2.192167
 21
-23.640902
 31
0.0
  0
LINE
  5
A1
330
1F
100
AcDbEntity
  8
0
  6
Continuous
 62
    18
420
        0
370
     0
100
AcDbLine
 10
-10.519423
 20
-11.41904
 30
0.0
 11
-11.882583
 21
-10.775783
 31
0.0
  0
ARC
  5
A2
330
1F
100
AcDbEntity
  8
0
  6
Continuous
 62
    18
420
        0
370
     0
100
AcDbCircle
 10
18.690049
 20
-1.235347
 30
0.0
 40
0.441995589019362
100
AcDbArc
 50
265.521819
 51
84.808403
  0
ARC
  5
A3
330
1F
100
AcDbEntity
  8
0
  6
Continuous
 62
    18
420
        0
370
     0
100
AcDbCircle
 10
3.869474
 20
-23.580927
 30
0.0
 40
0.770210194749724
100
AcDbArc
 50
245.928771
 51
13.332661
  0
ARC
  5
A4
330
1F
100
AcDbEntity
  8
0
  6
Continuous
 62
    18
420
        0
370
     0
100
AcDbCircle
 10
-9.341636
 20
-8.48078
 30
0.0
 40
3.165525328928827
100
AcDbArc
 50
248.156867
 51
287.301333
  0
LWPOLYLINE
  5
A5
330
1F
100
AcDbEntity
  8
0
  6
Continuous
 62
    18
420
        0
370
     0
100
AcDbPolyline
 90
      105
 70
     0
 43
0.0
 10
5.028719
 20
11.796655
 10
5.827594
 20
12.05978
 10
6.639405
 20
12.271276
 10
7.460485
 20
12.426688
 10
8.286759
 20
12.52183
 10
9.113786
 20
12.55288
 10
9.936802
 20
12.516499
 10
10.750793
 20
12.409926
 10
11.550578
 20
12.231088
 10
12.330894
 20
11.97867
 10
13.086499
 20
11.6522
 10
13.812287
 20
11.252085
 10
14.503387
 20
10.77964
 10
15.155273
 20
10.237082
 10
15.763859
 20
9.627498
 10
16.325583
 20
8.95479
 10
16.837479
 20
8.223592
 10
17.297226
 20
7.43916
 10
17.703176
 20
6.607264
 10
18.054369
 20
5.734046
 10
18.35051
 20
4.825892
 10
18.591955
 20
3.889295
 10
18.779654
 20
2.930728
 10
18.915094
 20
1.956525
 10
19.000235
 20
0.972776
 10
19.03743
 20
-0.014759
 10
19.029352
 20
-1.000718
 10
18.977282
 20
-2.002656
 10
18.878838
 20
-3.039458
 10
18.731611
 20
-4.107606
 10
18.533554
 20
-5.202941
 10
18.283031
 20
-6.320677
 10
17.978914
 20
-7.455431
 10
17.620623
 20
-8.601285
 10
17.208199
 20
-9.751861
 10
16.742325
 20
-10.900418
 10
16.224363
 20
-12.039968
 10
15.656352
 20
-13.163407
 10
15.040983
 20
-14.263653
 10
14.381575
 20
-15.333793
 10
13.682004
 20
-16.367222
 10
12.946637
 20
-17.357782
 10
12.180238
 20
-18.299885
 10
11.387864
 20
-19.188604
 10
10.574763
 20
-20.019777
 10
9.746262
 20
-20.790035
 10
8.907659
 20
-21.496857
 10
8.064126
 20
-22.138556
 10
7.22062
 20
-22.714268
 10
6.381803
 20
-23.223915
 10
5.551985
 20
-23.668135
 10
4.735074
 20
-24.048218
 10
3.934544
 20
-24.366022
 10
3.135669
 20
-24.629147
 10
2.323858
 20
-24.840641
 10
1.502779
 20
-24.996056
 10
0.676504
 20
-25.091196
 10
-0.150522
 20
-25.122246
 10
-0.973538
 20
-25.085865
 10
-1.78753
 20
-24.979294
 10
-2.587315
 20
-24.800455
 10
-3.36763
 20
-24.548037
 10
-4.123235
 20
-24.221567
 10
-4.849023
 20
-23.821451
 10
-5.540124
 20
-23.349007
 10
-6.19201
 20
-22.806448
 10
-6.800595
 20
-22.196865
 10
-7.362319
 20
-21.524157
 10
-7.874216
 20
-20.792957
 10
-8.333962
 20
-20.008528
 10
-8.739913
 20
-19.17663
 10
-9.091105
 20
-18.303413
 10
-9.387246
 20
-17.395258
 10
-9.628692
 20
-16.458662
 10
-9.816391
 20
-15.500095
 10
-9.951831
 20
-14.525892
 10
-10.036971
 20
-13.542142
 10
-10.074166
 20
-12.554607
 10
-10.06609
 20
-11.568649
 10
-10.014019
 20
-10.56671
 10
-9.915573
 20
-9.529909
 10
-9.768349
 20
-8.461761
 10
-9.57029
 20
-7.366426
 10
-9.319768
 20
-6.24869
 10
-9.01565
 20
-5.113936
 10
-8.65736
 20
-3.968082
 10
-8.244934
 20
-2.817506
 10
-7.779061
 20
-1.668949
 10
-7.2611
 20
-0.529399
 10
-6.693088
 20
0.59404
 10
-6.07772
 20
1.694286
 10
-5.418311
 20
2.764426
 10
-4.71874
 20
3.797855
 10
-3.983374
 20
4.788416
 10
-3.216974
 20
5.730517
 10
-2.4246
 20
6.619238
 10
-1.611499
 20
7.45041
 10
-0.782998
 20
8.220669
 10
0.055605
 20
8.927489
 10
0.899138
 20
9.569188
 10
1.742644
 20
10.144902
 10
2.58146
 20
10.654549
 10
3.411278
 20
11.098768
 10
4.22819
 20
11.47885
 10
5.028719
 20
11.796655
  0
LWPOLYLINE
  5
A6
330
1F
100
AcDbEntity
  8
0
  6
Continuous
 62
    18
420
        0
370
     0
100
AcDbPolyline
 90
      105
 70
     0
 43
0.0
 10
5.366123
 20
11.329527
 10
6.151585
 20
11.588234
 10
6.949766
 20
11.796179
 10
7.75706
 20
11.948982
 10
8.569462
 20
12.042526
 10
9.382603
 20
12.073055
 10
10.191801
 20
12.037285
 10
10.992126
 20
11.932503
 10
11.778483
 20
11.756665
 10
12.545696
 20
11.508487
 10
13.288616
 20
11.187497
 10
14.002218
 20
10.794101
 10
14.681716
 20
10.329587
 10
15.322657
 20
9.796138
 10
15.921024
 20
9.196789
 10
16.473318
 20
8.535376
 10
16.97662
 20
7.816453
 10
17.428648
 20
7.045193
 10
17.827782
 20
6.227263
 10
18.173077
 20
5.368706
 10
18.464247
 20
4.4758
 10
18.701639
 20
3.554928
 10
18.886187
 20
2.612455
 10
19.019352
 20
1.654608
 10
19.103064
 20
0.687376
 10
19.139633
 20
-0.283579
 10
19.131693
 20
-1.252984
 10
19.080496
 20
-2.2381
 10
18.983704
 20
-3.257494
 10
18.838951
 20
-4.307709
 10
18.644217
 20
-5.384654
 10
18.397902
 20
-6.483623
 10
18.09889
 20
-7.599325
 10
17.746614
 20
-8.725941
 10
17.341114
 20
-9.8572
 10
16.883062
 20
-10.986472
 10
16.373798
 20
-12.106891
 10
15.815322
 20
-13.211467
 10
15.210286
 20
-14.293241
 10
14.561948
 20
-15.345413
 10
13.874123
 20
-16.361492
 10
13.151103
 20
-17.335421
 10
12.397571
 20
-18.261705
 10
11.618501
 20
-19.135506
 10
10.819051
 20
-19.952721
 10
10.004459
 20
-20.710049
 10
9.179936
 20
-21.405003
 10
8.350566
 20
-22.035927
 10
7.521222
 20
-22.601974
 10
6.696489
 20
-23.103064
 10
5.880603
 20
-23.539825
 10
5.077407
 20
-23.913527
 10
4.290318
 20
-24.225996
 10
3.504856
 20
-24.484703
 10
2.706675
 20
-24.692646
 10
1.899381
 20
-24.845451
 10
1.086979
 20
-24.938995
 10
0.273838
 20
-24.969524
 10
-0.535359
 20
-24.933752
 10
-1.335685
 20
-24.82897
 10
-2.122042
 20
-24.653133
 10
-2.889255
 20
-24.404955
 10
-3.632175
 20
-24.083965
 10
-4.345778
 20
-23.690569
 10
-5.025275
 20
-23.226055
 10
-5.666216
 20
-22.692606
 10
-6.264583
 20
-22.093258
 10
-6.816876
 20
-21.431845
 10
-7.320178
 20
-20.712921
 10
-7.772206
 20
-19.941662
 10
-8.171341
 20
-19.123732
 10
-8.516636
 20
-18.265175
 10
-8.807806
 20
-17.372269
 10
-9.045197
 20
-16.451397
 10
-9.229745
 20
-15.508924
 10
-9.362911
 20
-14.551077
 10
-9.446622
 20
-13.583844
 10
-9.483192
 20
-12.612889
 10
-9.475251
 20
-11.643484
 10
-9.424055
 20
-10.658368
 10
-9.327262
 20
-9.638974
 10
-9.182509
 20
-8.588759
 10
-8.987776
 20
-7.511814
 10
-8.741461
 20
-6.412845
 10
-8.442449
 20
-5.297143
 10
-8.090174
 20
-4.170527
 10
-7.684673
 20
-3.039269
 10
-7.226621
 20
-1.909996
 10
-6.717357
 20
-0.789578
 10
-6.158881
 20
0.314999
 10
-5.553844
 20
1.396773
 10
-4.905507
 20
2.448945
 10
-4.217682
 20
3.465023
 10
-3.494662
 20
4.438953
 10
-2.741129
 20
5.365237
 10
-1.962059
 20
6.239037
 10
-1.16261
 20
7.056253
 10
-0.348018
 20
7.81358
 10
0.476505
 20
8.508533
 10
1.305875
 20
9.139459
 10
2.135219
 20
9.705506
 10
2.959952
 20
10.206596
 10
3.775838
 20
10.643357
 10
4.579034
 20
11.017058
 10
5.366123
 20
11.329527
  0
LWPOLYLINE
  5
A7
330
1F
100
AcDbEntity
  8
0
  6
Continuous
 62
    18
420
        0
370
     0
100
AcDbPolyline
 90
      103
 70
     0
 43
0.0
 10
5.579797
 20
10.75993
 10
6.359976
 20
11.016373
 10
7.152963
 20
11.221326
 10
7.955026
 20
11.370276
 10
8.762009
 20
11.458988
 10
9.569378
 20
11.483616
 10
10.372273
 20
11.440815
 10
11.165586
 20
11.327856
 10
11.944036
 20
11.142727
 10
12.70228
 20
10.884217
 10
13.435016
 20
10.551992
 10
14.137093
 20
10.146637
 10
14.803633
 20
9.669676
 10
15.430134
 20
9.123561
 10
16.012571
 20
8.511636
 10
16.547485
 20
7.838068
 10
17.032045
 20
7.107748
 10
17.464102
 20
6.326187
 10
17.842207
 20
5.499374
 10
18.165621
 20
4.633647
 10
18.43429
 20
3.735543
 10
18.648808
 20
2.811657
 10
18.810368
 20
1.868517
 10
18.920691
 20
0.91246
 10
18.981951
 20
-0.05047
 10
18.996696
 20
-1.014606
 10
18.967478
 20
-1.980277
 10
18.893414
 20
-2.97667
 10
18.771873
 20
-4.005996
 10
18.600601
 20
-5.064333
 10
18.377743
 20
-6.147099
 10
18.101927
 20
-7.249083
 10
17.772337
 20
-8.364485
 10
17.388763
 20
-9.487
 10
16.951666
 20
-10.609907
 10
16.462187
 20
-11.726185
 10
15.922172
 20
-12.828647
 10
15.334157
 20
-13.910081
 10
14.701334
 20
-14.963408
 10
14.027494
 20
-15.981827
 10
13.316957
 20
-16.958965
 10
12.574475
 20
-17.889008
 10
11.805128
 20
-18.766813
 10
11.014215
 20
-19.588001
 10
10.207137
 20
-20.34902
 10
9.389283
 20
-21.04718
 10
8.565925
 20
-21.680662
 10
7.74212
 20
-22.248503
 10
6.92263
 20
-22.750551
 10
6.111857
 20
-23.187408
 10
5.313787
 20
-23.560354
 10
4.53196
 20
-23.871256
 10
3.751782
 20
-24.127699
 10
2.958795
 20
-24.332651
 10
2.156733
 20
-24.481602
 10
1.349749
 20
-24.570314
 10
0.54238
 20
-24.594942
 10
-0.260516
 20
-24.552141
 10
-1.053828
 20
-24.439182
 10
-1.832278
 20
-24.254053
 10
-2.590522
 20
-23.995544
 10
-3.323257
 20
-23.663319
 10
-4.025335
 20
-23.257963
 10
-4.691875
 20
-22.781002
 10
-5.318376
 20
-22.234886
 10
-5.900814
 20
-21.622963
 10
-6.435727
 20
-20.949394
 10
-6.920287
 20
-20.219074
 10
-7.352344
 20
-19.437513
 10
-7.730449
 20
-18.610701
 10
-8.053864
 20
-17.744974
 10
-8.322532
 20
-16.846869
 10
-8.53705
 20
-15.922983
 10
-8.69861
 20
-14.979844
 10
-8.808933
 20
-14.023787
 10
-8.870193
 20
-13.060856
 10
-8.884937
 20
-12.09672
 10
-8.85572
 20
-11.131049
 10
-8.781654
 20
-10.134657
 10
-8.660115
 20
-9.10533
 10
-8.488843
 20
-8.046993
 10
-8.265985
 20
-6.964227
 10
-7.990169
 20
-5.862244
 10
-7.660578
 20
-4.746842
 10
-7.277006
 20
-3.624326
 10
-6.839908
 20
-2.501419
 10
-6.350429
 20
-1.385141
 10
-5.810413
 20
-0.28268
 10
-5.222399
 20
0.798755
 10
-4.589576
 20
1.852081
 10
-3.915737
 20
2.870501
 10
-3.2052
 20
3.847639
 10
-2.462717
 20
4.777681
 10
-1.69337
 20
5.655487
 10
-0.902457
 20
6.476675
 10
-0.095379
 20
7.237693
 10
0.722475
 20
7.935853
 10
1.545833
 20
8.569336
 10
2.369638
 20
9.137177
 10
3.189127
 20
9.639226
 10
3.999901
 20
10.076083
 10
4.797972
 20
10.449027
 10
5.579797
 20
10.75993
  0
LINE
  5
A8
330
1F
100
AcDbEntity
  8
0
  6
Continuous
 62
    18
420
        0
370
     0
100
AcDbLine
 10
28.021212
 20
-12.507439
 30
0.0
 11
10.977553
 21
-4.464761
 31
0.0
  0
LINE
  5
A9
330
1F
100
AcDbEntity
  8
0
  6
Continuous
 62
    18
420
        0
370
     0
100
AcDbLine
 10
21.951325
 20
-21.903036
 30
0.0
 11
4.907666
 21
-13.860358
 31
0.0
  0
LINE
  5
AA
330
1F
100
AcDbEntity
  8
0
  6
Continuous
 62
    18
420
        0
370
     0
100
AcDbLine
 10
16.321425
 20
-16.756989
 30
0.0
 11
-0.722233
 21
-8.714311
 31
0.0
  0
LINE
  5
AB
330
1F
100
AcDbEntity
  8
0
  6
Continuous
 62
    18
420
        0
370
     0
100
AcDbLine
 10
28.021212
 20
-12.507439
 30
0.0
 11
22.170319
 21
-14.631742
 31
0.0
  0
LINE
  5
AC
330
1F
100
AcDbEntity
  8
0
  6
Continuous
 62
    18
420
        0
370
     0
100
AcDbLine
 10
21.951325
 20
-21.903036
 30
0.0
 11
22.170319
 21
-14.631742
 31
0.0
  0
LINE
  5
AD
330
1F
100
AcDbEntity
  8
0
  6
Continuous
 62
    18
420
        0
370
     0
100
AcDbLine
 10
16.321425
 20
-16.756989
 30
0.0
 11
22.170319
 21
-14.631742
 31
0.0
  0
LINE
  5
AE
330
1F
100
AcDbEntity
  8
0
  6
Continuous
 62
    18
420
        0
370
    30
100
AcDbLine
 10
-12.578411
 20
59.92858
 30
0.0
 11
18.092138
 21
45.455551
 31
0.0
  0
LINE
  5
AF
330
1F
100
AcDbEntity
  8
0
  6
Continuous
 62
    18
420
        0
370
    30
100
AcDbLine
 10
18.092138
 20
45.455551
 30
0.0
 11
18.174636
 21
48.182115
 31
0.0
  0
LINE
  5
B0
330
1F
100
AcDbEntity
  8
0
  6
Continuous
 62
    18
420
        0
370
    30
100
AcDbLine
 10
18.174636
 20
48.182115
 30
0.0
 11
-12.495913
 21
62.655144
 31
0.0
  0
LINE
  5
B1
330
1F
100
AcDbEntity
  8
0
  6
Continuous
 62
    18
420
        0
370
    30
100
AcDbLine
 10
-12.495913
 20
62.655144
 30
0.0
 11
-12.578411
 21
59.92858
 31
0.0
  0
LINE
  5
B2
330
1F
100
AcDbEntity
  8
0
  6
Continuous
 62
    18
420
        0
370
    30
100
AcDbLine
 10
50.997854
 20
57.407435
 30
0.0
 11
20.327305
 21
71.880463
 31
0.0
  0
LINE
  5
B3
330
1F
100
AcDbEntity
  8
0
  6
Continuous
 62
    18
420
        0
370
    30
100
AcDbLine
 10
20.327305
 20
71.880463
 30
0.0
 11
20.409803
 21
74.607027
 31
0.0
  0
LINE
  5
B4
330
1F
100
AcDbEntity
  8
0
  6
Continuous
 62
    18
420
        0
370
    30
100
AcDbLine
 10
20.409803
 20
74.607027
 30
0.0
 11
51.080351
 21
60.133999
 31
0.0
  0
LINE
  5
B5
330
1F
100
AcDbEntity
  8
0
  6
Continuous
 62
    18
420
        0
370
    30
100
AcDbLine
 10
51.080351
 20
60.133999
 30
0.0
 11
50.997854
 21
57.407435
 31
0.0
  0
LWPOLYLINE
  5
B6
330
1F
100
AcDbEntity
  8
0
  6
Continuous
 62
    18
420
        0
370
    30
100
AcDbPolyline
 90
       20
 70
     0
 43
0.0
 10
19.169762
 20
49.439362
 10
19.215034
 20
50.849541
 10
19.266563
 20
52.320343
 10
19.323311
 20
53.820461
 10
19.384241
 20
55.32478
 10
19.448042
 20
56.811447
 10
19.513739
 20
58.265553
 10
19.580578
 20
59.6768
 10
19.647896
 20
61.037056
 10
19.715073
 20
62.339016
 10
19.781769
 20
63.579948
 10
19.84775
 20
64.758873
 10
19.912786
 20
65.874916
 10
19.976669
 20
66.927483
 10
20.039194
 20
67.916023
 10
20.100212
 20
68.84008
 10
20.159639
 20
69.699318
 10
20.217394
 20
70.493309
 10
20.27334
 20
71.220856
 10
20.327303
 20
71.88044
  0
LINE
  5
B7
330
1F
100
AcDbEntity
  8
0
  6
Continuous
 62
    18
420
        0
370
    30
100
AcDbLine
 10
8.201211
 20
45.45541
 30
0.0
 11
19.169761
 21
49.439363
 31
0.0
  0
LWPOLYLINE
  5
B8
330
1F
100
AcDbEntity
  8
0
  6
Continuous
 62
    18
420
        0
370
    30
100
AcDbPolyline
 90
       32
 70
     0
 43
0.0
 10
-12.578347
 20
59.928581
 10
-11.656718
 20
59.879112
 10
-10.736322
 20
59.803787
 10
-9.817996
 20
59.702538
 10
-8.902935
 20
59.575291
 10
-7.992342
 20
59.42197
 10
-7.087312
 20
59.242382
 10
-6.18885
 20
59.03624
 10
-5.29796
 20
58.803242
 10
-4.415644
 20
58.543102
 10
-3.543048
 20
58.255486
 10
-2.681698
 20
57.939938
 10
-1.833184
 20
57.595993
 10
-0.999094
 20
57.223183
 10
-0.181066
 20
56.821033
 10
0.618794
 20
56.388947
 10
1.398106
 20
55.926266
 10
2.154488
 20
55.432335
 10
2.88555
 20
54.906494
 10
3.588285
 20
54.348396
 10
4.258578
 20
53.758259
 10
4.892204
 20
53.136341
 10
5.484936
 20
52.48291
 10
6.032474
 20
51.798328
 10
6.530072
 20
51.083519
 10
6.972789
 20
50.339718
 10
7.355394
 20
49.569313
 10
7.672476
 20
48.775505
 10
7.919237
 20
47.962063
 10
8.091631
 20
47.133434
 10
8.186279
 20
46.29528
 10
8.201211
 20
45.45541
  0
LINE
  5
B9
330
1F
100
AcDbEntity
  8
0
  6
Continuous
 62
    18
420
        0
370
    30
100
AcDbLine
 10
20.327336
 20
71.880454
 30
0.0
 11
-12.57838
 21
59.928571
 31
0.0
  0
LWPOLYLINE
  5
BA
330
1F
100
AcDbEntity
  8
0
  6
Continuous
 62
    18
420
        0
370
    30
100
AcDbPolyline
 90
       32
 70
     0
 43
0.0
 10
50.997791
 20
57.407444
 10
50.075378
 20
57.43108
 10
49.152637
 20
57.428822
 10
48.230392
 20
57.400547
 10
47.309834
 20
57.346092
 10
46.392155
 20
57.265282
 10
45.478439
 20
57.157833
 10
44.569672
 20
57.023369
 10
43.666836
 20
56.861519
 10
42.770912
 20
56.671898
 10
41.883022
 20
56.454079
 10
41.004665
 20
56.2075
 10
40.137394
 20
55.93158
 10
39.282772
 20
55.625725
 10
38.442398
 20
55.289341
 10
37.61834
 20
54.921665
 10
36.812931
 20
54.521847
 10
36.028507
 20
54.089039
 10
35.267414
 20
53.622387
 10
34.532635
 20
53.121307
 10
33.828278
 20
52.58569
 10
33.158581
 20
52.015457
 10
32.527775
 20
51.410542
 10
31.940172
 20
50.770969
 10
31.400562
 20
50.097279
 10
30.91395
 20
49.390312
 10
30.485697
 20
48.652058
 10
30.121397
 20
47.885315
 10
29.826065
 20
47.093452
 10
29.604002
 20
46.280518
 10
29.45892
 20
45.451824
 10
29.393257
 20
44.615028
  0
LINE
  5
BB
330
1F
100
AcDbEntity
  8
0
  6
Continuous
 62
    18
420
        0
370
    30
100
AcDbLine
 10
18.092107
 20
45.455571
 30
0.0
 11
50.997823
 21
57.407455
 31
0.0
  0
LWPOLYLINE
  5
BC
330
1F
100
AcDbEntity
  8
0
  6
Continuous
 62
    18
420
        0
370
    30
100
AcDbPolyline
 90
       27
 70
     0
 43
0.0
 10
18.424707
 20
40.631077
 10
18.452763
 20
41.606522
 10
18.476732
 20
42.526039
 10
18.496376
 20
43.379269
 10
18.511547
 20
44.161011
 10
18.522253
 20
44.868004
 10
18.528721
 20
45.498909
 10
18.531197
 20
46.053905
 10
18.529921
 20
46.534809
 10
18.525137
 20
46.944016
 10
18.517097
 20
47.284325
 10
18.506048
 20
47.558552
 10
18.492228
 20
47.769512
 10
18.475828
 20
47.920128
 10
18.457018
 20
48.01334
 10
18.435965
 20
48.052086
 10
18.412828
 20
48.039074
 10
18.387749
 20
47.976402
 10
18.360861
 20
47.866074
 10
18.332298
 20
47.710075
 10
18.302164
 20
47.510082
 10
18.270525
 20
47.26738
 10
18.237446
 20
46.983234
 10
18.202993
 20
46.658909
 10
18.167238
 20
46.295525
 10
18.130259
 20
45.894131
 10
18.09214
 20
45.455582
  0
LINE
  5
BD
330
1F
100
AcDbEntity
  8
0
  6
Continuous
 62
    18
420
        0
370
    30
100
AcDbLine
 10
29.393257
 20
44.61503
 30
0.0
 11
18.424707
 21
40.631077
 31
0.0
  0
LINE
  5
BE
330
1F
100
AcDbEntity
  8
0
  6
Continuous
 62
    18
420
        0
370
    30
100
AcDbLine
 10
18.424707
 20
40.631077
 30
0.0
 11
8.201211
 21
45.45541
 31
0.0
  0
LINE
  5
BF
330
1F
100
AcDbEntity
  8
0
  6
Continuous
 62
    18
420
        0
370
    30
100
AcDbLine
 10
19.169761
 20
49.439363
 30
0.0
 11
29.393257
 21
44.61503
 31
0.0
  0
LINE
  5
C0
330
1F
100
AcDbEntity
  8
0
  6
Continuous
 62
    18
420
        0
370
    30
100
AcDbLine
 10
18.31471
 20
36.995666
 30
0.0
 11
18.424707
 21
40.631077
 31
0.0
  0
LINE
  5
C1
330
1F
100
AcDbEntity
  8
0
  6
Continuous
 62
    18
420
        0
370
    30
100
AcDbLine
 10
29.28326
 20
40.979619
 30
0.0
 11
18.31471
 21
36.995666
 31
0.0
  0
LINE
  5
C2
330
1F
100
AcDbEntity
  8
0
  6
Continuous
 62
    18
420
        0
370
    30
100
AcDbLine
 10
29.393257
 20
44.61503
 30
0.0
 11
29.28326
 21
40.979619
 31
0.0
  0
LINE
  5
C3
330
1F
100
AcDbEntity
  8
0
  6
Continuous
 62
    18
420
        0
370
    30
100
AcDbLine
 10
19.059764
 20
45.803952
 30
0.0
 11
19.169761
 21
49.439363
 31
0.0
  0
LINE
  5
C4
330
1F
100
AcDbEntity
  8
0
  6
Continuous
 62
    18
420
        0
370
    30
100
AcDbLine
 10
8.091214
 20
41.819999
 30
0.0
 11
19.059764
 21
45.803952
 31
0.0
  0
LINE
  5
C5
330
1F
100
AcDbEntity
  8
0
  6
Continuous
 62
    18
420
        0
370
    30
100
AcDbLine
 10
8.201211
 20
45.45541
 30
0.0
 11
8.091214
 21
41.819999
 31
0.0
  0
LINE
  5
C6
330
1F
100
AcDbEntity
  8
0
  6
Continuous
 62
    18
420
        0
370
    30
100
AcDbLine
 10
19.059764
 20
45.803952
 30
0.0
 11
29.28326
 21
40.979619
 31
0.0
  0
LINE
  5
C7
330
1F
100
AcDbEntity
  8
0
  6
Continuous
 62
    18
420
        0
370
    30
100
AcDbLine
 10
18.31471
 20
36.995666
 30
0.0
 11
8.091214
 21
41.819999
 31
0.0
  0
LINE
  5
C8
330
1F
100
AcDbEntity
  8
0
  6
Continuous
 62
    18
420
        0
370
    30
100
AcDbLine
 10
-12.495913
 20
62.655144
 30
0.0
 11
20.409803
 21
74.607027
 31
0.0
  0
LINE
  5
C9
330
1F
100
AcDbEntity
  8
0
  6
Continuous
 62
    18
420
        0
370
    30
100
AcDbLine
 10
51.080351
 20
60.133999
 30
0.0
 11
18.174636
 21
48.182115
 31
0.0
  0
LINE
  5
CA
330
1F
100
AcDbEntity
  8
0
  6
Continuous
 62
    18
420
        0
370
    30
100
AcDbLine
 10
29.686107
 20
56.489832
 30
0.0
 11
29.603609
 21
53.763274
 31
0.0
  0
ELLIPSE
  5
CB
330
1F
100
AcDbEntity
  8
0
  6
Continuous
 62
    18
420
        0
370
    30
100
AcDbEllipse
 10
19.209722
 20
58.668013
 30
0.0
 11
-15.24299370679785
 21
0.4612077682231492
 31
0.0
210
0.0
220
0.0
230
1.0
 40
0.416206
 41
5.475236843290944
 42
8.616829496880726
  0
ELLIPSE
  5
CC
330
1F
100
AcDbEntity
  8
0
  6
Continuous
 62
    18
420
        0
370
    30
100
AcDbEllipse
 10
19.209722
 20
58.668013
 30
0.0
 11
-15.24299370679785
 21
0.4612077682231492
 31
0.0
210
0.0
220
0.0
230
1.0
 40
0.416206
 41
2.333644189701141
 42
5.475236843290944
  0
ELLIPSE
  5
CD
330
1F
100
AcDbEntity
  8
0
  6
Continuous
 62
    18
420
        0
370
    30
100
AcDbEllipse
 10
19.292219
 20
61.394571
 30
0.0
 11
15.24299370679785
 21
-0.4612077682231492
 31
0.0
210
0.0
220
0.0
230
-1.0
 40
0.416206
 41
3.94954111747844
 42
7.091133771068237
  0
ELLIPSE
  5
CE
330
1F
100
AcDbEntity
  8
0
  6
Continuous
 62
    18
420
        0
370
    30
100
AcDbEllipse
 10
19.292219
 20
61.394571
 30
0.0
 11
15.24299370679785
 21
-0.4612077682231492
 31
0.0
210
0.0
220
0.0
230
-1.0
 40
0.416206
 41
0.8079484638886506
 42
3.94954111747844
  0
ELLIPSE
  5
CF
330
1F
100
AcDbEntity
  8
0
  6
Continuous
 62
    18
420
        0
370
    30
100
AcDbEllipse
 10
19.021984
 20
52.463253
 30
0.0
 11
5.497473140156303
 21
-0.1663372278837497
 31
0.0
210
0.0
220
0.0
230
-1.0
 40
0.416206
 41
0.8079484638886358
 42
3.949541117478444
  0
ELLIPSE
  5
D0
330
1F
100
AcDbEntity
  8
0
  6
Continuous
 62
    18
420
        0
370
    30
100
AcDbEllipse
 10
19.021984
 20
52.463253
 30
0.0
 11
5.497473140156303
 21
-0.1663372278837497
 31
0.0
210
0.0
220
0.0
230
-1.0
 40
0.416206
 41
3.949541117478444
 42
7.091133771068222
  0
LINE
  5
D1
330
1F
100
AcDbEntity
  8
0
  6
Continuous
 62
    18
420
        0
370
    30
100
AcDbLine
 10
22.770599
 20
50.694331
 30
0.0
 11
29.603609
 21
53.763274
 31
0.0
  0
LINE
  5
D2
330
1F
100
AcDbEntity
  8
0
  6
Continuous
 62
    18
420
        0
370
    30
100
AcDbLine
 10
22.770599
 20
50.694331
 30
0.0
 11
22.435852
 21
39.630887
 31
0.0
  0
ELLIPSE
  5
D3
330
1F
100
AcDbEntity
  8
0
  6
Continuous
 62
    18
420
        0
370
    30
100
AcDbEllipse
 10
18.687237
 20
41.399809
 30
0.0
 11
-5.497473140156303
 21
0.1663372278837497
 31
0.0
210
0.0
220
0.0
230
1.0
 40
0.416206
 41
5.475236843290929
 42
8.616829496880728
  0
ELLIPSE
  5
D4
330
1F
100
AcDbEntity
  8
0
  6
Continuous
 62
    18
420
        0
370
    30
100
AcDbEllipse
 10
18.687237
 20
41.399809
 30
0.0
 11
-5.497473140156303
 21
0.1663372278837497
 31
0.0
210
0.0
220
0.0
230
1.0
 40
0.416206
 41
2.333644189701142
 42
5.475236843290929
  0
LINE
  5
D5
330
1F
100
AcDbEntity
  8
0
  6
Continuous
 62
    18
420
        0
370
     0
100
AcDbLine
 10
19.384334
 20
55.3269
 30
0.0
 11
6.745908
 21
50.736422
 31
0.0
  0
LINE
  5
D6
330
1F
100
AcDbEntity
  8
0
  6
Continuous
 62
    18
420
        0
370
     0
100
AcDbLine
 10
19.679591
 20
61.659067
 30
0.0
 11
2.285941
 21
55.341415
 31
0.0
  0
LINE
  5
D7
330
1F
100
AcDbEntity
  8
0
  6
Continuous
 62
    18
420
        0
370
     0
100
AcDbLine
 10
20.01078
 20
67.471921
 30
0.0
 11
-4.499897
 21
58.56925
 31
0.0
  0
LINE
  5
D8
330
1F
100
AcDbEntity
  8
0
  6
Continuous
 62
    18
420
        0
370
     0
100
AcDbLine
 10
18.525838
 20
45.177627
 30
0.0
 11
31.164264
 21
49.768106
 31
0.0
  0
LINE
  5
D9
330
1F
100
AcDbEntity
  8
0
  6
Continuous
 62
    18
420
        0
370
     0
100
AcDbLine
 10
18.498222
 20
47.691053
 30
0.0
 11
35.891872
 21
54.008705
 31
0.0
  0
LINE
  5
DA
330
1F
100
AcDbEntity
  8
0
  6
Continuous
 62
    18
420
        0
370
     0
100
AcDbLine
 10
18.345866
 20
47.788635
 30
0.0
 11
42.856543
 21
56.691306
 31
0.0
  0
LINE
  5
DB
330
1F
100
AcDbEntity
  8
0
  6
Continuous
 62
    18
420
        0
370
     0
100
AcDbLine
 10
6.745905
 20
50.736436
 30
0.0
 11
18.525849
 21
45.177635
 31
0.0
  0
LINE
  5
DC
330
1F
100
AcDbEntity
  8
0
  6
Continuous
 62
    18
420
        0
370
     0
100
AcDbLine
 10
2.285907
 20
55.341383
 30
0.0
 11
18.498106
 21
47.691059
 31
0.0
  0
LINE
  5
DD
330
1F
100
AcDbEntity
  8
0
  6
Continuous
 62
    18
420
        0
370
     0
100
AcDbLine
 10
-4.499946
 20
58.569263
 30
0.0
 11
18.345861
 21
47.788627
 31
0.0
  0
LINE
  5
DE
330
1F
100
AcDbEntity
  8
0
  6
Continuous
 62
    18
420
        0
370
     0
100
AcDbLine
 10
31.164267
 20
49.768111
 30
0.0
 11
19.384324
 21
55.326912
 31
0.0
  0
LINE
  5
DF
330
1F
100
AcDbEntity
  8
0
  6
Continuous
 62
    18
420
        0
370
     0
100
AcDbLine
 10
35.891907
 20
54.008767
 30
0.0
 11
19.679708
 21
61.65909
 31
0.0
  0
LINE
  5
E0
330
1F
100
AcDbEntity
  8
0
  6
Continuous
 62
    18
420
        0
370
     0
100
AcDbLine
 10
42.856592
 20
56.691317
 30
0.0
 11
20.010785
 21
67.471953
 31
0.0
  0
LINE
  5
E1
330
1F
100
AcDbEntity
  8
0
  6
Continuous
 62
    18
420
        0
370
     0
100
AcDbLine
 10
12.100585
 20
68.892366
 30
0.0
 11
12.183374
 21
71.619056
 31
0.0
  0
LINE
  5
E2
330
1F
100
AcDbEntity
  8
0
  6
Continuous
 62
    18
420
        0
370
     0
100
AcDbLine
 10
3.874478
 20
65.904512
 30
0.0
 11
3.956945
 21
68.631085
 31
0.0
  0
LINE
  5
E3
330
1F
100
AcDbEntity
  8
0
  6
Continuous
 62
    18
420
        0
370
     0
100
AcDbLine
 10
-4.35163
 20
62.916658
 30
0.0
 11
-4.269484
 21
65.643114
 31
0.0
  0
LINE
  5
E4
330
1F
100
AcDbEntity
  8
0
  6
Continuous
 62
    18
420
        0
370
     0
100
AcDbLine
 10
20.347849
 20
72.562108
 30
0.0
 11
-12.557695
 21
60.610287
 31
0.0
  0
LINE
  5
E5
330
1F
100
AcDbEntity
  8
0
  6
Continuous
 62
    18
420
        0
370
     0
100
AcDbLine
 10
20.36855
 20
73.243772
 30
0.0
 11
-12.537156
 21
61.291892
 31
0.0
  0
LINE
  5
E6
330
1F
100
AcDbEntity
  8
0
  6
Continuous
 62
    18
420
        0
370
     0
100
AcDbLine
 10
20.389179
 20
73.925401
 30
0.0
 11
-12.516537
 21
61.973517
 31
0.0
  0
LINE
  5
E7
330
1F
100
AcDbEntity
  8
0
  6
Continuous
 62
    18
420
        0
370
     0
100
AcDbLine
 10
42.853922
 20
57.146028
 30
0.0
 11
42.771073
 21
54.419367
 31
0.0
  0
LINE
  5
E8
330
1F
100
AcDbEntity
  8
0
  6
Continuous
 62
    18
420
        0
370
     0
100
AcDbLine
 10
34.627494
 20
54.158057
 30
0.0
 11
34.544965
 21
51.431513
 31
0.0
  0
LINE
  5
E9
330
1F
100
AcDbEntity
  8
0
  6
Continuous
 62
    18
420
        0
370
     0
100
AcDbLine
 10
26.401065
 20
51.170086
 30
0.0
 11
26.318858
 21
48.443659
 31
0.0
  0
LINE
  5
EA
330
1F
100
AcDbEntity
  8
0
  6
Continuous
 62
    18
420
        0
370
     0
100
AcDbLine
 10
51.059727
 20
59.452372
 30
0.0
 11
18.154012
 21
47.500489
 31
0.0
  0
LINE
  5
EB
330
1F
100
AcDbEntity
  8
0
  6
Continuous
 62
    18
420
        0
370
     0
100
AcDbLine
 10
51.039098
 20
58.770744
 30
0.0
 11
18.133393
 21
46.818864
 31
0.0
  0
LINE
  5
EC
330
1F
100
AcDbEntity
  8
0
  6
Continuous
 62
    18
420
        0
370
     0
100
AcDbLine
 10
51.018389
 20
58.089083
 30
0.0
 11
18.112845
 21
46.137262
 31
0.0
  0
LINE
  5
ED
330
1F
100
AcDbEntity
  8
0
  6
Continuous
 62
    18
420
        0
370
     0
100
AcDbLine
 10
8.14086
 20
57.344219
 30
0.0
 11
8.058362
 21
54.61766
 31
0.0
  0
LINE
  5
EE
330
1F
100
AcDbEntity
  8
0
  6
Continuous
 62
    18
420
        0
370
     0
100
AcDbLine
 10
8.898332
 20
66.29931
 30
0.0
 11
8.815834
 21
63.572751
 31
0.0
  0
LINE
  5
EF
330
1F
100
AcDbEntity
  8
0
  6
Continuous
 62
    18
420
        0
370
     0
100
AcDbLine
 10
30.443578
 20
65.444923
 30
0.0
 11
30.361081
 21
62.718365
 31
0.0
  0
LINE
  5
F0
330
1F
100
AcDbEntity
  8
0
  6
Continuous
 62
    18
420
        0
370
     0
100
AcDbLine
 10
15.000182
 20
51.00247
 30
0.0
 11
8.058362
 21
54.61766
 31
0.0
  0
LINE
  5
F1
330
1F
100
AcDbEntity
  8
0
  6
Continuous
 62
    18
420
        0
370
     0
100
AcDbLine
 10
15.273369
 20
54.232175
 30
0.0
 11
8.815834
 21
63.572751
 31
0.0
  0
LINE
  5
F2
330
1F
100
AcDbEntity
  8
0
  6
Continuous
 62
    18
420
        0
370
     0
100
AcDbLine
 10
23.043786
 20
53.924036
 30
0.0
 11
30.361081
 21
62.718365
 31
0.0
  0
LINE
  5
F3
330
1F
100
AcDbEntity
  8
0
  6
Continuous
 62
    18
420
        0
370
     0
100
AcDbLine
 10
15.000182
 20
51.00247
 30
0.0
 11
14.665435
 21
39.939026
 31
0.0
  0
LINE
  5
F4
330
1F
100
AcDbEntity
  8
0
  6
Continuous
 62
    18
420
        0
370
     0
100
AcDbLine
 10
15.273369
 20
54.232175
 30
0.0
 11
14.938622
 21
43.168731
 31
0.0
  0
LINE
  5
F5
330
1F
100
AcDbEntity
  8
0
  6
Continuous
 62
    18
420
        0
370
     0
100
AcDbLine
 10
23.043786
 20
53.924036
 30
0.0
 11
22.709039
 21
42.860592
 31
0.0
  0
LINE
  5
F6
330
1F
100
AcDbEntity
  8
0
  6
Continuous
 62
    18
420
        0
370
    30
100
AcDbLine
 10
8.091213
 20
41.82
 30
0.0
 11
6.441261
 21
-12.711281
 31
0.0
  0
LINE
  5
F7
330
1F
100
AcDbEntity
  8
0
  6
Continuous
 62
    18
420
        0
370
    30
100
AcDbLine
 10
6.441259
 20
-12.71128
 30
0.0
 11
16.664755
 21
-17.535613
 31
0.0
  0
LINE
  5
F8
330
1F
100
AcDbEntity
  8
0
  6
Continuous
 62
    18
420
        0
370
    30
100
AcDbLine
 10
18.314709
 20
36.995667
 30
0.0
 11
16.664753
 21
-17.535618
 31
0.0
  0
LINE
  5
F9
330
1F
100
AcDbEntity
  8
0
  6
Continuous
 62
    18
420
        0
370
    30
100
AcDbLine
 10
16.664755
 20
-17.535613
 30
0.0
 11
27.633305
 21
-13.55166
 31
0.0
  0
LINE
  5
FA
330
1F
100
AcDbEntity
  8
0
  6
Continuous
 62
    18
420
        0
370
    30
100
AcDbLine
 10
29.28326
 20
40.979622
 30
0.0
 11
27.633305
 21
-13.551659
 31
0.0
  0
LINE
  5
FB
330
1F
100
AcDbEntity
  8
0
  6
Continuous
 62
    18
420
        0
370
    30
100
AcDbLine
 10
27.633305
 20
-13.55166
 30
0.0
 11
17.409809
 21
-8.727326
 31
0.0
  0
LINE
  5
FC
330
1F
100
AcDbEntity
  8
0
  6
Continuous
 62
    18
420
        0
370
    30
100
AcDbLine
 10
19.059765
 20
45.803955
 30
0.0
 11
17.409809
 21
-8.727318
 31
0.0
  0
LINE
  5
FD
330
1F
100
AcDbEntity
  8
0
  6
Continuous
 62
    18
420
        0
370
    30
100
AcDbLine
 10
17.409809
 20
-8.727326
 30
0.0
 11
6.441259
 21
-12.71128
 31
0.0
  0
ENDSEC
  0
SECTION
  2
OBJECTS
  0
DICTIONARY
  5
C
330
0
100
AcDbDictionary
281
     1
  3
ACAD_DETAILVIEWSTYLE
350
135
  3
ACAD_GROUP
350
D
  3
ACAD_LAYOUT
350
1A
  3
ACAD_MATERIAL
350
43
  3
ACAD_MLEADERSTYLE
350
6B
  3
ACAD_MLINESTYLE
350
17
  3
ACAD_PLOTSETTINGS
350
19
  3
ACAD_PLOTSTYLENAME
350
E
  3
ACAD_SCALELIST
350
47
  3
ACAD_SECTIONVIEWSTYLE
350
136
  3
ACAD_TABLESTYLE
350
69
  3
ACAD_VISUALSTYLE
350
2A
  3
ACDB_RECOMPOSE_DATA
350
132
  3
AcDbVariableDictionary
350
FE
  0
SUN
  5
6D
330
29
100
AcDbSun
 90
        1
290
     0
 63
     7
421
 16777215
 40
1.0
291
     1
 91
  2455826
 92
 54000000
292
     0
 70
     2
 71
   256
280
     1
  0
DICTIONARY
  5
135
102
{ACAD_REACTORS
330
C
102
}
330
C
100
AcDbDictionary
281
     1
  0
DICTIONARY
  5
D
102
{ACAD_REACTORS
330
C
102
}
330
C
100
AcDbDictionary
281
     1
  0
DICTIONARY
  5
1A
102
{ACAD_REACTORS
330
C
102
}
330
C
100
AcDbDictionary
281
     1
  3
Layout1
350
1E
  3
Layout2
350
26
  3
Model
350
22
  0
DICTIONARY
  5
43
102
{ACAD_REACTORS
330
C
102
}
330
C
100
AcDbDictionary
281
     1
  3
ByBlock
350
45
  3
ByLayer
350
44
  3
Global
350
46
  0
DICTIONARY
  5
6B
102
{ACAD_REACTORS
330
C
102
}
330
C
100
AcDbDictionary
281
     1
  3
Standard
350
6C
  0
DICTIONARY
  5
17
102
{ACAD_REACTORS
330
C
102
}
330
C
100
AcDbDictionary
281
     1
  3
Standard
350
18
  0
DICTIONARY
  5
19
102
{ACAD_REACTORS
330
C
102
}
330
C
100
AcDbDictionary
281
     1
  0
ACDBDICTIONARYWDFLT
  5
E
102
{ACAD_REACTORS
330
C
102
}
330
C
100
AcDbDictionary
281
     1
  3
Normal
350
F
100
AcDbDictionaryWithDefault
340
F
  0
DICTIONARY
  5
47
102
{ACAD_REACTORS
330
C
102
}
330
C
100
AcDbDictionary
281
     1
  3
A0
350
48
  3
A1
350
49
  3
A2
350
4A
  3
A3
350
4B
  3
A4
350
4C
  3
A5
350
4D
  3
A6
350
4E
  3
A7
350
4F
  3
A8
350
50
  3
A9
350
51
  3
B0
350
52
  3
B1
350
53
  3
B2
350
54
  3
B3
350
55
  3
B4
350
56
  3
B5
350
57
  3
B6
350
58
  3
B7
350
59
  3
B8
350
5A
  3
B9
350
5B
  3
C0
350
5C
  3
C1
350
5D
  3
C2
350
5E
  3
C3
350
5F
  3
C4
350
60
  3
C5
350
61
  3
C6
350
62
  3
C7
350
63
  3
C8
350
64
  3
C9
350
65
  3
D0
350
66
  3
D1
350
67
  3
D2
350
68
  0
DICTIONARY
  5
136
102
{ACAD_REACTORS
330
C
102
}
330
C
100
AcDbDictionary
281
     1
  0
DICTIONARY
  5
69
102
{ACAD_REACTORS
330
C
102
}
330
C
100
AcDbDictionary
281
     1
  3
Standard
350
6A
  0
DICTIONARY
  5
2A
102
{ACAD_REACTORS
330
C
102
}
330
C
100
AcDbDictionary
281
     1
  3
2dWireframe
350
2F
  3
Basic
350
32
  3
Brighten
350
36
  3
ColorChange
350
3A
  3
Conceptual
350
34
  3
Dim
350
35
  3
EdgeColorOff
350
3D
  3
Facepattern
350
39
  3
Flat
350
2B
  3
FlatWithEdges
350
2C
  3
Gouraud
350
2D
  3
GouraudWithEdges
350
2E
  3
Hidden
350
31
  3
JitterOff
350
3B
  3
Linepattern
350
38
  3
OverhangOff
350
3C
  3
Realistic
350
33
  3
Shaded
350
42
  3
Shaded with edges
350
41
  3
Shades of Gray
350
3E
  3
Sketchy
350
3F
  3
Thicken
350
37
  3
Wireframe
350
30
  3
X-Ray
350
40
  0
XRECORD
  5
132
102
{ACAD_REACTORS
330
C
102
}
330
C
100
AcDbXrecord
280
     1
 90
        1
330
6A
  0
DICTIONARY
  5
FE
102
{ACAD_REACTORS
330
C
102
}
330
C
100
AcDbDictionary
281
     1
  3
CANNOSCALE
350
FF
  3
CMLEADERSTYLE
350
134
  3
CTABLESTYLE
350
133
  0
LAYOUT
  5
1E
102
{ACAD_REACTORS
330
1A
102
}
330
1A
100
AcDbPlotSettings
  1

  2
none_device
  4

  6

 40
0.0
 41
0.0
 42
0.0
 43
0.0
 44
0.0
 45
0.0
 46
0.0
 47
0.0
 48
0.0
 49
0.0
140
0.0
141
0.0
142
1.0
143
1.0
 70
   688
 72
     1
 73
     0
 74
     5
  7

 75
    16
 76
     0
 77
     2
 78
   300
147
1.0
148
0.0
149
0.0
100
AcDbLayout
  1
Layout1
 70
     1
 71
     1
 10
0.0
 20
0.0
 11
420.0
 21
297.0
 12
0.0
 22
0.0
 32
0.0
 14
1.000000E+20
 24
1.000000E+20
 34
1.000000E+20
 15
-1.000000E+20
 25
-1.000000E+20
 35
-1.000000E+20
146
0.0
 13
0.0
 23
0.0
 33
0.0
 16
1.0
 26
0.0
 36
0.0
 17
0.0
 27
1.0
 37
0.0
 76
     0
330
1B
  0
LAYOUT
  5
26
102
{ACAD_REACTORS
330
1A
102
}
330
1A
100
AcDbPlotSettings
  1

  2
none_device
  4

  6

 40
0.0
 41
0.0
 42
0.0
 43
0.0
 44
0.0
 45
0.0
 46
0.0
 47
0.0
 48
0.0
 49
0.0
140
0.0
141
0.0
142
1.0
143
1.0
 70
   688
 72
     1
 73
     0
 74
     5
  7

 75
    16
 76
     0
 77
     2
 78
   300
147
1.0
148
0.0
149
0.0
100
AcDbLayout
  1
Layout2
 70
     1
 71
     2
 10
0.0
 20
0.0
 11
0.0
 21
0.0
 12
0.0
 22
0.0
 32
0.0
 14
0.0
 24
0.0
 34
0.0
 15
0.0
 25
0.0
 35
0.0
146
0.0
 13
0.0
 23
0.0
 33
0.0
 16
1.0
 26
0.0
 36
0.0
 17
0.0
 27
1.0
 37
0.0
 76
     0
330
23
  0
LAYOUT
  5
22
102
{ACAD_REACTORS
330
1A
102
}
330
1A
100
AcDbPlotSettings
  1

  2
none_device
  4
Letter_(8.50_x_11.00_Inches)
  6

 40
6.35
 41
6.35
 42
6.350005
 43
6.350005
 44
215.9
 45
279.4
 46
0.0
 47
0.0
 48
0.0
 49
0.0
140
0.0
141
0.0
142
1.0
143
1.0
 70
  1712
 72
     1
 73
     0
 74
     0
  7

 75
     0
 76
     0
 77
     2
 78
   300
147
1.0
148
0.0
149
0.0
100
AcDbLayout
  1
Model
 70
     1
 71
     0
 10
0.0
 20
0.0
 11
420.0
 21
297.0
 12
0.0
 22
0.0
 32
0.0
 14
1.000000E+20
 24
1.000000E+20
 34
1.000000E+20
 15
-1.000000E+20
 25
-1.000000E+20
 35
-1.000000E+20
146
0.0
 13
0.0
 23
0.0
 33
0.0
 16
1.0
 26
0.0
 36
0.0
 17
0.0
 27
1.0
 37
0.0
 76
     0
330
1F
331
29
  0
MATERIAL
  5
45
102
{ACAD_REACTORS
330
43
102
}
330
43
100
AcDbMaterial
  1
ByBlock
 72
     1
 94
      127
  0
MATERIAL
  5
44
102
{ACAD_REACTORS
330
43
102
}
330
43
100
AcDbMaterial
  1
ByLayer
 72
     1
 94
      127
  0
MATERIAL
  5
46
102
{ACAD_REACTORS
330
43
102
}
330
43
100
AcDbMaterial
  1
Global
 72
     1
 94
      127
  0
MLEADERSTYLE
  5
6C
102
{ACAD_REACTORS
330
6B
102
}
330
6B
100
AcDbMLeaderStyle
179
     2
170
     2
171
     1
172
     0
 90
        2
 40
0.0
 41
0.0
173
     1
 91
-1056964608
340
14
 92
       -2
290
     1
 42
2.0
291
     1
 43
8.0
  3
Standard
341
0
 44
4.0
300

342
11
174
     1
178
     6
175
     1
176
     0
 93
-1056964608
 45
4.0
292
     0
297
     0
 46
4.0
343
0
 94
-1056964608
 47
1.0
 49
1.0
140
1.0
293
     1
141
0.0
294
     1
177
     0
142
1.0
295
     0
296
     0
143
3.75
271
     0
272
     9
273
     9
  0
MLINESTYLE
  5
18
102
{ACAD_REACTORS
330
17
102
}
330
17
100
AcDbMlineStyle
  2
Standard
 70
     0
  3

 62
   256
 51
90.0
 52
90.0
 71
     2
 49
0.5
 62
   256
  6
BYLAYER
 49
-0.5
 62
   256
  6
BYLAYER
  0
ACDBPLACEHOLDER
  5
F
102
{ACAD_REACTORS
330
E
102
}
330
E
  0
SCALE
  5
48
102
{ACAD_REACTORS
330
47
102
}
330
47
100
AcDbScale
 70
     0
300
1:1
140
1.0
141
1.0
290
     1
  0
SCALE
  5
49
102
{ACAD_REACTORS
330
47
102
}
330
47
100
AcDbScale
 70
     0
300
1:2
140
1.0
141
2.0
290
     0
  0
SCALE
  5
4A
102
{ACAD_REACTORS
330
47
102
}
330
47
100
AcDbScale
 70
     0
300
1:4
140
1.0
141
4.0
290
     0
  0
SCALE
  5
4B
102
{ACAD_REACTORS
330
47
102
}
330
47
100
AcDbScale
 70
     0
300
1:5
140
1.0
141
5.0
290
     0
  0
SCALE
  5
4C
102
{ACAD_REACTORS
330
47
102
}
330
47
100
AcDbScale
 70
     0
300
1:8
140
1.0
141
8.0
290
     0
  0
SCALE
  5
4D
102
{ACAD_REACTORS
330
47
102
}
330
47
100
AcDbScale
 70
     0
300
1:10
140
1.0
141
10.0
290
     0
  0
SCALE
  5
4E
102
{ACAD_REACTORS
330
47
102
}
330
47
100
AcDbScale
 70
     0
300
1:16
140
1.0
141
16.0
290
     0
  0
SCALE
  5
4F
102
{ACAD_REACTORS
330
47
102
}
330
47
100
AcDbScale
 70
     0
300
1:20
140
1.0
141
20.0
290
     0
  0
SCALE
  5
50
102
{ACAD_REACTORS
330
47
102
}
330
47
100
AcDbScale
 70
     0
300
1:30
140
1.0
141
30.0
290
     0
  0
SCALE
  5
51
102
{ACAD_REACTORS
330
47
102
}
330
47
100
AcDbScale
 70
     0
300
1:40
140
1.0
141
40.0
290
     0
  0
SCALE
  5
52
102
{ACAD_REACTORS
330
47
102
}
330
47
100
AcDbScale
 70
     0
300
1:50
140
1.0
141
50.0
290
     0
  0
SCALE
  5
53
102
{ACAD_REACTORS
330
47
102
}
330
47
100
AcDbScale
 70
     0
300
1:100
140
1.0
141
100.0
290
     0
  0
SCALE
  5
54
102
{ACAD_REACTORS
330
47
102
}
330
47
100
AcDbScale
 70
     0
300
2:1
140
2.0
141
1.0
290
     0
  0
SCALE
  5
55
102
{ACAD_REACTORS
330
47
102
}
330
47
100
AcDbScale
 70
     0
300
4:1
140
4.0
141
1.0
290
     0
  0
SCALE
  5
56
102
{ACAD_REACTORS
330
47
102
}
330
47
100
AcDbScale
 70
     0
300
8:1
140
8.0
141
1.0
290
     0
  0
SCALE
  5
57
102
{ACAD_REACTORS
330
47
102
}
330
47
100
AcDbScale
 70
     0
300
10:1
140
10.0
141
1.0
290
     0
  0
SCALE
  5
58
102
{ACAD_REACTORS
330
47
102
}
330
47
100
AcDbScale
 70
     0
300
100:1
140
100.0
141
1.0
290
     0
  0
SCALE
  5
59
102
{ACAD_REACTORS
330
47
102
}
330
47
100
AcDbScale
 70
     0
300
1/128" = 1'-0"
140
0.007812
141
12.0
290
     0
  0
SCALE
  5
5A
102
{ACAD_REACTORS
330
47
102
}
330
47
100
AcDbScale
 70
     0
300
1/64" = 1'-0"
140
0.015625
141
12.0
290
     0
  0
SCALE
  5
5B
102
{ACAD_REACTORS
330
47
102
}
330
47
100
AcDbScale
 70
     0
300
1/32" = 1'-0"
140
0.03125
141
12.0
290
     0
  0
SCALE
  5
5C
102
{ACAD_REACTORS
330
47
102
}
330
47
100
AcDbScale
 70
     0
300
1/16" = 1'-0"
140
0.0625
141
12.0
290
     0
  0
SCALE
  5
5D
102
{ACAD_REACTORS
330
47
102
}
330
47
100
AcDbScale
 70
     0
300
3/32" = 1'-0"
140
0.09375
141
12.0
290
     0
  0
SCALE
  5
5E
102
{ACAD_REACTORS
330
47
102
}
330
47
100
AcDbScale
 70
     0
300
1/8" = 1'-0"
140
0.125
141
12.0
290
     0
  0
SCALE
  5
5F
102
{ACAD_REACTORS
330
47
102
}
330
47
100
AcDbScale
 70
     0
300
3/16" = 1'-0"
140
0.1875
141
12.0
290
     0
  0
SCALE
  5
60
102
{ACAD_REACTORS
330
47
102
}
330
47
100
AcDbScale
 70
     0
300
1/4" = 1'-0"
140
0.25
141
12.0
290
     0
  0
SCALE
  5
61
102
{ACAD_REACTORS
330
47
102
}
330
47
100
AcDbScale
 70
     0
300
3/8" = 1'-0"
140
0.375
141
12.0
290
     0
  0
SCALE
  5
62
102
{ACAD_REACTORS
330
47
102
}
330
47
100
AcDbScale
 70
     0
300
1/2" = 1'-0"
140
0.5
141
12.0
290
     0
  0
SCALE
  5
63
102
{ACAD_REACTORS
330
47
102
}
330
47
100
AcDbScale
 70
     0
300
3/4" = 1'-0"
140
0.75
141
12.0
290
     0
  0
SCALE
  5
64
102
{ACAD_REACTORS
330
47
102
}
330
47
100
AcDbScale
 70
     0
300
1" = 1'-0"
140
1.0
141
12.0
290
     0
  0
SCALE
  5
65
102
{ACAD_REACTORS
330
47
102
}
330
47
100
AcDbScale
 70
     0
300
1-1/2" = 1'-0"
140
1.5
141
12.0
290
     0
  0
SCALE
  5
66
102
{ACAD_REACTORS
330
47
102
}
330
47
100
AcDbScale
 70
     0
300
3" = 1'-0"
140
3.0
141
12.0
290
     0
  0
SCALE
  5
67
102
{ACAD_REACTORS
330
47
102
}
330
47
100
AcDbScale
 70
     0
300
6" = 1'-0"
140
6.0
141
12.0
290
     0
  0
SCALE
  5
68
102
{ACAD_REACTORS
330
47
102
}
330
47
100
AcDbScale
 70
     0
300
1'-0" = 1'-0"
140
12.0
141
12.0
290
     0
  0
TABLESTYLE
  5
6A
102
{ACAD_REACTORS
330
69
102
}
102
{ACAD_XDICTIONARY
360
130
102
}
330
69
100
AcDbTableStyle
  3
Standard
 70
     0
 71
     0
 40
0.06
 41
0.06
280
     0
281
     0
  7
Standard
140
4.5
170
     2
 62
     0
 63
   257
283
     0
 90
        4
 91
        0
  1

274
    -2
284
     1
 64
     0
275
    -2
285
     1
 65
     0
276
    -2
286
     1
 66
     0
277
    -2
287
     1
 67
     0
278
    -2
288
     1
 68
     0
279
    -2
289
     1
 69
     0
  7
Standard
140
6.0
170
     5
 62
     0
 63
   257
283
     0
 90
        4
 91
        0
  1

274
    -2
284
     1
 64
     0
275
    -2
285
     1
 65
     0
276
    -2
286
     1
 66
     0
277
    -2
287
     1
 67
     0
278
    -2
288
     1
 68
     0
279
    -2
289
     1
 69
     0
  7
Standard
140
4.5
170
     5
 62
     0
 63
   257
283
     0
 90
        4
 91
        0
  1

274
    -2
284
     1
 64
     0
275
    -2
285
     1
 65
     0
276
    -2
286
     1
 66
     0
277
    -2
287
     1
 67
     0
278
    -2
288
     1
 68
     0
279
    -2
289
     1
 69
     0
  0
VISUALSTYLE
  5
2F
102
{ACAD_REACTORS
330
2A
102
}
102
{ACAD_XDICTIONARY
360
108
102
}
330
2A
100
AcDbVisualStyle
  2
2dWireframe
 70
     4
177
     2
291
     0
 71
     0
176
     1
 72
     2
176
     1
 73
     0
176
     1
 90
        0
176
     1
 40
0.6
176
     1
 41
30.0
176
     1
 62
     5
 63
     7
421
 16777215
176
     1
 74
     1
176
     1
 91
        4
176
     1
 64
     7
176
     1
 65
   257
176
     1
 75
     1
176
     1
175
     1
176
     1
 42
1.0
176
     1
 92
        0
176
     1
 66
   257
176
     1
 43
1.0
176
     1
 76
     1
176
     1
 77
     6
176
     1
 78
     2
176
     1
 67
     7
176
     1
 79
     5
176
     1
170
     0
176
     1
171
     0
176
     1
290
     0
176
     1
 93
        1
176
     1
 44
0.0
176
     1
173
     0
176
     1
  0
VISUALSTYLE
  5
32
102
{ACAD_REACTORS
330
2A
102
}
102
{ACAD_XDICTIONARY
360
10E
102
}
330
2A
100
AcDbVisualStyle
  2
Basic
 70
     7
177
     2
291
     1
 71
     1
176
     1
 72
     0
176
     1
 73
     1
176
     1
 90
        0
176
     1
 40
0.6
176
     1
 41
30.0
176
     1
 62
     5
 63
     7
421
 16777215
176
     1
 74
     0
176
     1
 91
        4
176
     1
 64
     7
176
     1
 65
   257
176
     1
 75
     1
176
     1
175
     1
176
     1
 42
1.0
176
     1
 92
        8
176
     1
 66
     7
176
     1
 43
1.0
176
     1
 76
     1
176
     1
 77
     6
176
     1
 78
     2
176
     1
 67
     7
176
     1
 79
     5
176
     1
170
     0
176
     1
171
     0
176
     1
290
     0
176
     1
 93
        1
176
     1
 44
0.0
176
     1
173
     0
176
     1
  0
VISUALSTYLE
  5
36
102
{ACAD_REACTORS
330
2A
102
}
102
{ACAD_XDICTIONARY
360
116
102
}
330
2A
100
AcDbVisualStyle
  2
Brighten
 70
    12
177
     2
291
     1
 71
     2
176
     1
 72
     2
176
     1
 73
     0
176
     1
 90
        0
176
     1
 40
0.6
176
     1
 41
30.0
176
     1
 62
     5
 63
     7
421
 16777215
176
     1
 74
     1
176
     1
 91
        4
176
     1
 64
     7
176
     1
 65
   257
176
     1
 75
     1
176
     1
175
     1
176
     1
 42
1.0
176
     1
 92
        8
176
     1
 66
     7
176
     1
 43
1.0
176
     1
 76
     1
176
     1
 77
     6
176
     1
 78
     2
176
     1
 67
     7
176
     1
 79
     5
176
     1
170
     0
176
     1
171
     0
176
     1
290
     0
176
     1
 93
        1
176
     1
 44
50.0
176
     1
173
     0
176
     1
  0
VISUALSTYLE
  5
3A
102
{ACAD_REACTORS
330
2A
102
}
102
{ACAD_XDICTIONARY
360
11E
102
}
330
2A
100
AcDbVisualStyle
  2
ColorChange
 70
    16
177
     2
291
     1
 71
     2
176
     1
 72
     2
176
     1
 73
     3
176
     1
 90
        0
176
     1
 40
0.6
176
     1
 41
30.0
176
     1
 62
     5
 63
     8
421
  8421504
176
     1
 74
     1
176
     1
 91
        4
176
     1
 64
     7
176
     1
 65
   257
176
     1
 75
     1
176
     1
175
     1
176
     1
 42
1.0
176
     1
 92
        8
176
     1
 66
     8
424
  8421504
176
     1
 43
1.0
176
     1
 76
     1
176
     1
 77
     6
176
     1
 78
     2
176
     1
 67
     7
176
     1
 79
     5
176
     1
170
     0
176
     1
171
     0
176
     1
290
     0
176
     1
 93
        1
176
     1
 44
0.0
176
     1
173
     0
176
     1
  0
VISUALSTYLE
  5
34
102
{ACAD_REACTORS
330
2A
102
}
102
{ACAD_XDICTIONARY
360
112
102
}
330
2A
100
AcDbVisualStyle
  2
Conceptual
 70
     9
177
     2
291
     0
 71
     3
176
     1
 72
     2
176
     1
 73
     0
176
     1
 90
        0
176
     1
 40
0.6
176
     1
 41
30.0
176
     1
 62
     5
 63
     7
421
 16777215
176
     1
 74
     2
176
     1
 91
        2
176
     1
 64
     7
176
     1
 65
   257
176
     1
 75
     1
176
     1
175
     1
176
     1
 42
179.0
176
     1
 92
        8
176
     1
 66
     7
176
     1
 43
1.0
176
     1
 76
     1
176
     1
 77
     6
176
     1
 78
     2
176
     1
 67
     7
176
     1
 79
     3
176
     1
170
     0
176
     1
171
     0
176
     1
290
     0
176
     1
 93
        1
176
     1
 44
0.0
176
     1
173
     0
176
     1
  0
VISUALSTYLE
  5
35
102
{ACAD_REACTORS
330
2A
102
}
102
{ACAD_XDICTIONARY
360
114
102
}
330
2A
100
AcDbVisualStyle
  2
Dim
 70
    11
177
     2
291
     1
 71
     2
176
     1
 72
     2
176
     1
 73
     0
176
     1
 90
        0
176
     1
 40
0.6
176
     1
 41
30.0
176
     1
 62
     5
 63
     7
421
 16777215
176
     1
 74
     1
176
     1
 91
        4
176
     1
 64
     7
176
     1
 65
   257
176
     1
 75
     1
176
     1
175
     1
176
     1
 42
1.0
176
     1
 92
        8
176
     1
 66
     7
176
     1
 43
1.0
176
     1
 76
     1
176
     1
 77
     6
176
     1
 78
     2
176
     1
 67
     7
176
     1
 79
     5
176
     1
170
     0
176
     1
171
     0
176
     1
290
     0
176
     1
 93
        1
176
     1
 44
-50.0
176
     1
173
     0
176
     1
  0
VISUALSTYLE
  5
3D
102
{ACAD_REACTORS
330
2A
102
}
102
{ACAD_XDICTIONARY
360
124
102
}
330
2A
100
AcDbVisualStyle
  2
EdgeColorOff
 70
    22
177
     2
291
     1
 71
     2
176
     0
 72
     2
176
     0
 73
     0
176
     0
 90
        0
176
     0
 40
0.6
176
     0
 41
30.0
176
     0
 62
     5
 63
     7
421
 16777215
176
     0
 74
     1
176
     0
 91
        4
176
     0
 64
     7
176
     0
 65
   257
176
     0
 75
     1
176
     0
175
     1
176
     0
 42
1.0
176
     0
 92
        8
176
     2
 66
     7
176
     0
 43
1.0
176
     0
 76
     1
176
     0
 77
     6
176
     0
 78
     2
176
     0
 67
     7
176
     0
 79
     5
176
     0
170
     0
176
     0
171
     0
176
     0
290
     0
176
     0
 93
        1
176
     0
 44
0.0
176
     0
173
     0
176
     0
  0
VISUALSTYLE
  5
39
102
{ACAD_REACTORS
330
2A
102
}
102
{ACAD_XDICTIONARY
360
11C
102
}
330
2A
100
AcDbVisualStyle
  2
Facepattern
 70
    15
177
     2
291
     1
 71
     2
176
     1
 72
     2
176
     1
 73
     0
176
     1
 90
        0
176
     1
 40
0.6
176
     1
 41
30.0
176
     1
 62
     5
 63
     7
421
 16777215
176
     1
 74
     1
176
     1
 91
        4
176
     1
 64
     7
176
     1
 65
   257
176
     1
 75
     1
176
     1
175
     1
176
     1
 42
1.0
176
     1
 92
        8
176
     1
 66
     7
176
     1
 43
1.0
176
     1
 76
     1
176
     1
 77
     6
176
     1
 78
     2
176
     1
 67
     7
176
     1
 79
     5
176
     1
170
     0
176
     1
171
     0
176
     1
290
     0
176
     1
 93
        1
176
     1
 44
0.0
176
     1
173
     0
176
     1
  0
VISUALSTYLE
  5
2B
102
{ACAD_REACTORS
330
2A
102
}
102
{ACAD_XDICTIONARY
360
100
102
}
330
2A
100
AcDbVisualStyle
  2
Flat
 70
     0
177
     2
291
     1
 71
     2
176
     1
 72
     1
176
     1
 73
     1
176
     1
 90
        2
176
     1
 40
0.6
176
     1
 41
30.0
176
     1
 62
     5
 63
     7
421
 16777215
176
     1
 74
     0
176
     1
 91
        0
176
     1
 64
     7
176
     1
 65
   257
176
     1
 75
     1
176
     1
175
     1
176
     1
 42
1.0
176
     1
 92
        8
176
     1
 66
     7
176
     1
 43
1.0
176
     1
 76
     1
176
     1
 77
     6
176
     1
 78
     2
176
     1
 67
     7
176
     1
 79
     5
176
     1
170
     0
176
     1
171
     0
176
     1
290
     0
176
     1
 93
       13
176
     1
 44
0.0
176
     1
173
     0
176
     1
  0
VISUALSTYLE
  5
2C
102
{ACAD_REACTORS
330
2A
102
}
102
{ACAD_XDICTIONARY
360
102
102
}
330
2A
100
AcDbVisualStyle
  2
FlatWithEdges
 70
     1
177
     2
291
     1
 71
     2
176
     1
 72
     1
176
     1
 73
     1
176
     1
 90
        2
176
     1
 40
0.6
176
     1
 41
30.0
176
     1
 62
     5
 63
     7
421
 16777215
176
     1
 74
     1
176
     1
 91
        0
176
     1
 64
     7
176
     1
 65
   257
176
     1
 75
     1
176
     1
175
     1
176
     1
 42
1.0
176
     1
 92
        0
176
     1
 66
   257
176
     1
 43
1.0
176
     1
 76
     1
176
     1
 77
     6
176
     1
 78
     2
176
     1
 67
     7
176
     1
 79
     5
176
     1
170
     0
176
     1
171
     0
176
     1
290
     0
176
     1
 93
       13
176
     1
 44
0.0
176
     1
173
     0
176
     1
  0
VISUALSTYLE
  5
2D
102
{ACAD_REACTORS
330
2A
102
}
102
{ACAD_XDICTIONARY
360
104
102
}
330
2A
100
AcDbVisualStyle
  2
Gouraud
 70
     2
177
     2
291
     1
 71
     2
176
     1
 72
     2
176
     1
 73
     1
176
     1
 90
        2
176
     1
 40
0.6
176
     1
 41
30.0
176
     1
 62
     5
 63
     7
421
 16777215
176
     1
 74
     0
176
     1
 91
        0
176
     1
 64
     7
176
     1
 65
   257
176
     1
 75
     1
176
     1
175
     1
176
     1
 42
1.0
176
     1
 92
        0
176
     1
 66
     7
176
     1
 43
1.0
176
     1
 76
     1
176
     1
 77
     6
176
     1
 78
     2
176
     1
 67
     7
176
     1
 79
     5
176
     1
170
     0
176
     1
171
     0
176
     1
290
     0
176
     1
 93
       13
176
     1
 44
0.0
176
     1
173
     0
176
     1
  0
VISUALSTYLE
  5
2E
102
{ACAD_REACTORS
330
2A
102
}
102
{ACAD_XDICTIONARY
360
106
102
}
330
2A
100
AcDbVisualStyle
  2
GouraudWithEdges
 70
     3
177
     2
291
     1
 71
     2
176
     1
 72
     2
176
     1
 73
     1
176
     1
 90
        2
176
     1
 40
0.6
176
     1
 41
30.0
176
     1
 62
     5
 63
     7
421
 16777215
176
     1
 74
     1
176
     1
 91
        0
176
     1
 64
     7
176
     1
 65
   257
176
     1
 75
     1
176
     1
175
     1
176
     1
 42
1.0
176
     1
 92
        0
176
     1
 66
   257
176
     1
 43
1.0
176
     1
 76
     1
176
     1
 77
     6
176
     1
 78
     2
176
     1
 67
     7
176
     1
 79
     5
176
     1
170
     0
176
     1
171
     0
176
     1
290
     0
176
     1
 93
       13
176
     1
 44
0.0
176
     1
173
     0
176
     1
  0
VISUALSTYLE
  5
31
102
{ACAD_REACTORS
330
2A
102
}
102
{ACAD_XDICTIONARY
360
10C
102
}
330
2A
100
AcDbVisualStyle
  2
Hidden
 70
     6
177
     2
291
     0
 71
     1
176
     1
 72
     2
176
     1
 73
     2
176
     1
 90
        0
176
     1
 40
0.6
176
     1
 41
30.0
176
     1
 62
     5
 63
     7
421
 16777215
176
     1
 74
     2
176
     1
 91
        2
176
     1
 64
     7
176
     1
 65
   257
176
     1
 75
     2
176
     1
175
     1
176
     1
 42
40.0
176
     1
 92
        0
176
     1
 66
   257
176
     1
 43
1.0
176
     1
 76
     1
176
     1
 77
     6
176
     1
 78
     2
176
     1
 67
     7
176
     1
 79
     3
176
     1
170
     0
176
     1
171
     0
176
     1
290
     0
176
     1
 93
        1
176
     1
 44
0.0
176
     1
173
     0
176
     1
  0
VISUALSTYLE
  5
3B
102
{ACAD_REACTORS
330
2A
102
}
102
{ACAD_XDICTIONARY
360
120
102
}
330
2A
100
AcDbVisualStyle
  2
JitterOff
 70
    20
177
     2
291
     1
 71
     2
176
     0
 72
     2
176
     0
 73
     0
176
     0
 90
        0
176
     0
 40
0.6
176
     0
 41
30.0
176
     0
 62
     5
 63
     7
421
 16777215
176
     0
 74
     1
176
     0
 91
        4
176
     0
 64
     7
176
     0
 65
   257
176
     0
 75
     1
176
     0
175
     1
176
     0
 42
1.0
176
     0
 92
       10
176
     2
 66
     7
176
     0
 43
1.0
176
     0
 76
     1
176
     0
 77
     6
176
     0
 78
     2
176
     0
 67
     7
176
     0
 79
     5
176
     0
170
     0
176
     0
171
     0
176
     0
290
     0
176
     0
 93
        1
176
     0
 44
0.0
176
     0
173
     0
176
     0
  0
VISUALSTYLE
  5
38
102
{ACAD_REACTORS
330
2A
102
}
102
{ACAD_XDICTIONARY
360
11A
102
}
330
2A
100
AcDbVisualStyle
  2
Linepattern
 70
    14
177
     2
291
     1
 71
     2
176
     1
 72
     2
176
     1
 73
     0
176
     1
 90
        0
176
     1
 40
0.6
176
     1
 41
30.0
176
     1
 62
     5
 63
     7
421
 16777215
176
     1
 74
     1
176
     1
 91
        4
176
     1
 64
     7
176
     1
 65
   257
176
     1
 75
     7
176
     1
175
     7
176
     1
 42
1.0
176
     1
 92
        8
176
     1
 66
     7
176
     1
 43
1.0
176
     1
 76
     1
176
     1
 77
     6
176
     1
 78
     2
176
     1
 67
     7
176
     1
 79
     5
176
     1
170
     0
176
     1
171
     0
176
     1
290
     0
176
     1
 93
        1
176
     1
 44
0.0
176
     1
173
     0
176
     1
  0
VISUALSTYLE
  5
3C
102
{ACAD_REACTORS
330
2A
102
}
102
{ACAD_XDICTIONARY
360
122
102
}
330
2A
100
AcDbVisualStyle
  2
OverhangOff
 70
    21
177
     2
291
     1
 71
     2
176
     0
 72
     2
176
     0
 73
     0
176
     0
 90
        0
176
     0
 40
0.6
176
     0
 41
30.0
176
     0
 62
     5
 63
     7
421
 16777215
176
     0
 74
     1
176
     0
 91
        4
176
     0
 64
     7
176
     0
 65
   257
176
     0
 75
     1
176
     0
175
     1
176
     0
 42
1.0
176
     0
 92
        9
176
     2
 66
     7
176
     0
 43
1.0
176
     0
 76
     1
176
     0
 77
     6
176
     0
 78
     2
176
     0
 67
     7
176
     0
 79
     5
176
     0
170
     0
176
     0
171
     0
176
     0
290
     0
176
     0
 93
        1
176
     0
 44
0.0
176
     0
173
     0
176
     0
  0
VISUALSTYLE
  5
33
102
{ACAD_REACTORS
330
2A
102
}
102
{ACAD_XDICTIONARY
360
110
102
}
330
2A
100
AcDbVisualStyle
  2
Realistic
 70
     8
177
     2
291
     0
 71
     2
176
     1
 72
     3
176
     1
 73
     0
176
     1
 90
        2
176
     1
 40
0.6
176
     1
 41
30.0
176
     1
 62
     5
 63
     7
421
 16777215
176
     1
 74
     0
176
     1
 91
        0
176
     1
 64
     7
176
     1
 65
   257
176
     1
 75
     1
176
     1
175
     1
176
     1
 42
1.0
176
     1
 92
        8
176
     1
 66
   257
176
     1
 43
1.0
176
     1
 76
     1
176
     1
 77
     6
176
     1
 78
     2
176
     1
 67
     7
176
     1
 79
     3
176
     1
170
     0
176
     1
171
     0
176
     1
290
     0
176
     1
 93
       13
176
     1
 44
0.0
176
     1
173
     0
176
     1
  0
VISUALSTYLE
  5
42
102
{ACAD_REACTORS
330
2A
102
}
102
{ACAD_XDICTIONARY
360
12E
102
}
330
2A
100
AcDbVisualStyle
  2
Shaded
 70
    27
177
     2
291
     0
 71
     2
176
     1
 72
     2
176
     1
 73
     1
176
     1
 90
        2
176
     1
 40
0.6
176
     1
 41
30.0
176
     1
 62
     5
 63
     7
421
 16777215
176
     1
 74
     0
176
     1
 91
        4
176
     1
 64
     7
176
     1
 65
   257
176
     1
 75
     1
176
     1
175
     1
176
     1
 42
1.0
176
     1
 92
        8
176
     1
 66
   257
176
     1
 43
1.0
176
     1
 76
     1
176
     1
 77
     6
176
     1
 78
     2
176
     1
 67
     8
425
  7895160
176
     1
 79
     3
176
     1
170
     0
176
     1
171
     0
176
     1
290
     0
176
     1
 93
        5
176
     1
 44
0.0
176
     1
173
     0
176
     1
  0
VISUALSTYLE
  5
41
102
{ACAD_REACTORS
330
2A
102
}
102
{ACAD_XDICTIONARY
360
12C
102
}
330
2A
100
AcDbVisualStyle
  2
Shaded with edges
 70
    26
177
     2
291
     0
 71
     2
176
     1
 72
     2
176
     1
 73
     1
176
     1
 90
        2
176
     1
 40
0.6
176
     1
 41
30.0
176
     1
 62
     5
 63
     7
421
 16777215
176
     1
 74
     1
176
     1
 91
       10
176
     1
 64
     7
176
     1
 65
   257
176
     1
 75
     2
176
     1
175
     1
176
     1
 42
1.0
176
     1
 92
        8
176
     1
 66
   257
176
     1
 43
1.0
176
     1
 76
     1
176
     1
 77
     6
176
     1
 78
     2
176
     1
 67
     7
176
     1
 79
     3
176
     1
170
     0
176
     1
171
     0
176
     1
290
     0
176
     1
 93
        5
176
     1
 44
0.0
176
     1
173
     0
176
     1
  0
VISUALSTYLE
  5
3E
102
{ACAD_REACTORS
330
2A
102
}
102
{ACAD_XDICTIONARY
360
126
102
}
330
2A
100
AcDbVisualStyle
  2
Shades of Gray
 70
    23
177
     2
291
     0
 71
     2
176
     1
 72
     2
176
     1
 73
     3
176
     1
 90
        0
176
     1
 40
0.6
176
     1
 41
30.0
176
     1
 62
     5
 63
     7
421
 16777215
176
     1
 74
     2
176
     1
 91
        2
176
     1
 64
     7
176
     1
 65
     7
176
     1
 75
     1
176
     1
175
     1
176
     1
 42
40.0
176
     1
 92
        8
176
     1
 66
     7
176
     1
 43
1.0
176
     1
 76
     1
176
     1
 77
     6
176
     1
 78
     2
176
     1
 67
     7
176
     1
 79
     3
176
     1
170
     0
176
     1
171
     0
176
     1
290
     0
176
     1
 93
        1
176
     1
 44
0.0
176
     1
173
     0
176
     1
  0
VISUALSTYLE
  5
3F
102
{ACAD_REACTORS
330
2A
102
}
102
{ACAD_XDICTIONARY
360
128
102
}
330
2A
100
AcDbVisualStyle
  2
Sketchy
 70
    24
177
     2
291
     0
 71
     1
176
     1
 72
     2
176
     1
 73
     2
176
     1
 90
        0
176
     1
 40
0.6
176
     1
 41
30.0
176
     1
 62
     5
 63
     7
421
 16777215
176
     1
 74
     2
176
     1
 91
        2
176
     1
 64
     7
176
     1
 65
     7
176
     1
 75
     1
176
     1
175
     1
176
     1
 42
40.0
176
     1
 92
       11
176
     1
 66
     7
176
     1
 43
1.0
176
     1
 76
     1
176
     1
 77
     6
176
     1
 78
     2
176
     1
 67
     7
176
     1
 79
     6
176
     1
170
     0
176
     1
171
     0
176
     1
290
     0
176
     1
 93
        1
176
     1
 44
0.0
176
     1
173
     0
176
     1
  0
VISUALSTYLE
  5
37
102
{ACAD_REACTORS
330
2A
102
}
102
{ACAD_XDICTIONARY
360
118
102
}
330
2A
100
AcDbVisualStyle
  2
Thicken
 70
    13
177
     2
291
     1
 71
     2
176
     1
 72
     2
176
     1
 73
     0
176
     1
 90
        0
176
     1
 40
0.6
176
     1
 41
30.0
176
     1
 62
     5
 63
     7
421
 16777215
176
     1
 74
     1
176
     1
 91
        4
176
     1
 64
     7
176
     1
 65
   257
176
     1
 75
     1
176
     1
175
     1
176
     1
 42
1.0
176
     1
 92
       12
176
     1
 66
     7
176
     1
 43
1.0
176
     1
 76
     1
176
     1
 77
     6
176
     1
 78
     2
176
     1
 67
     7
176
     1
 79
     5
176
     1
170
     0
176
     1
171
     0
176
     1
290
     0
176
     1
 93
        1
176
     1
 44
0.0
176
     1
173
     0
176
     1
  0
VISUALSTYLE
  5
30
102
{ACAD_REACTORS
330
2A
102
}
102
{ACAD_XDICTIONARY
360
10A
102
}
330
2A
100
AcDbVisualStyle
  2
Wireframe
 70
     5
177
     2
291
     0
 71
     0
176
     1
 72
     2
176
     1
 73
     0
176
     1
 90
        0
176
     1
 40
0.6
176
     1
 41
30.0
176
     1
 62
     5
 63
     7
421
 16777215
176
     1
 74
     1
176
     1
 91
        4
176
     1
 64
     7
176
     1
 65
   257
176
     1
 75
     1
176
     1
175
     1
176
     1
 42
1.0
176
     1
 92
        0
176
     1
 66
   257
176
     1
 43
1.0
176
     1
 76
     1
176
     1
 77
     6
176
     1
 78
     2
176
     1
 67
     7
176
     1
 79
     3
176
     1
170
     0
176
     1
171
     0
176
     1
290
     0
176
     1
 93
        1
176
     1
 44
0.0
176
     1
173
     0
176
     1
  0
VISUALSTYLE
  5
40
102
{ACAD_REACTORS
330
2A
102
}
102
{ACAD_XDICTIONARY
360
12A
102
}
330
2A
100
AcDbVisualStyle
  2
X-Ray
 70
    25
177
     2
291
     0
 71
     2
176
     1
 72
     2
176
     1
 73
     1
176
     1
 90
        1
176
     1
 40
0.5
176
     1
 41
30.0
176
     1
 62
     5
 63
     7
421
 16777215
176
     1
 74
     1
176
     1
 91
        0
176
     1
 64
     7
176
     1
 65
   257
176
     1
 75
     1
176
     1
175
     1
176
     1
 42
1.0
176
     1
 92
        8
176
     1
 66
     7
176
     1
 43
1.0
176
     1
 76
     1
176
     1
 77
     6
176
     1
 78
     2
176
     1
 67
     7
176
     1
 79
     3
176
     1
170
     0
176
     1
171
     0
176
     1
290
     0
176
     1
 93
       13
176
     1
 44
0.0
176
     1
173
     0
176
     1
  0
DICTIONARYVAR
  5
FF
102
{ACAD_REACTORS
330
FE
102
}
330
FE
100
DictionaryVariables
280
     0
  1
1:1
  0
DICTIONARYVAR
  5
134
102
{ACAD_REACTORS
330
FE
102
}
330
FE
100
DictionaryVariables
280
     0
  1
Standard
  0
DICTIONARYVAR
  5
133
102
{ACAD_REACTORS
330
FE
102
}
330
FE
100
DictionaryVariables
280
     0
  1
Standard
  0
DICTIONARY
  5
130
330
6A
100
AcDbDictionary
280
     1
281
     1
  3
ACAD_ROUNDTRIP_2008_TABLESTYLE_CELLSTYLEMAP
360
131
  0
DICTIONARY
  5
108
330
2F
100
AcDbDictionary
280
     1
281
     1
  3
ACAD_XREC_ROUNDTRIP
360
109
  0
DICTIONARY
  5
10E
330
32
100
AcDbDictionary
280
     1
281
     1
  3
ACAD_XREC_ROUNDTRIP
360
10F
  0
DICTIONARY
  5
116
330
36
100
AcDbDictionary
280
     1
281
     1
  3
ACAD_XREC_ROUNDTRIP
360
117
  0
DICTIONARY
  5
11E
330
3A
100
AcDbDictionary
280
     1
281
     1
  3
ACAD_XREC_ROUNDTRIP
360
11F
  0
DICTIONARY
  5
112
330
34
100
AcDbDictionary
280
     1
281
     1
  3
ACAD_XREC_ROUNDTRIP
360
113
  0
DICTIONARY
  5
114
330
35
100
AcDbDictionary
280
     1
281
     1
  3
ACAD_XREC_ROUNDTRIP
360
115
  0
DICTIONARY
  5
124
330
3D
100
AcDbDictionary
280
     1
281
     1
  3
ACAD_XREC_ROUNDTRIP
360
125
  0
DICTIONARY
  5
11C
330
39
100
AcDbDictionary
280
     1
281
     1
  3
ACAD_XREC_ROUNDTRIP
360
11D
  0
DICTIONARY
  5
100
330
2B
100
AcDbDictionary
280
     1
281
     1
  3
ACAD_XREC_ROUNDTRIP
360
101
  0
DICTIONARY
  5
102
330
2C
100
AcDbDictionary
280
     1
281
     1
  3
ACAD_XREC_ROUNDTRIP
360
103
  0
DICTIONARY
  5
104
330
2D
100
AcDbDictionary
280
     1
281
     1
  3
ACAD_XREC_ROUNDTRIP
360
105
  0
DICTIONARY
  5
106
330
2E
100
AcDbDictionary
280
     1
281
     1
  3
ACAD_XREC_ROUNDTRIP
360
107
  0
DICTIONARY
  5
10C
330
31
100
AcDbDictionary
280
     1
281
     1
  3
ACAD_XREC_ROUNDTRIP
360
10D
  0
DICTIONARY
  5
120
330
3B
100
AcDbDictionary
280
     1
281
     1
  3
ACAD_XREC_ROUNDTRIP
360
121
  0
DICTIONARY
  5
11A
330
38
100
AcDbDictionary
280
     1
281
     1
  3
ACAD_XREC_ROUNDTRIP
360
11B
  0
DICTIONARY
  5
122
330
3C
100
AcDbDictionary
280
     1
281
     1
  3
ACAD_XREC_ROUNDTRIP
360
123
  0
DICTIONARY
  5
110
330
33
100
AcDbDictionary
280
     1
281
     1
  3
ACAD_XREC_ROUNDTRIP
360
111
  0
DICTIONARY
  5
12E
330
42
100
AcDbDictionary
280
     1
281
     1
  3
ACAD_XREC_ROUNDTRIP
360
12F
  0
DICTIONARY
  5
12C
330
41
100
AcDbDictionary
280
     1
281
     1
  3
ACAD_XREC_ROUNDTRIP
360
12D
  0
DICTIONARY
  5
126
330
3E
100
AcDbDictionary
280
     1
281
     1
  3
ACAD_XREC_ROUNDTRIP
360
127
  0
DICTIONARY
  5
128
330
3F
100
AcDbDictionary
280
     1
281
     1
  3
ACAD_XREC_ROUNDTRIP
360
129
  0
DICTIONARY
  5
118
330
37
100
AcDbDictionary
280
     1
281
     1
  3
ACAD_XREC_ROUNDTRIP
360
119
  0
DICTIONARY
  5
10A
330
30
100
AcDbDictionary
280
     1
281
     1
  3
ACAD_XREC_ROUNDTRIP
360
10B
  0
DICTIONARY
  5
12A
330
40
100
AcDbDictionary
280
     1
281
     1
  3
ACAD_XREC_ROUNDTRIP
360
12B
  0
CELLSTYLEMAP
  5
131
102
{ACAD_REACTORS
330
130
102
}
330
130
100
AcDbCellStyleMap
 90
        3
300
CELLSTYLE
  1
TABLEFORMAT_BEGIN
 90
        5
170
     1
 91
        0
 92
    32768
 62
   257
 93
        1
300
CONTENTFORMAT
  1
CONTENTFORMAT_BEGIN
 90
        0
 91
        0
 92
        4
 93
        0
300

 40
0.0
140
1.0
 94
        5
 62
     0
340
11
144
6.0
309
CONTENTFORMAT_END
171
     1
301
MARGIN
  1
CELLMARGIN_BEGIN
 40
1.5
 40
1.5
 40
1.5
 40
1.5
 40
1.5
 40
1.5
309
CELLMARGIN_END
 94
        6
 95
        1
302
GRIDFORMAT
  1
GRIDFORMAT_BEGIN
 90
        0
 91
        1
 62
     0
 92
       -2
340
14
 93
        0
 40
0.045
309
GRIDFORMAT_END
 95
        2
302
GRIDFORMAT
  1
GRIDFORMAT_BEGIN
 90
        0
 91
        1
 62
     0
 92
       -2
340
14
 93
        0
 40
0.045
309
GRIDFORMAT_END
 95
        4
302
GRIDFORMAT
  1
GRIDFORMAT_BEGIN
 90
        0
 91
        1
 62
     0
 92
       -2
340
14
 93
        0
 40
0.045
309
GRIDFORMAT_END
 95
        8
302
GRIDFORMAT
  1
GRIDFORMAT_BEGIN
 90
        0
 91
        1
 62
     0
 92
       -2
340
14
 93
        0
 40
0.045
309
GRIDFORMAT_END
 95
       16
302
GRIDFORMAT
  1
GRIDFORMAT_BEGIN
 90
        0
 91
        1
 62
     0
 92
       -2
340
14
 93
        0
 40
0.045
309
GRIDFORMAT_END
 95
       32
302
GRIDFORMAT
  1
GRIDFORMAT_BEGIN
 90
        0
 91
        1
 62
     0
 92
       -2
340
14
 93
        0
 40
0.045
309
GRIDFORMAT_END
309
TABLEFORMAT_END
  1
CELLSTYLE_BEGIN
 90
        1
 91
        1
300
_TITLE
309
CELLSTYLE_END
300
CELLSTYLE
  1
TABLEFORMAT_BEGIN
 90
        5
170
     1
 91
        0
 92
        0
 62
   257
 93
        1
300
CONTENTFORMAT
  1
CONTENTFORMAT_BEGIN
 90
        0
 91
        0
 92
        4
 93
        0
300

 40
0.0
140
1.0
 94
        5
 62
     0
340
11
144
4.5
309
CONTENTFORMAT_END
171
     1
301
MARGIN
  1
CELLMARGIN_BEGIN
 40
1.5
 40
1.5
 40
1.5
 40
1.5
 40
1.5
 40
1.5
309
CELLMARGIN_END
 94
        6
 95
        1
302
GRIDFORMAT
  1
GRIDFORMAT_BEGIN
 90
        0
 91
        1
 62
     0
 92
       -2
340
14
 93
        0
 40
0.045
309
GRIDFORMAT_END
 95
        2
302
GRIDFORMAT
  1
GRIDFORMAT_BEGIN
 90
        0
 91
        1
 62
     0
 92
       -2
340
14
 93
        0
 40
0.045
309
GRIDFORMAT_END
 95
        4
302
GRIDFORMAT
  1
GRIDFORMAT_BEGIN
 90
        0
 91
        1
 62
     0
 92
       -2
340
14
 93
        0
 40
0.045
309
GRIDFORMAT_END
 95
        8
302
GRIDFORMAT
  1
GRIDFORMAT_BEGIN
 90
        0
 91
        1
 62
     0
 92
       -2
340
14
 93
        0
 40
0.045
309
GRIDFORMAT_END
 95
       16
302
GRIDFORMAT
  1
GRIDFORMAT_BEGIN
 90
        0
 91
        1
 62
     0
 92
       -2
340
14
 93
        0
 40
0.045
309
GRIDFORMAT_END
 95
       32
302
GRIDFORMAT
  1
GRIDFORMAT_BEGIN
 90
        0
 91
        1
 62
     0
 92
       -2
340
14
 93
        0
 40
0.045
309
GRIDFORMAT_END
309
TABLEFORMAT_END
  1
CELLSTYLE_BEGIN
 90
        2
 91
        1
300
_HEADER
309
CELLSTYLE_END
300
CELLSTYLE
  1
TABLEFORMAT_BEGIN
 90
        5
170
     1
 91
        0
 92
        0
 62
   257
 93
        1
300
CONTENTFORMAT
  1
CONTENTFORMAT_BEGIN
 90
        0
 91
        0
 92
        4
 93
        0
300

 40
0.0
140
1.0
 94
        2
 62
     0
340
11
144
4.5
309
CONTENTFORMAT_END
171
     1
301
MARGIN
  1
CELLMARGIN_BEGIN
 40
1.5
 40
1.5
 40
1.5
 40
1.5
 40
1.5
 40
1.5
309
CELLMARGIN_END
 94
        6
 95
        1
302
GRIDFORMAT
  1
GRIDFORMAT_BEGIN
 90
        0
 91
        1
 62
     0
 92
       -2
340
14
 93
        0
 40
0.045
309
GRIDFORMAT_END
 95
        2
302
GRIDFORMAT
  1
GRIDFORMAT_BEGIN
 90
        0
 91
        1
 62
     0
 92
       -2
340
14
 93
        0
 40
0.045
309
GRIDFORMAT_END
 95
        4
302
GRIDFORMAT
  1
GRIDFORMAT_BEGIN
 90
        0
 91
        1
 62
     0
 92
       -2
340
14
 93
        0
 40
0.045
309
GRIDFORMAT_END
 95
        8
302
GRIDFORMAT
  1
GRIDFORMAT_BEGIN
 90
        0
 91
        1
 62
     0
 92
       -2
340
14
 93
        0
 40
0.045
309
GRIDFORMAT_END
 95
       16
302
GRIDFORMAT
  1
GRIDFORMAT_BEGIN
 90
        0
 91
        1
 62
     0
 92
       -2
340
14
 93
        0
 40
0.045
309
GRIDFORMAT_END
 95
       32
302
GRIDFORMAT
  1
GRIDFORMAT_BEGIN
 90
        0
 91
        1
 62
     0
 92
       -2
340
14
 93
        0
 40
0.045
309
GRIDFORMAT_END
309
TABLEFORMAT_END
  1
CELLSTYLE_BEGIN
 90
        3
 91
        2
300
_DATA
309
CELLSTYLE_END
  0
XRECORD
  5
109
102
{ACAD_REACTORS
330
108
102
}
330
108
100
AcDbXrecord
280
     1
102
RTVSPost2010Prop28
280
     1
102
RTVSPost2010PropOp28
 70
     1
102
RTVSPost2010Prop29
280
     1
102
RTVSPost2010PropOp29
 70
     1
102
RTVSPost2010Prop30
280
     0
102
RTVSPost2010PropOp30
 70
     1
102
RTVSPost2010Prop31
280
     0
102
RTVSPost2010PropOp31
 70
     1
102
RTVSPost2010Prop32
280
     0
102
RTVSPost2010PropOp32
 70
     1
102
RTVSPost2010Prop33
280
     0
102
RTVSPost2010PropOp33
 70
     1
102
RTVSPost2010Prop34
280
     0
102
RTVSPost2010PropOp34
 70
     1
102
RTVSPost2010Prop35
280
     0
102
RTVSPost2010PropOp35
 70
     1
102
RTVSPost2010Prop36
280
     0
102
RTVSPost2010PropOp36
 70
     1
102
RTVSPost2010Prop37
 90
       50
102
RTVSPost2010PropOp37
 70
     1
102
RTVSPost2010Prop38
140
0.0
102
RTVSPost2010PropOp38
 70
     1
102
RTVSPost2010Prop39
140
1.0
102
RTVSPost2010PropOp39
 70
     1
102
RTVSPost2010Prop40
 90
        0
102
RTVSPost2010PropOp40
 70
     1
102
RTVSPost2010Prop41ColorIndex
 90
       18
102
RTVSPost2010Prop41ColorRGB
 90
        0
102
RTVSPost2010PropOp41
 70
     1
102
RTVSPost2010Prop42
 90
       50
102
RTVSPost2010PropOp42
 70
     1
102
RTVSPost2010Prop43
 90
        3
102
RTVSPost2010PropOp43
 70
     1
102
RTVSPost2010Prop44ColorIndex
 90
        5
102
RTVSPost2010Prop44ColorRGB
 90
      255
102
RTVSPost2010PropOp44
 70
     1
102
RTVSPost2010Prop45
280
     0
102
RTVSPost2010PropOp45
 70
     1
102
RTVSPost2010Prop46
 90
       50
102
RTVSPost2010PropOp46
 70
     1
102
RTVSPost2010Prop47
 90
       50
102
RTVSPost2010PropOp47
 70
     1
102
RTVSPost2010Prop48
 90
       50
102
RTVSPost2010PropOp48
 70
     1
102
RTVSPost2010Prop49
280
     0
102
RTVSPost2010PropOp49
 70
     1
102
RTVSPost2010Prop50
 90
       50
102
RTVSPost2010PropOp50
 70
     1
102
RTVSPost2010Prop51ColorIndex
 90
      256
102
RTVSPost2010Prop51ColorRGB
 90
-16777216
102
RTVSPost2010PropOp51
 70
     0
102
RTVSPost2010Prop52
140
1.0
102
RTVSPost2010PropOp52
 70
     0
102
RTVSPost2010Prop53
 90
        2
102
RTVSPost2010PropOp53
 70
     1
102
RTVSPost2010Prop54
  1
strokes_ogs.tif
102
RTVSPost2010PropOp54
 70
     1
102
RTVSPost2010Prop55
280
     0
102
RTVSPost2010PropOp55
 70
     1
102
RTVSPost2010Prop56
140
1.0
102
RTVSPost2010PropOp56
 70
     1
102
RTVSPost2010Prop57
140
1.0
102
RTVSPost2010PropOp57
 70
     1
  0
XRECORD
  5
10F
102
{ACAD_REACTORS
330
10E
102
}
330
10E
100
AcDbXrecord
280
     1
102
RTVSPost2010Prop28
280
     0
102
RTVSPost2010PropOp28
 70
     1
102
RTVSPost2010Prop29
280
     1
102
RTVSPost2010PropOp29
 70
     1
102
RTVSPost2010Prop30
280
     1
102
RTVSPost2010PropOp30
 70
     1
102
RTVSPost2010Prop31
280
     0
102
RTVSPost2010PropOp31
 70
     1
102
RTVSPost2010Prop32
280
     0
102
RTVSPost2010PropOp32
 70
     1
102
RTVSPost2010Prop33
280
     0
102
RTVSPost2010PropOp33
 70
     1
102
RTVSPost2010Prop34
280
     0
102
RTVSPost2010PropOp34
 70
     1
102
RTVSPost2010Prop35
280
     0
102
RTVSPost2010PropOp35
 70
     1
102
RTVSPost2010Prop36
280
     0
102
RTVSPost2010PropOp36
 70
     1
102
RTVSPost2010Prop37
 90
       50
102
RTVSPost2010PropOp37
 70
     1
102
RTVSPost2010Prop38
140
0.0
102
RTVSPost2010PropOp38
 70
     1
102
RTVSPost2010Prop39
140
1.0
102
RTVSPost2010PropOp39
 70
     1
102
RTVSPost2010Prop40
 90
        0
102
RTVSPost2010PropOp40
 70
     1
102
RTVSPost2010Prop41ColorIndex
 90
       18
102
RTVSPost2010Prop41ColorRGB
 90
        0
102
RTVSPost2010PropOp41
 70
     1
102
RTVSPost2010Prop42
 90
       50
102
RTVSPost2010PropOp42
 70
     1
102
RTVSPost2010Prop43
 90
        3
102
RTVSPost2010PropOp43
 70
     1
102
RTVSPost2010Prop44ColorIndex
 90
        5
102
RTVSPost2010Prop44ColorRGB
 90
      255
102
RTVSPost2010PropOp44
 70
     1
102
RTVSPost2010Prop45
280
     0
102
RTVSPost2010PropOp45
 70
     1
102
RTVSPost2010Prop46
 90
       50
102
RTVSPost2010PropOp46
 70
     1
102
RTVSPost2010Prop47
 90
       50
102
RTVSPost2010PropOp47
 70
     1
102
RTVSPost2010Prop48
 90
       50
102
RTVSPost2010PropOp48
 70
     1
102
RTVSPost2010Prop49
280
     0
102
RTVSPost2010PropOp49
 70
     1
102
RTVSPost2010Prop50
 90
       50
102
RTVSPost2010PropOp50
 70
     1
102
RTVSPost2010Prop51ColorIndex
 90
      256
102
RTVSPost2010Prop51ColorRGB
 90
-16777216
102
RTVSPost2010PropOp51
 70
     0
102
RTVSPost2010Prop52
140
1.0
102
RTVSPost2010PropOp52
 70
     0
102
RTVSPost2010Prop53
 90
        2
102
RTVSPost2010PropOp53
 70
     1
102
RTVSPost2010Prop54
  1
strokes_ogs.tif
102
RTVSPost2010PropOp54
 70
     1
102
RTVSPost2010Prop55
280
     0
102
RTVSPost2010PropOp55
 70
     1
102
RTVSPost2010Prop56
140
1.0
102
RTVSPost2010PropOp56
 70
     1
102
RTVSPost2010Prop57
140
1.0
102
RTVSPost2010PropOp57
 70
     1
  0
XRECORD
  5
117
102
{ACAD_REACTORS
330
116
102
}
330
116
100
AcDbXrecord
280
     1
102
RTVSPost2010Prop28
280
     0
102
RTVSPost2010PropOp28
 70
     1
102
RTVSPost2010Prop29
280
     1
102
RTVSPost2010PropOp29
 70
     1
102
RTVSPost2010Prop30
280
     1
102
RTVSPost2010PropOp30
 70
     1
102
RTVSPost2010Prop31
280
     0
102
RTVSPost2010PropOp31
 70
     1
102
RTVSPost2010Prop32
280
     0
102
RTVSPost2010PropOp32
 70
     1
102
RTVSPost2010Prop33
280
     0
102
RTVSPost2010PropOp33
 70
     1
102
RTVSPost2010Prop34
280
     0
102
RTVSPost2010PropOp34
 70
     1
102
RTVSPost2010Prop35
280
     0
102
RTVSPost2010PropOp35
 70
     1
102
RTVSPost2010Prop36
280
     0
102
RTVSPost2010PropOp36
 70
     1
102
RTVSPost2010Prop37
 90
       50
102
RTVSPost2010PropOp37
 70
     1
102
RTVSPost2010Prop38
140
0.0
102
RTVSPost2010PropOp38
 70
     1
102
RTVSPost2010Prop39
140
1.0
102
RTVSPost2010PropOp39
 70
     1
102
RTVSPost2010Prop40
 90
        0
102
RTVSPost2010PropOp40
 70
     1
102
RTVSPost2010Prop41ColorIndex
 90
       18
102
RTVSPost2010Prop41ColorRGB
 90
        0
102
RTVSPost2010PropOp41
 70
     1
102
RTVSPost2010Prop42
 90
       50
102
RTVSPost2010PropOp42
 70
     1
102
RTVSPost2010Prop43
 90
        3
102
RTVSPost2010PropOp43
 70
     1
102
RTVSPost2010Prop44ColorIndex
 90
        5
102
RTVSPost2010Prop44ColorRGB
 90
      255
102
RTVSPost2010PropOp44
 70
     1
102
RTVSPost2010Prop45
280
     0
102
RTVSPost2010PropOp45
 70
     1
102
RTVSPost2010Prop46
 90
       50
102
RTVSPost2010PropOp46
 70
     1
102
RTVSPost2010Prop47
 90
       50
102
RTVSPost2010PropOp47
 70
     1
102
RTVSPost2010Prop48
 90
       50
102
RTVSPost2010PropOp48
 70
     1
102
RTVSPost2010Prop49
280
     0
102
RTVSPost2010PropOp49
 70
     1
102
RTVSPost2010Prop50
 90
       50
102
RTVSPost2010PropOp50
 70
     1
102
RTVSPost2010Prop51ColorIndex
 90
      256
102
RTVSPost2010Prop51ColorRGB
 90
-16777216
102
RTVSPost2010PropOp51
 70
     0
102
RTVSPost2010Prop52
140
1.0
102
RTVSPost2010PropOp52
 70
     0
102
RTVSPost2010Prop53
 90
        2
102
RTVSPost2010PropOp53
 70
     1
102
RTVSPost2010Prop54
  1
strokes_ogs.tif
102
RTVSPost2010PropOp54
 70
     1
102
RTVSPost2010Prop55
280
     0
102
RTVSPost2010PropOp55
 70
     1
102
RTVSPost2010Prop56
140
1.0
102
RTVSPost2010PropOp56
 70
     1
102
RTVSPost2010Prop57
140
1.0
102
RTVSPost2010PropOp57
 70
     1
  0
XRECORD
  5
11F
102
{ACAD_REACTORS
330
11E
102
}
330
11E
100
AcDbXrecord
280
     1
102
RTVSPost2010Prop28
280
     0
102
RTVSPost2010PropOp28
 70
     1
102
RTVSPost2010Prop29
280
     1
102
RTVSPost2010PropOp29
 70
     1
102
RTVSPost2010Prop30
280
     1
102
RTVSPost2010PropOp30
 70
     1
102
RTVSPost2010Prop31
280
     0
102
RTVSPost2010PropOp31
 70
     1
102
RTVSPost2010Prop32
280
     0
102
RTVSPost2010PropOp32
 70
     1
102
RTVSPost2010Prop33
280
     0
102
RTVSPost2010PropOp33
 70
     1
102
RTVSPost2010Prop34
280
     0
102
RTVSPost2010PropOp34
 70
     1
102
RTVSPost2010Prop35
280
     0
102
RTVSPost2010PropOp35
 70
     1
102
RTVSPost2010Prop36
280
     0
102
RTVSPost2010PropOp36
 70
     1
102
RTVSPost2010Prop37
 90
       50
102
RTVSPost2010PropOp37
 70
     1
102
RTVSPost2010Prop38
140
0.0
102
RTVSPost2010PropOp38
 70
     1
102
RTVSPost2010Prop39
140
1.0
102
RTVSPost2010PropOp39
 70
     1
102
RTVSPost2010Prop40
 90
        0
102
RTVSPost2010PropOp40
 70
     1
102
RTVSPost2010Prop41ColorIndex
 90
       18
102
RTVSPost2010Prop41ColorRGB
 90
        0
102
RTVSPost2010PropOp41
 70
     1
102
RTVSPost2010Prop42
 90
       50
102
RTVSPost2010PropOp42
 70
     1
102
RTVSPost2010Prop43
 90
        3
102
RTVSPost2010PropOp43
 70
     1
102
RTVSPost2010Prop44ColorIndex
 90
        5
102
RTVSPost2010Prop44ColorRGB
 90
      255
102
RTVSPost2010PropOp44
 70
     1
102
RTVSPost2010Prop45
280
     0
102
RTVSPost2010PropOp45
 70
     1
102
RTVSPost2010Prop46
 90
       50
102
RTVSPost2010PropOp46
 70
     1
102
RTVSPost2010Prop47
 90
       50
102
RTVSPost2010PropOp47
 70
     1
102
RTVSPost2010Prop48
 90
       50
102
RTVSPost2010PropOp48
 70
     1
102
RTVSPost2010Prop49
280
     0
102
RTVSPost2010PropOp49
 70
     1
102
RTVSPost2010Prop50
 90
       50
102
RTVSPost2010PropOp50
 70
     1
102
RTVSPost2010Prop51ColorIndex
 90
      256
102
RTVSPost2010Prop51ColorRGB
 90
-16777216
102
RTVSPost2010PropOp51
 70
     0
102
RTVSPost2010Prop52
140
1.0
102
RTVSPost2010PropOp52
 70
     0
102
RTVSPost2010Prop53
 90
        2
102
RTVSPost2010PropOp53
 70
     1
102
RTVSPost2010Prop54
  1
strokes_ogs.tif
102
RTVSPost2010PropOp54
 70
     1
102
RTVSPost2010Prop55
280
     0
102
RTVSPost2010PropOp55
 70
     1
102
RTVSPost2010Prop56
140
1.0
102
RTVSPost2010PropOp56
 70
     1
102
RTVSPost2010Prop57
140
1.0
102
RTVSPost2010PropOp57
 70
     1
  0
XRECORD
  5
113
102
{ACAD_REACTORS
330
112
102
}
330
112
100
AcDbXrecord
280
     1
102
RTVSPost2010Prop28
280
     0
102
RTVSPost2010PropOp28
 70
     1
102
RTVSPost2010Prop29
280
     1
102
RTVSPost2010PropOp29
 70
     1
102
RTVSPost2010Prop30
280
     1
102
RTVSPost2010PropOp30
 70
     1
102
RTVSPost2010Prop31
280
     0
102
RTVSPost2010PropOp31
 70
     1
102
RTVSPost2010Prop32
280
     0
102
RTVSPost2010PropOp32
 70
     1
102
RTVSPost2010Prop33
280
     0
102
RTVSPost2010PropOp33
 70
     1
102
RTVSPost2010Prop34
280
     0
102
RTVSPost2010PropOp34
 70
     1
102
RTVSPost2010Prop35
280
     0
102
RTVSPost2010PropOp35
 70
     1
102
RTVSPost2010Prop36
280
     0
102
RTVSPost2010PropOp36
 70
     1
102
RTVSPost2010Prop37
 90
       50
102
RTVSPost2010PropOp37
 70
     1
102
RTVSPost2010Prop38
140
0.0
102
RTVSPost2010PropOp38
 70
     1
102
RTVSPost2010Prop39
140
1.0
102
RTVSPost2010PropOp39
 70
     1
102
RTVSPost2010Prop40
 90
        0
102
RTVSPost2010PropOp40
 70
     1
102
RTVSPost2010Prop41ColorIndex
 90
       18
102
RTVSPost2010Prop41ColorRGB
 90
        0
102
RTVSPost2010PropOp41
 70
     1
102
RTVSPost2010Prop42
 90
       50
102
RTVSPost2010PropOp42
 70
     1
102
RTVSPost2010Prop43
 90
        3
102
RTVSPost2010PropOp43
 70
     1
102
RTVSPost2010Prop44ColorIndex
 90
        5
102
RTVSPost2010Prop44ColorRGB
 90
      255
102
RTVSPost2010PropOp44
 70
     1
102
RTVSPost2010Prop45
280
     0
102
RTVSPost2010PropOp45
 70
     1
102
RTVSPost2010Prop46
 90
       50
102
RTVSPost2010PropOp46
 70
     1
102
RTVSPost2010Prop47
 90
       50
102
RTVSPost2010PropOp47
 70
     1
102
RTVSPost2010Prop48
 90
       50
102
RTVSPost2010PropOp48
 70
     1
102
RTVSPost2010Prop49
280
     0
102
RTVSPost2010PropOp49
 70
     1
102
RTVSPost2010Prop50
 90
       50
102
RTVSPost2010PropOp50
 70
     1
102
RTVSPost2010Prop51ColorIndex
 90
      256
102
RTVSPost2010Prop51ColorRGB
 90
-16777216
102
RTVSPost2010PropOp51
 70
     0
102
RTVSPost2010Prop52
140
1.0
102
RTVSPost2010PropOp52
 70
     0
102
RTVSPost2010Prop53
 90
        2
102
RTVSPost2010PropOp53
 70
     1
102
RTVSPost2010Prop54
  1
strokes_ogs.tif
102
RTVSPost2010PropOp54
 70
     1
102
RTVSPost2010Prop55
280
     0
102
RTVSPost2010PropOp55
 70
     1
102
RTVSPost2010Prop56
140
1.0
102
RTVSPost2010PropOp56
 70
     1
102
RTVSPost2010Prop57
140
1.0
102
RTVSPost2010PropOp57
 70
     1
  0
XRECORD
  5
115
102
{ACAD_REACTORS
330
114
102
}
330
114
100
AcDbXrecord
280
     1
102
RTVSPost2010Prop28
280
     0
102
RTVSPost2010PropOp28
 70
     1
102
RTVSPost2010Prop29
280
     1
102
RTVSPost2010PropOp29
 70
     1
102
RTVSPost2010Prop30
280
     1
102
RTVSPost2010PropOp30
 70
     1
102
RTVSPost2010Prop31
280
     0
102
RTVSPost2010PropOp31
 70
     1
102
RTVSPost2010Prop32
280
     0
102
RTVSPost2010PropOp32
 70
     1
102
RTVSPost2010Prop33
280
     0
102
RTVSPost2010PropOp33
 70
     1
102
RTVSPost2010Prop34
280
     0
102
RTVSPost2010PropOp34
 70
     1
102
RTVSPost2010Prop35
280
     0
102
RTVSPost2010PropOp35
 70
     1
102
RTVSPost2010Prop36
280
     0
102
RTVSPost2010PropOp36
 70
     1
102
RTVSPost2010Prop37
 90
       50
102
RTVSPost2010PropOp37
 70
     1
102
RTVSPost2010Prop38
140
0.0
102
RTVSPost2010PropOp38
 70
     1
102
RTVSPost2010Prop39
140
1.0
102
RTVSPost2010PropOp39
 70
     1
102
RTVSPost2010Prop40
 90
        0
102
RTVSPost2010PropOp40
 70
     1
102
RTVSPost2010Prop41ColorIndex
 90
       18
102
RTVSPost2010Prop41ColorRGB
 90
        0
102
RTVSPost2010PropOp41
 70
     1
102
RTVSPost2010Prop42
 90
       50
102
RTVSPost2010PropOp42
 70
     1
102
RTVSPost2010Prop43
 90
        3
102
RTVSPost2010PropOp43
 70
     1
102
RTVSPost2010Prop44ColorIndex
 90
        5
102
RTVSPost2010Prop44ColorRGB
 90
      255
102
RTVSPost2010PropOp44
 70
     1
102
RTVSPost2010Prop45
280
     0
102
RTVSPost2010PropOp45
 70
     1
102
RTVSPost2010Prop46
 90
       50
102
RTVSPost2010PropOp46
 70
     1
102
RTVSPost2010Prop47
 90
       50
102
RTVSPost2010PropOp47
 70
     1
102
RTVSPost2010Prop48
 90
       50
102
RTVSPost2010PropOp48
 70
     1
102
RTVSPost2010Prop49
280
     0
102
RTVSPost2010PropOp49
 70
     1
102
RTVSPost2010Prop50
 90
       50
102
RTVSPost2010PropOp50
 70
     1
102
RTVSPost2010Prop51ColorIndex
 90
      256
102
RTVSPost2010Prop51ColorRGB
 90
-16777216
102
RTVSPost2010PropOp51
 70
     0
102
RTVSPost2010Prop52
140
1.0
102
RTVSPost2010PropOp52
 70
     0
102
RTVSPost2010Prop53
 90
        2
102
RTVSPost2010PropOp53
 70
     1
102
RTVSPost2010Prop54
  1
strokes_ogs.tif
102
RTVSPost2010PropOp54
 70
     1
102
RTVSPost2010Prop55
280
     0
102
RTVSPost2010PropOp55
 70
     1
102
RTVSPost2010Prop56
140
1.0
102
RTVSPost2010PropOp56
 70
     1
102
RTVSPost2010Prop57
140
1.0
102
RTVSPost2010PropOp57
 70
     1
  0
XRECORD
  5
125
102
{ACAD_REACTORS
330
124
102
}
330
124
100
AcDbXrecord
280
     1
102
RTVSPost2010Prop28
280
     0
102
RTVSPost2010PropOp28
 70
     0
102
RTVSPost2010Prop29
280
     1
102
RTVSPost2010PropOp29
 70
     0
102
RTVSPost2010Prop30
280
     1
102
RTVSPost2010PropOp30
 70
     0
102
RTVSPost2010Prop31
280
     0
102
RTVSPost2010PropOp31
 70
     0
102
RTVSPost2010Prop32
280
     0
102
RTVSPost2010PropOp32
 70
     0
102
RTVSPost2010Prop33
280
     0
102
RTVSPost2010PropOp33
 70
     0
102
RTVSPost2010Prop34
280
     0
102
RTVSPost2010PropOp34
 70
     0
102
RTVSPost2010Prop35
280
     0
102
RTVSPost2010PropOp35
 70
     0
102
RTVSPost2010Prop36
280
     0
102
RTVSPost2010PropOp36
 70
     0
102
RTVSPost2010Prop37
 90
       50
102
RTVSPost2010PropOp37
 70
     0
102
RTVSPost2010Prop38
140
0.0
102
RTVSPost2010PropOp38
 70
     0
102
RTVSPost2010Prop39
140
1.0
102
RTVSPost2010PropOp39
 70
     0
102
RTVSPost2010Prop40
 90
        0
102
RTVSPost2010PropOp40
 70
     0
102
RTVSPost2010Prop41ColorIndex
 90
       18
102
RTVSPost2010Prop41ColorRGB
 90
        0
102
RTVSPost2010PropOp41
 70
     0
102
RTVSPost2010Prop42
 90
       50
102
RTVSPost2010PropOp42
 70
     0
102
RTVSPost2010Prop43
 90
        3
102
RTVSPost2010PropOp43
 70
     0
102
RTVSPost2010Prop44ColorIndex
 90
        5
102
RTVSPost2010Prop44ColorRGB
 90
      255
102
RTVSPost2010PropOp44
 70
     0
102
RTVSPost2010Prop45
280
     0
102
RTVSPost2010PropOp45
 70
     0
102
RTVSPost2010Prop46
 90
       50
102
RTVSPost2010PropOp46
 70
     0
102
RTVSPost2010Prop47
 90
       50
102
RTVSPost2010PropOp47
 70
     0
102
RTVSPost2010Prop48
 90
       50
102
RTVSPost2010PropOp48
 70
     0
102
RTVSPost2010Prop49
280
     0
102
RTVSPost2010PropOp49
 70
     0
102
RTVSPost2010Prop50
 90
       50
102
RTVSPost2010PropOp50
 70
     0
102
RTVSPost2010Prop51ColorIndex
 90
      256
102
RTVSPost2010Prop51ColorRGB
 90
-16777216
102
RTVSPost2010PropOp51
 70
     0
102
RTVSPost2010Prop52
140
1.0
102
RTVSPost2010PropOp52
 70
     0
102
RTVSPost2010Prop53
 90
        2
102
RTVSPost2010PropOp53
 70
     0
102
RTVSPost2010Prop54
  1
strokes_ogs.tif
102
RTVSPost2010PropOp54
 70
     0
102
RTVSPost2010Prop55
280
     0
102
RTVSPost2010PropOp55
 70
     0
102
RTVSPost2010Prop56
140
1.0
102
RTVSPost2010PropOp56
 70
     0
102
RTVSPost2010Prop57
140
1.0
102
RTVSPost2010PropOp57
 70
     0
  0
XRECORD
  5
11D
102
{ACAD_REACTORS
330
11C
102
}
330
11C
100
AcDbXrecord
280
     1
102
RTVSPost2010Prop28
280
     0
102
RTVSPost2010PropOp28
 70
     1
102
RTVSPost2010Prop29
280
     1
102
RTVSPost2010PropOp29
 70
     1
102
RTVSPost2010Prop30
280
     1
102
RTVSPost2010PropOp30
 70
     1
102
RTVSPost2010Prop31
280
     0
102
RTVSPost2010PropOp31
 70
     1
102
RTVSPost2010Prop32
280
     0
102
RTVSPost2010PropOp32
 70
     1
102
RTVSPost2010Prop33
280
     0
102
RTVSPost2010PropOp33
 70
     1
102
RTVSPost2010Prop34
280
     0
102
RTVSPost2010PropOp34
 70
     1
102
RTVSPost2010Prop35
280
     0
102
RTVSPost2010PropOp35
 70
     1
102
RTVSPost2010Prop36
280
     0
102
RTVSPost2010PropOp36
 70
     1
102
RTVSPost2010Prop37
 90
       50
102
RTVSPost2010PropOp37
 70
     1
102
RTVSPost2010Prop38
140
0.0
102
RTVSPost2010PropOp38
 70
     1
102
RTVSPost2010Prop39
140
1.0
102
RTVSPost2010PropOp39
 70
     1
102
RTVSPost2010Prop40
 90
        0
102
RTVSPost2010PropOp40
 70
     1
102
RTVSPost2010Prop41ColorIndex
 90
       18
102
RTVSPost2010Prop41ColorRGB
 90
        0
102
RTVSPost2010PropOp41
 70
     1
102
RTVSPost2010Prop42
 90
       50
102
RTVSPost2010PropOp42
 70
     1
102
RTVSPost2010Prop43
 90
        3
102
RTVSPost2010PropOp43
 70
     1
102
RTVSPost2010Prop44ColorIndex
 90
        5
102
RTVSPost2010Prop44ColorRGB
 90
      255
102
RTVSPost2010PropOp44
 70
     1
102
RTVSPost2010Prop45
280
     0
102
RTVSPost2010PropOp45
 70
     1
102
RTVSPost2010Prop46
 90
       50
102
RTVSPost2010PropOp46
 70
     1
102
RTVSPost2010Prop47
 90
       50
102
RTVSPost2010PropOp47
 70
     1
102
RTVSPost2010Prop48
 90
       50
102
RTVSPost2010PropOp48
 70
     1
102
RTVSPost2010Prop49
280
     0
102
RTVSPost2010PropOp49
 70
     1
102
RTVSPost2010Prop50
 90
       50
102
RTVSPost2010PropOp50
 70
     1
102
RTVSPost2010Prop51ColorIndex
 90
      256
102
RTVSPost2010Prop51ColorRGB
 90
-16777216
102
RTVSPost2010PropOp51
 70
     0
102
RTVSPost2010Prop52
140
1.0
102
RTVSPost2010PropOp52
 70
     0
102
RTVSPost2010Prop53
 90
        2
102
RTVSPost2010PropOp53
 70
     1
102
RTVSPost2010Prop54
  1
strokes_ogs.tif
102
RTVSPost2010PropOp54
 70
     1
102
RTVSPost2010Prop55
280
     0
102
RTVSPost2010PropOp55
 70
     1
102
RTVSPost2010Prop56
140
1.0
102
RTVSPost2010PropOp56
 70
     1
102
RTVSPost2010Prop57
140
1.0
102
RTVSPost2010PropOp57
 70
     1
  0
XRECORD
  5
101
102
{ACAD_REACTORS
330
100
102
}
330
100
100
AcDbXrecord
280
     1
102
RTVSPost2010Prop28
280
     0
102
RTVSPost2010PropOp28
 70
     1
102
RTVSPost2010Prop29
280
     1
102
RTVSPost2010PropOp29
 70
     1
102
RTVSPost2010Prop30
280
     1
102
RTVSPost2010PropOp30
 70
     1
102
RTVSPost2010Prop31
280
     0
102
RTVSPost2010PropOp31
 70
     1
102
RTVSPost2010Prop32
280
     0
102
RTVSPost2010PropOp32
 70
     1
102
RTVSPost2010Prop33
280
     0
102
RTVSPost2010PropOp33
 70
     1
102
RTVSPost2010Prop34
280
     0
102
RTVSPost2010PropOp34
 70
     1
102
RTVSPost2010Prop35
280
     0
102
RTVSPost2010PropOp35
 70
     1
102
RTVSPost2010Prop36
280
     0
102
RTVSPost2010PropOp36
 70
     1
102
RTVSPost2010Prop37
 90
       50
102
RTVSPost2010PropOp37
 70
     1
102
RTVSPost2010Prop38
140
0.0
102
RTVSPost2010PropOp38
 70
     1
102
RTVSPost2010Prop39
140
1.0
102
RTVSPost2010PropOp39
 70
     1
102
RTVSPost2010Prop40
 90
        0
102
RTVSPost2010PropOp40
 70
     1
102
RTVSPost2010Prop41ColorIndex
 90
       18
102
RTVSPost2010Prop41ColorRGB
 90
        0
102
RTVSPost2010PropOp41
 70
     1
102
RTVSPost2010Prop42
 90
       50
102
RTVSPost2010PropOp42
 70
     1
102
RTVSPost2010Prop43
 90
        3
102
RTVSPost2010PropOp43
 70
     1
102
RTVSPost2010Prop44ColorIndex
 90
        5
102
RTVSPost2010Prop44ColorRGB
 90
      255
102
RTVSPost2010PropOp44
 70
     1
102
RTVSPost2010Prop45
280
     0
102
RTVSPost2010PropOp45
 70
     1
102
RTVSPost2010Prop46
 90
       50
102
RTVSPost2010PropOp46
 70
     1
102
RTVSPost2010Prop47
 90
       50
102
RTVSPost2010PropOp47
 70
     1
102
RTVSPost2010Prop48
 90
       50
102
RTVSPost2010PropOp48
 70
     1
102
RTVSPost2010Prop49
280
     0
102
RTVSPost2010PropOp49
 70
     1
102
RTVSPost2010Prop50
 90
       50
102
RTVSPost2010PropOp50
 70
     1
102
RTVSPost2010Prop51ColorIndex
 90
      256
102
RTVSPost2010Prop51ColorRGB
 90
-16777216
102
RTVSPost2010PropOp51
 70
     0
102
RTVSPost2010Prop52
140
1.0
102
RTVSPost2010PropOp52
 70
     0
102
RTVSPost2010Prop53
 90
        2
102
RTVSPost2010PropOp53
 70
     1
102
RTVSPost2010Prop54
  1
strokes_ogs.tif
102
RTVSPost2010PropOp54
 70
     1
102
RTVSPost2010Prop55
280
     0
102
RTVSPost2010PropOp55
 70
     1
102
RTVSPost2010Prop56
140
1.0
102
RTVSPost2010PropOp56
 70
     1
102
RTVSPost2010Prop57
140
1.0
102
RTVSPost2010PropOp57
 70
     1
  0
XRECORD
  5
103
102
{ACAD_REACTORS
330
102
102
}
330
102
100
AcDbXrecord
280
     1
102
RTVSPost2010Prop28
280
     0
102
RTVSPost2010PropOp28
 70
     1
102
RTVSPost2010Prop29
280
     1
102
RTVSPost2010PropOp29
 70
     1
102
RTVSPost2010Prop30
280
     1
102
RTVSPost2010PropOp30
 70
     1
102
RTVSPost2010Prop31
280
     0
102
RTVSPost2010PropOp31
 70
     1
102
RTVSPost2010Prop32
280
     0
102
RTVSPost2010PropOp32
 70
     1
102
RTVSPost2010Prop33
280
     0
102
RTVSPost2010PropOp33
 70
     1
102
RTVSPost2010Prop34
280
     0
102
RTVSPost2010PropOp34
 70
     1
102
RTVSPost2010Prop35
280
     0
102
RTVSPost2010PropOp35
 70
     1
102
RTVSPost2010Prop36
280
     0
102
RTVSPost2010PropOp36
 70
     1
102
RTVSPost2010Prop37
 90
       50
102
RTVSPost2010PropOp37
 70
     1
102
RTVSPost2010Prop38
140
0.0
102
RTVSPost2010PropOp38
 70
     1
102
RTVSPost2010Prop39
140
1.0
102
RTVSPost2010PropOp39
 70
     1
102
RTVSPost2010Prop40
 90
        0
102
RTVSPost2010PropOp40
 70
     1
102
RTVSPost2010Prop41ColorIndex
 90
       18
102
RTVSPost2010Prop41ColorRGB
 90
        0
102
RTVSPost2010PropOp41
 70
     1
102
RTVSPost2010Prop42
 90
       50
102
RTVSPost2010PropOp42
 70
     1
102
RTVSPost2010Prop43
 90
        3
102
RTVSPost2010PropOp43
 70
     1
102
RTVSPost2010Prop44ColorIndex
 90
        5
102
RTVSPost2010Prop44ColorRGB
 90
      255
102
RTVSPost2010PropOp44
 70
     1
102
RTVSPost2010Prop45
280
     0
102
RTVSPost2010PropOp45
 70
     1
102
RTVSPost2010Prop46
 90
       50
102
RTVSPost2010PropOp46
 70
     1
102
RTVSPost2010Prop47
 90
       50
102
RTVSPost2010PropOp47
 70
     1
102
RTVSPost2010Prop48
 90
       50
102
RTVSPost2010PropOp48
 70
     1
102
RTVSPost2010Prop49
280
     0
102
RTVSPost2010PropOp49
 70
     1
102
RTVSPost2010Prop50
 90
       50
102
RTVSPost2010PropOp50
 70
     1
102
RTVSPost2010Prop51ColorIndex
 90
      256
102
RTVSPost2010Prop51ColorRGB
 90
-16777216
102
RTVSPost2010PropOp51
 70
     0
102
RTVSPost2010Prop52
140
1.0
102
RTVSPost2010PropOp52
 70
     0
102
RTVSPost2010Prop53
 90
        2
102
RTVSPost2010PropOp53
 70
     1
102
RTVSPost2010Prop54
  1
strokes_ogs.tif
102
RTVSPost2010PropOp54
 70
     1
102
RTVSPost2010Prop55
280
     0
102
RTVSPost2010PropOp55
 70
     1
102
RTVSPost2010Prop56
140
1.0
102
RTVSPost2010PropOp56
 70
     1
102
RTVSPost2010Prop57
140
1.0
102
RTVSPost2010PropOp57
 70
     1
  0
XRECORD
  5
105
102
{ACAD_REACTORS
330
104
102
}
330
104
100
AcDbXrecord
280
     1
102
RTVSPost2010Prop28
280
     0
102
RTVSPost2010PropOp28
 70
     1
102
RTVSPost2010Prop29
280
     1
102
RTVSPost2010PropOp29
 70
     1
102
RTVSPost2010Prop30
280
     1
102
RTVSPost2010PropOp30
 70
     1
102
RTVSPost2010Prop31
280
     0
102
RTVSPost2010PropOp31
 70
     1
102
RTVSPost2010Prop32
280
     0
102
RTVSPost2010PropOp32
 70
     1
102
RTVSPost2010Prop33
280
     0
102
RTVSPost2010PropOp33
 70
     1
102
RTVSPost2010Prop34
280
     0
102
RTVSPost2010PropOp34
 70
     1
102
RTVSPost2010Prop35
280
     0
102
RTVSPost2010PropOp35
 70
     1
102
RTVSPost2010Prop36
280
     0
102
RTVSPost2010PropOp36
 70
     1
102
RTVSPost2010Prop37
 90
       50
102
RTVSPost2010PropOp37
 70
     1
102
RTVSPost2010Prop38
140
0.0
102
RTVSPost2010PropOp38
 70
     1
102
RTVSPost2010Prop39
140
1.0
102
RTVSPost2010PropOp39
 70
     1
102
RTVSPost2010Prop40
 90
        0
102
RTVSPost2010PropOp40
 70
     1
102
RTVSPost2010Prop41ColorIndex
 90
       18
102
RTVSPost2010Prop41ColorRGB
 90
        0
102
RTVSPost2010PropOp41
 70
     1
102
RTVSPost2010Prop42
 90
       50
102
RTVSPost2010PropOp42
 70
     1
102
RTVSPost2010Prop43
 90
        3
102
RTVSPost2010PropOp43
 70
     1
102
RTVSPost2010Prop44ColorIndex
 90
        5
102
RTVSPost2010Prop44ColorRGB
 90
      255
102
RTVSPost2010PropOp44
 70
     1
102
RTVSPost2010Prop45
280
     0
102
RTVSPost2010PropOp45
 70
     1
102
RTVSPost2010Prop46
 90
       50
102
RTVSPost2010PropOp46
 70
     1
102
RTVSPost2010Prop47
 90
       50
102
RTVSPost2010PropOp47
 70
     1
102
RTVSPost2010Prop48
 90
       50
102
RTVSPost2010PropOp48
 70
     1
102
RTVSPost2010Prop49
280
     0
102
RTVSPost2010PropOp49
 70
     1
102
RTVSPost2010Prop50
 90
       50
102
RTVSPost2010PropOp50
 70
     1
102
RTVSPost2010Prop51ColorIndex
 90
      256
102
RTVSPost2010Prop51ColorRGB
 90
-16777216
102
RTVSPost2010PropOp51
 70
     0
102
RTVSPost2010Prop52
140
1.0
102
RTVSPost2010PropOp52
 70
     0
102
RTVSPost2010Prop53
 90
        2
102
RTVSPost2010PropOp53
 70
     1
102
RTVSPost2010Prop54
  1
strokes_ogs.tif
102
RTVSPost2010PropOp54
 70
     1
102
RTVSPost2010Prop55
280
     0
102
RTVSPost2010PropOp55
 70
     1
102
RTVSPost2010Prop56
140
1.0
102
RTVSPost2010PropOp56
 70
     1
102
RTVSPost2010Prop57
140
1.0
102
RTVSPost2010PropOp57
 70
     1
  0
XRECORD
  5
107
102
{ACAD_REACTORS
330
106
102
}
330
106
100
AcDbXrecord
280
     1
102
RTVSPost2010Prop28
280
     0
102
RTVSPost2010PropOp28
 70
     1
102
RTVSPost2010Prop29
280
     1
102
RTVSPost2010PropOp29
 70
     1
102
RTVSPost2010Prop30
280
     1
102
RTVSPost2010PropOp30
 70
     1
102
RTVSPost2010Prop31
280
     0
102
RTVSPost2010PropOp31
 70
     1
102
RTVSPost2010Prop32
280
     0
102
RTVSPost2010PropOp32
 70
     1
102
RTVSPost2010Prop33
280
     0
102
RTVSPost2010PropOp33
 70
     1
102
RTVSPost2010Prop34
280
     0
102
RTVSPost2010PropOp34
 70
     1
102
RTVSPost2010Prop35
280
     0
102
RTVSPost2010PropOp35
 70
     1
102
RTVSPost2010Prop36
280
     0
102
RTVSPost2010PropOp36
 70
     1
102
RTVSPost2010Prop37
 90
       50
102
RTVSPost2010PropOp37
 70
     1
102
RTVSPost2010Prop38
140
0.0
102
RTVSPost2010PropOp38
 70
     1
102
RTVSPost2010Prop39
140
1.0
102
RTVSPost2010PropOp39
 70
     1
102
RTVSPost2010Prop40
 90
        0
102
RTVSPost2010PropOp40
 70
     1
102
RTVSPost2010Prop41ColorIndex
 90
       18
102
RTVSPost2010Prop41ColorRGB
 90
        0
102
RTVSPost2010PropOp41
 70
     1
102
RTVSPost2010Prop42
 90
       50
102
RTVSPost2010PropOp42
 70
     1
102
RTVSPost2010Prop43
 90
        3
102
RTVSPost2010PropOp43
 70
     1
102
RTVSPost2010Prop44ColorIndex
 90
        5
102
RTVSPost2010Prop44ColorRGB
 90
      255
102
RTVSPost2010PropOp44
 70
     1
102
RTVSPost2010Prop45
280
     0
102
RTVSPost2010PropOp45
 70
     1
102
RTVSPost2010Prop46
 90
       50
102
RTVSPost2010PropOp46
 70
     1
102
RTVSPost2010Prop47
 90
       50
102
RTVSPost2010PropOp47
 70
     1
102
RTVSPost2010Prop48
 90
       50
102
RTVSPost2010PropOp48
 70
     1
102
RTVSPost2010Prop49
280
     0
102
RTVSPost2010PropOp49
 70
     1
102
RTVSPost2010Prop50
 90
       50
102
RTVSPost2010PropOp50
 70
     1
102
RTVSPost2010Prop51ColorIndex
 90
      256
102
RTVSPost2010Prop51ColorRGB
 90
-16777216
102
RTVSPost2010PropOp51
 70
     0
102
RTVSPost2010Prop52
140
1.0
102
RTVSPost2010PropOp52
 70
     0
102
RTVSPost2010Prop53
 90
        2
102
RTVSPost2010PropOp53
 70
     1
102
RTVSPost2010Prop54
  1
strokes_ogs.tif
102
RTVSPost2010PropOp54
 70
     1
102
RTVSPost2010Prop55
280
     0
102
RTVSPost2010PropOp55
 70
     1
102
RTVSPost2010Prop56
140
1.0
102
RTVSPost2010PropOp56
 70
     1
102
RTVSPost2010Prop57
140
1.0
102
RTVSPost2010PropOp57
 70
     1
  0
XRECORD
  5
10D
102
{ACAD_REACTORS
330
10C
102
}
330
10C
100
AcDbXrecord
280
     1
102
RTVSPost2010Prop28
280
     0
102
RTVSPost2010PropOp28
 70
     1
102
RTVSPost2010Prop29
280
     1
102
RTVSPost2010PropOp29
 70
     1
102
RTVSPost2010Prop30
280
     1
102
RTVSPost2010PropOp30
 70
     1
102
RTVSPost2010Prop31
280
     0
102
RTVSPost2010PropOp31
 70
     1
102
RTVSPost2010Prop32
280
     0
102
RTVSPost2010PropOp32
 70
     1
102
RTVSPost2010Prop33
280
     0
102
RTVSPost2010PropOp33
 70
     1
102
RTVSPost2010Prop34
280
     0
102
RTVSPost2010PropOp34
 70
     1
102
RTVSPost2010Prop35
280
     0
102
RTVSPost2010PropOp35
 70
     1
102
RTVSPost2010Prop36
280
     0
102
RTVSPost2010PropOp36
 70
     1
102
RTVSPost2010Prop37
 90
       50
102
RTVSPost2010PropOp37
 70
     1
102
RTVSPost2010Prop38
140
0.0
102
RTVSPost2010PropOp38
 70
     1
102
RTVSPost2010Prop39
140
1.0
102
RTVSPost2010PropOp39
 70
     1
102
RTVSPost2010Prop40
 90
        0
102
RTVSPost2010PropOp40
 70
     1
102
RTVSPost2010Prop41ColorIndex
 90
       18
102
RTVSPost2010Prop41ColorRGB
 90
        0
102
RTVSPost2010PropOp41
 70
     1
102
RTVSPost2010Prop42
 90
       50
102
RTVSPost2010PropOp42
 70
     1
102
RTVSPost2010Prop43
 90
        3
102
RTVSPost2010PropOp43
 70
     1
102
RTVSPost2010Prop44ColorIndex
 90
        5
102
RTVSPost2010Prop44ColorRGB
 90
      255
102
RTVSPost2010PropOp44
 70
     1
102
RTVSPost2010Prop45
280
     0
102
RTVSPost2010PropOp45
 70
     1
102
RTVSPost2010Prop46
 90
       50
102
RTVSPost2010PropOp46
 70
     1
102
RTVSPost2010Prop47
 90
       50
102
RTVSPost2010PropOp47
 70
     1
102
RTVSPost2010Prop48
 90
       50
102
RTVSPost2010PropOp48
 70
     1
102
RTVSPost2010Prop49
280
     0
102
RTVSPost2010PropOp49
 70
     1
102
RTVSPost2010Prop50
 90
       50
102
RTVSPost2010PropOp50
 70
     1
102
RTVSPost2010Prop51ColorIndex
 90
      256
102
RTVSPost2010Prop51ColorRGB
 90
-16777216
102
RTVSPost2010PropOp51
 70
     0
102
RTVSPost2010Prop52
140
1.0
102
RTVSPost2010PropOp52
 70
     0
102
RTVSPost2010Prop53
 90
        2
102
RTVSPost2010PropOp53
 70
     1
102
RTVSPost2010Prop54
  1
strokes_ogs.tif
102
RTVSPost2010PropOp54
 70
     1
102
RTVSPost2010Prop55
280
     0
102
RTVSPost2010PropOp55
 70
     1
102
RTVSPost2010Prop56
140
1.0
102
RTVSPost2010PropOp56
 70
     1
102
RTVSPost2010Prop57
140
1.0
102
RTVSPost2010PropOp57
 70
     1
  0
XRECORD
  5
121
102
{ACAD_REACTORS
330
120
102
}
330
120
100
AcDbXrecord
280
     1
102
RTVSPost2010Prop28
280
     0
102
RTVSPost2010PropOp28
 70
     0
102
RTVSPost2010Prop29
280
     1
102
RTVSPost2010PropOp29
 70
     0
102
RTVSPost2010Prop30
280
     1
102
RTVSPost2010PropOp30
 70
     0
102
RTVSPost2010Prop31
280
     0
102
RTVSPost2010PropOp31
 70
     0
102
RTVSPost2010Prop32
280
     0
102
RTVSPost2010PropOp32
 70
     0
102
RTVSPost2010Prop33
280
     0
102
RTVSPost2010PropOp33
 70
     0
102
RTVSPost2010Prop34
280
     0
102
RTVSPost2010PropOp34
 70
     0
102
RTVSPost2010Prop35
280
     0
102
RTVSPost2010PropOp35
 70
     0
102
RTVSPost2010Prop36
280
     0
102
RTVSPost2010PropOp36
 70
     0
102
RTVSPost2010Prop37
 90
       50
102
RTVSPost2010PropOp37
 70
     0
102
RTVSPost2010Prop38
140
0.0
102
RTVSPost2010PropOp38
 70
     0
102
RTVSPost2010Prop39
140
1.0
102
RTVSPost2010PropOp39
 70
     0
102
RTVSPost2010Prop40
 90
        0
102
RTVSPost2010PropOp40
 70
     0
102
RTVSPost2010Prop41ColorIndex
 90
       18
102
RTVSPost2010Prop41ColorRGB
 90
        0
102
RTVSPost2010PropOp41
 70
     0
102
RTVSPost2010Prop42
 90
       50
102
RTVSPost2010PropOp42
 70
     0
102
RTVSPost2010Prop43
 90
        3
102
RTVSPost2010PropOp43
 70
     0
102
RTVSPost2010Prop44ColorIndex
 90
        5
102
RTVSPost2010Prop44ColorRGB
 90
      255
102
RTVSPost2010PropOp44
 70
     0
102
RTVSPost2010Prop45
280
     0
102
RTVSPost2010PropOp45
 70
     0
102
RTVSPost2010Prop46
 90
       50
102
RTVSPost2010PropOp46
 70
     0
102
RTVSPost2010Prop47
 90
       50
102
RTVSPost2010PropOp47
 70
     0
102
RTVSPost2010Prop48
 90
       50
102
RTVSPost2010PropOp48
 70
     0
102
RTVSPost2010Prop49
280
     0
102
RTVSPost2010PropOp49
 70
     0
102
RTVSPost2010Prop50
 90
       50
102
RTVSPost2010PropOp50
 70
     0
102
RTVSPost2010Prop51ColorIndex
 90
      256
102
RTVSPost2010Prop51ColorRGB
 90
-16777216
102
RTVSPost2010PropOp51
 70
     0
102
RTVSPost2010Prop52
140
1.0
102
RTVSPost2010PropOp52
 70
     0
102
RTVSPost2010Prop53
 90
        2
102
RTVSPost2010PropOp53
 70
     0
102
RTVSPost2010Prop54
  1
strokes_ogs.tif
102
RTVSPost2010PropOp54
 70
     0
102
RTVSPost2010Prop55
280
     0
102
RTVSPost2010PropOp55
 70
     0
102
RTVSPost2010Prop56
140
1.0
102
RTVSPost2010PropOp56
 70
     0
102
RTVSPost2010Prop57
140
1.0
102
RTVSPost2010PropOp57
 70
     0
  0
XRECORD
  5
11B
102
{ACAD_REACTORS
330
11A
102
}
330
11A
100
AcDbXrecord
280
     1
102
RTVSPost2010Prop28
280
     0
102
RTVSPost2010PropOp28
 70
     1
102
RTVSPost2010Prop29
280
     1
102
RTVSPost2010PropOp29
 70
     1
102
RTVSPost2010Prop30
280
     1
102
RTVSPost2010PropOp30
 70
     1
102
RTVSPost2010Prop31
280
     0
102
RTVSPost2010PropOp31
 70
     1
102
RTVSPost2010Prop32
280
     0
102
RTVSPost2010PropOp32
 70
     1
102
RTVSPost2010Prop33
280
     0
102
RTVSPost2010PropOp33
 70
     1
102
RTVSPost2010Prop34
280
     0
102
RTVSPost2010PropOp34
 70
     1
102
RTVSPost2010Prop35
280
     0
102
RTVSPost2010PropOp35
 70
     1
102
RTVSPost2010Prop36
280
     0
102
RTVSPost2010PropOp36
 70
     1
102
RTVSPost2010Prop37
 90
       50
102
RTVSPost2010PropOp37
 70
     1
102
RTVSPost2010Prop38
140
0.0
102
RTVSPost2010PropOp38
 70
     1
102
RTVSPost2010Prop39
140
1.0
102
RTVSPost2010PropOp39
 70
     1
102
RTVSPost2010Prop40
 90
        0
102
RTVSPost2010PropOp40
 70
     1
102
RTVSPost2010Prop41ColorIndex
 90
       18
102
RTVSPost2010Prop41ColorRGB
 90
        0
102
RTVSPost2010PropOp41
 70
     1
102
RTVSPost2010Prop42
 90
       50
102
RTVSPost2010PropOp42
 70
     1
102
RTVSPost2010Prop43
 90
        3
102
RTVSPost2010PropOp43
 70
     1
102
RTVSPost2010Prop44ColorIndex
 90
        5
102
RTVSPost2010Prop44ColorRGB
 90
      255
102
RTVSPost2010PropOp44
 70
     1
102
RTVSPost2010Prop45
280
     0
102
RTVSPost2010PropOp45
 70
     1
102
RTVSPost2010Prop46
 90
       50
102
RTVSPost2010PropOp46
 70
     1
102
RTVSPost2010Prop47
 90
       50
102
RTVSPost2010PropOp47
 70
     1
102
RTVSPost2010Prop48
 90
       50
102
RTVSPost2010PropOp48
 70
     1
102
RTVSPost2010Prop49
280
     0
102
RTVSPost2010PropOp49
 70
     1
102
RTVSPost2010Prop50
 90
       50
102
RTVSPost2010PropOp50
 70
     1
102
RTVSPost2010Prop51ColorIndex
 90
      256
102
RTVSPost2010Prop51ColorRGB
 90
-16777216
102
RTVSPost2010PropOp51
 70
     0
102
RTVSPost2010Prop52
140
1.0
102
RTVSPost2010PropOp52
 70
     0
102
RTVSPost2010Prop53
 90
        2
102
RTVSPost2010PropOp53
 70
     1
102
RTVSPost2010Prop54
  1
strokes_ogs.tif
102
RTVSPost2010PropOp54
 70
     1
102
RTVSPost2010Prop55
280
     0
102
RTVSPost2010PropOp55
 70
     1
102
RTVSPost2010Prop56
140
1.0
102
RTVSPost2010PropOp56
 70
     1
102
RTVSPost2010Prop57
140
1.0
102
RTVSPost2010PropOp57
 70
     1
  0
XRECORD
  5
123
102
{ACAD_REACTORS
330
122
102
}
330
122
100
AcDbXrecord
280
     1
102
RTVSPost2010Prop28
280
     0
102
RTVSPost2010PropOp28
 70
     0
102
RTVSPost2010Prop29
280
     1
102
RTVSPost2010PropOp29
 70
     0
102
RTVSPost2010Prop30
280
     1
102
RTVSPost2010PropOp30
 70
     0
102
RTVSPost2010Prop31
280
     0
102
RTVSPost2010PropOp31
 70
     0
102
RTVSPost2010Prop32
280
     0
102
RTVSPost2010PropOp32
 70
     0
102
RTVSPost2010Prop33
280
     0
102
RTVSPost2010PropOp33
 70
     0
102
RTVSPost2010Prop34
280
     0
102
RTVSPost2010PropOp34
 70
     0
102
RTVSPost2010Prop35
280
     0
102
RTVSPost2010PropOp35
 70
     0
102
RTVSPost2010Prop36
280
     0
102
RTVSPost2010PropOp36
 70
     0
102
RTVSPost2010Prop37
 90
       50
102
RTVSPost2010PropOp37
 70
     0
102
RTVSPost2010Prop38
140
0.0
102
RTVSPost2010PropOp38
 70
     0
102
RTVSPost2010Prop39
140
1.0
102
RTVSPost2010PropOp39
 70
     0
102
RTVSPost2010Prop40
 90
        0
102
RTVSPost2010PropOp40
 70
     0
102
RTVSPost2010Prop41ColorIndex
 90
       18
102
RTVSPost2010Prop41ColorRGB
 90
        0
102
RTVSPost2010PropOp41
 70
     0
102
RTVSPost2010Prop42
 90
       50
102
RTVSPost2010PropOp42
 70
     0
102
RTVSPost2010Prop43
 90
        3
102
RTVSPost2010PropOp43
 70
     0
102
RTVSPost2010Prop44ColorIndex
 90
        5
102
RTVSPost2010Prop44ColorRGB
 90
      255
102
RTVSPost2010PropOp44
 70
     0
102
RTVSPost2010Prop45
280
     0
102
RTVSPost2010PropOp45
 70
     0
102
RTVSPost2010Prop46
 90
       50
102
RTVSPost2010PropOp46
 70
     0
102
RTVSPost2010Prop47
 90
       50
102
RTVSPost2010PropOp47
 70
     0
102
RTVSPost2010Prop48
 90
       50
102
RTVSPost2010PropOp48
 70
     0
102
RTVSPost2010Prop49
280
     0
102
RTVSPost2010PropOp49
 70
     0
102
RTVSPost2010Prop50
 90
       50
102
RTVSPost2010PropOp50
 70
     0
102
RTVSPost2010Prop51ColorIndex
 90
      256
102
RTVSPost2010Prop51ColorRGB
 90
-16777216
102
RTVSPost2010PropOp51
 70
     0
102
RTVSPost2010Prop52
140
1.0
102
RTVSPost2010PropOp52
 70
     0
102
RTVSPost2010Prop53
 90
        2
102
RTVSPost2010PropOp53
 70
     0
102
RTVSPost2010Prop54
  1
strokes_ogs.tif
102
RTVSPost2010PropOp54
 70
     0
102
RTVSPost2010Prop55
280
     0
102
RTVSPost2010PropOp55
 70
     0
102
RTVSPost2010Prop56
140
1.0
102
RTVSPost2010PropOp56
 70
     0
102
RTVSPost2010Prop57
140
1.0
102
RTVSPost2010PropOp57
 70
     0
  0
XRECORD
  5
111
102
{ACAD_REACTORS
330
110
102
}
330
110
100
AcDbXrecord
280
     1
102
RTVSPost2010Prop28
280
     0
102
RTVSPost2010PropOp28
 70
     1
102
RTVSPost2010Prop29
280
     1
102
RTVSPost2010PropOp29
 70
     1
102
RTVSPost2010Prop30
280
     1
102
RTVSPost2010PropOp30
 70
     1
102
RTVSPost2010Prop31
280
     0
102
RTVSPost2010PropOp31
 70
     1
102
RTVSPost2010Prop32
280
     0
102
RTVSPost2010PropOp32
 70
     1
102
RTVSPost2010Prop33
280
     0
102
RTVSPost2010PropOp33
 70
     1
102
RTVSPost2010Prop34
280
     0
102
RTVSPost2010PropOp34
 70
     1
102
RTVSPost2010Prop35
280
     0
102
RTVSPost2010PropOp35
 70
     1
102
RTVSPost2010Prop36
280
     0
102
RTVSPost2010PropOp36
 70
     1
102
RTVSPost2010Prop37
 90
       50
102
RTVSPost2010PropOp37
 70
     1
102
RTVSPost2010Prop38
140
0.0
102
RTVSPost2010PropOp38
 70
     1
102
RTVSPost2010Prop39
140
1.0
102
RTVSPost2010PropOp39
 70
     1
102
RTVSPost2010Prop40
 90
        0
102
RTVSPost2010PropOp40
 70
     1
102
RTVSPost2010Prop41ColorIndex
 90
       18
102
RTVSPost2010Prop41ColorRGB
 90
        0
102
RTVSPost2010PropOp41
 70
     1
102
RTVSPost2010Prop42
 90
       50
102
RTVSPost2010PropOp42
 70
     1
102
RTVSPost2010Prop43
 90
        3
102
RTVSPost2010PropOp43
 70
     1
102
RTVSPost2010Prop44ColorIndex
 90
        5
102
RTVSPost2010Prop44ColorRGB
 90
      255
102
RTVSPost2010PropOp44
 70
     1
102
RTVSPost2010Prop45
280
     0
102
RTVSPost2010PropOp45
 70
     1
102
RTVSPost2010Prop46
 90
       50
102
RTVSPost2010PropOp46
 70
     1
102
RTVSPost2010Prop47
 90
       50
102
RTVSPost2010PropOp47
 70
     1
102
RTVSPost2010Prop48
 90
       50
102
RTVSPost2010PropOp48
 70
     1
102
RTVSPost2010Prop49
280
     0
102
RTVSPost2010PropOp49
 70
     1
102
RTVSPost2010Prop50
 90
       50
102
RTVSPost2010PropOp50
 70
     1
102
RTVSPost2010Prop51ColorIndex
 90
      256
102
RTVSPost2010Prop51ColorRGB
 90
-16777216
102
RTVSPost2010PropOp51
 70
     0
102
RTVSPost2010Prop52
140
1.0
102
RTVSPost2010PropOp52
 70
     0
102
RTVSPost2010Prop53
 90
        2
102
RTVSPost2010PropOp53
 70
     1
102
RTVSPost2010Prop54
  1
strokes_ogs.tif
102
RTVSPost2010PropOp54
 70
     1
102
RTVSPost2010Prop55
280
     0
102
RTVSPost2010PropOp55
 70
     1
102
RTVSPost2010Prop56
140
1.0
102
RTVSPost2010PropOp56
 70
     1
102
RTVSPost2010Prop57
140
1.0
102
RTVSPost2010PropOp57
 70
     1
  0
XRECORD
  5
12F
102
{ACAD_REACTORS
330
12E
102
}
330
12E
100
AcDbXrecord
280
     1
102
RTVSPost2010Prop28
280
     0
102
RTVSPost2010PropOp28
 70
     1
102
RTVSPost2010Prop29
280
     1
102
RTVSPost2010PropOp29
 70
     1
102
RTVSPost2010Prop30
280
     1
102
RTVSPost2010PropOp30
 70
     1
102
RTVSPost2010Prop31
280
     0
102
RTVSPost2010PropOp31
 70
     1
102
RTVSPost2010Prop32
280
     0
102
RTVSPost2010PropOp32
 70
     1
102
RTVSPost2010Prop33
280
     0
102
RTVSPost2010PropOp33
 70
     1
102
RTVSPost2010Prop34
280
     0
102
RTVSPost2010PropOp34
 70
     1
102
RTVSPost2010Prop35
280
     0
102
RTVSPost2010PropOp35
 70
     1
102
RTVSPost2010Prop36
280
     0
102
RTVSPost2010PropOp36
 70
     1
102
RTVSPost2010Prop37
 90
       50
102
RTVSPost2010PropOp37
 70
     1
102
RTVSPost2010Prop38
140
0.0
102
RTVSPost2010PropOp38
 70
     1
102
RTVSPost2010Prop39
140
1.0
102
RTVSPost2010PropOp39
 70
     1
102
RTVSPost2010Prop40
 90
        0
102
RTVSPost2010PropOp40
 70
     1
102
RTVSPost2010Prop41ColorIndex
 90
       18
102
RTVSPost2010Prop41ColorRGB
 90
        0
102
RTVSPost2010PropOp41
 70
     1
102
RTVSPost2010Prop42
 90
       50
102
RTVSPost2010PropOp42
 70
     1
102
RTVSPost2010Prop43
 90
        3
102
RTVSPost2010PropOp43
 70
     1
102
RTVSPost2010Prop44ColorIndex
 90
        5
102
RTVSPost2010Prop44ColorRGB
 90
      255
102
RTVSPost2010PropOp44
 70
     1
102
RTVSPost2010Prop45
280
     0
102
RTVSPost2010PropOp45
 70
     1
102
RTVSPost2010Prop46
 90
       50
102
RTVSPost2010PropOp46
 70
     1
102
RTVSPost2010Prop47
 90
       50
102
RTVSPost2010PropOp47
 70
     1
102
RTVSPost2010Prop48
 90
       50
102
RTVSPost2010PropOp48
 70
     1
102
RTVSPost2010Prop49
280
     0
102
RTVSPost2010PropOp49
 70
     1
102
RTVSPost2010Prop50
 90
       50
102
RTVSPost2010PropOp50
 70
     1
102
RTVSPost2010Prop51ColorIndex
 90
      256
102
RTVSPost2010Prop51ColorRGB
 90
-16777216
102
RTVSPost2010PropOp51
 70
     0
102
RTVSPost2010Prop52
140
1.0
102
RTVSPost2010PropOp52
 70
     0
102
RTVSPost2010Prop53
 90
        2
102
RTVSPost2010PropOp53
 70
     1
102
RTVSPost2010Prop54
  1
strokes_ogs.tif
102
RTVSPost2010PropOp54
 70
     1
102
RTVSPost2010Prop55
280
     0
102
RTVSPost2010PropOp55
 70
     1
102
RTVSPost2010Prop56
140
1.0
102
RTVSPost2010PropOp56
 70
     1
102
RTVSPost2010Prop57
140
1.0
102
RTVSPost2010PropOp57
 70
     1
  0
XRECORD
  5
12D
102
{ACAD_REACTORS
330
12C
102
}
330
12C
100
AcDbXrecord
280
     1
102
RTVSPost2010Prop28
280
     0
102
RTVSPost2010PropOp28
 70
     1
102
RTVSPost2010Prop29
280
     1
102
RTVSPost2010PropOp29
 70
     1
102
RTVSPost2010Prop30
280
     1
102
RTVSPost2010PropOp30
 70
     1
102
RTVSPost2010Prop31
280
     0
102
RTVSPost2010PropOp31
 70
     1
102
RTVSPost2010Prop32
280
     0
102
RTVSPost2010PropOp32
 70
     1
102
RTVSPost2010Prop33
280
     0
102
RTVSPost2010PropOp33
 70
     1
102
RTVSPost2010Prop34
280
     0
102
RTVSPost2010PropOp34
 70
     1
102
RTVSPost2010Prop35
280
     0
102
RTVSPost2010PropOp35
 70
     1
102
RTVSPost2010Prop36
280
     0
102
RTVSPost2010PropOp36
 70
     1
102
RTVSPost2010Prop37
 90
       50
102
RTVSPost2010PropOp37
 70
     1
102
RTVSPost2010Prop38
140
0.0
102
RTVSPost2010PropOp38
 70
     1
102
RTVSPost2010Prop39
140
1.0
102
RTVSPost2010PropOp39
 70
     1
102
RTVSPost2010Prop40
 90
        0
102
RTVSPost2010PropOp40
 70
     1
102
RTVSPost2010Prop41ColorIndex
 90
       18
102
RTVSPost2010Prop41ColorRGB
 90
        0
102
RTVSPost2010PropOp41
 70
     1
102
RTVSPost2010Prop42
 90
       50
102
RTVSPost2010PropOp42
 70
     1
102
RTVSPost2010Prop43
 90
        3
102
RTVSPost2010PropOp43
 70
     1
102
RTVSPost2010Prop44ColorIndex
 90
        5
102
RTVSPost2010Prop44ColorRGB
 90
      255
102
RTVSPost2010PropOp44
 70
     1
102
RTVSPost2010Prop45
280
     0
102
RTVSPost2010PropOp45
 70
     1
102
RTVSPost2010Prop46
 90
       50
102
RTVSPost2010PropOp46
 70
     1
102
RTVSPost2010Prop47
 90
       50
102
RTVSPost2010PropOp47
 70
     1
102
RTVSPost2010Prop48
 90
       50
102
RTVSPost2010PropOp48
 70
     1
102
RTVSPost2010Prop49
280
     0
102
RTVSPost2010PropOp49
 70
     1
102
RTVSPost2010Prop50
 90
       50
102
RTVSPost2010PropOp50
 70
     1
102
RTVSPost2010Prop51ColorIndex
 90
      256
102
RTVSPost2010Prop51ColorRGB
 90
-16777216
102
RTVSPost2010PropOp51
 70
     0
102
RTVSPost2010Prop52
140
1.0
102
RTVSPost2010PropOp52
 70
     0
102
RTVSPost2010Prop53
 90
        2
102
RTVSPost2010PropOp53
 70
     1
102
RTVSPost2010Prop54
  1
strokes_ogs.tif
102
RTVSPost2010PropOp54
 70
     1
102
RTVSPost2010Prop55
280
     0
102
RTVSPost2010PropOp55
 70
     1
102
RTVSPost2010Prop56
140
1.0
102
RTVSPost2010PropOp56
 70
     1
102
RTVSPost2010Prop57
140
1.0
102
RTVSPost2010PropOp57
 70
     1
  0
XRECORD
  5
127
102
{ACAD_REACTORS
330
126
102
}
330
126
100
AcDbXrecord
280
     1
102
RTVSPost2010Prop28
280
     0
102
RTVSPost2010PropOp28
 70
     1
102
RTVSPost2010Prop29
280
     1
102
RTVSPost2010PropOp29
 70
     1
102
RTVSPost2010Prop30
280
     1
102
RTVSPost2010PropOp30
 70
     1
102
RTVSPost2010Prop31
280
     0
102
RTVSPost2010PropOp31
 70
     1
102
RTVSPost2010Prop32
280
     0
102
RTVSPost2010PropOp32
 70
     1
102
RTVSPost2010Prop33
280
     0
102
RTVSPost2010PropOp33
 70
     1
102
RTVSPost2010Prop34
280
     0
102
RTVSPost2010PropOp34
 70
     1
102
RTVSPost2010Prop35
280
     0
102
RTVSPost2010PropOp35
 70
     1
102
RTVSPost2010Prop36
280
     0
102
RTVSPost2010PropOp36
 70
     1
102
RTVSPost2010Prop37
 90
       50
102
RTVSPost2010PropOp37
 70
     1
102
RTVSPost2010Prop38
140
0.0
102
RTVSPost2010PropOp38
 70
     1
102
RTVSPost2010Prop39
140
1.0
102
RTVSPost2010PropOp39
 70
     1
102
RTVSPost2010Prop40
 90
        0
102
RTVSPost2010PropOp40
 70
     1
102
RTVSPost2010Prop41ColorIndex
 90
       18
102
RTVSPost2010Prop41ColorRGB
 90
        0
102
RTVSPost2010PropOp41
 70
     1
102
RTVSPost2010Prop42
 90
       50
102
RTVSPost2010PropOp42
 70
     1
102
RTVSPost2010Prop43
 90
        3
102
RTVSPost2010PropOp43
 70
     1
102
RTVSPost2010Prop44ColorIndex
 90
        5
102
RTVSPost2010Prop44ColorRGB
 90
      255
102
RTVSPost2010PropOp44
 70
     1
102
RTVSPost2010Prop45
280
     0
102
RTVSPost2010PropOp45
 70
     1
102
RTVSPost2010Prop46
 90
       50
102
RTVSPost2010PropOp46
 70
     1
102
RTVSPost2010Prop47
 90
       50
102
RTVSPost2010PropOp47
 70
     1
102
RTVSPost2010Prop48
 90
       50
102
RTVSPost2010PropOp48
 70
     1
102
RTVSPost2010Prop49
280
     0
102
RTVSPost2010PropOp49
 70
     1
102
RTVSPost2010Prop50
 90
       50
102
RTVSPost2010PropOp50
 70
     1
102
RTVSPost2010Prop51ColorIndex
 90
      256
102
RTVSPost2010Prop51ColorRGB
 90
-16777216
102
RTVSPost2010PropOp51
 70
     0
102
RTVSPost2010Prop52
140
1.0
102
RTVSPost2010PropOp52
 70
     0
102
RTVSPost2010Prop53
 90
        2
102
RTVSPost2010PropOp53
 70
     1
102
RTVSPost2010Prop54
  1
strokes_ogs.tif
102
RTVSPost2010PropOp54
 70
     1
102
RTVSPost2010Prop55
280
     0
102
RTVSPost2010PropOp55
 70
     1
102
RTVSPost2010Prop56
140
1.0
102
RTVSPost2010PropOp56
 70
     1
102
RTVSPost2010Prop57
140
1.0
102
RTVSPost2010PropOp57
 70
     1
  0
XRECORD
  5
129
102
{ACAD_REACTORS
330
128
102
}
330
128
100
AcDbXrecord
280
     1
102
RTVSPost2010Prop28
280
     0
102
RTVSPost2010PropOp28
 70
     1
102
RTVSPost2010Prop29
280
     1
102
RTVSPost2010PropOp29
 70
     1
102
RTVSPost2010Prop30
280
     1
102
RTVSPost2010PropOp30
 70
     1
102
RTVSPost2010Prop31
280
     0
102
RTVSPost2010PropOp31
 70
     1
102
RTVSPost2010Prop32
280
     0
102
RTVSPost2010PropOp32
 70
     1
102
RTVSPost2010Prop33
280
     0
102
RTVSPost2010PropOp33
 70
     1
102
RTVSPost2010Prop34
280
     0
102
RTVSPost2010PropOp34
 70
     1
102
RTVSPost2010Prop35
280
     0
102
RTVSPost2010PropOp35
 70
     1
102
RTVSPost2010Prop36
280
     0
102
RTVSPost2010PropOp36
 70
     1
102
RTVSPost2010Prop37
 90
       50
102
RTVSPost2010PropOp37
 70
     1
102
RTVSPost2010Prop38
140
0.0
102
RTVSPost2010PropOp38
 70
     1
102
RTVSPost2010Prop39
140
1.0
102
RTVSPost2010PropOp39
 70
     1
102
RTVSPost2010Prop40
 90
        0
102
RTVSPost2010PropOp40
 70
     1
102
RTVSPost2010Prop41ColorIndex
 90
       18
102
RTVSPost2010Prop41ColorRGB
 90
        0
102
RTVSPost2010PropOp41
 70
     1
102
RTVSPost2010Prop42
 90
       50
102
RTVSPost2010PropOp42
 70
     1
102
RTVSPost2010Prop43
 90
        3
102
RTVSPost2010PropOp43
 70
     1
102
RTVSPost2010Prop44ColorIndex
 90
        5
102
RTVSPost2010Prop44ColorRGB
 90
      255
102
RTVSPost2010PropOp44
 70
     1
102
RTVSPost2010Prop45
280
     0
102
RTVSPost2010PropOp45
 70
     1
102
RTVSPost2010Prop46
 90
       50
102
RTVSPost2010PropOp46
 70
     1
102
RTVSPost2010Prop47
 90
       50
102
RTVSPost2010PropOp47
 70
     1
102
RTVSPost2010Prop48
 90
       50
102
RTVSPost2010PropOp48
 70
     1
102
RTVSPost2010Prop49
280
     0
102
RTVSPost2010PropOp49
 70
     1
102
RTVSPost2010Prop50
 90
       50
102
RTVSPost2010PropOp50
 70
     1
102
RTVSPost2010Prop51ColorIndex
 90
      256
102
RTVSPost2010Prop51ColorRGB
 90
-16777216
102
RTVSPost2010PropOp51
 70
     0
102
RTVSPost2010Prop52
140
1.0
102
RTVSPost2010PropOp52
 70
     0
102
RTVSPost2010Prop53
 90
        2
102
RTVSPost2010PropOp53
 70
     1
102
RTVSPost2010Prop54
  1
strokes_ogs.tif
102
RTVSPost2010PropOp54
 70
     1
102
RTVSPost2010Prop55
280
     0
102
RTVSPost2010PropOp55
 70
     1
102
RTVSPost2010Prop56
140
1.0
102
RTVSPost2010PropOp56
 70
     1
102
RTVSPost2010Prop57
140
1.0
102
RTVSPost2010PropOp57
 70
     1
  0
XRECORD
  5
119
102
{ACAD_REACTORS
330
118
102
}
330
118
100
AcDbXrecord
280
     1
102
RTVSPost2010Prop28
280
     0
102
RTVSPost2010PropOp28
 70
     1
102
RTVSPost2010Prop29
280
     1
102
RTVSPost2010PropOp29
 70
     1
102
RTVSPost2010Prop30
280
     1
102
RTVSPost2010PropOp30
 70
     1
102
RTVSPost2010Prop31
280
     0
102
RTVSPost2010PropOp31
 70
     1
102
RTVSPost2010Prop32
280
     0
102
RTVSPost2010PropOp32
 70
     1
102
RTVSPost2010Prop33
280
     0
102
RTVSPost2010PropOp33
 70
     1
102
RTVSPost2010Prop34
280
     0
102
RTVSPost2010PropOp34
 70
     1
102
RTVSPost2010Prop35
280
     0
102
RTVSPost2010PropOp35
 70
     1
102
RTVSPost2010Prop36
280
     0
102
RTVSPost2010PropOp36
 70
     1
102
RTVSPost2010Prop37
 90
       50
102
RTVSPost2010PropOp37
 70
     1
102
RTVSPost2010Prop38
140
0.0
102
RTVSPost2010PropOp38
 70
     1
102
RTVSPost2010Prop39
140
1.0
102
RTVSPost2010PropOp39
 70
     1
102
RTVSPost2010Prop40
 90
        0
102
RTVSPost2010PropOp40
 70
     1
102
RTVSPost2010Prop41ColorIndex
 90
       18
102
RTVSPost2010Prop41ColorRGB
 90
        0
102
RTVSPost2010PropOp41
 70
     1
102
RTVSPost2010Prop42
 90
       50
102
RTVSPost2010PropOp42
 70
     1
102
RTVSPost2010Prop43
 90
        3
102
RTVSPost2010PropOp43
 70
     1
102
RTVSPost2010Prop44ColorIndex
 90
        5
102
RTVSPost2010Prop44ColorRGB
 90
      255
102
RTVSPost2010PropOp44
 70
     1
102
RTVSPost2010Prop45
280
     0
102
RTVSPost2010PropOp45
 70
     1
102
RTVSPost2010Prop46
 90
       50
102
RTVSPost2010PropOp46
 70
     1
102
RTVSPost2010Prop47
 90
       50
102
RTVSPost2010PropOp47
 70
     1
102
RTVSPost2010Prop48
 90
       50
102
RTVSPost2010PropOp48
 70
     1
102
RTVSPost2010Prop49
280
     0
102
RTVSPost2010PropOp49
 70
     1
102
RTVSPost2010Prop50
 90
       50
102
RTVSPost2010PropOp50
 70
     1
102
RTVSPost2010Prop51ColorIndex
 90
      256
102
RTVSPost2010Prop51ColorRGB
 90
-16777216
102
RTVSPost2010PropOp51
 70
     0
102
RTVSPost2010Prop52
140
1.0
102
RTVSPost2010PropOp52
 70
     0
102
RTVSPost2010Prop53
 90
        2
102
RTVSPost2010PropOp53
 70
     1
102
RTVSPost2010Prop54
  1
strokes_ogs.tif
102
RTVSPost2010PropOp54
 70
     1
102
RTVSPost2010Prop55
280
     0
102
RTVSPost2010PropOp55
 70
     1
102
RTVSPost2010Prop56
140
1.0
102
RTVSPost2010PropOp56
 70
     1
102
RTVSPost2010Prop57
140
1.0
102
RTVSPost2010PropOp57
 70
     1
  0
XRECORD
  5
10B
102
{ACAD_REACTORS
330
10A
102
}
330
10A
100
AcDbXrecord
280
     1
102
RTVSPost2010Prop28
280
     0
102
RTVSPost2010PropOp28
 70
     1
102
RTVSPost2010Prop29
280
     1
102
RTVSPost2010PropOp29
 70
     1
102
RTVSPost2010Prop30
280
     1
102
RTVSPost2010PropOp30
 70
     1
102
RTVSPost2010Prop31
280
     0
102
RTVSPost2010PropOp31
 70
     1
102
RTVSPost2010Prop32
280
     0
102
RTVSPost2010PropOp32
 70
     1
102
RTVSPost2010Prop33
280
     0
102
RTVSPost2010PropOp33
 70
     1
102
RTVSPost2010Prop34
280
     0
102
RTVSPost2010PropOp34
 70
     1
102
RTVSPost2010Prop35
280
     0
102
RTVSPost2010PropOp35
 70
     1
102
RTVSPost2010Prop36
280
     0
102
RTVSPost2010PropOp36
 70
     1
102
RTVSPost2010Prop37
 90
       50
102
RTVSPost2010PropOp37
 70
     1
102
RTVSPost2010Prop38
140
0.0
102
RTVSPost2010PropOp38
 70
     1
102
RTVSPost2010Prop39
140
1.0
102
RTVSPost2010PropOp39
 70
     1
102
RTVSPost2010Prop40
 90
        0
102
RTVSPost2010PropOp40
 70
     1
102
RTVSPost2010Prop41ColorIndex
 90
       18
102
RTVSPost2010Prop41ColorRGB
 90
        0
102
RTVSPost2010PropOp41
 70
     1
102
RTVSPost2010Prop42
 90
       50
102
RTVSPost2010PropOp42
 70
     1
102
RTVSPost2010Prop43
 90
        3
102
RTVSPost2010PropOp43
 70
     1
102
RTVSPost2010Prop44ColorIndex
 90
        5
102
RTVSPost2010Prop44ColorRGB
 90
      255
102
RTVSPost2010PropOp44
 70
     1
102
RTVSPost2010Prop45
280
     0
102
RTVSPost2010PropOp45
 70
     1
102
RTVSPost2010Prop46
 90
       50
102
RTVSPost2010PropOp46
 70
     1
102
RTVSPost2010Prop47
 90
       50
102
RTVSPost2010PropOp47
 70
     1
102
RTVSPost2010Prop48
 90
       50
102
RTVSPost2010PropOp48
 70
     1
102
RTVSPost2010Prop49
280
     0
102
RTVSPost2010PropOp49
 70
     1
102
RTVSPost2010Prop50
 90
       50
102
RTVSPost2010PropOp50
 70
     1
102
RTVSPost2010Prop51ColorIndex
 90
      256
102
RTVSPost2010Prop51ColorRGB
 90
-16777216
102
RTVSPost2010PropOp51
 70
     0
102
RTVSPost2010Prop52
140
1.0
102
RTVSPost2010PropOp52
 70
     0
102
RTVSPost2010Prop53
 90
        2
102
RTVSPost2010PropOp53
 70
     1
102
RTVSPost2010Prop54
  1
strokes_ogs.tif
102
RTVSPost2010PropOp54
 70
     1
102
RTVSPost2010Prop55
280
     0
102
RTVSPost2010PropOp55
 70
     1
102
RTVSPost2010Prop56
140
1.0
102
RTVSPost2010PropOp56
 70
     1
102
RTVSPost2010Prop57
140
1.0
102
RTVSPost2010PropOp57
 70
     1
  0
XRECORD
  5
12B
102
{ACAD_REACTORS
330
12A
102
}
330
12A
100
AcDbXrecord
280
     1
102
RTVSPost2010Prop28
280
     0
102
RTVSPost2010PropOp28
 70
     1
102
RTVSPost2010Prop29
280
     1
102
RTVSPost2010PropOp29
 70
     1
102
RTVSPost2010Prop30
280
     1
102
RTVSPost2010PropOp30
 70
     1
102
RTVSPost2010Prop31
280
     0
102
RTVSPost2010PropOp31
 70
     1
102
RTVSPost2010Prop32
280
     0
102
RTVSPost2010PropOp32
 70
     1
102
RTVSPost2010Prop33
280
     0
102
RTVSPost2010PropOp33
 70
     1
102
RTVSPost2010Prop34
280
     0
102
RTVSPost2010PropOp34
 70
     1
102
RTVSPost2010Prop35
280
     0
102
RTVSPost2010PropOp35
 70
     1
102
RTVSPost2010Prop36
280
     0
102
RTVSPost2010PropOp36
 70
     1
102
RTVSPost2010Prop37
 90
       50
102
RTVSPost2010PropOp37
 70
     1
102
RTVSPost2010Prop38
140
0.0
102
RTVSPost2010PropOp38
 70
     1
102
RTVSPost2010Prop39
140
1.0
102
RTVSPost2010PropOp39
 70
     1
102
RTVSPost2010Prop40
 90
        0
102
RTVSPost2010PropOp40
 70
     1
102
RTVSPost2010Prop41ColorIndex
 90
       18
102
RTVSPost2010Prop41ColorRGB
 90
        0
102
RTVSPost2010PropOp41
 70
     1
102
RTVSPost2010Prop42
 90
       50
102
RTVSPost2010PropOp42
 70
     1
102
RTVSPost2010Prop43
 90
        3
102
RTVSPost2010PropOp43
 70
     1
102
RTVSPost2010Prop44ColorIndex
 90
        5
102
RTVSPost2010Prop44ColorRGB
 90
      255
102
RTVSPost2010PropOp44
 70
     1
102
RTVSPost2010Prop45
280
     0
102
RTVSPost2010PropOp45
 70
     1
102
RTVSPost2010Prop46
 90
       50
102
RTVSPost2010PropOp46
 70
     1
102
RTVSPost2010Prop47
 90
       50
102
RTVSPost2010PropOp47
 70
     1
102
RTVSPost2010Prop48
 90
       50
102
RTVSPost2010PropOp48
 70
     1
102
RTVSPost2010Prop49
280
     0
102
RTVSPost2010PropOp49
 70
     1
102
RTVSPost2010Prop50
 90
       50
102
RTVSPost2010PropOp50
 70
     1
102
RTVSPost2010Prop51ColorIndex
 90
      256
102
RTVSPost2010Prop51ColorRGB
 90
-16777216
102
RTVSPost2010PropOp51
 70
     0
102
RTVSPost2010Prop52
140
1.0
102
RTVSPost2010PropOp52
 70
     0
102
RTVSPost2010Prop53
 90
        2
102
RTVSPost2010PropOp53
 70
     1
102
RTVSPost2010Prop54
  1
strokes_ogs.tif
102
RTVSPost2010PropOp54
 70
     1
102
RTVSPost2010Prop55
280
     0
102
RTVSPost2010PropOp55
 70
     1
102
RTVSPost2010Prop56
140
1.0
102
RTVSPost2010PropOp56
 70
     1
102
RTVSPost2010Prop57
140
1.0
102
RTVSPost2010PropOp57
 70
     1
  0
ENDSEC
  0
EOF
