  0
SECTION
  2
HEADER
  9
$ACADVER
  1
AC1015
  9
$ACADMAINTVER
 70
     6
  9
$DWGCODEPAGE
  3
ANSI_1252
  9
$INSBASE
 10
0.0
 20
0.0
 30
0.0
  9
$EXTMIN
 10
-378.963287
 20
221.892136
 30
0.0
  9
$EXTMAX
 10
927.690491
 20
1141.89978
 30
0.0
  9
$LIMMIN
 10
-378.963287
 20
221.892136
  9
$LIMMAX
 10
927.690491
 20
1141.89978
  9
$ORTHOMODE
 70
     0
  9
$REGENMODE
 70
     1
  9
$FILLMODE
 70
     1
  9
$QTEXTMODE
 70
     0
  9
$MIRRTEXT
 70
     1
  9
$LTSCALE
 40
1.0
  9
$ATTMODE
 70
     1
  9
$TEXTSIZE
 40
2.5
  9
$TRACEWID
 40
1.0
  9
$TEXTSTYLE
  7
Standard
  9
$CLAYER
  8
0
  9
$CELTYPE
  6
ByLayer
  9
$CECOLOR
 62
   256
  9
$CELTSCALE
 40
1.0
  9
$DISPSILH
 70
     0
  9
$DIMSCALE
 40
1.0
  9
$DIMASZ
 40
2.5
  9
$DIMEXO
 40
0.625
  9
$DIMDLI
 40
3.75
  9
$DIMRND
 40
0.0
  9
$DIMDLE
 40
0.0
  9
$DIMEXE
 40
1.25
  9
$DIMTP
 40
0.0
  9
$DIMTM
 40
0.0
  9
$DIMTXT
 40
2.5
  9
$DIMCEN
 40
2.5
  9
$DIMTSZ
 40
0.0
  9
$DIMTOL
 70
     0
  9
$DIMLIM
 70
     0
  9
$DIMTIH
 70
     0
  9
$DIMTOH
 70
     0
  9
$DIMSE1
 70
     0
  9
$DIMSE2
 70
     0
  9
$DIMTAD
 70
     1
  9
$DIMZIN
 70
     8
  9
$DIMBLK
  1

  9
$DIMASO
 70
     1
  9
$DIMSHO
 70
     1
  9
$DIMPOST
  1

  9
$DIMAPOST
  1

  9
$DIMALT
 70
     0
  9
$DIMALTD
 70
     3
  9
$DIMALTF
 40
0.03937
  9
$DIMLFAC
 40
1.0
  9
$DIMTOFL
 70
     1
  9
$DIMTVP
 40
0.0
  9
$DIMTIX
 70
     0
  9
$DIMSOXD
 70
     0
  9
$DIMSAH
 70
     0
  9
$DIMBLK1
  1

  9
$DIMBLK2
  1

  9
$DIMSTYLE
  2
ISO-25
  9
$DIMCLRD
 70
     0
  9
$DIMCLRE
 70
     0
  9
$DIMCLRT
 70
     0
  9
$DIMTFAC
 40
1.0
  9
$DIMGAP
 40
0.625
  9
$DIMJUST
 70
     0
  9
$DIMSD1
 70
     0
  9
$DIMSD2
 70
     0
  9
$DIMTOLJ
 70
     0
  9
$DIMTZIN
 70
     8
  9
$DIMALTZ
 70
     0
  9
$DIMALTTZ
 70
     0
  9
$DIMUPT
 70
     0
  9
$DIMDEC
 70
     2
  9
$DIMTDEC
 70
     2
  9
$DIMALTU
 70
     2
  9
$DIMALTTD
 70
     3
  9
$DIMTXSTY
  7
Standard
  9
$DIMAUNIT
 70
     0
  9
$DIMADEC
 70
     0
  9
$DIMALTRND
 40
0.0
  9
$DIMAZIN
 70
     0
  9
$DIMDSEP
 70
    44
  9
$DIMATFIT
 70
     3
  9
$DIMFRAC
 70
     0
  9
$DIMLDRBLK
  1

  9
$DIMLUNIT
 70
     2
  9
$DIMLWD
 70
    -2
  9
$DIMLWE
 70
    -2
  9
$DIMTMOVE
 70
     0
  9
$LUNITS
 70
     2
  9
$LUPREC
 70
     4
  9
$SKETCHINC
 40
1.0
  9
$FILLETRAD
 40
10.0
  9
$AUNITS
 70
     0
  9
$AUPREC
 70
     0
  9
$MENU
  1
.
  9
$ELEVATION
 40
0.0
  9
$PELEVATION
 40
0.0
  9
$THICKNESS
 40
0.0
  9
$LIMCHECK
 70
     0
  9
$CHAMFERA
 40
0.0
  9
$CHAMFERB
 40
0.0
  9
$CHAMFERC
 40
0.0
  9
$CHAMFERD
 40
0.0
  9
$SKPOLY
 70
     0
  9
$TDCREATE
 40
2459031.642920359
  9
$TDUCREATE
 40
2459031.559587026
  9
$TDUPDATE
 40
2459031.642921169
  9
$TDUUPDATE
 40
2459031.559587836
  9
$TDINDWG
 40
0.0000000116
  9
$TDUSRTIMER
 40
0.0000000116
  9
$USRTIMER
 70
     1
  9
$ANGBASE
 50
0.0
  9
$ANGDIR
 70
     0
  9
$PDMODE
 70
     0
  9
$PDSIZE
 40
0.0
  9
$PLINEWID
 40
0.0
  9
$SPLFRAME
 70
     0
  9
$SPLINETYPE
 70
     6
  9
$SPLINESEGS
 70
     8
  9
$HANDSEED
  5
416
  9
$SURFTAB1
 70
     6
  9
$SURFTAB2
 70
     6
  9
$SURFTYPE
 70
     6
  9
$SURFU
 70
     6
  9
$SURFV
 70
     6
  9
$UCSBASE
  2

  9
$UCSNAME
  2

  9
$UCSORG
 10
0.0
 20
0.0
 30
0.0
  9
$UCSXDIR
 10
1.0
 20
0.0
 30
0.0
  9
$UCSYDIR
 10
0.0
 20
1.0
 30
0.0
  9
$UCSORTHOREF
  2

  9
$UCSORTHOVIEW
 70
     0
  9
$UCSORGTOP
 10
0.0
 20
0.0
 30
0.0
  9
$UCSORGBOTTOM
 10
0.0
 20
0.0
 30
0.0
  9
$UCSORGLEFT
 10
0.0
 20
0.0
 30
0.0
  9
$UCSORGRIGHT
 10
0.0
 20
0.0
 30
0.0
  9
$UCSORGFRONT
 10
0.0
 20
0.0
 30
0.0
  9
$UCSORGBACK
 10
0.0
 20
0.0
 30
0.0
  9
$PUCSBASE
  2

  9
$PUCSNAME
  2

  9
$PUCSORG
 10
0.0
 20
0.0
 30
0.0
  9
$PUCSXDIR
 10
1.0
 20
0.0
 30
0.0
  9
$PUCSYDIR
 10
0.0
 20
1.0
 30
0.0
  9
$PUCSORTHOREF
  2

  9
$PUCSORTHOVIEW
 70
     0
  9
$PUCSORGTOP
 10
0.0
 20
0.0
 30
0.0
  9
$PUCSORGBOTTOM
 10
0.0
 20
0.0
 30
0.0
  9
$PUCSORGLEFT
 10
0.0
 20
0.0
 30
0.0
  9
$PUCSORGRIGHT
 10
0.0
 20
0.0
 30
0.0
  9
$PUCSORGFRONT
 10
0.0
 20
0.0
 30
0.0
  9
$PUCSORGBACK
 10
0.0
 20
0.0
 30
0.0
  9
$USERI1
 70
     0
  9
$USERI2
 70
     0
  9
$USERI3
 70
     0
  9
$USERI4
 70
     0
  9
$USERI5
 70
     0
  9
$USERR1
 40
0.0
  9
$USERR2
 40
0.0
  9
$USERR3
 40
0.0
  9
$USERR4
 40
0.0
  9
$USERR5
 40
0.0
  9
$WORLDVIEW
 70
     1
  9
$SHADEDGE
 70
     3
  9
$SHADEDIF
 70
    70
  9
$TILEMODE
 70
     1
  9
$MAXACTVP
 70
    64
  9
$PINSBASE
 10
0.0
 20
0.0
 30
0.0
  9
$PLIMCHECK
 70
     0
  9
$PEXTMIN
 10
1.000000E+20
 20
1.000000E+20
 30
1.000000E+20
  9
$PEXTMAX
 10
-1.000000E+20
 20
-1.000000E+20
 30
-1.000000E+20
  9
$PLIMMIN
 10
0.0
 20
0.0
  9
$PLIMMAX
 10
420.0
 20
297.0
  9
$UNITMODE
 70
     0
  9
$VISRETAIN
 70
     1
  9
$PLINEGEN
 70
     0
  9
$PSLTSCALE
 70
     1
  9
$TREEDEPTH
 70
  3020
  9
$CMLSTYLE
  2
Standard
  9
$CMLJUST
 70
     0
  9
$CMLSCALE
 40
20.0
  9
$PROXYGRAPHICS
 70
     1
  9
$MEASUREMENT
 70
     1
  9
$CELWEIGHT
370
    -1
  9
$ENDCAPS
280
     0
  9
$JOINSTYLE
280
     0
  9
$LWDISPLAY
290
     0
  9
$INSUNITS
 70
     4
  9
$HYPERLINKBASE
  1

  9
$STYLESHEET
  1

  9
$XEDIT
290
     1
  9
$CEPSNTYPE
380
     0
  9
$PSTYLEMODE
290
     1
  9
$FINGERPRINTGUID
  2
{099e8100-90b0-4aa1-8d6f-45a3c04859a0}
  9
$VERSIONGUID
  2
{FAEB1C32-E019-11D5-929B-00C0DF256EC4}
  9
$EXTNAMES
290
     1
  9
$PSVPSCALE
 40
0.0
  9
$OLESTARTUP
290
     0
  0
ENDSEC
  0
SECTION
  2
CLASSES
  0
CLASS
  1
ACDBDICTIONARYWDFLT
  2
AcDbDictionaryWithDefault
  3
ObjectDBX Classes
 90
        0
280
     0
281
     0
  0
CLASS
  1
VISUALSTYLE
  2
AcDbVisualStyle
  3
ObjectDBX Classes
 90
     4095
280
     0
281
     0
  0
CLASS
  1
MATERIAL
  2
AcDbMaterial
  3
ObjectDBX Classes
 90
     1153
280
     0
281
     0
  0
CLASS
  1
SCALE
  2
AcDbScale
  3
ObjectDBX Classes
 90
     1153
280
     0
281
     0
  0
CLASS
  1
TABLESTYLE
  2
AcDbTableStyle
  3
ObjectDBX Classes
 90
     4095
280
     0
281
     0
  0
CLASS
  1
MLEADERSTYLE
  2
AcDbMLeaderStyle
  3
ACDB_MLEADERSTYLE_CLASS
 90
     4095
280
     0
281
     0
  0
CLASS
  1
SUN
  2
AcDbSun
  3
SCENEOE
 90
     1153
280
     0
281
     0
  0
CLASS
  1
DICTIONARYVAR
  2
AcDbDictionaryVar
  3
ObjectDBX Classes
 90
        0
280
     0
281
     0
  0
CLASS
  1
ACDBPLACEHOLDER
  2
AcDbPlaceHolder
  3
ObjectDBX Classes
 90
        0
280
     0
281
     0
  0
CLASS
  1
LAYOUT
  2
AcDbLayout
  3
ObjectDBX Classes
 90
        0
280
     0
281
     0
  0
ENDSEC
  0
SECTION
  2
TABLES
  0
TABLE
  2
VPORT
  5
8
102
{ACAD_XDICTIONARY
360
3D9
102
}
330
0
100
AcDbSymbolTable
 70
     1
  0
VPORT
  5
29
330
8
100
AcDbSymbolTableRecord
100
AcDbViewportTableRecord
  2
*Active
 70
     0
 10
0.0
 20
0.0
 11
1.0
 21
1.0
 12
344.186916
 22
148.5
 13
0.0
 23
0.0
 14
10.0
 24
10.0
 15
10.0
 25
10.0
 16
0.0
 26
0.0
 36
1.0
 17
0.0
 27
0.0
 37
0.0
 40
297.0
 41
1.972973
 42
50.0
 43
0.0
 44
0.0
 50
0.0
 51
0.0
 71
     0
 72
   100
 73
     1
 74
     3
 75
     0
 76
     0
 77
     0
 78
     0
281
     0
 65
     1
110
0.0
120
0.0
130
0.0
111
1.0
121
0.0
131
0.0
112
0.0
122
1.0
132
0.0
 79
     0
146
0.0
  0
ENDTAB
  0
TABLE
  2
LTYPE
  5
5
330
0
100
AcDbSymbolTable
 70
     1
  0
LTYPE
  5
14
330
5
100
AcDbSymbolTableRecord
100
AcDbLinetypeTableRecord
  2
ByBlock
 70
     0
  3

 72
    65
 73
     0
 40
0.0
  0
LTYPE
  5
15
330
5
100
AcDbSymbolTableRecord
100
AcDbLinetypeTableRecord
  2
ByLayer
 70
     0
  3

 72
    65
 73
     0
 40
0.0
  0
LTYPE
  5
16
330
5
100
AcDbSymbolTableRecord
100
AcDbLinetypeTableRecord
  2
Continuous
 70
     0
  3
Solid line
 72
    65
 73
     0
 40
0.0
  0
ENDTAB
  0
TABLE
  2
LAYER
  5
2
330
0
100
AcDbSymbolTable
 70
     1
  0
LAYER
  5
10
330
2
100
AcDbSymbolTableRecord
100
AcDbLayerTableRecord
  2
0
 70
     0
 62
   106
  6
Continuous
370
     0
390
F
  0
ENDTAB
  0
TABLE
  2
STYLE
  5
3
330
0
100
AcDbSymbolTable
 70
     4
  0
STYLE
  5
11
330
3
100
AcDbSymbolTableRecord
100
AcDbTextStyleTableRecord
  2
Standard
 70
     0
 40
0.0
 41
1.0
 50
0.0
 71
     0
 42
2.5
  3
txt
  4

  0
STYLE
  5
6E
330
3
100
AcDbSymbolTableRecord
100
AcDbTextStyleTableRecord
  2
Default
 70
     0
 40
0.0
 41
1.0
 50
0.0
 71
     0
 42
2.5
  3

  4

1001
ACAD
1000
txt
1071
        0
  0
STYLE
  5
6F
330
3
100
AcDbSymbolTableRecord
100
AcDbTextStyleTableRecord
  2
ISO
 70
     0
 40
0.0
 41
1.0
 50
0.0
 71
     0
 42
2.5
  3

  4

1001
ACAD
1000
txt
1071
        0
  0
STYLE
  5
70
330
3
100
AcDbSymbolTableRecord
100
AcDbTextStyleTableRecord
  2
zucchetti
 70
     0
 40
0.0
 41
1.0
 50
0.0
 71
     0
 42
2.5
  3

  4

1001
ACAD
1000
Arial
1071
        0
  0
ENDTAB
  0
TABLE
  2
VIEW
  5
6
330
0
100
AcDbSymbolTable
 70
     0
  0
ENDTAB
  0
TABLE
  2
UCS
  5
7
330
0
100
AcDbSymbolTable
 70
     0
  0
ENDTAB
  0
TABLE
  2
APPID
  5
9
330
0
100
AcDbSymbolTable
 70
     2
  0
APPID
  5
12
330
9
100
AcDbSymbolTableRecord
100
AcDbRegAppTableRecord
  2
ACAD
 70
     0
  0
APPID
  5
413
330
9
100
AcDbSymbolTableRecord
100
AcDbRegAppTableRecord
  2
ACAD_MLEADERVER
 70
     0
  0
ENDTAB
  0
TABLE
  2
DIMSTYLE
  5
A
330
0
100
AcDbSymbolTable
 70
     5
100
AcDbDimStyleTable
  0
DIMSTYLE
105
27
330
A
100
AcDbSymbolTableRecord
100
AcDbDimStyleTableRecord
  2
ISO-25
 70
     0
 41
2.5
 42
0.625
 43
3.75
 44
1.25
 73
     0
 74
     0
 77
     1
 78
     8
140
2.5
141
2.5
143
0.03937
147
0.625
171
     3
172
     1
178
     0
271
     2
272
     2
274
     3
278
    44
283
     0
284
     8
340
11
  0
DIMSTYLE
105
71
330
A
100
AcDbSymbolTableRecord
100
AcDbDimStyleTableRecord
  2
Default
 70
     0
  3
<>
 41
4.375
 42
1.05
 44
2.1
 73
     0
 74
     0
 77
     1
 78
     8
140
3.5
146
0.4
147
1.75
172
     1
271
     2
178
     3
271
     2
272
     3
284
     8
340
6E
341
72
342
72
  0
DIMSTYLE
105
79
330
A
100
AcDbSymbolTableRecord
100
AcDbDimStyleTableRecord
  2
ISO
 70
     0
  3
<>
 41
4.375
 42
1.05
 44
2.1
 73
     0
 74
     0
 77
     1
 78
     8
140
3.5
146
0.4
147
1.75
172
     1
271
     2
178
     3
271
     2
272
     3
284
     8
340
6F
341
72
342
72
  0
DIMSTYLE
105
7A
330
A
100
AcDbSymbolTableRecord
100
AcDbDimStyleTableRecord
  2
zucchetti
 70
     0
  3
<>
 41
3.0
 42
0.9
 44
1.8
 73
     0
 74
     0
 77
     1
 78
     8
140
3.0
146
0.6
147
1.5
172
     1
176
     3
177
     3
271
     2
178
     3
271
     2
272
     2
284
     8
340
70
  0
DIMSTYLE
105
7B
330
A
100
AcDbSymbolTableRecord
100
AcDbDimStyleTableRecord
  2
zucchetti_unico
 70
     0
  3
<>
 41
3.5
 42
1.05
 44
2.1
 73
     0
 74
     0
 77
     1
 78
     8
140
3.5
146
0.7
147
1.75
172
     1
176
     3
177
     3
271
     2
178
     3
271
     2
272
     2
284
     8
340
6F
  0
ENDTAB
  0
TABLE
  2
BLOCK_RECORD
  5
1
330
0
100
AcDbSymbolTable
 70
     6
  0
BLOCK_RECORD
  5
1F
330
1
100
AcDbSymbolTableRecord
100
AcDbBlockTableRecord
  2
*Model_Space
340
22
  0
BLOCK_RECORD
  5
1B
330
1
100
AcDbSymbolTableRecord
100
AcDbBlockTableRecord
  2
*Paper_Space
340
1E
  0
BLOCK_RECORD
  5
23
330
1
100
AcDbSymbolTableRecord
100
AcDbBlockTableRecord
  2
*Paper_Space0
340
26
  0
BLOCK_RECORD
  5
72
330
1
100
AcDbSymbolTableRecord
100
AcDbBlockTableRecord
  2
_Closed
340
0
  0
BLOCK_RECORD
  5
7C
330
1
100
AcDbSymbolTableRecord
100
AcDbBlockTableRecord
  2
a
340
0
102
{BLKREFS
331
215
102
}
  0
BLOCK_RECORD
  5
216
330
1
100
AcDbSymbolTableRecord
100
AcDbBlockTableRecord
  2
b
340
0
102
{BLKREFS
331
2D4
102
}
  0
BLOCK_RECORD
  5
2D5
330
1
100
AcDbSymbolTableRecord
100
AcDbBlockTableRecord
  2
c
340
0
102
{BLKREFS
331
35B
102
}
  0
BLOCK_RECORD
  5
35C
330
1
100
AcDbSymbolTableRecord
100
AcDbBlockTableRecord
  2
d
340
0
102
{BLKREFS
331
3CD
102
}
  0
ENDTAB
  0
ENDSEC
  0
SECTION
  2
BLOCKS
  0
BLOCK
  5
20
330
1F
100
AcDbEntity
  8
0
100
AcDbBlockBegin
  2
*Model_Space
 70
     0
 10
0.0
 20
0.0
 30
0.0
  3
*Model_Space
  1

  0
ENDBLK
  5
21
330
1F
100
AcDbEntity
  8
0
100
AcDbBlockEnd
  0
BLOCK
  5
1C
330
1B
100
AcDbEntity
 67
     1
  8
0
100
AcDbBlockBegin
  2
*Paper_Space
 70
     0
 10
0.0
 20
0.0
 30
0.0
  3
*Paper_Space
  1

  0
ENDBLK
  5
1D
330
1B
100
AcDbEntity
 67
     1
  8
0
100
AcDbBlockEnd
  0
BLOCK
  5
24
330
23
100
AcDbEntity
  8
0
100
AcDbBlockBegin
  2
*Paper_Space0
 70
     0
 10
0.0
 20
0.0
 30
0.0
  3
*Paper_Space0
  1

  0
ENDBLK
  5
25
330
23
100
AcDbEntity
  8
0
100
AcDbBlockEnd
  0
BLOCK
  5
73
330
72
100
AcDbEntity
  8
0
100
AcDbBlockBegin
  2
_Closed
 70
     0
 10
0.0
 20
0.0
 30
0.0
  3
_Closed
  1

  0
LINE
  5
75
330
72
100
AcDbEntity
  8
0
  6
ByBlock
 62
     0
370
    -2
100
AcDbLine
 10
-1.0
 20
0.166667
 30
0.0
 11
0.0
 21
0.0
 31
0.0
  0
LINE
  5
76
330
72
100
AcDbEntity
  8
0
  6
ByBlock
 62
     0
370
    -2
100
AcDbLine
 10
0.0
 20
0.0
 30
0.0
 11
-1.0
 21
-0.166667
 31
0.0
  0
LINE
  5
77
330
72
100
AcDbEntity
  8
0
  6
ByBlock
 62
     0
370
    -2
100
AcDbLine
 10
-1.0
 20
0.166667
 30
0.0
 11
-1.0
 21
-0.166667
 31
0.0
  0
LINE
  5
78
330
72
100
AcDbEntity
  8
0
  6
ByBlock
 62
     0
370
    -2
100
AcDbLine
 10
0.0
 20
0.0
 30
0.0
 11
-1.0
 21
0.0
 31
0.0
  0
ENDBLK
  5
74
330
72
100
AcDbEntity
  8
0
100
AcDbBlockEnd
  0
BLOCK
  5
213
330
7C
100
AcDbEntity
  8
0
100
AcDbBlockBegin
  2
a
 70
     0
 10
24.894691
 20
121.794647
 30
0.0
  3
a
  1

  0
LINE
  5
7D
330
7C
100
AcDbEntity
  8
0
  6
Continuous
 62
     0
370
     0
100
AcDbLine
 10
360.072815
 20
897.985489
 30
0.0
 11
360.572815
 21
897.985489
 31
0.0
  0
LINE
  5
7E
330
7C
100
AcDbEntity
  8
0
  6
Continuous
 62
     0
370
     0
100
AcDbLine
 10
360.572815
 20
897.985489
 30
0.0
 11
360.572815
 21
953.985489
 31
0.0
  0
LINE
  5
7F
330
7C
100
AcDbEntity
  8
0
  6
Continuous
 62
     0
370
     0
100
AcDbLine
 10
360.572815
 20
953.985489
 30
0.0
 11
360.072815
 21
953.985489
 31
0.0
  0
LINE
  5
80
330
7C
100
AcDbEntity
  8
0
  6
Continuous
 62
     0
370
    30
100
AcDbLine
 10
360.072815
 20
953.985489
 30
0.0
 11
360.072815
 21
897.985489
 31
0.0
  0
LINE
  5
81
330
7C
100
AcDbEntity
  8
0
  6
Continuous
 62
     0
370
     0
100
AcDbLine
 10
360.572815
 20
954.485489
 30
0.0
 11
360.572815
 21
953.985489
 31
0.0
  0
LINE
  5
82
330
7C
100
AcDbEntity
  8
0
  6
Continuous
 62
     0
370
     0
100
AcDbLine
 10
360.572815
 20
953.985489
 30
0.0
 11
416.572815
 21
953.985489
 31
0.0
  0
LINE
  5
83
330
7C
100
AcDbEntity
  8
0
  6
Continuous
 62
     0
370
     0
100
AcDbLine
 10
416.572815
 20
953.985489
 30
0.0
 11
416.572815
 21
954.485489
 31
0.0
  0
LINE
  5
84
330
7C
100
AcDbEntity
  8
0
  6
Continuous
 62
     0
370
    30
100
AcDbLine
 10
416.572815
 20
954.485489
 30
0.0
 11
360.572815
 21
954.485489
 31
0.0
  0
LINE
  5
85
330
7C
100
AcDbEntity
  8
0
  6
Continuous
 62
     0
370
     0
100
AcDbLine
 10
417.072815
 20
953.985489
 30
0.0
 11
416.572815
 21
953.985489
 31
0.0
  0
LINE
  5
86
330
7C
100
AcDbEntity
  8
0
  6
Continuous
 62
     0
370
     0
100
AcDbLine
 10
416.572815
 20
953.985489
 30
0.0
 11
416.572815
 21
897.985489
 31
0.0
  0
LINE
  5
87
330
7C
100
AcDbEntity
  8
0
  6
Continuous
 62
     0
370
     0
100
AcDbLine
 10
416.572815
 20
897.985489
 30
0.0
 11
417.072815
 21
897.985489
 31
0.0
  0
LINE
  5
88
330
7C
100
AcDbEntity
  8
0
  6
Continuous
 62
     0
370
    30
100
AcDbLine
 10
417.072815
 20
897.985489
 30
0.0
 11
417.072815
 21
953.985489
 31
0.0
  0
ARC
  5
89
330
7C
100
AcDbEntity
  8
0
  6
Continuous
 62
     0
370
    30
100
AcDbCircle
 10
416.572815
 20
953.985489
 30
0.0
 40
0.4999999999983658
100
AcDbArc
 50
360.0
 51
90.0
  0
LINE
  5
8A
330
7C
100
AcDbEntity
  8
0
  6
Continuous
 62
     0
370
     0
100
AcDbLine
 10
416.572815
 20
897.485489
 30
0.0
 11
416.572815
 21
897.985489
 31
0.0
  0
LINE
  5
8B
330
7C
100
AcDbEntity
  8
0
  6
Continuous
 62
     0
370
     0
100
AcDbLine
 10
416.572815
 20
897.985489
 30
0.0
 11
360.572815
 21
897.985489
 31
0.0
  0
LINE
  5
8C
330
7C
100
AcDbEntity
  8
0
  6
Continuous
 62
     0
370
     0
100
AcDbLine
 10
360.572815
 20
897.985489
 30
0.0
 11
360.572815
 21
897.485489
 31
0.0
  0
LINE
  5
8D
330
7C
100
AcDbEntity
  8
0
  6
Continuous
 62
     0
370
    30
100
AcDbLine
 10
360.572815
 20
897.485489
 30
0.0
 11
416.572815
 21
897.485489
 31
0.0
  0
ARC
  5
8E
330
7C
100
AcDbEntity
  8
0
  6
Continuous
 62
     0
370
    30
100
AcDbCircle
 10
416.572815
 20
897.985489
 30
0.0
 40
0.4999999999979708
100
AcDbArc
 50
270.0
 51
0.0
  0
ARC
  5
8F
330
7C
100
AcDbEntity
  8
0
  6
Continuous
 62
     0
370
    30
100
AcDbCircle
 10
360.572815
 20
953.985489
 30
0.0
 40
0.499999999998586
100
AcDbArc
 50
90.0
 51
180.0
  0
ARC
  5
90
330
7C
100
AcDbEntity
  8
0
  6
Continuous
 62
     0
370
    30
100
AcDbCircle
 10
360.572815
 20
897.985489
 30
0.0
 40
0.4999999999996402
100
AcDbArc
 50
180.0
 51
270.0
  0
SPLINE
  5
91
330
7C
100
AcDbEntity
  8
0
  6
Continuous
 62
     0
370
     0
100
AcDbSpline
210
0.0
220
0.0
230
1.0
 70
     8
 71
     3
 72
    14
 73
    10
 74
     0
 42
0.000000001
 43
0.0
 40
-0.387781240330165
 40
-0.387781240330165
 40
-0.387781240330165
 40
-0.387781240330165
 40
-0.386641068443467
 40
-0.386641068443467
 40
-0.231528572311401
 40
-0.153972324245368
 40
-0.076416076179335
 40
-0.0376379521463189
 40
0.001140171886698
 40
0.001140171886698
 40
0.001140171886698
 40
0.001140171886698
 10
408.0728149414031
 20
937.9854888916068
 30
0.0
 10
408.0735088279162
 20
937.9816785860539
 30
0.0
 10
408.0742027699265
 20
937.9778681983166
 30
0.0
 10
408.1692845901915
 20
937.4557028577062
 30
0.0
 10
408.3114094294347
 20
936.676400016659
 30
0.0
 10
408.4637875666942
 20
935.6738416688816
 30
0.0
 10
408.5342949079109
 20
935.060678516244
 30
0.0
 10
408.5666259601046
 20
934.5871005756472
 30
0.0
 10
408.572814941404
 20
934.3570061779367
 30
0.0
 10
408.572814941404
 20
934.2438315048329
 30
0.0
  0
LINE
  5
92
330
7C
100
AcDbEntity
  8
0
  6
Continuous
 62
     0
370
     0
100
AcDbLine
 10
408.572815
 20
934.243832
 30
0.0
 11
409.072815
 21
934.243832
 31
0.0
  0
SPLINE
  5
93
330
7C
100
AcDbEntity
  8
0
  6
Continuous
 62
     0
370
     0
100
AcDbSpline
210
0.0
220
0.0
230
1.0
 70
     8
 71
     3
 72
     8
 73
     4
 74
     0
 42
0.000000001
 43
0.0
 40
0.0
 40
0.0
 40
0.0
 40
0.0
 40
3.872983346207495
 40
3.872983346207495
 40
3.872983346207495
 40
3.872983346207495
 10
409.072814941404
 20
934.243831504833
 30
0.0
 10
409.0728149414039
 20
935.5348259535689
 30
0.0
 10
408.5442194621949
 20
936.7836384664524
 30
0.0
 10
408.072814941403
 20
937.9854888916068
 30
0.0
  0
LINE
  5
94
330
7C
100
AcDbEntity
  8
0
  6
Continuous
 62
     0
370
     0
100
AcDbLine
 10
409.072815
 20
934.243832
 30
0.0
 11
409.072815
 21
917.727146
 31
0.0
  0
LINE
  5
95
330
7C
100
AcDbEntity
  8
0
  6
Continuous
 62
     0
370
     0
100
AcDbLine
 10
409.072815
 20
917.727146
 30
0.0
 11
408.572815
 21
917.727146
 31
0.0
  0
SPLINE
  5
96
330
7C
100
AcDbEntity
  8
0
  6
Continuous
 62
     0
370
     0
100
AcDbSpline
210
0.0
220
0.0
230
1.0
 70
     8
 71
     3
 72
     8
 73
     4
 74
     0
 42
0.000000001
 43
0.0
 40
0.0
 40
0.0
 40
0.0
 40
0.0
 40
3.872983346207427
 40
3.872983346207427
 40
3.872983346207427
 40
3.872983346207427
 10
408.0728149414095
 20
913.9854888916068
 30
0.0
 10
408.5442194622013
 20
915.1873393167612
 30
0.0
 10
409.0728149414089
 20
916.4361518296452
 30
0.0
 10
409.0728149414085
 20
917.727146278381
 30
0.0
  0
SPLINE
  5
97
330
7C
100
AcDbEntity
  8
0
  6
Continuous
 62
     0
370
    30
100
AcDbSpline
210
0.0
220
0.0
230
1.0
 70
     8
 71
     3
 72
    13
 73
     9
 74
     0
 42
0.000000001
 43
0.0
 40
-0.3889214123394221
 40
-0.3889214123394221
 40
-0.3889214123394221
 40
-0.3889214123394221
 40
-0.3113651642733911
 40
-0.2338089162073601
 40
-0.195030792174344
 40
-0.001140172009266
 40
-0.001140172009266
 40
0.0
 40
0.0
 40
0.0
 40
0.0
 10
408.5728149414085
 20
917.7271462783808
 30
0.0
 10
408.5728149414085
 20
917.5007969321733
 30
0.0
 10
408.5483602321895
 20
917.0330994907564
 30
0.0
 10
408.477919141277
 20
916.4195569964193
 30
0.0
 10
408.3352959353666
 20
915.42344332161
 30
0.0
 10
408.1928266709642
 20
914.6450345026875
 30
0.0
 10
408.0742029956939
 20
913.993108882661
 30
0.0
 10
408.0735088279972
 20
913.9892991975692
 30
0.0
 10
408.0728149414095
 20
913.9854888916068
 30
0.0
  0
LINE
  5
98
330
7C
100
AcDbEntity
  8
0
  6
Continuous
 62
     0
370
    30
100
AcDbLine
 10
408.572815
 20
917.727146
 30
0.0
 11
408.572815
 21
921.485489
 31
0.0
  0
LINE
  5
99
330
7C
100
AcDbEntity
  8
0
  6
Continuous
 62
     0
370
     0
100
AcDbLine
 10
408.072815
 20
920.985489
 30
0.0
 11
408.072815
 21
913.985489
 31
0.0
  0
LINE
  5
9A
330
7C
100
AcDbEntity
  8
0
  6
Continuous
 62
     0
370
    30
100
AcDbLine
 10
408.572815
 20
934.243832
 30
0.0
 11
408.572815
 21
930.485489
 31
0.0
  0
LINE
  5
9B
330
7C
100
AcDbEntity
  8
0
  6
Continuous
 62
     0
370
    30
100
AcDbLine
 10
408.572815
 20
930.485489
 30
0.0
 11
408.572815
 21
921.485489
 31
0.0
  0
LINE
  5
9C
330
7C
100
AcDbEntity
  8
0
  6
Continuous
 62
     0
370
     0
100
AcDbLine
 10
408.072815
 20
937.985489
 30
0.0
 11
408.072815
 21
930.985489
 31
0.0
  0
LINE
  5
9D
330
7C
100
AcDbEntity
  8
0
  6
Continuous
 62
     0
370
     0
100
AcDbLine
 10
368.072815
 20
917.727146
 30
0.0
 11
368.072815
 21
934.243832
 31
0.0
  0
LINE
  5
9E
330
7C
100
AcDbEntity
  8
0
  6
Continuous
 62
     0
370
     0
100
AcDbLine
 10
368.072815
 20
934.243832
 30
0.0
 11
368.572815
 21
934.243832
 31
0.0
  0
LINE
  5
9F
330
7C
100
AcDbEntity
  8
0
  6
Continuous
 62
     0
370
     0
100
AcDbLine
 10
368.572815
 20
917.727146
 30
0.0
 11
368.072815
 21
917.727146
 31
0.0
  0
SPLINE
  5
A0
330
7C
100
AcDbEntity
  8
0
  6
Continuous
 62
     0
370
     0
100
AcDbSpline
210
0.0
220
0.0
230
1.0
 70
     8
 71
     3
 72
    14
 73
    10
 74
     0
 42
0.000000001
 43
0.0
 40
-0.387781240330156
 40
-0.387781240330156
 40
-0.387781240330156
 40
-0.387781240330156
 40
-0.386641068196943
 40
-0.386641068196943
 40
-0.2315285720648801
 40
-0.1539723239988491
 40
-0.076416075932818
 40
-0.0376379518998021
 40
0.001140172133213
 40
0.001140172133213
 40
0.001140172133213
 40
0.001140172133213
 10
369.0728149414095
 20
913.9854888915963
 30
0.0
 10
369.0721210547464
 20
913.9892991979729
 30
0.0
 10
369.0714271130361
 20
913.9931095840626
 30
0.0
 10
368.9763452926207
 20
914.5152749254972
 30
0.0
 10
368.8342204533765
 20
915.2945777665452
 30
0.0
 10
368.6818423161175
 20
916.2971361143213
 30
0.0
 10
368.6113349749011
 20
916.9102992669592
 30
0.0
 10
368.5790039227077
 20
917.3838772075558
 30
0.0
 10
368.5728149414085
 20
917.6139716052663
 30
0.0
 10
368.5728149414085
 20
917.7271462783701
 30
0.0
  0
SPLINE
  5
A1
330
7C
100
AcDbEntity
  8
0
  6
Continuous
 62
     0
370
     0
100
AcDbSpline
210
0.0
220
0.0
230
1.0
 70
     8
 71
     3
 72
     8
 73
     4
 74
     0
 42
0.000000001
 43
0.0
 40
0.0
 40
0.0
 40
0.0
 40
0.0
 40
3.872983346207426
 40
3.872983346207426
 40
3.872983346207426
 40
3.872983346207426
 10
368.0728149414085
 20
917.72714627837
 30
0.0
 10
368.0728149414087
 20
916.4361518296341
 30
0.0
 10
368.6014104206119
 20
915.1873393167484
 30
0.0
 10
369.0728149414095
 20
913.9854888915963
 30
0.0
  0
SPLINE
  5
A2
330
7C
100
AcDbEntity
  8
0
  6
Continuous
 62
     0
370
     0
100
AcDbSpline
210
0.0
220
0.0
230
1.0
 70
     8
 71
     3
 72
     8
 73
     4
 74
     0
 42
0.000000001
 43
0.0
 40
0.0
 40
0.0
 40
0.0
 40
0.0
 40
3.872983346207427
 40
3.872983346207427
 40
3.872983346207427
 40
3.872983346207427
 10
369.0728149414031
 20
937.9854888915963
 30
0.0
 10
368.6014104206081
 20
936.7836384664431
 30
0.0
 10
368.0728149414037
 20
935.5348259535579
 30
0.0
 10
368.072814941404
 20
934.2438315048221
 30
0.0
  0
SPLINE
  5
A3
330
7C
100
AcDbEntity
  8
0
  6
Continuous
 62
     0
370
     0
100
AcDbSpline
210
0.0
220
0.0
230
1.0
 70
     8
 71
     3
 72
    15
 73
    11
 74
     0
 42
0.000000001
 43
0.0
 40
-0.388921412277172
 40
-0.388921412277172
 40
-0.388921412277172
 40
-0.388921412277172
 40
-0.3501432882441562
 40
-0.3113651642111412
 40
-0.2338089161451102
 40
-0.1562526680790782
 40
-0.1174745440460632
 40
-0.0011401719470162
 40
-0.0011401719470162
 40
-0.0000000000000002
 40
-0.0000000000000002
 40
-0.0000000000000002
 40
-0.0000000000000002
 10
368.572814941404
 20
934.2438315048222
 30
0.0
 10
368.572814941404
 20
934.357006177926
 30
0.0
 10
368.5790072439335
 20
934.5871166107258
 30
0.0
 10
368.6113328042918
 20
935.0606903560011
 30
0.0
 10
368.6818699577256
 20
935.6739557574481
 30
0.0
 10
368.7770635387574
 20
936.300452468725
 30
0.0
 10
368.9053638449254
 20
937.0662905706588
 30
0.0
 10
368.9999350679719
 20
937.5852516382881
 30
0.0
 10
369.0714271619591
 20
937.9778684682858
 30
0.0
 10
369.0721210548533
 20
937.9816785858419
 30
0.0
 10
369.072814941403
 20
937.9854888915963
 30
0.0
  0
LINE
  5
A4
330
7C
100
AcDbEntity
  8
0
  6
Continuous
 62
     0
370
    30
100
AcDbLine
 10
368.572815
 20
934.243832
 30
0.0
 11
368.572815
 21
930.485489
 31
0.0
  0
LINE
  5
A5
330
7C
100
AcDbEntity
  8
0
  6
Continuous
 62
     0
370
     0
100
AcDbLine
 10
369.072815
 20
930.985489
 30
0.0
 11
369.072815
 21
937.985489
 31
0.0
  0
LINE
  5
A6
330
7C
100
AcDbEntity
  8
0
  6
Continuous
 62
     0
370
    30
100
AcDbLine
 10
368.572815
 20
917.727146
 30
0.0
 11
368.572815
 21
921.485489
 31
0.0
  0
LINE
  5
A7
330
7C
100
AcDbEntity
  8
0
  6
Continuous
 62
     0
370
    30
100
AcDbLine
 10
368.572815
 20
921.485489
 30
0.0
 11
368.572815
 21
930.485489
 31
0.0
  0
LINE
  5
A8
330
7C
100
AcDbEntity
  8
0
  6
Continuous
 62
     0
370
     0
100
AcDbLine
 10
408.072815
 20
921.485489
 30
0.0
 11
408.072815
 21
920.985489
 31
0.0
  0
ARC
  5
A9
330
7C
100
AcDbEntity
  8
0
  6
Continuous
 62
     0
370
    30
100
AcDbCircle
 10
408.072815
 20
921.485489
 30
0.0
 40
0.4999999999993125
100
AcDbArc
 50
270.0
 51
360.0
  0
LINE
  5
AA
330
7C
100
AcDbEntity
  8
0
  6
Continuous
 62
     0
370
     0
100
AcDbLine
 10
408.572815
 20
921.485489
 30
0.0
 11
408.072815
 21
921.485489
 31
0.0
  0
LINE
  5
AB
330
7C
100
AcDbEntity
  8
0
  6
Continuous
 62
     0
370
     0
100
AcDbLine
 10
369.072815
 20
921.485489
 30
0.0
 11
368.572815
 21
921.485489
 31
0.0
  0
ARC
  5
AC
330
7C
100
AcDbEntity
  8
0
  6
Continuous
 62
     0
370
    30
100
AcDbCircle
 10
369.072815
 20
921.485489
 30
0.0
 40
0.5000000000007656
100
AcDbArc
 50
180.0
 51
270.0
  0
LINE
  5
AD
330
7C
100
AcDbEntity
  8
0
  6
Continuous
 62
     0
370
     0
100
AcDbLine
 10
369.072815
 20
920.985489
 30
0.0
 11
369.072815
 21
921.485489
 31
0.0
  0
LINE
  5
AE
330
7C
100
AcDbEntity
  8
0
  6
Continuous
 62
     0
370
     0
100
AcDbLine
 10
408.072815
 20
930.485489
 30
0.0
 11
408.572815
 21
930.485489
 31
0.0
  0
ARC
  5
AF
330
7C
100
AcDbEntity
  8
0
  6
Continuous
 62
     0
370
    30
100
AcDbCircle
 10
408.072815
 20
930.485489
 30
0.0
 40
0.4999999999992468
100
AcDbArc
 50
360.0
 51
90.0
  0
LINE
  5
B0
330
7C
100
AcDbEntity
  8
0
  6
Continuous
 62
     0
370
     0
100
AcDbLine
 10
408.072815
 20
930.985489
 30
0.0
 11
408.072815
 21
930.485489
 31
0.0
  0
LINE
  5
B1
330
7C
100
AcDbEntity
  8
0
  6
Continuous
 62
     0
370
     0
100
AcDbLine
 10
369.072815
 20
930.485489
 30
0.0
 11
369.072815
 21
930.985489
 31
0.0
  0
ARC
  5
B2
330
7C
100
AcDbEntity
  8
0
  6
Continuous
 62
     0
370
    30
100
AcDbCircle
 10
369.072815
 20
930.485489
 30
0.0
 40
0.499999999999293
100
AcDbArc
 50
90.0
 51
180.0
  0
LINE
  5
B3
330
7C
100
AcDbEntity
  8
0
  6
Continuous
 62
     0
370
     0
100
AcDbLine
 10
368.572815
 20
930.485489
 30
0.0
 11
369.072815
 21
930.485489
 31
0.0
  0
LINE
  5
B4
330
7C
100
AcDbEntity
  8
0
  6
Continuous
 62
     0
370
    30
100
AcDbLine
 10
408.072815
 20
930.985489
 30
0.0
 11
369.072815
 21
930.985489
 31
0.0
  0
LINE
  5
B5
330
7C
100
AcDbEntity
  8
0
  6
Continuous
 62
     0
370
     0
100
AcDbLine
 10
369.072815
 20
930.485489
 30
0.0
 11
408.072815
 21
930.485489
 31
0.0
  0
LINE
  5
B6
330
7C
100
AcDbEntity
  8
0
  6
Continuous
 62
     0
370
     0
100
AcDbLine
 10
369.072815
 20
921.485489
 30
0.0
 11
369.072815
 21
930.485489
 31
0.0
  0
LINE
  5
B7
330
7C
100
AcDbEntity
  8
0
  6
Continuous
 62
     0
370
     0
100
AcDbLine
 10
408.072815
 20
930.485489
 30
0.0
 11
408.072815
 21
921.485489
 31
0.0
  0
LINE
  5
B8
330
7C
100
AcDbEntity
  8
0
  6
Continuous
 62
     0
370
    30
100
AcDbLine
 10
369.072815
 20
920.985489
 30
0.0
 11
408.072815
 21
920.985489
 31
0.0
  0
LINE
  5
B9
330
7C
100
AcDbEntity
  8
0
  6
Continuous
 62
     0
370
     0
100
AcDbLine
 10
408.072815
 20
921.485489
 30
0.0
 11
369.072815
 21
921.485489
 31
0.0
  0
LINE
  5
BA
330
7C
100
AcDbEntity
  8
0
  6
Continuous
 62
     0
370
     0
100
AcDbLine
 10
369.072815
 20
913.985489
 30
0.0
 11
369.072815
 21
920.985489
 31
0.0
  0
LINE
  5
BB
330
7C
100
AcDbEntity
  8
0
  6
Continuous
 62
     0
370
     0
100
AcDbLine
 10
369.072815
 20
937.985489
 30
0.0
 11
408.072815
 21
937.985489
 31
0.0
  0
LINE
  5
BC
330
7C
100
AcDbEntity
  8
0
  6
Continuous
 62
     0
370
     0
100
AcDbLine
 10
408.072815
 20
913.985489
 30
0.0
 11
369.072815
 21
913.985489
 31
0.0
  0
ARC
  5
BD
330
7C
100
AcDbEntity
  8
0
  6
Continuous
 62
     0
370
    30
100
AcDbCircle
 10
388.572815
 20
925.985489
 30
0.0
 40
24.0
100
AcDbArc
 50
0.0
 51
180.0
  0
ARC
  5
BE
330
7C
100
AcDbEntity
  8
0
  6
Continuous
 62
     0
370
    30
100
AcDbCircle
 10
388.572815
 20
925.985489
 30
0.0
 40
24.0
100
AcDbArc
 50
180.0
 51
360.0
  0
LINE
  5
BF
330
7C
100
AcDbEntity
  8
0
  6
Continuous
 62
     0
370
     0
100
AcDbLine
 10
217.072815
 20
897.985489
 30
0.0
 11
216.572815
 21
897.985489
 31
0.0
  0
LINE
  5
C0
330
7C
100
AcDbEntity
  8
0
  6
Continuous
 62
     0
370
     0
100
AcDbLine
 10
216.572815
 20
897.985489
 30
0.0
 11
216.572815
 21
953.985489
 31
0.0
  0
LINE
  5
C1
330
7C
100
AcDbEntity
  8
0
  6
Continuous
 62
     0
370
     0
100
AcDbLine
 10
216.572815
 20
953.985489
 30
0.0
 11
217.072815
 21
953.985489
 31
0.0
  0
LINE
  5
C2
330
7C
100
AcDbEntity
  8
0
  6
Continuous
 62
     0
370
    30
100
AcDbLine
 10
217.072815
 20
953.985489
 30
0.0
 11
217.072815
 21
897.985489
 31
0.0
  0
LINE
  5
C3
330
7C
100
AcDbEntity
  8
0
  6
Continuous
 62
     0
370
     0
100
AcDbLine
 10
216.572815
 20
954.485489
 30
0.0
 11
216.572815
 21
953.985489
 31
0.0
  0
LINE
  5
C4
330
7C
100
AcDbEntity
  8
0
  6
Continuous
 62
     0
370
     0
100
AcDbLine
 10
216.572815
 20
953.985489
 30
0.0
 11
160.572815
 21
953.985489
 31
0.0
  0
LINE
  5
C5
330
7C
100
AcDbEntity
  8
0
  6
Continuous
 62
     0
370
     0
100
AcDbLine
 10
160.572815
 20
953.985489
 30
0.0
 11
160.572815
 21
954.485489
 31
0.0
  0
LINE
  5
C6
330
7C
100
AcDbEntity
  8
0
  6
Continuous
 62
     0
370
    30
100
AcDbLine
 10
160.572815
 20
954.485489
 30
0.0
 11
216.572815
 21
954.485489
 31
0.0
  0
LINE
  5
C7
330
7C
100
AcDbEntity
  8
0
  6
Continuous
 62
     0
370
     0
100
AcDbLine
 10
160.072815
 20
953.985489
 30
0.0
 11
160.572815
 21
953.985489
 31
0.0
  0
LINE
  5
C8
330
7C
100
AcDbEntity
  8
0
  6
Continuous
 62
     0
370
     0
100
AcDbLine
 10
160.572815
 20
953.985489
 30
0.0
 11
160.572815
 21
897.985489
 31
0.0
  0
LINE
  5
C9
330
7C
100
AcDbEntity
  8
0
  6
Continuous
 62
     0
370
     0
100
AcDbLine
 10
160.572815
 20
897.985489
 30
0.0
 11
160.072815
 21
897.985489
 31
0.0
  0
LINE
  5
CA
330
7C
100
AcDbEntity
  8
0
  6
Continuous
 62
     0
370
    30
100
AcDbLine
 10
160.072815
 20
897.985489
 30
0.0
 11
160.072815
 21
953.985489
 31
0.0
  0
ARC
  5
CB
330
7C
100
AcDbEntity
  8
0
  6
Continuous
 62
     0
370
    30
100
AcDbCircle
 10
160.572815
 20
953.985489
 30
0.0
 40
0.5000000000027853
100
AcDbArc
 50
90.0
 51
180.0
  0
LINE
  5
CC
330
7C
100
AcDbEntity
  8
0
  6
Continuous
 62
     0
370
     0
100
AcDbLine
 10
160.572815
 20
897.485489
 30
0.0
 11
160.572815
 21
897.985489
 31
0.0
  0
LINE
  5
CD
330
7C
100
AcDbEntity
  8
0
  6
Continuous
 62
     0
370
     0
100
AcDbLine
 10
160.572815
 20
897.985489
 30
0.0
 11
216.572815
 21
897.985489
 31
0.0
  0
LINE
  5
CE
330
7C
100
AcDbEntity
  8
0
  6
Continuous
 62
     0
370
     0
100
AcDbLine
 10
216.572815
 20
897.985489
 30
0.0
 11
216.572815
 21
897.485489
 31
0.0
  0
LINE
  5
CF
330
7C
100
AcDbEntity
  8
0
  6
Continuous
 62
     0
370
    30
100
AcDbLine
 10
216.572815
 20
897.485489
 30
0.0
 11
160.572815
 21
897.485489
 31
0.0
  0
ARC
  5
D0
330
7C
100
AcDbEntity
  8
0
  6
Continuous
 62
     0
370
    30
100
AcDbCircle
 10
160.572815
 20
897.985489
 30
0.0
 40
0.4999999999979798
100
AcDbArc
 50
180.0
 51
270.0
  0
ARC
  5
D1
330
7C
100
AcDbEntity
  8
0
  6
Continuous
 62
     0
370
    30
100
AcDbCircle
 10
216.572815
 20
953.985489
 30
0.0
 40
0.4999999999983373
100
AcDbArc
 50
0.0
 51
90.0
  0
ARC
  5
D2
330
7C
100
AcDbEntity
  8
0
  6
Continuous
 62
     0
370
    30
100
AcDbCircle
 10
216.572815
 20
897.985489
 30
0.0
 40
0.4999999999996381
100
AcDbArc
 50
270.0
 51
0.0
  0
SPLINE
  5
D3
330
7C
100
AcDbEntity
  8
0
  6
Continuous
 62
     0
370
     0
100
AcDbSpline
210
0.0
220
0.0
230
1.0
 70
     8
 71
     3
 72
     8
 73
     4
 74
     0
 42
0.000000001
 43
0.0
 40
0.0
 40
0.0
 40
0.0
 40
0.0
 40
3.872983346207502
 40
3.872983346207502
 40
3.872983346207502
 40
3.872983346207502
 10
168.0728149414085
 20
934.243831504833
 30
0.0
 10
168.0728149414086
 20
935.5348259535689
 30
0.0
 10
168.6014104206193
 20
936.7836384664517
 30
0.0
 10
169.0728149414095
 20
937.9854888916068
 30
0.0
  0
SPLINE
  5
D4
330
7C
100
AcDbEntity
  8
0
  6
Continuous
 62
     0
370
     0
100
AcDbSpline
210
0.0
220
0.0
230
1.0
 70
     8
 71
     3
 72
    14
 73
    10
 74
     0
 42
0.000000001
 43
0.0
 40
-0.387781240330165
 40
-0.387781240330165
 40
-0.387781240330165
 40
-0.387781240330165
 40
-0.386641068443467
 40
-0.386641068443467
 40
-0.231528572311401
 40
-0.153972324245368
 40
-0.076416076179335
 40
-0.0376379521463189
 40
0.001140171886698
 40
0.001140171886698
 40
0.001140171886698
 40
0.001140171886698
 10
169.0728149414095
 20
937.9854888916068
 30
0.0
 10
169.0721210548964
 20
937.9816785860539
 30
0.0
 10
169.071427112886
 20
937.9778681983166
 30
0.0
 10
168.976345292621
 20
937.4557028577062
 30
0.0
 10
168.8342204533778
 20
936.676400016659
 30
0.0
 10
168.6818423161183
 20
935.6738416688816
 30
0.0
 10
168.6113349749016
 20
935.060678516244
 30
0.0
 10
168.5790039227079
 20
934.5871005756472
 30
0.0
 10
168.5728149414085
 20
934.3570061779367
 30
0.0
 10
168.5728149414085
 20
934.2438315048329
 30
0.0
  0
LINE
  5
D5
330
7C
100
AcDbEntity
  8
0
  6
Continuous
 62
     0
370
     0
100
AcDbLine
 10
168.572815
 20
934.243832
 30
0.0
 11
168.072815
 21
934.243832
 31
0.0
  0
LINE
  5
D6
330
7C
100
AcDbEntity
  8
0
  6
Continuous
 62
     0
370
     0
100
AcDbLine
 10
168.072815
 20
934.243832
 30
0.0
 11
168.072815
 21
917.727146
 31
0.0
  0
LINE
  5
D7
330
7C
100
AcDbEntity
  8
0
  6
Continuous
 62
     0
370
     0
100
AcDbLine
 10
168.072815
 20
917.727146
 30
0.0
 11
168.572815
 21
917.727146
 31
0.0
  0
SPLINE
  5
D8
330
7C
100
AcDbEntity
  8
0
  6
Continuous
 62
     0
370
    30
100
AcDbSpline
210
0.0
220
0.0
230
1.0
 70
     8
 71
     3
 72
    13
 73
     9
 74
     0
 42
0.000000001
 43
0.0
 40
-0.3889214123394221
 40
-0.3889214123394221
 40
-0.3889214123394221
 40
-0.3889214123394221
 40
-0.3113651642733911
 40
-0.2338089162073601
 40
-0.195030792174344
 40
-0.001140172009266
 40
-0.001140172009266
 40
0.0
 40
0.0
 40
0.0
 40
0.0
 10
168.572814941404
 20
917.7271462783808
 30
0.0
 10
168.572814941404
 20
917.5007969321733
 30
0.0
 10
168.597269650623
 20
917.0330994907564
 30
0.0
 10
168.6677107415355
 20
916.4195569964193
 30
0.0
 10
168.8103339474459
 20
915.42344332161
 30
0.0
 10
168.9528032118483
 20
914.6450345026875
 30
0.0
 10
169.0714268871186
 20
913.993108882661
 30
0.0
 10
169.0721210548153
 20
913.9892991975692
 30
0.0
 10
169.072814941403
 20
913.9854888916068
 30
0.0
  0
SPLINE
  5
D9
330
7C
100
AcDbEntity
  8
0
  6
Continuous
 62
     0
370
     0
100
AcDbSpline
210
0.0
220
0.0
230
1.0
 70
     8
 71
     3
 72
     8
 73
     4
 74
     0
 42
0.000000001
 43
0.0
 40
0.0
 40
0.0
 40
0.0
 40
0.0
 40
3.872983346207424
 40
3.872983346207424
 40
3.872983346207424
 40
3.872983346207424
 10
169.072814941403
 20
913.9854888916068
 30
0.0
 10
168.6014104206112
 20
915.1873393167612
 30
0.0
 10
168.0728149414036
 20
916.4361518296452
 30
0.0
 10
168.072814941404
 20
917.727146278381
 30
0.0
  0
LINE
  5
DA
330
7C
100
AcDbEntity
  8
0
  6
Continuous
 62
     0
370
    30
100
AcDbLine
 10
168.572815
 20
917.727146
 30
0.0
 11
168.572815
 21
921.485489
 31
0.0
  0
LINE
  5
DB
330
7C
100
AcDbEntity
  8
0
  6
Continuous
 62
     0
370
     0
100
AcDbLine
 10
169.072815
 20
920.985489
 30
0.0
 11
169.072815
 21
913.985489
 31
0.0
  0
LINE
  5
DC
330
7C
100
AcDbEntity
  8
0
  6
Continuous
 62
     0
370
    30
100
AcDbLine
 10
168.572815
 20
934.243832
 30
0.0
 11
168.572815
 21
930.485489
 31
0.0
  0
LINE
  5
DD
330
7C
100
AcDbEntity
  8
0
  6
Continuous
 62
     0
370
    30
100
AcDbLine
 10
168.572815
 20
930.485489
 30
0.0
 11
168.572815
 21
921.485489
 31
0.0
  0
LINE
  5
DE
330
7C
100
AcDbEntity
  8
0
  6
Continuous
 62
     0
370
     0
100
AcDbLine
 10
169.072815
 20
937.985489
 30
0.0
 11
169.072815
 21
930.985489
 31
0.0
  0
LINE
  5
DF
330
7C
100
AcDbEntity
  8
0
  6
Continuous
 62
     0
370
     0
100
AcDbLine
 10
209.072815
 20
917.727146
 30
0.0
 11
209.072815
 21
934.243832
 31
0.0
  0
LINE
  5
E0
330
7C
100
AcDbEntity
  8
0
  6
Continuous
 62
     0
370
     0
100
AcDbLine
 10
209.072815
 20
934.243832
 30
0.0
 11
208.572815
 21
934.243832
 31
0.0
  0
LINE
  5
E1
330
7C
100
AcDbEntity
  8
0
  6
Continuous
 62
     0
370
     0
100
AcDbLine
 10
208.572815
 20
917.727146
 30
0.0
 11
209.072815
 21
917.727146
 31
0.0
  0
SPLINE
  5
E2
330
7C
100
AcDbEntity
  8
0
  6
Continuous
 62
     0
370
     0
100
AcDbSpline
210
0.0
220
0.0
230
1.0
 70
     8
 71
     3
 72
     8
 73
     4
 74
     0
 42
0.000000001
 43
0.0
 40
0.0
 40
0.0
 40
0.0
 40
0.0
 40
3.872983346207423
 40
3.872983346207423
 40
3.872983346207423
 40
3.872983346207423
 10
209.072814941404
 20
917.72714627837
 30
0.0
 10
209.0728149414038
 20
916.4361518296341
 30
0.0
 10
208.544219462201
 20
915.1873393167482
 30
0.0
 10
208.072814941403
 20
913.9854888915963
 30
0.0
  0
SPLINE
  5
E3
330
7C
100
AcDbEntity
  8
0
  6
Continuous
 62
     0
370
     0
100
AcDbSpline
210
0.0
220
0.0
230
1.0
 70
     8
 71
     3
 72
    14
 73
    10
 74
     0
 42
0.000000001
 43
0.0
 40
-0.387781240330156
 40
-0.387781240330156
 40
-0.387781240330156
 40
-0.387781240330156
 40
-0.386641068196943
 40
-0.386641068196943
 40
-0.2315285720648801
 40
-0.1539723239988491
 40
-0.076416075932818
 40
-0.0376379518998021
 40
0.001140172133213
 40
0.001140172133213
 40
0.001140172133213
 40
0.001140172133213
 10
208.072814941403
 20
913.9854888915963
 30
0.0
 10
208.0735088280661
 20
913.9892991979729
 30
0.0
 10
208.0742027697764
 20
913.9931095840626
 30
0.0
 10
208.1692845901918
 20
914.5152749254972
 30
0.0
 10
208.311409429436
 20
915.2945777665452
 30
0.0
 10
208.4637875666951
 20
916.2971361143213
 30
0.0
 10
208.5342949079114
 20
916.9102992669592
 30
0.0
 10
208.5666259601048
 20
917.3838772075558
 30
0.0
 10
208.572814941404
 20
917.6139716052663
 30
0.0
 10
208.572814941404
 20
917.7271462783701
 30
0.0
  0
SPLINE
  5
E4
330
7C
100
AcDbEntity
  8
0
  6
Continuous
 62
     0
370
     0
100
AcDbSpline
210
0.0
220
0.0
230
1.0
 70
     8
 71
     3
 72
    15
 73
    11
 74
     0
 42
0.000000001
 43
0.0
 40
-0.388921412277172
 40
-0.388921412277172
 40
-0.388921412277172
 40
-0.388921412277172
 40
-0.3501432882441562
 40
-0.3113651642111412
 40
-0.2338089161451102
 40
-0.1562526680790782
 40
-0.1174745440460632
 40
-0.0011401719470162
 40
-0.0011401719470162
 40
-0.0000000000000002
 40
-0.0000000000000002
 40
-0.0000000000000002
 40
-0.0000000000000002
 10
208.5728149414085
 20
934.2438315048222
 30
0.0
 10
208.5728149414085
 20
934.357006177926
 30
0.0
 10
208.566622638879
 20
934.5871166107258
 30
0.0
 10
208.5342970785207
 20
935.0606903560011
 30
0.0
 10
208.4637599250869
 20
935.6739557574481
 30
0.0
 10
208.3685663440551
 20
936.300452468725
 30
0.0
 10
208.240266037887
 20
937.0662905706588
 30
0.0
 10
208.1456948148406
 20
937.5852516382881
 30
0.0
 10
208.0742027208534
 20
937.9778684682858
 30
0.0
 10
208.0735088279593
 20
937.9816785858419
 30
0.0
 10
208.0728149414095
 20
937.9854888915963
 30
0.0
  0
SPLINE
  5
E5
330
7C
100
AcDbEntity
  8
0
  6
Continuous
 62
     0
370
     0
100
AcDbSpline
210
0.0
220
0.0
230
1.0
 70
     8
 71
     3
 72
     8
 73
     4
 74
     0
 42
0.000000001
 43
0.0
 40
0.0
 40
0.0
 40
0.0
 40
0.0
 40
3.87298334620742
 40
3.87298334620742
 40
3.87298334620742
 40
3.87298334620742
 10
208.0728149414095
 20
937.9854888915963
 30
0.0
 10
208.5442194622044
 20
936.7836384664431
 30
0.0
 10
209.0728149414088
 20
935.5348259535579
 30
0.0
 10
209.0728149414085
 20
934.2438315048221
 30
0.0
  0
LINE
  5
E6
330
7C
100
AcDbEntity
  8
0
  6
Continuous
 62
     0
370
    30
100
AcDbLine
 10
208.572815
 20
934.243832
 30
0.0
 11
208.572815
 21
930.485489
 31
0.0
  0
LINE
  5
E7
330
7C
100
AcDbEntity
  8
0
  6
Continuous
 62
     0
370
     0
100
AcDbLine
 10
208.072815
 20
930.985489
 30
0.0
 11
208.072815
 21
937.985489
 31
0.0
  0
LINE
  5
E8
330
7C
100
AcDbEntity
  8
0
  6
Continuous
 62
     0
370
    30
100
AcDbLine
 10
208.572815
 20
917.727146
 30
0.0
 11
208.572815
 21
921.485489
 31
0.0
  0
LINE
  5
E9
330
7C
100
AcDbEntity
  8
0
  6
Continuous
 62
     0
370
    30
100
AcDbLine
 10
208.572815
 20
921.485489
 30
0.0
 11
208.572815
 21
930.485489
 31
0.0
  0
LINE
  5
EA
330
7C
100
AcDbEntity
  8
0
  6
Continuous
 62
     0
370
     0
100
AcDbLine
 10
168.572815
 20
921.485489
 30
0.0
 11
169.072815
 21
921.485489
 31
0.0
  0
LINE
  5
EB
330
7C
100
AcDbEntity
  8
0
  6
Continuous
 62
     0
370
     0
100
AcDbLine
 10
169.072815
 20
921.485489
 30
0.0
 11
169.072815
 21
920.985489
 31
0.0
  0
ARC
  5
EC
330
7C
100
AcDbEntity
  8
0
  6
Continuous
 62
     0
370
    30
100
AcDbCircle
 10
169.072815
 20
921.485489
 30
0.0
 40
0.4999999999995275
100
AcDbArc
 50
180.0
 51
270.0
  0
LINE
  5
ED
330
7C
100
AcDbEntity
  8
0
  6
Continuous
 62
     0
370
     0
100
AcDbLine
 10
208.072815
 20
920.985489
 30
0.0
 11
208.072815
 21
921.485489
 31
0.0
  0
LINE
  5
EE
330
7C
100
AcDbEntity
  8
0
  6
Continuous
 62
     0
370
     0
100
AcDbLine
 10
208.072815
 20
921.485489
 30
0.0
 11
208.572815
 21
921.485489
 31
0.0
  0
ARC
  5
EF
330
7C
100
AcDbEntity
  8
0
  6
Continuous
 62
     0
370
    30
100
AcDbCircle
 10
208.072815
 20
921.485489
 30
0.0
 40
0.4999999999985381
100
AcDbArc
 50
270.0
 51
0.0
  0
LINE
  5
F0
330
7C
100
AcDbEntity
  8
0
  6
Continuous
 62
     0
370
     0
100
AcDbLine
 10
169.072815
 20
930.985489
 30
0.0
 11
169.072815
 21
930.485489
 31
0.0
  0
LINE
  5
F1
330
7C
100
AcDbEntity
  8
0
  6
Continuous
 62
     0
370
     0
100
AcDbLine
 10
169.072815
 20
930.485489
 30
0.0
 11
168.572815
 21
930.485489
 31
0.0
  0
ARC
  5
F2
330
7C
100
AcDbEntity
  8
0
  6
Continuous
 62
     0
370
    30
100
AcDbCircle
 10
169.072815
 20
930.485489
 30
0.0
 40
0.5000000000033502
100
AcDbArc
 50
90.0
 51
180.0
  0
LINE
  5
F3
330
7C
100
AcDbEntity
  8
0
  6
Continuous
 62
     0
370
     0
100
AcDbLine
 10
208.572815
 20
930.485489
 30
0.0
 11
208.072815
 21
930.485489
 31
0.0
  0
LINE
  5
F4
330
7C
100
AcDbEntity
  8
0
  6
Continuous
 62
     0
370
     0
100
AcDbLine
 10
208.072815
 20
930.485489
 30
0.0
 11
208.072815
 21
930.985489
 31
0.0
  0
ARC
  5
F5
330
7C
100
AcDbEntity
  8
0
  6
Continuous
 62
     0
370
    30
100
AcDbCircle
 10
208.072815
 20
930.485489
 30
0.0
 40
0.5000000000003979
100
AcDbArc
 50
0.0
 51
90.0
  0
LINE
  5
F6
330
7C
100
AcDbEntity
  8
0
  6
Continuous
 62
     0
370
    30
100
AcDbLine
 10
169.072815
 20
930.985489
 30
0.0
 11
208.072815
 21
930.985489
 31
0.0
  0
LINE
  5
F7
330
7C
100
AcDbEntity
  8
0
  6
Continuous
 62
     0
370
     0
100
AcDbLine
 10
208.072815
 20
930.485489
 30
0.0
 11
169.072815
 21
930.485489
 31
0.0
  0
LINE
  5
F8
330
7C
100
AcDbEntity
  8
0
  6
Continuous
 62
     0
370
     0
100
AcDbLine
 10
208.072815
 20
921.485489
 30
0.0
 11
208.072815
 21
930.485489
 31
0.0
  0
LINE
  5
F9
330
7C
100
AcDbEntity
  8
0
  6
Continuous
 62
     0
370
     0
100
AcDbLine
 10
169.072815
 20
930.485489
 30
0.0
 11
169.072815
 21
921.485489
 31
0.0
  0
LINE
  5
FA
330
7C
100
AcDbEntity
  8
0
  6
Continuous
 62
     0
370
    30
100
AcDbLine
 10
208.072815
 20
920.985489
 30
0.0
 11
169.072815
 21
920.985489
 31
0.0
  0
LINE
  5
FB
330
7C
100
AcDbEntity
  8
0
  6
Continuous
 62
     0
370
     0
100
AcDbLine
 10
169.072815
 20
921.485489
 30
0.0
 11
208.072815
 21
921.485489
 31
0.0
  0
LINE
  5
FC
330
7C
100
AcDbEntity
  8
0
  6
Continuous
 62
     0
370
     0
100
AcDbLine
 10
208.072815
 20
913.985489
 30
0.0
 11
208.072815
 21
920.985489
 31
0.0
  0
LINE
  5
FD
330
7C
100
AcDbEntity
  8
0
  6
Continuous
 62
     0
370
     0
100
AcDbLine
 10
208.072815
 20
937.985489
 30
0.0
 11
169.072815
 21
937.985489
 31
0.0
  0
LINE
  5
FE
330
7C
100
AcDbEntity
  8
0
  6
Continuous
 62
     0
370
     0
100
AcDbLine
 10
169.072815
 20
913.985489
 30
0.0
 11
208.072815
 21
913.985489
 31
0.0
  0
ARC
  5
FF
330
7C
100
AcDbEntity
  8
0
  6
Continuous
 62
     0
370
    30
100
AcDbCircle
 10
188.572815
 20
925.985489
 30
0.0
 40
24.0
100
AcDbArc
 50
0.0
 51
180.0
  0
ARC
  5
100
330
7C
100
AcDbEntity
  8
0
  6
Continuous
 62
     0
370
    30
100
AcDbCircle
 10
188.572815
 20
925.985489
 30
0.0
 40
24.0
100
AcDbArc
 50
180.0
 51
360.0
  0
LINE
  5
101
330
7C
100
AcDbEntity
  8
0
  6
Continuous
 62
     0
370
     0
100
AcDbLine
 10
260.572815
 20
897.485489
 30
0.0
 11
260.572815
 21
897.985489
 31
0.0
  0
ARC
  5
102
330
7C
100
AcDbEntity
  8
0
  6
Continuous
 62
     0
370
    30
100
AcDbCircle
 10
260.572815
 20
897.985489
 30
0.0
 40
0.5
100
AcDbArc
 50
180.0
 51
270.0
  0
LINE
  5
103
330
7C
100
AcDbEntity
  8
0
  6
Continuous
 62
     0
370
     0
100
AcDbLine
 10
260.072815
 20
897.985489
 30
0.0
 11
260.572815
 21
897.985489
 31
0.0
  0
LINE
  5
104
330
7C
100
AcDbEntity
  8
0
  6
Continuous
 62
     0
370
     0
100
AcDbLine
 10
317.072815
 20
897.985489
 30
0.0
 11
316.572815
 21
897.985489
 31
0.0
  0
ARC
  5
105
330
7C
100
AcDbEntity
  8
0
  6
Continuous
 62
     0
370
    30
100
AcDbCircle
 10
316.572815
 20
897.985489
 30
0.0
 40
0.5
100
AcDbArc
 50
270.0
 51
0.0
  0
LINE
  5
106
330
7C
100
AcDbEntity
  8
0
  6
Continuous
 62
     0
370
     0
100
AcDbLine
 10
316.572815
 20
897.485489
 30
0.0
 11
316.572815
 21
897.985489
 31
0.0
  0
LINE
  5
107
330
7C
100
AcDbEntity
  8
0
  6
Continuous
 62
     0
370
     0
100
AcDbLine
 10
260.572815
 20
897.985489
 30
0.0
 11
316.572815
 21
897.985489
 31
0.0
  0
LINE
  5
108
330
7C
100
AcDbEntity
  8
0
  6
Continuous
 62
     0
370
    30
100
AcDbLine
 10
260.572815
 20
897.485489
 30
0.0
 11
316.572815
 21
897.485489
 31
0.0
  0
LINE
  5
109
330
7C
100
AcDbEntity
  8
0
  6
Continuous
 62
     0
370
     0
100
AcDbLine
 10
260.072815
 20
953.985489
 30
0.0
 11
260.572815
 21
953.985489
 31
0.0
  0
LINE
  5
10A
330
7C
100
AcDbEntity
  8
0
  6
Continuous
 62
     0
370
    30
100
AcDbLine
 10
260.072815
 20
953.985489
 30
0.0
 11
260.072815
 21
897.985489
 31
0.0
  0
LINE
  5
10B
330
7C
100
AcDbEntity
  8
0
  6
Continuous
 62
     0
370
     0
100
AcDbLine
 10
260.572815
 20
953.985489
 30
0.0
 11
260.572815
 21
897.985489
 31
0.0
  0
ARC
  5
10C
330
7C
100
AcDbEntity
  8
0
  6
Continuous
 62
     0
370
    30
100
AcDbCircle
 10
260.572815
 20
953.985489
 30
0.0
 40
0.4999999999999982
100
AcDbArc
 50
90.0
 51
180.0
  0
LINE
  5
10D
330
7C
100
AcDbEntity
  8
0
  6
Continuous
 62
     0
370
     0
100
AcDbLine
 10
260.572815
 20
954.485489
 30
0.0
 11
260.572815
 21
953.985489
 31
0.0
  0
LINE
  5
10E
330
7C
100
AcDbEntity
  8
0
  6
Continuous
 62
     0
370
     0
100
AcDbLine
 10
316.572815
 20
954.485489
 30
0.0
 11
316.572815
 21
953.985489
 31
0.0
  0
LINE
  5
10F
330
7C
100
AcDbEntity
  8
0
  6
Continuous
 62
     0
370
    30
100
AcDbLine
 10
316.572815
 20
954.485489
 30
0.0
 11
260.572815
 21
954.485489
 31
0.0
  0
LINE
  5
110
330
7C
100
AcDbEntity
  8
0
  6
Continuous
 62
     0
370
     0
100
AcDbLine
 10
316.572815
 20
953.985489
 30
0.0
 11
260.572815
 21
953.985489
 31
0.0
  0
ARC
  5
111
330
7C
100
AcDbEntity
  8
0
  6
Continuous
 62
     0
370
    30
100
AcDbCircle
 10
316.572815
 20
953.985489
 30
0.0
 40
0.4999999999999982
100
AcDbArc
 50
0.0
 51
90.0
  0
LINE
  5
112
330
7C
100
AcDbEntity
  8
0
  6
Continuous
 62
     0
370
     0
100
AcDbLine
 10
317.072815
 20
953.985489
 30
0.0
 11
316.572815
 21
953.985489
 31
0.0
  0
LINE
  5
113
330
7C
100
AcDbEntity
  8
0
  6
Continuous
 62
     0
370
     0
100
AcDbLine
 10
316.572815
 20
897.985489
 30
0.0
 11
316.572815
 21
953.985489
 31
0.0
  0
LINE
  5
114
330
7C
100
AcDbEntity
  8
0
  6
Continuous
 62
     0
370
    30
100
AcDbLine
 10
317.072815
 20
897.985489
 30
0.0
 11
317.072815
 21
953.985489
 31
0.0
  0
LINE
  5
115
330
7C
100
AcDbEntity
  8
0
  6
Continuous
 62
     0
370
     0
100
AcDbLine
 10
306.072815
 20
908.985489
 30
0.0
 11
305.572815
 21
908.985489
 31
0.0
  0
ARC
  5
116
330
7C
100
AcDbEntity
  8
0
  6
Continuous
 62
     0
370
    30
100
AcDbCircle
 10
305.572815
 20
908.985489
 30
0.0
 40
0.5
100
AcDbArc
 50
270.0
 51
0.0
  0
LINE
  5
117
330
7C
100
AcDbEntity
  8
0
  6
Continuous
 62
     0
370
     0
100
AcDbLine
 10
305.572815
 20
908.485489
 30
0.0
 11
305.572815
 21
908.985489
 31
0.0
  0
LINE
  5
118
330
7C
100
AcDbEntity
  8
0
  6
Continuous
 62
     0
370
     0
100
AcDbLine
 10
271.572815
 20
908.485489
 30
0.0
 11
271.572815
 21
908.985489
 31
0.0
  0
LINE
  5
119
330
7C
100
AcDbEntity
  8
0
  6
Continuous
 62
     0
370
    30
100
AcDbLine
 10
271.572815
 20
908.485489
 30
0.0
 11
305.572815
 21
908.485489
 31
0.0
  0
LINE
  5
11A
330
7C
100
AcDbEntity
  8
0
  6
Continuous
 62
     0
370
     0
100
AcDbLine
 10
271.572815
 20
908.985489
 30
0.0
 11
305.572815
 21
908.985489
 31
0.0
  0
ARC
  5
11B
330
7C
100
AcDbEntity
  8
0
  6
Continuous
 62
     0
370
    30
100
AcDbCircle
 10
271.572815
 20
908.985489
 30
0.0
 40
0.5
100
AcDbArc
 50
180.0
 51
270.0
  0
LINE
  5
11C
330
7C
100
AcDbEntity
  8
0
  6
Continuous
 62
     0
370
     0
100
AcDbLine
 10
271.072815
 20
908.985489
 30
0.0
 11
271.572815
 21
908.985489
 31
0.0
  0
LINE
  5
11D
330
7C
100
AcDbEntity
  8
0
  6
Continuous
 62
     0
370
     0
100
AcDbLine
 10
305.572815
 20
943.485489
 30
0.0
 11
305.572815
 21
942.985489
 31
0.0
  0
ARC
  5
11E
330
7C
100
AcDbEntity
  8
0
  6
Continuous
 62
     0
370
    30
100
AcDbCircle
 10
305.572815
 20
942.985489
 30
0.0
 40
0.4999999999999964
100
AcDbArc
 50
0.0
 51
90.0
  0
LINE
  5
11F
330
7C
100
AcDbEntity
  8
0
  6
Continuous
 62
     0
370
     0
100
AcDbLine
 10
306.072815
 20
942.985489
 30
0.0
 11
305.572815
 21
942.985489
 31
0.0
  0
LINE
  5
120
330
7C
100
AcDbEntity
  8
0
  6
Continuous
 62
     0
370
     0
100
AcDbLine
 10
305.572815
 20
908.985489
 30
0.0
 11
305.572815
 21
942.985489
 31
0.0
  0
LINE
  5
121
330
7C
100
AcDbEntity
  8
0
  6
Continuous
 62
     0
370
    30
100
AcDbLine
 10
306.072815
 20
908.985489
 30
0.0
 11
306.072815
 21
942.985489
 31
0.0
  0
LINE
  5
122
330
7C
100
AcDbEntity
  8
0
  6
Continuous
 62
     0
370
     0
100
AcDbLine
 10
271.072815
 20
942.985489
 30
0.0
 11
271.572815
 21
942.985489
 31
0.0
  0
LINE
  5
123
330
7C
100
AcDbEntity
  8
0
  6
Continuous
 62
     0
370
    30
100
AcDbLine
 10
271.072815
 20
942.985489
 30
0.0
 11
271.072815
 21
908.985489
 31
0.0
  0
LINE
  5
124
330
7C
100
AcDbEntity
  8
0
  6
Continuous
 62
     0
370
     0
100
AcDbLine
 10
271.572815
 20
942.985489
 30
0.0
 11
271.572815
 21
908.985489
 31
0.0
  0
ARC
  5
125
330
7C
100
AcDbEntity
  8
0
  6
Continuous
 62
     0
370
    30
100
AcDbCircle
 10
271.572815
 20
942.985489
 30
0.0
 40
0.4999999999999964
100
AcDbArc
 50
90.0
 51
180.0
  0
LINE
  5
126
330
7C
100
AcDbEntity
  8
0
  6
Continuous
 62
     0
370
     0
100
AcDbLine
 10
271.572815
 20
943.485489
 30
0.0
 11
271.572815
 21
942.985489
 31
0.0
  0
LINE
  5
127
330
7C
100
AcDbEntity
  8
0
  6
Continuous
 62
     0
370
     0
100
AcDbLine
 10
305.572815
 20
942.985489
 30
0.0
 11
271.572815
 21
942.985489
 31
0.0
  0
LINE
  5
128
330
7C
100
AcDbEntity
  8
0
  6
Continuous
 62
     0
370
    30
100
AcDbLine
 10
305.572815
 20
943.485489
 30
0.0
 11
271.572815
 21
943.485489
 31
0.0
  0
LINE
  5
129
330
7C
100
AcDbEntity
  8
0
  6
Continuous
 62
     0
370
     0
100
AcDbLine
 10
108.022815
 20
931.035489
 30
0.0
 11
108.022815
 21
896.878489
 31
0.0
  0
LINE
  5
12A
330
7C
100
AcDbEntity
  8
0
  6
Continuous
 62
     0
370
    30
100
AcDbLine
 10
108.522815
 20
930.535489
 30
0.0
 11
108.522815
 21
896.622468
 31
0.0
  0
LINE
  5
12B
330
7C
100
AcDbEntity
  8
0
  6
Continuous
 62
     0
370
     0
100
AcDbLine
 10
108.022815
 20
896.878489
 30
0.0
 11
108.022815
 21
882.035489
 31
0.0
  0
LINE
  5
12C
330
7C
100
AcDbEntity
  8
0
  6
Continuous
 62
     0
370
    30
100
AcDbLine
 10
108.522815
 20
896.622468
 30
0.0
 11
108.522815
 21
882.035489
 31
0.0
  0
LINE
  5
12D
330
7C
100
AcDbEntity
  8
0
  6
Continuous
 62
     0
370
     0
100
AcDbLine
 10
69.022815
 20
931.035489
 30
0.0
 11
69.022815
 21
896.878489
 31
0.0
  0
LINE
  5
12E
330
7C
100
AcDbEntity
  8
0
  6
Continuous
 62
     0
370
    30
100
AcDbLine
 10
68.522815
 20
930.535489
 30
0.0
 11
68.522815
 21
896.622468
 31
0.0
  0
LINE
  5
12F
330
7C
100
AcDbEntity
  8
0
  6
Continuous
 62
     0
370
     0
100
AcDbLine
 10
69.022815
 20
896.878489
 30
0.0
 11
69.022815
 21
882.035489
 31
0.0
  0
LINE
  5
130
330
7C
100
AcDbEntity
  8
0
  6
Continuous
 62
     0
370
    30
100
AcDbLine
 10
68.522815
 20
896.622468
 30
0.0
 11
68.522815
 21
882.035489
 31
0.0
  0
ARC
  5
131
330
7C
100
AcDbEntity
  8
0
  6
Continuous
 62
     0
370
    30
100
AcDbCircle
 10
108.022815
 20
930.535489
 30
0.0
 40
0.5
100
AcDbArc
 50
0.0
 51
90.0
  0
ELLIPSE
  5
132
330
7C
100
AcDbEntity
  8
0
  6
Continuous
 62
     0
370
     0
100
AcDbEllipse
 10
108.022815
 20
896.622468
 30
0.0
 11
-0.4999999999999968
 21
6.939749109143992E-16
 31
0.0
210
0.0
220
0.0
230
-1.0
 40
0.512043
 41
1.570796326794896
 42
3.141592653589794
  0
LINE
  5
133
330
7C
100
AcDbEntity
  8
0
  6
Continuous
 62
     0
370
    30
100
AcDbLine
 10
69.022815
 20
931.035489
 30
0.0
 11
108.022815
 21
931.035489
 31
0.0
  0
LINE
  5
134
330
7C
100
AcDbEntity
  8
0
  6
Continuous
 62
     0
370
     0
100
AcDbLine
 10
69.022815
 20
896.878489
 30
0.0
 11
108.022815
 21
896.878489
 31
0.0
  0
ARC
  5
135
330
7C
100
AcDbEntity
  8
0
  6
Continuous
 62
     0
370
    30
100
AcDbCircle
 10
69.022815
 20
930.535489
 30
0.0
 40
0.5
100
AcDbArc
 50
90.0
 51
180.0
  0
LINE
  5
136
330
7C
100
AcDbEntity
  8
0
  6
Continuous
 62
     0
370
    30
100
AcDbLine
 10
69.022815
 20
882.035489
 30
0.0
 11
108.022815
 21
882.035489
 31
0.0
  0
ELLIPSE
  5
137
330
7C
100
AcDbEntity
  8
0
  6
Continuous
 62
     0
370
     0
100
AcDbEllipse
 10
69.022815
 20
896.622468
 30
0.0
 11
0.4999999999999968
 21
-6.861304851860507E-16
 31
0.0
210
0.0
220
0.0
230
1.0
 40
0.512043
 41
1.570796326794897
 42
3.141592653589792
  0
LINE
  5
138
330
7C
100
AcDbEntity
  8
0
  6
Continuous
 62
     0
370
    30
100
AcDbLine
 10
108.022815
 20
882.035489
 30
0.0
 11
108.522815
 21
882.035489
 31
0.0
  0
LINE
  5
139
330
7C
100
AcDbEntity
  8
0
  6
Continuous
 62
     0
370
    30
100
AcDbLine
 10
69.022815
 20
882.035489
 30
0.0
 11
68.522815
 21
882.035489
 31
0.0
  0
ARC
  5
13A
330
7C
100
AcDbEntity
  8
0
  6
Continuous
 62
     0
370
    30
100
AcDbCircle
 10
60.572815
 20
897.985489
 30
0.0
 40
0.5
100
AcDbArc
 50
180.0
 51
270.0
  0
LINE
  5
13B
330
7C
100
AcDbEntity
  8
0
  6
Continuous
 62
     0
370
     0
100
AcDbLine
 10
60.572815
 20
897.485489
 30
0.0
 11
60.572815
 21
897.985489
 31
0.0
  0
LINE
  5
13C
330
7C
100
AcDbEntity
  8
0
  6
Continuous
 62
     0
370
     0
100
AcDbLine
 10
60.572815
 20
897.985489
 30
0.0
 11
60.072815
 21
897.985489
 31
0.0
  0
LINE
  5
13D
330
7C
100
AcDbEntity
  8
0
  6
Continuous
 62
     0
370
    30
100
AcDbLine
 10
68.522815
 20
897.485489
 30
0.0
 11
60.572815
 21
897.485489
 31
0.0
  0
LINE
  5
13E
330
7C
100
AcDbEntity
  8
0
  6
Continuous
 62
     0
370
    30
100
AcDbLine
 10
116.572815
 20
897.485489
 30
0.0
 11
108.522815
 21
897.485489
 31
0.0
  0
LINE
  5
13F
330
7C
100
AcDbEntity
  8
0
  6
Continuous
 62
     0
370
     0
100
AcDbLine
 10
108.522815
 20
897.985489
 30
0.0
 11
116.572815
 21
897.985489
 31
0.0
  0
LINE
  5
140
330
7C
100
AcDbEntity
  8
0
  6
Continuous
 62
     0
370
     0
100
AcDbLine
 10
60.572815
 20
897.985489
 30
0.0
 11
68.522815
 21
897.985489
 31
0.0
  0
LINE
  5
141
330
7C
100
AcDbEntity
  8
0
  6
Continuous
 62
     0
370
     0
100
AcDbLine
 10
116.572815
 20
897.985489
 30
0.0
 11
116.572815
 21
897.485489
 31
0.0
  0
LINE
  5
142
330
7C
100
AcDbEntity
  8
0
  6
Continuous
 62
     0
370
     0
100
AcDbLine
 10
117.072815
 20
897.985489
 30
0.0
 11
116.572815
 21
897.985489
 31
0.0
  0
ARC
  5
143
330
7C
100
AcDbEntity
  8
0
  6
Continuous
 62
     0
370
    30
100
AcDbCircle
 10
116.572815
 20
897.985489
 30
0.0
 40
0.5
100
AcDbArc
 50
270.0
 51
0.0
  0
LINE
  5
144
330
7C
100
AcDbEntity
  8
0
  6
Continuous
 62
     0
370
    30
100
AcDbLine
 10
117.072815
 20
953.985489
 30
0.0
 11
117.072815
 21
897.985489
 31
0.0
  0
LINE
  5
145
330
7C
100
AcDbEntity
  8
0
  6
Continuous
 62
     0
370
     0
100
AcDbLine
 10
116.572815
 20
897.985489
 30
0.0
 11
116.572815
 21
953.985489
 31
0.0
  0
LINE
  5
146
330
7C
100
AcDbEntity
  8
0
  6
Continuous
 62
     0
370
     0
100
AcDbLine
 10
116.572815
 20
953.985489
 30
0.0
 11
117.072815
 21
953.985489
 31
0.0
  0
LINE
  5
147
330
7C
100
AcDbEntity
  8
0
  6
Continuous
 62
     0
370
     0
100
AcDbLine
 10
116.572815
 20
954.485489
 30
0.0
 11
116.572815
 21
953.985489
 31
0.0
  0
ARC
  5
148
330
7C
100
AcDbEntity
  8
0
  6
Continuous
 62
     0
370
    30
100
AcDbCircle
 10
116.572815
 20
953.985489
 30
0.0
 40
0.5
100
AcDbArc
 50
0.0
 51
90.0
  0
LINE
  5
149
330
7C
100
AcDbEntity
  8
0
  6
Continuous
 62
     0
370
    30
100
AcDbLine
 10
60.572815
 20
954.485489
 30
0.0
 11
116.572815
 21
954.485489
 31
0.0
  0
LINE
  5
14A
330
7C
100
AcDbEntity
  8
0
  6
Continuous
 62
     0
370
     0
100
AcDbLine
 10
116.572815
 20
953.985489
 30
0.0
 11
60.572815
 21
953.985489
 31
0.0
  0
LINE
  5
14B
330
7C
100
AcDbEntity
  8
0
  6
Continuous
 62
     0
370
     0
100
AcDbLine
 10
60.572815
 20
953.985489
 30
0.0
 11
60.572815
 21
954.485489
 31
0.0
  0
LINE
  5
14C
330
7C
100
AcDbEntity
  8
0
  6
Continuous
 62
     0
370
     0
100
AcDbLine
 10
60.072815
 20
953.985489
 30
0.0
 11
60.572815
 21
953.985489
 31
0.0
  0
ARC
  5
14D
330
7C
100
AcDbEntity
  8
0
  6
Continuous
 62
     0
370
    30
100
AcDbCircle
 10
60.572815
 20
953.985489
 30
0.0
 40
0.5
100
AcDbArc
 50
90.0
 51
180.0
  0
ARC
  5
14E
330
7C
100
AcDbEntity
  8
0
  6
Continuous
 62
     0
370
    30
100
AcDbCircle
 10
88.572815
 20
925.985489
 30
0.0
 40
24.4
100
AcDbArc
 50
324.847545
 51
214.742523
  0
LINE
  5
14F
330
7C
100
AcDbEntity
  8
0
  6
Continuous
 62
     0
370
     0
100
AcDbLine
 10
60.572815
 20
953.985489
 30
0.0
 11
60.572815
 21
897.985489
 31
0.0
  0
LINE
  5
150
330
7C
100
AcDbEntity
  8
0
  6
Continuous
 62
     0
370
    30
100
AcDbLine
 10
60.072815
 20
953.985489
 30
0.0
 11
60.072815
 21
897.985489
 31
0.0
  0
ARC
  5
151
330
7C
100
AcDbEntity
  8
0
  6
Continuous
 62
     0
370
    30
100
AcDbCircle
 10
88.572815
 20
925.985489
 30
0.0
 40
24.25
100
AcDbArc
 50
325.35402
 51
180.0
  0
ARC
  5
152
330
7C
100
AcDbEntity
  8
0
  6
Continuous
 62
     0
370
    30
100
AcDbCircle
 10
88.572815
 20
925.985489
 30
0.0
 40
24.25
100
AcDbArc
 50
180.0
 51
214.22817
  0
LINE
  5
153
330
7C
100
AcDbEntity
  8
0
  6
Continuous
 62
     0
370
    30
100
AcDbLine
 10
478.322815
 20
1114.899737
 30
0.0
 11
479.322815
 21
1114.899737
 31
0.0
  0
LINE
  5
154
330
7C
100
AcDbEntity
  8
0
  6
Continuous
 62
     0
370
    30
100
AcDbLine
 10
479.322815
 20
1114.899737
 30
0.0
 11
500.822815
 21
1114.899737
 31
0.0
  0
LINE
  5
155
330
7C
100
AcDbEntity
  8
0
  6
Continuous
 62
     0
370
    30
100
AcDbLine
 10
500.822815
 20
1114.899737
 30
0.0
 11
501.822815
 21
1114.899737
 31
0.0
  0
LINE
  5
156
330
7C
100
AcDbEntity
  8
0
  6
Continuous
 62
     0
370
    30
100
AcDbLine
 10
500.822815
 20
934.899737
 30
0.0
 11
501.822815
 21
934.899737
 31
0.0
  0
LINE
  5
157
330
7C
100
AcDbEntity
  8
0
  6
Continuous
 62
     0
370
    30
100
AcDbLine
 10
479.322815
 20
934.899737
 30
0.0
 11
500.822815
 21
934.899737
 31
0.0
  0
LINE
  5
158
330
7C
100
AcDbEntity
  8
0
  6
Continuous
 62
     0
370
    30
100
AcDbLine
 10
478.322815
 20
934.899737
 30
0.0
 11
479.322815
 21
934.899737
 31
0.0
  0
LINE
  5
159
330
7C
100
AcDbEntity
  8
0
  6
Continuous
 62
     0
370
    30
100
AcDbLine
 10
501.822815
 20
1114.899737
 30
0.0
 11
501.822815
 21
934.899737
 31
0.0
  0
LINE
  5
15A
330
7C
100
AcDbEntity
  8
0
  6
Continuous
 62
     0
370
    30
100
AcDbLine
 10
478.322815
 20
1114.899737
 30
0.0
 11
478.322815
 21
934.899737
 31
0.0
  0
LINE
  5
15B
330
7C
100
AcDbEntity
  8
0
  6
Continuous
 62
     0
370
     0
100
AcDbLine
 10
479.322815
 20
1114.899737
 30
0.0
 11
479.322815
 21
934.899737
 31
0.0
  0
LINE
  5
15C
330
7C
100
AcDbEntity
  8
0
  6
Continuous
 62
     0
370
     0
100
AcDbLine
 10
500.822815
 20
1114.899737
 30
0.0
 11
500.822815
 21
934.899737
 31
0.0
  0
ARC
  5
15D
330
7C
100
AcDbEntity
  8
0
  6
Continuous
 62
     0
370
    30
100
AcDbCircle
 10
490.072815
 20
1100.899737
 30
0.0
 40
1.25
100
AcDbArc
 50
180.0
 51
360.0
  0
ARC
  5
15E
330
7C
100
AcDbEntity
  8
0
  6
Continuous
 62
     0
370
    30
100
AcDbCircle
 10
490.072815
 20
1100.899737
 30
0.0
 40
1.25
100
AcDbArc
 50
0.0
 51
180.0
  0
ARC
  5
15F
330
7C
100
AcDbEntity
  8
0
  6
Continuous
 62
     0
370
    30
100
AcDbCircle
 10
490.072815
 20
1045.899737
 30
0.0
 40
1.25
100
AcDbArc
 50
180.0
 51
360.0
  0
ARC
  5
160
330
7C
100
AcDbEntity
  8
0
  6
Continuous
 62
     0
370
    30
100
AcDbCircle
 10
490.072815
 20
1045.899737
 30
0.0
 40
1.25
100
AcDbArc
 50
0.0
 51
180.0
  0
ARC
  5
161
330
7C
100
AcDbEntity
  8
0
  6
Continuous
 62
     0
370
    30
100
AcDbCircle
 10
490.072815
 20
1050.899737
 30
0.0
 40
1.25
100
AcDbArc
 50
180.0
 51
360.0
  0
ARC
  5
162
330
7C
100
AcDbEntity
  8
0
  6
Continuous
 62
     0
370
    30
100
AcDbCircle
 10
490.072815
 20
1050.899737
 30
0.0
 40
1.25
100
AcDbArc
 50
0.0
 51
180.0
  0
ARC
  5
163
330
7C
100
AcDbEntity
  8
0
  6
Continuous
 62
     0
370
    30
100
AcDbCircle
 10
490.072815
 20
1055.899737
 30
0.0
 40
1.25
100
AcDbArc
 50
180.0
 51
360.0
  0
ARC
  5
164
330
7C
100
AcDbEntity
  8
0
  6
Continuous
 62
     0
370
    30
100
AcDbCircle
 10
490.072815
 20
1055.899737
 30
0.0
 40
1.25
100
AcDbArc
 50
0.0
 51
180.0
  0
ARC
  5
165
330
7C
100
AcDbEntity
  8
0
  6
Continuous
 62
     0
370
    30
100
AcDbCircle
 10
490.072815
 20
1060.899737
 30
0.0
 40
1.25
100
AcDbArc
 50
180.0
 51
360.0
  0
ARC
  5
166
330
7C
100
AcDbEntity
  8
0
  6
Continuous
 62
     0
370
    30
100
AcDbCircle
 10
490.072815
 20
1060.899737
 30
0.0
 40
1.25
100
AcDbArc
 50
0.0
 51
180.0
  0
ARC
  5
167
330
7C
100
AcDbEntity
  8
0
  6
Continuous
 62
     0
370
    30
100
AcDbCircle
 10
490.072815
 20
1065.899737
 30
0.0
 40
1.25
100
AcDbArc
 50
180.0
 51
360.0
  0
ARC
  5
168
330
7C
100
AcDbEntity
  8
0
  6
Continuous
 62
     0
370
    30
100
AcDbCircle
 10
490.072815
 20
1065.899737
 30
0.0
 40
1.25
100
AcDbArc
 50
0.0
 51
180.0
  0
ARC
  5
169
330
7C
100
AcDbEntity
  8
0
  6
Continuous
 62
     0
370
    30
100
AcDbCircle
 10
490.072815
 20
1070.899737
 30
0.0
 40
1.25
100
AcDbArc
 50
180.0
 51
360.0
  0
ARC
  5
16A
330
7C
100
AcDbEntity
  8
0
  6
Continuous
 62
     0
370
    30
100
AcDbCircle
 10
490.072815
 20
1070.899737
 30
0.0
 40
1.25
100
AcDbArc
 50
0.0
 51
180.0
  0
ARC
  5
16B
330
7C
100
AcDbEntity
  8
0
  6
Continuous
 62
     0
370
    30
100
AcDbCircle
 10
490.072815
 20
1075.899737
 30
0.0
 40
1.25
100
AcDbArc
 50
180.0
 51
360.0
  0
ARC
  5
16C
330
7C
100
AcDbEntity
  8
0
  6
Continuous
 62
     0
370
    30
100
AcDbCircle
 10
490.072815
 20
1075.899737
 30
0.0
 40
1.25
100
AcDbArc
 50
0.0
 51
180.0
  0
ARC
  5
16D
330
7C
100
AcDbEntity
  8
0
  6
Continuous
 62
     0
370
    30
100
AcDbCircle
 10
490.072815
 20
1080.899737
 30
0.0
 40
1.25
100
AcDbArc
 50
180.0
 51
360.0
  0
ARC
  5
16E
330
7C
100
AcDbEntity
  8
0
  6
Continuous
 62
     0
370
    30
100
AcDbCircle
 10
490.072815
 20
1080.899737
 30
0.0
 40
1.25
100
AcDbArc
 50
0.0
 51
180.0
  0
ARC
  5
16F
330
7C
100
AcDbEntity
  8
0
  6
Continuous
 62
     0
370
    30
100
AcDbCircle
 10
490.072815
 20
1085.899737
 30
0.0
 40
1.25
100
AcDbArc
 50
180.0
 51
360.0
  0
ARC
  5
170
330
7C
100
AcDbEntity
  8
0
  6
Continuous
 62
     0
370
    30
100
AcDbCircle
 10
490.072815
 20
1085.899737
 30
0.0
 40
1.25
100
AcDbArc
 50
0.0
 51
180.0
  0
ARC
  5
171
330
7C
100
AcDbEntity
  8
0
  6
Continuous
 62
     0
370
    30
100
AcDbCircle
 10
490.072815
 20
1090.899737
 30
0.0
 40
1.25
100
AcDbArc
 50
180.0
 51
360.0
  0
ARC
  5
172
330
7C
100
AcDbEntity
  8
0
  6
Continuous
 62
     0
370
    30
100
AcDbCircle
 10
490.072815
 20
1090.899737
 30
0.0
 40
1.25
100
AcDbArc
 50
0.0
 51
180.0
  0
ARC
  5
173
330
7C
100
AcDbEntity
  8
0
  6
Continuous
 62
     0
370
    30
100
AcDbCircle
 10
490.072815
 20
1095.899737
 30
0.0
 40
1.25
100
AcDbArc
 50
180.0
 51
360.0
  0
ARC
  5
174
330
7C
100
AcDbEntity
  8
0
  6
Continuous
 62
     0
370
    30
100
AcDbCircle
 10
490.072815
 20
1095.899737
 30
0.0
 40
1.25
100
AcDbArc
 50
0.0
 51
180.0
  0
ARC
  5
175
330
7C
100
AcDbEntity
  8
0
  6
Continuous
 62
     0
370
    30
100
AcDbCircle
 10
484.572815
 20
1075.899737
 30
0.0
 40
1.25
100
AcDbArc
 50
180.0
 51
360.0
  0
ARC
  5
176
330
7C
100
AcDbEntity
  8
0
  6
Continuous
 62
     0
370
    30
100
AcDbCircle
 10
484.572815
 20
1075.899737
 30
0.0
 40
1.25
100
AcDbArc
 50
0.0
 51
180.0
  0
ARC
  5
177
330
7C
100
AcDbEntity
  8
0
  6
Continuous
 62
     0
370
    30
100
AcDbCircle
 10
484.572815
 20
1095.899737
 30
0.0
 40
1.25
100
AcDbArc
 50
180.0
 51
360.0
  0
ARC
  5
178
330
7C
100
AcDbEntity
  8
0
  6
Continuous
 62
     0
370
    30
100
AcDbCircle
 10
484.572815
 20
1095.899737
 30
0.0
 40
1.25
100
AcDbArc
 50
0.0
 51
180.0
  0
ARC
  5
179
330
7C
100
AcDbEntity
  8
0
  6
Continuous
 62
     0
370
    30
100
AcDbCircle
 10
484.572815
 20
1090.899737
 30
0.0
 40
1.25
100
AcDbArc
 50
180.0
 51
360.0
  0
ARC
  5
17A
330
7C
100
AcDbEntity
  8
0
  6
Continuous
 62
     0
370
    30
100
AcDbCircle
 10
484.572815
 20
1090.899737
 30
0.0
 40
1.25
100
AcDbArc
 50
0.0
 51
180.0
  0
ARC
  5
17B
330
7C
100
AcDbEntity
  8
0
  6
Continuous
 62
     0
370
    30
100
AcDbCircle
 10
484.572815
 20
1080.899737
 30
0.0
 40
1.25
100
AcDbArc
 50
180.0
 51
360.0
  0
ARC
  5
17C
330
7C
100
AcDbEntity
  8
0
  6
Continuous
 62
     0
370
    30
100
AcDbCircle
 10
484.572815
 20
1080.899737
 30
0.0
 40
1.25
100
AcDbArc
 50
0.0
 51
180.0
  0
ARC
  5
17D
330
7C
100
AcDbEntity
  8
0
  6
Continuous
 62
     0
370
    30
100
AcDbCircle
 10
484.572815
 20
1100.899737
 30
0.0
 40
1.25
100
AcDbArc
 50
180.0
 51
360.0
  0
ARC
  5
17E
330
7C
100
AcDbEntity
  8
0
  6
Continuous
 62
     0
370
    30
100
AcDbCircle
 10
484.572815
 20
1100.899737
 30
0.0
 40
1.25
100
AcDbArc
 50
0.0
 51
180.0
  0
ARC
  5
17F
330
7C
100
AcDbEntity
  8
0
  6
Continuous
 62
     0
370
    30
100
AcDbCircle
 10
484.572815
 20
1045.899737
 30
0.0
 40
1.25
100
AcDbArc
 50
180.0
 51
360.0
  0
ARC
  5
180
330
7C
100
AcDbEntity
  8
0
  6
Continuous
 62
     0
370
    30
100
AcDbCircle
 10
484.572815
 20
1045.899737
 30
0.0
 40
1.25
100
AcDbArc
 50
0.0
 51
180.0
  0
ARC
  5
181
330
7C
100
AcDbEntity
  8
0
  6
Continuous
 62
     0
370
    30
100
AcDbCircle
 10
484.572815
 20
1050.899737
 30
0.0
 40
1.25
100
AcDbArc
 50
180.0
 51
360.0
  0
ARC
  5
182
330
7C
100
AcDbEntity
  8
0
  6
Continuous
 62
     0
370
    30
100
AcDbCircle
 10
484.572815
 20
1050.899737
 30
0.0
 40
1.25
100
AcDbArc
 50
0.0
 51
180.0
  0
ARC
  5
183
330
7C
100
AcDbEntity
  8
0
  6
Continuous
 62
     0
370
    30
100
AcDbCircle
 10
484.572815
 20
1055.899737
 30
0.0
 40
1.25
100
AcDbArc
 50
180.0
 51
360.0
  0
ARC
  5
184
330
7C
100
AcDbEntity
  8
0
  6
Continuous
 62
     0
370
    30
100
AcDbCircle
 10
484.572815
 20
1055.899737
 30
0.0
 40
1.25
100
AcDbArc
 50
0.0
 51
180.0
  0
ARC
  5
185
330
7C
100
AcDbEntity
  8
0
  6
Continuous
 62
     0
370
    30
100
AcDbCircle
 10
484.572815
 20
1060.899737
 30
0.0
 40
1.25
100
AcDbArc
 50
180.0
 51
360.0
  0
ARC
  5
186
330
7C
100
AcDbEntity
  8
0
  6
Continuous
 62
     0
370
    30
100
AcDbCircle
 10
484.572815
 20
1060.899737
 30
0.0
 40
1.25
100
AcDbArc
 50
0.0
 51
180.0
  0
ARC
  5
187
330
7C
100
AcDbEntity
  8
0
  6
Continuous
 62
     0
370
    30
100
AcDbCircle
 10
484.572815
 20
1065.899737
 30
0.0
 40
1.25
100
AcDbArc
 50
180.0
 51
360.0
  0
ARC
  5
188
330
7C
100
AcDbEntity
  8
0
  6
Continuous
 62
     0
370
    30
100
AcDbCircle
 10
484.572815
 20
1065.899737
 30
0.0
 40
1.25
100
AcDbArc
 50
0.0
 51
180.0
  0
ARC
  5
189
330
7C
100
AcDbEntity
  8
0
  6
Continuous
 62
     0
370
    30
100
AcDbCircle
 10
484.572815
 20
1070.899737
 30
0.0
 40
1.25
100
AcDbArc
 50
180.0
 51
360.0
  0
ARC
  5
18A
330
7C
100
AcDbEntity
  8
0
  6
Continuous
 62
     0
370
    30
100
AcDbCircle
 10
484.572815
 20
1070.899737
 30
0.0
 40
1.25
100
AcDbArc
 50
0.0
 51
180.0
  0
ARC
  5
18B
330
7C
100
AcDbEntity
  8
0
  6
Continuous
 62
     0
370
    30
100
AcDbCircle
 10
487.572815
 20
1043.399737
 30
0.0
 40
1.25
100
AcDbArc
 50
180.0
 51
360.0
  0
ARC
  5
18C
330
7C
100
AcDbEntity
  8
0
  6
Continuous
 62
     0
370
    30
100
AcDbCircle
 10
487.572815
 20
1043.399737
 30
0.0
 40
1.25
100
AcDbArc
 50
0.0
 51
180.0
  0
ARC
  5
18D
330
7C
100
AcDbEntity
  8
0
  6
Continuous
 62
     0
370
    30
100
AcDbCircle
 10
487.572815
 20
1048.399737
 30
0.0
 40
1.25
100
AcDbArc
 50
180.0
 51
360.0
  0
ARC
  5
18E
330
7C
100
AcDbEntity
  8
0
  6
Continuous
 62
     0
370
    30
100
AcDbCircle
 10
487.572815
 20
1048.399737
 30
0.0
 40
1.25
100
AcDbArc
 50
0.0
 51
180.0
  0
ARC
  5
18F
330
7C
100
AcDbEntity
  8
0
  6
Continuous
 62
     0
370
    30
100
AcDbCircle
 10
487.572815
 20
1053.399737
 30
0.0
 40
1.25
100
AcDbArc
 50
180.0
 51
360.0
  0
ARC
  5
190
330
7C
100
AcDbEntity
  8
0
  6
Continuous
 62
     0
370
    30
100
AcDbCircle
 10
487.572815
 20
1053.399737
 30
0.0
 40
1.25
100
AcDbArc
 50
0.0
 51
180.0
  0
ARC
  5
191
330
7C
100
AcDbEntity
  8
0
  6
Continuous
 62
     0
370
    30
100
AcDbCircle
 10
487.572815
 20
1058.399737
 30
0.0
 40
1.25
100
AcDbArc
 50
180.0
 51
360.0
  0
ARC
  5
192
330
7C
100
AcDbEntity
  8
0
  6
Continuous
 62
     0
370
    30
100
AcDbCircle
 10
487.572815
 20
1058.399737
 30
0.0
 40
1.25
100
AcDbArc
 50
0.0
 51
180.0
  0
ARC
  5
193
330
7C
100
AcDbEntity
  8
0
  6
Continuous
 62
     0
370
    30
100
AcDbCircle
 10
487.572815
 20
1063.399737
 30
0.0
 40
1.25
100
AcDbArc
 50
180.0
 51
360.0
  0
ARC
  5
194
330
7C
100
AcDbEntity
  8
0
  6
Continuous
 62
     0
370
    30
100
AcDbCircle
 10
487.572815
 20
1063.399737
 30
0.0
 40
1.25
100
AcDbArc
 50
0.0
 51
180.0
  0
ARC
  5
195
330
7C
100
AcDbEntity
  8
0
  6
Continuous
 62
     0
370
    30
100
AcDbCircle
 10
487.572815
 20
1068.399737
 30
0.0
 40
1.25
100
AcDbArc
 50
180.0
 51
360.0
  0
ARC
  5
196
330
7C
100
AcDbEntity
  8
0
  6
Continuous
 62
     0
370
    30
100
AcDbCircle
 10
487.572815
 20
1068.399737
 30
0.0
 40
1.25
100
AcDbArc
 50
0.0
 51
180.0
  0
ARC
  5
197
330
7C
100
AcDbEntity
  8
0
  6
Continuous
 62
     0
370
    30
100
AcDbCircle
 10
487.572815
 20
1073.399737
 30
0.0
 40
1.25
100
AcDbArc
 50
180.0
 51
360.0
  0
ARC
  5
198
330
7C
100
AcDbEntity
  8
0
  6
Continuous
 62
     0
370
    30
100
AcDbCircle
 10
487.572815
 20
1073.399737
 30
0.0
 40
1.25
100
AcDbArc
 50
0.0
 51
180.0
  0
ARC
  5
199
330
7C
100
AcDbEntity
  8
0
  6
Continuous
 62
     0
370
    30
100
AcDbCircle
 10
487.572815
 20
1078.399737
 30
0.0
 40
1.25
100
AcDbArc
 50
180.0
 51
360.0
  0
ARC
  5
19A
330
7C
100
AcDbEntity
  8
0
  6
Continuous
 62
     0
370
    30
100
AcDbCircle
 10
487.572815
 20
1078.399737
 30
0.0
 40
1.25
100
AcDbArc
 50
0.0
 51
180.0
  0
ARC
  5
19B
330
7C
100
AcDbEntity
  8
0
  6
Continuous
 62
     0
370
    30
100
AcDbCircle
 10
487.572815
 20
1083.399737
 30
0.0
 40
1.25
100
AcDbArc
 50
180.0
 51
360.0
  0
ARC
  5
19C
330
7C
100
AcDbEntity
  8
0
  6
Continuous
 62
     0
370
    30
100
AcDbCircle
 10
487.572815
 20
1083.399737
 30
0.0
 40
1.25
100
AcDbArc
 50
0.0
 51
180.0
  0
ARC
  5
19D
330
7C
100
AcDbEntity
  8
0
  6
Continuous
 62
     0
370
    30
100
AcDbCircle
 10
487.572815
 20
1088.399737
 30
0.0
 40
1.25
100
AcDbArc
 50
180.0
 51
360.0
  0
ARC
  5
19E
330
7C
100
AcDbEntity
  8
0
  6
Continuous
 62
     0
370
    30
100
AcDbCircle
 10
487.572815
 20
1088.399737
 30
0.0
 40
1.25
100
AcDbArc
 50
0.0
 51
180.0
  0
ARC
  5
19F
330
7C
100
AcDbEntity
  8
0
  6
Continuous
 62
     0
370
    30
100
AcDbCircle
 10
487.572815
 20
1093.399737
 30
0.0
 40
1.25
100
AcDbArc
 50
180.0
 51
360.0
  0
ARC
  5
1A0
330
7C
100
AcDbEntity
  8
0
  6
Continuous
 62
     0
370
    30
100
AcDbCircle
 10
487.572815
 20
1093.399737
 30
0.0
 40
1.25
100
AcDbArc
 50
0.0
 51
180.0
  0
ARC
  5
1A1
330
7C
100
AcDbEntity
  8
0
  6
Continuous
 62
     0
370
    30
100
AcDbCircle
 10
487.572815
 20
1098.399737
 30
0.0
 40
1.25
100
AcDbArc
 50
180.0
 51
360.0
  0
ARC
  5
1A2
330
7C
100
AcDbEntity
  8
0
  6
Continuous
 62
     0
370
    30
100
AcDbCircle
 10
487.572815
 20
1098.399737
 30
0.0
 40
1.25
100
AcDbArc
 50
0.0
 51
180.0
  0
ARC
  5
1A3
330
7C
100
AcDbEntity
  8
0
  6
Continuous
 62
     0
370
    30
100
AcDbCircle
 10
492.572815
 20
1043.399737
 30
0.0
 40
1.25
100
AcDbArc
 50
180.0
 51
360.0
  0
ARC
  5
1A4
330
7C
100
AcDbEntity
  8
0
  6
Continuous
 62
     0
370
    30
100
AcDbCircle
 10
492.572815
 20
1043.399737
 30
0.0
 40
1.25
100
AcDbArc
 50
0.0
 51
180.0
  0
ARC
  5
1A5
330
7C
100
AcDbEntity
  8
0
  6
Continuous
 62
     0
370
    30
100
AcDbCircle
 10
492.572815
 20
1048.399737
 30
0.0
 40
1.25
100
AcDbArc
 50
180.0
 51
360.0
  0
ARC
  5
1A6
330
7C
100
AcDbEntity
  8
0
  6
Continuous
 62
     0
370
    30
100
AcDbCircle
 10
492.572815
 20
1048.399737
 30
0.0
 40
1.25
100
AcDbArc
 50
0.0
 51
180.0
  0
ARC
  5
1A7
330
7C
100
AcDbEntity
  8
0
  6
Continuous
 62
     0
370
    30
100
AcDbCircle
 10
492.572815
 20
1053.399737
 30
0.0
 40
1.25
100
AcDbArc
 50
180.0
 51
360.0
  0
ARC
  5
1A8
330
7C
100
AcDbEntity
  8
0
  6
Continuous
 62
     0
370
    30
100
AcDbCircle
 10
492.572815
 20
1053.399737
 30
0.0
 40
1.25
100
AcDbArc
 50
0.0
 51
180.0
  0
ARC
  5
1A9
330
7C
100
AcDbEntity
  8
0
  6
Continuous
 62
     0
370
    30
100
AcDbCircle
 10
492.572815
 20
1058.399737
 30
0.0
 40
1.25
100
AcDbArc
 50
180.0
 51
360.0
  0
ARC
  5
1AA
330
7C
100
AcDbEntity
  8
0
  6
Continuous
 62
     0
370
    30
100
AcDbCircle
 10
492.572815
 20
1058.399737
 30
0.0
 40
1.25
100
AcDbArc
 50
0.0
 51
180.0
  0
ARC
  5
1AB
330
7C
100
AcDbEntity
  8
0
  6
Continuous
 62
     0
370
    30
100
AcDbCircle
 10
492.572815
 20
1063.399737
 30
0.0
 40
1.25
100
AcDbArc
 50
180.0
 51
360.0
  0
ARC
  5
1AC
330
7C
100
AcDbEntity
  8
0
  6
Continuous
 62
     0
370
    30
100
AcDbCircle
 10
492.572815
 20
1063.399737
 30
0.0
 40
1.25
100
AcDbArc
 50
0.0
 51
180.0
  0
ARC
  5
1AD
330
7C
100
AcDbEntity
  8
0
  6
Continuous
 62
     0
370
    30
100
AcDbCircle
 10
492.572815
 20
1068.399737
 30
0.0
 40
1.25
100
AcDbArc
 50
180.0
 51
360.0
  0
ARC
  5
1AE
330
7C
100
AcDbEntity
  8
0
  6
Continuous
 62
     0
370
    30
100
AcDbCircle
 10
492.572815
 20
1068.399737
 30
0.0
 40
1.25
100
AcDbArc
 50
0.0
 51
180.0
  0
ARC
  5
1AF
330
7C
100
AcDbEntity
  8
0
  6
Continuous
 62
     0
370
    30
100
AcDbCircle
 10
492.572815
 20
1073.399737
 30
0.0
 40
1.25
100
AcDbArc
 50
180.0
 51
360.0
  0
ARC
  5
1B0
330
7C
100
AcDbEntity
  8
0
  6
Continuous
 62
     0
370
    30
100
AcDbCircle
 10
492.572815
 20
1073.399737
 30
0.0
 40
1.25
100
AcDbArc
 50
0.0
 51
180.0
  0
ARC
  5
1B1
330
7C
100
AcDbEntity
  8
0
  6
Continuous
 62
     0
370
    30
100
AcDbCircle
 10
492.572815
 20
1078.399737
 30
0.0
 40
1.25
100
AcDbArc
 50
180.0
 51
360.0
  0
ARC
  5
1B2
330
7C
100
AcDbEntity
  8
0
  6
Continuous
 62
     0
370
    30
100
AcDbCircle
 10
492.572815
 20
1078.399737
 30
0.0
 40
1.25
100
AcDbArc
 50
0.0
 51
180.0
  0
ARC
  5
1B3
330
7C
100
AcDbEntity
  8
0
  6
Continuous
 62
     0
370
    30
100
AcDbCircle
 10
492.572815
 20
1083.399737
 30
0.0
 40
1.25
100
AcDbArc
 50
180.0
 51
360.0
  0
ARC
  5
1B4
330
7C
100
AcDbEntity
  8
0
  6
Continuous
 62
     0
370
    30
100
AcDbCircle
 10
492.572815
 20
1083.399737
 30
0.0
 40
1.25
100
AcDbArc
 50
0.0
 51
180.0
  0
ARC
  5
1B5
330
7C
100
AcDbEntity
  8
0
  6
Continuous
 62
     0
370
    30
100
AcDbCircle
 10
492.572815
 20
1088.399737
 30
0.0
 40
1.25
100
AcDbArc
 50
180.0
 51
360.0
  0
ARC
  5
1B6
330
7C
100
AcDbEntity
  8
0
  6
Continuous
 62
     0
370
    30
100
AcDbCircle
 10
492.572815
 20
1088.399737
 30
0.0
 40
1.25
100
AcDbArc
 50
0.0
 51
180.0
  0
ARC
  5
1B7
330
7C
100
AcDbEntity
  8
0
  6
Continuous
 62
     0
370
    30
100
AcDbCircle
 10
492.572815
 20
1093.399737
 30
0.0
 40
1.25
100
AcDbArc
 50
180.0
 51
360.0
  0
ARC
  5
1B8
330
7C
100
AcDbEntity
  8
0
  6
Continuous
 62
     0
370
    30
100
AcDbCircle
 10
492.572815
 20
1093.399737
 30
0.0
 40
1.25
100
AcDbArc
 50
0.0
 51
180.0
  0
ARC
  5
1B9
330
7C
100
AcDbEntity
  8
0
  6
Continuous
 62
     0
370
    30
100
AcDbCircle
 10
492.572815
 20
1098.399737
 30
0.0
 40
1.25
100
AcDbArc
 50
180.0
 51
360.0
  0
ARC
  5
1BA
330
7C
100
AcDbEntity
  8
0
  6
Continuous
 62
     0
370
    30
100
AcDbCircle
 10
492.572815
 20
1098.399737
 30
0.0
 40
1.25
100
AcDbArc
 50
0.0
 51
180.0
  0
ARC
  5
1BB
330
7C
100
AcDbEntity
  8
0
  6
Continuous
 62
     0
370
    30
100
AcDbCircle
 10
495.572815
 20
1100.899737
 30
0.0
 40
1.25
100
AcDbArc
 50
180.0
 51
360.0
  0
ARC
  5
1BC
330
7C
100
AcDbEntity
  8
0
  6
Continuous
 62
     0
370
    30
100
AcDbCircle
 10
495.572815
 20
1100.899737
 30
0.0
 40
1.25
100
AcDbArc
 50
0.0
 51
180.0
  0
ARC
  5
1BD
330
7C
100
AcDbEntity
  8
0
  6
Continuous
 62
     0
370
    30
100
AcDbCircle
 10
495.572815
 20
1095.899737
 30
0.0
 40
1.25
100
AcDbArc
 50
180.0
 51
360.0
  0
ARC
  5
1BE
330
7C
100
AcDbEntity
  8
0
  6
Continuous
 62
     0
370
    30
100
AcDbCircle
 10
495.572815
 20
1095.899737
 30
0.0
 40
1.25
100
AcDbArc
 50
0.0
 51
180.0
  0
ARC
  5
1BF
330
7C
100
AcDbEntity
  8
0
  6
Continuous
 62
     0
370
    30
100
AcDbCircle
 10
495.572815
 20
1090.899737
 30
0.0
 40
1.25
100
AcDbArc
 50
180.0
 51
360.0
  0
ARC
  5
1C0
330
7C
100
AcDbEntity
  8
0
  6
Continuous
 62
     0
370
    30
100
AcDbCircle
 10
495.572815
 20
1090.899737
 30
0.0
 40
1.25
100
AcDbArc
 50
0.0
 51
180.0
  0
ARC
  5
1C1
330
7C
100
AcDbEntity
  8
0
  6
Continuous
 62
     0
370
    30
100
AcDbCircle
 10
495.572815
 20
1085.899737
 30
0.0
 40
1.25
100
AcDbArc
 50
180.0
 51
360.0
  0
ARC
  5
1C2
330
7C
100
AcDbEntity
  8
0
  6
Continuous
 62
     0
370
    30
100
AcDbCircle
 10
495.572815
 20
1085.899737
 30
0.0
 40
1.25
100
AcDbArc
 50
0.0
 51
180.0
  0
ARC
  5
1C3
330
7C
100
AcDbEntity
  8
0
  6
Continuous
 62
     0
370
    30
100
AcDbCircle
 10
495.572815
 20
1080.899737
 30
0.0
 40
1.25
100
AcDbArc
 50
180.0
 51
360.0
  0
ARC
  5
1C4
330
7C
100
AcDbEntity
  8
0
  6
Continuous
 62
     0
370
    30
100
AcDbCircle
 10
495.572815
 20
1080.899737
 30
0.0
 40
1.25
100
AcDbArc
 50
0.0
 51
180.0
  0
ARC
  5
1C5
330
7C
100
AcDbEntity
  8
0
  6
Continuous
 62
     0
370
    30
100
AcDbCircle
 10
495.572815
 20
1075.899737
 30
0.0
 40
1.25
100
AcDbArc
 50
180.0
 51
360.0
  0
ARC
  5
1C6
330
7C
100
AcDbEntity
  8
0
  6
Continuous
 62
     0
370
    30
100
AcDbCircle
 10
495.572815
 20
1075.899737
 30
0.0
 40
1.25
100
AcDbArc
 50
0.0
 51
180.0
  0
ARC
  5
1C7
330
7C
100
AcDbEntity
  8
0
  6
Continuous
 62
     0
370
    30
100
AcDbCircle
 10
495.572815
 20
1070.899737
 30
0.0
 40
1.25
100
AcDbArc
 50
180.0
 51
360.0
  0
ARC
  5
1C8
330
7C
100
AcDbEntity
  8
0
  6
Continuous
 62
     0
370
    30
100
AcDbCircle
 10
495.572815
 20
1070.899737
 30
0.0
 40
1.25
100
AcDbArc
 50
0.0
 51
180.0
  0
ARC
  5
1C9
330
7C
100
AcDbEntity
  8
0
  6
Continuous
 62
     0
370
    30
100
AcDbCircle
 10
495.572815
 20
1065.899737
 30
0.0
 40
1.25
100
AcDbArc
 50
180.0
 51
360.0
  0
ARC
  5
1CA
330
7C
100
AcDbEntity
  8
0
  6
Continuous
 62
     0
370
    30
100
AcDbCircle
 10
495.572815
 20
1065.899737
 30
0.0
 40
1.25
100
AcDbArc
 50
0.0
 51
180.0
  0
ARC
  5
1CB
330
7C
100
AcDbEntity
  8
0
  6
Continuous
 62
     0
370
    30
100
AcDbCircle
 10
495.572815
 20
1060.899737
 30
0.0
 40
1.25
100
AcDbArc
 50
180.0
 51
360.0
  0
ARC
  5
1CC
330
7C
100
AcDbEntity
  8
0
  6
Continuous
 62
     0
370
    30
100
AcDbCircle
 10
495.572815
 20
1060.899737
 30
0.0
 40
1.25
100
AcDbArc
 50
0.0
 51
180.0
  0
ARC
  5
1CD
330
7C
100
AcDbEntity
  8
0
  6
Continuous
 62
     0
370
    30
100
AcDbCircle
 10
495.572815
 20
1055.899737
 30
0.0
 40
1.25
100
AcDbArc
 50
180.0
 51
360.0
  0
ARC
  5
1CE
330
7C
100
AcDbEntity
  8
0
  6
Continuous
 62
     0
370
    30
100
AcDbCircle
 10
495.572815
 20
1055.899737
 30
0.0
 40
1.25
100
AcDbArc
 50
0.0
 51
180.0
  0
ARC
  5
1CF
330
7C
100
AcDbEntity
  8
0
  6
Continuous
 62
     0
370
    30
100
AcDbCircle
 10
495.572815
 20
1050.899737
 30
0.0
 40
1.25
100
AcDbArc
 50
180.0
 51
360.0
  0
ARC
  5
1D0
330
7C
100
AcDbEntity
  8
0
  6
Continuous
 62
     0
370
    30
100
AcDbCircle
 10
495.572815
 20
1050.899737
 30
0.0
 40
1.25
100
AcDbArc
 50
0.0
 51
180.0
  0
ARC
  5
1D1
330
7C
100
AcDbEntity
  8
0
  6
Continuous
 62
     0
370
    30
100
AcDbCircle
 10
495.572815
 20
1045.899737
 30
0.0
 40
1.25
100
AcDbArc
 50
180.0
 51
360.0
  0
ARC
  5
1D2
330
7C
100
AcDbEntity
  8
0
  6
Continuous
 62
     0
370
    30
100
AcDbCircle
 10
495.572815
 20
1045.899737
 30
0.0
 40
1.25
100
AcDbArc
 50
0.0
 51
180.0
  0
ARC
  5
1D3
330
7C
100
AcDbEntity
  8
0
  6
Continuous
 62
     0
370
    30
100
AcDbCircle
 10
484.572815
 20
1085.899737
 30
0.0
 40
1.25
100
AcDbArc
 50
180.0
 51
360.0
  0
ARC
  5
1D4
330
7C
100
AcDbEntity
  8
0
  6
Continuous
 62
     0
370
    30
100
AcDbCircle
 10
484.572815
 20
1085.899737
 30
0.0
 40
1.25
100
AcDbArc
 50
0.0
 51
180.0
  0
LINE
  5
1D5
330
7C
100
AcDbEntity
  8
0
  6
Continuous
 62
     0
370
    30
100
AcDbLine
 10
470.072815
 20
914.485489
 30
0.0
 11
470.072815
 21
934.485489
 31
0.0
  0
LINE
  5
1D6
330
7C
100
AcDbEntity
  8
0
  6
Continuous
 62
     0
370
    30
100
AcDbLine
 10
470.072815
 20
914.485489
 30
0.0
 11
480.072815
 21
914.485489
 31
0.0
  0
LINE
  5
1D7
330
7C
100
AcDbEntity
  8
0
  6
Continuous
 62
     0
370
     0
100
AcDbLine
 10
480.072815
 20
914.485489
 30
0.0
 11
480.072815
 21
934.485489
 31
0.0
  0
LINE
  5
1D8
330
7C
100
AcDbEntity
  8
0
  6
Continuous
 62
     0
370
    30
100
AcDbLine
 10
480.072815
 20
934.485489
 30
0.0
 11
470.072815
 21
934.485489
 31
0.0
  0
LINE
  5
1D9
330
7C
100
AcDbEntity
  8
0
  6
Continuous
 62
     0
370
    30
100
AcDbLine
 10
480.072815
 20
914.485489
 30
0.0
 11
481.572815
 21
914.485489
 31
0.0
  0
LINE
  5
1DA
330
7C
100
AcDbEntity
  8
0
  6
Continuous
 62
     0
370
    30
100
AcDbLine
 10
481.572815
 20
914.485489
 30
0.0
 11
481.572815
 21
934.485489
 31
0.0
  0
LINE
  5
1DB
330
7C
100
AcDbEntity
  8
0
  6
Continuous
 62
     0
370
    30
100
AcDbLine
 10
481.572815
 20
934.485489
 30
0.0
 11
480.072815
 21
934.485489
 31
0.0
  0
LINE
  5
1DC
330
7C
100
AcDbEntity
  8
0
  6
Continuous
 62
     0
370
    30
100
AcDbLine
 10
498.572815
 20
914.485489
 30
0.0
 11
498.572815
 21
934.485489
 31
0.0
  0
LINE
  5
1DD
330
7C
100
AcDbEntity
  8
0
  6
Continuous
 62
     0
370
    30
100
AcDbLine
 10
498.572815
 20
914.485489
 30
0.0
 11
500.072815
 21
914.485489
 31
0.0
  0
LINE
  5
1DE
330
7C
100
AcDbEntity
  8
0
  6
Continuous
 62
     0
370
     0
100
AcDbLine
 10
500.072815
 20
914.485489
 30
0.0
 11
500.072815
 21
934.485489
 31
0.0
  0
LINE
  5
1DF
330
7C
100
AcDbEntity
  8
0
  6
Continuous
 62
     0
370
    30
100
AcDbLine
 10
500.072815
 20
934.485489
 30
0.0
 11
498.572815
 21
934.485489
 31
0.0
  0
LINE
  5
1E0
330
7C
100
AcDbEntity
  8
0
  6
Continuous
 62
     0
370
    30
100
AcDbLine
 10
500.072815
 20
914.485489
 30
0.0
 11
510.072815
 21
914.485489
 31
0.0
  0
LINE
  5
1E1
330
7C
100
AcDbEntity
  8
0
  6
Continuous
 62
     0
370
    30
100
AcDbLine
 10
510.072815
 20
914.485489
 30
0.0
 11
510.072815
 21
934.485489
 31
0.0
  0
LINE
  5
1E2
330
7C
100
AcDbEntity
  8
0
  6
Continuous
 62
     0
370
    30
100
AcDbLine
 10
510.072815
 20
934.485489
 30
0.0
 11
500.072815
 21
934.485489
 31
0.0
  0
LINE
  5
1E3
330
7C
100
AcDbEntity
  8
0
  6
Continuous
 62
     0
370
     0
100
AcDbLine
 10
500.158079
 20
908.485489
 30
0.0
 11
501.472815
 21
908.485489
 31
0.0
  0
LINE
  5
1E4
330
7C
100
AcDbEntity
  8
0
  6
Continuous
 62
     0
370
     0
100
AcDbLine
 10
478.672815
 20
908.485489
 30
0.0
 11
479.987551
 21
908.485489
 31
0.0
  0
LINE
  5
1E5
330
7C
100
AcDbEntity
  8
0
  6
Continuous
 62
     0
370
    30
100
AcDbLine
 10
500.147745
 20
908.285489
 30
0.0
 11
501.272815
 21
908.285489
 31
0.0
  0
LINE
  5
1E6
330
7C
100
AcDbEntity
  8
0
  6
Continuous
 62
     0
370
    30
100
AcDbLine
 10
478.872815
 20
908.285489
 30
0.0
 11
479.997884
 21
908.285489
 31
0.0
  0
LINE
  5
1E7
330
7C
100
AcDbEntity
  8
0
  6
Continuous
 62
     0
370
    30
100
AcDbLine
 10
480.172815
 20
904.899737
 30
0.0
 11
481.4215
 21
904.899737
 31
0.0
  0
LINE
  5
1E8
330
7C
100
AcDbEntity
  8
0
  6
Continuous
 62
     0
370
    30
100
AcDbLine
 10
481.4215
 20
904.899737
 30
0.0
 11
499.972815
 21
904.899737
 31
0.0
  0
LINE
  5
1E9
330
7C
100
AcDbEntity
  8
0
  6
Continuous
 62
     0
370
    30
100
AcDbLine
 10
500.117649
 20
907.702984
 30
0.0
 11
501.522815
 21
907.702984
 31
0.0
  0
LINE
  5
1EA
330
7C
100
AcDbEntity
  8
0
  6
Continuous
 62
     0
370
    30
100
AcDbLine
 10
478.622815
 20
907.702984
 30
0.0
 11
480.027981
 21
907.702984
 31
0.0
  0
LINE
  5
1EB
330
7C
100
AcDbEntity
  8
0
  6
Continuous
 62
     0
370
    30
100
AcDbLine
 10
496.072815
 20
877.702984
 30
0.0
 11
499.972815
 21
877.702984
 31
0.0
  0
LINE
  5
1EC
330
7C
100
AcDbEntity
  8
0
  6
Continuous
 62
     0
370
    30
100
AcDbLine
 10
480.172815
 20
877.702984
 30
0.0
 11
484.072815
 21
877.702984
 31
0.0
  0
LINE
  5
1ED
330
7C
100
AcDbEntity
  8
0
  6
Continuous
 62
     0
370
     0
100
AcDbLine
 10
460.572815
 20
954.485489
 30
0.0
 11
460.572815
 21
953.985489
 31
0.0
  0
ARC
  5
1EE
330
7C
100
AcDbEntity
  8
0
  6
Continuous
 62
     0
370
    30
100
AcDbCircle
 10
460.572815
 20
953.985489
 30
0.0
 40
0.5
100
AcDbArc
 50
90.0
 51
180.0
  0
LINE
  5
1EF
330
7C
100
AcDbEntity
  8
0
  6
Continuous
 62
     0
370
     0
100
AcDbLine
 10
460.072815
 20
953.985489
 30
0.0
 11
460.572815
 21
953.985489
 31
0.0
  0
LINE
  5
1F0
330
7C
100
AcDbEntity
  8
0
  6
Continuous
 62
     0
370
     0
100
AcDbLine
 10
520.072815
 20
953.985489
 30
0.0
 11
519.572815
 21
953.985489
 31
0.0
  0
ARC
  5
1F1
330
7C
100
AcDbEntity
  8
0
  6
Continuous
 62
     0
370
    30
100
AcDbCircle
 10
519.572815
 20
953.985489
 30
0.0
 40
0.5
100
AcDbArc
 50
0.0
 51
90.0
  0
LINE
  5
1F2
330
7C
100
AcDbEntity
  8
0
  6
Continuous
 62
     0
370
     0
100
AcDbLine
 10
519.572815
 20
954.485489
 30
0.0
 11
519.572815
 21
953.985489
 31
0.0
  0
LINE
  5
1F3
330
7C
100
AcDbEntity
  8
0
  6
Continuous
 62
     0
370
     0
100
AcDbLine
 10
501.822815
 20
953.985489
 30
0.0
 11
519.572815
 21
953.985489
 31
0.0
  0
LINE
  5
1F4
330
7C
100
AcDbEntity
  8
0
  6
Continuous
 62
     0
370
     0
100
AcDbLine
 10
460.572815
 20
953.985489
 30
0.0
 11
478.322815
 21
953.985489
 31
0.0
  0
LINE
  5
1F5
330
7C
100
AcDbEntity
  8
0
  6
Continuous
 62
     0
370
    30
100
AcDbLine
 10
501.822815
 20
954.485489
 30
0.0
 11
519.572815
 21
954.485489
 31
0.0
  0
LINE
  5
1F6
330
7C
100
AcDbEntity
  8
0
  6
Continuous
 62
     0
370
    30
100
AcDbLine
 10
460.572815
 20
954.485489
 30
0.0
 11
478.322815
 21
954.485489
 31
0.0
  0
LINE
  5
1F7
330
7C
100
AcDbEntity
  8
0
  6
Continuous
 62
     0
370
     0
100
AcDbLine
 10
460.072815
 20
894.985489
 30
0.0
 11
460.572815
 21
894.985489
 31
0.0
  0
LINE
  5
1F8
330
7C
100
AcDbEntity
  8
0
  6
Continuous
 62
     0
370
    30
100
AcDbLine
 10
460.072815
 20
894.985489
 30
0.0
 11
460.072815
 21
953.985489
 31
0.0
  0
LINE
  5
1F9
330
7C
100
AcDbEntity
  8
0
  6
Continuous
 62
     0
370
     0
100
AcDbLine
 10
460.572815
 20
894.985489
 30
0.0
 11
460.572815
 21
953.985489
 31
0.0
  0
ARC
  5
1FA
330
7C
100
AcDbEntity
  8
0
  6
Continuous
 62
     0
370
    30
100
AcDbCircle
 10
460.572815
 20
894.985489
 30
0.0
 40
0.5
100
AcDbArc
 50
180.0
 51
270.0
  0
LINE
  5
1FB
330
7C
100
AcDbEntity
  8
0
  6
Continuous
 62
     0
370
     0
100
AcDbLine
 10
460.572815
 20
894.485489
 30
0.0
 11
460.572815
 21
894.985489
 31
0.0
  0
LINE
  5
1FC
330
7C
100
AcDbEntity
  8
0
  6
Continuous
 62
     0
370
     0
100
AcDbLine
 10
519.572815
 20
894.485489
 30
0.0
 11
519.572815
 21
894.985489
 31
0.0
  0
LINE
  5
1FD
330
7C
100
AcDbEntity
  8
0
  6
Continuous
 62
     0
370
    30
100
AcDbLine
 10
479.305719
 20
894.485489
 30
0.0
 11
460.572815
 21
894.485489
 31
0.0
  0
LINE
  5
1FE
330
7C
100
AcDbEntity
  8
0
  6
Continuous
 62
     0
370
    30
100
AcDbLine
 10
519.572815
 20
894.485489
 30
0.0
 11
500.839912
 21
894.485489
 31
0.0
  0
LINE
  5
1FF
330
7C
100
AcDbEntity
  8
0
  6
Continuous
 62
     0
370
     0
100
AcDbLine
 10
479.279886
 20
894.985489
 30
0.0
 11
460.572815
 21
894.985489
 31
0.0
  0
LINE
  5
200
330
7C
100
AcDbEntity
  8
0
  6
Continuous
 62
     0
370
     0
100
AcDbLine
 10
519.572815
 20
894.985489
 30
0.0
 11
500.865745
 21
894.985489
 31
0.0
  0
ARC
  5
201
330
7C
100
AcDbEntity
  8
0
  6
Continuous
 62
     0
370
    30
100
AcDbCircle
 10
519.572815
 20
894.985489
 30
0.0
 40
0.5
100
AcDbArc
 50
270.0
 51
360.0
  0
LINE
  5
202
330
7C
100
AcDbEntity
  8
0
  6
Continuous
 62
     0
370
     0
100
AcDbLine
 10
520.072815
 20
894.985489
 30
0.0
 11
519.572815
 21
894.985489
 31
0.0
  0
LINE
  5
203
330
7C
100
AcDbEntity
  8
0
  6
Continuous
 62
     0
370
     0
100
AcDbLine
 10
519.572815
 20
953.985489
 30
0.0
 11
519.572815
 21
894.985489
 31
0.0
  0
LINE
  5
204
330
7C
100
AcDbEntity
  8
0
  6
Continuous
 62
     0
370
    30
100
AcDbLine
 10
520.072815
 20
953.985489
 30
0.0
 11
520.072815
 21
894.985489
 31
0.0
  0
LINE
  5
205
330
7C
100
AcDbEntity
  8
0
  6
Continuous
 62
     0
370
    30
100
AcDbLine
 10
496.072815
 20
904.899737
 30
0.0
 11
496.072815
 21
669.123906
 31
0.0
  0
ELLIPSE
  5
206
330
7C
100
AcDbEntity
  8
0
  6
Continuous
 62
     0
370
    30
100
AcDbEllipse
 10
490.072815
 20
904.899737
 30
0.0
 11
-6.0
 21
-3.673819061467132E-16
 31
0.0
210
0.0
220
0.0
230
1.0
 40
0.004461
 41
-0.0000000000000133
 42
3.141592653589779
  0
LINE
  5
207
330
7C
100
AcDbEntity
  8
0
  6
Continuous
 62
     0
370
    30
100
AcDbLine
 10
478.622815
 20
907.702984
 30
0.0
 11
480.172815
 21
877.702984
 31
0.0
  0
LINE
  5
208
330
7C
100
AcDbEntity
  8
0
  6
Continuous
 62
     0
370
    30
100
AcDbLine
 10
501.522815
 20
907.702984
 30
0.0
 11
499.972815
 21
877.702984
 31
0.0
  0
LINE
  5
209
330
7C
100
AcDbEntity
  8
0
  6
Continuous
 62
     0
370
    30
100
AcDbLine
 10
501.522815
 20
934.899737
 30
0.0
 11
501.501412
 21
934.485489
 31
0.0
  0
LINE
  5
20A
330
7C
100
AcDbEntity
  8
0
  6
Continuous
 62
     0
370
    30
100
AcDbLine
 10
500.468079
 20
914.485489
 30
0.0
 11
499.972815
 21
904.899737
 31
0.0
  0
LINE
  5
20B
330
7C
100
AcDbEntity
  8
0
  6
Continuous
 62
     0
370
    30
100
AcDbLine
 10
478.622815
 20
934.899737
 30
0.0
 11
478.644218
 21
934.485489
 31
0.0
  0
LINE
  5
20C
330
7C
100
AcDbEntity
  8
0
  6
Continuous
 62
     0
370
    30
100
AcDbLine
 10
479.677551
 20
914.485489
 30
0.0
 11
480.172815
 21
904.899737
 31
0.0
  0
ARC
  5
20D
330
7C
100
AcDbEntity
  8
0
  6
Continuous
 62
     0
370
    30
100
AcDbCircle
 10
490.072816
 20
669.123119
 30
0.0
 40
5.999998684348228
100
AcDbArc
 50
179.991826
 51
359.975095
  0
LINE
  5
20E
330
7C
100
AcDbEntity
  8
0
  6
Continuous
 62
     0
370
    30
100
AcDbLine
 10
484.072815
 20
669.123975
 30
0.0
 11
484.072815
 21
904.899737
 31
0.0
  0
ARC
  5
20F
330
7C
100
AcDbEntity
  8
0
  6
Continuous
 62
     0
370
    30
100
AcDbCircle
 10
478.872855
 20
908.485521
 30
0.0
 40
0.2000321401818105
100
AcDbArc
 50
180.009203
 51
269.983999
  0
ARC
  5
210
330
7C
100
AcDbEntity
  8
0
  6
Continuous
 62
     0
370
    30
100
AcDbCircle
 10
501.272771
 20
908.485521
 30
0.0
 40
0.2000320982940254
100
AcDbArc
 50
270.016586
 51
359.990809
  0
LINE
  5
211
330
7C
100
AcDbEntity
  8
0
  6
Continuous
 62
     0
370
    30
100
AcDbLine
 10
501.472815
 20
908.485489
 30
0.0
 11
501.472815
 21
914.485489
 31
0.0
  0
LINE
  5
212
330
7C
100
AcDbEntity
  8
0
  6
Continuous
 62
     0
370
    30
100
AcDbLine
 10
478.672815
 20
908.485489
 30
0.0
 11
478.672815
 21
914.485489
 31
0.0
  0
ENDBLK
  5
214
330
7C
100
AcDbEntity
  8
0
100
AcDbBlockEnd
  0
BLOCK
  5
2D2
330
216
100
AcDbEntity
  8
0
100
AcDbBlockBegin
  2
b
 70
     0
 10
24.894691
 20
258.845642
 30
0.0
  3
b
  1

  0
ARC
  5
217
330
216
100
AcDbEntity
  8
0
  6
Continuous
 62
     0
370
    30
100
AcDbCircle
 10
360.572815
 20
408.410506
 30
0.0
 40
0.5
100
AcDbArc
 50
180.0
 51
270.0
  0
LINE
  5
218
330
216
100
AcDbEntity
  8
0
  6
Continuous
 62
     0
370
     0
100
AcDbLine
 10
360.572815
 20
408.410506
 30
0.0
 11
360.572815
 21
407.910506
 31
0.0
  0
LINE
  5
219
330
216
100
AcDbEntity
  8
0
  6
Continuous
 62
     0
370
    30
100
AcDbLine
 10
360.572815
 20
407.910506
 30
0.0
 11
416.572815
 21
407.910506
 31
0.0
  0
LINE
  5
21A
330
216
100
AcDbEntity
  8
0
  6
Continuous
 62
     0
370
     0
100
AcDbLine
 10
416.572815
 20
407.910506
 30
0.0
 11
416.572815
 21
408.410506
 31
0.0
  0
LINE
  5
21B
330
216
100
AcDbEntity
  8
0
  6
Continuous
 62
     0
370
     0
100
AcDbLine
 10
416.572815
 20
408.410506
 30
0.0
 11
360.572815
 21
408.410506
 31
0.0
  0
ARC
  5
21C
330
216
100
AcDbEntity
  8
0
  6
Continuous
 62
     0
370
    30
100
AcDbCircle
 10
416.572815
 20
408.410506
 30
0.0
 40
0.5
100
AcDbArc
 50
270.0
 51
0.0
  0
LINE
  5
21D
330
216
100
AcDbEntity
  8
0
  6
Continuous
 62
     0
370
     0
100
AcDbLine
 10
417.072815
 20
408.410506
 30
0.0
 11
416.572815
 21
408.410506
 31
0.0
  0
LINE
  5
21E
330
216
100
AcDbEntity
  8
0
  6
Continuous
 62
     0
370
     0
100
AcDbLine
 10
360.572815
 20
408.410506
 30
0.0
 11
360.072815
 21
408.410506
 31
0.0
  0
LINE
  5
21F
330
216
100
AcDbEntity
  8
0
  6
Continuous
 62
     0
370
    30
100
AcDbLine
 10
417.072815
 20
408.410506
 30
0.0
 11
417.072815
 21
418.130506
 31
0.0
  0
LINE
  5
220
330
216
100
AcDbEntity
  8
0
  6
Continuous
 62
     0
370
    30
100
AcDbLine
 10
417.072815
 20
418.130506
 30
0.0
 11
416.572815
 21
418.130506
 31
0.0
  0
LINE
  5
221
330
216
100
AcDbEntity
  8
0
  6
Continuous
 62
     0
370
     0
100
AcDbLine
 10
416.572815
 20
418.130506
 30
0.0
 11
416.572815
 21
408.410506
 31
0.0
  0
LINE
  5
222
330
216
100
AcDbEntity
  8
0
  6
Continuous
 62
     0
370
     0
100
AcDbLine
 10
360.572815
 20
408.410506
 30
0.0
 11
360.572815
 21
418.130506
 31
0.0
  0
LINE
  5
223
330
216
100
AcDbEntity
  8
0
  6
Continuous
 62
     0
370
    30
100
AcDbLine
 10
360.572815
 20
418.130506
 30
0.0
 11
360.072815
 21
418.130506
 31
0.0
  0
LINE
  5
224
330
216
100
AcDbEntity
  8
0
  6
Continuous
 62
     0
370
    30
100
AcDbLine
 10
360.072815
 20
418.130506
 30
0.0
 11
360.072815
 21
408.410506
 31
0.0
  0
LINE
  5
225
330
216
100
AcDbEntity
  8
0
  6
Continuous
 62
     0
370
    30
100
AcDbLine
 10
416.572815
 20
418.130506
 30
0.0
 11
360.572815
 21
418.130506
 31
0.0
  0
ARC
  5
226
330
216
100
AcDbEntity
  8
0
  6
Continuous
 62
     0
370
     0
100
AcDbCircle
 10
408.046055
 20
407.183746
 30
0.0
 40
0.5274396667036028
100
AcDbArc
 50
2.908246
 51
87.091773
  0
ARC
  5
227
330
216
100
AcDbEntity
  8
0
  6
Continuous
 62
     0
370
    30
100
AcDbCircle
 10
409.07309
 20
407.210232
 30
0.0
 40
0.5002746874477331
100
AcDbArc
 50
90.031451
 51
179.968549
  0
LINE
  5
228
330
216
100
AcDbEntity
  8
0
  6
Continuous
 62
     0
370
    30
100
AcDbLine
 10
408.572815
 20
407.210507
 30
0.0
 11
408.572815
 21
400.710507
 31
0.0
  0
LINE
  5
229
330
216
100
AcDbEntity
  8
0
  6
Continuous
 62
     0
370
    30
100
AcDbLine
 10
408.572815
 20
400.710507
 30
0.0
 11
408.572815
 21
380.210507
 31
0.0
  0
SPLINE
  5
22A
330
216
100
AcDbEntity
  8
0
  6
Continuous
 62
     0
370
     0
100
AcDbSpline
210
0.0
220
0.0
230
1.0
 70
    28
 71
     2
 72
     8
 73
     5
 74
     0
 42
0.000000001
 43
0.0
 40
0.3750000000000001
 40
0.3750000000000001
 40
0.3750000000000001
 40
0.5
 40
0.5
 40
0.625
 40
0.625
 40
0.625
 10
408.0728149414031
 20
407.7105066525305
 30
0.0
 41
0.8535533905932637
 10
408.0728149414039
 20
407.7105067792713
 30
0.0
 41
0.8535533905932638
 10
408.0728149414044
 20
405.6602543371965
 30
0.0
 41
0.9999999999999882
 10
408.0728149414049
 20
403.6100018951217
 30
0.0
 41
0.8535533905932637
 10
408.0728149414049
 20
400.7105069585101
 30
0.0
 41
0.8535533905932637
  0
LINE
  5
22B
330
216
100
AcDbEntity
  8
0
  6
Continuous
 62
     0
370
     0
100
AcDbLine
 10
408.072815
 20
400.710507
 30
0.0
 11
408.572815
 21
400.710507
 31
0.0
  0
ARC
  5
22C
330
216
100
AcDbEntity
  8
0
  6
Continuous
 62
     0
370
    30
100
AcDbCircle
 10
368.072815
 20
407.210507
 30
0.0
 40
0.5
100
AcDbArc
 50
360.0
 51
90.0
  0
ARC
  5
22D
330
216
100
AcDbEntity
  8
0
  6
Continuous
 62
     0
370
     0
100
AcDbCircle
 10
369.099567
 20
407.183755
 30
0.0
 40
0.527431015525168
100
AcDbArc
 50
92.907378
 51
177.092603
  0
LINE
  5
22E
330
216
100
AcDbEntity
  8
0
  6
Continuous
 62
     0
370
    30
100
AcDbLine
 10
368.572815
 20
407.210507
 30
0.0
 11
368.572815
 21
400.710507
 31
0.0
  0
LINE
  5
22F
330
216
100
AcDbEntity
  8
0
  6
Continuous
 62
     0
370
     0
100
AcDbLine
 10
368.572815
 20
400.710507
 30
0.0
 11
369.072815
 21
400.710507
 31
0.0
  0
LINE
  5
230
330
216
100
AcDbEntity
  8
0
  6
Continuous
 62
     0
370
     0
100
AcDbLine
 10
369.072815
 20
400.710507
 30
0.0
 11
369.072815
 21
407.710507
 31
0.0
  0
LINE
  5
231
330
216
100
AcDbEntity
  8
0
  6
Continuous
 62
     0
370
    30
100
AcDbLine
 10
368.572815
 20
380.210507
 30
0.0
 11
368.572815
 21
400.710507
 31
0.0
  0
ARC
  5
232
330
216
100
AcDbEntity
  8
0
  6
Continuous
 62
     0
370
    30
100
AcDbCircle
 10
408.072815
 20
380.210507
 30
0.0
 40
0.5000000000033893
100
AcDbArc
 50
270.0
 51
360.0
  0
LINE
  5
233
330
216
100
AcDbEntity
  8
0
  6
Continuous
 62
     0
370
     0
100
AcDbLine
 10
408.572815
 20
380.210507
 30
0.0
 11
408.072815
 21
380.210507
 31
0.0
  0
LINE
  5
234
330
216
100
AcDbEntity
  8
0
  6
Continuous
 62
     0
370
     0
100
AcDbLine
 10
408.072815
 20
380.210507
 30
0.0
 11
408.072815
 21
379.710507
 31
0.0
  0
SPLINE
  5
235
330
216
100
AcDbEntity
  8
0
  6
Continuous
 62
     0
370
     0
100
AcDbSpline
210
0.0
220
0.0
230
1.0
 70
    28
 71
     2
 72
     6
 73
     3
 74
     0
 42
0.000000001
 43
0.0
 40
0.0
 40
0.0
 40
0.0
 40
0.4999999999999951
 40
0.4999999999999951
 40
0.4999999999999951
 10
369.072814941405
 20
379.7105069803658
 30
0.0
 41
0.9999999999994089
 10
369.0728149414042
 20
379.7105069585101
 30
0.0
 41
0.7071067811861295
 10
369.0728149414042
 20
380.2105069585101
 30
0.0
 41
0.9999999999994089
  0
LINE
  5
236
330
216
100
AcDbEntity
  8
0
  6
Continuous
 62
     0
370
     0
100
AcDbLine
 10
369.072815
 20
380.210507
 30
0.0
 11
368.572815
 21
380.210507
 31
0.0
  0
ARC
  5
237
330
216
100
AcDbEntity
  8
0
  6
Continuous
 62
     0
370
    30
100
AcDbCircle
 10
369.072815
 20
380.210507
 30
0.0
 40
0.5000000000004476
100
AcDbArc
 50
180.0
 51
270.0
  0
LINE
  5
238
330
216
100
AcDbEntity
  8
0
  6
Continuous
 62
     0
370
     0
100
AcDbLine
 10
408.072815
 20
380.210507
 30
0.0
 11
369.072815
 21
380.210507
 31
0.0
  0
LINE
  5
239
330
216
100
AcDbEntity
  8
0
  6
Continuous
 62
     0
370
    30
100
AcDbLine
 10
369.072815
 20
379.710507
 30
0.0
 11
408.072815
 21
379.710507
 31
0.0
  0
LINE
  5
23A
330
216
100
AcDbEntity
  8
0
  6
Continuous
 62
     0
370
     0
100
AcDbLine
 10
369.072815
 20
380.210507
 30
0.0
 11
369.072815
 21
400.710507
 31
0.0
  0
LINE
  5
23B
330
216
100
AcDbEntity
  8
0
  6
Continuous
 62
     0
370
     0
100
AcDbLine
 10
408.072815
 20
400.710507
 30
0.0
 11
408.072815
 21
380.210507
 31
0.0
  0
LINE
  5
23C
330
216
100
AcDbEntity
  8
0
  6
Continuous
 62
     0
370
     0
100
AcDbLine
 10
408.072815
 20
400.710507
 30
0.0
 11
369.072815
 21
400.710507
 31
0.0
  0
LINE
  5
23D
330
216
100
AcDbEntity
  8
0
  6
Continuous
 62
     0
370
    30
100
AcDbLine
 10
412.572815
 20
407.710507
 30
0.0
 11
364.572815
 21
407.710507
 31
0.0
  0
LINE
  5
23E
330
216
100
AcDbEntity
  8
0
  6
Continuous
 62
     0
370
    30
100
AcDbLine
 10
412.572815
 20
407.910507
 30
0.0
 11
412.572815
 21
407.710507
 31
0.0
  0
LINE
  5
23F
330
216
100
AcDbEntity
  8
0
  6
Continuous
 62
     0
370
    30
100
AcDbLine
 10
364.572815
 20
407.910507
 30
0.0
 11
364.572815
 21
407.710507
 31
0.0
  0
ARC
  5
240
330
216
100
AcDbEntity
  8
0
  6
Continuous
 62
     0
370
    30
100
AcDbCircle
 10
216.572815
 20
408.410506
 30
0.0
 40
0.5
100
AcDbArc
 50
270.0
 51
0.0
  0
LINE
  5
241
330
216
100
AcDbEntity
  8
0
  6
Continuous
 62
     0
370
     0
100
AcDbLine
 10
216.572815
 20
408.410506
 30
0.0
 11
216.572815
 21
407.910506
 31
0.0
  0
LINE
  5
242
330
216
100
AcDbEntity
  8
0
  6
Continuous
 62
     0
370
    30
100
AcDbLine
 10
216.572815
 20
407.910506
 30
0.0
 11
160.572815
 21
407.910506
 31
0.0
  0
LINE
  5
243
330
216
100
AcDbEntity
  8
0
  6
Continuous
 62
     0
370
     0
100
AcDbLine
 10
160.572815
 20
407.910506
 30
0.0
 11
160.572815
 21
408.410506
 31
0.0
  0
LINE
  5
244
330
216
100
AcDbEntity
  8
0
  6
Continuous
 62
     0
370
     0
100
AcDbLine
 10
160.572815
 20
408.410506
 30
0.0
 11
216.572815
 21
408.410506
 31
0.0
  0
ARC
  5
245
330
216
100
AcDbEntity
  8
0
  6
Continuous
 62
     0
370
    30
100
AcDbCircle
 10
160.572815
 20
408.410506
 30
0.0
 40
0.5
100
AcDbArc
 50
180.0
 51
270.0
  0
LINE
  5
246
330
216
100
AcDbEntity
  8
0
  6
Continuous
 62
     0
370
     0
100
AcDbLine
 10
160.072815
 20
408.410506
 30
0.0
 11
160.572815
 21
408.410506
 31
0.0
  0
LINE
  5
247
330
216
100
AcDbEntity
  8
0
  6
Continuous
 62
     0
370
     0
100
AcDbLine
 10
216.572815
 20
408.410506
 30
0.0
 11
217.072815
 21
408.410506
 31
0.0
  0
LINE
  5
248
330
216
100
AcDbEntity
  8
0
  6
Continuous
 62
     0
370
    30
100
AcDbLine
 10
160.072815
 20
408.410506
 30
0.0
 11
160.072815
 21
418.130506
 31
0.0
  0
LINE
  5
249
330
216
100
AcDbEntity
  8
0
  6
Continuous
 62
     0
370
    30
100
AcDbLine
 10
160.072815
 20
418.130506
 30
0.0
 11
160.572815
 21
418.130506
 31
0.0
  0
LINE
  5
24A
330
216
100
AcDbEntity
  8
0
  6
Continuous
 62
     0
370
     0
100
AcDbLine
 10
160.572815
 20
418.130506
 30
0.0
 11
160.572815
 21
408.410506
 31
0.0
  0
LINE
  5
24B
330
216
100
AcDbEntity
  8
0
  6
Continuous
 62
     0
370
     0
100
AcDbLine
 10
216.572815
 20
408.410506
 30
0.0
 11
216.572815
 21
418.130506
 31
0.0
  0
LINE
  5
24C
330
216
100
AcDbEntity
  8
0
  6
Continuous
 62
     0
370
    30
100
AcDbLine
 10
216.572815
 20
418.130506
 30
0.0
 11
217.072815
 21
418.130506
 31
0.0
  0
LINE
  5
24D
330
216
100
AcDbEntity
  8
0
  6
Continuous
 62
     0
370
    30
100
AcDbLine
 10
217.072815
 20
418.130506
 30
0.0
 11
217.072815
 21
408.410506
 31
0.0
  0
LINE
  5
24E
330
216
100
AcDbEntity
  8
0
  6
Continuous
 62
     0
370
    30
100
AcDbLine
 10
160.572815
 20
418.130506
 30
0.0
 11
216.572815
 21
418.130506
 31
0.0
  0
ARC
  5
24F
330
216
100
AcDbEntity
  8
0
  6
Continuous
 62
     0
370
     0
100
AcDbCircle
 10
169.099575
 20
407.183746
 30
0.0
 40
0.5274396667070629
100
AcDbArc
 50
92.908227
 51
177.091754
  0
ARC
  5
250
330
216
100
AcDbEntity
  8
0
  6
Continuous
 62
     0
370
    30
100
AcDbCircle
 10
168.07254
 20
407.210232
 30
0.0
 40
0.5002746874501112
100
AcDbArc
 50
0.031451
 51
89.968549
  0
LINE
  5
251
330
216
100
AcDbEntity
  8
0
  6
Continuous
 62
     0
370
    30
100
AcDbLine
 10
168.572815
 20
407.210507
 30
0.0
 11
168.572815
 21
400.710507
 31
0.0
  0
LINE
  5
252
330
216
100
AcDbEntity
  8
0
  6
Continuous
 62
     0
370
    30
100
AcDbLine
 10
168.572815
 20
400.710507
 30
0.0
 11
168.572815
 21
380.210507
 31
0.0
  0
SPLINE
  5
253
330
216
100
AcDbEntity
  8
0
  6
Continuous
 62
     0
370
     0
100
AcDbSpline
210
0.0
220
0.0
230
1.0
 70
    28
 71
     2
 72
     8
 73
     5
 74
     0
 42
0.000000001
 43
0.0
 40
0.3750000000000001
 40
0.3750000000000001
 40
0.3750000000000001
 40
0.5
 40
0.5
 40
0.625
 40
0.625
 40
0.625
 10
169.0728149414095
 20
407.7105066525305
 30
0.0
 41
0.8535533905932637
 10
169.0728149414087
 20
407.7105067792714
 30
0.0
 41
0.8535533905932638
 10
169.0728149414081
 20
405.6602543371966
 30
0.0
 41
0.9999999999999882
 10
169.0728149414076
 20
403.6100018951219
 30
0.0
 41
0.8535533905932637
 10
169.0728149414076
 20
400.7105069585102
 30
0.0
 41
0.8535533905932637
  0
LINE
  5
254
330
216
100
AcDbEntity
  8
0
  6
Continuous
 62
     0
370
     0
100
AcDbLine
 10
169.072815
 20
400.710507
 30
0.0
 11
168.572815
 21
400.710507
 31
0.0
  0
ARC
  5
255
330
216
100
AcDbEntity
  8
0
  6
Continuous
 62
     0
370
    30
100
AcDbCircle
 10
209.072815
 20
407.210507
 30
0.0
 40
0.5
100
AcDbArc
 50
90.0
 51
180.0
  0
ARC
  5
256
330
216
100
AcDbEntity
  8
0
  6
Continuous
 62
     0
370
     0
100
AcDbCircle
 10
208.046063
 20
407.183755
 30
0.0
 40
0.5274310155238744
100
AcDbArc
 50
2.907397
 51
87.092622
  0
LINE
  5
257
330
216
100
AcDbEntity
  8
0
  6
Continuous
 62
     0
370
    30
100
AcDbLine
 10
208.572815
 20
407.210507
 30
0.0
 11
208.572815
 21
400.710507
 31
0.0
  0
LINE
  5
258
330
216
100
AcDbEntity
  8
0
  6
Continuous
 62
     0
370
     0
100
AcDbLine
 10
208.572815
 20
400.710507
 30
0.0
 11
208.072815
 21
400.710507
 31
0.0
  0
LINE
  5
259
330
216
100
AcDbEntity
  8
0
  6
Continuous
 62
     0
370
     0
100
AcDbLine
 10
208.072815
 20
400.710507
 30
0.0
 11
208.072815
 21
407.710507
 31
0.0
  0
LINE
  5
25A
330
216
100
AcDbEntity
  8
0
  6
Continuous
 62
     0
370
    30
100
AcDbLine
 10
208.572815
 20
380.210507
 30
0.0
 11
208.572815
 21
400.710507
 31
0.0
  0
LINE
  5
25B
330
216
100
AcDbEntity
  8
0
  6
Continuous
 62
     0
370
     0
100
AcDbLine
 10
169.072815
 20
380.210507
 30
0.0
 11
169.072815
 21
379.710507
 31
0.0
  0
ARC
  5
25C
330
216
100
AcDbEntity
  8
0
  6
Continuous
 62
     0
370
    30
100
AcDbCircle
 10
169.072815
 20
380.210507
 30
0.0
 40
0.4999999999991545
100
AcDbArc
 50
180.0
 51
270.0
  0
LINE
  5
25D
330
216
100
AcDbEntity
  8
0
  6
Continuous
 62
     0
370
     0
100
AcDbLine
 10
168.572815
 20
380.210507
 30
0.0
 11
169.072815
 21
380.210507
 31
0.0
  0
ARC
  5
25E
330
216
100
AcDbEntity
  8
0
  6
Continuous
 62
     0
370
    30
100
AcDbCircle
 10
208.072815
 20
380.210507
 30
0.0
 40
0.4999999999982094
100
AcDbArc
 50
270.0
 51
0.0
  0
SPLINE
  5
25F
330
216
100
AcDbEntity
  8
0
  6
Continuous
 62
     0
370
     0
100
AcDbSpline
210
0.0
220
0.0
230
1.0
 70
    28
 71
     2
 72
     6
 73
     3
 74
     0
 42
0.000000001
 43
0.0
 40
0.0
 40
0.0
 40
0.0
 40
0.4999999999999951
 40
0.4999999999999951
 40
0.4999999999999951
 10
208.0728149414074
 20
379.7105069803658
 30
0.0
 41
0.9999999999994089
 10
208.0728149414083
 20
379.7105069585101
 30
0.0
 41
0.7071067811861295
 10
208.0728149414083
 20
380.2105069585102
 30
0.0
 41
0.9999999999994089
  0
LINE
  5
260
330
216
100
AcDbEntity
  8
0
  6
Continuous
 62
     0
370
     0
100
AcDbLine
 10
208.072815
 20
380.210507
 30
0.0
 11
208.572815
 21
380.210507
 31
0.0
  0
LINE
  5
261
330
216
100
AcDbEntity
  8
0
  6
Continuous
 62
     0
370
     0
100
AcDbLine
 10
169.072815
 20
380.210507
 30
0.0
 11
208.072815
 21
380.210507
 31
0.0
  0
LINE
  5
262
330
216
100
AcDbEntity
  8
0
  6
Continuous
 62
     0
370
    30
100
AcDbLine
 10
208.072815
 20
379.710507
 30
0.0
 11
169.072815
 21
379.710507
 31
0.0
  0
LINE
  5
263
330
216
100
AcDbEntity
  8
0
  6
Continuous
 62
     0
370
     0
100
AcDbLine
 10
208.072815
 20
380.210507
 30
0.0
 11
208.072815
 21
400.710507
 31
0.0
  0
LINE
  5
264
330
216
100
AcDbEntity
  8
0
  6
Continuous
 62
     0
370
     0
100
AcDbLine
 10
169.072815
 20
400.710507
 30
0.0
 11
169.072815
 21
380.210507
 31
0.0
  0
LINE
  5
265
330
216
100
AcDbEntity
  8
0
  6
Continuous
 62
     0
370
     0
100
AcDbLine
 10
169.072815
 20
400.710507
 30
0.0
 11
208.072815
 21
400.710507
 31
0.0
  0
LINE
  5
266
330
216
100
AcDbEntity
  8
0
  6
Continuous
 62
     0
370
    30
100
AcDbLine
 10
164.572815
 20
407.710507
 30
0.0
 11
212.572815
 21
407.710507
 31
0.0
  0
LINE
  5
267
330
216
100
AcDbEntity
  8
0
  6
Continuous
 62
     0
370
    30
100
AcDbLine
 10
164.572815
 20
407.910507
 30
0.0
 11
164.572815
 21
407.710507
 31
0.0
  0
LINE
  5
268
330
216
100
AcDbEntity
  8
0
  6
Continuous
 62
     0
370
    30
100
AcDbLine
 10
212.572815
 20
407.910507
 30
0.0
 11
212.572815
 21
407.710507
 31
0.0
  0
LINE
  5
269
330
216
100
AcDbEntity
  8
0
  6
Continuous
 62
     0
370
    30
100
AcDbLine
 10
316.572815
 20
418.130506
 30
0.0
 11
260.572815
 21
418.130506
 31
0.0
  0
LINE
  5
26A
330
216
100
AcDbEntity
  8
0
  6
Continuous
 62
     0
370
    30
100
AcDbLine
 10
316.572815
 20
418.130506
 30
0.0
 11
317.072815
 21
418.130506
 31
0.0
  0
LINE
  5
26B
330
216
100
AcDbEntity
  8
0
  6
Continuous
 62
     0
370
    30
100
AcDbLine
 10
260.072815
 20
418.130506
 30
0.0
 11
260.572815
 21
418.130506
 31
0.0
  0
ARC
  5
26C
330
216
100
AcDbEntity
  8
0
  6
Continuous
 62
     0
370
    30
100
AcDbCircle
 10
260.572815
 20
408.630506
 30
0.0
 40
0.4999999999999982
100
AcDbArc
 50
180.0
 51
270.0
  0
LINE
  5
26D
330
216
100
AcDbEntity
  8
0
  6
Continuous
 62
     0
370
     0
100
AcDbLine
 10
260.072815
 20
408.630506
 30
0.0
 11
260.572815
 21
408.630506
 31
0.0
  0
LINE
  5
26E
330
216
100
AcDbEntity
  8
0
  6
Continuous
 62
     0
370
     0
100
AcDbLine
 10
260.572815
 20
408.630506
 30
0.0
 11
260.572815
 21
408.130506
 31
0.0
  0
LINE
  5
26F
330
216
100
AcDbEntity
  8
0
  6
Continuous
 62
     0
370
    30
100
AcDbLine
 10
260.072815
 20
418.130506
 30
0.0
 11
260.072815
 21
408.630506
 31
0.0
  0
LINE
  5
270
330
216
100
AcDbEntity
  8
0
  6
Continuous
 62
     0
370
     0
100
AcDbLine
 10
260.572815
 20
418.130506
 30
0.0
 11
260.572815
 21
408.630506
 31
0.0
  0
LINE
  5
271
330
216
100
AcDbEntity
  8
0
  6
Continuous
 62
     0
370
     0
100
AcDbLine
 10
316.572815
 20
408.630506
 30
0.0
 11
316.572815
 21
408.130506
 31
0.0
  0
LINE
  5
272
330
216
100
AcDbEntity
  8
0
  6
Continuous
 62
     0
370
     0
100
AcDbLine
 10
316.572815
 20
408.630506
 30
0.0
 11
260.572815
 21
408.630506
 31
0.0
  0
LINE
  5
273
330
216
100
AcDbEntity
  8
0
  6
Continuous
 62
     0
370
    30
100
AcDbLine
 10
316.572815
 20
408.130506
 30
0.0
 11
260.572815
 21
408.130506
 31
0.0
  0
LINE
  5
274
330
216
100
AcDbEntity
  8
0
  6
Continuous
 62
     0
370
     0
100
AcDbLine
 10
316.572815
 20
408.630506
 30
0.0
 11
317.072815
 21
408.630506
 31
0.0
  0
ARC
  5
275
330
216
100
AcDbEntity
  8
0
  6
Continuous
 62
     0
370
    30
100
AcDbCircle
 10
316.572815
 20
408.630506
 30
0.0
 40
0.4999999999999982
100
AcDbArc
 50
270.0
 51
360.0
  0
LINE
  5
276
330
216
100
AcDbEntity
  8
0
  6
Continuous
 62
     0
370
     0
100
AcDbLine
 10
316.572815
 20
418.130506
 30
0.0
 11
316.572815
 21
408.630506
 31
0.0
  0
LINE
  5
277
330
216
100
AcDbEntity
  8
0
  6
Continuous
 62
     0
370
    30
100
AcDbLine
 10
317.072815
 20
418.130506
 30
0.0
 11
317.072815
 21
408.630506
 31
0.0
  0
LINE
  5
278
330
216
100
AcDbEntity
  8
0
  6
Continuous
 62
     0
370
    30
100
AcDbLine
 10
305.572815
 20
398.130506
 30
0.0
 11
271.572815
 21
398.130506
 31
0.0
  0
LINE
  5
279
330
216
100
AcDbEntity
  8
0
  6
Continuous
 62
     0
370
    30
100
AcDbLine
 10
305.572815
 20
398.130506
 30
0.0
 11
306.072815
 21
398.130506
 31
0.0
  0
LINE
  5
27A
330
216
100
AcDbEntity
  8
0
  6
Continuous
 62
     0
370
    30
100
AcDbLine
 10
271.072815
 20
398.130506
 30
0.0
 11
271.572815
 21
398.130506
 31
0.0
  0
LINE
  5
27B
330
216
100
AcDbEntity
  8
0
  6
Continuous
 62
     0
370
     0
100
AcDbLine
 10
305.572815
 20
379.630506
 30
0.0
 11
305.572815
 21
379.130506
 31
0.0
  0
LINE
  5
27C
330
216
100
AcDbEntity
  8
0
  6
Continuous
 62
     0
370
     0
100
AcDbLine
 10
305.572815
 20
379.630506
 30
0.0
 11
306.072815
 21
379.630506
 31
0.0
  0
ARC
  5
27D
330
216
100
AcDbEntity
  8
0
  6
Continuous
 62
     0
370
    30
100
AcDbCircle
 10
305.572815
 20
379.630506
 30
0.0
 40
0.5
100
AcDbArc
 50
270.0
 51
360.0
  0
LINE
  5
27E
330
216
100
AcDbEntity
  8
0
  6
Continuous
 62
     0
370
     0
100
AcDbLine
 10
305.572815
 20
398.130506
 30
0.0
 11
305.572815
 21
379.630506
 31
0.0
  0
LINE
  5
27F
330
216
100
AcDbEntity
  8
0
  6
Continuous
 62
     0
370
    30
100
AcDbLine
 10
306.072815
 20
398.130506
 30
0.0
 11
306.072815
 21
379.630506
 31
0.0
  0
ARC
  5
280
330
216
100
AcDbEntity
  8
0
  6
Continuous
 62
     0
370
    30
100
AcDbCircle
 10
271.572815
 20
379.630506
 30
0.0
 40
0.4999999999999964
100
AcDbArc
 50
180.0
 51
270.0
  0
LINE
  5
281
330
216
100
AcDbEntity
  8
0
  6
Continuous
 62
     0
370
     0
100
AcDbLine
 10
271.072815
 20
379.630506
 30
0.0
 11
271.572815
 21
379.630506
 31
0.0
  0
LINE
  5
282
330
216
100
AcDbEntity
  8
0
  6
Continuous
 62
     0
370
     0
100
AcDbLine
 10
271.572815
 20
379.630506
 30
0.0
 11
271.572815
 21
379.130506
 31
0.0
  0
LINE
  5
283
330
216
100
AcDbEntity
  8
0
  6
Continuous
 62
     0
370
    30
100
AcDbLine
 10
305.572815
 20
379.130506
 30
0.0
 11
271.572815
 21
379.130506
 31
0.0
  0
LINE
  5
284
330
216
100
AcDbEntity
  8
0
  6
Continuous
 62
     0
370
     0
100
AcDbLine
 10
305.572815
 20
379.630506
 30
0.0
 11
271.572815
 21
379.630506
 31
0.0
  0
LINE
  5
285
330
216
100
AcDbEntity
  8
0
  6
Continuous
 62
     0
370
    30
100
AcDbLine
 10
271.072815
 20
398.130506
 30
0.0
 11
271.072815
 21
379.630506
 31
0.0
  0
LINE
  5
286
330
216
100
AcDbEntity
  8
0
  6
Continuous
 62
     0
370
     0
100
AcDbLine
 10
271.572815
 20
398.130506
 30
0.0
 11
271.572815
 21
379.630506
 31
0.0
  0
LINE
  5
287
330
216
100
AcDbEntity
  8
0
  6
Continuous
 62
     0
370
     0
100
AcDbLine
 10
303.072815
 20
407.130507
 30
0.0
 11
274.072815
 21
407.130507
 31
0.0
  0
ARC
  5
288
330
216
100
AcDbEntity
  8
0
  6
Continuous
 62
     0
370
    30
100
AcDbCircle
 10
304.072815
 20
407.130507
 30
0.0
 40
1.0
100
AcDbArc
 50
90.0
 51
180.0
  0
ARC
  5
289
330
216
100
AcDbEntity
  8
0
  6
Continuous
 62
     0
370
    30
100
AcDbCircle
 10
273.072815
 20
407.130507
 30
0.0
 40
1.0
100
AcDbArc
 50
0.0
 51
90.0
  0
LINE
  5
28A
330
216
100
AcDbEntity
  8
0
  6
Continuous
 62
     0
370
    30
100
AcDbLine
 10
303.072815
 20
407.130507
 30
0.0
 11
303.072815
 21
398.130507
 31
0.0
  0
LINE
  5
28B
330
216
100
AcDbEntity
  8
0
  6
Continuous
 62
     0
370
    30
100
AcDbLine
 10
274.072815
 20
407.130507
 30
0.0
 11
274.072815
 21
398.130507
 31
0.0
  0
LINE
  5
28C
330
216
100
AcDbEntity
  8
0
  6
Continuous
 62
     0
370
     0
100
AcDbLine
 10
108.022815
 20
407.910507
 30
0.0
 11
108.022815
 21
301.510152
 31
0.0
  0
LINE
  5
28D
330
216
100
AcDbEntity
  8
0
  6
Continuous
 62
     0
370
    30
100
AcDbLine
 10
108.522815
 20
407.910507
 30
0.0
 11
108.522815
 21
301.510152
 31
0.0
  0
LINE
  5
28E
330
216
100
AcDbEntity
  8
0
  6
Continuous
 62
     0
370
     0
100
AcDbLine
 10
108.022815
 20
301.510152
 30
0.0
 11
108.022815
 21
241.382961
 31
0.0
  0
LINE
  5
28F
330
216
100
AcDbEntity
  8
0
  6
Continuous
 62
     0
370
    30
100
AcDbLine
 10
108.522815
 20
301.510152
 30
0.0
 11
108.522815
 21
241.812441
 31
0.0
  0
LINE
  5
290
330
216
100
AcDbEntity
  8
0
  6
Continuous
 62
     0
370
     0
100
AcDbLine
 10
108.022815
 20
241.382961
 30
0.0
 11
108.022815
 21
232.534757
 31
0.0
  0
LINE
  5
291
330
216
100
AcDbEntity
  8
0
  6
Continuous
 62
     0
370
    30
100
AcDbLine
 10
108.522815
 20
241.812441
 30
0.0
 11
108.522815
 21
233.116857
 31
0.0
  0
LINE
  5
292
330
216
100
AcDbEntity
  8
0
  6
Continuous
 62
     0
370
     0
100
AcDbLine
 10
69.022815
 20
407.910507
 30
0.0
 11
69.022815
 21
301.510152
 31
0.0
  0
LINE
  5
293
330
216
100
AcDbEntity
  8
0
  6
Continuous
 62
     0
370
    30
100
AcDbLine
 10
68.522815
 20
407.910507
 30
0.0
 11
68.522815
 21
301.510152
 31
0.0
  0
LINE
  5
294
330
216
100
AcDbEntity
  8
0
  6
Continuous
 62
     0
370
     0
100
AcDbLine
 10
69.022815
 20
301.510152
 30
0.0
 11
69.022815
 21
241.382961
 31
0.0
  0
LINE
  5
295
330
216
100
AcDbEntity
  8
0
  6
Continuous
 62
     0
370
    30
100
AcDbLine
 10
68.522815
 20
301.510152
 30
0.0
 11
68.522815
 21
241.812441
 31
0.0
  0
LINE
  5
296
330
216
100
AcDbEntity
  8
0
  6
Continuous
 62
     0
370
     0
100
AcDbLine
 10
69.022815
 20
241.382961
 30
0.0
 11
69.022815
 21
232.534757
 31
0.0
  0
LINE
  5
297
330
216
100
AcDbEntity
  8
0
  6
Continuous
 62
     0
370
    30
100
AcDbLine
 10
68.522815
 20
241.812441
 30
0.0
 11
68.522815
 21
233.116857
 31
0.0
  0
LINE
  5
298
330
216
100
AcDbEntity
  8
0
  6
Continuous
 62
     0
370
     0
100
AcDbLine
 10
108.022815
 20
301.510152
 30
0.0
 11
108.522815
 21
301.510152
 31
0.0
  0
ELLIPSE
  5
299
330
216
100
AcDbEntity
  8
0
  6
Continuous
 62
     0
370
     0
100
AcDbEllipse
 10
108.022815
 20
241.812441
 30
0.0
 11
-0.4999999999999968
 21
1.164153828824219E-15
 31
0.0
210
0.0
220
0.0
230
1.0
 40
0.85896
 41
1.570796326794898
 42
3.141592653589796
  0
LINE
  5
29A
330
216
100
AcDbEntity
  8
0
  6
Continuous
 62
     0
370
     0
100
AcDbLine
 10
69.022815
 20
301.510152
 30
0.0
 11
108.022815
 21
301.510152
 31
0.0
  0
LINE
  5
29B
330
216
100
AcDbEntity
  8
0
  6
Continuous
 62
     0
370
     0
100
AcDbLine
 10
69.022815
 20
241.382961
 30
0.0
 11
108.022815
 21
241.382961
 31
0.0
  0
LINE
  5
29C
330
216
100
AcDbEntity
  8
0
  6
Continuous
 62
     0
370
     0
100
AcDbLine
 10
69.022815
 20
301.510152
 30
0.0
 11
68.522815
 21
301.510152
 31
0.0
  0
LINE
  5
29D
330
216
100
AcDbEntity
  8
0
  6
Continuous
 62
     0
370
    30
100
AcDbLine
 10
69.022815
 20
232.534757
 30
0.0
 11
108.022815
 21
232.534757
 31
0.0
  0
ELLIPSE
  5
29E
330
216
100
AcDbEntity
  8
0
  6
Continuous
 62
     0
370
     0
100
AcDbEllipse
 10
69.022815
 20
241.812441
 30
0.0
 11
0.4999999999999968
 21
-1.150994681277297E-15
 31
0.0
210
0.0
220
0.0
230
-1.0
 40
0.85896
 41
1.570796326794895
 42
3.14159265358979
  0
ELLIPSE
  5
29F
330
216
100
AcDbEntity
  8
0
  6
Continuous
 62
     0
370
    30
100
AcDbEllipse
 10
108.022815
 20
233.116857
 30
0.0
 11
5.452765349618832E-16
 21
-0.5820993527016292
 31
0.0
210
0.0
220
0.0
230
1.0
 40
0.85896
 41
0.0
 42
1.570796326795043
  0
ELLIPSE
  5
2A0
330
216
100
AcDbEntity
  8
0
  6
Continuous
 62
     0
370
    30
100
AcDbEllipse
 10
69.022815
 20
233.116857
 30
0.0
 11
6.037073842877895E-16
 21
-0.5820993527016292
 31
0.0
210
0.0
220
0.0
230
-1.0
 40
0.85896
 41
0.0
 42
1.570796326795043
  0
LINE
  5
2A1
330
216
100
AcDbEntity
  8
0
  6
Continuous
 62
     0
370
    30
100
AcDbLine
 10
117.072815
 20
418.130506
 30
0.0
 11
116.572815
 21
418.130506
 31
0.0
  0
LINE
  5
2A2
330
216
100
AcDbEntity
  8
0
  6
Continuous
 62
     0
370
    30
100
AcDbLine
 10
116.572815
 20
418.130506
 30
0.0
 11
60.572815
 21
418.130506
 31
0.0
  0
LINE
  5
2A3
330
216
100
AcDbEntity
  8
0
  6
Continuous
 62
     0
370
    30
100
AcDbLine
 10
60.572815
 20
418.130506
 30
0.0
 11
60.072815
 21
418.130506
 31
0.0
  0
ARC
  5
2A4
330
216
100
AcDbEntity
  8
0
  6
Continuous
 62
     0
370
    30
100
AcDbCircle
 10
116.572815
 20
408.410506
 30
0.0
 40
0.5
100
AcDbArc
 50
270.0
 51
0.0
  0
LINE
  5
2A5
330
216
100
AcDbEntity
  8
0
  6
Continuous
 62
     0
370
     0
100
AcDbLine
 10
116.572815
 20
408.410506
 30
0.0
 11
116.572815
 21
407.910506
 31
0.0
  0
LINE
  5
2A6
330
216
100
AcDbEntity
  8
0
  6
Continuous
 62
     0
370
     0
100
AcDbLine
 10
117.072815
 20
408.410506
 30
0.0
 11
116.572815
 21
408.410506
 31
0.0
  0
LINE
  5
2A7
330
216
100
AcDbEntity
  8
0
  6
Continuous
 62
     0
370
     0
100
AcDbLine
 10
60.572815
 20
408.410506
 30
0.0
 11
116.572815
 21
408.410506
 31
0.0
  0
LINE
  5
2A8
330
216
100
AcDbEntity
  8
0
  6
Continuous
 62
     0
370
    30
100
AcDbLine
 10
116.572815
 20
407.910506
 30
0.0
 11
60.572815
 21
407.910506
 31
0.0
  0
LINE
  5
2A9
330
216
100
AcDbEntity
  8
0
  6
Continuous
 62
     0
370
     0
100
AcDbLine
 10
60.572815
 20
407.910506
 30
0.0
 11
60.572815
 21
408.410506
 31
0.0
  0
ARC
  5
2AA
330
216
100
AcDbEntity
  8
0
  6
Continuous
 62
     0
370
    30
100
AcDbCircle
 10
60.572815
 20
408.410506
 30
0.0
 40
0.5000000000000012
100
AcDbArc
 50
180.0
 51
270.0
  0
LINE
  5
2AB
330
216
100
AcDbEntity
  8
0
  6
Continuous
 62
     0
370
     0
100
AcDbLine
 10
60.572815
 20
408.410506
 30
0.0
 11
60.072815
 21
408.410506
 31
0.0
  0
LINE
  5
2AC
330
216
100
AcDbEntity
  8
0
  6
Continuous
 62
     0
370
    30
100
AcDbLine
 10
117.072815
 20
408.410506
 30
0.0
 11
117.072815
 21
418.130506
 31
0.0
  0
LINE
  5
2AD
330
216
100
AcDbEntity
  8
0
  6
Continuous
 62
     0
370
     0
100
AcDbLine
 10
116.572815
 20
418.130506
 30
0.0
 11
116.572815
 21
408.410506
 31
0.0
  0
LINE
  5
2AE
330
216
100
AcDbEntity
  8
0
  6
Continuous
 62
     0
370
     0
100
AcDbLine
 10
60.572815
 20
408.410506
 30
0.0
 11
60.572815
 21
418.130506
 31
0.0
  0
LINE
  5
2AF
330
216
100
AcDbEntity
  8
0
  6
Continuous
 62
     0
370
    30
100
AcDbLine
 10
60.072815
 20
418.130506
 30
0.0
 11
60.072815
 21
408.410506
 31
0.0
  0
LINE
  5
2B0
330
216
100
AcDbEntity
  8
0
  6
Continuous
 62
     0
370
    30
100
AcDbLine
 10
501.822815
 20
332.380499
 30
0.0
 11
501.822815
 21
353.880499
 31
0.0
  0
ARC
  5
2B1
330
216
100
AcDbEntity
  8
0
  6
Continuous
 62
     0
370
    30
100
AcDbCircle
 10
500.822815
 20
353.880499
 30
0.0
 40
1.0
100
AcDbArc
 50
360.0
 51
90.0
  0
LINE
  5
2B2
330
216
100
AcDbEntity
  8
0
  6
Continuous
 62
     0
370
    30
100
AcDbLine
 10
500.822815
 20
354.880499
 30
0.0
 11
479.322815
 21
354.880499
 31
0.0
  0
ARC
  5
2B3
330
216
100
AcDbEntity
  8
0
  6
Continuous
 62
     0
370
    30
100
AcDbCircle
 10
479.322815
 20
353.880499
 30
0.0
 40
1.0
100
AcDbArc
 50
90.0
 51
180.0
  0
LINE
  5
2B4
330
216
100
AcDbEntity
  8
0
  6
Continuous
 62
     0
370
    30
100
AcDbLine
 10
478.322815
 20
353.880499
 30
0.0
 11
478.322815
 21
332.380499
 31
0.0
  0
ARC
  5
2B5
330
216
100
AcDbEntity
  8
0
  6
Continuous
 62
     0
370
    30
100
AcDbCircle
 10
479.322815
 20
332.380499
 30
0.0
 40
1.0
100
AcDbArc
 50
180.0
 51
270.0
  0
LINE
  5
2B6
330
216
100
AcDbEntity
  8
0
  6
Continuous
 62
     0
370
    30
100
AcDbLine
 10
479.322815
 20
331.380499
 30
0.0
 11
500.822815
 21
331.380499
 31
0.0
  0
ARC
  5
2B7
330
216
100
AcDbEntity
  8
0
  6
Continuous
 62
     0
370
    30
100
AcDbCircle
 10
500.822815
 20
332.380499
 30
0.0
 40
1.0
100
AcDbArc
 50
270.0
 51
360.0
  0
LINE
  5
2B8
330
216
100
AcDbEntity
  8
0
  6
Continuous
 62
     0
370
    30
100
AcDbLine
 10
470.072815
 20
343.130507
 30
0.0
 11
470.072815
 21
408.130507
 31
0.0
  0
ARC
  5
2B9
330
216
100
AcDbEntity
  8
0
  6
Continuous
 62
     0
370
    30
100
AcDbCircle
 10
490.072815
 20
343.130507
 30
0.0
 40
20.0
100
AcDbArc
 50
180.0
 51
240.0
  0
ARC
  5
2BA
330
216
100
AcDbEntity
  8
0
  6
Continuous
 62
     0
370
    30
100
AcDbCircle
 10
480.572815
 20
326.676024
 30
0.0
 40
1.0
100
AcDbArc
 50
240.0
 51
360.0
  0
ARC
  5
2BB
330
216
100
AcDbEntity
  8
0
  6
Continuous
 62
     0
370
    30
100
AcDbCircle
 10
499.572815
 20
326.676024
 30
0.0
 40
1.0
100
AcDbArc
 50
180.0
 51
300.0
  0
ARC
  5
2BC
330
216
100
AcDbEntity
  8
0
  6
Continuous
 62
     0
370
    30
100
AcDbCircle
 10
490.072815
 20
343.130507
 30
0.0
 40
20.0
100
AcDbArc
 50
300.0
 51
360.0
  0
LINE
  5
2BD
330
216
100
AcDbEntity
  8
0
  6
Continuous
 62
     0
370
    30
100
AcDbLine
 10
510.072815
 20
408.130507
 30
0.0
 11
510.072815
 21
343.130507
 31
0.0
  0
LINE
  5
2BE
330
216
100
AcDbEntity
  8
0
  6
Continuous
 62
     0
370
    30
100
AcDbLine
 10
460.572815
 20
418.130506
 30
0.0
 11
519.572815
 21
418.130506
 31
0.0
  0
LINE
  5
2BF
330
216
100
AcDbEntity
  8
0
  6
Continuous
 62
     0
370
    30
100
AcDbLine
 10
460.572815
 20
418.130506
 30
0.0
 11
460.072815
 21
418.130506
 31
0.0
  0
LINE
  5
2C0
330
216
100
AcDbEntity
  8
0
  6
Continuous
 62
     0
370
    30
100
AcDbLine
 10
520.072815
 20
418.130506
 30
0.0
 11
519.572815
 21
418.130506
 31
0.0
  0
LINE
  5
2C1
330
216
100
AcDbEntity
  8
0
  6
Continuous
 62
     0
370
     0
100
AcDbLine
 10
460.572815
 20
408.630506
 30
0.0
 11
460.572815
 21
408.130506
 31
0.0
  0
LINE
  5
2C2
330
216
100
AcDbEntity
  8
0
  6
Continuous
 62
     0
370
     0
100
AcDbLine
 10
460.572815
 20
408.630506
 30
0.0
 11
460.072815
 21
408.630506
 31
0.0
  0
ARC
  5
2C3
330
216
100
AcDbEntity
  8
0
  6
Continuous
 62
     0
370
    30
100
AcDbCircle
 10
460.572815
 20
408.630506
 30
0.0
 40
0.5
100
AcDbArc
 50
180.0
 51
270.0
  0
LINE
  5
2C4
330
216
100
AcDbEntity
  8
0
  6
Continuous
 62
     0
370
     0
100
AcDbLine
 10
460.572815
 20
408.630506
 30
0.0
 11
460.572815
 21
418.130506
 31
0.0
  0
LINE
  5
2C5
330
216
100
AcDbEntity
  8
0
  6
Continuous
 62
     0
370
    30
100
AcDbLine
 10
460.072815
 20
408.630506
 30
0.0
 11
460.072815
 21
418.130506
 31
0.0
  0
ARC
  5
2C6
330
216
100
AcDbEntity
  8
0
  6
Continuous
 62
     0
370
    30
100
AcDbCircle
 10
519.572815
 20
408.630506
 30
0.0
 40
0.5
100
AcDbArc
 50
270.0
 51
0.0
  0
LINE
  5
2C7
330
216
100
AcDbEntity
  8
0
  6
Continuous
 62
     0
370
     0
100
AcDbLine
 10
520.072815
 20
408.630506
 30
0.0
 11
519.572815
 21
408.630506
 31
0.0
  0
LINE
  5
2C8
330
216
100
AcDbEntity
  8
0
  6
Continuous
 62
     0
370
     0
100
AcDbLine
 10
519.572815
 20
408.630506
 30
0.0
 11
519.572815
 21
408.130506
 31
0.0
  0
LINE
  5
2C9
330
216
100
AcDbEntity
  8
0
  6
Continuous
 62
     0
370
    30
100
AcDbLine
 10
460.572815
 20
408.130506
 30
0.0
 11
519.572815
 21
408.130506
 31
0.0
  0
LINE
  5
2CA
330
216
100
AcDbEntity
  8
0
  6
Continuous
 62
     0
370
     0
100
AcDbLine
 10
460.572815
 20
408.630506
 30
0.0
 11
519.572815
 21
408.630506
 31
0.0
  0
LINE
  5
2CB
330
216
100
AcDbEntity
  8
0
  6
Continuous
 62
     0
370
    30
100
AcDbLine
 10
520.072815
 20
408.630506
 30
0.0
 11
520.072815
 21
418.130506
 31
0.0
  0
LINE
  5
2CC
330
216
100
AcDbEntity
  8
0
  6
Continuous
 62
     0
370
     0
100
AcDbLine
 10
519.572815
 20
408.630506
 30
0.0
 11
519.572815
 21
418.130506
 31
0.0
  0
LINE
  5
2CD
330
216
100
AcDbEntity
  8
0
  6
Continuous
 62
     0
370
    30
100
AcDbLine
 10
496.072815
 20
331.380512
 30
0.0
 11
496.072815
 21
319.530832
 31
0.0
  0
LINE
  5
2CE
330
216
100
AcDbEntity
  8
0
  6
Continuous
 62
     0
370
    30
100
AcDbLine
 10
481.572815
 20
331.380507
 30
0.0
 11
481.572815
 21
326.676024
 31
0.0
  0
LINE
  5
2CF
330
216
100
AcDbEntity
  8
0
  6
Continuous
 62
     0
370
    30
100
AcDbLine
 10
498.572815
 20
326.676024
 30
0.0
 11
498.572815
 21
331.380507
 31
0.0
  0
ARC
  5
2D0
330
216
100
AcDbEntity
  8
0
  6
Continuous
 62
     0
370
    30
100
AcDbCircle
 10
490.072815
 20
319.532093
 30
0.0
 40
6.0000004217616
100
AcDbArc
 50
180.012036
 51
359.955553
  0
SPLINE
  5
2D1
330
216
100
AcDbEntity
  8
0
  6
Continuous
 62
     0
370
    30
100
AcDbSpline
210
0.0
220
0.0
230
1.0
 70
    24
 71
     3
 72
    17
 73
    13
 74
     0
 42
0.000000001
 43
0.0
 40
285.2647599493183
 40
285.2647599493183
 40
285.2647599493183
 40
285.2647599493183
 40
285.3273018810354
 40
292.4149079814302
 40
300.8679663905639
 40
308.9350956790978
 40
321.2593549075698
 40
329.8618106044253
 40
345.2244835930947
 40
350.9996661237008
 40
364.5430994724347
 40
368.3984620897081
 40
368.3984620897081
 40
368.3984620897081
 40
368.3984620897081
 10
484.0728149414059
 20
319.5308322609984
 30
0.0
 10
484.0728149414059
 20
319.5308322600932
 30
0.0
 10
484.072814941406
 20
319.5312043883637
 30
0.0
 10
484.0728149414061
 20
319.6247711199212
 30
0.0
 10
484.0728149414059
 20
320.0392159121487
 30
0.0
 10
484.072814941406
 20
320.867571327199
 30
0.0
 10
484.0728149414059
 20
322.0551263365816
 30
0.0
 10
484.0728149414056
 20
323.926546491959
 30
0.0
 10
484.0728149414054
 20
325.7730377967151
 30
0.0
 10
484.0728149414048
 20
328.1392764954842
 30
0.0
 10
484.0728149414042
 20
329.8252713385354
 30
0.0
 10
484.0728149414037
 20
331.0987335979749
 30
0.0
 10
484.0728149414036
 20
331.3805123312617
 30
0.0
  0
ENDBLK
  5
2D3
330
216
100
AcDbEntity
  8
0
100
AcDbBlockEnd
  0
BLOCK
  5
359
330
2D5
100
AcDbEntity
  8
0
100
AcDbBlockBegin
  2
c
 70
     0
 10
142.856972
 20
121.794647
 30
0.0
  3
c
  1

  0
ARC
  5
2D6
330
2D5
100
AcDbEntity
  8
0
  6
Continuous
 62
     0
370
     0
100
AcDbCircle
 10
767.83172
 20
938.128071
 30
0.0
 40
15.31764642655874
100
AcDbArc
 50
180.533336
 51
194.689422
  0
LINE
  5
2D7
330
2D5
100
AcDbEntity
  8
0
  6
Continuous
 62
     0
370
     0
100
AcDbLine
 10
753.014738
 20
934.243832
 30
0.0
 11
752.514738
 21
934.243832
 31
0.0
  0
LINE
  5
2D8
330
2D5
100
AcDbEntity
  8
0
  6
Continuous
 62
     0
370
     0
100
AcDbLine
 10
753.014738
 20
931.035489
 30
0.0
 11
753.014738
 21
934.243832
 31
0.0
  0
LINE
  5
2D9
330
2D5
100
AcDbEntity
  8
0
  6
Continuous
 62
     0
370
     0
100
AcDbLine
 10
753.014738
 20
917.727146
 30
0.0
 11
753.014738
 21
921.035489
 31
0.0
  0
LINE
  5
2DA
330
2D5
100
AcDbEntity
  8
0
  6
Continuous
 62
     0
370
     0
100
AcDbLine
 10
752.514738
 20
917.727146
 30
0.0
 11
753.014738
 21
917.727146
 31
0.0
  0
ARC
  5
2DB
330
2D5
100
AcDbEntity
  8
0
  6
Continuous
 62
     0
370
    30
100
AcDbCircle
 10
767.81689
 20
913.844889
 30
0.0
 40
15.30279835680722
100
AcDbArc
 50
165.303675
 51
179.473567
  0
ARC
  5
2DC
330
2D5
100
AcDbEntity
  8
0
  6
Continuous
 62
     0
370
     0
100
AcDbCircle
 10
759.514738
 20
913.985489
 30
0.0
 40
7.499999999999932
100
AcDbArc
 50
109.948444
 51
150.073565
  0
LINE
  5
2DD
330
2D5
100
AcDbEntity
  8
0
  6
Continuous
 62
     0
370
     0
100
AcDbLine
 10
759.514738
 20
921.035489
 30
0.0
 11
759.514738
 21
920.985489
 31
0.0
  0
ARC
  5
2DE
330
2D5
100
AcDbEntity
  8
0
  6
Continuous
 62
     0
370
    30
100
AcDbCircle
 10
759.514738
 20
913.985489
 30
0.0
 40
7.00000000000006
100
AcDbArc
 50
90.0
 51
180.0
  0
ARC
  5
2DF
330
2D5
100
AcDbEntity
  8
0
  6
Continuous
 62
     0
370
     0
100
AcDbCircle
 10
759.514738
 20
937.985489
 30
0.0
 40
7.500000000000307
100
AcDbArc
 50
209.926435
 51
247.921031
  0
ARC
  5
2E0
330
2D5
100
AcDbEntity
  8
0
  6
Continuous
 62
     0
370
    30
100
AcDbCircle
 10
759.514738
 20
937.985489
 30
0.0
 40
7.00000000000002
100
AcDbArc
 50
180.0
 51
263.147762
  0
ARC
  5
2E1
330
2D5
100
AcDbEntity
  8
0
  6
Continuous
 62
     0
370
    30
100
AcDbCircle
 10
780.014738
 20
921.485489
 30
0.0
 40
0.4999999999854802
100
AcDbArc
 50
270.0
 51
295.841933
  0
LINE
  5
2E2
330
2D5
100
AcDbEntity
  8
0
  6
Continuous
 62
     0
370
     0
100
AcDbLine
 10
780.014738
 20
920.985489
 30
0.0
 11
780.014738
 21
921.035489
 31
0.0
  0
LINE
  5
2E3
330
2D5
100
AcDbEntity
  8
0
  6
Continuous
 62
     0
370
    30
100
AcDbLine
 10
780.014738
 20
920.985489
 30
0.0
 11
759.514738
 21
920.985489
 31
0.0
  0
LINE
  5
2E4
330
2D5
100
AcDbEntity
  8
0
  6
Continuous
 62
     0
370
    30
100
AcDbLine
 10
752.514738
 20
931.035489
 30
0.0
 11
752.514737
 21
949.985489
 31
0.0
  0
LINE
  5
2E5
330
2D5
100
AcDbEntity
  8
0
  6
Continuous
 62
     0
370
    30
100
AcDbLine
 10
752.514737
 20
901.985489
 30
0.0
 11
752.514738
 21
921.035489
 31
0.0
  0
LINE
  5
2E6
330
2D5
100
AcDbEntity
  8
0
  6
Continuous
 62
     0
370
    30
100
AcDbLine
 10
752.314737
 20
949.985489
 30
0.0
 11
752.514737
 21
949.985489
 31
0.0
  0
LINE
  5
2E7
330
2D5
100
AcDbEntity
  8
0
  6
Continuous
 62
     0
370
    30
100
AcDbLine
 10
752.314737
 20
901.985489
 30
0.0
 11
752.514737
 21
901.985489
 31
0.0
  0
LINE
  5
2E8
330
2D5
100
AcDbEntity
  8
0
  6
Continuous
 62
     0
370
    30
100
AcDbLine
 10
762.094733
 20
920.985489
 30
0.0
 11
762.094733
 21
908.985489
 31
0.0
  0
LINE
  5
2E9
330
2D5
100
AcDbEntity
  8
0
  6
Continuous
 62
     0
370
    30
100
AcDbLine
 10
762.094733
 20
942.985489
 30
0.0
 11
762.094733
 21
931.035489
 31
0.0
  0
LINE
  5
2EA
330
2D5
100
AcDbEntity
  8
0
  6
Continuous
 62
     0
370
    30
100
AcDbLine
 10
762.094733
 20
942.985489
 30
0.0
 11
762.094733
 21
943.485489
 31
0.0
  0
LINE
  5
2EB
330
2D5
100
AcDbEntity
  8
0
  6
Continuous
 62
     0
370
    30
100
AcDbLine
 10
762.094733
 20
908.485489
 30
0.0
 11
762.094733
 21
908.985489
 31
0.0
  0
ARC
  5
2EC
330
2D5
100
AcDbEntity
  8
0
  6
Continuous
 62
     0
370
    30
100
AcDbCircle
 10
780.594733
 20
908.985489
 30
0.0
 40
0.5
100
AcDbArc
 50
270.0
 51
360.0
  0
LINE
  5
2ED
330
2D5
100
AcDbEntity
  8
0
  6
Continuous
 62
     0
370
     0
100
AcDbLine
 10
780.594733
 20
908.485489
 30
0.0
 11
780.594733
 21
908.985489
 31
0.0
  0
LINE
  5
2EE
330
2D5
100
AcDbEntity
  8
0
  6
Continuous
 62
     0
370
     0
100
AcDbLine
 10
780.594733
 20
908.985489
 30
0.0
 11
781.094733
 21
908.985489
 31
0.0
  0
LINE
  5
2EF
330
2D5
100
AcDbEntity
  8
0
  6
Continuous
 62
     0
370
    30
100
AcDbLine
 10
762.094733
 20
908.485489
 30
0.0
 11
780.594733
 21
908.485489
 31
0.0
  0
LINE
  5
2F0
330
2D5
100
AcDbEntity
  8
0
  6
Continuous
 62
     0
370
     0
100
AcDbLine
 10
762.094733
 20
908.985489
 30
0.0
 11
780.594733
 21
908.985489
 31
0.0
  0
LINE
  5
2F1
330
2D5
100
AcDbEntity
  8
0
  6
Continuous
 62
     0
370
     0
100
AcDbLine
 10
780.594733
 20
942.985489
 30
0.0
 11
781.094733
 21
942.985489
 31
0.0
  0
LINE
  5
2F2
330
2D5
100
AcDbEntity
  8
0
  6
Continuous
 62
     0
370
     0
100
AcDbLine
 10
780.594733
 20
921.035489
 30
0.0
 11
780.594733
 21
908.985489
 31
0.0
  0
LINE
  5
2F3
330
2D5
100
AcDbEntity
  8
0
  6
Continuous
 62
     0
370
     0
100
AcDbLine
 10
780.594733
 20
942.985489
 30
0.0
 11
780.594733
 21
931.035489
 31
0.0
  0
LINE
  5
2F4
330
2D5
100
AcDbEntity
  8
0
  6
Continuous
 62
     0
370
    30
100
AcDbLine
 10
781.094733
 20
921.035489
 30
0.0
 11
781.094733
 21
908.985489
 31
0.0
  0
LINE
  5
2F5
330
2D5
100
AcDbEntity
  8
0
  6
Continuous
 62
     0
370
    30
100
AcDbLine
 10
781.094733
 20
942.985489
 30
0.0
 11
781.094733
 21
931.035489
 31
0.0
  0
LINE
  5
2F6
330
2D5
100
AcDbEntity
  8
0
  6
Continuous
 62
     0
370
     0
100
AcDbLine
 10
780.594733
 20
942.985489
 30
0.0
 11
780.594733
 21
943.485489
 31
0.0
  0
ARC
  5
2F7
330
2D5
100
AcDbEntity
  8
0
  6
Continuous
 62
     0
370
    30
100
AcDbCircle
 10
780.594733
 20
942.985489
 30
0.0
 40
0.5
100
AcDbArc
 50
0.0
 51
90.0
  0
LINE
  5
2F8
330
2D5
100
AcDbEntity
  8
0
  6
Continuous
 62
     0
370
     0
100
AcDbLine
 10
762.094733
 20
942.985489
 30
0.0
 11
780.594733
 21
942.985489
 31
0.0
  0
LINE
  5
2F9
330
2D5
100
AcDbEntity
  8
0
  6
Continuous
 62
     0
370
    30
100
AcDbLine
 10
762.094733
 20
943.485489
 30
0.0
 11
780.594733
 21
943.485489
 31
0.0
  0
LINE
  5
2FA
330
2D5
100
AcDbEntity
  8
0
  6
Continuous
 62
     0
370
     0
100
AcDbLine
 10
753.094732
 20
916.775399
 30
0.0
 11
753.094732
 21
911.485489
 31
0.0
  0
LINE
  5
2FB
330
2D5
100
AcDbEntity
  8
0
  6
Continuous
 62
     0
370
     0
100
AcDbLine
 10
753.094732
 20
940.485489
 30
0.0
 11
753.094732
 21
935.195578
 31
0.0
  0
LINE
  5
2FC
330
2D5
100
AcDbEntity
  8
0
  6
Continuous
 62
     0
370
    30
100
AcDbLine
 10
753.094732
 20
911.485489
 30
0.0
 11
762.094732
 21
911.485489
 31
0.0
  0
ARC
  5
2FD
330
2D5
100
AcDbEntity
  8
0
  6
Continuous
 62
     0
370
    30
100
AcDbCircle
 10
753.094732
 20
910.485489
 30
0.0
 40
1.0
100
AcDbArc
 50
90.0
 51
125.450543
  0
ARC
  5
2FE
330
2D5
100
AcDbEntity
  8
0
  6
Continuous
 62
     0
370
    30
100
AcDbCircle
 10
753.094732
 20
941.485489
 30
0.0
 40
1.0
100
AcDbArc
 50
234.549457
 51
270.0
  0
LINE
  5
2FF
330
2D5
100
AcDbEntity
  8
0
  6
Continuous
 62
     0
370
    30
100
AcDbLine
 10
753.094732
 20
940.485489
 30
0.0
 11
762.094732
 21
940.485489
 31
0.0
  0
LINE
  5
300
330
2D5
100
AcDbEntity
  8
0
  6
Continuous
 62
     0
370
    30
100
AcDbLine
 10
752.314742
 20
931.035489
 30
0.0
 11
858.715097
 21
931.035489
 31
0.0
  0
LINE
  5
301
330
2D5
100
AcDbEntity
  8
0
  6
Continuous
 62
     0
370
     0
100
AcDbLine
 10
752.314742
 20
930.535489
 30
0.0
 11
858.715097
 21
930.535489
 31
0.0
  0
ARC
  5
302
330
2D5
100
AcDbEntity
  8
0
  6
Continuous
 62
     0
370
    30
100
AcDbCircle
 10
858.715097
 20
861.035489
 30
0.0
 40
70.0
100
AcDbArc
 50
30.8
 51
90.0
  0
ARC
  5
303
330
2D5
100
AcDbEntity
  8
0
  6
Continuous
 62
     0
370
     0
100
AcDbCircle
 10
858.715097
 20
861.035489
 30
0.0
 40
69.5
100
AcDbArc
 50
30.8
 51
90.0
  0
LINE
  5
304
330
2D5
100
AcDbEntity
  8
0
  6
Continuous
 62
     0
370
    30
100
AcDbLine
 10
918.842289
 20
896.878489
 30
0.0
 11
927.690494
 21
882.035489
 31
0.0
  0
LINE
  5
305
330
2D5
100
AcDbEntity
  8
0
  6
Continuous
 62
     0
370
     0
100
AcDbLine
 10
918.41281
 20
896.622468
 30
0.0
 11
927.108394
 21
882.035489
 31
0.0
  0
LINE
  5
306
330
2D5
100
AcDbEntity
  8
0
  6
Continuous
 62
     0
370
    30
100
AcDbLine
 10
916.048507
 20
882.035489
 30
0.0
 11
910.25269
 21
891.758061
 31
0.0
  0
LINE
  5
307
330
2D5
100
AcDbEntity
  8
0
  6
Continuous
 62
     0
370
     0
100
AcDbLine
 10
916.630606
 20
882.035489
 30
0.0
 11
910.68217
 21
892.014082
 31
0.0
  0
ARC
  5
308
330
2D5
100
AcDbEntity
  8
0
  6
Continuous
 62
     0
370
    30
100
AcDbCircle
 10
858.715097
 20
861.035489
 30
0.0
 40
60.0
100
AcDbArc
 50
30.8
 51
90.0
  0
ARC
  5
309
330
2D5
100
AcDbEntity
  8
0
  6
Continuous
 62
     0
370
     0
100
AcDbCircle
 10
858.715097
 20
861.035489
 30
0.0
 40
60.5
100
AcDbArc
 50
30.8
 51
90.0
  0
LINE
  5
30A
330
2D5
100
AcDbEntity
  8
0
  6
Continuous
 62
     0
370
    30
100
AcDbLine
 10
858.715097
 20
921.035489
 30
0.0
 11
752.314742
 21
921.035489
 31
0.0
  0
LINE
  5
30B
330
2D5
100
AcDbEntity
  8
0
  6
Continuous
 62
     0
370
     0
100
AcDbLine
 10
858.715097
 20
921.535489
 30
0.0
 11
752.314742
 21
921.535489
 31
0.0
  0
LINE
  5
30C
330
2D5
100
AcDbEntity
  8
0
  6
Continuous
 62
     0
370
     0
100
AcDbLine
 10
858.715097
 20
931.035489
 30
0.0
 11
858.715097
 21
930.535489
 31
0.0
  0
LINE
  5
30D
330
2D5
100
AcDbEntity
  8
0
  6
Continuous
 62
     0
370
     0
100
AcDbLine
 10
918.842289
 20
896.878489
 30
0.0
 11
918.41281
 21
896.622468
 31
0.0
  0
LINE
  5
30E
330
2D5
100
AcDbEntity
  8
0
  6
Continuous
 62
     0
370
     0
100
AcDbLine
 10
910.25269
 20
891.758061
 30
0.0
 11
910.68217
 21
892.014082
 31
0.0
  0
LINE
  5
30F
330
2D5
100
AcDbEntity
  8
0
  6
Continuous
 62
     0
370
     0
100
AcDbLine
 10
858.715097
 20
921.035489
 30
0.0
 11
858.715097
 21
921.535489
 31
0.0
  0
LINE
  5
310
330
2D5
100
AcDbEntity
  8
0
  6
Continuous
 62
     0
370
    30
100
AcDbLine
 10
927.108394
 20
882.035489
 30
0.0
 11
916.630606
 21
882.035489
 31
0.0
  0
LINE
  5
311
330
2D5
100
AcDbEntity
  8
0
  6
Continuous
 62
     0
370
    30
100
AcDbLine
 10
927.690494
 20
882.035489
 30
0.0
 11
927.108394
 21
882.035489
 31
0.0
  0
LINE
  5
312
330
2D5
100
AcDbEntity
  8
0
  6
Continuous
 62
     0
370
    30
100
AcDbLine
 10
916.048507
 20
882.035489
 30
0.0
 11
916.630606
 21
882.035489
 31
0.0
  0
LINE
  5
313
330
2D5
100
AcDbEntity
  8
0
  6
Continuous
 62
     0
370
    30
100
AcDbLine
 10
742.094742
 20
954.485489
 30
0.0
 11
742.094742
 21
953.985489
 31
0.0
  0
LINE
  5
314
330
2D5
100
AcDbEntity
  8
0
  6
Continuous
 62
     0
370
    30
100
AcDbLine
 10
742.094742
 20
953.985489
 30
0.0
 11
742.094742
 21
897.985489
 31
0.0
  0
LINE
  5
315
330
2D5
100
AcDbEntity
  8
0
  6
Continuous
 62
     0
370
    30
100
AcDbLine
 10
742.094742
 20
897.985489
 30
0.0
 11
742.094742
 21
897.485489
 31
0.0
  0
LINE
  5
316
330
2D5
100
AcDbEntity
  8
0
  6
Continuous
 62
     0
370
     0
100
AcDbLine
 10
751.814742
 20
897.985489
 30
0.0
 11
751.814742
 21
897.485489
 31
0.0
  0
ARC
  5
317
330
2D5
100
AcDbEntity
  8
0
  6
Continuous
 62
     0
370
    30
100
AcDbCircle
 10
751.814742
 20
897.985489
 30
0.0
 40
0.5000000000000012
100
AcDbArc
 50
270.0
 51
360.0
  0
LINE
  5
318
330
2D5
100
AcDbEntity
  8
0
  6
Continuous
 62
     0
370
     0
100
AcDbLine
 10
752.314742
 20
897.985489
 30
0.0
 11
751.814742
 21
897.985489
 31
0.0
  0
ARC
  5
319
330
2D5
100
AcDbEntity
  8
0
  6
Continuous
 62
     0
370
    30
100
AcDbCircle
 10
751.814742
 20
953.985489
 30
0.0
 40
0.5
100
AcDbArc
 50
0.0
 51
90.0
  0
LINE
  5
31A
330
2D5
100
AcDbEntity
  8
0
  6
Continuous
 62
     0
370
     0
100
AcDbLine
 10
751.814742
 20
953.985489
 30
0.0
 11
752.314742
 21
953.985489
 31
0.0
  0
LINE
  5
31B
330
2D5
100
AcDbEntity
  8
0
  6
Continuous
 62
     0
370
     0
100
AcDbLine
 10
751.814742
 20
954.485489
 30
0.0
 11
751.814742
 21
953.985489
 31
0.0
  0
LINE
  5
31C
330
2D5
100
AcDbEntity
  8
0
  6
Continuous
 62
     0
370
    30
100
AcDbLine
 10
742.094742
 20
897.485489
 30
0.0
 11
751.814742
 21
897.485489
 31
0.0
  0
LINE
  5
31D
330
2D5
100
AcDbEntity
  8
0
  6
Continuous
 62
     0
370
     0
100
AcDbLine
 10
751.814742
 20
897.985489
 30
0.0
 11
742.094742
 21
897.985489
 31
0.0
  0
LINE
  5
31E
330
2D5
100
AcDbEntity
  8
0
  6
Continuous
 62
     0
370
    30
100
AcDbLine
 10
752.314742
 20
953.985489
 30
0.0
 11
752.314742
 21
897.985489
 31
0.0
  0
LINE
  5
31F
330
2D5
100
AcDbEntity
  8
0
  6
Continuous
 62
     0
370
    30
100
AcDbLine
 10
751.814742
 20
954.485489
 30
0.0
 11
742.094742
 21
954.485489
 31
0.0
  0
LINE
  5
320
330
2D5
100
AcDbEntity
  8
0
  6
Continuous
 62
     0
370
     0
100
AcDbLine
 10
742.094742
 20
953.985489
 30
0.0
 11
751.814742
 21
953.985489
 31
0.0
  0
LINE
  5
321
330
2D5
100
AcDbEntity
  8
0
  6
Continuous
 62
     0
370
     0
100
AcDbLine
 10
751.814742
 20
953.985489
 30
0.0
 11
751.814742
 21
897.985489
 31
0.0
  0
LINE
  5
322
330
2D5
100
AcDbEntity
  8
0
  6
Continuous
 62
     0
370
    30
100
AcDbLine
 10
805.344724
 20
1114.899737
 30
0.0
 11
806.344724
 21
1114.899737
 31
0.0
  0
LINE
  5
323
330
2D5
100
AcDbEntity
  8
0
  6
Continuous
 62
     0
370
    30
100
AcDbLine
 10
806.344724
 20
1114.899737
 30
0.0
 11
827.844724
 21
1114.899737
 31
0.0
  0
LINE
  5
324
330
2D5
100
AcDbEntity
  8
0
  6
Continuous
 62
     0
370
    30
100
AcDbLine
 10
827.844724
 20
1114.899737
 30
0.0
 11
828.844724
 21
1114.899737
 31
0.0
  0
LINE
  5
325
330
2D5
100
AcDbEntity
  8
0
  6
Continuous
 62
     0
370
    30
100
AcDbLine
 10
827.844724
 20
934.899737
 30
0.0
 11
828.844724
 21
934.899737
 31
0.0
  0
LINE
  5
326
330
2D5
100
AcDbEntity
  8
0
  6
Continuous
 62
     0
370
    30
100
AcDbLine
 10
806.344724
 20
934.899737
 30
0.0
 11
827.844724
 21
934.899737
 31
0.0
  0
LINE
  5
327
330
2D5
100
AcDbEntity
  8
0
  6
Continuous
 62
     0
370
    30
100
AcDbLine
 10
805.344724
 20
934.899737
 30
0.0
 11
806.344724
 21
934.899737
 31
0.0
  0
LINE
  5
328
330
2D5
100
AcDbEntity
  8
0
  6
Continuous
 62
     0
370
    30
100
AcDbLine
 10
805.344724
 20
1114.899737
 30
0.0
 11
805.344724
 21
934.899737
 31
0.0
  0
LINE
  5
329
330
2D5
100
AcDbEntity
  8
0
  6
Continuous
 62
     0
370
     0
100
AcDbLine
 10
806.344724
 20
1114.899737
 30
0.0
 11
806.344724
 21
934.899737
 31
0.0
  0
LINE
  5
32A
330
2D5
100
AcDbEntity
  8
0
  6
Continuous
 62
     0
370
     0
100
AcDbLine
 10
827.844724
 20
1114.899737
 30
0.0
 11
827.844724
 21
934.899737
 31
0.0
  0
LINE
  5
32B
330
2D5
100
AcDbEntity
  8
0
  6
Continuous
 62
     0
370
    30
100
AcDbLine
 10
828.844724
 20
1114.899737
 30
0.0
 11
828.844724
 21
934.899737
 31
0.0
  0
LINE
  5
32C
330
2D5
100
AcDbEntity
  8
0
  6
Continuous
 62
     0
370
     0
100
AcDbLine
 10
817.094724
 20
931.035489
 30
0.0
 11
817.094724
 21
934.485489
 31
0.0
  0
LINE
  5
32D
330
2D5
100
AcDbEntity
  8
0
  6
Continuous
 62
     0
370
     0
100
AcDbLine
 10
817.094724
 20
914.485489
 30
0.0
 11
817.094724
 21
921.035489
 31
0.0
  0
LINE
  5
32E
330
2D5
100
AcDbEntity
  8
0
  6
Continuous
 62
     0
370
    30
100
AcDbLine
 10
817.094724
 20
934.485489
 30
0.0
 11
781.094724
 21
934.485489
 31
0.0
  0
LINE
  5
32F
330
2D5
100
AcDbEntity
  8
0
  6
Continuous
 62
     0
370
    30
100
AcDbLine
 10
781.094724
 20
914.485489
 30
0.0
 11
817.094724
 21
914.485489
 31
0.0
  0
LINE
  5
330
330
2D5
100
AcDbEntity
  8
0
  6
Continuous
 62
     0
370
    30
100
AcDbLine
 10
817.094724
 20
914.485489
 30
0.0
 11
834.415232
 21
914.485489
 31
0.0
  0
LINE
  5
331
330
2D5
100
AcDbEntity
  8
0
  6
Continuous
 62
     0
370
     0
100
AcDbLine
 10
834.415232
 20
931.035489
 30
0.0
 11
834.415232
 21
934.485489
 31
0.0
  0
LINE
  5
332
330
2D5
100
AcDbEntity
  8
0
  6
Continuous
 62
     0
370
     0
100
AcDbLine
 10
834.415232
 20
914.485489
 30
0.0
 11
834.415232
 21
921.035489
 31
0.0
  0
LINE
  5
333
330
2D5
100
AcDbEntity
  8
0
  6
Continuous
 62
     0
370
    30
100
AcDbLine
 10
834.415232
 20
934.485489
 30
0.0
 11
817.094724
 21
934.485489
 31
0.0
  0
LINE
  5
334
330
2D5
100
AcDbEntity
  8
0
  6
Continuous
 62
     0
370
    30
100
AcDbLine
 10
834.415232
 20
914.485489
 30
0.0
 11
834.549207
 21
914.485489
 31
0.0
  0
LINE
  5
335
330
2D5
100
AcDbEntity
  8
0
  6
Continuous
 62
     0
370
    30
100
AcDbLine
 10
834.549207
 20
934.485489
 30
0.0
 11
834.415232
 21
934.485489
 31
0.0
  0
LINE
  5
336
330
2D5
100
AcDbEntity
  8
0
  6
Continuous
 62
     0
370
     0
100
AcDbLine
 10
780.594724
 20
908.485489
 30
0.0
 11
793.294723
 21
908.485489
 31
0.0
  0
LINE
  5
337
330
2D5
100
AcDbEntity
  8
0
  6
Continuous
 62
     0
370
    30
100
AcDbLine
 10
770.694723
 20
908.285489
 30
0.0
 11
775.885293
 21
908.285489
 31
0.0
  0
LINE
  5
338
330
2D5
100
AcDbEntity
  8
0
  6
Continuous
 62
     0
370
    30
100
AcDbLine
 10
775.885293
 20
908.285489
 30
0.0
 11
793.094723
 21
908.285489
 31
0.0
  0
LINE
  5
339
330
2D5
100
AcDbEntity
  8
0
  6
Continuous
 62
     0
370
    30
100
AcDbLine
 10
807.194723
 20
904.899737
 30
0.0
 11
821.907701
 21
904.899737
 31
0.0
  0
LINE
  5
33A
330
2D5
100
AcDbEntity
  8
0
  6
Continuous
 62
     0
370
    30
100
AcDbLine
 10
821.907701
 20
904.899737
 30
0.0
 11
826.994723
 21
904.899737
 31
0.0
  0
LINE
  5
33B
330
2D5
100
AcDbEntity
  8
0
  6
Continuous
 62
     0
370
    30
100
AcDbLine
 10
770.444723
 20
907.702984
 30
0.0
 11
780.071317
 21
907.702984
 31
0.0
  0
LINE
  5
33C
330
2D5
100
AcDbEntity
  8
0
  6
Continuous
 62
     0
370
    30
100
AcDbLine
 10
780.071317
 20
907.702984
 30
0.0
 11
793.344723
 21
907.702984
 31
0.0
  0
LINE
  5
33D
330
2D5
100
AcDbEntity
  8
0
  6
Continuous
 62
     0
370
    30
100
AcDbLine
 10
771.994723
 20
877.702984
 30
0.0
 11
780.318154
 21
877.702984
 31
0.0
  0
LINE
  5
33E
330
2D5
100
AcDbEntity
  8
0
  6
Continuous
 62
     0
370
    30
100
AcDbLine
 10
780.318154
 20
877.702984
 30
0.0
 11
791.794723
 21
877.702984
 31
0.0
  0
LINE
  5
33F
330
2D5
100
AcDbEntity
  8
0
  6
Continuous
 62
     0
370
    30
100
AcDbLine
 10
742.094725
 20
894.985489
 30
0.0
 11
742.094725
 21
897.485489
 31
0.0
  0
LINE
  5
340
330
2D5
100
AcDbEntity
  8
0
  6
Continuous
 62
     0
370
    30
100
AcDbLine
 10
742.094725
 20
894.985489
 30
0.0
 11
742.094725
 21
894.485489
 31
0.0
  0
LINE
  5
341
330
2D5
100
AcDbEntity
  8
0
  6
Continuous
 62
     0
370
     0
100
AcDbLine
 10
751.594725
 20
894.985489
 30
0.0
 11
752.094725
 21
894.985489
 31
0.0
  0
LINE
  5
342
330
2D5
100
AcDbEntity
  8
0
  6
Continuous
 62
     0
370
     0
100
AcDbLine
 10
751.594725
 20
894.985489
 30
0.0
 11
751.594725
 21
897.485489
 31
0.0
  0
LINE
  5
343
330
2D5
100
AcDbEntity
  8
0
  6
Continuous
 62
     0
370
    30
100
AcDbLine
 10
752.094725
 20
894.985489
 30
0.0
 11
752.094725
 21
897.571243
 31
0.0
  0
LINE
  5
344
330
2D5
100
AcDbEntity
  8
0
  6
Continuous
 62
     0
370
     0
100
AcDbLine
 10
751.594725
 20
894.985489
 30
0.0
 11
751.594725
 21
894.485489
 31
0.0
  0
ARC
  5
345
330
2D5
100
AcDbEntity
  8
0
  6
Continuous
 62
     0
370
    30
100
AcDbCircle
 10
751.594725
 20
894.985489
 30
0.0
 40
0.5
100
AcDbArc
 50
270.0
 51
0.0
  0
LINE
  5
346
330
2D5
100
AcDbEntity
  8
0
  6
Continuous
 62
     0
370
     0
100
AcDbLine
 10
751.594725
 20
894.985489
 30
0.0
 11
742.094725
 21
894.985489
 31
0.0
  0
LINE
  5
347
330
2D5
100
AcDbEntity
  8
0
  6
Continuous
 62
     0
370
    30
100
AcDbLine
 10
751.594725
 20
894.485489
 30
0.0
 11
742.094725
 21
894.485489
 31
0.0
  0
LINE
  5
348
330
2D5
100
AcDbEntity
  8
0
  6
Continuous
 62
     0
370
    30
100
AcDbLine
 10
817.094724
 20
904.899737
 30
0.0
 11
823.094664
 21
904.872972
 31
0.0
  0
LINE
  5
349
330
2D5
100
AcDbEntity
  8
0
  6
Continuous
 62
     0
370
    30
100
AcDbLine
 10
781.894724
 20
877.702984
 30
0.0
 11
775.894971
 21
877.648456
 31
0.0
  0
LINE
  5
34A
330
2D5
100
AcDbEntity
  8
0
  6
Continuous
 62
     0
370
    30
100
AcDbLine
 10
793.344723
 20
907.702984
 30
0.0
 11
791.794723
 21
877.702984
 31
0.0
  0
LINE
  5
34B
330
2D5
100
AcDbEntity
  8
0
  6
Continuous
 62
     0
370
    30
100
AcDbLine
 10
770.444723
 20
907.702984
 30
0.0
 11
771.994723
 21
877.702984
 31
0.0
  0
LINE
  5
34C
330
2D5
100
AcDbEntity
  8
0
  6
Continuous
 62
     0
370
    30
100
AcDbLine
 10
827.489987
 20
914.485489
 30
0.0
 11
826.994723
 21
904.899737
 31
0.0
  0
LINE
  5
34D
330
2D5
100
AcDbEntity
  8
0
  6
Continuous
 62
     0
370
    30
100
AcDbLine
 10
828.544723
 20
934.899737
 30
0.0
 11
828.523321
 21
934.485489
 31
0.0
  0
LINE
  5
34E
330
2D5
100
AcDbEntity
  8
0
  6
Continuous
 62
     0
370
    30
100
AcDbLine
 10
805.644723
 20
934.899737
 30
0.0
 11
805.666126
 21
934.485489
 31
0.0
  0
LINE
  5
34F
330
2D5
100
AcDbEntity
  8
0
  6
Continuous
 62
     0
370
    30
100
AcDbLine
 10
806.69946
 20
914.485489
 30
0.0
 11
807.194723
 21
904.899737
 31
0.0
  0
SPLINE
  5
350
330
2D5
100
AcDbEntity
  8
0
  6
Continuous
 62
     0
370
    30
100
AcDbSpline
210
0.0
220
0.0
230
1.0
 70
     8
 71
     3
 72
    75
 73
    71
 74
     0
 42
0.000000001
 43
0.0
 40
0.0
 40
0.0
 40
0.0
 40
0.0
 40
12.18534670700361
 40
24.40666232242233
 40
40.6960879979675
 40
49.4574885754369
 40
57.08312747120601
 40
62.43730501241546
 40
67.72709277218851
 40
80.02739129442031
 40
90.61267769424157
 40
101.3957317814429
 40
112.5671595240091
 40
128.085738583263
 40
137.025455397032
 40
149.013280301743
 40
160.8714788150001
 40
170.4812257259017
 40
181.468530801468
 40
189.1940642688275
 40
195.6257143956364
 40
197.922397962295
 40
200.8817212480274
 40
205.104597456348
 40
208.4434199920546
 40
213.5084598847022
 40
217.7550448545124
 40
220.1252652755388
 40
223.5839728935134
 40
226.0979616465386
 40
228.012269027112
 40
229.094605942487
 40
230.441527246154
 40
231.788584417628
 40
234.5232957607259
 40
237.9602796186269
 40
241.1790169310802
 40
244.1403623206722
 40
247.4230725827578
 40
250.4718215569922
 40
253.6206800114576
 40
256.8957538485546
 40
259.6182307953642
 40
262.4361608367325
 40
267.1000556597266
 40
271.7877629763763
 40
276.6782295567356
 40
285.5019320206655
 40
295.5047997295936
 40
302.6942719781084
 40
310.0621971089513
 40
321.3695357919057
 40
335.7894526440982
 40
343.5528671912664
 40
356.2003715548531
 40
363.9839997541177
 40
371.7565318782266
 40
379.5243949491358
 40
397.1979485466483
 40
413.395830027374
 40
419.6216369151124
 40
424.8972329523683
 40
431.448396757613
 40
438.3936491088301
 40
445.8971950822939
 40
451.2874649998851
 40
456.9723391246533
 40
464.9846168276205
 40
475.011537170188
 40
484.9408020497617
 40
484.9408020497617
 40
484.9408020497617
 40
484.9408020497617
 10
775.894971476221
 20
877.6484561910204
 30
0.0
 10
775.9265238078161
 20
873.586806223893
 30
0.0
 10
775.9527661423223
 20
865.4512124668304
 30
0.0
 10
775.9054646530966
 20
851.885893586508
 30
0.0
 10
775.7693263223804
 20
839.4623835025168
 30
0.0
 10
775.5346382015939
 20
828.5726756501984
 30
0.0
 10
775.3421759542662
 20
821.3281605453487
 30
0.0
 10
775.1881795079937
 20
815.2402264229465
 30
0.0
 10
775.0350194776165
 20
807.5936568429005
 30
0.0
 10
774.9557806094053
 20
798.2016590075715
 30
0.0
 10
775.1347189213285
 20
786.9792773961412
 30
0.0
 10
775.6076647931214
 20
776.141829954196
 30
0.0
 10
776.528198152612
 20
763.6833198693043
 30
0.0
 10
777.8326360952024
 20
751.8758226844632
 30
0.0
 10
779.5856237602309
 20
739.8532184220215
 30
0.0
 10
781.4966150920197
 20
729.0911712746351
 30
0.0
 10
783.8717663844776
 20
718.1925445891989
 30
0.0
 10
786.6149219895669
 20
707.7254490186397
 30
0.0
 10
789.4585873769269
 20
698.7182738209167
 30
0.0
 10
792.4634114324831
 20
690.8903674215084
 30
0.0
 10
794.7148281174532
 20
685.8865942852934
 30
0.0
 10
796.4681237467726
 20
682.4071446532016
 30
0.0
 10
797.9714288005221
 20
679.6275937817104
 30
0.0
 10
799.7856571553923
 20
676.6239176200183
 30
0.0
 10
802.2097243351967
 20
673.180334810005
 30
0.0
 10
804.9722707288229
 20
669.9806824472975
 30
0.0
 10
807.9370999055682
 20
667.4386992501703
 30
0.0
 10
810.7443351133658
 20
665.5883835805926
 30
0.0
 10
813.2436349428388
 20
664.3488032266027
 30
0.0
 10
815.7547757638936
 20
663.5486434222161
 30
0.0
 10
817.5664176372062
 20
663.2251478526912
 30
0.0
 10
819.0109993487079
 20
663.1133399196247
 30
0.0
 10
820.2712130627037
 20
663.1240426039814
 30
0.0
 10
822.0727082862612
 20
663.3167579089006
 30
0.0
 10
824.5132833282464
 20
663.9279748807112
 30
0.0
 10
827.3743518851736
 20
665.2305593070881
 30
0.0
 10
830.0431745273249
 20
667.0218552544686
 30
0.0
 10
832.4078076135063
 20
669.1188338059543
 30
0.0
 10
834.4479349567306
 20
671.458063364367
 30
0.0
 10
836.2446744566466
 20
674.0624365239864
 30
0.0
 10
837.7936192040322
 20
676.8171392452599
 30
0.0
 10
839.0841375114946
 20
679.5812469167097
 30
0.0
 10
840.1832882090602
 20
682.307137985832
 30
0.0
 10
841.3293152596077
 20
685.51038825165
 30
0.0
 10
842.5085125771022
 20
689.3934457852793
 30
0.0
 10
843.6498503014926
 20
694.0029870246409
 30
0.0
 10
844.8433892430395
 20
700.0214254971382
 30
0.0
 10
845.915119578157
 20
707.8589262205509
 30
0.0
 10
846.5356807779752
 20
716.5126791301092
 30
0.0
 10
846.7327328931553
 20
724.6984366587562
 30
0.0
 10
846.6319633258856
 20
733.3207235594623
 30
0.0
 10
846.0491424295502
 20
744.3402128711164
 30
0.0
 10
844.8995836791321
 20
755.4480802534802
 30
0.0
 10
843.2948205024446
 20
766.9477178625682
 30
0.0
 10
841.7175217193377
 20
776.2139300995152
 30
0.0
 10
839.9266892309445
 20
785.4432720874316
 30
0.0
 10
838.3367677812206
 20
793.0538098991068
 30
0.0
 10
835.9572414672784
 20
803.8664822414356
 30
0.0
 10
832.8667635035235
 20
817.3978655239516
 30
0.0
 10
830.095781025912
 20
830.4742737205333
 30
0.0
 10
828.3904128498467
 20
839.5488106708924
 30
0.0
 10
827.3611380132018
 20
845.4777999851465
 30
0.0
 10
826.4028159099145
 20
851.6616943643401
 30
0.0
 10
825.4910886285887
 20
858.6025691474899
 30
0.0
 10
824.7900949775863
 20
865.1788263776904
 30
0.0
 10
824.2547735822111
 20
871.3487287145056
 30
0.0
 10
823.7997873548063
 20
877.6950872527528
 30
0.0
 10
823.3699905523634
 20
885.5918322667578
 30
0.0
 10
823.0732477187544
 20
894.9106302836534
 30
0.0
 10
823.0481210842903
 20
901.5636791234234
 30
0.0
 10
823.0946637782398
 20
904.8729721199062
 30
0.0
  0
SPLINE
  5
351
330
2D5
100
AcDbEntity
  8
0
  6
Continuous
 62
     0
370
    30
100
AcDbSpline
210
0.0
220
0.0
230
1.0
 70
     8
 71
     3
 72
    79
 73
    75
 74
     0
 42
0.000000001
 43
0.0
 40
0.0
 40
0.0
 40
0.0
 40
0.0
 40
12.29400288500369
 40
24.61999294399207
 40
41.02902149802068
 40
49.83227996397913
 40
57.4596073936593
 40
62.78260209811228
 40
68.00949284133753
 40
80.05768691511712
 40
90.34426640016098
 40
100.7833234110765
 40
111.5879094983572
 40
128.5000729647229
 40
141.9598659241288
 40
149.6228861302019
 40
161.7990432340245
 40
168.9846931649797
 40
174.1531198521361
 40
179.09102442893
 40
185.9919442942737
 40
189.5299129483396
 40
194.0901458882406
 40
197.0469620092084
 40
199.7336433230187
 40
203.0032623560528
 40
204.2163495540921
 40
205.9706425472981
 40
207.6506151959415
 40
208.5629152101116
 40
209.5333692470256
 40
210.2166837335992
 40
210.8509043758783
 40
211.1574321081014
 40
211.6118999423728
 40
212.3072567985332
 40
213.0653764923023
 40
213.631548746104
 40
214.6140296084324
 40
216.025506634921
 40
217.2359239022627
 40
218.1429303516825
 40
220.6418767488718
 40
223.0157874576719
 40
224.5578312830724
 40
226.5041670063391
 40
229.8974428729856
 40
232.3173156343447
 40
235.2917542288841
 40
240.02443738084
 40
243.5821004221308
 40
249.5695362245714
 40
255.0747815986176
 40
260.7949615734535
 40
268.1945134704289
 40
278.5425369797882
 40
290.7281348346615
 40
298.4783450353775
 40
304.7318992184124
 40
311.0190550799603
 40
326.1861916556183
 40
331.910734734736
 40
345.4070345883481
 40
361.344733833595
 40
369.6031446527515
 40
377.4953564766121
 40
385.9616162752886
 40
393.863738264061
 40
406.9139765514559
 40
412.9360920254304
 40
419.2981608155443
 40
432.6300254984199
 40
440.7370491467921
 40
447.3947226377818
 40
447.3947226377818
 40
447.3947226377818
 40
447.3947226377818
 10
787.8948993244229
 20
877.7029843431817
 30
0.0
 10
787.9266334124088
 20
873.6051161022283
 30
0.0
 10
787.9527810616644
 20
865.3984104371432
 30
0.0
 10
787.9044822937935
 20
851.7221161035587
 30
0.0
 10
787.7669132840792
 20
839.209904408452
 30
0.0
 10
787.5310303782865
 20
828.2658263356348
 30
0.0
 10
787.3383341365898
 20
821.0171947952282
 30
0.0
 10
787.1848900975817
 20
814.960053512105
 30
0.0
 10
787.0342018445276
 20
807.4288520447188
 30
0.0
 10
786.9569464016209
 20
798.2414275490478
 30
0.0
 10
787.1310683533685
 20
787.3173013996466
 30
0.0
 10
787.5899625420608
 20
776.816103905616
 30
0.0
 10
788.5298764268423
 20
764.1307872173606
 30
0.0
 10
790.0754160165035
 20
750.4885801568244
 30
0.0
 10
792.0634207797318
 20
737.9642695963928
 30
0.0
 10
794.1797461287558
 20
727.0672955155164
 30
0.0
 10
796.2157241148552
 20
718.2894029473391
 30
0.0
 10
798.3964741581258
 20
710.4075710078912
 30
0.0
 10
800.109039377547
 20
704.9031983166069
 30
0.0
 10
801.9582577895637
 20
699.543540642406
 30
0.0
 10
803.8356455875494
 20
694.7716096907126
 30
0.0
 10
805.9097212666713
 20
690.2213357753149
 30
0.0
 10
807.6110247784253
 20
686.9499842259214
 30
0.0
 10
809.3815507988189
 20
684.0441311719803
 30
0.0
 10
811.0679349796649
 20
681.5968289535941
 30
0.0
 10
812.5559143265039
 20
679.7236650838177
 30
0.0
 10
813.962853055112
 20
678.1923095731481
 30
0.0
 10
815.0767094317533
 20
677.1141120627993
 30
0.0
 10
816.2209519052909
 20
676.2190869399747
 30
0.0
 10
817.2528896276671
 20
675.6267347154992
 30
0.0
 10
818.0519334334303
 20
675.3123300706702
 30
0.0
 10
818.8004715598587
 20
675.1551276858406
 30
0.0
 10
819.3417665695218
 20
675.1196790637205
 30
0.0
 10
819.8069105590719
 20
675.1290637048018
 30
0.0
 10
820.2908659262512
 20
675.1742086747367
 30
0.0
 10
820.912095299277
 20
675.3226027638586
 30
0.0
 10
821.5277213524973
 20
675.6021542670667
 30
0.0
 10
822.1765494582222
 20
676.0169296019797
 30
0.0
 10
822.9344034133395
 20
676.6523596416164
 30
0.0
 10
823.7550619626
 20
677.5322221307588
 30
0.0
 10
824.4919915593434
 20
678.4495697874818
 30
0.0
 10
825.3986978564412
 20
679.6932554177239
 30
0.0
 10
826.4330882289602
 20
681.3206425505165
 30
0.0
 10
827.4492789854239
 20
683.2032679877874
 30
0.0
 10
828.2889175664797
 20
684.9682081180079
 30
0.0
 10
829.183663744492
 20
687.0811382472257
 30
0.0
 10
830.0456645687723
 20
689.5213682748354
 30
0.0
 10
830.8843226124113
 20
692.3284107717757
 30
0.0
 10
831.7237648288163
 20
695.5987864055038
 30
0.0
 10
832.4876770997577
 20
699.276436634464
 30
0.0
 10
833.2685284372354
 20
703.9718157326126
 30
0.0
 10
833.8910696450988
 20
708.9512228784228
 30
0.0
 10
834.3696611048139
 20
714.6697920684064
 30
0.0
 10
834.6670479190276
 20
720.8719590098783
 30
0.0
 10
834.7432683344704
 20
728.6957665008006
 30
0.0
 10
834.3973890294349
 20
738.6704292891399
 30
0.0
 10
833.5592431001838
 20
748.7331130951549
 30
0.0
 10
832.5188486344839
 20
757.4014321572364
 30
0.0
 10
831.5602963731443
 20
764.0971305516304
 30
0.0
 10
830.0786084583438
 20
773.2138963966976
 30
0.0
 10
828.372058576304
 20
782.1126381908302
 30
0.0
 10
826.007466917987
 20
793.3288459620765
 30
0.0
 10
823.4407545273365
 20
804.7639985219175
 30
0.0
 10
820.6783413186356
 20
817.020838937716
 30
0.0
 10
818.4817556041373
 20
827.4892411306771
 30
0.0
 10
816.9128793799043
 20
835.5437281698552
 30
0.0
 10
815.5092953805186
 20
843.5083528263458
 30
0.0
 10
814.0427845523276
 20
853.2051375258704
 30
0.0
 10
813.008970092936
 20
862.1389534495779
 30
0.0
 10
812.2745220741856
 20
870.5855120713295
 30
0.0
 10
811.6706143337008
 20
879.1364909635055
 30
0.0
 10
811.2371104658102
 20
888.3945983963657
 30
0.0
 10
811.0538480774129
 20
897.7588532335765
 30
0.0
 10
811.0638815004813
 20
902.6807632410623
 30
0.0
 10
811.0944161214265
 20
904.8997373586776
 30
0.0
  0
ARC
  5
352
330
2D5
100
AcDbEntity
  8
0
  6
Continuous
 62
     0
370
    30
100
AcDbCircle
 10
793.094684
 20
908.485521
 30
0.0
 40
0.2000321387428288
100
AcDbArc
 50
270.014101
 51
359.990797
  0
ARC
  5
353
330
2D5
100
AcDbEntity
  8
0
  6
Continuous
 62
     0
370
    30
100
AcDbCircle
 10
770.694763
 20
908.485521
 30
0.0
 40
0.2000321392227413
100
AcDbArc
 50
180.009203
 51
269.984373
  0
LINE
  5
354
330
2D5
100
AcDbEntity
  8
0
  6
Continuous
 62
     0
370
    30
100
AcDbLine
 10
793.294723
 20
908.485489
 30
0.0
 11
793.294723
 21
914.485489
 31
0.0
  0
LINE
  5
355
330
2D5
100
AcDbEntity
  8
0
  6
Continuous
 62
     0
370
    30
100
AcDbLine
 10
772.794723
 20
907.702984
 30
0.0
 11
772.794723
 21
908.285489
 31
0.0
  0
LINE
  5
356
330
2D5
100
AcDbEntity
  8
0
  6
Continuous
 62
     0
370
    30
100
AcDbLine
 10
790.994723
 20
907.702984
 30
0.0
 11
790.994723
 21
908.285489
 31
0.0
  0
LINE
  5
357
330
2D5
100
AcDbEntity
  8
0
  6
Continuous
 62
     0
370
    30
100
AcDbLine
 10
834.549207
 20
931.035489
 30
0.0
 11
834.549207
 21
934.485489
 31
0.0
  0
LINE
  5
358
330
2D5
100
AcDbEntity
  8
0
  6
Continuous
 62
     0
370
    30
100
AcDbLine
 10
834.549207
 20
914.485489
 30
0.0
 11
834.549207
 21
921.035489
 31
0.0
  0
ENDBLK
  5
35A
330
2D5
100
AcDbEntity
  8
0
100
AcDbBlockEnd
  0
BLOCK
  5
3CB
330
35C
100
AcDbEntity
  8
0
100
AcDbBlockBegin
  2
d
 70
     0
 10
-57.970673
 20
0.0
 30
0.0
  3
d
  1

  0
ARC
  5
35D
330
35C
100
AcDbEntity
  8
0
  6
Continuous
 62
     0
370
    30
100
AcDbCircle
 10
-118.667012
 20
953.985519
 30
0.0
 40
0.5
100
AcDbArc
 50
90.0
 51
180.0
  0
LINE
  5
35E
330
35C
100
AcDbEntity
  8
0
  6
Continuous
 62
     0
370
     0
100
AcDbLine
 10
-118.947012
 20
953.985519
 30
0.0
 11
-119.167012
 21
953.985519
 31
0.0
  0
LINE
  5
35F
330
35C
100
AcDbEntity
  8
0
  6
Continuous
 62
     0
370
    30
100
AcDbLine
 10
-119.167012
 20
914.485519
 30
0.0
 11
-119.167012
 21
897.985519
 31
0.0
  0
LINE
  5
360
330
35C
100
AcDbEntity
  8
0
  6
Continuous
 62
     0
370
    30
100
AcDbLine
 10
-119.167012
 20
953.985519
 30
0.0
 11
-119.167012
 21
934.485519
 31
0.0
  0
LINE
  5
361
330
35C
100
AcDbEntity
  8
0
  6
Continuous
 62
     0
370
     0
100
AcDbLine
 10
-119.167012
 20
897.985519
 30
0.0
 11
-118.947012
 21
897.985519
 31
0.0
  0
LINE
  5
362
330
35C
100
AcDbEntity
  8
0
  6
Continuous
 62
     0
370
     0
100
AcDbLine
 10
-118.667012
 20
954.434518
 30
0.0
 11
-118.667012
 21
954.485519
 31
0.0
  0
ARC
  5
363
330
35C
100
AcDbEntity
  8
0
  6
Continuous
 62
     0
370
    30
100
AcDbCircle
 10
-118.667012
 20
897.985519
 30
0.0
 40
0.5
100
AcDbArc
 50
180.0
 51
235.944202
  0
LINE
  5
364
330
35C
100
AcDbEntity
  8
0
  6
Continuous
 62
     0
370
    30
100
AcDbLine
 10
-118.447012
 20
954.485519
 30
0.0
 11
-118.667012
 21
954.485519
 31
0.0
  0
ARC
  5
365
330
35C
100
AcDbEntity
  8
0
  6
Continuous
 62
     0
370
     0
100
AcDbCircle
 10
-134.357345
 20
938.099215
 30
0.0
 40
14.99076497814765
100
AcDbArc
 50
346.050805
 51
359.565445
  0
LINE
  5
366
330
35C
100
AcDbEntity
  8
0
  6
Continuous
 62
     0
370
    30
100
AcDbLine
 10
-119.376661
 20
914.485519
 30
0.0
 11
-119.367011
 21
913.985519
 31
0.0
  0
ARC
  5
367
330
35C
100
AcDbEntity
  8
0
  6
Continuous
 62
     0
370
    30
100
AcDbCircle
 10
-126.367011
 20
937.985519
 30
0.0
 40
6.999999999999389
100
AcDbArc
 50
330.0
 51
0.0
  0
LINE
  5
368
330
35C
100
AcDbEntity
  8
0
  6
Continuous
 62
     0
370
    30
100
AcDbLine
 10
-119.367012
 20
934.485519
 30
0.0
 11
-119.367011
 21
949.985519
 31
0.0
  0
LINE
  5
369
330
35C
100
AcDbEntity
  8
0
  6
Continuous
 62
     0
370
    30
100
AcDbLine
 10
-119.367011
 20
901.985519
 30
0.0
 11
-119.367012
 21
914.485519
 31
0.0
  0
LINE
  5
36A
330
35C
100
AcDbEntity
  8
0
  6
Continuous
 62
     0
370
    30
100
AcDbLine
 10
-119.167011
 20
949.985519
 30
0.0
 11
-119.367011
 21
949.985519
 31
0.0
  0
LINE
  5
36B
330
35C
100
AcDbEntity
  8
0
  6
Continuous
 62
     0
370
    30
100
AcDbLine
 10
-119.167011
 20
901.985519
 30
0.0
 11
-119.367011
 21
901.985519
 31
0.0
  0
LINE
  5
36C
330
35C
100
AcDbEntity
  8
0
  6
Continuous
 62
     0
370
    30
100
AcDbLine
 10
-128.947007
 20
934.485519
 30
0.0
 11
-128.947007
 21
942.985519
 31
0.0
  0
LINE
  5
36D
330
35C
100
AcDbEntity
  8
0
  6
Continuous
 62
     0
370
    30
100
AcDbLine
 10
-128.947007
 20
908.985519
 30
0.0
 11
-128.947007
 21
914.485519
 31
0.0
  0
LINE
  5
36E
330
35C
100
AcDbEntity
  8
0
  6
Continuous
 62
     0
370
    30
100
AcDbLine
 10
-128.947007
 20
908.985519
 30
0.0
 11
-128.947007
 21
908.485519
 31
0.0
  0
LINE
  5
36F
330
35C
100
AcDbEntity
  8
0
  6
Continuous
 62
     0
370
    30
100
AcDbLine
 10
-128.947007
 20
943.485519
 30
0.0
 11
-128.947007
 21
942.985519
 31
0.0
  0
LINE
  5
370
330
35C
100
AcDbEntity
  8
0
  6
Continuous
 62
     0
370
     0
100
AcDbLine
 10
-128.947007
 20
908.985519
 30
0.0
 11
-137.347007
 21
908.985519
 31
0.0
  0
LINE
  5
371
330
35C
100
AcDbEntity
  8
0
  6
Continuous
 62
     0
370
    30
100
AcDbLine
 10
-128.947007
 20
908.485519
 30
0.0
 11
-137.347007
 21
908.485519
 31
0.0
  0
ARC
  5
372
330
35C
100
AcDbEntity
  8
0
  6
Continuous
 62
     0
370
    30
100
AcDbCircle
 10
-147.447007
 20
942.985519
 30
0.0
 40
0.4999999999999964
100
AcDbArc
 50
90.0
 51
180.0
  0
LINE
  5
373
330
35C
100
AcDbEntity
  8
0
  6
Continuous
 62
     0
370
     0
100
AcDbLine
 10
-147.447007
 20
943.485519
 30
0.0
 11
-147.447007
 21
942.985519
 31
0.0
  0
LINE
  5
374
330
35C
100
AcDbEntity
  8
0
  6
Continuous
 62
     0
370
     0
100
AcDbLine
 10
-147.447007
 20
942.985519
 30
0.0
 11
-147.947007
 21
942.985519
 31
0.0
  0
LINE
  5
375
330
35C
100
AcDbEntity
  8
0
  6
Continuous
 62
     0
370
    30
100
AcDbLine
 10
-147.947007
 20
934.485519
 30
0.0
 11
-147.947007
 21
942.985519
 31
0.0
  0
LINE
  5
376
330
35C
100
AcDbEntity
  8
0
  6
Continuous
 62
     0
370
     0
100
AcDbLine
 10
-147.447007
 20
934.485519
 30
0.0
 11
-147.447007
 21
942.985519
 31
0.0
  0
LINE
  5
377
330
35C
100
AcDbEntity
  8
0
  6
Continuous
 62
     0
370
    30
100
AcDbLine
 10
-128.947007
 20
943.485519
 30
0.0
 11
-147.447007
 21
943.485519
 31
0.0
  0
LINE
  5
378
330
35C
100
AcDbEntity
  8
0
  6
Continuous
 62
     0
370
     0
100
AcDbLine
 10
-128.947007
 20
942.985519
 30
0.0
 11
-147.447007
 21
942.985519
 31
0.0
  0
LINE
  5
379
330
35C
100
AcDbEntity
  8
0
  6
Continuous
 62
     0
370
     0
100
AcDbLine
 10
-119.947006
 20
935.195609
 30
0.0
 11
-119.947006
 21
940.485519
 31
0.0
  0
LINE
  5
37A
330
35C
100
AcDbEntity
  8
0
  6
Continuous
 62
     0
370
     0
100
AcDbLine
 10
-119.947006
 20
911.485519
 30
0.0
 11
-119.947006
 21
914.485519
 31
0.0
  0
LINE
  5
37B
330
35C
100
AcDbEntity
  8
0
  6
Continuous
 62
     0
370
    30
100
AcDbLine
 10
-119.947006
 20
911.485519
 30
0.0
 11
-128.947006
 21
911.485519
 31
0.0
  0
ARC
  5
37C
330
35C
100
AcDbEntity
  8
0
  6
Continuous
 62
     0
370
    30
100
AcDbCircle
 10
-119.947006
 20
910.485519
 30
0.0
 40
1.0
100
AcDbArc
 50
54.549457
 51
90.0
  0
ARC
  5
37D
330
35C
100
AcDbEntity
  8
0
  6
Continuous
 62
     0
370
    30
100
AcDbCircle
 10
-119.947006
 20
941.485519
 30
0.0
 40
1.0
100
AcDbArc
 50
270.0
 51
305.450543
  0
LINE
  5
37E
330
35C
100
AcDbEntity
  8
0
  6
Continuous
 62
     0
370
    30
100
AcDbLine
 10
-119.947006
 20
940.485519
 30
0.0
 11
-128.947006
 21
940.485519
 31
0.0
  0
LINE
  5
37F
330
35C
100
AcDbEntity
  8
0
  6
Continuous
 62
     0
370
    30
100
AcDbLine
 10
-201.401481
 20
931.035519
 30
0.0
 11
-225.567353
 21
931.035519
 31
0.0
  0
LINE
  5
380
330
35C
100
AcDbEntity
  8
0
  6
Continuous
 62
     0
370
     0
100
AcDbLine
 10
-201.401481
 20
930.535519
 30
0.0
 11
-225.567353
 21
930.535519
 31
0.0
  0
ARC
  5
381
330
35C
100
AcDbEntity
  8
0
  6
Continuous
 62
     0
370
    30
100
AcDbCircle
 10
-225.567353
 20
861.035519
 30
0.0
 40
70.0
100
AcDbArc
 50
90.0
 51
149.2
  0
ARC
  5
382
330
35C
100
AcDbEntity
  8
0
  6
Continuous
 62
     0
370
     0
100
AcDbCircle
 10
-225.567353
 20
861.035519
 30
0.0
 40
69.5
100
AcDbArc
 50
90.0
 51
149.2
  0
LINE
  5
383
330
35C
100
AcDbEntity
  8
0
  6
Continuous
 62
     0
370
    30
100
AcDbLine
 10
-285.694546
 20
896.87852
 30
0.0
 11
-294.54275
 21
882.035519
 31
0.0
  0
LINE
  5
384
330
35C
100
AcDbEntity
  8
0
  6
Continuous
 62
     0
370
     0
100
AcDbLine
 10
-285.265066
 20
896.622499
 30
0.0
 11
-293.960651
 21
882.035519
 31
0.0
  0
LINE
  5
385
330
35C
100
AcDbEntity
  8
0
  6
Continuous
 62
     0
370
    30
100
AcDbLine
 10
-282.900763
 20
882.035519
 30
0.0
 11
-277.104947
 21
891.758091
 31
0.0
  0
LINE
  5
386
330
35C
100
AcDbEntity
  8
0
  6
Continuous
 62
     0
370
     0
100
AcDbLine
 10
-283.482862
 20
882.035519
 30
0.0
 11
-277.534427
 21
892.014113
 31
0.0
  0
ARC
  5
387
330
35C
100
AcDbEntity
  8
0
  6
Continuous
 62
     0
370
    30
100
AcDbCircle
 10
-225.567353
 20
861.035519
 30
0.0
 40
60.0
100
AcDbArc
 50
90.0
 51
149.2
  0
ARC
  5
388
330
35C
100
AcDbEntity
  8
0
  6
Continuous
 62
     0
370
     0
100
AcDbCircle
 10
-225.567353
 20
861.035519
 30
0.0
 40
60.5
100
AcDbArc
 50
90.0
 51
149.2
  0
LINE
  5
389
330
35C
100
AcDbEntity
  8
0
  6
Continuous
 62
     0
370
    30
100
AcDbLine
 10
-225.567353
 20
921.035519
 30
0.0
 11
-201.401481
 21
921.035519
 31
0.0
  0
LINE
  5
38A
330
35C
100
AcDbEntity
  8
0
  6
Continuous
 62
     0
370
     0
100
AcDbLine
 10
-225.567353
 20
921.535519
 30
0.0
 11
-201.401481
 21
921.535519
 31
0.0
  0
LINE
  5
38B
330
35C
100
AcDbEntity
  8
0
  6
Continuous
 62
     0
370
     0
100
AcDbLine
 10
-225.567353
 20
931.035519
 30
0.0
 11
-225.567353
 21
930.535519
 31
0.0
  0
LINE
  5
38C
330
35C
100
AcDbEntity
  8
0
  6
Continuous
 62
     0
370
     0
100
AcDbLine
 10
-285.694546
 20
896.87852
 30
0.0
 11
-285.265066
 21
896.622499
 31
0.0
  0
LINE
  5
38D
330
35C
100
AcDbEntity
  8
0
  6
Continuous
 62
     0
370
     0
100
AcDbLine
 10
-277.104947
 20
891.758091
 30
0.0
 11
-277.534427
 21
892.014113
 31
0.0
  0
LINE
  5
38E
330
35C
100
AcDbEntity
  8
0
  6
Continuous
 62
     0
370
     0
100
AcDbLine
 10
-225.567353
 20
921.035519
 30
0.0
 11
-225.567353
 21
921.535519
 31
0.0
  0
LINE
  5
38F
330
35C
100
AcDbEntity
  8
0
  6
Continuous
 62
     0
370
    30
100
AcDbLine
 10
-293.960651
 20
882.035519
 30
0.0
 11
-283.482862
 21
882.035519
 31
0.0
  0
LINE
  5
390
330
35C
100
AcDbEntity
  8
0
  6
Continuous
 62
     0
370
    30
100
AcDbLine
 10
-294.54275
 20
882.035519
 30
0.0
 11
-293.960651
 21
882.035519
 31
0.0
  0
LINE
  5
391
330
35C
100
AcDbEntity
  8
0
  6
Continuous
 62
     0
370
    30
100
AcDbLine
 10
-282.900763
 20
882.035519
 30
0.0
 11
-283.482862
 21
882.035519
 31
0.0
  0
LINE
  5
392
330
35C
100
AcDbEntity
  8
0
  6
Continuous
 62
     0
370
    30
100
AcDbLine
 10
-194.697016
 20
1114.899768
 30
0.0
 11
-173.197016
 21
1114.899768
 31
0.0
  0
LINE
  5
393
330
35C
100
AcDbEntity
  8
0
  6
Continuous
 62
     0
370
    30
100
AcDbLine
 10
-173.197016
 20
1114.899768
 30
0.0
 11
-172.197016
 21
1114.899768
 31
0.0
  0
LINE
  5
394
330
35C
100
AcDbEntity
  8
0
  6
Continuous
 62
     0
370
    30
100
AcDbLine
 10
-195.697016
 20
1114.899768
 30
0.0
 11
-194.697016
 21
1114.899768
 31
0.0
  0
LINE
  5
395
330
35C
100
AcDbEntity
  8
0
  6
Continuous
 62
     0
370
    30
100
AcDbLine
 10
-195.697016
 20
934.899768
 30
0.0
 11
-194.697016
 21
934.899768
 31
0.0
  0
LINE
  5
396
330
35C
100
AcDbEntity
  8
0
  6
Continuous
 62
     0
370
    30
100
AcDbLine
 10
-173.197016
 20
934.899768
 30
0.0
 11
-172.197016
 21
934.899768
 31
0.0
  0
LINE
  5
397
330
35C
100
AcDbEntity
  8
0
  6
Continuous
 62
     0
370
    30
100
AcDbLine
 10
-194.697016
 20
934.899768
 30
0.0
 11
-173.197016
 21
934.899768
 31
0.0
  0
LINE
  5
398
330
35C
100
AcDbEntity
  8
0
  6
Continuous
 62
     0
370
     0
100
AcDbLine
 10
-173.197016
 20
1114.899768
 30
0.0
 11
-173.197016
 21
934.899768
 31
0.0
  0
LINE
  5
399
330
35C
100
AcDbEntity
  8
0
  6
Continuous
 62
     0
370
     0
100
AcDbLine
 10
-194.697016
 20
1114.899768
 30
0.0
 11
-194.697016
 21
934.899768
 31
0.0
  0
LINE
  5
39A
330
35C
100
AcDbEntity
  8
0
  6
Continuous
 62
     0
370
    30
100
AcDbLine
 10
-172.197016
 20
1114.899768
 30
0.0
 11
-172.197016
 21
934.899768
 31
0.0
  0
LINE
  5
39B
330
35C
100
AcDbEntity
  8
0
  6
Continuous
 62
     0
370
    30
100
AcDbLine
 10
-195.697016
 20
1114.899768
 30
0.0
 11
-195.697016
 21
934.899768
 31
0.0
  0
LINE
  5
39C
330
35C
100
AcDbEntity
  8
0
  6
Continuous
 62
     0
370
    30
100
AcDbLine
 10
-201.401498
 20
914.485519
 30
0.0
 11
-201.267524
 21
914.485519
 31
0.0
  0
LINE
  5
39D
330
35C
100
AcDbEntity
  8
0
  6
Continuous
 62
     0
370
     0
100
AcDbLine
 10
-201.267524
 20
914.485519
 30
0.0
 11
-201.267524
 21
934.485519
 31
0.0
  0
LINE
  5
39E
330
35C
100
AcDbEntity
  8
0
  6
Continuous
 62
     0
370
    30
100
AcDbLine
 10
-201.267524
 20
934.485519
 30
0.0
 11
-201.401498
 21
934.485519
 31
0.0
  0
LINE
  5
39F
330
35C
100
AcDbEntity
  8
0
  6
Continuous
 62
     0
370
    30
100
AcDbLine
 10
-201.267524
 20
914.485519
 30
0.0
 11
-183.947016
 21
914.485519
 31
0.0
  0
LINE
  5
3A0
330
35C
100
AcDbEntity
  8
0
  6
Continuous
 62
     0
370
     0
100
AcDbLine
 10
-183.947016
 20
914.485519
 30
0.0
 11
-183.947016
 21
934.485519
 31
0.0
  0
LINE
  5
3A1
330
35C
100
AcDbEntity
  8
0
  6
Continuous
 62
     0
370
    30
100
AcDbLine
 10
-183.947016
 20
934.485519
 30
0.0
 11
-201.267524
 21
934.485519
 31
0.0
  0
LINE
  5
3A2
330
35C
100
AcDbEntity
  8
0
  6
Continuous
 62
     0
370
    30
100
AcDbLine
 10
-183.947016
 20
914.485519
 30
0.0
 11
-118.947016
 21
914.485519
 31
0.0
  0
LINE
  5
3A3
330
35C
100
AcDbEntity
  8
0
  6
Continuous
 62
     0
370
    30
100
AcDbLine
 10
-118.947016
 20
934.485519
 30
0.0
 11
-183.947016
 21
934.485519
 31
0.0
  0
LINE
  5
3A4
330
35C
100
AcDbEntity
  8
0
  6
Continuous
 62
     0
370
     0
100
AcDbLine
 10
-154.863757
 20
908.48552
 30
0.0
 11
-137.347015
 21
908.48552
 31
0.0
  0
LINE
  5
3A5
330
35C
100
AcDbEntity
  8
0
  6
Continuous
 62
     0
370
     0
100
AcDbLine
 10
-160.147015
 20
908.48552
 30
0.0
 11
-154.863757
 21
908.48552
 31
0.0
  0
LINE
  5
3A6
330
35C
100
AcDbEntity
  8
0
  6
Continuous
 62
     0
370
    30
100
AcDbLine
 10
-154.756446
 20
908.28552
 30
0.0
 11
-137.547015
 21
908.28552
 31
0.0
  0
SPLINE
  5
3A7
330
35C
100
AcDbEntity
  8
0
  6
Continuous
 62
     0
370
    30
100
AcDbSpline
210
0.0
220
0.0
230
1.0
 70
    28
 71
     2
 72
     6
 73
     3
 74
     0
 42
0.000000001
 43
0.0
 40
0.8418155277595862
 40
0.8418155277595862
 40
0.8418155277595862
 40
1.0
 40
1.0
 40
1.0
 10
-159.9470150156896
 20
908.2855195999146
 30
0.0
 41
0.863874565202955
 10
-159.9470152828296
 20
908.2855195999147
 30
0.0
 41
0.8146753630367922
 10
-154.7564458411126
 20
908.2855195999146
 30
0.0
 41
1.0
  0
LINE
  5
3A8
330
35C
100
AcDbEntity
  8
0
  6
Continuous
 62
     0
370
    30
100
AcDbLine
 10
-193.847015
 20
904.899768
 30
0.0
 11
-174.047015
 21
904.899768
 31
0.0
  0
LINE
  5
3A9
330
35C
100
AcDbEntity
  8
0
  6
Continuous
 62
     0
370
    30
100
AcDbLine
 10
-160.197015
 20
907.703015
 30
0.0
 11
-137.297015
 21
907.703015
 31
0.0
  0
LINE
  5
3AA
330
35C
100
AcDbEntity
  8
0
  6
Continuous
 62
     0
370
    30
100
AcDbLine
 10
-158.647015
 20
877.703015
 30
0.0
 11
-138.847015
 21
877.703015
 31
0.0
  0
LINE
  5
3AB
330
35C
100
AcDbEntity
  8
0
  6
Continuous
 62
     0
370
    30
100
AcDbLine
 10
-108.947016
 20
953.985519
 30
0.0
 11
-108.947016
 21
894.985519
 31
0.0
  0
LINE
  5
3AC
330
35C
100
AcDbEntity
  8
0
  6
Continuous
 62
     0
370
    30
100
AcDbLine
 10
-108.947016
 20
894.485519
 30
0.0
 11
-108.947016
 21
894.985519
 31
0.0
  0
LINE
  5
3AD
330
35C
100
AcDbEntity
  8
0
  6
Continuous
 62
     0
370
    30
100
AcDbLine
 10
-108.947016
 20
953.985519
 30
0.0
 11
-108.947016
 21
954.485519
 31
0.0
  0
LINE
  5
3AE
330
35C
100
AcDbEntity
  8
0
  6
Continuous
 62
     0
370
     0
100
AcDbLine
 10
-118.447016
 20
953.985519
 30
0.0
 11
-118.947016
 21
953.985519
 31
0.0
  0
LINE
  5
3AF
330
35C
100
AcDbEntity
  8
0
  6
Continuous
 62
     0
370
     0
100
AcDbLine
 10
-118.447016
 20
953.985519
 30
0.0
 11
-118.447016
 21
954.485519
 31
0.0
  0
ARC
  5
3B0
330
35C
100
AcDbEntity
  8
0
  6
Continuous
 62
     0
370
    30
100
AcDbCircle
 10
-118.447016
 20
953.985519
 30
0.0
 40
0.5
100
AcDbArc
 50
90.0
 51
180.0
  0
LINE
  5
3B1
330
35C
100
AcDbEntity
  8
0
  6
Continuous
 62
     0
370
     0
100
AcDbLine
 10
-118.447016
 20
953.985519
 30
0.0
 11
-108.947016
 21
953.985519
 31
0.0
  0
LINE
  5
3B2
330
35C
100
AcDbEntity
  8
0
  6
Continuous
 62
     0
370
    30
100
AcDbLine
 10
-118.447016
 20
954.485519
 30
0.0
 11
-108.947016
 21
954.485519
 31
0.0
  0
ARC
  5
3B3
330
35C
100
AcDbEntity
  8
0
  6
Continuous
 62
     0
370
    30
100
AcDbCircle
 10
-118.447016
 20
894.985519
 30
0.0
 40
0.5
100
AcDbArc
 50
180.0
 51
270.0
  0
LINE
  5
3B4
330
35C
100
AcDbEntity
  8
0
  6
Continuous
 62
     0
370
     0
100
AcDbLine
 10
-118.447016
 20
894.485519
 30
0.0
 11
-118.447016
 21
894.985519
 31
0.0
  0
LINE
  5
3B5
330
35C
100
AcDbEntity
  8
0
  6
Continuous
 62
     0
370
     0
100
AcDbLine
 10
-118.447016
 20
894.985519
 30
0.0
 11
-118.947016
 21
894.985519
 31
0.0
  0
LINE
  5
3B6
330
35C
100
AcDbEntity
  8
0
  6
Continuous
 62
     0
370
    30
100
AcDbLine
 10
-118.947016
 20
953.985519
 30
0.0
 11
-118.947016
 21
894.985519
 31
0.0
  0
LINE
  5
3B7
330
35C
100
AcDbEntity
  8
0
  6
Continuous
 62
     0
370
     0
100
AcDbLine
 10
-118.447016
 20
953.985519
 30
0.0
 11
-118.447016
 21
894.985519
 31
0.0
  0
LINE
  5
3B8
330
35C
100
AcDbEntity
  8
0
  6
Continuous
 62
     0
370
    30
100
AcDbLine
 10
-118.447016
 20
894.485519
 30
0.0
 11
-108.947016
 21
894.485519
 31
0.0
  0
LINE
  5
3B9
330
35C
100
AcDbEntity
  8
0
  6
Continuous
 62
     0
370
     0
100
AcDbLine
 10
-118.447016
 20
894.985519
 30
0.0
 11
-108.947016
 21
894.985519
 31
0.0
  0
LINE
  5
3BA
330
35C
100
AcDbEntity
  8
0
  6
Continuous
 62
     0
370
    30
100
AcDbLine
 10
-189.946955
 20
904.873003
 30
0.0
 11
-183.947015
 21
904.899768
 31
0.0
  0
LINE
  5
3BB
330
35C
100
AcDbEntity
  8
0
  6
Continuous
 62
     0
370
    30
100
AcDbLine
 10
-142.747263
 20
877.648487
 30
0.0
 11
-148.747016
 21
877.703015
 31
0.0
  0
LINE
  5
3BC
330
35C
100
AcDbEntity
  8
0
  6
Continuous
 62
     0
370
    30
100
AcDbLine
 10
-160.197015
 20
907.703015
 30
0.0
 11
-158.647015
 21
877.703015
 31
0.0
  0
LINE
  5
3BD
330
35C
100
AcDbEntity
  8
0
  6
Continuous
 62
     0
370
    30
100
AcDbLine
 10
-137.297015
 20
907.703015
 30
0.0
 11
-138.847015
 21
877.703015
 31
0.0
  0
LINE
  5
3BE
330
35C
100
AcDbEntity
  8
0
  6
Continuous
 62
     0
370
    30
100
AcDbLine
 10
-194.342279
 20
914.485519
 30
0.0
 11
-193.847015
 21
904.899768
 31
0.0
  0
LINE
  5
3BF
330
35C
100
AcDbEntity
  8
0
  6
Continuous
 62
     0
370
    30
100
AcDbLine
 10
-195.397015
 20
934.899768
 30
0.0
 11
-195.375612
 21
934.485519
 31
0.0
  0
LINE
  5
3C0
330
35C
100
AcDbEntity
  8
0
  6
Continuous
 62
     0
370
    30
100
AcDbLine
 10
-172.497015
 20
934.899768
 30
0.0
 11
-172.518418
 21
934.485519
 31
0.0
  0
LINE
  5
3C1
330
35C
100
AcDbEntity
  8
0
  6
Continuous
 62
     0
370
    30
100
AcDbLine
 10
-173.551751
 20
914.485519
 30
0.0
 11
-174.047015
 21
904.899768
 31
0.0
  0
SPLINE
  5
3C2
330
35C
100
AcDbEntity
  8
0
  6
Continuous
 62
     0
370
    30
100
AcDbSpline
210
0.0
220
0.0
230
1.0
 70
     8
 71
     3
 72
    75
 73
    71
 74
     0
 42
0.000000001
 43
0.0
 40
0.0
 40
0.0
 40
0.0
 40
0.0
 40
12.18534670700361
 40
24.40666232242233
 40
40.6960879979675
 40
49.4574885754369
 40
57.08312747120601
 40
62.43730501241546
 40
67.72709277218851
 40
80.02739129442031
 40
90.61267769424157
 40
101.3957317814429
 40
112.5671595240091
 40
128.085738583263
 40
137.025455397032
 40
149.013280301743
 40
160.8714788150001
 40
170.4812257259017
 40
181.468530801468
 40
189.1940642688275
 40
195.6257143956364
 40
197.922397962295
 40
200.8817212480274
 40
205.104597456348
 40
208.4434199920546
 40
213.5084598847022
 40
217.7550448545124
 40
220.1252652755388
 40
223.5839728935134
 40
226.0979616465386
 40
228.012269027112
 40
229.094605942487
 40
230.441527246154
 40
231.788584417628
 40
234.5232957607259
 40
237.9602796186269
 40
241.1790169310802
 40
244.1403623206722
 40
247.4230725827578
 40
250.4718215569922
 40
253.6206800114576
 40
256.8957538485546
 40
259.6182307953642
 40
262.4361608367325
 40
267.1000556597266
 40
271.7877629763763
 40
276.6782295567356
 40
285.5019320206655
 40
295.5047997295936
 40
302.6942719781084
 40
310.0621971089513
 40
321.3695357919057
 40
335.7894526440982
 40
343.5528671912664
 40
356.2003715548531
 40
363.9839997541177
 40
371.7565318782266
 40
379.5243949491358
 40
397.1979485466483
 40
413.395830027374
 40
419.6216369151124
 40
424.8972329523683
 40
431.448396757613
 40
438.3936491088301
 40
445.8971950822939
 40
451.2874649998851
 40
456.9723391246533
 40
464.9846168276205
 40
475.011537170188
 40
484.9408020497617
 40
484.9408020497617
 40
484.9408020497617
 40
484.9408020497617
 10
-142.7472630329507
 20
877.6484867085985
 30
0.0
 10
-142.7788153645457
 20
873.5868367414711
 30
0.0
 10
-142.8050576990518
 20
865.4512429844085
 30
0.0
 10
-142.7577562098262
 20
851.8859241040861
 30
0.0
 10
-142.6216178791099
 20
839.4624140200949
 30
0.0
 10
-142.3869297583234
 20
828.5727061677766
 30
0.0
 10
-142.1944675109957
 20
821.3281910629269
 30
0.0
 10
-142.0404710647232
 20
815.2402569405247
 30
0.0
 10
-141.8873110343461
 20
807.5936873604786
 30
0.0
 10
-141.8080721661348
 20
798.2016895251496
 30
0.0
 10
-141.987010478058
 20
786.9793079137194
 30
0.0
 10
-142.4599563498509
 20
776.1418604717742
 30
0.0
 10
-143.3804897093415
 20
763.6833503868825
 30
0.0
 10
-144.6849276519319
 20
751.8758532020413
 30
0.0
 10
-146.4379153169604
 20
739.8532489395997
 30
0.0
 10
-148.3489066487493
 20
729.0912017922133
 30
0.0
 10
-150.7240579412071
 20
718.192575106777
 30
0.0
 10
-153.4672135462964
 20
707.7254795362178
 30
0.0
 10
-156.3108789336563
 20
698.7183043384948
 30
0.0
 10
-159.3157029892127
 20
690.8903979390865
 30
0.0
 10
-161.5671196741826
 20
685.8866248028716
 30
0.0
 10
-163.3204153035021
 20
682.4071751707797
 30
0.0
 10
-164.8237203572516
 20
679.6276242992885
 30
0.0
 10
-166.6379487121218
 20
676.6239481375965
 30
0.0
 10
-169.0620158919262
 20
673.1803653275831
 30
0.0
 10
-171.8245622855524
 20
669.9807129648756
 30
0.0
 10
-174.7893914622977
 20
667.4387297677484
 30
0.0
 10
-177.5966266700953
 20
665.5884140981707
 30
0.0
 10
-180.0959264995683
 20
664.3488337441809
 30
0.0
 10
-182.6070673206231
 20
663.5486739397942
 30
0.0
 10
-184.4187091939357
 20
663.2251783702693
 30
0.0
 10
-185.8632909054374
 20
663.1133704372028
 30
0.0
 10
-187.1235046194332
 20
663.1240731215595
 30
0.0
 10
-188.9249998429908
 20
663.3167884264788
 30
0.0
 10
-191.365574884976
 20
663.9280053982893
 30
0.0
 10
-194.2266434419031
 20
665.2305898246663
 30
0.0
 10
-196.8954660840545
 20
667.0218857720467
 30
0.0
 10
-199.2600991702358
 20
669.1188643235324
 30
0.0
 10
-201.3002265134601
 20
671.4580938819452
 30
0.0
 10
-203.0969660133761
 20
674.0624670415646
 30
0.0
 10
-204.6459107607617
 20
676.817169762838
 30
0.0
 10
-205.9364290682241
 20
679.5812774342878
 30
0.0
 10
-207.0355797657897
 20
682.3071685034101
 30
0.0
 10
-208.1816068163373
 20
685.5104187692282
 30
0.0
 10
-209.3608041338318
 20
689.3934763028574
 30
0.0
 10
-210.5021418582221
 20
694.003017542219
 30
0.0
 10
-211.695680799769
 20
700.0214560147164
 30
0.0
 10
-212.7674111348866
 20
707.858956738129
 30
0.0
 10
-213.3879723347048
 20
716.5127096476873
 30
0.0
 10
-213.5850244498849
 20
724.6984671763344
 30
0.0
 10
-213.4842548826152
 20
733.3207540770404
 30
0.0
 10
-212.9014339862798
 20
744.3402433886945
 30
0.0
 10
-211.7518752358615
 20
755.4481107710583
 30
0.0
 10
-210.1471120591741
 20
766.9477483801463
 30
0.0
 10
-208.5698132760672
 20
776.2139606170933
 30
0.0
 10
-206.778980787674
 20
785.4433026050098
 30
0.0
 10
-205.1890593379501
 20
793.0538404166849
 30
0.0
 10
-202.809533024008
 20
803.8665127590137
 30
0.0
 10
-199.719055060253
 20
817.3978960415297
 30
0.0
 10
-196.9480725826414
 20
830.4743042381115
 30
0.0
 10
-195.2427044065763
 20
839.5488411884705
 30
0.0
 10
-194.2134295699313
 20
845.4778305027246
 30
0.0
 10
-193.2551074666439
 20
851.6617248819182
 30
0.0
 10
-192.3433801853182
 20
858.602599665068
 30
0.0
 10
-191.6423865343157
 20
865.1788568952685
 30
0.0
 10
-191.1070651389406
 20
871.3487592320837
 30
0.0
 10
-190.6520789115358
 20
877.695117770331
 30
0.0
 10
-190.222282109093
 20
885.591862784336
 30
0.0
 10
-189.9255392754839
 20
894.9106608012315
 30
0.0
 10
-189.9004126410198
 20
901.5637096410015
 30
0.0
 10
-189.9469553349694
 20
904.8730026374843
 30
0.0
  0
SPLINE
  5
3C3
330
35C
100
AcDbEntity
  8
0
  6
Continuous
 62
     0
370
    30
100
AcDbSpline
210
0.0
220
0.0
230
1.0
 70
     8
 71
     3
 72
    79
 73
    75
 74
     0
 42
0.000000001
 43
0.0
 40
0.0
 40
0.0
 40
0.0
 40
0.0
 40
12.29400288500369
 40
24.61999294399207
 40
41.02902149802068
 40
49.83227996397913
 40
57.4596073936593
 40
62.78260209811228
 40
68.00949284133753
 40
80.05768691511712
 40
90.34426640016098
 40
100.7833234110765
 40
111.5879094983572
 40
128.5000729647229
 40
141.9598659241288
 40
149.6228861302019
 40
161.7990432340245
 40
168.9846931649797
 40
174.1531198521361
 40
179.09102442893
 40
185.9919442942737
 40
189.5299129483396
 40
194.0901458882406
 40
197.0469620092084
 40
199.7336433230187
 40
203.0032623560528
 40
204.2163495540921
 40
205.9706425472981
 40
207.6506151959415
 40
208.5629152101116
 40
209.5333692470256
 40
210.2166837335992
 40
210.8509043758783
 40
211.1574321081014
 40
211.6118999423728
 40
212.3072567985332
 40
213.0653764923023
 40
213.631548746104
 40
214.6140296084324
 40
216.025506634921
 40
217.2359239022627
 40
218.1429303516825
 40
220.6418767488718
 40
223.0157874576719
 40
224.5578312830724
 40
226.5041670063391
 40
229.8974428729856
 40
232.3173156343447
 40
235.2917542288841
 40
240.02443738084
 40
243.5821004221308
 40
249.5695362245714
 40
255.0747815986176
 40
260.7949615734535
 40
268.1945134704289
 40
278.5425369797882
 40
290.7281348346615
 40
298.4783450353775
 40
304.7318992184124
 40
311.0190550799603
 40
326.1861916556183
 40
331.910734734736
 40
345.4070345883481
 40
361.344733833595
 40
369.6031446527515
 40
377.4953564766121
 40
385.9616162752886
 40
393.863738264061
 40
406.9139765514559
 40
412.9360920254304
 40
419.2981608155443
 40
432.6300254984199
 40
440.7370491467921
 40
447.3947226377818
 40
447.3947226377818
 40
447.3947226377818
 40
447.3947226377818
 10
-154.7471908811525
 20
877.7030148607598
 30
0.0
 10
-154.7789249691384
 20
873.6051466198064
 30
0.0
 10
-154.8050726183939
 20
865.3984409547213
 30
0.0
 10
-154.7567738505231
 20
851.7221466211369
 30
0.0
 10
-154.6192048408087
 20
839.2099349260301
 30
0.0
 10
-154.3833219350159
 20
828.2658568532129
 30
0.0
 10
-154.1906256933193
 20
821.0172253128063
 30
0.0
 10
-154.0371816543113
 20
814.9600840296831
 30
0.0
 10
-153.8864934012572
 20
807.428882562297
 30
0.0
 10
-153.8092379583505
 20
798.2414580666259
 30
0.0
 10
-153.983359910098
 20
787.3173319172247
 30
0.0
 10
-154.4422540987903
 20
776.8161344231942
 30
0.0
 10
-155.3821679835718
 20
764.1308177349388
 30
0.0
 10
-156.927707573233
 20
750.4886106744025
 30
0.0
 10
-158.9157123364614
 20
737.9643001139709
 30
0.0
 10
-161.0320376854853
 20
727.0673260330946
 30
0.0
 10
-163.0680156715847
 20
718.2894334649172
 30
0.0
 10
-165.2487657148553
 20
710.4076015254693
 30
0.0
 10
-166.9613309342765
 20
704.903228834185
 30
0.0
 10
-168.8105493462932
 20
699.5435711599841
 30
0.0
 10
-170.6879371442789
 20
694.7716402082907
 30
0.0
 10
-172.7620128234009
 20
690.221366292893
 30
0.0
 10
-174.4633163351548
 20
686.9500147434995
 30
0.0
 10
-176.2338423555484
 20
684.0441616895585
 30
0.0
 10
-177.9202265363944
 20
681.5968594711723
 30
0.0
 10
-179.4082058832334
 20
679.7236956013958
 30
0.0
 10
-180.8151446118415
 20
678.1923400907262
 30
0.0
 10
-181.9290009884828
 20
677.1141425803775
 30
0.0
 10
-183.0732434620205
 20
676.2191174575528
 30
0.0
 10
-184.1051811843965
 20
675.6267652330773
 30
0.0
 10
-184.9042249901598
 20
675.3123605882483
 30
0.0
 10
-185.6527631165882
 20
675.1551582034188
 30
0.0
 10
-186.1940581262513
 20
675.1197095812986
 30
0.0
 10
-186.6592021158013
 20
675.1290942223799
 30
0.0
 10
-187.1431574829807
 20
675.1742391923149
 30
0.0
 10
-187.7643868560065
 20
675.3226332814368
 30
0.0
 10
-188.3800129092268
 20
675.6021847846448
 30
0.0
 10
-189.0288410149518
 20
676.0169601195578
 30
0.0
 10
-189.786694970069
 20
676.6523901591945
 30
0.0
 10
-190.6073535193296
 20
677.5322526483369
 30
0.0
 10
-191.344283116073
 20
678.4496003050599
 30
0.0
 10
-192.2509894131707
 20
679.693285935302
 30
0.0
 10
-193.2853797856897
 20
681.3206730680946
 30
0.0
 10
-194.3015705421534
 20
683.2032985053655
 30
0.0
 10
-195.1412091232091
 20
684.968238635586
 30
0.0
 10
-196.0359553012216
 20
687.0811687648038
 30
0.0
 10
-196.8979561255018
 20
689.5213987924135
 30
0.0
 10
-197.7366141691408
 20
692.3284412893538
 30
0.0
 10
-198.5760563855459
 20
695.5988169230819
 30
0.0
 10
-199.3399686564872
 20
699.2764671520421
 30
0.0
 10
-200.120819993965
 20
703.9718462501908
 30
0.0
 10
-200.7433612018283
 20
708.9512533960009
 30
0.0
 10
-201.2219526615434
 20
714.6698225859845
 30
0.0
 10
-201.5193394757571
 20
720.8719895274564
 30
0.0
 10
-201.5955598911999
 20
728.6957970183787
 30
0.0
 10
-201.2496805861644
 20
738.670459806718
 30
0.0
 10
-200.4115346569134
 20
748.733143612733
 30
0.0
 10
-199.3711401912134
 20
757.4014626748145
 30
0.0
 10
-198.4125879298738
 20
764.0971610692085
 30
0.0
 10
-196.9309000150732
 20
773.2139269142757
 30
0.0
 10
-195.2243501330335
 20
782.1126687084084
 30
0.0
 10
-192.8597584747165
 20
793.3288764796546
 30
0.0
 10
-190.293046084066
 20
804.7640290394957
 30
0.0
 10
-187.5306328753652
 20
817.0208694552941
 30
0.0
 10
-185.3340471608669
 20
827.4892716482552
 30
0.0
 10
-183.7651709366339
 20
835.5437586874333
 30
0.0
 10
-182.361586937248
 20
843.5083833439239
 30
0.0
 10
-180.8950761090571
 20
853.2051680434486
 30
0.0
 10
-179.8612616496655
 20
862.138983967156
 30
0.0
 10
-179.1268136309151
 20
870.5855425889076
 30
0.0
 10
-178.5229058904302
 20
879.1365214810836
 30
0.0
 10
-178.0894020225397
 20
888.3946289139438
 30
0.0
 10
-177.9061396341424
 20
897.7588837511546
 30
0.0
 10
-177.9161730572109
 20
902.6807937586404
 30
0.0
 10
-177.9467076781561
 20
904.8997678762557
 30
0.0
  0
ARC
  5
3C4
330
35C
100
AcDbEntity
  8
0
  6
Continuous
 62
     0
370
    30
100
AcDbCircle
 10
-159.946976
 20
908.485552
 30
0.0
 40
0.2000321387468814
100
AcDbArc
 50
180.009203
 51
269.985899
  0
ARC
  5
3C5
330
35C
100
AcDbEntity
  8
0
  6
Continuous
 62
     0
370
    30
100
AcDbCircle
 10
-137.547055
 20
908.485552
 30
0.0
 40
0.2000321392250865
100
AcDbArc
 50
270.015627
 51
359.990797
  0
LINE
  5
3C6
330
35C
100
AcDbEntity
  8
0
  6
Continuous
 62
     0
370
    30
100
AcDbLine
 10
-137.347015
 20
908.48552
 30
0.0
 11
-137.347015
 21
914.485519
 31
0.0
  0
LINE
  5
3C7
330
35C
100
AcDbEntity
  8
0
  6
Continuous
 62
     0
370
    30
100
AcDbLine
 10
-160.147015
 20
908.48552
 30
0.0
 11
-160.147015
 21
914.485519
 31
0.0
  0
LINE
  5
3C8
330
35C
100
AcDbEntity
  8
0
  6
Continuous
 62
     0
370
    30
100
AcDbLine
 10
-139.647015
 20
907.703015
 30
0.0
 11
-139.647015
 21
908.28552
 31
0.0
  0
LINE
  5
3C9
330
35C
100
AcDbEntity
  8
0
  6
Continuous
 62
     0
370
    30
100
AcDbLine
 10
-157.847015
 20
907.703015
 30
0.0
 11
-157.847015
 21
908.28552
 31
0.0
  0
LINE
  5
3CA
330
35C
100
AcDbEntity
  8
0
  6
Continuous
 62
     0
370
    30
100
AcDbLine
 10
-201.401498
 20
914.485519
 30
0.0
 11
-201.401498
 21
934.485519
 31
0.0
  0
ENDBLK
  5
3CC
330
35C
100
AcDbEntity
  8
0
100
AcDbBlockEnd
  0
ENDSEC
  0
SECTION
  2
ENTITIES
  0
INSERT
  5
215
330
1F
100
AcDbEntity
  8
0
  6
Continuous
 62
     7
370
     0
100
AcDbBlockReference
  2
a
 10
24.894691
 20
121.794647
 30
0.0
  0
INSERT
  5
2D4
330
1F
100
AcDbEntity
  8
0
  6
Continuous
 62
     7
370
     0
100
AcDbBlockReference
  2
b
 10
24.894691
 20
258.845642
 30
0.0
  0
INSERT
  5
35B
330
1F
100
AcDbEntity
  8
0
  6
Continuous
 62
     7
370
     0
100
AcDbBlockReference
  2
c
 10
142.856972
 20
121.794647
 30
0.0
  0
INSERT
  5
3CD
330
1F
100
AcDbEntity
  8
0
  6
Continuous
 62
     7
370
     0
100
AcDbBlockReference
  2
d
 10
-57.970673
 20
0.0
 30
0.0
  0
ENDSEC
  0
SECTION
  2
OBJECTS
  0
DICTIONARY
  5
C
330
0
100
AcDbDictionary
281
     1
  3
ACAD_GROUP
350
D
  3
ACAD_LAYOUT
350
1A
  3
ACAD_MATERIAL
350
43
  3
ACAD_MLEADERSTYLE
350
6B
  3
ACAD_MLINESTYLE
350
17
  3
ACAD_PLOTSETTINGS
350
19
  3
ACAD_PLOTSTYLENAME
350
E
  3
ACAD_SCALELIST
350
47
  3
ACAD_TABLESTYLE
350
69
  3
ACAD_VISUALSTYLE
350
2A
  3
AcDbVariableDictionary
350
3CE
  0
DICTIONARY
  5
3D9
330
8
100
AcDbDictionary
280
     1
281
     1
  3
ACAD_XREC_ROUNDTRIP
360
3DA
  0
DICTIONARY
  5
D
102
{ACAD_REACTORS
330
C
102
}
330
C
100
AcDbDictionary
281
     1
  0
DICTIONARY
  5
1A
102
{ACAD_REACTORS
330
C
102
}
330
C
100
AcDbDictionary
281
     1
  3
Layout1
350
1E
  3
Layout2
350
26
  3
Model
350
22
  0
DICTIONARY
  5
43
102
{ACAD_REACTORS
330
C
102
}
330
C
100
AcDbDictionary
281
     1
  3
ByBlock
350
45
  3
ByLayer
350
44
  3
Global
350
46
  0
DICTIONARY
  5
6B
102
{ACAD_REACTORS
330
C
102
}
330
C
100
AcDbDictionary
281
     1
  3
Standard
350
6C
  0
DICTIONARY
  5
17
102
{ACAD_REACTORS
330
C
102
}
330
C
100
AcDbDictionary
281
     1
  3
Standard
350
18
  0
DICTIONARY
  5
19
102
{ACAD_REACTORS
330
C
102
}
330
C
100
AcDbDictionary
281
     1
  0
ACDBDICTIONARYWDFLT
  5
E
102
{ACAD_REACTORS
330
C
102
}
330
C
100
AcDbDictionary
281
     1
  3
Normal
350
F
100
AcDbDictionaryWithDefault
340
F
  0
DICTIONARY
  5
47
102
{ACAD_REACTORS
330
C
102
}
330
C
100
AcDbDictionary
281
     1
  3
A0
350
48
  3
A1
350
49
  3
A2
350
4A
  3
A3
350
4B
  3
A4
350
4C
  3
A5
350
4D
  3
A6
350
4E
  3
A7
350
4F
  3
A8
350
50
  3
A9
350
51
  3
B0
350
52
  3
B1
350
53
  3
B2
350
54
  3
B3
350
55
  3
B4
350
56
  3
B5
350
57
  3
B6
350
58
  3
B7
350
59
  3
B8
350
5A
  3
B9
350
5B
  3
C0
350
5C
  3
C1
350
5D
  3
C2
350
5E
  3
C3
350
5F
  3
C4
350
60
  3
C5
350
61
  3
C6
350
62
  3
C7
350
63
  3
C8
350
64
  3
C9
350
65
  3
D0
350
66
  3
D1
350
67
  3
D2
350
68
  0
DICTIONARY
  5
69
102
{ACAD_REACTORS
330
C
102
}
330
C
100
AcDbDictionary
281
     1
  3
Standard
350
6A
  0
DICTIONARY
  5
2A
102
{ACAD_REACTORS
330
C
102
}
330
C
100
AcDbDictionary
281
     1
  3
2dWireframe
350
2F
  3
Basic
350
32
  3
Brighten
350
36
  3
ColorChange
350
3A
  3
Conceptual
350
34
  3
Dim
350
35
  3
EdgeColorOff
350
3D
  3
Facepattern
350
39
  3
Flat
350
2B
  3
FlatWithEdges
350
2C
  3
Gouraud
350
2D
  3
GouraudWithEdges
350
2E
  3
Hidden
350
31
  3
JitterOff
350
3B
  3
Linepattern
350
38
  3
OverhangOff
350
3C
  3
Realistic
350
33
  3
Shaded
350
42
  3
Shaded with edges
350
41
  3
Shades of Gray
350
3E
  3
Sketchy
350
3F
  3
Thicken
350
37
  3
Wireframe
350
30
  3
X-Ray
350
40
  0
DICTIONARY
  5
3CE
102
{ACAD_REACTORS
330
C
102
}
330
C
100
AcDbDictionary
281
     1
  3
CANNOSCALE
350
3DB
  3
CENTEREXE
350
3D5
  3
CENTERLTYPEFILE
350
3D6
  3
CMLEADERSTYLE
350
3D0
  3
CTABLESTYLE
350
3CF
  3
DIMASSOC
350
3D7
  3
HIDETEXT
350
3D8
  3
MSLTSCALE
350
3DC
  3
PSOLHEIGHT
350
3D2
  3
PSOLWIDTH
350
3D1
  0
XRECORD
  5
3DA
102
{ACAD_REACTORS
330
3D9
102
}
330
3D9
100
AcDbXrecord
280
     1
102
VTR_0.000_0.000_1.000_1.000_VISUALSTYLE
340
2F
102
VTR_0.000_0.000_1.000_1.000_GRIDDISPLAY
 70
     3
102
VTR_0.000_0.000_1.000_1.000_GRIDMAJOR
 70
     5
102
VTR_0.000_0.000_1.000_1.000_DEFAULTLIGHTING
280
     1
102
VTR_0.000_0.000_1.000_1.000_DEFAULTLIGHTINGTYPE
 70
     1
102
VTR_0.000_0.000_1.000_1.000_BRIGHTNESS
141
0.0
102
VTR_0.000_0.000_1.000_1.000_CONTRAST
142
0.0
  0
LAYOUT
  5
1E
102
{ACAD_REACTORS
330
1A
102
}
330
1A
100
AcDbPlotSettings
  1

  2
none_device
  4

  6

 40
0.0
 41
0.0
 42
0.0
 43
0.0
 44
0.0
 45
0.0
 46
0.0
 47
0.0
 48
0.0
 49
0.0
140
0.0
141
0.0
142
1.0
143
1.0
 70
   688
 72
     1
 73
     0
 74
     5
  7

 75
    16
147
1.0
148
0.0
149
0.0
100
AcDbLayout
  1
Layout1
 70
     1
 71
     1
 10
0.0
 20
0.0
 11
420.0
 21
297.0
 12
0.0
 22
0.0
 32
0.0
 14
1.000000E+20
 24
1.000000E+20
 34
1.000000E+20
 15
-1.000000E+20
 25
-1.000000E+20
 35
-1.000000E+20
146
0.0
 13
0.0
 23
0.0
 33
0.0
 16
1.0
 26
0.0
 36
0.0
 17
0.0
 27
1.0
 37
0.0
 76
     0
330
1B
  0
LAYOUT
  5
26
102
{ACAD_REACTORS
330
1A
102
}
330
1A
100
AcDbPlotSettings
  1

  2
none_device
  4

  6

 40
0.0
 41
0.0
 42
0.0
 43
0.0
 44
0.0
 45
0.0
 46
0.0
 47
0.0
 48
0.0
 49
0.0
140
0.0
141
0.0
142
1.0
143
1.0
 70
   688
 72
     1
 73
     0
 74
     5
  7

 75
    16
147
1.0
148
0.0
149
0.0
100
AcDbLayout
  1
Layout2
 70
     1
 71
     2
 10
0.0
 20
0.0
 11
0.0
 21
0.0
 12
0.0
 22
0.0
 32
0.0
 14
0.0
 24
0.0
 34
0.0
 15
0.0
 25
0.0
 35
0.0
146
0.0
 13
0.0
 23
0.0
 33
0.0
 16
1.0
 26
0.0
 36
0.0
 17
0.0
 27
1.0
 37
0.0
 76
     0
330
23
  0
LAYOUT
  5
22
102
{ACAD_REACTORS
330
1A
102
}
330
1A
100
AcDbPlotSettings
  1

  2
none_device
  4
Letter_(8.50_x_11.00_Inches)
  6

 40
6.35
 41
6.35
 42
6.350005
 43
6.350005
 44
215.9
 45
279.4
 46
0.0
 47
0.0
 48
0.0
 49
0.0
140
0.0
141
0.0
142
1.0
143
1.0
 70
  1712
 72
     1
 73
     0
 74
     0
  7

 75
     0
147
1.0
148
0.0
149
0.0
100
AcDbLayout
  1
Model
 70
     1
 71
     0
 10
-378.963287
 20
221.892136
 11
927.690491
 21
1141.89978
 12
0.0
 22
0.0
 32
0.0
 14
-378.963287
 24
221.892136
 34
0.0
 15
927.690491
 25
1141.89978
 35
0.0
146
0.0
 13
0.0
 23
0.0
 33
0.0
 16
1.0
 26
0.0
 36
0.0
 17
0.0
 27
1.0
 37
0.0
 76
     0
330
1F
331
29
  0
MATERIAL
  5
45
102
{ACAD_REACTORS
330
43
102
}
102
{ACAD_XDICTIONARY
360
40F
102
}
330
43
100
AcDbMaterial
  1
ByBlock
  0
MATERIAL
  5
44
102
{ACAD_REACTORS
330
43
102
}
102
{ACAD_XDICTIONARY
360
40D
102
}
330
43
100
AcDbMaterial
  1
ByLayer
  0
MATERIAL
  5
46
102
{ACAD_REACTORS
330
43
102
}
102
{ACAD_XDICTIONARY
360
411
102
}
330
43
100
AcDbMaterial
  1
Global
  0
MLEADERSTYLE
  5
6C
102
{ACAD_REACTORS
330
6B
102
}
102
{ACAD_XDICTIONARY
360
414
102
}
330
6B
100
AcDbMLeaderStyle
170
     2
171
     1
172
     0
 90
        2
 40
0.0
 41
0.0
173
     1
 91
-1056964608
340
14
 92
       -2
290
     1
 42
2.0
291
     1
 43
8.0
  3
Standard
341
0
 44
4.0
300

342
11
174
     1
178
     6
175
     1
176
     0
 93
-1056964608
 45
4.0
292
     0
297
     0
 46
4.0
343
0
 94
-1056964608
 47
1.0
 49
1.0
140
1.0
293
     1
141
0.0
294
     1
177
     0
142
1.0
295
     0
296
     0
143
3.75
1001
ACAD_MLEADERVER
1070
     2
  0
MLINESTYLE
  5
18
102
{ACAD_REACTORS
330
17
102
}
330
17
100
AcDbMlineStyle
  2
Standard
 70
     0
  3

 62
   256
 51
90.0
 52
90.0
 71
     2
 49
0.5
 62
   256
  6
BYLAYER
 49
-0.5
 62
   256
  6
BYLAYER
  0
ACDBPLACEHOLDER
  5
F
102
{ACAD_REACTORS
330
E
102
}
330
E
  0
SCALE
  5
48
102
{ACAD_REACTORS
330
47
102
}
330
47
100
AcDbScale
 70
     0
300
1:1
140
1.0
141
1.0
290
     1
  0
SCALE
  5
49
102
{ACAD_REACTORS
330
47
102
}
330
47
100
AcDbScale
 70
     0
300
1:2
140
1.0
141
2.0
290
     0
  0
SCALE
  5
4A
102
{ACAD_REACTORS
330
47
102
}
330
47
100
AcDbScale
 70
     0
300
1:4
140
1.0
141
4.0
290
     0
  0
SCALE
  5
4B
102
{ACAD_REACTORS
330
47
102
}
330
47
100
AcDbScale
 70
     0
300
1:5
140
1.0
141
5.0
290
     0
  0
SCALE
  5
4C
102
{ACAD_REACTORS
330
47
102
}
330
47
100
AcDbScale
 70
     0
300
1:8
140
1.0
141
8.0
290
     0
  0
SCALE
  5
4D
102
{ACAD_REACTORS
330
47
102
}
330
47
100
AcDbScale
 70
     0
300
1:10
140
1.0
141
10.0
290
     0
  0
SCALE
  5
4E
102
{ACAD_REACTORS
330
47
102
}
330
47
100
AcDbScale
 70
     0
300
1:16
140
1.0
141
16.0
290
     0
  0
SCALE
  5
4F
102
{ACAD_REACTORS
330
47
102
}
330
47
100
AcDbScale
 70
     0
300
1:20
140
1.0
141
20.0
290
     0
  0
SCALE
  5
50
102
{ACAD_REACTORS
330
47
102
}
330
47
100
AcDbScale
 70
     0
300
1:30
140
1.0
141
30.0
290
     0
  0
SCALE
  5
51
102
{ACAD_REACTORS
330
47
102
}
330
47
100
AcDbScale
 70
     0
300
1:40
140
1.0
141
40.0
290
     0
  0
SCALE
  5
52
102
{ACAD_REACTORS
330
47
102
}
330
47
100
AcDbScale
 70
     0
300
1:50
140
1.0
141
50.0
290
     0
  0
SCALE
  5
53
102
{ACAD_REACTORS
330
47
102
}
330
47
100
AcDbScale
 70
     0
300
1:100
140
1.0
141
100.0
290
     0
  0
SCALE
  5
54
102
{ACAD_REACTORS
330
47
102
}
330
47
100
AcDbScale
 70
     0
300
2:1
140
2.0
141
1.0
290
     0
  0
SCALE
  5
55
102
{ACAD_REACTORS
330
47
102
}
330
47
100
AcDbScale
 70
     0
300
4:1
140
4.0
141
1.0
290
     0
  0
SCALE
  5
56
102
{ACAD_REACTORS
330
47
102
}
330
47
100
AcDbScale
 70
     0
300
8:1
140
8.0
141
1.0
290
     0
  0
SCALE
  5
57
102
{ACAD_REACTORS
330
47
102
}
330
47
100
AcDbScale
 70
     0
300
10:1
140
10.0
141
1.0
290
     0
  0
SCALE
  5
58
102
{ACAD_REACTORS
330
47
102
}
330
47
100
AcDbScale
 70
     0
300
100:1
140
100.0
141
1.0
290
     0
  0
SCALE
  5
59
102
{ACAD_REACTORS
330
47
102
}
330
47
100
AcDbScale
 70
     0
300
1/128" = 1'-0"
140
0.007812
141
12.0
290
     0
  0
SCALE
  5
5A
102
{ACAD_REACTORS
330
47
102
}
330
47
100
AcDbScale
 70
     0
300
1/64" = 1'-0"
140
0.015625
141
12.0
290
     0
  0
SCALE
  5
5B
102
{ACAD_REACTORS
330
47
102
}
330
47
100
AcDbScale
 70
     0
300
1/32" = 1'-0"
140
0.03125
141
12.0
290
     0
  0
SCALE
  5
5C
102
{ACAD_REACTORS
330
47
102
}
330
47
100
AcDbScale
 70
     0
300
1/16" = 1'-0"
140
0.0625
141
12.0
290
     0
  0
SCALE
  5
5D
102
{ACAD_REACTORS
330
47
102
}
330
47
100
AcDbScale
 70
     0
300
3/32" = 1'-0"
140
0.09375
141
12.0
290
     0
  0
SCALE
  5
5E
102
{ACAD_REACTORS
330
47
102
}
330
47
100
AcDbScale
 70
     0
300
1/8" = 1'-0"
140
0.125
141
12.0
290
     0
  0
SCALE
  5
5F
102
{ACAD_REACTORS
330
47
102
}
330
47
100
AcDbScale
 70
     0
300
3/16" = 1'-0"
140
0.1875
141
12.0
290
     0
  0
SCALE
  5
60
102
{ACAD_REACTORS
330
47
102
}
330
47
100
AcDbScale
 70
     0
300
1/4" = 1'-0"
140
0.25
141
12.0
290
     0
  0
SCALE
  5
61
102
{ACAD_REACTORS
330
47
102
}
330
47
100
AcDbScale
 70
     0
300
3/8" = 1'-0"
140
0.375
141
12.0
290
     0
  0
SCALE
  5
62
102
{ACAD_REACTORS
330
47
102
}
330
47
100
AcDbScale
 70
     0
300
1/2" = 1'-0"
140
0.5
141
12.0
290
     0
  0
SCALE
  5
63
102
{ACAD_REACTORS
330
47
102
}
330
47
100
AcDbScale
 70
     0
300
3/4" = 1'-0"
140
0.75
141
12.0
290
     0
  0
SCALE
  5
64
102
{ACAD_REACTORS
330
47
102
}
330
47
100
AcDbScale
 70
     0
300
1" = 1'-0"
140
1.0
141
12.0
290
     0
  0
SCALE
  5
65
102
{ACAD_REACTORS
330
47
102
}
330
47
100
AcDbScale
 70
     0
300
1-1/2" = 1'-0"
140
1.5
141
12.0
290
     0
  0
SCALE
  5
66
102
{ACAD_REACTORS
330
47
102
}
330
47
100
AcDbScale
 70
     0
300
3" = 1'-0"
140
3.0
141
12.0
290
     0
  0
SCALE
  5
67
102
{ACAD_REACTORS
330
47
102
}
330
47
100
AcDbScale
 70
     0
300
6" = 1'-0"
140
6.0
141
12.0
290
     0
  0
SCALE
  5
68
102
{ACAD_REACTORS
330
47
102
}
330
47
100
AcDbScale
 70
     0
300
1'-0" = 1'-0"
140
12.0
141
12.0
290
     0
  0
TABLESTYLE
  5
6A
102
{ACAD_REACTORS
330
69
102
}
330
69
100
AcDbTableStyle
  3
Standard
 70
     0
 71
     0
 40
1.5
 41
1.5
280
     0
281
     0
  7
Standard
140
4.5
170
     2
 62
     0
 63
   257
283
     0
274
    -2
284
     1
 64
     0
275
    -2
285
     1
 65
     0
276
    -2
286
     1
 66
     0
277
    -2
287
     1
 67
     0
278
    -2
288
     1
 68
     0
279
    -2
289
     1
 69
     0
  7
Standard
140
6.0
170
     5
 62
     0
 63
   257
283
     0
274
    -2
284
     1
 64
     0
275
    -2
285
     1
 65
     0
276
    -2
286
     1
 66
     0
277
    -2
287
     1
 67
     0
278
    -2
288
     1
 68
     0
279
    -2
289
     1
 69
     0
  7
Standard
140
4.5
170
     5
 62
     0
 63
   257
283
     0
274
    -2
284
     1
 64
     0
275
    -2
285
     1
 65
     0
276
    -2
286
     1
 66
     0
277
    -2
287
     1
 67
     0
278
    -2
288
     1
 68
     0
279
    -2
289
     1
 69
     0
  0
VISUALSTYLE
  5
2F
102
{ACAD_REACTORS
330
2A
102
}
102
{ACAD_XDICTIONARY
360
3E5
102
}
330
2A
100
AcDbVisualStyle
  2
2dWireframe
 70
     4
 71
     0
 72
     2
 73
     0
 90
        0
 40
0.6
 41
30.0
 62
     5
 63
     7
 74
     1
 91
        4
 64
     7
 65
   257
 75
     1
175
     1
 42
1.0
 92
        0
 66
   257
 43
1.0
 76
     1
 77
     6
 78
     2
 67
     7
 79
     5
170
     0
171
     0
290
     0
174
     0
 93
        1
 44
0.0
173
     0
291
     0
 45
0.0
1001
ACAD
1000
AcDbSavedByObjectVersion
1070
     0
  0
VISUALSTYLE
  5
32
102
{ACAD_REACTORS
330
2A
102
}
102
{ACAD_XDICTIONARY
360
3EB
102
}
330
2A
100
AcDbVisualStyle
  2
Basic
 70
     7
 71
     1
 72
     0
 73
     1
 90
        0
 40
0.6
 41
30.0
 62
     5
 63
     7
 74
     0
 91
        4
 64
     7
 65
   257
 75
     1
175
     1
 42
1.0
 92
        8
 66
     7
 43
1.0
 76
     1
 77
     6
 78
     2
 67
     7
 79
     5
170
     0
171
     0
290
     0
174
     0
 93
        1
 44
0.0
173
     0
291
     1
 45
0.0
1001
ACAD
1000
AcDbSavedByObjectVersion
1070
     0
  0
VISUALSTYLE
  5
36
102
{ACAD_REACTORS
330
2A
102
}
102
{ACAD_XDICTIONARY
360
3F3
102
}
330
2A
100
AcDbVisualStyle
  2
Brighten
 70
    12
 71
     2
 72
     2
 73
     0
 90
        0
 40
0.6
 41
30.0
 62
     5
 63
     7
 74
     1
 91
        4
 64
     7
 65
   257
 75
     1
175
     1
 42
1.0
 92
        8
 66
     7
 43
1.0
 76
     1
 77
     6
 78
     2
 67
     7
 79
     5
170
     0
171
     0
290
     0
174
     0
 93
        1
 44
50.0
173
     0
291
     1
 45
0.0
1001
ACAD
1000
AcDbSavedByObjectVersion
1070
     0
  0
VISUALSTYLE
  5
3A
102
{ACAD_REACTORS
330
2A
102
}
102
{ACAD_XDICTIONARY
360
3FB
102
}
330
2A
100
AcDbVisualStyle
  2
ColorChange
 70
    16
 71
     2
 72
     2
 73
     3
 90
        0
 40
0.6
 41
30.0
 62
     5
 63
     8
 74
     1
 91
        4
 64
     7
 65
   257
 75
     1
175
     1
 42
1.0
 92
        8
 66
     8
 43
1.0
 76
     1
 77
     6
 78
     2
 67
     7
 79
     5
170
     0
171
     0
290
     0
174
     0
 93
        1
 44
0.0
173
     0
291
     1
 45
0.0
1001
ACAD
1000
AcDbSavedByObjectVersion
1070
     0
  0
VISUALSTYLE
  5
34
102
{ACAD_REACTORS
330
2A
102
}
102
{ACAD_XDICTIONARY
360
3EF
102
}
330
2A
100
AcDbVisualStyle
  2
Conceptual
 70
     9
 71
     3
 72
     2
 73
     0
 90
        0
 40
0.6
 41
30.0
 62
     5
 63
     7
 74
     2
 91
        2
 64
     7
 65
   257
 75
     1
175
     1
 42
179.0
 92
        8
 66
     7
 43
1.0
 76
     1
 77
     6
 78
     2
 67
     7
 79
     3
170
     0
171
     0
290
     0
174
     0
 93
        1
 44
0.0
173
     0
291
     0
 45
0.0
1001
ACAD
1000
AcDbSavedByObjectVersion
1070
     0
  0
VISUALSTYLE
  5
35
102
{ACAD_REACTORS
330
2A
102
}
102
{ACAD_XDICTIONARY
360
3F1
102
}
330
2A
100
AcDbVisualStyle
  2
Dim
 70
    11
 71
     2
 72
     2
 73
     0
 90
        0
 40
0.6
 41
30.0
 62
     5
 63
     7
 74
     1
 91
        4
 64
     7
 65
   257
 75
     1
175
     1
 42
1.0
 92
        8
 66
     7
 43
1.0
 76
     1
 77
     6
 78
     2
 67
     7
 79
     5
170
     0
171
     0
290
     0
174
     0
 93
        1
 44
-50.0
173
     0
291
     1
 45
0.0
1001
ACAD
1000
AcDbSavedByObjectVersion
1070
     0
  0
VISUALSTYLE
  5
3D
102
{ACAD_REACTORS
330
2A
102
}
102
{ACAD_XDICTIONARY
360
401
102
}
330
2A
100
AcDbVisualStyle
  2
EdgeColorOff
 70
    22
 71
     2
 72
     2
 73
     0
 90
        0
 40
0.6
 41
30.0
 62
     5
 63
     7
 74
     1
 91
        4
 64
     7
 65
   257
 75
     1
175
     1
 42
1.0
 92
        8
 66
     7
 43
1.0
 76
     1
 77
     6
 78
     2
 67
     7
 79
     5
170
     0
171
     0
290
     0
174
     0
 93
        1
 44
0.0
173
     0
291
     1
 45
0.0
1001
ACAD
1000
AcDbSavedByObjectVersion
1070
     0
  0
VISUALSTYLE
  5
39
102
{ACAD_REACTORS
330
2A
102
}
102
{ACAD_XDICTIONARY
360
3F9
102
}
330
2A
100
AcDbVisualStyle
  2
Facepattern
 70
    15
 71
     2
 72
     2
 73
     0
 90
        0
 40
0.6
 41
30.0
 62
     5
 63
     7
 74
     1
 91
        4
 64
     7
 65
   257
 75
     1
175
     1
 42
1.0
 92
        8
 66
     7
 43
1.0
 76
     1
 77
     6
 78
     2
 67
     7
 79
     5
170
     0
171
     0
290
     0
174
     0
 93
        1
 44
0.0
173
     0
291
     1
 45
0.0
1001
ACAD
1000
AcDbSavedByObjectVersion
1070
     0
  0
VISUALSTYLE
  5
2B
102
{ACAD_REACTORS
330
2A
102
}
102
{ACAD_XDICTIONARY
360
3DD
102
}
330
2A
100
AcDbVisualStyle
  2
Flat
 70
     0
 71
     2
 72
     1
 73
     1
 90
        2
 40
0.6
 41
30.0
 62
     5
 63
     7
 74
     0
 91
        0
 64
     7
 65
   257
 75
     1
175
     1
 42
1.0
 92
        8
 66
     7
 43
1.0
 76
     1
 77
     6
 78
     2
 67
     7
 79
     5
170
     0
171
     0
290
     0
174
     0
 93
       13
 44
0.0
173
     0
291
     1
 45
0.0
1001
ACAD
1000
AcDbSavedByObjectVersion
1070
     0
  0
VISUALSTYLE
  5
2C
102
{ACAD_REACTORS
330
2A
102
}
102
{ACAD_XDICTIONARY
360
3DF
102
}
330
2A
100
AcDbVisualStyle
  2
FlatWithEdges
 70
     1
 71
     2
 72
     1
 73
     1
 90
        2
 40
0.6
 41
30.0
 62
     5
 63
     7
 74
     1
 91
        0
 64
     7
 65
   257
 75
     1
175
     1
 42
1.0
 92
        0
 66
   257
 43
1.0
 76
     1
 77
     6
 78
     2
 67
     7
 79
     5
170
     0
171
     0
290
     0
174
     0
 93
       13
 44
0.0
173
     0
291
     1
 45
0.0
1001
ACAD
1000
AcDbSavedByObjectVersion
1070
     0
  0
VISUALSTYLE
  5
2D
102
{ACAD_REACTORS
330
2A
102
}
102
{ACAD_XDICTIONARY
360
3E1
102
}
330
2A
100
AcDbVisualStyle
  2
Gouraud
 70
     2
 71
     2
 72
     2
 73
     1
 90
        2
 40
0.6
 41
30.0
 62
     5
 63
     7
 74
     0
 91
        0
 64
     7
 65
   257
 75
     1
175
     1
 42
1.0
 92
        0
 66
     7
 43
1.0
 76
     1
 77
     6
 78
     2
 67
     7
 79
     5
170
     0
171
     0
290
     0
174
     0
 93
       13
 44
0.0
173
     0
291
     1
 45
0.0
1001
ACAD
1000
AcDbSavedByObjectVersion
1070
     0
  0
VISUALSTYLE
  5
2E
102
{ACAD_REACTORS
330
2A
102
}
102
{ACAD_XDICTIONARY
360
3E3
102
}
330
2A
100
AcDbVisualStyle
  2
GouraudWithEdges
 70
     3
 71
     2
 72
     2
 73
     1
 90
        2
 40
0.6
 41
30.0
 62
     5
 63
     7
 74
     1
 91
        0
 64
     7
 65
   257
 75
     1
175
     1
 42
1.0
 92
        0
 66
   257
 43
1.0
 76
     1
 77
     6
 78
     2
 67
     7
 79
     5
170
     0
171
     0
290
     0
174
     0
 93
       13
 44
0.0
173
     0
291
     1
 45
0.0
1001
ACAD
1000
AcDbSavedByObjectVersion
1070
     0
  0
VISUALSTYLE
  5
31
102
{ACAD_REACTORS
330
2A
102
}
102
{ACAD_XDICTIONARY
360
3E9
102
}
330
2A
100
AcDbVisualStyle
  2
Hidden
 70
     6
 71
     1
 72
     2
 73
     2
 90
        0
 40
0.6
 41
30.0
 62
     5
 63
     7
 74
     2
 91
        2
 64
     7
 65
   257
 75
     2
175
     1
 42
40.0
 92
        0
 66
   257
 43
1.0
 76
     1
 77
     6
 78
     2
 67
     7
 79
     3
170
     0
171
     0
290
     0
174
     0
 93
        1
 44
0.0
173
     0
291
     0
 45
0.0
1001
ACAD
1000
AcDbSavedByObjectVersion
1070
     0
  0
VISUALSTYLE
  5
3B
102
{ACAD_REACTORS
330
2A
102
}
102
{ACAD_XDICTIONARY
360
3FD
102
}
330
2A
100
AcDbVisualStyle
  2
JitterOff
 70
    20
 71
     2
 72
     2
 73
     0
 90
        0
 40
0.6
 41
30.0
 62
     5
 63
     7
 74
     1
 91
        4
 64
     7
 65
   257
 75
     1
175
     1
 42
1.0
 92
       10
 66
     7
 43
1.0
 76
     1
 77
     6
 78
     2
 67
     7
 79
     5
170
     0
171
     0
290
     0
174
     0
 93
        1
 44
0.0
173
     0
291
     1
 45
0.0
1001
ACAD
1000
AcDbSavedByObjectVersion
1070
     0
  0
VISUALSTYLE
  5
38
102
{ACAD_REACTORS
330
2A
102
}
102
{ACAD_XDICTIONARY
360
3F7
102
}
330
2A
100
AcDbVisualStyle
  2
Linepattern
 70
    14
 71
     2
 72
     2
 73
     0
 90
        0
 40
0.6
 41
30.0
 62
     5
 63
     7
 74
     1
 91
        4
 64
     7
 65
   257
 75
     7
175
     7
 42
1.0
 92
        8
 66
     7
 43
1.0
 76
     1
 77
     6
 78
     2
 67
     7
 79
     5
170
     0
171
     0
290
     0
174
     0
 93
        1
 44
0.0
173
     0
291
     1
 45
0.0
1001
ACAD
1000
AcDbSavedByObjectVersion
1070
     0
  0
VISUALSTYLE
  5
3C
102
{ACAD_REACTORS
330
2A
102
}
102
{ACAD_XDICTIONARY
360
3FF
102
}
330
2A
100
AcDbVisualStyle
  2
OverhangOff
 70
    21
 71
     2
 72
     2
 73
     0
 90
        0
 40
0.6
 41
30.0
 62
     5
 63
     7
 74
     1
 91
        4
 64
     7
 65
   257
 75
     1
175
     1
 42
1.0
 92
        9
 66
     7
 43
1.0
 76
     1
 77
     6
 78
     2
 67
     7
 79
     5
170
     0
171
     0
290
     0
174
     0
 93
        1
 44
0.0
173
     0
291
     1
 45
0.0
1001
ACAD
1000
AcDbSavedByObjectVersion
1070
     0
  0
VISUALSTYLE
  5
33
102
{ACAD_REACTORS
330
2A
102
}
102
{ACAD_XDICTIONARY
360
3ED
102
}
330
2A
100
AcDbVisualStyle
  2
Realistic
 70
     8
 71
     2
 72
     3
 73
     0
 90
        2
 40
0.6
 41
30.0
 62
     5
 63
     7
 74
     0
 91
        0
 64
     7
 65
   257
 75
     1
175
     1
 42
1.0
 92
        8
 66
   257
 43
1.0
 76
     1
 77
     6
 78
     2
 67
     7
 79
     3
170
     0
171
     0
290
     0
174
     0
 93
       13
 44
0.0
173
     0
291
     0
 45
0.0
1001
ACAD
1000
AcDbSavedByObjectVersion
1070
     0
  0
VISUALSTYLE
  5
42
102
{ACAD_REACTORS
330
2A
102
}
102
{ACAD_XDICTIONARY
360
40B
102
}
330
2A
100
AcDbVisualStyle
  2
Shaded
 70
    27
 71
     2
 72
     2
 73
     1
 90
        2
 40
0.6
 41
30.0
 62
     5
 63
     7
 74
     0
 91
        4
 64
     7
 65
   257
 75
     1
175
     1
 42
1.0
 92
        8
 66
   257
 43
1.0
 76
     1
 77
     6
 78
     2
 67
     8
 79
     3
170
     0
171
     0
290
     0
174
     0
 93
        5
 44
0.0
173
     0
291
     0
 45
0.0
1001
ACAD
1000
AcDbSavedByObjectVersion
1070
     0
  0
VISUALSTYLE
  5
41
102
{ACAD_REACTORS
330
2A
102
}
102
{ACAD_XDICTIONARY
360
409
102
}
330
2A
100
AcDbVisualStyle
  2
Shaded with edges
 70
    26
 71
     2
 72
     2
 73
     1
 90
        2
 40
0.6
 41
30.0
 62
     5
 63
     7
 74
     1
 91
       10
 64
     7
 65
   257
 75
     2
175
     1
 42
1.0
 92
        8
 66
   257
 43
1.0
 76
     1
 77
     6
 78
     2
 67
     7
 79
     3
170
     0
171
     0
290
     0
174
     0
 93
        5
 44
0.0
173
     0
291
     0
 45
0.0
1001
ACAD
1000
AcDbSavedByObjectVersion
1070
     0
  0
VISUALSTYLE
  5
3E
102
{ACAD_REACTORS
330
2A
102
}
102
{ACAD_XDICTIONARY
360
403
102
}
330
2A
100
AcDbVisualStyle
  2
Shades of Gray
 70
    23
 71
     2
 72
     2
 73
     3
 90
        0
 40
0.6
 41
30.0
 62
     5
 63
     7
 74
     2
 91
        2
 64
     7
 65
     7
 75
     1
175
     1
 42
40.0
 92
        8
 66
     7
 43
1.0
 76
     1
 77
     6
 78
     2
 67
     7
 79
     3
170
     0
171
     0
290
     0
174
     0
 93
        1
 44
0.0
173
     0
291
     0
 45
0.0
1001
ACAD
1000
AcDbSavedByObjectVersion
1070
     0
  0
VISUALSTYLE
  5
3F
102
{ACAD_REACTORS
330
2A
102
}
102
{ACAD_XDICTIONARY
360
405
102
}
330
2A
100
AcDbVisualStyle
  2
Sketchy
 70
    24
 71
     1
 72
     2
 73
     2
 90
        0
 40
0.6
 41
30.0
 62
     5
 63
     7
 74
     2
 91
        2
 64
     7
 65
     7
 75
     1
175
     1
 42
40.0
 92
       11
 66
     7
 43
1.0
 76
     1
 77
     6
 78
     2
 67
     7
 79
     6
170
     0
171
     0
290
     0
174
     0
 93
        1
 44
0.0
173
     0
291
     0
 45
0.0
1001
ACAD
1000
AcDbSavedByObjectVersion
1070
     0
  0
VISUALSTYLE
  5
37
102
{ACAD_REACTORS
330
2A
102
}
102
{ACAD_XDICTIONARY
360
3F5
102
}
330
2A
100
AcDbVisualStyle
  2
Thicken
 70
    13
 71
     2
 72
     2
 73
     0
 90
        0
 40
0.6
 41
30.0
 62
     5
 63
     7
 74
     1
 91
        4
 64
     7
 65
   257
 75
     1
175
     1
 42
1.0
 92
       12
 66
     7
 43
1.0
 76
     1
 77
     6
 78
     2
 67
     7
 79
     5
170
     0
171
     0
290
     0
174
     0
 93
        1
 44
0.0
173
     0
291
     1
 45
0.0
1001
ACAD
1000
AcDbSavedByObjectVersion
1070
     0
  0
VISUALSTYLE
  5
30
102
{ACAD_REACTORS
330
2A
102
}
102
{ACAD_XDICTIONARY
360
3E7
102
}
330
2A
100
AcDbVisualStyle
  2
Wireframe
 70
     5
 71
     0
 72
     2
 73
     0
 90
        0
 40
0.6
 41
30.0
 62
     5
 63
     7
 74
     1
 91
        4
 64
     7
 65
   257
 75
     1
175
     1
 42
1.0
 92
        0
 66
   257
 43
1.0
 76
     1
 77
     6
 78
     2
 67
     7
 79
     3
170
     0
171
     0
290
     0
174
     0
 93
        1
 44
0.0
173
     0
291
     0
 45
0.0
1001
ACAD
1000
AcDbSavedByObjectVersion
1070
     0
  0
VISUALSTYLE
  5
40
102
{ACAD_REACTORS
330
2A
102
}
102
{ACAD_XDICTIONARY
360
407
102
}
330
2A
100
AcDbVisualStyle
  2
X-Ray
 70
    25
 71
     2
 72
     2
 73
     1
 90
        1
 40
0.5
 41
30.0
 62
     5
 63
     7
 74
     1
 91
        0
 64
     7
 65
   257
 75
     1
175
     1
 42
1.0
 92
        8
 66
     7
 43
1.0
 76
     1
 77
     6
 78
     2
 67
     7
 79
     3
170
     0
171
     0
290
     0
174
     0
 93
       13
 44
0.0
173
     0
291
     0
 45
0.0
1001
ACAD
1000
AcDbSavedByObjectVersion
1070
     0
  0
DICTIONARYVAR
  5
3DB
102
{ACAD_REACTORS
330
3CE
102
}
330
3CE
100
DictionaryVariables
280
     0
  1
1:1
  0
DICTIONARYVAR
  5
3D5
102
{ACAD_REACTORS
330
3CE
102
}
330
3CE
100
DictionaryVariables
280
     0
  1
3.500000
  0
DICTIONARYVAR
  5
3D6
102
{ACAD_REACTORS
330
3CE
102
}
330
3CE
100
DictionaryVariables
280
     0
  1
acadiso.lin
  0
DICTIONARYVAR
  5
3D0
102
{ACAD_REACTORS
330
3CE
102
}
330
3CE
100
DictionaryVariables
280
     0
  1
Standard
  0
DICTIONARYVAR
  5
3CF
102
{ACAD_REACTORS
330
3CE
102
}
330
3CE
100
DictionaryVariables
280
     0
  1
Standard
  0
DICTIONARYVAR
  5
3D7
102
{ACAD_REACTORS
330
3CE
102
}
330
3CE
100
DictionaryVariables
280
     0
  1
2
  0
DICTIONARYVAR
  5
3D8
102
{ACAD_REACTORS
330
3CE
102
}
330
3CE
100
DictionaryVariables
280
     0
  1
1
  0
DICTIONARYVAR
  5
3DC
102
{ACAD_REACTORS
330
3CE
102
}
330
3CE
100
DictionaryVariables
280
     0
  1
1
  0
DICTIONARYVAR
  5
3D2
102
{ACAD_REACTORS
330
3CE
102
}
330
3CE
100
DictionaryVariables
280
     0
  1
80.000000
  0
DICTIONARYVAR
  5
3D1
102
{ACAD_REACTORS
330
3CE
102
}
330
3CE
100
DictionaryVariables
280
     0
  1
5.000000
  0
DICTIONARY
  5
40F
330
45
100
AcDbDictionary
280
     1
281
     1
  3
ACAD_XREC_ROUNDTRIP
360
410
  0
DICTIONARY
  5
40D
330
44
100
AcDbDictionary
280
     1
281
     1
  3
ACAD_XREC_ROUNDTRIP
360
40E
  0
DICTIONARY
  5
411
330
46
100
AcDbDictionary
280
     1
281
     1
  3
ACAD_XREC_ROUNDTRIP
360
412
  0
DICTIONARY
  5
414
330
6C
100
AcDbDictionary
280
     1
281
     1
  3
ACAD_XREC_ROUNDTRIP
360
415
  0
DICTIONARY
  5
3E5
330
2F
100
AcDbDictionary
280
     1
281
     1
  3
ACAD_XREC_ROUNDTRIP
360
3E6
  0
DICTIONARY
  5
3EB
330
32
100
AcDbDictionary
280
     1
281
     1
  3
ACAD_XREC_ROUNDTRIP
360
3EC
  0
DICTIONARY
  5
3F3
330
36
100
AcDbDictionary
280
     1
281
     1
  3
ACAD_XREC_ROUNDTRIP
360
3F4
  0
DICTIONARY
  5
3FB
330
3A
100
AcDbDictionary
280
     1
281
     1
  3
ACAD_XREC_ROUNDTRIP
360
3FC
  0
DICTIONARY
  5
3EF
330
34
100
AcDbDictionary
280
     1
281
     1
  3
ACAD_XREC_ROUNDTRIP
360
3F0
  0
DICTIONARY
  5
3F1
330
35
100
AcDbDictionary
280
     1
281
     1
  3
ACAD_XREC_ROUNDTRIP
360
3F2
  0
DICTIONARY
  5
401
330
3D
100
AcDbDictionary
280
     1
281
     1
  3
ACAD_XREC_ROUNDTRIP
360
402
  0
DICTIONARY
  5
3F9
330
39
100
AcDbDictionary
280
     1
281
     1
  3
ACAD_XREC_ROUNDTRIP
360
3FA
  0
DICTIONARY
  5
3DD
330
2B
100
AcDbDictionary
280
     1
281
     1
  3
ACAD_XREC_ROUNDTRIP
360
3DE
  0
DICTIONARY
  5
3DF
330
2C
100
AcDbDictionary
280
     1
281
     1
  3
ACAD_XREC_ROUNDTRIP
360
3E0
  0
DICTIONARY
  5
3E1
330
2D
100
AcDbDictionary
280
     1
281
     1
  3
ACAD_XREC_ROUNDTRIP
360
3E2
  0
DICTIONARY
  5
3E3
330
2E
100
AcDbDictionary
280
     1
281
     1
  3
ACAD_XREC_ROUNDTRIP
360
3E4
  0
DICTIONARY
  5
3E9
330
31
100
AcDbDictionary
280
     1
281
     1
  3
ACAD_XREC_ROUNDTRIP
360
3EA
  0
DICTIONARY
  5
3FD
330
3B
100
AcDbDictionary
280
     1
281
     1
  3
ACAD_XREC_ROUNDTRIP
360
3FE
  0
DICTIONARY
  5
3F7
330
38
100
AcDbDictionary
280
     1
281
     1
  3
ACAD_XREC_ROUNDTRIP
360
3F8
  0
DICTIONARY
  5
3FF
330
3C
100
AcDbDictionary
280
     1
281
     1
  3
ACAD_XREC_ROUNDTRIP
360
400
  0
DICTIONARY
  5
3ED
330
33
100
AcDbDictionary
280
     1
281
     1
  3
ACAD_XREC_ROUNDTRIP
360
3EE
  0
DICTIONARY
  5
40B
330
42
100
AcDbDictionary
280
     1
281
     1
  3
ACAD_XREC_ROUNDTRIP
360
40C
  0
DICTIONARY
  5
409
330
41
100
AcDbDictionary
280
     1
281
     1
  3
ACAD_XREC_ROUNDTRIP
360
40A
  0
DICTIONARY
  5
403
330
3E
100
AcDbDictionary
280
     1
281
     1
  3
ACAD_XREC_ROUNDTRIP
360
404
  0
DICTIONARY
  5
405
330
3F
100
AcDbDictionary
280
     1
281
     1
  3
ACAD_XREC_ROUNDTRIP
360
406
  0
DICTIONARY
  5
3F5
330
37
100
AcDbDictionary
280
     1
281
     1
  3
ACAD_XREC_ROUNDTRIP
360
3F6
  0
DICTIONARY
  5
3E7
330
30
100
AcDbDictionary
280
     1
281
     1
  3
ACAD_XREC_ROUNDTRIP
360
3E8
  0
DICTIONARY
  5
407
330
40
100
AcDbDictionary
280
     1
281
     1
  3
ACAD_XREC_ROUNDTRIP
360
408
  0
XRECORD
  5
410
102
{ACAD_REACTORS
330
40F
102
}
330
40F
100
AcDbXrecord
280
     1
102
MATERIAL
148
0.0
149
0.0
149
0.0
 93
        0
 94
      127
282
     0
 72
     1
 77
     1
171
     1
175
     1
179
     1
273
     0
  0
XRECORD
  5
40E
102
{ACAD_REACTORS
330
40D
102
}
330
40D
100
AcDbXrecord
280
     1
102
MATERIAL
148
0.0
149
0.0
149
0.0
 93
        0
 94
      127
282
     0
 72
     1
 77
     1
171
     1
175
     1
179
     1
273
     0
  0
XRECORD
  5
412
102
{ACAD_REACTORS
330
411
102
}
330
411
100
AcDbXrecord
280
     1
102
MATERIAL
148
0.0
149
0.0
149
0.0
 93
        0
 94
      127
282
     0
 72
     1
 77
     1
171
     1
175
     1
179
     1
273
     0
  0
XRECORD
  5
415
102
{ACAD_REACTORS
330
414
102
}
330
414
100
AcDbXrecord
280
     1
102
ACAD_ROUNDTRIP_2010_MLEADER_STYLE
  0
XRECORD
  5
3E6
102
{ACAD_REACTORS
330
3E5
102
}
330
3E5
100
AcDbXrecord
280
     1
102
RTVSPropertyOp0
 70
     1
102
RTVSPropertyOp1
 70
     1
102
RTVSPropertyOp2
 70
     1
102
RTVSPropertyOp3
 70
     1
102
RTVSPropertyOp4
 70
     1
102
RTVSPropertyOp5
 70
     1
102
RTVSPropertyOp6
 70
     1
102
RTVSPropertyOp7
 70
     1
102
RTVSPropertyOp8
 70
     1
102
RTVSPropertyOp9
 70
     1
102
RTVSPropertyOp10
 70
     1
102
RTVSPropertyOp11
 70
     1
102
RTVSPropertyOp12
 70
     1
102
RTVSPropertyOp13
 70
     1
102
RTVSPropertyOp14
 70
     1
102
RTVSPropertyOp15
 70
     1
102
RTVSPropertyOp16
 70
     1
102
RTVSPropertyOp17
 70
     1
102
RTVSPropertyOp18
 70
     1
102
RTVSPropertyOp19
 70
     1
102
RTVSPropertyOp20
 70
     1
102
RTVSPropertyOp21
 70
     1
102
RTVSPropertyOp22
 70
     1
102
RTVSPropertyOp23
 70
     1
102
RTVSPropertyOp24
 70
     1
102
RTVSPropertyOp25
 70
     1
102
RTVSPropertyOp26
 70
     1
102
RTVSPropertyOp27
 70
     1
102
RTVSPropertyOp28
 70
     1
102
RTVSPropertyOp29
 70
     1
102
RTVSPropertyOp30
 70
     1
102
RTVSPropertyOp31
 70
     1
102
RTVSPropertyOp32
 70
     1
102
RTVSPropertyOp33
 70
     1
102
RTVSPropertyOp34
 70
     1
102
RTVSPropertyOp35
 70
     1
102
RTVSPropertyOp36
 70
     1
102
RTVSPropertyOp37
 70
     1
102
RTVSPropertyOp38
 70
     1
102
RTVSPropertyOp39
 70
     1
102
RTVSPropertyOp40
 70
     1
102
RTVSPropertyOp41
 70
     1
102
RTVSPropertyOp42
 70
     1
102
RTVSPropertyOp43
 70
     1
102
RTVSPropertyOp44
 70
     1
102
RTVSPropertyOp45
 70
     1
102
RTVSPropertyOp46
 70
     1
102
RTVSPropertyOp47
 70
     1
102
RTVSPropertyOp48
 70
     1
102
RTVSPropertyOp49
 70
     1
102
RTVSPropertyOp50
 70
     1
102
RTVSPropertyOp51
 70
     0
102
RTVSPropertyOp52
 70
     0
102
RTVSPropertyOp53
 70
     1
102
RTVSPropertyOp54
 70
     1
102
RTVSPropertyOp55
 70
     1
102
RTVSPropertyOp56
 70
     1
102
RTVSPropertyOp57
 70
     1
102
RTVSPost2010Prop28
280
     1
102
RTVSPost2010PropOp28
 70
     1
102
RTVSPost2010Prop29
280
     1
102
RTVSPost2010PropOp29
 70
     1
102
RTVSPost2010Prop30
280
     0
102
RTVSPost2010PropOp30
 70
     1
102
RTVSPost2010Prop31
280
     0
102
RTVSPost2010PropOp31
 70
     1
102
RTVSPost2010Prop32
280
     0
102
RTVSPost2010PropOp32
 70
     1
102
RTVSPost2010Prop33
280
     0
102
RTVSPost2010PropOp33
 70
     1
102
RTVSPost2010Prop34
280
     0
102
RTVSPost2010PropOp34
 70
     1
102
RTVSPost2010Prop35
280
     0
102
RTVSPost2010PropOp35
 70
     1
102
RTVSPost2010Prop36
280
     0
102
RTVSPost2010PropOp36
 70
     1
102
RTVSPost2010Prop37
 90
       50
102
RTVSPost2010PropOp37
 70
     1
102
RTVSPost2010Prop38
140
0.0
102
RTVSPost2010PropOp38
 70
     1
102
RTVSPost2010Prop39
140
1.0
102
RTVSPost2010PropOp39
 70
     1
102
RTVSPost2010Prop40
 90
        0
102
RTVSPost2010PropOp40
 70
     1
102
RTVSPost2010Prop41ColorIndex
 90
       18
102
RTVSPost2010Prop41ColorRGB
 90
        0
102
RTVSPost2010PropOp41
 70
     1
102
RTVSPost2010Prop42
 90
       50
102
RTVSPost2010PropOp42
 70
     1
102
RTVSPost2010Prop43
 90
        3
102
RTVSPost2010PropOp43
 70
     1
102
RTVSPost2010Prop44ColorIndex
 90
        5
102
RTVSPost2010Prop44ColorRGB
 90
      255
102
RTVSPost2010PropOp44
 70
     1
102
RTVSPost2010Prop45
280
     0
102
RTVSPost2010PropOp45
 70
     1
102
RTVSPost2010Prop46
 90
       50
102
RTVSPost2010PropOp46
 70
     1
102
RTVSPost2010Prop47
 90
       50
102
RTVSPost2010PropOp47
 70
     1
102
RTVSPost2010Prop48
 90
       50
102
RTVSPost2010PropOp48
 70
     1
102
RTVSPost2010Prop49
280
     0
102
RTVSPost2010PropOp49
 70
     1
102
RTVSPost2010Prop50
 90
       50
102
RTVSPost2010PropOp50
 70
     1
102
RTVSPost2010Prop51ColorIndex
 90
      256
102
RTVSPost2010Prop51ColorRGB
 90
-16777216
102
RTVSPost2010PropOp51
 70
     0
102
RTVSPost2010Prop52
140
1.0
102
RTVSPost2010PropOp52
 70
     0
102
RTVSPost2010Prop53
 90
        2
102
RTVSPost2010PropOp53
 70
     1
102
RTVSPost2010Prop54
  1
strokes_ogs.tif
102
RTVSPost2010PropOp54
 70
     1
102
RTVSPost2010Prop55
280
     0
102
RTVSPost2010PropOp55
 70
     1
102
RTVSPost2010Prop56
140
1.0
102
RTVSPost2010PropOp56
 70
     1
102
RTVSPost2010Prop57
140
1.0
102
RTVSPost2010PropOp57
 70
     1
  0
XRECORD
  5
3EC
102
{ACAD_REACTORS
330
3EB
102
}
330
3EB
100
AcDbXrecord
280
     1
102
RTVSPropertyOp0
 70
     1
102
RTVSPropertyOp1
 70
     1
102
RTVSPropertyOp2
 70
     1
102
RTVSPropertyOp3
 70
     1
102
RTVSPropertyOp4
 70
     1
102
RTVSPropertyOp5
 70
     1
102
RTVSPropertyOp6
 70
     1
102
RTVSPropertyOp7
 70
     1
102
RTVSPropertyOp8
 70
     1
102
RTVSPropertyOp9
 70
     1
102
RTVSPropertyOp10
 70
     1
102
RTVSPropertyOp11
 70
     1
102
RTVSPropertyOp12
 70
     1
102
RTVSPropertyOp13
 70
     1
102
RTVSPropertyOp14
 70
     1
102
RTVSPropertyOp15
 70
     1
102
RTVSPropertyOp16
 70
     1
102
RTVSPropertyOp17
 70
     1
102
RTVSPropertyOp18
 70
     1
102
RTVSPropertyOp19
 70
     1
102
RTVSPropertyOp20
 70
     1
102
RTVSPropertyOp21
 70
     1
102
RTVSPropertyOp22
 70
     1
102
RTVSPropertyOp23
 70
     1
102
RTVSPropertyOp24
 70
     1
102
RTVSPropertyOp25
 70
     1
102
RTVSPropertyOp26
 70
     1
102
RTVSPropertyOp27
 70
     1
102
RTVSPropertyOp28
 70
     1
102
RTVSPropertyOp29
 70
     1
102
RTVSPropertyOp30
 70
     1
102
RTVSPropertyOp31
 70
     1
102
RTVSPropertyOp32
 70
     1
102
RTVSPropertyOp33
 70
     1
102
RTVSPropertyOp34
 70
     1
102
RTVSPropertyOp35
 70
     1
102
RTVSPropertyOp36
 70
     1
102
RTVSPropertyOp37
 70
     1
102
RTVSPropertyOp38
 70
     1
102
RTVSPropertyOp39
 70
     1
102
RTVSPropertyOp40
 70
     1
102
RTVSPropertyOp41
 70
     1
102
RTVSPropertyOp42
 70
     1
102
RTVSPropertyOp43
 70
     1
102
RTVSPropertyOp44
 70
     1
102
RTVSPropertyOp45
 70
     1
102
RTVSPropertyOp46
 70
     1
102
RTVSPropertyOp47
 70
     1
102
RTVSPropertyOp48
 70
     1
102
RTVSPropertyOp49
 70
     1
102
RTVSPropertyOp50
 70
     1
102
RTVSPropertyOp51
 70
     0
102
RTVSPropertyOp52
 70
     0
102
RTVSPropertyOp53
 70
     1
102
RTVSPropertyOp54
 70
     1
102
RTVSPropertyOp55
 70
     1
102
RTVSPropertyOp56
 70
     1
102
RTVSPropertyOp57
 70
     1
102
RTVSPost2010Prop28
280
     0
102
RTVSPost2010PropOp28
 70
     1
102
RTVSPost2010Prop29
280
     1
102
RTVSPost2010PropOp29
 70
     1
102
RTVSPost2010Prop30
280
     1
102
RTVSPost2010PropOp30
 70
     1
102
RTVSPost2010Prop31
280
     0
102
RTVSPost2010PropOp31
 70
     1
102
RTVSPost2010Prop32
280
     0
102
RTVSPost2010PropOp32
 70
     1
102
RTVSPost2010Prop33
280
     0
102
RTVSPost2010PropOp33
 70
     1
102
RTVSPost2010Prop34
280
     0
102
RTVSPost2010PropOp34
 70
     1
102
RTVSPost2010Prop35
280
     0
102
RTVSPost2010PropOp35
 70
     1
102
RTVSPost2010Prop36
280
     0
102
RTVSPost2010PropOp36
 70
     1
102
RTVSPost2010Prop37
 90
       50
102
RTVSPost2010PropOp37
 70
     1
102
RTVSPost2010Prop38
140
0.0
102
RTVSPost2010PropOp38
 70
     1
102
RTVSPost2010Prop39
140
1.0
102
RTVSPost2010PropOp39
 70
     1
102
RTVSPost2010Prop40
 90
        0
102
RTVSPost2010PropOp40
 70
     1
102
RTVSPost2010Prop41ColorIndex
 90
       18
102
RTVSPost2010Prop41ColorRGB
 90
        0
102
RTVSPost2010PropOp41
 70
     1
102
RTVSPost2010Prop42
 90
       50
102
RTVSPost2010PropOp42
 70
     1
102
RTVSPost2010Prop43
 90
        3
102
RTVSPost2010PropOp43
 70
     1
102
RTVSPost2010Prop44ColorIndex
 90
        5
102
RTVSPost2010Prop44ColorRGB
 90
      255
102
RTVSPost2010PropOp44
 70
     1
102
RTVSPost2010Prop45
280
     0
102
RTVSPost2010PropOp45
 70
     1
102
RTVSPost2010Prop46
 90
       50
102
RTVSPost2010PropOp46
 70
     1
102
RTVSPost2010Prop47
 90
       50
102
RTVSPost2010PropOp47
 70
     1
102
RTVSPost2010Prop48
 90
       50
102
RTVSPost2010PropOp48
 70
     1
102
RTVSPost2010Prop49
280
     0
102
RTVSPost2010PropOp49
 70
     1
102
RTVSPost2010Prop50
 90
       50
102
RTVSPost2010PropOp50
 70
     1
102
RTVSPost2010Prop51ColorIndex
 90
      256
102
RTVSPost2010Prop51ColorRGB
 90
-16777216
102
RTVSPost2010PropOp51
 70
     0
102
RTVSPost2010Prop52
140
1.0
102
RTVSPost2010PropOp52
 70
     0
102
RTVSPost2010Prop53
 90
        2
102
RTVSPost2010PropOp53
 70
     1
102
RTVSPost2010Prop54
  1
strokes_ogs.tif
102
RTVSPost2010PropOp54
 70
     1
102
RTVSPost2010Prop55
280
     0
102
RTVSPost2010PropOp55
 70
     1
102
RTVSPost2010Prop56
140
1.0
102
RTVSPost2010PropOp56
 70
     1
102
RTVSPost2010Prop57
140
1.0
102
RTVSPost2010PropOp57
 70
     1
  0
XRECORD
  5
3F4
102
{ACAD_REACTORS
330
3F3
102
}
330
3F3
100
AcDbXrecord
280
     1
102
RTVSPropertyOp0
 70
     1
102
RTVSPropertyOp1
 70
     1
102
RTVSPropertyOp2
 70
     1
102
RTVSPropertyOp3
 70
     1
102
RTVSPropertyOp4
 70
     1
102
RTVSPropertyOp5
 70
     1
102
RTVSPropertyOp6
 70
     1
102
RTVSPropertyOp7
 70
     1
102
RTVSPropertyOp8
 70
     1
102
RTVSPropertyOp9
 70
     1
102
RTVSPropertyOp10
 70
     1
102
RTVSPropertyOp11
 70
     1
102
RTVSPropertyOp12
 70
     1
102
RTVSPropertyOp13
 70
     1
102
RTVSPropertyOp14
 70
     1
102
RTVSPropertyOp15
 70
     1
102
RTVSPropertyOp16
 70
     1
102
RTVSPropertyOp17
 70
     1
102
RTVSPropertyOp18
 70
     1
102
RTVSPropertyOp19
 70
     1
102
RTVSPropertyOp20
 70
     1
102
RTVSPropertyOp21
 70
     1
102
RTVSPropertyOp22
 70
     1
102
RTVSPropertyOp23
 70
     1
102
RTVSPropertyOp24
 70
     1
102
RTVSPropertyOp25
 70
     1
102
RTVSPropertyOp26
 70
     1
102
RTVSPropertyOp27
 70
     1
102
RTVSPropertyOp28
 70
     1
102
RTVSPropertyOp29
 70
     1
102
RTVSPropertyOp30
 70
     1
102
RTVSPropertyOp31
 70
     1
102
RTVSPropertyOp32
 70
     1
102
RTVSPropertyOp33
 70
     1
102
RTVSPropertyOp34
 70
     1
102
RTVSPropertyOp35
 70
     1
102
RTVSPropertyOp36
 70
     1
102
RTVSPropertyOp37
 70
     1
102
RTVSPropertyOp38
 70
     1
102
RTVSPropertyOp39
 70
     1
102
RTVSPropertyOp40
 70
     1
102
RTVSPropertyOp41
 70
     1
102
RTVSPropertyOp42
 70
     1
102
RTVSPropertyOp43
 70
     1
102
RTVSPropertyOp44
 70
     1
102
RTVSPropertyOp45
 70
     1
102
RTVSPropertyOp46
 70
     1
102
RTVSPropertyOp47
 70
     1
102
RTVSPropertyOp48
 70
     1
102
RTVSPropertyOp49
 70
     1
102
RTVSPropertyOp50
 70
     1
102
RTVSPropertyOp51
 70
     0
102
RTVSPropertyOp52
 70
     0
102
RTVSPropertyOp53
 70
     1
102
RTVSPropertyOp54
 70
     1
102
RTVSPropertyOp55
 70
     1
102
RTVSPropertyOp56
 70
     1
102
RTVSPropertyOp57
 70
     1
102
RTVSPost2010Prop28
280
     0
102
RTVSPost2010PropOp28
 70
     1
102
RTVSPost2010Prop29
280
     1
102
RTVSPost2010PropOp29
 70
     1
102
RTVSPost2010Prop30
280
     1
102
RTVSPost2010PropOp30
 70
     1
102
RTVSPost2010Prop31
280
     0
102
RTVSPost2010PropOp31
 70
     1
102
RTVSPost2010Prop32
280
     0
102
RTVSPost2010PropOp32
 70
     1
102
RTVSPost2010Prop33
280
     0
102
RTVSPost2010PropOp33
 70
     1
102
RTVSPost2010Prop34
280
     0
102
RTVSPost2010PropOp34
 70
     1
102
RTVSPost2010Prop35
280
     0
102
RTVSPost2010PropOp35
 70
     1
102
RTVSPost2010Prop36
280
     0
102
RTVSPost2010PropOp36
 70
     1
102
RTVSPost2010Prop37
 90
       50
102
RTVSPost2010PropOp37
 70
     1
102
RTVSPost2010Prop38
140
0.0
102
RTVSPost2010PropOp38
 70
     1
102
RTVSPost2010Prop39
140
1.0
102
RTVSPost2010PropOp39
 70
     1
102
RTVSPost2010Prop40
 90
        0
102
RTVSPost2010PropOp40
 70
     1
102
RTVSPost2010Prop41ColorIndex
 90
       18
102
RTVSPost2010Prop41ColorRGB
 90
        0
102
RTVSPost2010PropOp41
 70
     1
102
RTVSPost2010Prop42
 90
       50
102
RTVSPost2010PropOp42
 70
     1
102
RTVSPost2010Prop43
 90
        3
102
RTVSPost2010PropOp43
 70
     1
102
RTVSPost2010Prop44ColorIndex
 90
        5
102
RTVSPost2010Prop44ColorRGB
 90
      255
102
RTVSPost2010PropOp44
 70
     1
102
RTVSPost2010Prop45
280
     0
102
RTVSPost2010PropOp45
 70
     1
102
RTVSPost2010Prop46
 90
       50
102
RTVSPost2010PropOp46
 70
     1
102
RTVSPost2010Prop47
 90
       50
102
RTVSPost2010PropOp47
 70
     1
102
RTVSPost2010Prop48
 90
       50
102
RTVSPost2010PropOp48
 70
     1
102
RTVSPost2010Prop49
280
     0
102
RTVSPost2010PropOp49
 70
     1
102
RTVSPost2010Prop50
 90
       50
102
RTVSPost2010PropOp50
 70
     1
102
RTVSPost2010Prop51ColorIndex
 90
      256
102
RTVSPost2010Prop51ColorRGB
 90
-16777216
102
RTVSPost2010PropOp51
 70
     0
102
RTVSPost2010Prop52
140
1.0
102
RTVSPost2010PropOp52
 70
     0
102
RTVSPost2010Prop53
 90
        2
102
RTVSPost2010PropOp53
 70
     1
102
RTVSPost2010Prop54
  1
strokes_ogs.tif
102
RTVSPost2010PropOp54
 70
     1
102
RTVSPost2010Prop55
280
     0
102
RTVSPost2010PropOp55
 70
     1
102
RTVSPost2010Prop56
140
1.0
102
RTVSPost2010PropOp56
 70
     1
102
RTVSPost2010Prop57
140
1.0
102
RTVSPost2010PropOp57
 70
     1
  0
XRECORD
  5
3FC
102
{ACAD_REACTORS
330
3FB
102
}
330
3FB
100
AcDbXrecord
280
     1
102
RTVSPropertyOp0
 70
     1
102
RTVSPropertyOp1
 70
     1
102
RTVSPropertyOp2
 70
     1
102
RTVSPropertyOp3
 70
     1
102
RTVSPropertyOp4
 70
     1
102
RTVSPropertyOp5
 70
     1
102
RTVSPropertyOp6
 70
     1
102
RTVSPropertyOp7
 70
     1
102
RTVSPropertyOp8
 70
     1
102
RTVSPropertyOp9
 70
     1
102
RTVSPropertyOp10
 70
     1
102
RTVSPropertyOp11
 70
     1
102
RTVSPropertyOp12
 70
     1
102
RTVSPropertyOp13
 70
     1
102
RTVSPropertyOp14
 70
     1
102
RTVSPropertyOp15
 70
     1
102
RTVSPropertyOp16
 70
     1
102
RTVSPropertyOp17
 70
     1
102
RTVSPropertyOp18
 70
     1
102
RTVSPropertyOp19
 70
     1
102
RTVSPropertyOp20
 70
     1
102
RTVSPropertyOp21
 70
     1
102
RTVSPropertyOp22
 70
     1
102
RTVSPropertyOp23
 70
     1
102
RTVSPropertyOp24
 70
     1
102
RTVSPropertyOp25
 70
     1
102
RTVSPropertyOp26
 70
     1
102
RTVSPropertyOp27
 70
     1
102
RTVSPropertyOp28
 70
     1
102
RTVSPropertyOp29
 70
     1
102
RTVSPropertyOp30
 70
     1
102
RTVSPropertyOp31
 70
     1
102
RTVSPropertyOp32
 70
     1
102
RTVSPropertyOp33
 70
     1
102
RTVSPropertyOp34
 70
     1
102
RTVSPropertyOp35
 70
     1
102
RTVSPropertyOp36
 70
     1
102
RTVSPropertyOp37
 70
     1
102
RTVSPropertyOp38
 70
     1
102
RTVSPropertyOp39
 70
     1
102
RTVSPropertyOp40
 70
     1
102
RTVSPropertyOp41
 70
     1
102
RTVSPropertyOp42
 70
     1
102
RTVSPropertyOp43
 70
     1
102
RTVSPropertyOp44
 70
     1
102
RTVSPropertyOp45
 70
     1
102
RTVSPropertyOp46
 70
     1
102
RTVSPropertyOp47
 70
     1
102
RTVSPropertyOp48
 70
     1
102
RTVSPropertyOp49
 70
     1
102
RTVSPropertyOp50
 70
     1
102
RTVSPropertyOp51
 70
     0
102
RTVSPropertyOp52
 70
     0
102
RTVSPropertyOp53
 70
     1
102
RTVSPropertyOp54
 70
     1
102
RTVSPropertyOp55
 70
     1
102
RTVSPropertyOp56
 70
     1
102
RTVSPropertyOp57
 70
     1
102
RTVSPost2010Prop28
280
     0
102
RTVSPost2010PropOp28
 70
     1
102
RTVSPost2010Prop29
280
     1
102
RTVSPost2010PropOp29
 70
     1
102
RTVSPost2010Prop30
280
     1
102
RTVSPost2010PropOp30
 70
     1
102
RTVSPost2010Prop31
280
     0
102
RTVSPost2010PropOp31
 70
     1
102
RTVSPost2010Prop32
280
     0
102
RTVSPost2010PropOp32
 70
     1
102
RTVSPost2010Prop33
280
     0
102
RTVSPost2010PropOp33
 70
     1
102
RTVSPost2010Prop34
280
     0
102
RTVSPost2010PropOp34
 70
     1
102
RTVSPost2010Prop35
280
     0
102
RTVSPost2010PropOp35
 70
     1
102
RTVSPost2010Prop36
280
     0
102
RTVSPost2010PropOp36
 70
     1
102
RTVSPost2010Prop37
 90
       50
102
RTVSPost2010PropOp37
 70
     1
102
RTVSPost2010Prop38
140
0.0
102
RTVSPost2010PropOp38
 70
     1
102
RTVSPost2010Prop39
140
1.0
102
RTVSPost2010PropOp39
 70
     1
102
RTVSPost2010Prop40
 90
        0
102
RTVSPost2010PropOp40
 70
     1
102
RTVSPost2010Prop41ColorIndex
 90
       18
102
RTVSPost2010Prop41ColorRGB
 90
        0
102
RTVSPost2010PropOp41
 70
     1
102
RTVSPost2010Prop42
 90
       50
102
RTVSPost2010PropOp42
 70
     1
102
RTVSPost2010Prop43
 90
        3
102
RTVSPost2010PropOp43
 70
     1
102
RTVSPost2010Prop44ColorIndex
 90
        5
102
RTVSPost2010Prop44ColorRGB
 90
      255
102
RTVSPost2010PropOp44
 70
     1
102
RTVSPost2010Prop45
280
     0
102
RTVSPost2010PropOp45
 70
     1
102
RTVSPost2010Prop46
 90
       50
102
RTVSPost2010PropOp46
 70
     1
102
RTVSPost2010Prop47
 90
       50
102
RTVSPost2010PropOp47
 70
     1
102
RTVSPost2010Prop48
 90
       50
102
RTVSPost2010PropOp48
 70
     1
102
RTVSPost2010Prop49
280
     0
102
RTVSPost2010PropOp49
 70
     1
102
RTVSPost2010Prop50
 90
       50
102
RTVSPost2010PropOp50
 70
     1
102
RTVSPost2010Prop51ColorIndex
 90
      256
102
RTVSPost2010Prop51ColorRGB
 90
-16777216
102
RTVSPost2010PropOp51
 70
     0
102
RTVSPost2010Prop52
140
1.0
102
RTVSPost2010PropOp52
 70
     0
102
RTVSPost2010Prop53
 90
        2
102
RTVSPost2010PropOp53
 70
     1
102
RTVSPost2010Prop54
  1
strokes_ogs.tif
102
RTVSPost2010PropOp54
 70
     1
102
RTVSPost2010Prop55
280
     0
102
RTVSPost2010PropOp55
 70
     1
102
RTVSPost2010Prop56
140
1.0
102
RTVSPost2010PropOp56
 70
     1
102
RTVSPost2010Prop57
140
1.0
102
RTVSPost2010PropOp57
 70
     1
  0
XRECORD
  5
3F0
102
{ACAD_REACTORS
330
3EF
102
}
330
3EF
100
AcDbXrecord
280
     1
102
RTVSPropertyOp0
 70
     1
102
RTVSPropertyOp1
 70
     1
102
RTVSPropertyOp2
 70
     1
102
RTVSPropertyOp3
 70
     1
102
RTVSPropertyOp4
 70
     1
102
RTVSPropertyOp5
 70
     1
102
RTVSPropertyOp6
 70
     1
102
RTVSPropertyOp7
 70
     1
102
RTVSPropertyOp8
 70
     1
102
RTVSPropertyOp9
 70
     1
102
RTVSPropertyOp10
 70
     1
102
RTVSPropertyOp11
 70
     1
102
RTVSPropertyOp12
 70
     1
102
RTVSPropertyOp13
 70
     1
102
RTVSPropertyOp14
 70
     1
102
RTVSPropertyOp15
 70
     1
102
RTVSPropertyOp16
 70
     1
102
RTVSPropertyOp17
 70
     1
102
RTVSPropertyOp18
 70
     1
102
RTVSPropertyOp19
 70
     1
102
RTVSPropertyOp20
 70
     1
102
RTVSPropertyOp21
 70
     1
102
RTVSPropertyOp22
 70
     1
102
RTVSPropertyOp23
 70
     1
102
RTVSPropertyOp24
 70
     1
102
RTVSPropertyOp25
 70
     1
102
RTVSPropertyOp26
 70
     1
102
RTVSPropertyOp27
 70
     1
102
RTVSPropertyOp28
 70
     1
102
RTVSPropertyOp29
 70
     1
102
RTVSPropertyOp30
 70
     1
102
RTVSPropertyOp31
 70
     1
102
RTVSPropertyOp32
 70
     1
102
RTVSPropertyOp33
 70
     1
102
RTVSPropertyOp34
 70
     1
102
RTVSPropertyOp35
 70
     1
102
RTVSPropertyOp36
 70
     1
102
RTVSPropertyOp37
 70
     1
102
RTVSPropertyOp38
 70
     1
102
RTVSPropertyOp39
 70
     1
102
RTVSPropertyOp40
 70
     1
102
RTVSPropertyOp41
 70
     1
102
RTVSPropertyOp42
 70
     1
102
RTVSPropertyOp43
 70
     1
102
RTVSPropertyOp44
 70
     1
102
RTVSPropertyOp45
 70
     1
102
RTVSPropertyOp46
 70
     1
102
RTVSPropertyOp47
 70
     1
102
RTVSPropertyOp48
 70
     1
102
RTVSPropertyOp49
 70
     1
102
RTVSPropertyOp50
 70
     1
102
RTVSPropertyOp51
 70
     0
102
RTVSPropertyOp52
 70
     0
102
RTVSPropertyOp53
 70
     1
102
RTVSPropertyOp54
 70
     1
102
RTVSPropertyOp55
 70
     1
102
RTVSPropertyOp56
 70
     1
102
RTVSPropertyOp57
 70
     1
102
RTVSPost2010Prop28
280
     0
102
RTVSPost2010PropOp28
 70
     1
102
RTVSPost2010Prop29
280
     1
102
RTVSPost2010PropOp29
 70
     1
102
RTVSPost2010Prop30
280
     1
102
RTVSPost2010PropOp30
 70
     1
102
RTVSPost2010Prop31
280
     0
102
RTVSPost2010PropOp31
 70
     1
102
RTVSPost2010Prop32
280
     0
102
RTVSPost2010PropOp32
 70
     1
102
RTVSPost2010Prop33
280
     0
102
RTVSPost2010PropOp33
 70
     1
102
RTVSPost2010Prop34
280
     0
102
RTVSPost2010PropOp34
 70
     1
102
RTVSPost2010Prop35
280
     0
102
RTVSPost2010PropOp35
 70
     1
102
RTVSPost2010Prop36
280
     0
102
RTVSPost2010PropOp36
 70
     1
102
RTVSPost2010Prop37
 90
       50
102
RTVSPost2010PropOp37
 70
     1
102
RTVSPost2010Prop38
140
0.0
102
RTVSPost2010PropOp38
 70
     1
102
RTVSPost2010Prop39
140
1.0
102
RTVSPost2010PropOp39
 70
     1
102
RTVSPost2010Prop40
 90
        0
102
RTVSPost2010PropOp40
 70
     1
102
RTVSPost2010Prop41ColorIndex
 90
       18
102
RTVSPost2010Prop41ColorRGB
 90
        0
102
RTVSPost2010PropOp41
 70
     1
102
RTVSPost2010Prop42
 90
       50
102
RTVSPost2010PropOp42
 70
     1
102
RTVSPost2010Prop43
 90
        3
102
RTVSPost2010PropOp43
 70
     1
102
RTVSPost2010Prop44ColorIndex
 90
        5
102
RTVSPost2010Prop44ColorRGB
 90
      255
102
RTVSPost2010PropOp44
 70
     1
102
RTVSPost2010Prop45
280
     0
102
RTVSPost2010PropOp45
 70
     1
102
RTVSPost2010Prop46
 90
       50
102
RTVSPost2010PropOp46
 70
     1
102
RTVSPost2010Prop47
 90
       50
102
RTVSPost2010PropOp47
 70
     1
102
RTVSPost2010Prop48
 90
       50
102
RTVSPost2010PropOp48
 70
     1
102
RTVSPost2010Prop49
280
     0
102
RTVSPost2010PropOp49
 70
     1
102
RTVSPost2010Prop50
 90
       50
102
RTVSPost2010PropOp50
 70
     1
102
RTVSPost2010Prop51ColorIndex
 90
      256
102
RTVSPost2010Prop51ColorRGB
 90
-16777216
102
RTVSPost2010PropOp51
 70
     0
102
RTVSPost2010Prop52
140
1.0
102
RTVSPost2010PropOp52
 70
     0
102
RTVSPost2010Prop53
 90
        2
102
RTVSPost2010PropOp53
 70
     1
102
RTVSPost2010Prop54
  1
strokes_ogs.tif
102
RTVSPost2010PropOp54
 70
     1
102
RTVSPost2010Prop55
280
     0
102
RTVSPost2010PropOp55
 70
     1
102
RTVSPost2010Prop56
140
1.0
102
RTVSPost2010PropOp56
 70
     1
102
RTVSPost2010Prop57
140
1.0
102
RTVSPost2010PropOp57
 70
     1
  0
XRECORD
  5
3F2
102
{ACAD_REACTORS
330
3F1
102
}
330
3F1
100
AcDbXrecord
280
     1
102
RTVSPropertyOp0
 70
     1
102
RTVSPropertyOp1
 70
     1
102
RTVSPropertyOp2
 70
     1
102
RTVSPropertyOp3
 70
     1
102
RTVSPropertyOp4
 70
     1
102
RTVSPropertyOp5
 70
     1
102
RTVSPropertyOp6
 70
     1
102
RTVSPropertyOp7
 70
     1
102
RTVSPropertyOp8
 70
     1
102
RTVSPropertyOp9
 70
     1
102
RTVSPropertyOp10
 70
     1
102
RTVSPropertyOp11
 70
     1
102
RTVSPropertyOp12
 70
     1
102
RTVSPropertyOp13
 70
     1
102
RTVSPropertyOp14
 70
     1
102
RTVSPropertyOp15
 70
     1
102
RTVSPropertyOp16
 70
     1
102
RTVSPropertyOp17
 70
     1
102
RTVSPropertyOp18
 70
     1
102
RTVSPropertyOp19
 70
     1
102
RTVSPropertyOp20
 70
     1
102
RTVSPropertyOp21
 70
     1
102
RTVSPropertyOp22
 70
     1
102
RTVSPropertyOp23
 70
     1
102
RTVSPropertyOp24
 70
     1
102
RTVSPropertyOp25
 70
     1
102
RTVSPropertyOp26
 70
     1
102
RTVSPropertyOp27
 70
     1
102
RTVSPropertyOp28
 70
     1
102
RTVSPropertyOp29
 70
     1
102
RTVSPropertyOp30
 70
     1
102
RTVSPropertyOp31
 70
     1
102
RTVSPropertyOp32
 70
     1
102
RTVSPropertyOp33
 70
     1
102
RTVSPropertyOp34
 70
     1
102
RTVSPropertyOp35
 70
     1
102
RTVSPropertyOp36
 70
     1
102
RTVSPropertyOp37
 70
     1
102
RTVSPropertyOp38
 70
     1
102
RTVSPropertyOp39
 70
     1
102
RTVSPropertyOp40
 70
     1
102
RTVSPropertyOp41
 70
     1
102
RTVSPropertyOp42
 70
     1
102
RTVSPropertyOp43
 70
     1
102
RTVSPropertyOp44
 70
     1
102
RTVSPropertyOp45
 70
     1
102
RTVSPropertyOp46
 70
     1
102
RTVSPropertyOp47
 70
     1
102
RTVSPropertyOp48
 70
     1
102
RTVSPropertyOp49
 70
     1
102
RTVSPropertyOp50
 70
     1
102
RTVSPropertyOp51
 70
     0
102
RTVSPropertyOp52
 70
     0
102
RTVSPropertyOp53
 70
     1
102
RTVSPropertyOp54
 70
     1
102
RTVSPropertyOp55
 70
     1
102
RTVSPropertyOp56
 70
     1
102
RTVSPropertyOp57
 70
     1
102
RTVSPost2010Prop28
280
     0
102
RTVSPost2010PropOp28
 70
     1
102
RTVSPost2010Prop29
280
     1
102
RTVSPost2010PropOp29
 70
     1
102
RTVSPost2010Prop30
280
     1
102
RTVSPost2010PropOp30
 70
     1
102
RTVSPost2010Prop31
280
     0
102
RTVSPost2010PropOp31
 70
     1
102
RTVSPost2010Prop32
280
     0
102
RTVSPost2010PropOp32
 70
     1
102
RTVSPost2010Prop33
280
     0
102
RTVSPost2010PropOp33
 70
     1
102
RTVSPost2010Prop34
280
     0
102
RTVSPost2010PropOp34
 70
     1
102
RTVSPost2010Prop35
280
     0
102
RTVSPost2010PropOp35
 70
     1
102
RTVSPost2010Prop36
280
     0
102
RTVSPost2010PropOp36
 70
     1
102
RTVSPost2010Prop37
 90
       50
102
RTVSPost2010PropOp37
 70
     1
102
RTVSPost2010Prop38
140
0.0
102
RTVSPost2010PropOp38
 70
     1
102
RTVSPost2010Prop39
140
1.0
102
RTVSPost2010PropOp39
 70
     1
102
RTVSPost2010Prop40
 90
        0
102
RTVSPost2010PropOp40
 70
     1
102
RTVSPost2010Prop41ColorIndex
 90
       18
102
RTVSPost2010Prop41ColorRGB
 90
        0
102
RTVSPost2010PropOp41
 70
     1
102
RTVSPost2010Prop42
 90
       50
102
RTVSPost2010PropOp42
 70
     1
102
RTVSPost2010Prop43
 90
        3
102
RTVSPost2010PropOp43
 70
     1
102
RTVSPost2010Prop44ColorIndex
 90
        5
102
RTVSPost2010Prop44ColorRGB
 90
      255
102
RTVSPost2010PropOp44
 70
     1
102
RTVSPost2010Prop45
280
     0
102
RTVSPost2010PropOp45
 70
     1
102
RTVSPost2010Prop46
 90
       50
102
RTVSPost2010PropOp46
 70
     1
102
RTVSPost2010Prop47
 90
       50
102
RTVSPost2010PropOp47
 70
     1
102
RTVSPost2010Prop48
 90
       50
102
RTVSPost2010PropOp48
 70
     1
102
RTVSPost2010Prop49
280
     0
102
RTVSPost2010PropOp49
 70
     1
102
RTVSPost2010Prop50
 90
       50
102
RTVSPost2010PropOp50
 70
     1
102
RTVSPost2010Prop51ColorIndex
 90
      256
102
RTVSPost2010Prop51ColorRGB
 90
-16777216
102
RTVSPost2010PropOp51
 70
     0
102
RTVSPost2010Prop52
140
1.0
102
RTVSPost2010PropOp52
 70
     0
102
RTVSPost2010Prop53
 90
        2
102
RTVSPost2010PropOp53
 70
     1
102
RTVSPost2010Prop54
  1
strokes_ogs.tif
102
RTVSPost2010PropOp54
 70
     1
102
RTVSPost2010Prop55
280
     0
102
RTVSPost2010PropOp55
 70
     1
102
RTVSPost2010Prop56
140
1.0
102
RTVSPost2010PropOp56
 70
     1
102
RTVSPost2010Prop57
140
1.0
102
RTVSPost2010PropOp57
 70
     1
  0
XRECORD
  5
402
102
{ACAD_REACTORS
330
401
102
}
330
401
100
AcDbXrecord
280
     1
102
RTVSPropertyOp0
 70
     0
102
RTVSPropertyOp1
 70
     0
102
RTVSPropertyOp2
 70
     0
102
RTVSPropertyOp3
 70
     0
102
RTVSPropertyOp4
 70
     0
102
RTVSPropertyOp5
 70
     0
102
RTVSPropertyOp6
 70
     0
102
RTVSPropertyOp7
 70
     0
102
RTVSPropertyOp8
 70
     0
102
RTVSPropertyOp9
 70
     0
102
RTVSPropertyOp10
 70
     0
102
RTVSPropertyOp11
 70
     0
102
RTVSPropertyOp12
 70
     0
102
RTVSPropertyOp13
 70
     0
102
RTVSPropertyOp14
 70
     2
102
RTVSPropertyOp15
 70
     0
102
RTVSPropertyOp16
 70
     0
102
RTVSPropertyOp17
 70
     0
102
RTVSPropertyOp18
 70
     0
102
RTVSPropertyOp19
 70
     0
102
RTVSPropertyOp20
 70
     0
102
RTVSPropertyOp21
 70
     0
102
RTVSPropertyOp22
 70
     0
102
RTVSPropertyOp23
 70
     0
102
RTVSPropertyOp24
 70
     0
102
RTVSPropertyOp25
 70
     0
102
RTVSPropertyOp26
 70
     0
102
RTVSPropertyOp27
 70
     0
102
RTVSPropertyOp28
 70
     0
102
RTVSPropertyOp29
 70
     0
102
RTVSPropertyOp30
 70
     0
102
RTVSPropertyOp31
 70
     0
102
RTVSPropertyOp32
 70
     0
102
RTVSPropertyOp33
 70
     0
102
RTVSPropertyOp34
 70
     0
102
RTVSPropertyOp35
 70
     0
102
RTVSPropertyOp36
 70
     0
102
RTVSPropertyOp37
 70
     0
102
RTVSPropertyOp38
 70
     0
102
RTVSPropertyOp39
 70
     0
102
RTVSPropertyOp40
 70
     0
102
RTVSPropertyOp41
 70
     0
102
RTVSPropertyOp42
 70
     0
102
RTVSPropertyOp43
 70
     0
102
RTVSPropertyOp44
 70
     0
102
RTVSPropertyOp45
 70
     0
102
RTVSPropertyOp46
 70
     0
102
RTVSPropertyOp47
 70
     0
102
RTVSPropertyOp48
 70
     0
102
RTVSPropertyOp49
 70
     0
102
RTVSPropertyOp50
 70
     0
102
RTVSPropertyOp51
 70
     0
102
RTVSPropertyOp52
 70
     0
102
RTVSPropertyOp53
 70
     0
102
RTVSPropertyOp54
 70
     0
102
RTVSPropertyOp55
 70
     0
102
RTVSPropertyOp56
 70
     0
102
RTVSPropertyOp57
 70
     0
102
RTVSPost2010Prop28
280
     0
102
RTVSPost2010PropOp28
 70
     0
102
RTVSPost2010Prop29
280
     1
102
RTVSPost2010PropOp29
 70
     0
102
RTVSPost2010Prop30
280
     1
102
RTVSPost2010PropOp30
 70
     0
102
RTVSPost2010Prop31
280
     0
102
RTVSPost2010PropOp31
 70
     0
102
RTVSPost2010Prop32
280
     0
102
RTVSPost2010PropOp32
 70
     0
102
RTVSPost2010Prop33
280
     0
102
RTVSPost2010PropOp33
 70
     0
102
RTVSPost2010Prop34
280
     0
102
RTVSPost2010PropOp34
 70
     0
102
RTVSPost2010Prop35
280
     0
102
RTVSPost2010PropOp35
 70
     0
102
RTVSPost2010Prop36
280
     0
102
RTVSPost2010PropOp36
 70
     0
102
RTVSPost2010Prop37
 90
       50
102
RTVSPost2010PropOp37
 70
     0
102
RTVSPost2010Prop38
140
0.0
102
RTVSPost2010PropOp38
 70
     0
102
RTVSPost2010Prop39
140
1.0
102
RTVSPost2010PropOp39
 70
     0
102
RTVSPost2010Prop40
 90
        0
102
RTVSPost2010PropOp40
 70
     0
102
RTVSPost2010Prop41ColorIndex
 90
       18
102
RTVSPost2010Prop41ColorRGB
 90
        0
102
RTVSPost2010PropOp41
 70
     0
102
RTVSPost2010Prop42
 90
       50
102
RTVSPost2010PropOp42
 70
     0
102
RTVSPost2010Prop43
 90
        3
102
RTVSPost2010PropOp43
 70
     0
102
RTVSPost2010Prop44ColorIndex
 90
        5
102
RTVSPost2010Prop44ColorRGB
 90
      255
102
RTVSPost2010PropOp44
 70
     0
102
RTVSPost2010Prop45
280
     0
102
RTVSPost2010PropOp45
 70
     0
102
RTVSPost2010Prop46
 90
       50
102
RTVSPost2010PropOp46
 70
     0
102
RTVSPost2010Prop47
 90
       50
102
RTVSPost2010PropOp47
 70
     0
102
RTVSPost2010Prop48
 90
       50
102
RTVSPost2010PropOp48
 70
     0
102
RTVSPost2010Prop49
280
     0
102
RTVSPost2010PropOp49
 70
     0
102
RTVSPost2010Prop50
 90
       50
102
RTVSPost2010PropOp50
 70
     0
102
RTVSPost2010Prop51ColorIndex
 90
      256
102
RTVSPost2010Prop51ColorRGB
 90
-16777216
102
RTVSPost2010PropOp51
 70
     0
102
RTVSPost2010Prop52
140
1.0
102
RTVSPost2010PropOp52
 70
     0
102
RTVSPost2010Prop53
 90
        2
102
RTVSPost2010PropOp53
 70
     0
102
RTVSPost2010Prop54
  1
strokes_ogs.tif
102
RTVSPost2010PropOp54
 70
     0
102
RTVSPost2010Prop55
280
     0
102
RTVSPost2010PropOp55
 70
     0
102
RTVSPost2010Prop56
140
1.0
102
RTVSPost2010PropOp56
 70
     0
102
RTVSPost2010Prop57
140
1.0
102
RTVSPost2010PropOp57
 70
     0
  0
XRECORD
  5
3FA
102
{ACAD_REACTORS
330
3F9
102
}
330
3F9
100
AcDbXrecord
280
     1
102
RTVSPropertyOp0
 70
     1
102
RTVSPropertyOp1
 70
     1
102
RTVSPropertyOp2
 70
     1
102
RTVSPropertyOp3
 70
     1
102
RTVSPropertyOp4
 70
     1
102
RTVSPropertyOp5
 70
     1
102
RTVSPropertyOp6
 70
     1
102
RTVSPropertyOp7
 70
     1
102
RTVSPropertyOp8
 70
     1
102
RTVSPropertyOp9
 70
     1
102
RTVSPropertyOp10
 70
     1
102
RTVSPropertyOp11
 70
     1
102
RTVSPropertyOp12
 70
     1
102
RTVSPropertyOp13
 70
     1
102
RTVSPropertyOp14
 70
     1
102
RTVSPropertyOp15
 70
     1
102
RTVSPropertyOp16
 70
     1
102
RTVSPropertyOp17
 70
     1
102
RTVSPropertyOp18
 70
     1
102
RTVSPropertyOp19
 70
     1
102
RTVSPropertyOp20
 70
     1
102
RTVSPropertyOp21
 70
     1
102
RTVSPropertyOp22
 70
     1
102
RTVSPropertyOp23
 70
     1
102
RTVSPropertyOp24
 70
     1
102
RTVSPropertyOp25
 70
     1
102
RTVSPropertyOp26
 70
     1
102
RTVSPropertyOp27
 70
     1
102
RTVSPropertyOp28
 70
     1
102
RTVSPropertyOp29
 70
     1
102
RTVSPropertyOp30
 70
     1
102
RTVSPropertyOp31
 70
     1
102
RTVSPropertyOp32
 70
     1
102
RTVSPropertyOp33
 70
     1
102
RTVSPropertyOp34
 70
     1
102
RTVSPropertyOp35
 70
     1
102
RTVSPropertyOp36
 70
     1
102
RTVSPropertyOp37
 70
     1
102
RTVSPropertyOp38
 70
     1
102
RTVSPropertyOp39
 70
     1
102
RTVSPropertyOp40
 70
     1
102
RTVSPropertyOp41
 70
     1
102
RTVSPropertyOp42
 70
     1
102
RTVSPropertyOp43
 70
     1
102
RTVSPropertyOp44
 70
     1
102
RTVSPropertyOp45
 70
     1
102
RTVSPropertyOp46
 70
     1
102
RTVSPropertyOp47
 70
     1
102
RTVSPropertyOp48
 70
     1
102
RTVSPropertyOp49
 70
     1
102
RTVSPropertyOp50
 70
     1
102
RTVSPropertyOp51
 70
     0
102
RTVSPropertyOp52
 70
     0
102
RTVSPropertyOp53
 70
     1
102
RTVSPropertyOp54
 70
     1
102
RTVSPropertyOp55
 70
     1
102
RTVSPropertyOp56
 70
     1
102
RTVSPropertyOp57
 70
     1
102
RTVSPost2010Prop28
280
     0
102
RTVSPost2010PropOp28
 70
     1
102
RTVSPost2010Prop29
280
     1
102
RTVSPost2010PropOp29
 70
     1
102
RTVSPost2010Prop30
280
     1
102
RTVSPost2010PropOp30
 70
     1
102
RTVSPost2010Prop31
280
     0
102
RTVSPost2010PropOp31
 70
     1
102
RTVSPost2010Prop32
280
     0
102
RTVSPost2010PropOp32
 70
     1
102
RTVSPost2010Prop33
280
     0
102
RTVSPost2010PropOp33
 70
     1
102
RTVSPost2010Prop34
280
     0
102
RTVSPost2010PropOp34
 70
     1
102
RTVSPost2010Prop35
280
     0
102
RTVSPost2010PropOp35
 70
     1
102
RTVSPost2010Prop36
280
     0
102
RTVSPost2010PropOp36
 70
     1
102
RTVSPost2010Prop37
 90
       50
102
RTVSPost2010PropOp37
 70
     1
102
RTVSPost2010Prop38
140
0.0
102
RTVSPost2010PropOp38
 70
     1
102
RTVSPost2010Prop39
140
1.0
102
RTVSPost2010PropOp39
 70
     1
102
RTVSPost2010Prop40
 90
        0
102
RTVSPost2010PropOp40
 70
     1
102
RTVSPost2010Prop41ColorIndex
 90
       18
102
RTVSPost2010Prop41ColorRGB
 90
        0
102
RTVSPost2010PropOp41
 70
     1
102
RTVSPost2010Prop42
 90
       50
102
RTVSPost2010PropOp42
 70
     1
102
RTVSPost2010Prop43
 90
        3
102
RTVSPost2010PropOp43
 70
     1
102
RTVSPost2010Prop44ColorIndex
 90
        5
102
RTVSPost2010Prop44ColorRGB
 90
      255
102
RTVSPost2010PropOp44
 70
     1
102
RTVSPost2010Prop45
280
     0
102
RTVSPost2010PropOp45
 70
     1
102
RTVSPost2010Prop46
 90
       50
102
RTVSPost2010PropOp46
 70
     1
102
RTVSPost2010Prop47
 90
       50
102
RTVSPost2010PropOp47
 70
     1
102
RTVSPost2010Prop48
 90
       50
102
RTVSPost2010PropOp48
 70
     1
102
RTVSPost2010Prop49
280
     0
102
RTVSPost2010PropOp49
 70
     1
102
RTVSPost2010Prop50
 90
       50
102
RTVSPost2010PropOp50
 70
     1
102
RTVSPost2010Prop51ColorIndex
 90
      256
102
RTVSPost2010Prop51ColorRGB
 90
-16777216
102
RTVSPost2010PropOp51
 70
     0
102
RTVSPost2010Prop52
140
1.0
102
RTVSPost2010PropOp52
 70
     0
102
RTVSPost2010Prop53
 90
        2
102
RTVSPost2010PropOp53
 70
     1
102
RTVSPost2010Prop54
  1
strokes_ogs.tif
102
RTVSPost2010PropOp54
 70
     1
102
RTVSPost2010Prop55
280
     0
102
RTVSPost2010PropOp55
 70
     1
102
RTVSPost2010Prop56
140
1.0
102
RTVSPost2010PropOp56
 70
     1
102
RTVSPost2010Prop57
140
1.0
102
RTVSPost2010PropOp57
 70
     1
  0
XRECORD
  5
3DE
102
{ACAD_REACTORS
330
3DD
102
}
330
3DD
100
AcDbXrecord
280
     1
102
RTVSPropertyOp0
 70
     1
102
RTVSPropertyOp1
 70
     1
102
RTVSPropertyOp2
 70
     1
102
RTVSPropertyOp3
 70
     1
102
RTVSPropertyOp4
 70
     1
102
RTVSPropertyOp5
 70
     1
102
RTVSPropertyOp6
 70
     1
102
RTVSPropertyOp7
 70
     1
102
RTVSPropertyOp8
 70
     1
102
RTVSPropertyOp9
 70
     1
102
RTVSPropertyOp10
 70
     1
102
RTVSPropertyOp11
 70
     1
102
RTVSPropertyOp12
 70
     1
102
RTVSPropertyOp13
 70
     1
102
RTVSPropertyOp14
 70
     1
102
RTVSPropertyOp15
 70
     1
102
RTVSPropertyOp16
 70
     1
102
RTVSPropertyOp17
 70
     1
102
RTVSPropertyOp18
 70
     1
102
RTVSPropertyOp19
 70
     1
102
RTVSPropertyOp20
 70
     1
102
RTVSPropertyOp21
 70
     1
102
RTVSPropertyOp22
 70
     1
102
RTVSPropertyOp23
 70
     1
102
RTVSPropertyOp24
 70
     1
102
RTVSPropertyOp25
 70
     1
102
RTVSPropertyOp26
 70
     1
102
RTVSPropertyOp27
 70
     1
102
RTVSPropertyOp28
 70
     1
102
RTVSPropertyOp29
 70
     1
102
RTVSPropertyOp30
 70
     1
102
RTVSPropertyOp31
 70
     1
102
RTVSPropertyOp32
 70
     1
102
RTVSPropertyOp33
 70
     1
102
RTVSPropertyOp34
 70
     1
102
RTVSPropertyOp35
 70
     1
102
RTVSPropertyOp36
 70
     1
102
RTVSPropertyOp37
 70
     1
102
RTVSPropertyOp38
 70
     1
102
RTVSPropertyOp39
 70
     1
102
RTVSPropertyOp40
 70
     1
102
RTVSPropertyOp41
 70
     1
102
RTVSPropertyOp42
 70
     1
102
RTVSPropertyOp43
 70
     1
102
RTVSPropertyOp44
 70
     1
102
RTVSPropertyOp45
 70
     1
102
RTVSPropertyOp46
 70
     1
102
RTVSPropertyOp47
 70
     1
102
RTVSPropertyOp48
 70
     1
102
RTVSPropertyOp49
 70
     1
102
RTVSPropertyOp50
 70
     1
102
RTVSPropertyOp51
 70
     0
102
RTVSPropertyOp52
 70
     0
102
RTVSPropertyOp53
 70
     1
102
RTVSPropertyOp54
 70
     1
102
RTVSPropertyOp55
 70
     1
102
RTVSPropertyOp56
 70
     1
102
RTVSPropertyOp57
 70
     1
102
RTVSPost2010Prop28
280
     0
102
RTVSPost2010PropOp28
 70
     1
102
RTVSPost2010Prop29
280
     1
102
RTVSPost2010PropOp29
 70
     1
102
RTVSPost2010Prop30
280
     1
102
RTVSPost2010PropOp30
 70
     1
102
RTVSPost2010Prop31
280
     0
102
RTVSPost2010PropOp31
 70
     1
102
RTVSPost2010Prop32
280
     0
102
RTVSPost2010PropOp32
 70
     1
102
RTVSPost2010Prop33
280
     0
102
RTVSPost2010PropOp33
 70
     1
102
RTVSPost2010Prop34
280
     0
102
RTVSPost2010PropOp34
 70
     1
102
RTVSPost2010Prop35
280
     0
102
RTVSPost2010PropOp35
 70
     1
102
RTVSPost2010Prop36
280
     0
102
RTVSPost2010PropOp36
 70
     1
102
RTVSPost2010Prop37
 90
       50
102
RTVSPost2010PropOp37
 70
     1
102
RTVSPost2010Prop38
140
0.0
102
RTVSPost2010PropOp38
 70
     1
102
RTVSPost2010Prop39
140
1.0
102
RTVSPost2010PropOp39
 70
     1
102
RTVSPost2010Prop40
 90
        0
102
RTVSPost2010PropOp40
 70
     1
102
RTVSPost2010Prop41ColorIndex
 90
       18
102
RTVSPost2010Prop41ColorRGB
 90
        0
102
RTVSPost2010PropOp41
 70
     1
102
RTVSPost2010Prop42
 90
       50
102
RTVSPost2010PropOp42
 70
     1
102
RTVSPost2010Prop43
 90
        3
102
RTVSPost2010PropOp43
 70
     1
102
RTVSPost2010Prop44ColorIndex
 90
        5
102
RTVSPost2010Prop44ColorRGB
 90
      255
102
RTVSPost2010PropOp44
 70
     1
102
RTVSPost2010Prop45
280
     0
102
RTVSPost2010PropOp45
 70
     1
102
RTVSPost2010Prop46
 90
       50
102
RTVSPost2010PropOp46
 70
     1
102
RTVSPost2010Prop47
 90
       50
102
RTVSPost2010PropOp47
 70
     1
102
RTVSPost2010Prop48
 90
       50
102
RTVSPost2010PropOp48
 70
     1
102
RTVSPost2010Prop49
280
     0
102
RTVSPost2010PropOp49
 70
     1
102
RTVSPost2010Prop50
 90
       50
102
RTVSPost2010PropOp50
 70
     1
102
RTVSPost2010Prop51ColorIndex
 90
      256
102
RTVSPost2010Prop51ColorRGB
 90
-16777216
102
RTVSPost2010PropOp51
 70
     0
102
RTVSPost2010Prop52
140
1.0
102
RTVSPost2010PropOp52
 70
     0
102
RTVSPost2010Prop53
 90
        2
102
RTVSPost2010PropOp53
 70
     1
102
RTVSPost2010Prop54
  1
strokes_ogs.tif
102
RTVSPost2010PropOp54
 70
     1
102
RTVSPost2010Prop55
280
     0
102
RTVSPost2010PropOp55
 70
     1
102
RTVSPost2010Prop56
140
1.0
102
RTVSPost2010PropOp56
 70
     1
102
RTVSPost2010Prop57
140
1.0
102
RTVSPost2010PropOp57
 70
     1
  0
XRECORD
  5
3E0
102
{ACAD_REACTORS
330
3DF
102
}
330
3DF
100
AcDbXrecord
280
     1
102
RTVSPropertyOp0
 70
     1
102
RTVSPropertyOp1
 70
     1
102
RTVSPropertyOp2
 70
     1
102
RTVSPropertyOp3
 70
     1
102
RTVSPropertyOp4
 70
     1
102
RTVSPropertyOp5
 70
     1
102
RTVSPropertyOp6
 70
     1
102
RTVSPropertyOp7
 70
     1
102
RTVSPropertyOp8
 70
     1
102
RTVSPropertyOp9
 70
     1
102
RTVSPropertyOp10
 70
     1
102
RTVSPropertyOp11
 70
     1
102
RTVSPropertyOp12
 70
     1
102
RTVSPropertyOp13
 70
     1
102
RTVSPropertyOp14
 70
     1
102
RTVSPropertyOp15
 70
     1
102
RTVSPropertyOp16
 70
     1
102
RTVSPropertyOp17
 70
     1
102
RTVSPropertyOp18
 70
     1
102
RTVSPropertyOp19
 70
     1
102
RTVSPropertyOp20
 70
     1
102
RTVSPropertyOp21
 70
     1
102
RTVSPropertyOp22
 70
     1
102
RTVSPropertyOp23
 70
     1
102
RTVSPropertyOp24
 70
     1
102
RTVSPropertyOp25
 70
     1
102
RTVSPropertyOp26
 70
     1
102
RTVSPropertyOp27
 70
     1
102
RTVSPropertyOp28
 70
     1
102
RTVSPropertyOp29
 70
     1
102
RTVSPropertyOp30
 70
     1
102
RTVSPropertyOp31
 70
     1
102
RTVSPropertyOp32
 70
     1
102
RTVSPropertyOp33
 70
     1
102
RTVSPropertyOp34
 70
     1
102
RTVSPropertyOp35
 70
     1
102
RTVSPropertyOp36
 70
     1
102
RTVSPropertyOp37
 70
     1
102
RTVSPropertyOp38
 70
     1
102
RTVSPropertyOp39
 70
     1
102
RTVSPropertyOp40
 70
     1
102
RTVSPropertyOp41
 70
     1
102
RTVSPropertyOp42
 70
     1
102
RTVSPropertyOp43
 70
     1
102
RTVSPropertyOp44
 70
     1
102
RTVSPropertyOp45
 70
     1
102
RTVSPropertyOp46
 70
     1
102
RTVSPropertyOp47
 70
     1
102
RTVSPropertyOp48
 70
     1
102
RTVSPropertyOp49
 70
     1
102
RTVSPropertyOp50
 70
     1
102
RTVSPropertyOp51
 70
     0
102
RTVSPropertyOp52
 70
     0
102
RTVSPropertyOp53
 70
     1
102
RTVSPropertyOp54
 70
     1
102
RTVSPropertyOp55
 70
     1
102
RTVSPropertyOp56
 70
     1
102
RTVSPropertyOp57
 70
     1
102
RTVSPost2010Prop28
280
     0
102
RTVSPost2010PropOp28
 70
     1
102
RTVSPost2010Prop29
280
     1
102
RTVSPost2010PropOp29
 70
     1
102
RTVSPost2010Prop30
280
     1
102
RTVSPost2010PropOp30
 70
     1
102
RTVSPost2010Prop31
280
     0
102
RTVSPost2010PropOp31
 70
     1
102
RTVSPost2010Prop32
280
     0
102
RTVSPost2010PropOp32
 70
     1
102
RTVSPost2010Prop33
280
     0
102
RTVSPost2010PropOp33
 70
     1
102
RTVSPost2010Prop34
280
     0
102
RTVSPost2010PropOp34
 70
     1
102
RTVSPost2010Prop35
280
     0
102
RTVSPost2010PropOp35
 70
     1
102
RTVSPost2010Prop36
280
     0
102
RTVSPost2010PropOp36
 70
     1
102
RTVSPost2010Prop37
 90
       50
102
RTVSPost2010PropOp37
 70
     1
102
RTVSPost2010Prop38
140
0.0
102
RTVSPost2010PropOp38
 70
     1
102
RTVSPost2010Prop39
140
1.0
102
RTVSPost2010PropOp39
 70
     1
102
RTVSPost2010Prop40
 90
        0
102
RTVSPost2010PropOp40
 70
     1
102
RTVSPost2010Prop41ColorIndex
 90
       18
102
RTVSPost2010Prop41ColorRGB
 90
        0
102
RTVSPost2010PropOp41
 70
     1
102
RTVSPost2010Prop42
 90
       50
102
RTVSPost2010PropOp42
 70
     1
102
RTVSPost2010Prop43
 90
        3
102
RTVSPost2010PropOp43
 70
     1
102
RTVSPost2010Prop44ColorIndex
 90
        5
102
RTVSPost2010Prop44ColorRGB
 90
      255
102
RTVSPost2010PropOp44
 70
     1
102
RTVSPost2010Prop45
280
     0
102
RTVSPost2010PropOp45
 70
     1
102
RTVSPost2010Prop46
 90
       50
102
RTVSPost2010PropOp46
 70
     1
102
RTVSPost2010Prop47
 90
       50
102
RTVSPost2010PropOp47
 70
     1
102
RTVSPost2010Prop48
 90
       50
102
RTVSPost2010PropOp48
 70
     1
102
RTVSPost2010Prop49
280
     0
102
RTVSPost2010PropOp49
 70
     1
102
RTVSPost2010Prop50
 90
       50
102
RTVSPost2010PropOp50
 70
     1
102
RTVSPost2010Prop51ColorIndex
 90
      256
102
RTVSPost2010Prop51ColorRGB
 90
-16777216
102
RTVSPost2010PropOp51
 70
     0
102
RTVSPost2010Prop52
140
1.0
102
RTVSPost2010PropOp52
 70
     0
102
RTVSPost2010Prop53
 90
        2
102
RTVSPost2010PropOp53
 70
     1
102
RTVSPost2010Prop54
  1
strokes_ogs.tif
102
RTVSPost2010PropOp54
 70
     1
102
RTVSPost2010Prop55
280
     0
102
RTVSPost2010PropOp55
 70
     1
102
RTVSPost2010Prop56
140
1.0
102
RTVSPost2010PropOp56
 70
     1
102
RTVSPost2010Prop57
140
1.0
102
RTVSPost2010PropOp57
 70
     1
  0
XRECORD
  5
3E2
102
{ACAD_REACTORS
330
3E1
102
}
330
3E1
100
AcDbXrecord
280
     1
102
RTVSPropertyOp0
 70
     1
102
RTVSPropertyOp1
 70
     1
102
RTVSPropertyOp2
 70
     1
102
RTVSPropertyOp3
 70
     1
102
RTVSPropertyOp4
 70
     1
102
RTVSPropertyOp5
 70
     1
102
RTVSPropertyOp6
 70
     1
102
RTVSPropertyOp7
 70
     1
102
RTVSPropertyOp8
 70
     1
102
RTVSPropertyOp9
 70
     1
102
RTVSPropertyOp10
 70
     1
102
RTVSPropertyOp11
 70
     1
102
RTVSPropertyOp12
 70
     1
102
RTVSPropertyOp13
 70
     1
102
RTVSPropertyOp14
 70
     1
102
RTVSPropertyOp15
 70
     1
102
RTVSPropertyOp16
 70
     1
102
RTVSPropertyOp17
 70
     1
102
RTVSPropertyOp18
 70
     1
102
RTVSPropertyOp19
 70
     1
102
RTVSPropertyOp20
 70
     1
102
RTVSPropertyOp21
 70
     1
102
RTVSPropertyOp22
 70
     1
102
RTVSPropertyOp23
 70
     1
102
RTVSPropertyOp24
 70
     1
102
RTVSPropertyOp25
 70
     1
102
RTVSPropertyOp26
 70
     1
102
RTVSPropertyOp27
 70
     1
102
RTVSPropertyOp28
 70
     1
102
RTVSPropertyOp29
 70
     1
102
RTVSPropertyOp30
 70
     1
102
RTVSPropertyOp31
 70
     1
102
RTVSPropertyOp32
 70
     1
102
RTVSPropertyOp33
 70
     1
102
RTVSPropertyOp34
 70
     1
102
RTVSPropertyOp35
 70
     1
102
RTVSPropertyOp36
 70
     1
102
RTVSPropertyOp37
 70
     1
102
RTVSPropertyOp38
 70
     1
102
RTVSPropertyOp39
 70
     1
102
RTVSPropertyOp40
 70
     1
102
RTVSPropertyOp41
 70
     1
102
RTVSPropertyOp42
 70
     1
102
RTVSPropertyOp43
 70
     1
102
RTVSPropertyOp44
 70
     1
102
RTVSPropertyOp45
 70
     1
102
RTVSPropertyOp46
 70
     1
102
RTVSPropertyOp47
 70
     1
102
RTVSPropertyOp48
 70
     1
102
RTVSPropertyOp49
 70
     1
102
RTVSPropertyOp50
 70
     1
102
RTVSPropertyOp51
 70
     0
102
RTVSPropertyOp52
 70
     0
102
RTVSPropertyOp53
 70
     1
102
RTVSPropertyOp54
 70
     1
102
RTVSPropertyOp55
 70
     1
102
RTVSPropertyOp56
 70
     1
102
RTVSPropertyOp57
 70
     1
102
RTVSPost2010Prop28
280
     0
102
RTVSPost2010PropOp28
 70
     1
102
RTVSPost2010Prop29
280
     1
102
RTVSPost2010PropOp29
 70
     1
102
RTVSPost2010Prop30
280
     1
102
RTVSPost2010PropOp30
 70
     1
102
RTVSPost2010Prop31
280
     0
102
RTVSPost2010PropOp31
 70
     1
102
RTVSPost2010Prop32
280
     0
102
RTVSPost2010PropOp32
 70
     1
102
RTVSPost2010Prop33
280
     0
102
RTVSPost2010PropOp33
 70
     1
102
RTVSPost2010Prop34
280
     0
102
RTVSPost2010PropOp34
 70
     1
102
RTVSPost2010Prop35
280
     0
102
RTVSPost2010PropOp35
 70
     1
102
RTVSPost2010Prop36
280
     0
102
RTVSPost2010PropOp36
 70
     1
102
RTVSPost2010Prop37
 90
       50
102
RTVSPost2010PropOp37
 70
     1
102
RTVSPost2010Prop38
140
0.0
102
RTVSPost2010PropOp38
 70
     1
102
RTVSPost2010Prop39
140
1.0
102
RTVSPost2010PropOp39
 70
     1
102
RTVSPost2010Prop40
 90
        0
102
RTVSPost2010PropOp40
 70
     1
102
RTVSPost2010Prop41ColorIndex
 90
       18
102
RTVSPost2010Prop41ColorRGB
 90
        0
102
RTVSPost2010PropOp41
 70
     1
102
RTVSPost2010Prop42
 90
       50
102
RTVSPost2010PropOp42
 70
     1
102
RTVSPost2010Prop43
 90
        3
102
RTVSPost2010PropOp43
 70
     1
102
RTVSPost2010Prop44ColorIndex
 90
        5
102
RTVSPost2010Prop44ColorRGB
 90
      255
102
RTVSPost2010PropOp44
 70
     1
102
RTVSPost2010Prop45
280
     0
102
RTVSPost2010PropOp45
 70
     1
102
RTVSPost2010Prop46
 90
       50
102
RTVSPost2010PropOp46
 70
     1
102
RTVSPost2010Prop47
 90
       50
102
RTVSPost2010PropOp47
 70
     1
102
RTVSPost2010Prop48
 90
       50
102
RTVSPost2010PropOp48
 70
     1
102
RTVSPost2010Prop49
280
     0
102
RTVSPost2010PropOp49
 70
     1
102
RTVSPost2010Prop50
 90
       50
102
RTVSPost2010PropOp50
 70
     1
102
RTVSPost2010Prop51ColorIndex
 90
      256
102
RTVSPost2010Prop51ColorRGB
 90
-16777216
102
RTVSPost2010PropOp51
 70
     0
102
RTVSPost2010Prop52
140
1.0
102
RTVSPost2010PropOp52
 70
     0
102
RTVSPost2010Prop53
 90
        2
102
RTVSPost2010PropOp53
 70
     1
102
RTVSPost2010Prop54
  1
strokes_ogs.tif
102
RTVSPost2010PropOp54
 70
     1
102
RTVSPost2010Prop55
280
     0
102
RTVSPost2010PropOp55
 70
     1
102
RTVSPost2010Prop56
140
1.0
102
RTVSPost2010PropOp56
 70
     1
102
RTVSPost2010Prop57
140
1.0
102
RTVSPost2010PropOp57
 70
     1
  0
XRECORD
  5
3E4
102
{ACAD_REACTORS
330
3E3
102
}
330
3E3
100
AcDbXrecord
280
     1
102
RTVSPropertyOp0
 70
     1
102
RTVSPropertyOp1
 70
     1
102
RTVSPropertyOp2
 70
     1
102
RTVSPropertyOp3
 70
     1
102
RTVSPropertyOp4
 70
     1
102
RTVSPropertyOp5
 70
     1
102
RTVSPropertyOp6
 70
     1
102
RTVSPropertyOp7
 70
     1
102
RTVSPropertyOp8
 70
     1
102
RTVSPropertyOp9
 70
     1
102
RTVSPropertyOp10
 70
     1
102
RTVSPropertyOp11
 70
     1
102
RTVSPropertyOp12
 70
     1
102
RTVSPropertyOp13
 70
     1
102
RTVSPropertyOp14
 70
     1
102
RTVSPropertyOp15
 70
     1
102
RTVSPropertyOp16
 70
     1
102
RTVSPropertyOp17
 70
     1
102
RTVSPropertyOp18
 70
     1
102
RTVSPropertyOp19
 70
     1
102
RTVSPropertyOp20
 70
     1
102
RTVSPropertyOp21
 70
     1
102
RTVSPropertyOp22
 70
     1
102
RTVSPropertyOp23
 70
     1
102
RTVSPropertyOp24
 70
     1
102
RTVSPropertyOp25
 70
     1
102
RTVSPropertyOp26
 70
     1
102
RTVSPropertyOp27
 70
     1
102
RTVSPropertyOp28
 70
     1
102
RTVSPropertyOp29
 70
     1
102
RTVSPropertyOp30
 70
     1
102
RTVSPropertyOp31
 70
     1
102
RTVSPropertyOp32
 70
     1
102
RTVSPropertyOp33
 70
     1
102
RTVSPropertyOp34
 70
     1
102
RTVSPropertyOp35
 70
     1
102
RTVSPropertyOp36
 70
     1
102
RTVSPropertyOp37
 70
     1
102
RTVSPropertyOp38
 70
     1
102
RTVSPropertyOp39
 70
     1
102
RTVSPropertyOp40
 70
     1
102
RTVSPropertyOp41
 70
     1
102
RTVSPropertyOp42
 70
     1
102
RTVSPropertyOp43
 70
     1
102
RTVSPropertyOp44
 70
     1
102
RTVSPropertyOp45
 70
     1
102
RTVSPropertyOp46
 70
     1
102
RTVSPropertyOp47
 70
     1
102
RTVSPropertyOp48
 70
     1
102
RTVSPropertyOp49
 70
     1
102
RTVSPropertyOp50
 70
     1
102
RTVSPropertyOp51
 70
     0
102
RTVSPropertyOp52
 70
     0
102
RTVSPropertyOp53
 70
     1
102
RTVSPropertyOp54
 70
     1
102
RTVSPropertyOp55
 70
     1
102
RTVSPropertyOp56
 70
     1
102
RTVSPropertyOp57
 70
     1
102
RTVSPost2010Prop28
280
     0
102
RTVSPost2010PropOp28
 70
     1
102
RTVSPost2010Prop29
280
     1
102
RTVSPost2010PropOp29
 70
     1
102
RTVSPost2010Prop30
280
     1
102
RTVSPost2010PropOp30
 70
     1
102
RTVSPost2010Prop31
280
     0
102
RTVSPost2010PropOp31
 70
     1
102
RTVSPost2010Prop32
280
     0
102
RTVSPost2010PropOp32
 70
     1
102
RTVSPost2010Prop33
280
     0
102
RTVSPost2010PropOp33
 70
     1
102
RTVSPost2010Prop34
280
     0
102
RTVSPost2010PropOp34
 70
     1
102
RTVSPost2010Prop35
280
     0
102
RTVSPost2010PropOp35
 70
     1
102
RTVSPost2010Prop36
280
     0
102
RTVSPost2010PropOp36
 70
     1
102
RTVSPost2010Prop37
 90
       50
102
RTVSPost2010PropOp37
 70
     1
102
RTVSPost2010Prop38
140
0.0
102
RTVSPost2010PropOp38
 70
     1
102
RTVSPost2010Prop39
140
1.0
102
RTVSPost2010PropOp39
 70
     1
102
RTVSPost2010Prop40
 90
        0
102
RTVSPost2010PropOp40
 70
     1
102
RTVSPost2010Prop41ColorIndex
 90
       18
102
RTVSPost2010Prop41ColorRGB
 90
        0
102
RTVSPost2010PropOp41
 70
     1
102
RTVSPost2010Prop42
 90
       50
102
RTVSPost2010PropOp42
 70
     1
102
RTVSPost2010Prop43
 90
        3
102
RTVSPost2010PropOp43
 70
     1
102
RTVSPost2010Prop44ColorIndex
 90
        5
102
RTVSPost2010Prop44ColorRGB
 90
      255
102
RTVSPost2010PropOp44
 70
     1
102
RTVSPost2010Prop45
280
     0
102
RTVSPost2010PropOp45
 70
     1
102
RTVSPost2010Prop46
 90
       50
102
RTVSPost2010PropOp46
 70
     1
102
RTVSPost2010Prop47
 90
       50
102
RTVSPost2010PropOp47
 70
     1
102
RTVSPost2010Prop48
 90
       50
102
RTVSPost2010PropOp48
 70
     1
102
RTVSPost2010Prop49
280
     0
102
RTVSPost2010PropOp49
 70
     1
102
RTVSPost2010Prop50
 90
       50
102
RTVSPost2010PropOp50
 70
     1
102
RTVSPost2010Prop51ColorIndex
 90
      256
102
RTVSPost2010Prop51ColorRGB
 90
-16777216
102
RTVSPost2010PropOp51
 70
     0
102
RTVSPost2010Prop52
140
1.0
102
RTVSPost2010PropOp52
 70
     0
102
RTVSPost2010Prop53
 90
        2
102
RTVSPost2010PropOp53
 70
     1
102
RTVSPost2010Prop54
  1
strokes_ogs.tif
102
RTVSPost2010PropOp54
 70
     1
102
RTVSPost2010Prop55
280
     0
102
RTVSPost2010PropOp55
 70
     1
102
RTVSPost2010Prop56
140
1.0
102
RTVSPost2010PropOp56
 70
     1
102
RTVSPost2010Prop57
140
1.0
102
RTVSPost2010PropOp57
 70
     1
  0
XRECORD
  5
3EA
102
{ACAD_REACTORS
330
3E9
102
}
330
3E9
100
AcDbXrecord
280
     1
102
RTVSPropertyOp0
 70
     1
102
RTVSPropertyOp1
 70
     1
102
RTVSPropertyOp2
 70
     1
102
RTVSPropertyOp3
 70
     1
102
RTVSPropertyOp4
 70
     1
102
RTVSPropertyOp5
 70
     1
102
RTVSPropertyOp6
 70
     1
102
RTVSPropertyOp7
 70
     1
102
RTVSPropertyOp8
 70
     1
102
RTVSPropertyOp9
 70
     1
102
RTVSPropertyOp10
 70
     1
102
RTVSPropertyOp11
 70
     1
102
RTVSPropertyOp12
 70
     1
102
RTVSPropertyOp13
 70
     1
102
RTVSPropertyOp14
 70
     1
102
RTVSPropertyOp15
 70
     1
102
RTVSPropertyOp16
 70
     1
102
RTVSPropertyOp17
 70
     1
102
RTVSPropertyOp18
 70
     1
102
RTVSPropertyOp19
 70
     1
102
RTVSPropertyOp20
 70
     1
102
RTVSPropertyOp21
 70
     1
102
RTVSPropertyOp22
 70
     1
102
RTVSPropertyOp23
 70
     1
102
RTVSPropertyOp24
 70
     1
102
RTVSPropertyOp25
 70
     1
102
RTVSPropertyOp26
 70
     1
102
RTVSPropertyOp27
 70
     1
102
RTVSPropertyOp28
 70
     1
102
RTVSPropertyOp29
 70
     1
102
RTVSPropertyOp30
 70
     1
102
RTVSPropertyOp31
 70
     1
102
RTVSPropertyOp32
 70
     1
102
RTVSPropertyOp33
 70
     1
102
RTVSPropertyOp34
 70
     1
102
RTVSPropertyOp35
 70
     1
102
RTVSPropertyOp36
 70
     1
102
RTVSPropertyOp37
 70
     1
102
RTVSPropertyOp38
 70
     1
102
RTVSPropertyOp39
 70
     1
102
RTVSPropertyOp40
 70
     1
102
RTVSPropertyOp41
 70
     1
102
RTVSPropertyOp42
 70
     1
102
RTVSPropertyOp43
 70
     1
102
RTVSPropertyOp44
 70
     1
102
RTVSPropertyOp45
 70
     1
102
RTVSPropertyOp46
 70
     1
102
RTVSPropertyOp47
 70
     1
102
RTVSPropertyOp48
 70
     1
102
RTVSPropertyOp49
 70
     1
102
RTVSPropertyOp50
 70
     1
102
RTVSPropertyOp51
 70
     0
102
RTVSPropertyOp52
 70
     0
102
RTVSPropertyOp53
 70
     1
102
RTVSPropertyOp54
 70
     1
102
RTVSPropertyOp55
 70
     1
102
RTVSPropertyOp56
 70
     1
102
RTVSPropertyOp57
 70
     1
102
RTVSPost2010Prop28
280
     0
102
RTVSPost2010PropOp28
 70
     1
102
RTVSPost2010Prop29
280
     1
102
RTVSPost2010PropOp29
 70
     1
102
RTVSPost2010Prop30
280
     1
102
RTVSPost2010PropOp30
 70
     1
102
RTVSPost2010Prop31
280
     0
102
RTVSPost2010PropOp31
 70
     1
102
RTVSPost2010Prop32
280
     0
102
RTVSPost2010PropOp32
 70
     1
102
RTVSPost2010Prop33
280
     0
102
RTVSPost2010PropOp33
 70
     1
102
RTVSPost2010Prop34
280
     0
102
RTVSPost2010PropOp34
 70
     1
102
RTVSPost2010Prop35
280
     0
102
RTVSPost2010PropOp35
 70
     1
102
RTVSPost2010Prop36
280
     0
102
RTVSPost2010PropOp36
 70
     1
102
RTVSPost2010Prop37
 90
       50
102
RTVSPost2010PropOp37
 70
     1
102
RTVSPost2010Prop38
140
0.0
102
RTVSPost2010PropOp38
 70
     1
102
RTVSPost2010Prop39
140
1.0
102
RTVSPost2010PropOp39
 70
     1
102
RTVSPost2010Prop40
 90
        0
102
RTVSPost2010PropOp40
 70
     1
102
RTVSPost2010Prop41ColorIndex
 90
       18
102
RTVSPost2010Prop41ColorRGB
 90
        0
102
RTVSPost2010PropOp41
 70
     1
102
RTVSPost2010Prop42
 90
       50
102
RTVSPost2010PropOp42
 70
     1
102
RTVSPost2010Prop43
 90
        3
102
RTVSPost2010PropOp43
 70
     1
102
RTVSPost2010Prop44ColorIndex
 90
        5
102
RTVSPost2010Prop44ColorRGB
 90
      255
102
RTVSPost2010PropOp44
 70
     1
102
RTVSPost2010Prop45
280
     0
102
RTVSPost2010PropOp45
 70
     1
102
RTVSPost2010Prop46
 90
       50
102
RTVSPost2010PropOp46
 70
     1
102
RTVSPost2010Prop47
 90
       50
102
RTVSPost2010PropOp47
 70
     1
102
RTVSPost2010Prop48
 90
       50
102
RTVSPost2010PropOp48
 70
     1
102
RTVSPost2010Prop49
280
     0
102
RTVSPost2010PropOp49
 70
     1
102
RTVSPost2010Prop50
 90
       50
102
RTVSPost2010PropOp50
 70
     1
102
RTVSPost2010Prop51ColorIndex
 90
      256
102
RTVSPost2010Prop51ColorRGB
 90
-16777216
102
RTVSPost2010PropOp51
 70
     0
102
RTVSPost2010Prop52
140
1.0
102
RTVSPost2010PropOp52
 70
     0
102
RTVSPost2010Prop53
 90
        2
102
RTVSPost2010PropOp53
 70
     1
102
RTVSPost2010Prop54
  1
strokes_ogs.tif
102
RTVSPost2010PropOp54
 70
     1
102
RTVSPost2010Prop55
280
     0
102
RTVSPost2010PropOp55
 70
     1
102
RTVSPost2010Prop56
140
1.0
102
RTVSPost2010PropOp56
 70
     1
102
RTVSPost2010Prop57
140
1.0
102
RTVSPost2010PropOp57
 70
     1
  0
XRECORD
  5
3FE
102
{ACAD_REACTORS
330
3FD
102
}
330
3FD
100
AcDbXrecord
280
     1
102
RTVSPropertyOp0
 70
     0
102
RTVSPropertyOp1
 70
     0
102
RTVSPropertyOp2
 70
     0
102
RTVSPropertyOp3
 70
     0
102
RTVSPropertyOp4
 70
     0
102
RTVSPropertyOp5
 70
     0
102
RTVSPropertyOp6
 70
     0
102
RTVSPropertyOp7
 70
     0
102
RTVSPropertyOp8
 70
     0
102
RTVSPropertyOp9
 70
     0
102
RTVSPropertyOp10
 70
     0
102
RTVSPropertyOp11
 70
     0
102
RTVSPropertyOp12
 70
     0
102
RTVSPropertyOp13
 70
     0
102
RTVSPropertyOp14
 70
     2
102
RTVSPropertyOp15
 70
     0
102
RTVSPropertyOp16
 70
     0
102
RTVSPropertyOp17
 70
     0
102
RTVSPropertyOp18
 70
     0
102
RTVSPropertyOp19
 70
     0
102
RTVSPropertyOp20
 70
     0
102
RTVSPropertyOp21
 70
     0
102
RTVSPropertyOp22
 70
     0
102
RTVSPropertyOp23
 70
     0
102
RTVSPropertyOp24
 70
     0
102
RTVSPropertyOp25
 70
     0
102
RTVSPropertyOp26
 70
     0
102
RTVSPropertyOp27
 70
     0
102
RTVSPropertyOp28
 70
     0
102
RTVSPropertyOp29
 70
     0
102
RTVSPropertyOp30
 70
     0
102
RTVSPropertyOp31
 70
     0
102
RTVSPropertyOp32
 70
     0
102
RTVSPropertyOp33
 70
     0
102
RTVSPropertyOp34
 70
     0
102
RTVSPropertyOp35
 70
     0
102
RTVSPropertyOp36
 70
     0
102
RTVSPropertyOp37
 70
     0
102
RTVSPropertyOp38
 70
     0
102
RTVSPropertyOp39
 70
     0
102
RTVSPropertyOp40
 70
     0
102
RTVSPropertyOp41
 70
     0
102
RTVSPropertyOp42
 70
     0
102
RTVSPropertyOp43
 70
     0
102
RTVSPropertyOp44
 70
     0
102
RTVSPropertyOp45
 70
     0
102
RTVSPropertyOp46
 70
     0
102
RTVSPropertyOp47
 70
     0
102
RTVSPropertyOp48
 70
     0
102
RTVSPropertyOp49
 70
     0
102
RTVSPropertyOp50
 70
     0
102
RTVSPropertyOp51
 70
     0
102
RTVSPropertyOp52
 70
     0
102
RTVSPropertyOp53
 70
     0
102
RTVSPropertyOp54
 70
     0
102
RTVSPropertyOp55
 70
     0
102
RTVSPropertyOp56
 70
     0
102
RTVSPropertyOp57
 70
     0
102
RTVSPost2010Prop28
280
     0
102
RTVSPost2010PropOp28
 70
     0
102
RTVSPost2010Prop29
280
     1
102
RTVSPost2010PropOp29
 70
     0
102
RTVSPost2010Prop30
280
     1
102
RTVSPost2010PropOp30
 70
     0
102
RTVSPost2010Prop31
280
     0
102
RTVSPost2010PropOp31
 70
     0
102
RTVSPost2010Prop32
280
     0
102
RTVSPost2010PropOp32
 70
     0
102
RTVSPost2010Prop33
280
     0
102
RTVSPost2010PropOp33
 70
     0
102
RTVSPost2010Prop34
280
     0
102
RTVSPost2010PropOp34
 70
     0
102
RTVSPost2010Prop35
280
     0
102
RTVSPost2010PropOp35
 70
     0
102
RTVSPost2010Prop36
280
     0
102
RTVSPost2010PropOp36
 70
     0
102
RTVSPost2010Prop37
 90
       50
102
RTVSPost2010PropOp37
 70
     0
102
RTVSPost2010Prop38
140
0.0
102
RTVSPost2010PropOp38
 70
     0
102
RTVSPost2010Prop39
140
1.0
102
RTVSPost2010PropOp39
 70
     0
102
RTVSPost2010Prop40
 90
        0
102
RTVSPost2010PropOp40
 70
     0
102
RTVSPost2010Prop41ColorIndex
 90
       18
102
RTVSPost2010Prop41ColorRGB
 90
        0
102
RTVSPost2010PropOp41
 70
     0
102
RTVSPost2010Prop42
 90
       50
102
RTVSPost2010PropOp42
 70
     0
102
RTVSPost2010Prop43
 90
        3
102
RTVSPost2010PropOp43
 70
     0
102
RTVSPost2010Prop44ColorIndex
 90
        5
102
RTVSPost2010Prop44ColorRGB
 90
      255
102
RTVSPost2010PropOp44
 70
     0
102
RTVSPost2010Prop45
280
     0
102
RTVSPost2010PropOp45
 70
     0
102
RTVSPost2010Prop46
 90
       50
102
RTVSPost2010PropOp46
 70
     0
102
RTVSPost2010Prop47
 90
       50
102
RTVSPost2010PropOp47
 70
     0
102
RTVSPost2010Prop48
 90
       50
102
RTVSPost2010PropOp48
 70
     0
102
RTVSPost2010Prop49
280
     0
102
RTVSPost2010PropOp49
 70
     0
102
RTVSPost2010Prop50
 90
       50
102
RTVSPost2010PropOp50
 70
     0
102
RTVSPost2010Prop51ColorIndex
 90
      256
102
RTVSPost2010Prop51ColorRGB
 90
-16777216
102
RTVSPost2010PropOp51
 70
     0
102
RTVSPost2010Prop52
140
1.0
102
RTVSPost2010PropOp52
 70
     0
102
RTVSPost2010Prop53
 90
        2
102
RTVSPost2010PropOp53
 70
     0
102
RTVSPost2010Prop54
  1
strokes_ogs.tif
102
RTVSPost2010PropOp54
 70
     0
102
RTVSPost2010Prop55
280
     0
102
RTVSPost2010PropOp55
 70
     0
102
RTVSPost2010Prop56
140
1.0
102
RTVSPost2010PropOp56
 70
     0
102
RTVSPost2010Prop57
140
1.0
102
RTVSPost2010PropOp57
 70
     0
  0
XRECORD
  5
3F8
102
{ACAD_REACTORS
330
3F7
102
}
330
3F7
100
AcDbXrecord
280
     1
102
RTVSPropertyOp0
 70
     1
102
RTVSPropertyOp1
 70
     1
102
RTVSPropertyOp2
 70
     1
102
RTVSPropertyOp3
 70
     1
102
RTVSPropertyOp4
 70
     1
102
RTVSPropertyOp5
 70
     1
102
RTVSPropertyOp6
 70
     1
102
RTVSPropertyOp7
 70
     1
102
RTVSPropertyOp8
 70
     1
102
RTVSPropertyOp9
 70
     1
102
RTVSPropertyOp10
 70
     1
102
RTVSPropertyOp11
 70
     1
102
RTVSPropertyOp12
 70
     1
102
RTVSPropertyOp13
 70
     1
102
RTVSPropertyOp14
 70
     1
102
RTVSPropertyOp15
 70
     1
102
RTVSPropertyOp16
 70
     1
102
RTVSPropertyOp17
 70
     1
102
RTVSPropertyOp18
 70
     1
102
RTVSPropertyOp19
 70
     1
102
RTVSPropertyOp20
 70
     1
102
RTVSPropertyOp21
 70
     1
102
RTVSPropertyOp22
 70
     1
102
RTVSPropertyOp23
 70
     1
102
RTVSPropertyOp24
 70
     1
102
RTVSPropertyOp25
 70
     1
102
RTVSPropertyOp26
 70
     1
102
RTVSPropertyOp27
 70
     1
102
RTVSPropertyOp28
 70
     1
102
RTVSPropertyOp29
 70
     1
102
RTVSPropertyOp30
 70
     1
102
RTVSPropertyOp31
 70
     1
102
RTVSPropertyOp32
 70
     1
102
RTVSPropertyOp33
 70
     1
102
RTVSPropertyOp34
 70
     1
102
RTVSPropertyOp35
 70
     1
102
RTVSPropertyOp36
 70
     1
102
RTVSPropertyOp37
 70
     1
102
RTVSPropertyOp38
 70
     1
102
RTVSPropertyOp39
 70
     1
102
RTVSPropertyOp40
 70
     1
102
RTVSPropertyOp41
 70
     1
102
RTVSPropertyOp42
 70
     1
102
RTVSPropertyOp43
 70
     1
102
RTVSPropertyOp44
 70
     1
102
RTVSPropertyOp45
 70
     1
102
RTVSPropertyOp46
 70
     1
102
RTVSPropertyOp47
 70
     1
102
RTVSPropertyOp48
 70
     1
102
RTVSPropertyOp49
 70
     1
102
RTVSPropertyOp50
 70
     1
102
RTVSPropertyOp51
 70
     0
102
RTVSPropertyOp52
 70
     0
102
RTVSPropertyOp53
 70
     1
102
RTVSPropertyOp54
 70
     1
102
RTVSPropertyOp55
 70
     1
102
RTVSPropertyOp56
 70
     1
102
RTVSPropertyOp57
 70
     1
102
RTVSPost2010Prop28
280
     0
102
RTVSPost2010PropOp28
 70
     1
102
RTVSPost2010Prop29
280
     1
102
RTVSPost2010PropOp29
 70
     1
102
RTVSPost2010Prop30
280
     1
102
RTVSPost2010PropOp30
 70
     1
102
RTVSPost2010Prop31
280
     0
102
RTVSPost2010PropOp31
 70
     1
102
RTVSPost2010Prop32
280
     0
102
RTVSPost2010PropOp32
 70
     1
102
RTVSPost2010Prop33
280
     0
102
RTVSPost2010PropOp33
 70
     1
102
RTVSPost2010Prop34
280
     0
102
RTVSPost2010PropOp34
 70
     1
102
RTVSPost2010Prop35
280
     0
102
RTVSPost2010PropOp35
 70
     1
102
RTVSPost2010Prop36
280
     0
102
RTVSPost2010PropOp36
 70
     1
102
RTVSPost2010Prop37
 90
       50
102
RTVSPost2010PropOp37
 70
     1
102
RTVSPost2010Prop38
140
0.0
102
RTVSPost2010PropOp38
 70
     1
102
RTVSPost2010Prop39
140
1.0
102
RTVSPost2010PropOp39
 70
     1
102
RTVSPost2010Prop40
 90
        0
102
RTVSPost2010PropOp40
 70
     1
102
RTVSPost2010Prop41ColorIndex
 90
       18
102
RTVSPost2010Prop41ColorRGB
 90
        0
102
RTVSPost2010PropOp41
 70
     1
102
RTVSPost2010Prop42
 90
       50
102
RTVSPost2010PropOp42
 70
     1
102
RTVSPost2010Prop43
 90
        3
102
RTVSPost2010PropOp43
 70
     1
102
RTVSPost2010Prop44ColorIndex
 90
        5
102
RTVSPost2010Prop44ColorRGB
 90
      255
102
RTVSPost2010PropOp44
 70
     1
102
RTVSPost2010Prop45
280
     0
102
RTVSPost2010PropOp45
 70
     1
102
RTVSPost2010Prop46
 90
       50
102
RTVSPost2010PropOp46
 70
     1
102
RTVSPost2010Prop47
 90
       50
102
RTVSPost2010PropOp47
 70
     1
102
RTVSPost2010Prop48
 90
       50
102
RTVSPost2010PropOp48
 70
     1
102
RTVSPost2010Prop49
280
     0
102
RTVSPost2010PropOp49
 70
     1
102
RTVSPost2010Prop50
 90
       50
102
RTVSPost2010PropOp50
 70
     1
102
RTVSPost2010Prop51ColorIndex
 90
      256
102
RTVSPost2010Prop51ColorRGB
 90
-16777216
102
RTVSPost2010PropOp51
 70
     0
102
RTVSPost2010Prop52
140
1.0
102
RTVSPost2010PropOp52
 70
     0
102
RTVSPost2010Prop53
 90
        2
102
RTVSPost2010PropOp53
 70
     1
102
RTVSPost2010Prop54
  1
strokes_ogs.tif
102
RTVSPost2010PropOp54
 70
     1
102
RTVSPost2010Prop55
280
     0
102
RTVSPost2010PropOp55
 70
     1
102
RTVSPost2010Prop56
140
1.0
102
RTVSPost2010PropOp56
 70
     1
102
RTVSPost2010Prop57
140
1.0
102
RTVSPost2010PropOp57
 70
     1
  0
XRECORD
  5
400
102
{ACAD_REACTORS
330
3FF
102
}
330
3FF
100
AcDbXrecord
280
     1
102
RTVSPropertyOp0
 70
     0
102
RTVSPropertyOp1
 70
     0
102
RTVSPropertyOp2
 70
     0
102
RTVSPropertyOp3
 70
     0
102
RTVSPropertyOp4
 70
     0
102
RTVSPropertyOp5
 70
     0
102
RTVSPropertyOp6
 70
     0
102
RTVSPropertyOp7
 70
     0
102
RTVSPropertyOp8
 70
     0
102
RTVSPropertyOp9
 70
     0
102
RTVSPropertyOp10
 70
     0
102
RTVSPropertyOp11
 70
     0
102
RTVSPropertyOp12
 70
     0
102
RTVSPropertyOp13
 70
     0
102
RTVSPropertyOp14
 70
     2
102
RTVSPropertyOp15
 70
     0
102
RTVSPropertyOp16
 70
     0
102
RTVSPropertyOp17
 70
     0
102
RTVSPropertyOp18
 70
     0
102
RTVSPropertyOp19
 70
     0
102
RTVSPropertyOp20
 70
     0
102
RTVSPropertyOp21
 70
     0
102
RTVSPropertyOp22
 70
     0
102
RTVSPropertyOp23
 70
     0
102
RTVSPropertyOp24
 70
     0
102
RTVSPropertyOp25
 70
     0
102
RTVSPropertyOp26
 70
     0
102
RTVSPropertyOp27
 70
     0
102
RTVSPropertyOp28
 70
     0
102
RTVSPropertyOp29
 70
     0
102
RTVSPropertyOp30
 70
     0
102
RTVSPropertyOp31
 70
     0
102
RTVSPropertyOp32
 70
     0
102
RTVSPropertyOp33
 70
     0
102
RTVSPropertyOp34
 70
     0
102
RTVSPropertyOp35
 70
     0
102
RTVSPropertyOp36
 70
     0
102
RTVSPropertyOp37
 70
     0
102
RTVSPropertyOp38
 70
     0
102
RTVSPropertyOp39
 70
     0
102
RTVSPropertyOp40
 70
     0
102
RTVSPropertyOp41
 70
     0
102
RTVSPropertyOp42
 70
     0
102
RTVSPropertyOp43
 70
     0
102
RTVSPropertyOp44
 70
     0
102
RTVSPropertyOp45
 70
     0
102
RTVSPropertyOp46
 70
     0
102
RTVSPropertyOp47
 70
     0
102
RTVSPropertyOp48
 70
     0
102
RTVSPropertyOp49
 70
     0
102
RTVSPropertyOp50
 70
     0
102
RTVSPropertyOp51
 70
     0
102
RTVSPropertyOp52
 70
     0
102
RTVSPropertyOp53
 70
     0
102
RTVSPropertyOp54
 70
     0
102
RTVSPropertyOp55
 70
     0
102
RTVSPropertyOp56
 70
     0
102
RTVSPropertyOp57
 70
     0
102
RTVSPost2010Prop28
280
     0
102
RTVSPost2010PropOp28
 70
     0
102
RTVSPost2010Prop29
280
     1
102
RTVSPost2010PropOp29
 70
     0
102
RTVSPost2010Prop30
280
     1
102
RTVSPost2010PropOp30
 70
     0
102
RTVSPost2010Prop31
280
     0
102
RTVSPost2010PropOp31
 70
     0
102
RTVSPost2010Prop32
280
     0
102
RTVSPost2010PropOp32
 70
     0
102
RTVSPost2010Prop33
280
     0
102
RTVSPost2010PropOp33
 70
     0
102
RTVSPost2010Prop34
280
     0
102
RTVSPost2010PropOp34
 70
     0
102
RTVSPost2010Prop35
280
     0
102
RTVSPost2010PropOp35
 70
     0
102
RTVSPost2010Prop36
280
     0
102
RTVSPost2010PropOp36
 70
     0
102
RTVSPost2010Prop37
 90
       50
102
RTVSPost2010PropOp37
 70
     0
102
RTVSPost2010Prop38
140
0.0
102
RTVSPost2010PropOp38
 70
     0
102
RTVSPost2010Prop39
140
1.0
102
RTVSPost2010PropOp39
 70
     0
102
RTVSPost2010Prop40
 90
        0
102
RTVSPost2010PropOp40
 70
     0
102
RTVSPost2010Prop41ColorIndex
 90
       18
102
RTVSPost2010Prop41ColorRGB
 90
        0
102
RTVSPost2010PropOp41
 70
     0
102
RTVSPost2010Prop42
 90
       50
102
RTVSPost2010PropOp42
 70
     0
102
RTVSPost2010Prop43
 90
        3
102
RTVSPost2010PropOp43
 70
     0
102
RTVSPost2010Prop44ColorIndex
 90
        5
102
RTVSPost2010Prop44ColorRGB
 90
      255
102
RTVSPost2010PropOp44
 70
     0
102
RTVSPost2010Prop45
280
     0
102
RTVSPost2010PropOp45
 70
     0
102
RTVSPost2010Prop46
 90
       50
102
RTVSPost2010PropOp46
 70
     0
102
RTVSPost2010Prop47
 90
       50
102
RTVSPost2010PropOp47
 70
     0
102
RTVSPost2010Prop48
 90
       50
102
RTVSPost2010PropOp48
 70
     0
102
RTVSPost2010Prop49
280
     0
102
RTVSPost2010PropOp49
 70
     0
102
RTVSPost2010Prop50
 90
       50
102
RTVSPost2010PropOp50
 70
     0
102
RTVSPost2010Prop51ColorIndex
 90
      256
102
RTVSPost2010Prop51ColorRGB
 90
-16777216
102
RTVSPost2010PropOp51
 70
     0
102
RTVSPost2010Prop52
140
1.0
102
RTVSPost2010PropOp52
 70
     0
102
RTVSPost2010Prop53
 90
        2
102
RTVSPost2010PropOp53
 70
     0
102
RTVSPost2010Prop54
  1
strokes_ogs.tif
102
RTVSPost2010PropOp54
 70
     0
102
RTVSPost2010Prop55
280
     0
102
RTVSPost2010PropOp55
 70
     0
102
RTVSPost2010Prop56
140
1.0
102
RTVSPost2010PropOp56
 70
     0
102
RTVSPost2010Prop57
140
1.0
102
RTVSPost2010PropOp57
 70
     0
  0
XRECORD
  5
3EE
102
{ACAD_REACTORS
330
3ED
102
}
330
3ED
100
AcDbXrecord
280
     1
102
RTVSPropertyOp0
 70
     1
102
RTVSPropertyOp1
 70
     1
102
RTVSPropertyOp2
 70
     1
102
RTVSPropertyOp3
 70
     1
102
RTVSPropertyOp4
 70
     1
102
RTVSPropertyOp5
 70
     1
102
RTVSPropertyOp6
 70
     1
102
RTVSPropertyOp7
 70
     1
102
RTVSPropertyOp8
 70
     1
102
RTVSPropertyOp9
 70
     1
102
RTVSPropertyOp10
 70
     1
102
RTVSPropertyOp11
 70
     1
102
RTVSPropertyOp12
 70
     1
102
RTVSPropertyOp13
 70
     1
102
RTVSPropertyOp14
 70
     1
102
RTVSPropertyOp15
 70
     1
102
RTVSPropertyOp16
 70
     1
102
RTVSPropertyOp17
 70
     1
102
RTVSPropertyOp18
 70
     1
102
RTVSPropertyOp19
 70
     1
102
RTVSPropertyOp20
 70
     1
102
RTVSPropertyOp21
 70
     1
102
RTVSPropertyOp22
 70
     1
102
RTVSPropertyOp23
 70
     1
102
RTVSPropertyOp24
 70
     1
102
RTVSPropertyOp25
 70
     1
102
RTVSPropertyOp26
 70
     1
102
RTVSPropertyOp27
 70
     1
102
RTVSPropertyOp28
 70
     1
102
RTVSPropertyOp29
 70
     1
102
RTVSPropertyOp30
 70
     1
102
RTVSPropertyOp31
 70
     1
102
RTVSPropertyOp32
 70
     1
102
RTVSPropertyOp33
 70
     1
102
RTVSPropertyOp34
 70
     1
102
RTVSPropertyOp35
 70
     1
102
RTVSPropertyOp36
 70
     1
102
RTVSPropertyOp37
 70
     1
102
RTVSPropertyOp38
 70
     1
102
RTVSPropertyOp39
 70
     1
102
RTVSPropertyOp40
 70
     1
102
RTVSPropertyOp41
 70
     1
102
RTVSPropertyOp42
 70
     1
102
RTVSPropertyOp43
 70
     1
102
RTVSPropertyOp44
 70
     1
102
RTVSPropertyOp45
 70
     1
102
RTVSPropertyOp46
 70
     1
102
RTVSPropertyOp47
 70
     1
102
RTVSPropertyOp48
 70
     1
102
RTVSPropertyOp49
 70
     1
102
RTVSPropertyOp50
 70
     1
102
RTVSPropertyOp51
 70
     0
102
RTVSPropertyOp52
 70
     0
102
RTVSPropertyOp53
 70
     1
102
RTVSPropertyOp54
 70
     1
102
RTVSPropertyOp55
 70
     1
102
RTVSPropertyOp56
 70
     1
102
RTVSPropertyOp57
 70
     1
102
RTVSPost2010Prop28
280
     0
102
RTVSPost2010PropOp28
 70
     1
102
RTVSPost2010Prop29
280
     1
102
RTVSPost2010PropOp29
 70
     1
102
RTVSPost2010Prop30
280
     1
102
RTVSPost2010PropOp30
 70
     1
102
RTVSPost2010Prop31
280
     0
102
RTVSPost2010PropOp31
 70
     1
102
RTVSPost2010Prop32
280
     0
102
RTVSPost2010PropOp32
 70
     1
102
RTVSPost2010Prop33
280
     0
102
RTVSPost2010PropOp33
 70
     1
102
RTVSPost2010Prop34
280
     0
102
RTVSPost2010PropOp34
 70
     1
102
RTVSPost2010Prop35
280
     0
102
RTVSPost2010PropOp35
 70
     1
102
RTVSPost2010Prop36
280
     0
102
RTVSPost2010PropOp36
 70
     1
102
RTVSPost2010Prop37
 90
       50
102
RTVSPost2010PropOp37
 70
     1
102
RTVSPost2010Prop38
140
0.0
102
RTVSPost2010PropOp38
 70
     1
102
RTVSPost2010Prop39
140
1.0
102
RTVSPost2010PropOp39
 70
     1
102
RTVSPost2010Prop40
 90
        0
102
RTVSPost2010PropOp40
 70
     1
102
RTVSPost2010Prop41ColorIndex
 90
       18
102
RTVSPost2010Prop41ColorRGB
 90
        0
102
RTVSPost2010PropOp41
 70
     1
102
RTVSPost2010Prop42
 90
       50
102
RTVSPost2010PropOp42
 70
     1
102
RTVSPost2010Prop43
 90
        3
102
RTVSPost2010PropOp43
 70
     1
102
RTVSPost2010Prop44ColorIndex
 90
        5
102
RTVSPost2010Prop44ColorRGB
 90
      255
102
RTVSPost2010PropOp44
 70
     1
102
RTVSPost2010Prop45
280
     0
102
RTVSPost2010PropOp45
 70
     1
102
RTVSPost2010Prop46
 90
       50
102
RTVSPost2010PropOp46
 70
     1
102
RTVSPost2010Prop47
 90
       50
102
RTVSPost2010PropOp47
 70
     1
102
RTVSPost2010Prop48
 90
       50
102
RTVSPost2010PropOp48
 70
     1
102
RTVSPost2010Prop49
280
     0
102
RTVSPost2010PropOp49
 70
     1
102
RTVSPost2010Prop50
 90
       50
102
RTVSPost2010PropOp50
 70
     1
102
RTVSPost2010Prop51ColorIndex
 90
      256
102
RTVSPost2010Prop51ColorRGB
 90
-16777216
102
RTVSPost2010PropOp51
 70
     0
102
RTVSPost2010Prop52
140
1.0
102
RTVSPost2010PropOp52
 70
     0
102
RTVSPost2010Prop53
 90
        2
102
RTVSPost2010PropOp53
 70
     1
102
RTVSPost2010Prop54
  1
strokes_ogs.tif
102
RTVSPost2010PropOp54
 70
     1
102
RTVSPost2010Prop55
280
     0
102
RTVSPost2010PropOp55
 70
     1
102
RTVSPost2010Prop56
140
1.0
102
RTVSPost2010PropOp56
 70
     1
102
RTVSPost2010Prop57
140
1.0
102
RTVSPost2010PropOp57
 70
     1
  0
XRECORD
  5
40C
102
{ACAD_REACTORS
330
40B
102
}
330
40B
100
AcDbXrecord
280
     1
102
RTVSPropertyOp0
 70
     1
102
RTVSPropertyOp1
 70
     1
102
RTVSPropertyOp2
 70
     1
102
RTVSPropertyOp3
 70
     1
102
RTVSPropertyOp4
 70
     1
102
RTVSPropertyOp5
 70
     1
102
RTVSPropertyOp6
 70
     1
102
RTVSPropertyOp7
 70
     1
102
RTVSPropertyOp8
 70
     1
102
RTVSPropertyOp9
 70
     1
102
RTVSPropertyOp10
 70
     1
102
RTVSPropertyOp11
 70
     1
102
RTVSPropertyOp12
 70
     1
102
RTVSPropertyOp13
 70
     1
102
RTVSPropertyOp14
 70
     1
102
RTVSPropertyOp15
 70
     1
102
RTVSPropertyOp16
 70
     1
102
RTVSPropertyOp17
 70
     1
102
RTVSPropertyOp18
 70
     1
102
RTVSPropertyOp19
 70
     1
102
RTVSPropertyOp20
 70
     1
102
RTVSPropertyOp21
 70
     1
102
RTVSPropertyOp22
 70
     1
102
RTVSPropertyOp23
 70
     1
102
RTVSPropertyOp24
 70
     1
102
RTVSPropertyOp25
 70
     1
102
RTVSPropertyOp26
 70
     1
102
RTVSPropertyOp27
 70
     1
102
RTVSPropertyOp28
 70
     1
102
RTVSPropertyOp29
 70
     1
102
RTVSPropertyOp30
 70
     1
102
RTVSPropertyOp31
 70
     1
102
RTVSPropertyOp32
 70
     1
102
RTVSPropertyOp33
 70
     1
102
RTVSPropertyOp34
 70
     1
102
RTVSPropertyOp35
 70
     1
102
RTVSPropertyOp36
 70
     1
102
RTVSPropertyOp37
 70
     1
102
RTVSPropertyOp38
 70
     1
102
RTVSPropertyOp39
 70
     1
102
RTVSPropertyOp40
 70
     1
102
RTVSPropertyOp41
 70
     1
102
RTVSPropertyOp42
 70
     1
102
RTVSPropertyOp43
 70
     1
102
RTVSPropertyOp44
 70
     1
102
RTVSPropertyOp45
 70
     1
102
RTVSPropertyOp46
 70
     1
102
RTVSPropertyOp47
 70
     1
102
RTVSPropertyOp48
 70
     1
102
RTVSPropertyOp49
 70
     1
102
RTVSPropertyOp50
 70
     1
102
RTVSPropertyOp51
 70
     0
102
RTVSPropertyOp52
 70
     0
102
RTVSPropertyOp53
 70
     1
102
RTVSPropertyOp54
 70
     1
102
RTVSPropertyOp55
 70
     1
102
RTVSPropertyOp56
 70
     1
102
RTVSPropertyOp57
 70
     1
102
RTVSPost2010Prop28
280
     0
102
RTVSPost2010PropOp28
 70
     1
102
RTVSPost2010Prop29
280
     1
102
RTVSPost2010PropOp29
 70
     1
102
RTVSPost2010Prop30
280
     1
102
RTVSPost2010PropOp30
 70
     1
102
RTVSPost2010Prop31
280
     0
102
RTVSPost2010PropOp31
 70
     1
102
RTVSPost2010Prop32
280
     0
102
RTVSPost2010PropOp32
 70
     1
102
RTVSPost2010Prop33
280
     0
102
RTVSPost2010PropOp33
 70
     1
102
RTVSPost2010Prop34
280
     0
102
RTVSPost2010PropOp34
 70
     1
102
RTVSPost2010Prop35
280
     0
102
RTVSPost2010PropOp35
 70
     1
102
RTVSPost2010Prop36
280
     0
102
RTVSPost2010PropOp36
 70
     1
102
RTVSPost2010Prop37
 90
       50
102
RTVSPost2010PropOp37
 70
     1
102
RTVSPost2010Prop38
140
0.0
102
RTVSPost2010PropOp38
 70
     1
102
RTVSPost2010Prop39
140
1.0
102
RTVSPost2010PropOp39
 70
     1
102
RTVSPost2010Prop40
 90
        0
102
RTVSPost2010PropOp40
 70
     1
102
RTVSPost2010Prop41ColorIndex
 90
       18
102
RTVSPost2010Prop41ColorRGB
 90
        0
102
RTVSPost2010PropOp41
 70
     1
102
RTVSPost2010Prop42
 90
       50
102
RTVSPost2010PropOp42
 70
     1
102
RTVSPost2010Prop43
 90
        3
102
RTVSPost2010PropOp43
 70
     1
102
RTVSPost2010Prop44ColorIndex
 90
        5
102
RTVSPost2010Prop44ColorRGB
 90
      255
102
RTVSPost2010PropOp44
 70
     1
102
RTVSPost2010Prop45
280
     0
102
RTVSPost2010PropOp45
 70
     1
102
RTVSPost2010Prop46
 90
       50
102
RTVSPost2010PropOp46
 70
     1
102
RTVSPost2010Prop47
 90
       50
102
RTVSPost2010PropOp47
 70
     1
102
RTVSPost2010Prop48
 90
       50
102
RTVSPost2010PropOp48
 70
     1
102
RTVSPost2010Prop49
280
     0
102
RTVSPost2010PropOp49
 70
     1
102
RTVSPost2010Prop50
 90
       50
102
RTVSPost2010PropOp50
 70
     1
102
RTVSPost2010Prop51ColorIndex
 90
      256
102
RTVSPost2010Prop51ColorRGB
 90
-16777216
102
RTVSPost2010PropOp51
 70
     0
102
RTVSPost2010Prop52
140
1.0
102
RTVSPost2010PropOp52
 70
     0
102
RTVSPost2010Prop53
 90
        2
102
RTVSPost2010PropOp53
 70
     1
102
RTVSPost2010Prop54
  1
strokes_ogs.tif
102
RTVSPost2010PropOp54
 70
     1
102
RTVSPost2010Prop55
280
     0
102
RTVSPost2010PropOp55
 70
     1
102
RTVSPost2010Prop56
140
1.0
102
RTVSPost2010PropOp56
 70
     1
102
RTVSPost2010Prop57
140
1.0
102
RTVSPost2010PropOp57
 70
     1
  0
XRECORD
  5
40A
102
{ACAD_REACTORS
330
409
102
}
330
409
100
AcDbXrecord
280
     1
102
RTVSPropertyOp0
 70
     1
102
RTVSPropertyOp1
 70
     1
102
RTVSPropertyOp2
 70
     1
102
RTVSPropertyOp3
 70
     1
102
RTVSPropertyOp4
 70
     1
102
RTVSPropertyOp5
 70
     1
102
RTVSPropertyOp6
 70
     1
102
RTVSPropertyOp7
 70
     1
102
RTVSPropertyOp8
 70
     1
102
RTVSPropertyOp9
 70
     1
102
RTVSPropertyOp10
 70
     1
102
RTVSPropertyOp11
 70
     1
102
RTVSPropertyOp12
 70
     1
102
RTVSPropertyOp13
 70
     1
102
RTVSPropertyOp14
 70
     1
102
RTVSPropertyOp15
 70
     1
102
RTVSPropertyOp16
 70
     1
102
RTVSPropertyOp17
 70
     1
102
RTVSPropertyOp18
 70
     1
102
RTVSPropertyOp19
 70
     1
102
RTVSPropertyOp20
 70
     1
102
RTVSPropertyOp21
 70
     1
102
RTVSPropertyOp22
 70
     1
102
RTVSPropertyOp23
 70
     1
102
RTVSPropertyOp24
 70
     1
102
RTVSPropertyOp25
 70
     1
102
RTVSPropertyOp26
 70
     1
102
RTVSPropertyOp27
 70
     1
102
RTVSPropertyOp28
 70
     1
102
RTVSPropertyOp29
 70
     1
102
RTVSPropertyOp30
 70
     1
102
RTVSPropertyOp31
 70
     1
102
RTVSPropertyOp32
 70
     1
102
RTVSPropertyOp33
 70
     1
102
RTVSPropertyOp34
 70
     1
102
RTVSPropertyOp35
 70
     1
102
RTVSPropertyOp36
 70
     1
102
RTVSPropertyOp37
 70
     1
102
RTVSPropertyOp38
 70
     1
102
RTVSPropertyOp39
 70
     1
102
RTVSPropertyOp40
 70
     1
102
RTVSPropertyOp41
 70
     1
102
RTVSPropertyOp42
 70
     1
102
RTVSPropertyOp43
 70
     1
102
RTVSPropertyOp44
 70
     1
102
RTVSPropertyOp45
 70
     1
102
RTVSPropertyOp46
 70
     1
102
RTVSPropertyOp47
 70
     1
102
RTVSPropertyOp48
 70
     1
102
RTVSPropertyOp49
 70
     1
102
RTVSPropertyOp50
 70
     1
102
RTVSPropertyOp51
 70
     0
102
RTVSPropertyOp52
 70
     0
102
RTVSPropertyOp53
 70
     1
102
RTVSPropertyOp54
 70
     1
102
RTVSPropertyOp55
 70
     1
102
RTVSPropertyOp56
 70
     1
102
RTVSPropertyOp57
 70
     1
102
RTVSPost2010Prop28
280
     0
102
RTVSPost2010PropOp28
 70
     1
102
RTVSPost2010Prop29
280
     1
102
RTVSPost2010PropOp29
 70
     1
102
RTVSPost2010Prop30
280
     1
102
RTVSPost2010PropOp30
 70
     1
102
RTVSPost2010Prop31
280
     0
102
RTVSPost2010PropOp31
 70
     1
102
RTVSPost2010Prop32
280
     0
102
RTVSPost2010PropOp32
 70
     1
102
RTVSPost2010Prop33
280
     0
102
RTVSPost2010PropOp33
 70
     1
102
RTVSPost2010Prop34
280
     0
102
RTVSPost2010PropOp34
 70
     1
102
RTVSPost2010Prop35
280
     0
102
RTVSPost2010PropOp35
 70
     1
102
RTVSPost2010Prop36
280
     0
102
RTVSPost2010PropOp36
 70
     1
102
RTVSPost2010Prop37
 90
       50
102
RTVSPost2010PropOp37
 70
     1
102
RTVSPost2010Prop38
140
0.0
102
RTVSPost2010PropOp38
 70
     1
102
RTVSPost2010Prop39
140
1.0
102
RTVSPost2010PropOp39
 70
     1
102
RTVSPost2010Prop40
 90
        0
102
RTVSPost2010PropOp40
 70
     1
102
RTVSPost2010Prop41ColorIndex
 90
       18
102
RTVSPost2010Prop41ColorRGB
 90
        0
102
RTVSPost2010PropOp41
 70
     1
102
RTVSPost2010Prop42
 90
       50
102
RTVSPost2010PropOp42
 70
     1
102
RTVSPost2010Prop43
 90
        3
102
RTVSPost2010PropOp43
 70
     1
102
RTVSPost2010Prop44ColorIndex
 90
        5
102
RTVSPost2010Prop44ColorRGB
 90
      255
102
RTVSPost2010PropOp44
 70
     1
102
RTVSPost2010Prop45
280
     0
102
RTVSPost2010PropOp45
 70
     1
102
RTVSPost2010Prop46
 90
       50
102
RTVSPost2010PropOp46
 70
     1
102
RTVSPost2010Prop47
 90
       50
102
RTVSPost2010PropOp47
 70
     1
102
RTVSPost2010Prop48
 90
       50
102
RTVSPost2010PropOp48
 70
     1
102
RTVSPost2010Prop49
280
     0
102
RTVSPost2010PropOp49
 70
     1
102
RTVSPost2010Prop50
 90
       50
102
RTVSPost2010PropOp50
 70
     1
102
RTVSPost2010Prop51ColorIndex
 90
      256
102
RTVSPost2010Prop51ColorRGB
 90
-16777216
102
RTVSPost2010PropOp51
 70
     0
102
RTVSPost2010Prop52
140
1.0
102
RTVSPost2010PropOp52
 70
     0
102
RTVSPost2010Prop53
 90
        2
102
RTVSPost2010PropOp53
 70
     1
102
RTVSPost2010Prop54
  1
strokes_ogs.tif
102
RTVSPost2010PropOp54
 70
     1
102
RTVSPost2010Prop55
280
     0
102
RTVSPost2010PropOp55
 70
     1
102
RTVSPost2010Prop56
140
1.0
102
RTVSPost2010PropOp56
 70
     1
102
RTVSPost2010Prop57
140
1.0
102
RTVSPost2010PropOp57
 70
     1
  0
XRECORD
  5
404
102
{ACAD_REACTORS
330
403
102
}
330
403
100
AcDbXrecord
280
     1
102
RTVSPropertyOp0
 70
     1
102
RTVSPropertyOp1
 70
     1
102
RTVSPropertyOp2
 70
     1
102
RTVSPropertyOp3
 70
     1
102
RTVSPropertyOp4
 70
     1
102
RTVSPropertyOp5
 70
     1
102
RTVSPropertyOp6
 70
     1
102
RTVSPropertyOp7
 70
     1
102
RTVSPropertyOp8
 70
     1
102
RTVSPropertyOp9
 70
     1
102
RTVSPropertyOp10
 70
     1
102
RTVSPropertyOp11
 70
     1
102
RTVSPropertyOp12
 70
     1
102
RTVSPropertyOp13
 70
     1
102
RTVSPropertyOp14
 70
     1
102
RTVSPropertyOp15
 70
     1
102
RTVSPropertyOp16
 70
     1
102
RTVSPropertyOp17
 70
     1
102
RTVSPropertyOp18
 70
     1
102
RTVSPropertyOp19
 70
     1
102
RTVSPropertyOp20
 70
     1
102
RTVSPropertyOp21
 70
     1
102
RTVSPropertyOp22
 70
     1
102
RTVSPropertyOp23
 70
     1
102
RTVSPropertyOp24
 70
     1
102
RTVSPropertyOp25
 70
     1
102
RTVSPropertyOp26
 70
     1
102
RTVSPropertyOp27
 70
     1
102
RTVSPropertyOp28
 70
     1
102
RTVSPropertyOp29
 70
     1
102
RTVSPropertyOp30
 70
     1
102
RTVSPropertyOp31
 70
     1
102
RTVSPropertyOp32
 70
     1
102
RTVSPropertyOp33
 70
     1
102
RTVSPropertyOp34
 70
     1
102
RTVSPropertyOp35
 70
     1
102
RTVSPropertyOp36
 70
     1
102
RTVSPropertyOp37
 70
     1
102
RTVSPropertyOp38
 70
     1
102
RTVSPropertyOp39
 70
     1
102
RTVSPropertyOp40
 70
     1
102
RTVSPropertyOp41
 70
     1
102
RTVSPropertyOp42
 70
     1
102
RTVSPropertyOp43
 70
     1
102
RTVSPropertyOp44
 70
     1
102
RTVSPropertyOp45
 70
     1
102
RTVSPropertyOp46
 70
     1
102
RTVSPropertyOp47
 70
     1
102
RTVSPropertyOp48
 70
     1
102
RTVSPropertyOp49
 70
     1
102
RTVSPropertyOp50
 70
     1
102
RTVSPropertyOp51
 70
     0
102
RTVSPropertyOp52
 70
     0
102
RTVSPropertyOp53
 70
     1
102
RTVSPropertyOp54
 70
     1
102
RTVSPropertyOp55
 70
     1
102
RTVSPropertyOp56
 70
     1
102
RTVSPropertyOp57
 70
     1
102
RTVSPost2010Prop28
280
     0
102
RTVSPost2010PropOp28
 70
     1
102
RTVSPost2010Prop29
280
     1
102
RTVSPost2010PropOp29
 70
     1
102
RTVSPost2010Prop30
280
     1
102
RTVSPost2010PropOp30
 70
     1
102
RTVSPost2010Prop31
280
     0
102
RTVSPost2010PropOp31
 70
     1
102
RTVSPost2010Prop32
280
     0
102
RTVSPost2010PropOp32
 70
     1
102
RTVSPost2010Prop33
280
     0
102
RTVSPost2010PropOp33
 70
     1
102
RTVSPost2010Prop34
280
     0
102
RTVSPost2010PropOp34
 70
     1
102
RTVSPost2010Prop35
280
     0
102
RTVSPost2010PropOp35
 70
     1
102
RTVSPost2010Prop36
280
     0
102
RTVSPost2010PropOp36
 70
     1
102
RTVSPost2010Prop37
 90
       50
102
RTVSPost2010PropOp37
 70
     1
102
RTVSPost2010Prop38
140
0.0
102
RTVSPost2010PropOp38
 70
     1
102
RTVSPost2010Prop39
140
1.0
102
RTVSPost2010PropOp39
 70
     1
102
RTVSPost2010Prop40
 90
        0
102
RTVSPost2010PropOp40
 70
     1
102
RTVSPost2010Prop41ColorIndex
 90
       18
102
RTVSPost2010Prop41ColorRGB
 90
        0
102
RTVSPost2010PropOp41
 70
     1
102
RTVSPost2010Prop42
 90
       50
102
RTVSPost2010PropOp42
 70
     1
102
RTVSPost2010Prop43
 90
        3
102
RTVSPost2010PropOp43
 70
     1
102
RTVSPost2010Prop44ColorIndex
 90
        5
102
RTVSPost2010Prop44ColorRGB
 90
      255
102
RTVSPost2010PropOp44
 70
     1
102
RTVSPost2010Prop45
280
     0
102
RTVSPost2010PropOp45
 70
     1
102
RTVSPost2010Prop46
 90
       50
102
RTVSPost2010PropOp46
 70
     1
102
RTVSPost2010Prop47
 90
       50
102
RTVSPost2010PropOp47
 70
     1
102
RTVSPost2010Prop48
 90
       50
102
RTVSPost2010PropOp48
 70
     1
102
RTVSPost2010Prop49
280
     0
102
RTVSPost2010PropOp49
 70
     1
102
RTVSPost2010Prop50
 90
       50
102
RTVSPost2010PropOp50
 70
     1
102
RTVSPost2010Prop51ColorIndex
 90
      256
102
RTVSPost2010Prop51ColorRGB
 90
-16777216
102
RTVSPost2010PropOp51
 70
     0
102
RTVSPost2010Prop52
140
1.0
102
RTVSPost2010PropOp52
 70
     0
102
RTVSPost2010Prop53
 90
        2
102
RTVSPost2010PropOp53
 70
     1
102
RTVSPost2010Prop54
  1
strokes_ogs.tif
102
RTVSPost2010PropOp54
 70
     1
102
RTVSPost2010Prop55
280
     0
102
RTVSPost2010PropOp55
 70
     1
102
RTVSPost2010Prop56
140
1.0
102
RTVSPost2010PropOp56
 70
     1
102
RTVSPost2010Prop57
140
1.0
102
RTVSPost2010PropOp57
 70
     1
  0
XRECORD
  5
406
102
{ACAD_REACTORS
330
405
102
}
330
405
100
AcDbXrecord
280
     1
102
RTVSPropertyOp0
 70
     1
102
RTVSPropertyOp1
 70
     1
102
RTVSPropertyOp2
 70
     1
102
RTVSPropertyOp3
 70
     1
102
RTVSPropertyOp4
 70
     1
102
RTVSPropertyOp5
 70
     1
102
RTVSPropertyOp6
 70
     1
102
RTVSPropertyOp7
 70
     1
102
RTVSPropertyOp8
 70
     1
102
RTVSPropertyOp9
 70
     1
102
RTVSPropertyOp10
 70
     1
102
RTVSPropertyOp11
 70
     1
102
RTVSPropertyOp12
 70
     1
102
RTVSPropertyOp13
 70
     1
102
RTVSPropertyOp14
 70
     1
102
RTVSPropertyOp15
 70
     1
102
RTVSPropertyOp16
 70
     1
102
RTVSPropertyOp17
 70
     1
102
RTVSPropertyOp18
 70
     1
102
RTVSPropertyOp19
 70
     1
102
RTVSPropertyOp20
 70
     1
102
RTVSPropertyOp21
 70
     1
102
RTVSPropertyOp22
 70
     1
102
RTVSPropertyOp23
 70
     1
102
RTVSPropertyOp24
 70
     1
102
RTVSPropertyOp25
 70
     1
102
RTVSPropertyOp26
 70
     1
102
RTVSPropertyOp27
 70
     1
102
RTVSPropertyOp28
 70
     1
102
RTVSPropertyOp29
 70
     1
102
RTVSPropertyOp30
 70
     1
102
RTVSPropertyOp31
 70
     1
102
RTVSPropertyOp32
 70
     1
102
RTVSPropertyOp33
 70
     1
102
RTVSPropertyOp34
 70
     1
102
RTVSPropertyOp35
 70
     1
102
RTVSPropertyOp36
 70
     1
102
RTVSPropertyOp37
 70
     1
102
RTVSPropertyOp38
 70
     1
102
RTVSPropertyOp39
 70
     1
102
RTVSPropertyOp40
 70
     1
102
RTVSPropertyOp41
 70
     1
102
RTVSPropertyOp42
 70
     1
102
RTVSPropertyOp43
 70
     1
102
RTVSPropertyOp44
 70
     1
102
RTVSPropertyOp45
 70
     1
102
RTVSPropertyOp46
 70
     1
102
RTVSPropertyOp47
 70
     1
102
RTVSPropertyOp48
 70
     1
102
RTVSPropertyOp49
 70
     1
102
RTVSPropertyOp50
 70
     1
102
RTVSPropertyOp51
 70
     0
102
RTVSPropertyOp52
 70
     0
102
RTVSPropertyOp53
 70
     1
102
RTVSPropertyOp54
 70
     1
102
RTVSPropertyOp55
 70
     1
102
RTVSPropertyOp56
 70
     1
102
RTVSPropertyOp57
 70
     1
102
RTVSPost2010Prop28
280
     0
102
RTVSPost2010PropOp28
 70
     1
102
RTVSPost2010Prop29
280
     1
102
RTVSPost2010PropOp29
 70
     1
102
RTVSPost2010Prop30
280
     1
102
RTVSPost2010PropOp30
 70
     1
102
RTVSPost2010Prop31
280
     0
102
RTVSPost2010PropOp31
 70
     1
102
RTVSPost2010Prop32
280
     0
102
RTVSPost2010PropOp32
 70
     1
102
RTVSPost2010Prop33
280
     0
102
RTVSPost2010PropOp33
 70
     1
102
RTVSPost2010Prop34
280
     0
102
RTVSPost2010PropOp34
 70
     1
102
RTVSPost2010Prop35
280
     0
102
RTVSPost2010PropOp35
 70
     1
102
RTVSPost2010Prop36
280
     0
102
RTVSPost2010PropOp36
 70
     1
102
RTVSPost2010Prop37
 90
       50
102
RTVSPost2010PropOp37
 70
     1
102
RTVSPost2010Prop38
140
0.0
102
RTVSPost2010PropOp38
 70
     1
102
RTVSPost2010Prop39
140
1.0
102
RTVSPost2010PropOp39
 70
     1
102
RTVSPost2010Prop40
 90
        0
102
RTVSPost2010PropOp40
 70
     1
102
RTVSPost2010Prop41ColorIndex
 90
       18
102
RTVSPost2010Prop41ColorRGB
 90
        0
102
RTVSPost2010PropOp41
 70
     1
102
RTVSPost2010Prop42
 90
       50
102
RTVSPost2010PropOp42
 70
     1
102
RTVSPost2010Prop43
 90
        3
102
RTVSPost2010PropOp43
 70
     1
102
RTVSPost2010Prop44ColorIndex
 90
        5
102
RTVSPost2010Prop44ColorRGB
 90
      255
102
RTVSPost2010PropOp44
 70
     1
102
RTVSPost2010Prop45
280
     0
102
RTVSPost2010PropOp45
 70
     1
102
RTVSPost2010Prop46
 90
       50
102
RTVSPost2010PropOp46
 70
     1
102
RTVSPost2010Prop47
 90
       50
102
RTVSPost2010PropOp47
 70
     1
102
RTVSPost2010Prop48
 90
       50
102
RTVSPost2010PropOp48
 70
     1
102
RTVSPost2010Prop49
280
     0
102
RTVSPost2010PropOp49
 70
     1
102
RTVSPost2010Prop50
 90
       50
102
RTVSPost2010PropOp50
 70
     1
102
RTVSPost2010Prop51ColorIndex
 90
      256
102
RTVSPost2010Prop51ColorRGB
 90
-16777216
102
RTVSPost2010PropOp51
 70
     0
102
RTVSPost2010Prop52
140
1.0
102
RTVSPost2010PropOp52
 70
     0
102
RTVSPost2010Prop53
 90
        2
102
RTVSPost2010PropOp53
 70
     1
102
RTVSPost2010Prop54
  1
strokes_ogs.tif
102
RTVSPost2010PropOp54
 70
     1
102
RTVSPost2010Prop55
280
     0
102
RTVSPost2010PropOp55
 70
     1
102
RTVSPost2010Prop56
140
1.0
102
RTVSPost2010PropOp56
 70
     1
102
RTVSPost2010Prop57
140
1.0
102
RTVSPost2010PropOp57
 70
     1
  0
XRECORD
  5
3F6
102
{ACAD_REACTORS
330
3F5
102
}
330
3F5
100
AcDbXrecord
280
     1
102
RTVSPropertyOp0
 70
     1
102
RTVSPropertyOp1
 70
     1
102
RTVSPropertyOp2
 70
     1
102
RTVSPropertyOp3
 70
     1
102
RTVSPropertyOp4
 70
     1
102
RTVSPropertyOp5
 70
     1
102
RTVSPropertyOp6
 70
     1
102
RTVSPropertyOp7
 70
     1
102
RTVSPropertyOp8
 70
     1
102
RTVSPropertyOp9
 70
     1
102
RTVSPropertyOp10
 70
     1
102
RTVSPropertyOp11
 70
     1
102
RTVSPropertyOp12
 70
     1
102
RTVSPropertyOp13
 70
     1
102
RTVSPropertyOp14
 70
     1
102
RTVSPropertyOp15
 70
     1
102
RTVSPropertyOp16
 70
     1
102
RTVSPropertyOp17
 70
     1
102
RTVSPropertyOp18
 70
     1
102
RTVSPropertyOp19
 70
     1
102
RTVSPropertyOp20
 70
     1
102
RTVSPropertyOp21
 70
     1
102
RTVSPropertyOp22
 70
     1
102
RTVSPropertyOp23
 70
     1
102
RTVSPropertyOp24
 70
     1
102
RTVSPropertyOp25
 70
     1
102
RTVSPropertyOp26
 70
     1
102
RTVSPropertyOp27
 70
     1
102
RTVSPropertyOp28
 70
     1
102
RTVSPropertyOp29
 70
     1
102
RTVSPropertyOp30
 70
     1
102
RTVSPropertyOp31
 70
     1
102
RTVSPropertyOp32
 70
     1
102
RTVSPropertyOp33
 70
     1
102
RTVSPropertyOp34
 70
     1
102
RTVSPropertyOp35
 70
     1
102
RTVSPropertyOp36
 70
     1
102
RTVSPropertyOp37
 70
     1
102
RTVSPropertyOp38
 70
     1
102
RTVSPropertyOp39
 70
     1
102
RTVSPropertyOp40
 70
     1
102
RTVSPropertyOp41
 70
     1
102
RTVSPropertyOp42
 70
     1
102
RTVSPropertyOp43
 70
     1
102
RTVSPropertyOp44
 70
     1
102
RTVSPropertyOp45
 70
     1
102
RTVSPropertyOp46
 70
     1
102
RTVSPropertyOp47
 70
     1
102
RTVSPropertyOp48
 70
     1
102
RTVSPropertyOp49
 70
     1
102
RTVSPropertyOp50
 70
     1
102
RTVSPropertyOp51
 70
     0
102
RTVSPropertyOp52
 70
     0
102
RTVSPropertyOp53
 70
     1
102
RTVSPropertyOp54
 70
     1
102
RTVSPropertyOp55
 70
     1
102
RTVSPropertyOp56
 70
     1
102
RTVSPropertyOp57
 70
     1
102
RTVSPost2010Prop28
280
     0
102
RTVSPost2010PropOp28
 70
     1
102
RTVSPost2010Prop29
280
     1
102
RTVSPost2010PropOp29
 70
     1
102
RTVSPost2010Prop30
280
     1
102
RTVSPost2010PropOp30
 70
     1
102
RTVSPost2010Prop31
280
     0
102
RTVSPost2010PropOp31
 70
     1
102
RTVSPost2010Prop32
280
     0
102
RTVSPost2010PropOp32
 70
     1
102
RTVSPost2010Prop33
280
     0
102
RTVSPost2010PropOp33
 70
     1
102
RTVSPost2010Prop34
280
     0
102
RTVSPost2010PropOp34
 70
     1
102
RTVSPost2010Prop35
280
     0
102
RTVSPost2010PropOp35
 70
     1
102
RTVSPost2010Prop36
280
     0
102
RTVSPost2010PropOp36
 70
     1
102
RTVSPost2010Prop37
 90
       50
102
RTVSPost2010PropOp37
 70
     1
102
RTVSPost2010Prop38
140
0.0
102
RTVSPost2010PropOp38
 70
     1
102
RTVSPost2010Prop39
140
1.0
102
RTVSPost2010PropOp39
 70
     1
102
RTVSPost2010Prop40
 90
        0
102
RTVSPost2010PropOp40
 70
     1
102
RTVSPost2010Prop41ColorIndex
 90
       18
102
RTVSPost2010Prop41ColorRGB
 90
        0
102
RTVSPost2010PropOp41
 70
     1
102
RTVSPost2010Prop42
 90
       50
102
RTVSPost2010PropOp42
 70
     1
102
RTVSPost2010Prop43
 90
        3
102
RTVSPost2010PropOp43
 70
     1
102
RTVSPost2010Prop44ColorIndex
 90
        5
102
RTVSPost2010Prop44ColorRGB
 90
      255
102
RTVSPost2010PropOp44
 70
     1
102
RTVSPost2010Prop45
280
     0
102
RTVSPost2010PropOp45
 70
     1
102
RTVSPost2010Prop46
 90
       50
102
RTVSPost2010PropOp46
 70
     1
102
RTVSPost2010Prop47
 90
       50
102
RTVSPost2010PropOp47
 70
     1
102
RTVSPost2010Prop48
 90
       50
102
RTVSPost2010PropOp48
 70
     1
102
RTVSPost2010Prop49
280
     0
102
RTVSPost2010PropOp49
 70
     1
102
RTVSPost2010Prop50
 90
       50
102
RTVSPost2010PropOp50
 70
     1
102
RTVSPost2010Prop51ColorIndex
 90
      256
102
RTVSPost2010Prop51ColorRGB
 90
-16777216
102
RTVSPost2010PropOp51
 70
     0
102
RTVSPost2010Prop52
140
1.0
102
RTVSPost2010PropOp52
 70
     0
102
RTVSPost2010Prop53
 90
        2
102
RTVSPost2010PropOp53
 70
     1
102
RTVSPost2010Prop54
  1
strokes_ogs.tif
102
RTVSPost2010PropOp54
 70
     1
102
RTVSPost2010Prop55
280
     0
102
RTVSPost2010PropOp55
 70
     1
102
RTVSPost2010Prop56
140
1.0
102
RTVSPost2010PropOp56
 70
     1
102
RTVSPost2010Prop57
140
1.0
102
RTVSPost2010PropOp57
 70
     1
  0
XRECORD
  5
3E8
102
{ACAD_REACTORS
330
3E7
102
}
330
3E7
100
AcDbXrecord
280
     1
102
RTVSPropertyOp0
 70
     1
102
RTVSPropertyOp1
 70
     1
102
RTVSPropertyOp2
 70
     1
102
RTVSPropertyOp3
 70
     1
102
RTVSPropertyOp4
 70
     1
102
RTVSPropertyOp5
 70
     1
102
RTVSPropertyOp6
 70
     1
102
RTVSPropertyOp7
 70
     1
102
RTVSPropertyOp8
 70
     1
102
RTVSPropertyOp9
 70
     1
102
RTVSPropertyOp10
 70
     1
102
RTVSPropertyOp11
 70
     1
102
RTVSPropertyOp12
 70
     1
102
RTVSPropertyOp13
 70
     1
102
RTVSPropertyOp14
 70
     1
102
RTVSPropertyOp15
 70
     1
102
RTVSPropertyOp16
 70
     1
102
RTVSPropertyOp17
 70
     1
102
RTVSPropertyOp18
 70
     1
102
RTVSPropertyOp19
 70
     1
102
RTVSPropertyOp20
 70
     1
102
RTVSPropertyOp21
 70
     1
102
RTVSPropertyOp22
 70
     1
102
RTVSPropertyOp23
 70
     1
102
RTVSPropertyOp24
 70
     1
102
RTVSPropertyOp25
 70
     1
102
RTVSPropertyOp26
 70
     1
102
RTVSPropertyOp27
 70
     1
102
RTVSPropertyOp28
 70
     1
102
RTVSPropertyOp29
 70
     1
102
RTVSPropertyOp30
 70
     1
102
RTVSPropertyOp31
 70
     1
102
RTVSPropertyOp32
 70
     1
102
RTVSPropertyOp33
 70
     1
102
RTVSPropertyOp34
 70
     1
102
RTVSPropertyOp35
 70
     1
102
RTVSPropertyOp36
 70
     1
102
RTVSPropertyOp37
 70
     1
102
RTVSPropertyOp38
 70
     1
102
RTVSPropertyOp39
 70
     1
102
RTVSPropertyOp40
 70
     1
102
RTVSPropertyOp41
 70
     1
102
RTVSPropertyOp42
 70
     1
102
RTVSPropertyOp43
 70
     1
102
RTVSPropertyOp44
 70
     1
102
RTVSPropertyOp45
 70
     1
102
RTVSPropertyOp46
 70
     1
102
RTVSPropertyOp47
 70
     1
102
RTVSPropertyOp48
 70
     1
102
RTVSPropertyOp49
 70
     1
102
RTVSPropertyOp50
 70
     1
102
RTVSPropertyOp51
 70
     0
102
RTVSPropertyOp52
 70
     0
102
RTVSPropertyOp53
 70
     1
102
RTVSPropertyOp54
 70
     1
102
RTVSPropertyOp55
 70
     1
102
RTVSPropertyOp56
 70
     1
102
RTVSPropertyOp57
 70
     1
102
RTVSPost2010Prop28
280
     0
102
RTVSPost2010PropOp28
 70
     1
102
RTVSPost2010Prop29
280
     1
102
RTVSPost2010PropOp29
 70
     1
102
RTVSPost2010Prop30
280
     1
102
RTVSPost2010PropOp30
 70
     1
102
RTVSPost2010Prop31
280
     0
102
RTVSPost2010PropOp31
 70
     1
102
RTVSPost2010Prop32
280
     0
102
RTVSPost2010PropOp32
 70
     1
102
RTVSPost2010Prop33
280
     0
102
RTVSPost2010PropOp33
 70
     1
102
RTVSPost2010Prop34
280
     0
102
RTVSPost2010PropOp34
 70
     1
102
RTVSPost2010Prop35
280
     0
102
RTVSPost2010PropOp35
 70
     1
102
RTVSPost2010Prop36
280
     0
102
RTVSPost2010PropOp36
 70
     1
102
RTVSPost2010Prop37
 90
       50
102
RTVSPost2010PropOp37
 70
     1
102
RTVSPost2010Prop38
140
0.0
102
RTVSPost2010PropOp38
 70
     1
102
RTVSPost2010Prop39
140
1.0
102
RTVSPost2010PropOp39
 70
     1
102
RTVSPost2010Prop40
 90
        0
102
RTVSPost2010PropOp40
 70
     1
102
RTVSPost2010Prop41ColorIndex
 90
       18
102
RTVSPost2010Prop41ColorRGB
 90
        0
102
RTVSPost2010PropOp41
 70
     1
102
RTVSPost2010Prop42
 90
       50
102
RTVSPost2010PropOp42
 70
     1
102
RTVSPost2010Prop43
 90
        3
102
RTVSPost2010PropOp43
 70
     1
102
RTVSPost2010Prop44ColorIndex
 90
        5
102
RTVSPost2010Prop44ColorRGB
 90
      255
102
RTVSPost2010PropOp44
 70
     1
102
RTVSPost2010Prop45
280
     0
102
RTVSPost2010PropOp45
 70
     1
102
RTVSPost2010Prop46
 90
       50
102
RTVSPost2010PropOp46
 70
     1
102
RTVSPost2010Prop47
 90
       50
102
RTVSPost2010PropOp47
 70
     1
102
RTVSPost2010Prop48
 90
       50
102
RTVSPost2010PropOp48
 70
     1
102
RTVSPost2010Prop49
280
     0
102
RTVSPost2010PropOp49
 70
     1
102
RTVSPost2010Prop50
 90
       50
102
RTVSPost2010PropOp50
 70
     1
102
RTVSPost2010Prop51ColorIndex
 90
      256
102
RTVSPost2010Prop51ColorRGB
 90
-16777216
102
RTVSPost2010PropOp51
 70
     0
102
RTVSPost2010Prop52
140
1.0
102
RTVSPost2010PropOp52
 70
     0
102
RTVSPost2010Prop53
 90
        2
102
RTVSPost2010PropOp53
 70
     1
102
RTVSPost2010Prop54
  1
strokes_ogs.tif
102
RTVSPost2010PropOp54
 70
     1
102
RTVSPost2010Prop55
280
     0
102
RTVSPost2010PropOp55
 70
     1
102
RTVSPost2010Prop56
140
1.0
102
RTVSPost2010PropOp56
 70
     1
102
RTVSPost2010Prop57
140
1.0
102
RTVSPost2010PropOp57
 70
     1
  0
XRECORD
  5
408
102
{ACAD_REACTORS
330
407
102
}
330
407
100
AcDbXrecord
280
     1
102
RTVSPropertyOp0
 70
     1
102
RTVSPropertyOp1
 70
     1
102
RTVSPropertyOp2
 70
     1
102
RTVSPropertyOp3
 70
     1
102
RTVSPropertyOp4
 70
     1
102
RTVSPropertyOp5
 70
     1
102
RTVSPropertyOp6
 70
     1
102
RTVSPropertyOp7
 70
     1
102
RTVSPropertyOp8
 70
     1
102
RTVSPropertyOp9
 70
     1
102
RTVSPropertyOp10
 70
     1
102
RTVSPropertyOp11
 70
     1
102
RTVSPropertyOp12
 70
     1
102
RTVSPropertyOp13
 70
     1
102
RTVSPropertyOp14
 70
     1
102
RTVSPropertyOp15
 70
     1
102
RTVSPropertyOp16
 70
     1
102
RTVSPropertyOp17
 70
     1
102
RTVSPropertyOp18
 70
     1
102
RTVSPropertyOp19
 70
     1
102
RTVSPropertyOp20
 70
     1
102
RTVSPropertyOp21
 70
     1
102
RTVSPropertyOp22
 70
     1
102
RTVSPropertyOp23
 70
     1
102
RTVSPropertyOp24
 70
     1
102
RTVSPropertyOp25
 70
     1
102
RTVSPropertyOp26
 70
     1
102
RTVSPropertyOp27
 70
     1
102
RTVSPropertyOp28
 70
     1
102
RTVSPropertyOp29
 70
     1
102
RTVSPropertyOp30
 70
     1
102
RTVSPropertyOp31
 70
     1
102
RTVSPropertyOp32
 70
     1
102
RTVSPropertyOp33
 70
     1
102
RTVSPropertyOp34
 70
     1
102
RTVSPropertyOp35
 70
     1
102
RTVSPropertyOp36
 70
     1
102
RTVSPropertyOp37
 70
     1
102
RTVSPropertyOp38
 70
     1
102
RTVSPropertyOp39
 70
     1
102
RTVSPropertyOp40
 70
     1
102
RTVSPropertyOp41
 70
     1
102
RTVSPropertyOp42
 70
     1
102
RTVSPropertyOp43
 70
     1
102
RTVSPropertyOp44
 70
     1
102
RTVSPropertyOp45
 70
     1
102
RTVSPropertyOp46
 70
     1
102
RTVSPropertyOp47
 70
     1
102
RTVSPropertyOp48
 70
     1
102
RTVSPropertyOp49
 70
     1
102
RTVSPropertyOp50
 70
     1
102
RTVSPropertyOp51
 70
     0
102
RTVSPropertyOp52
 70
     0
102
RTVSPropertyOp53
 70
     1
102
RTVSPropertyOp54
 70
     1
102
RTVSPropertyOp55
 70
     1
102
RTVSPropertyOp56
 70
     1
102
RTVSPropertyOp57
 70
     1
102
RTVSPost2010Prop28
280
     0
102
RTVSPost2010PropOp28
 70
     1
102
RTVSPost2010Prop29
280
     1
102
RTVSPost2010PropOp29
 70
     1
102
RTVSPost2010Prop30
280
     1
102
RTVSPost2010PropOp30
 70
     1
102
RTVSPost2010Prop31
280
     0
102
RTVSPost2010PropOp31
 70
     1
102
RTVSPost2010Prop32
280
     0
102
RTVSPost2010PropOp32
 70
     1
102
RTVSPost2010Prop33
280
     0
102
RTVSPost2010PropOp33
 70
     1
102
RTVSPost2010Prop34
280
     0
102
RTVSPost2010PropOp34
 70
     1
102
RTVSPost2010Prop35
280
     0
102
RTVSPost2010PropOp35
 70
     1
102
RTVSPost2010Prop36
280
     0
102
RTVSPost2010PropOp36
 70
     1
102
RTVSPost2010Prop37
 90
       50
102
RTVSPost2010PropOp37
 70
     1
102
RTVSPost2010Prop38
140
0.0
102
RTVSPost2010PropOp38
 70
     1
102
RTVSPost2010Prop39
140
1.0
102
RTVSPost2010PropOp39
 70
     1
102
RTVSPost2010Prop40
 90
        0
102
RTVSPost2010PropOp40
 70
     1
102
RTVSPost2010Prop41ColorIndex
 90
       18
102
RTVSPost2010Prop41ColorRGB
 90
        0
102
RTVSPost2010PropOp41
 70
     1
102
RTVSPost2010Prop42
 90
       50
102
RTVSPost2010PropOp42
 70
     1
102
RTVSPost2010Prop43
 90
        3
102
RTVSPost2010PropOp43
 70
     1
102
RTVSPost2010Prop44ColorIndex
 90
        5
102
RTVSPost2010Prop44ColorRGB
 90
      255
102
RTVSPost2010PropOp44
 70
     1
102
RTVSPost2010Prop45
280
     0
102
RTVSPost2010PropOp45
 70
     1
102
RTVSPost2010Prop46
 90
       50
102
RTVSPost2010PropOp46
 70
     1
102
RTVSPost2010Prop47
 90
       50
102
RTVSPost2010PropOp47
 70
     1
102
RTVSPost2010Prop48
 90
       50
102
RTVSPost2010PropOp48
 70
     1
102
RTVSPost2010Prop49
280
     0
102
RTVSPost2010PropOp49
 70
     1
102
RTVSPost2010Prop50
 90
       50
102
RTVSPost2010PropOp50
 70
     1
102
RTVSPost2010Prop51ColorIndex
 90
      256
102
RTVSPost2010Prop51ColorRGB
 90
-16777216
102
RTVSPost2010PropOp51
 70
     0
102
RTVSPost2010Prop52
140
1.0
102
RTVSPost2010PropOp52
 70
     0
102
RTVSPost2010Prop53
 90
        2
102
RTVSPost2010PropOp53
 70
     1
102
RTVSPost2010Prop54
  1
strokes_ogs.tif
102
RTVSPost2010PropOp54
 70
     1
102
RTVSPost2010Prop55
280
     0
102
RTVSPost2010PropOp55
 70
     1
102
RTVSPost2010Prop56
140
1.0
102
RTVSPost2010PropOp56
 70
     1
102
RTVSPost2010Prop57
140
1.0
102
RTVSPost2010PropOp57
 70
     1
  0
ENDSEC
  0
EOF
