  0
SECTION
  2
HEADER
  9
$ACADVER
  1
AC1024
  9
$ACADMAINTVER
 70
     6
  9
$DWGCODEPAGE
  3
ANSI_1252
  9
$INSBASE
 10
0.0
 20
0.0
 30
0.0
  9
$EXTMIN
 10
1.000000E+20
 20
1.000000E+20
 30
1.000000E+20
  9
$EXTMAX
 10
-1.000000E+20
 20
-1.000000E+20
 30
-1.000000E+20
  9
$LIMMIN
 10
0.0
 20
0.0
  9
$LIMMAX
 10
420.0
 20
297.0
  9
$ORTHOMODE
 70
     0
  9
$REGENMODE
 70
     1
  9
$FILLMODE
 70
     1
  9
$QTEXTMODE
 70
     0
  9
$MIRRTEXT
 70
     1
  9
$LTSCALE
 40
1.0
  9
$ATTMODE
 70
     1
  9
$TEXTSIZE
 40
2.5
  9
$TRACEWID
 40
1.0
  9
$TEXTSTYLE
  7
Standard
  9
$CLAYER
  8
0
  9
$CELTYPE
  6
ByLayer
  9
$CECOLOR
 62
   256
  9
$CELTSCALE
 40
1.0
  9
$DISPSILH
 70
     0
  9
$DIMSCALE
 40
1.0
  9
$DIMASZ
 40
2.5
  9
$DIMEXO
 40
0.625
  9
$DIMDLI
 40
3.75
  9
$DIMRND
 40
0.0
  9
$DIMDLE
 40
0.0
  9
$DIMEXE
 40
1.25
  9
$DIMTP
 40
0.0
  9
$DIMTM
 40
0.0
  9
$DIMTXT
 40
2.5
  9
$DIMCEN
 40
2.5
  9
$DIMTSZ
 40
0.0
  9
$DIMTOL
 70
     0
  9
$DIMLIM
 70
     0
  9
$DIMTIH
 70
     0
  9
$DIMTOH
 70
     0
  9
$DIMSE1
 70
     0
  9
$DIMSE2
 70
     0
  9
$DIMTAD
 70
     1
  9
$DIMZIN
 70
     8
  9
$DIMBLK
  1

  9
$DIMASO
 70
     1
  9
$DIMSHO
 70
     1
  9
$DIMPOST
  1

  9
$DIMAPOST
  1

  9
$DIMALT
 70
     0
  9
$DIMALTD
 70
     3
  9
$DIMALTF
 40
0.03937
  9
$DIMLFAC
 40
1.0
  9
$DIMTOFL
 70
     1
  9
$DIMTVP
 40
0.0
  9
$DIMTIX
 70
     0
  9
$DIMSOXD
 70
     0
  9
$DIMSAH
 70
     0
  9
$DIMBLK1
  1

  9
$DIMBLK2
  1

  9
$DIMSTYLE
  2
ISO-25
  9
$DIMCLRD
 70
     0
  9
$DIMCLRE
 70
     0
  9
$DIMCLRT
 70
     0
  9
$DIMTFAC
 40
1.0
  9
$DIMGAP
 40
0.625
  9
$DIMJUST
 70
     0
  9
$DIMSD1
 70
     0
  9
$DIMSD2
 70
     0
  9
$DIMTOLJ
 70
     0
  9
$DIMTZIN
 70
     8
  9
$DIMALTZ
 70
     0
  9
$DIMALTTZ
 70
     0
  9
$DIMUPT
 70
     0
  9
$DIMDEC
 70
     2
  9
$DIMTDEC
 70
     2
  9
$DIMALTU
 70
     2
  9
$DIMALTTD
 70
     3
  9
$DIMTXSTY
  7
Standard
  9
$DIMAUNIT
 70
     0
  9
$DIMADEC
 70
     0
  9
$DIMALTRND
 40
0.0
  9
$DIMAZIN
 70
     0
  9
$DIMDSEP
 70
    44
  9
$DIMATFIT
 70
     3
  9
$DIMFRAC
 70
     0
  9
$DIMLDRBLK
  1

  9
$DIMLUNIT
 70
     2
  9
$DIMLWD
 70
    -2
  9
$DIMLWE
 70
    -2
  9
$DIMTMOVE
 70
     0
  9
$DIMFXL
 40
1.0
  9
$DIMFXLON
 70
     0
  9
$DIMJOGANG
 40
0.785398
  9
$DIMTFILL
 70
     0
  9
$DIMTFILLCLR
 70
     0
  9
$DIMARCSYM
 70
     0
  9
$DIMLTYPE
  6

  9
$DIMLTEX1
  6

  9
$DIMLTEX2
  6

  9
$DIMTXTDIRECTION
 70
     0
  9
$LUNITS
 70
     2
  9
$LUPREC
 70
     4
  9
$SKETCHINC
 40
1.0
  9
$FILLETRAD
 40
10.0
  9
$AUNITS
 70
     0
  9
$AUPREC
 70
     0
  9
$MENU
  1
.
  9
$ELEVATION
 40
0.0
  9
$PELEVATION
 40
0.0
  9
$THICKNESS
 40
0.0
  9
$LIMCHECK
 70
     0
  9
$CHAMFERA
 40
0.0
  9
$CHAMFERB
 40
0.0
  9
$CHAMFERC
 40
0.0
  9
$CHAMFERD
 40
0.0
  9
$SKPOLY
 70
     0
  9
$TDCREATE
 40
2457826.628986794
  9
$TDUCREATE
 40
2457826.587320128
  9
$TDUPDATE
 40
2457826.628987581
  9
$TDUUPDATE
 40
2457826.587320914
  9
$TDINDWG
 40
0.0000000116
  9
$TDUSRTIMER
 40
0.0000000116
  9
$USRTIMER
 70
     1
  9
$ANGBASE
 50
0.0
  9
$ANGDIR
 70
     0
  9
$PDMODE
 70
     0
  9
$PDSIZE
 40
0.0
  9
$PLINEWID
 40
0.0
  9
$SPLFRAME
 70
     0
  9
$SPLINETYPE
 70
     6
  9
$SPLINESEGS
 70
     8
  9
$HANDSEED
  5
3EA
  9
$SURFTAB1
 70
     6
  9
$SURFTAB2
 70
     6
  9
$SURFTYPE
 70
     6
  9
$SURFU
 70
     6
  9
$SURFV
 70
     6
  9
$UCSBASE
  2

  9
$UCSNAME
  2

  9
$UCSORG
 10
0.0
 20
0.0
 30
0.0
  9
$UCSXDIR
 10
1.0
 20
0.0
 30
0.0
  9
$UCSYDIR
 10
0.0
 20
1.0
 30
0.0
  9
$UCSORTHOREF
  2

  9
$UCSORTHOVIEW
 70
     0
  9
$UCSORGTOP
 10
0.0
 20
0.0
 30
0.0
  9
$UCSORGBOTTOM
 10
0.0
 20
0.0
 30
0.0
  9
$UCSORGLEFT
 10
0.0
 20
0.0
 30
0.0
  9
$UCSORGRIGHT
 10
0.0
 20
0.0
 30
0.0
  9
$UCSORGFRONT
 10
0.0
 20
0.0
 30
0.0
  9
$UCSORGBACK
 10
0.0
 20
0.0
 30
0.0
  9
$PUCSBASE
  2

  9
$PUCSNAME
  2

  9
$PUCSORG
 10
0.0
 20
0.0
 30
0.0
  9
$PUCSXDIR
 10
1.0
 20
0.0
 30
0.0
  9
$PUCSYDIR
 10
0.0
 20
1.0
 30
0.0
  9
$PUCSORTHOREF
  2

  9
$PUCSORTHOVIEW
 70
     0
  9
$PUCSORGTOP
 10
0.0
 20
0.0
 30
0.0
  9
$PUCSORGBOTTOM
 10
0.0
 20
0.0
 30
0.0
  9
$PUCSORGLEFT
 10
0.0
 20
0.0
 30
0.0
  9
$PUCSORGRIGHT
 10
0.0
 20
0.0
 30
0.0
  9
$PUCSORGFRONT
 10
0.0
 20
0.0
 30
0.0
  9
$PUCSORGBACK
 10
0.0
 20
0.0
 30
0.0
  9
$USERI1
 70
     0
  9
$USERI2
 70
     0
  9
$USERI3
 70
     0
  9
$USERI4
 70
     0
  9
$USERI5
 70
     0
  9
$USERR1
 40
0.0
  9
$USERR2
 40
0.0
  9
$USERR3
 40
0.0
  9
$USERR4
 40
0.0
  9
$USERR5
 40
0.0
  9
$WORLDVIEW
 70
     1
  9
$SHADEDGE
 70
     3
  9
$SHADEDIF
 70
    70
  9
$TILEMODE
 70
     1
  9
$MAXACTVP
 70
    64
  9
$PINSBASE
 10
0.0
 20
0.0
 30
0.0
  9
$PLIMCHECK
 70
     0
  9
$PEXTMIN
 10
1.000000E+20
 20
1.000000E+20
 30
1.000000E+20
  9
$PEXTMAX
 10
-1.000000E+20
 20
-1.000000E+20
 30
-1.000000E+20
  9
$PLIMMIN
 10
0.0
 20
0.0
  9
$PLIMMAX
 10
420.0
 20
297.0
  9
$UNITMODE
 70
     0
  9
$VISRETAIN
 70
     1
  9
$PLINEGEN
 70
     0
  9
$PSLTSCALE
 70
     1
  9
$TREEDEPTH
 70
  3020
  9
$CMLSTYLE
  2
Standard
  9
$CMLJUST
 70
     0
  9
$CMLSCALE
 40
20.0
  9
$PROXYGRAPHICS
 70
     1
  9
$MEASUREMENT
 70
     1
  9
$CELWEIGHT
370
    -1
  9
$ENDCAPS
280
     0
  9
$JOINSTYLE
280
     0
  9
$LWDISPLAY
290
     0
  9
$INSUNITS
 70
     4
  9
$HYPERLINKBASE
  1

  9
$STYLESHEET
  1

  9
$XEDIT
290
     1
  9
$CEPSNTYPE
380
     0
  9
$PSTYLEMODE
290
     1
  9
$FINGERPRINTGUID
  2
{338A97FF-F84C-4EBC-B3EF-88F7ED70DFD4}
  9
$VERSIONGUID
  2
{FAEB1C32-E019-11D5-929B-00C0DF256EC4}
  9
$EXTNAMES
290
     1
  9
$PSVPSCALE
 40
0.0
  9
$OLESTARTUP
290
     0
  9
$SORTENTS
280
   127
  9
$INDEXCTL
280
     0
  9
$HIDETEXT
280
     1
  9
$XCLIPFRAME
280
     2
  9
$HALOGAP
280
     0
  9
$OBSCOLOR
 70
   257
  9
$OBSLTYPE
280
     0
  9
$INTERSECTIONDISPLAY
280
     0
  9
$INTERSECTIONCOLOR
 70
   257
  9
$DIMASSOC
280
     2
  9
$PROJECTNAME
  1

  9
$CAMERADISPLAY
290
     0
  9
$LENSLENGTH
 40
50.0
  9
$CAMERAHEIGHT
 40
0.0
  9
$STEPSPERSEC
 40
2.0
  9
$STEPSIZE
 40
6.0
  9
$3DDWFPREC
 40
2.0
  9
$PSOLWIDTH
 40
5.0
  9
$PSOLHEIGHT
 40
80.0
  9
$LOFTANG1
 40
1.570796
  9
$LOFTANG2
 40
1.570796
  9
$LOFTMAG1
 40
0.0
  9
$LOFTMAG2
 40
0.0
  9
$LOFTPARAM
 70
     7
  9
$LOFTNORMALS
280
     1
  9
$LATITUDE
 40
37.795
  9
$LONGITUDE
 40
-122.394
  9
$NORTHDIRECTION
 40
0.0
  9
$TIMEZONE
 70
 -8000
  9
$LIGHTGLYPHDISPLAY
280
     1
  9
$TILEMODELIGHTSYNCH
280
     1
  9
$CMATERIAL
347
44
  9
$SOLIDHIST
280
     0
  9
$SHOWHIST
280
     1
  9
$DWFFRAME
280
     2
  9
$DGNFRAME
280
     2
  9
$REALWORLDSCALE
290
     1
  9
$INTERFERECOLOR
 62
   256
  9
$CSHADOW
280
     0
  9
$SHADOWPLANELOCATION
 40
0.0
  0
ENDSEC
  0
SECTION
  2
CLASSES
  0
CLASS
  1
ACDBDICTIONARYWDFLT
  2
AcDbDictionaryWithDefault
  3
ObjectDBX Classes
 90
        0
 91
        4
280
     0
281
     0
  0
CLASS
  1
VISUALSTYLE
  2
AcDbVisualStyle
  3
ObjectDBX Classes
 90
     4095
 91
        4
280
     0
281
     0
  0
CLASS
  1
MATERIAL
  2
AcDbMaterial
  3
ObjectDBX Classes
 90
     1153
 91
        4
280
     0
281
     0
  0
CLASS
  1
SCALE
  2
AcDbScale
  3
ObjectDBX Classes
 90
     1153
 91
        4
280
     0
281
     0
  0
CLASS
  1
TABLESTYLE
  2
AcDbTableStyle
  3
ObjectDBX Classes
 90
     4095
 91
        4
280
     0
281
     0
  0
CLASS
  1
MLEADERSTYLE
  2
AcDbMLeaderStyle
  3
ACDB_MLEADERSTYLE_CLASS
 90
     4095
 91
        4
280
     0
281
     0
  0
CLASS
  1
SUN
  2
AcDbSun
  3
SCENEOE
 90
     1153
 91
        4
280
     0
281
     0
  0
CLASS
  1
DICTIONARYVAR
  2
AcDbDictionaryVar
  3
ObjectDBX Classes
 90
        0
 91
        4
280
     0
281
     0
  0
CLASS
  1
CELLSTYLEMAP
  2
AcDbCellStyleMap
  3
ObjectDBX Classes
 90
     1152
 91
        4
280
     0
281
     0
  0
ENDSEC
  0
SECTION
  2
TABLES
  0
TABLE
  2
VPORT
  5
8
330
0
100
AcDbSymbolTable
 70
     1
  0
VPORT
  5
29
330
8
100
AcDbSymbolTableRecord
100
AcDbViewportTableRecord
  2
*Active
 70
     0
 10
0.0
 20
0.0
 11
1.0
 21
1.0
 12
344.186916
 22
148.5
 13
0.0
 23
0.0
 14
10.0
 24
10.0
 15
10.0
 25
10.0
 16
0.0
 26
0.0
 36
1.0
 17
0.0
 27
0.0
 37
0.0
 40
297.0
 41
1.972973
 42
50.0
 43
0.0
 44
0.0
 50
0.0
 51
0.0
 71
     0
 72
   100
 73
     1
 74
     3
 75
     0
 76
     0
 77
     0
 78
     0
281
     0
 65
     1
110
0.0
120
0.0
130
0.0
111
1.0
121
0.0
131
0.0
112
0.0
122
1.0
132
0.0
 79
     0
146
0.0
348
2F
 60
     3
 61
     5
292
     1
282
     1
141
0.0
142
0.0
 63
   250
361
6D
  0
ENDTAB
  0
TABLE
  2
LTYPE
  5
5
330
0
100
AcDbSymbolTable
 70
     1
  0
LTYPE
  5
14
330
5
100
AcDbSymbolTableRecord
100
AcDbLinetypeTableRecord
  2
ByBlock
 70
     0
  3

 72
    65
 73
     0
 40
0.0
  0
LTYPE
  5
15
330
5
100
AcDbSymbolTableRecord
100
AcDbLinetypeTableRecord
  2
ByLayer
 70
     0
  3

 72
    65
 73
     0
 40
0.0
  0
LTYPE
  5
16
330
5
100
AcDbSymbolTableRecord
100
AcDbLinetypeTableRecord
  2
Continuous
 70
     0
  3
Solid line
 72
    65
 73
     0
 40
0.0
  0
ENDTAB
  0
TABLE
  2
LAYER
  5
2
330
0
100
AcDbSymbolTable
 70
     1
  0
LAYER
  5
10
330
2
100
AcDbSymbolTableRecord
100
AcDbLayerTableRecord
  2
0
 70
     0
 62
   106
  6
Continuous
370
     0
390
F
347
46
  0
ENDTAB
  0
TABLE
  2
STYLE
  5
3
330
0
100
AcDbSymbolTable
 70
     4
  0
STYLE
  5
11
330
3
100
AcDbSymbolTableRecord
100
AcDbTextStyleTableRecord
  2
Standard
 70
     0
 40
0.0
 41
1.0
 50
0.0
 71
     0
 42
2.5
  3
txt
  4

  0
STYLE
  5
6E
330
3
100
AcDbSymbolTableRecord
100
AcDbTextStyleTableRecord
  2
Default
 70
     0
 40
0.0
 41
1.0
 50
0.0
 71
     0
 42
2.5
  3

  4

1001
ACAD
1000
txt
1071
        0
  0
STYLE
  5
6F
330
3
100
AcDbSymbolTableRecord
100
AcDbTextStyleTableRecord
  2
ISO
 70
     0
 40
0.0
 41
1.0
 50
0.0
 71
     0
 42
2.5
  3

  4

1001
ACAD
1000
txt
1071
        0
  0
STYLE
  5
70
330
3
100
AcDbSymbolTableRecord
100
AcDbTextStyleTableRecord
  2
zucchetti
 70
     0
 40
0.0
 41
1.0
 50
0.0
 71
     0
 42
2.5
  3

  4

1001
ACAD
1000
Arial
1071
        0
  0
ENDTAB
  0
TABLE
  2
VIEW
  5
6
330
0
100
AcDbSymbolTable
 70
     0
  0
ENDTAB
  0
TABLE
  2
UCS
  5
7
330
0
100
AcDbSymbolTable
 70
     0
  0
ENDTAB
  0
TABLE
  2
APPID
  5
9
330
0
100
AcDbSymbolTable
 70
     1
  0
APPID
  5
12
330
9
100
AcDbSymbolTableRecord
100
AcDbRegAppTableRecord
  2
ACAD
 70
     0
  0
ENDTAB
  0
TABLE
  2
DIMSTYLE
  5
A
330
0
100
AcDbSymbolTable
 70
     4
100
AcDbDimStyleTable
  0
DIMSTYLE
105
27
330
A
100
AcDbSymbolTableRecord
100
AcDbDimStyleTableRecord
  2
ISO-25
 70
     0
 41
2.5
 42
0.625
 43
3.75
 44
1.25
 73
     0
 74
     0
 77
     1
 78
     8
140
2.5
141
2.5
143
0.03937
147
0.625
171
     3
172
     1
178
     0
271
     2
272
     2
274
     3
278
    44
283
     0
284
     8
340
11
  0
DIMSTYLE
105
71
330
A
100
AcDbSymbolTableRecord
100
AcDbDimStyleTableRecord
  2
Default
 70
     0
  3
<>
 41
4.375
 42
1.05
 44
2.1
 49
10.01
 73
     0
 74
     0
 77
     1
 78
     8
140
3.5
146
0.4
147
1.75
172
     1
271
     2
178
     3
271
     2
272
     3
284
     8
340
6E
341
72
342
72
  0
DIMSTYLE
105
79
330
A
100
AcDbSymbolTableRecord
100
AcDbDimStyleTableRecord
  2
ISO
 70
     0
  3
<>
 41
4.375
 42
1.05
 44
2.1
 49
10.01
 73
     0
 74
     0
 77
     1
 78
     8
140
3.5
146
0.4
147
1.75
172
     1
271
     2
178
     3
271
     2
272
     3
284
     8
340
6F
341
72
342
72
  0
DIMSTYLE
105
7A
330
A
100
AcDbSymbolTableRecord
100
AcDbDimStyleTableRecord
  2
zucchetti
 70
     0
  3
<>
 41
3.0
 42
0.9
 44
1.8
 49
8.58
 73
     0
 74
     0
 77
     1
 78
     8
140
3.0
146
0.6
147
1.5
172
     1
176
     3
177
     3
271
     2
178
     3
271
     2
272
     2
284
     8
340
70
  0
ENDTAB
  0
TABLE
  2
BLOCK_RECORD
  5
1
330
0
100
AcDbSymbolTable
 70
     7
  0
BLOCK_RECORD
  5
1F
330
1
100
AcDbSymbolTableRecord
100
AcDbBlockTableRecord
  2
*Model_Space
340
22
 70
     0
280
     1
281
     0
  0
BLOCK_RECORD
  5
1B
330
1
100
AcDbSymbolTableRecord
100
AcDbBlockTableRecord
  2
*Paper_Space
340
1E
 70
     0
280
     1
281
     0
  0
BLOCK_RECORD
  5
23
330
1
100
AcDbSymbolTableRecord
100
AcDbBlockTableRecord
  2
*Paper_Space0
340
26
 70
     0
280
     1
281
     0
  0
BLOCK_RECORD
  5
72
330
1
100
AcDbSymbolTableRecord
100
AcDbBlockTableRecord
  2
_CLOSED
340
0
 70
     0
280
     1
281
     0
  0
BLOCK_RECORD
  5
7B
330
1
100
AcDbSymbolTableRecord
100
AcDbBlockTableRecord
  2
a
340
0
102
{BLKREFS
331
12D
102
}
 70
     0
280
     1
281
     0
  0
BLOCK_RECORD
  5
12E
330
1
100
AcDbSymbolTableRecord
100
AcDbBlockTableRecord
  2
b
340
0
102
{BLKREFS
331
1CE
102
}
 70
     0
280
     1
281
     0
  0
BLOCK_RECORD
  5
1CF
330
1
100
AcDbSymbolTableRecord
100
AcDbBlockTableRecord
  2
c
340
0
102
{BLKREFS
331
240
102
}
 70
     0
280
     1
281
     0
  0
BLOCK_RECORD
  5
241
330
1
100
AcDbSymbolTableRecord
100
AcDbBlockTableRecord
  2
d
340
0
102
{BLKREFS
331
340
102
}
 70
     0
280
     1
281
     0
  0
BLOCK_RECORD
  5
341
330
1
100
AcDbSymbolTableRecord
100
AcDbBlockTableRecord
  2
e
340
0
102
{BLKREFS
331
3B0
102
}
 70
     0
280
     1
281
     0
  0
ENDTAB
  0
ENDSEC
  0
SECTION
  2
BLOCKS
  0
BLOCK
  5
20
330
1F
100
AcDbEntity
  8
0
100
AcDbBlockBegin
  2
*Model_Space
 70
     0
 10
0.0
 20
0.0
 30
0.0
  3
*Model_Space
  1

  0
ENDBLK
  5
21
330
1F
100
AcDbEntity
  8
0
100
AcDbBlockEnd
  0
BLOCK
  5
1C
330
1B
100
AcDbEntity
 67
     1
  8
0
100
AcDbBlockBegin
  2
*Paper_Space
 70
     0
 10
0.0
 20
0.0
 30
0.0
  3
*Paper_Space
  1

  0
ENDBLK
  5
1D
330
1B
100
AcDbEntity
 67
     1
  8
0
100
AcDbBlockEnd
  0
BLOCK
  5
24
330
23
100
AcDbEntity
  8
0
100
AcDbBlockBegin
  2
*Paper_Space0
 70
     0
 10
0.0
 20
0.0
 30
0.0
  3
*Paper_Space0
  1

  0
ENDBLK
  5
25
330
23
100
AcDbEntity
  8
0
100
AcDbBlockEnd
  0
BLOCK
  5
73
330
72
100
AcDbEntity
  8
0
100
AcDbBlockBegin
  2
_CLOSED
 70
     0
 10
0.0
 20
0.0
 30
0.0
  3
_CLOSED
  1

  0
LINE
  5
75
330
72
100
AcDbEntity
  8
0
  6
ByBlock
 62
     0
370
    -2
100
AcDbLine
 10
-1.0
 20
0.166667
 30
0.0
 11
0.0
 21
0.0
 31
0.0
  0
LINE
  5
76
330
72
100
AcDbEntity
  8
0
  6
ByBlock
 62
     0
370
    -2
100
AcDbLine
 10
0.0
 20
0.0
 30
0.0
 11
-1.0
 21
-0.166667
 31
0.0
  0
LINE
  5
77
330
72
100
AcDbEntity
  8
0
  6
ByBlock
 62
     0
370
    -2
100
AcDbLine
 10
-1.0
 20
0.166667
 30
0.0
 11
-1.0
 21
-0.166667
 31
0.0
  0
LINE
  5
78
330
72
100
AcDbEntity
  8
0
  6
ByBlock
 62
     0
370
    -2
100
AcDbLine
 10
0.0
 20
0.0
 30
0.0
 11
-1.0
 21
0.0
 31
0.0
  0
ENDBLK
  5
74
330
72
100
AcDbEntity
  8
0
100
AcDbBlockEnd
  0
BLOCK
  5
12B
330
7B
100
AcDbEntity
  8
0
100
AcDbBlockBegin
  2
a
 70
     0
 10
276.450317
 20
122.441742
 30
0.0
  3
a
  1

  0
LINE
  5
7C
330
7B
100
AcDbEntity
  8
0
  6
Continuous
 62
     0
370
     0
100
AcDbLine
 10
469.749999
 20
722.053025
 30
0.0
 11
470.249999
 21
722.053025
 31
0.0
  0
LINE
  5
7D
330
7B
100
AcDbEntity
  8
0
  6
Continuous
 62
     0
370
     0
100
AcDbLine
 10
470.249999
 20
722.053025
 30
0.0
 11
470.249999
 21
778.053025
 31
0.0
  0
LINE
  5
7E
330
7B
100
AcDbEntity
  8
0
  6
Continuous
 62
     0
370
     0
100
AcDbLine
 10
470.249999
 20
778.053025
 30
0.0
 11
469.749999
 21
778.053025
 31
0.0
  0
LINE
  5
7F
330
7B
100
AcDbEntity
  8
0
  6
Continuous
 62
     0
370
    30
100
AcDbLine
 10
469.749999
 20
778.053025
 30
0.0
 11
469.749999
 21
722.053025
 31
0.0
  0
LINE
  5
80
330
7B
100
AcDbEntity
  8
0
  6
Continuous
 62
     0
370
     0
100
AcDbLine
 10
470.249999
 20
778.553025
 30
0.0
 11
470.249999
 21
778.053025
 31
0.0
  0
LINE
  5
81
330
7B
100
AcDbEntity
  8
0
  6
Continuous
 62
     0
370
     0
100
AcDbLine
 10
470.249999
 20
778.053025
 30
0.0
 11
526.249999
 21
778.053025
 31
0.0
  0
LINE
  5
82
330
7B
100
AcDbEntity
  8
0
  6
Continuous
 62
     0
370
     0
100
AcDbLine
 10
526.249999
 20
778.053025
 30
0.0
 11
526.249999
 21
778.553025
 31
0.0
  0
LINE
  5
83
330
7B
100
AcDbEntity
  8
0
  6
Continuous
 62
     0
370
    30
100
AcDbLine
 10
526.249999
 20
778.553025
 30
0.0
 11
470.249999
 21
778.553025
 31
0.0
  0
LINE
  5
84
330
7B
100
AcDbEntity
  8
0
  6
Continuous
 62
     0
370
     0
100
AcDbLine
 10
526.749999
 20
778.053025
 30
0.0
 11
526.249999
 21
778.053025
 31
0.0
  0
LINE
  5
85
330
7B
100
AcDbEntity
  8
0
  6
Continuous
 62
     0
370
     0
100
AcDbLine
 10
526.249999
 20
778.053025
 30
0.0
 11
526.249999
 21
722.053025
 31
0.0
  0
LINE
  5
86
330
7B
100
AcDbEntity
  8
0
  6
Continuous
 62
     0
370
     0
100
AcDbLine
 10
526.249999
 20
722.053025
 30
0.0
 11
526.749999
 21
722.053025
 31
0.0
  0
LINE
  5
87
330
7B
100
AcDbEntity
  8
0
  6
Continuous
 62
     0
370
    30
100
AcDbLine
 10
526.749999
 20
722.053025
 30
0.0
 11
526.749999
 21
778.053025
 31
0.0
  0
ARC
  5
88
330
7B
100
AcDbEntity
  8
0
  6
Continuous
 62
     0
370
    30
100
AcDbCircle
 10
526.249999
 20
778.053025
 30
0.0
 40
0.4999999999895408
100
AcDbArc
 50
360.0
 51
90.0
  0
LINE
  5
89
330
7B
100
AcDbEntity
  8
0
  6
Continuous
 62
     0
370
     0
100
AcDbLine
 10
526.249999
 20
721.553025
 30
0.0
 11
526.249999
 21
722.053025
 31
0.0
  0
LINE
  5
8A
330
7B
100
AcDbEntity
  8
0
  6
Continuous
 62
     0
370
     0
100
AcDbLine
 10
526.249999
 20
722.053025
 30
0.0
 11
470.249999
 21
722.053025
 31
0.0
  0
LINE
  5
8B
330
7B
100
AcDbEntity
  8
0
  6
Continuous
 62
     0
370
     0
100
AcDbLine
 10
470.249999
 20
722.053025
 30
0.0
 11
470.249999
 21
721.553025
 31
0.0
  0
LINE
  5
8C
330
7B
100
AcDbEntity
  8
0
  6
Continuous
 62
     0
370
    30
100
AcDbLine
 10
470.249999
 20
721.553025
 30
0.0
 11
526.249999
 21
721.553025
 31
0.0
  0
ARC
  5
8D
330
7B
100
AcDbEntity
  8
0
  6
Continuous
 62
     0
370
    30
100
AcDbCircle
 10
526.249999
 20
722.053025
 30
0.0
 40
0.5000000000129603
100
AcDbArc
 50
270.0
 51
360.0
  0
ARC
  5
8E
330
7B
100
AcDbEntity
  8
0
  6
Continuous
 62
     0
370
    30
100
AcDbCircle
 10
470.249999
 20
778.053025
 30
0.0
 40
0.5000000000021245
100
AcDbArc
 50
90.0
 51
180.0
  0
ARC
  5
8F
330
7B
100
AcDbEntity
  8
0
  6
Continuous
 62
     0
370
    30
100
AcDbCircle
 10
470.249999
 20
722.053025
 30
0.0
 40
0.5000000000076277
100
AcDbArc
 50
180.0
 51
270.0
  0
ARC
  5
90
330
7B
100
AcDbEntity
  8
0
  6
Continuous
 62
     0
370
     0
100
AcDbCircle
 10
507.654283
 20
757.350372
 30
0.0
 40
11.13725394624816
100
AcDbArc
 50
4.950012
 51
24.976423
  0
LINE
  5
91
330
7B
100
AcDbEntity
  8
0
  6
Continuous
 62
     0
370
     0
100
AcDbLine
 10
517.749999
 20
762.053025
 30
0.0
 11
518.249999
 21
758.311368
 31
0.0
  0
LINE
  5
92
330
7B
100
AcDbEntity
  8
0
  6
Continuous
 62
     0
370
     0
100
AcDbLine
 10
518.249999
 20
758.311368
 30
0.0
 11
518.749999
 21
758.311368
 31
0.0
  0
LINE
  5
93
330
7B
100
AcDbEntity
  8
0
  6
Continuous
 62
     0
370
     0
100
AcDbLine
 10
518.749999
 20
741.794683
 30
0.0
 11
518.249999
 21
741.794683
 31
0.0
  0
LINE
  5
94
330
7B
100
AcDbEntity
  8
0
  6
Continuous
 62
     0
370
     0
100
AcDbLine
 10
518.749999
 20
758.311368
 30
0.0
 11
518.749999
 21
741.794683
 31
0.0
  0
LINE
  5
95
330
7B
100
AcDbEntity
  8
0
  6
Continuous
 62
     0
370
    30
100
AcDbLine
 10
518.249999
 20
741.794683
 30
0.0
 11
517.749999
 21
738.053025
 31
0.0
  0
ARC
  5
96
330
7B
100
AcDbEntity
  8
0
  6
Continuous
 62
     0
370
     0
100
AcDbCircle
 10
507.680084
 20
742.748782
 30
0.0
 40
11.11095427384763
100
AcDbArc
 50
334.999631
 51
355.073934
  0
LINE
  5
97
330
7B
100
AcDbEntity
  8
0
  6
Continuous
 62
     0
370
    30
100
AcDbLine
 10
518.249999
 20
741.794683
 30
0.0
 11
518.249999
 21
745.553025
 31
0.0
  0
LINE
  5
98
330
7B
100
AcDbEntity
  8
0
  6
Continuous
 62
     0
370
     0
100
AcDbLine
 10
517.749999
 20
745.053025
 30
0.0
 11
517.749999
 21
738.053025
 31
0.0
  0
LINE
  5
99
330
7B
100
AcDbEntity
  8
0
  6
Continuous
 62
     0
370
    30
100
AcDbLine
 10
518.249999
 20
758.311368
 30
0.0
 11
518.249999
 21
754.553025
 31
0.0
  0
LINE
  5
9A
330
7B
100
AcDbEntity
  8
0
  6
Continuous
 62
     0
370
    30
100
AcDbLine
 10
518.249999
 20
754.553025
 30
0.0
 11
518.249999
 21
745.553025
 31
0.0
  0
LINE
  5
9B
330
7B
100
AcDbEntity
  8
0
  6
Continuous
 62
     0
370
     0
100
AcDbLine
 10
517.749999
 20
762.053025
 30
0.0
 11
517.749999
 21
755.053025
 31
0.0
  0
LINE
  5
9C
330
7B
100
AcDbEntity
  8
0
  6
Continuous
 62
     0
370
     0
100
AcDbLine
 10
478.249999
 20
741.794683
 30
0.0
 11
477.749999
 21
741.794683
 31
0.0
  0
LINE
  5
9D
330
7B
100
AcDbEntity
  8
0
  6
Continuous
 62
     0
370
     0
100
AcDbLine
 10
477.749999
 20
758.311368
 30
0.0
 11
478.249999
 21
758.311368
 31
0.0
  0
LINE
  5
9E
330
7B
100
AcDbEntity
  8
0
  6
Continuous
 62
     0
370
     0
100
AcDbLine
 10
477.749999
 20
741.794683
 30
0.0
 11
477.749999
 21
758.311368
 31
0.0
  0
ARC
  5
9F
330
7B
100
AcDbEntity
  8
0
  6
Continuous
 62
     0
370
     0
100
AcDbCircle
 10
488.845715
 20
742.755678
 30
0.0
 40
11.13725394611193
100
AcDbArc
 50
184.950012
 51
204.976423
  0
LINE
  5
A0
330
7B
100
AcDbEntity
  8
0
  6
Continuous
 62
     0
370
     0
100
AcDbLine
 10
478.749999
 20
738.053025
 30
0.0
 11
478.249999
 21
741.794683
 31
0.0
  0
LINE
  5
A1
330
7B
100
AcDbEntity
  8
0
  6
Continuous
 62
     0
370
     0
100
AcDbLine
 10
478.249999
 20
758.311368
 30
0.0
 11
478.749999
 21
762.053025
 31
0.0
  0
ARC
  5
A2
330
7B
100
AcDbEntity
  8
0
  6
Continuous
 62
     0
370
     0
100
AcDbCircle
 10
488.846611
 20
757.350133
 30
0.0
 40
11.1381679488332
100
AcDbArc
 50
155.024407
 51
175.049158
  0
LINE
  5
A3
330
7B
100
AcDbEntity
  8
0
  6
Continuous
 62
     0
370
    30
100
AcDbLine
 10
478.249999
 20
758.311368
 30
0.0
 11
478.249999
 21
754.553025
 31
0.0
  0
LINE
  5
A4
330
7B
100
AcDbEntity
  8
0
  6
Continuous
 62
     0
370
     0
100
AcDbLine
 10
478.749999
 20
755.053025
 30
0.0
 11
478.749999
 21
762.053025
 31
0.0
  0
LINE
  5
A5
330
7B
100
AcDbEntity
  8
0
  6
Continuous
 62
     0
370
    30
100
AcDbLine
 10
478.249999
 20
741.794683
 30
0.0
 11
478.249999
 21
745.553025
 31
0.0
  0
LINE
  5
A6
330
7B
100
AcDbEntity
  8
0
  6
Continuous
 62
     0
370
    30
100
AcDbLine
 10
478.249999
 20
745.553025
 30
0.0
 11
478.249999
 21
754.553025
 31
0.0
  0
LINE
  5
A7
330
7B
100
AcDbEntity
  8
0
  6
Continuous
 62
     0
370
     0
100
AcDbLine
 10
518.249999
 20
745.553025
 30
0.0
 11
517.749999
 21
745.553025
 31
0.0
  0
LINE
  5
A8
330
7B
100
AcDbEntity
  8
0
  6
Continuous
 62
     0
370
     0
100
AcDbLine
 10
517.749999
 20
745.553025
 30
0.0
 11
517.749999
 21
745.053025
 31
0.0
  0
ARC
  5
A9
330
7B
100
AcDbEntity
  8
0
  6
Continuous
 62
     0
370
    30
100
AcDbCircle
 10
517.749999
 20
745.553025
 30
0.0
 40
0.5000000000090026
100
AcDbArc
 50
270.0
 51
360.0
  0
LINE
  5
AA
330
7B
100
AcDbEntity
  8
0
  6
Continuous
 62
     0
370
     0
100
AcDbLine
 10
478.749999
 20
745.053025
 30
0.0
 11
478.749999
 21
745.553025
 31
0.0
  0
LINE
  5
AB
330
7B
100
AcDbEntity
  8
0
  6
Continuous
 62
     0
370
     0
100
AcDbLine
 10
478.749999
 20
745.553025
 30
0.0
 11
478.249999
 21
745.553025
 31
0.0
  0
ARC
  5
AC
330
7B
100
AcDbEntity
  8
0
  6
Continuous
 62
     0
370
    30
100
AcDbCircle
 10
478.749999
 20
745.553025
 30
0.0
 40
0.4999999999951648
100
AcDbArc
 50
180.0
 51
270.0
  0
LINE
  5
AD
330
7B
100
AcDbEntity
  8
0
  6
Continuous
 62
     0
370
     0
100
AcDbLine
 10
517.749999
 20
755.053025
 30
0.0
 11
517.749999
 21
754.553025
 31
0.0
  0
LINE
  5
AE
330
7B
100
AcDbEntity
  8
0
  6
Continuous
 62
     0
370
     0
100
AcDbLine
 10
517.749999
 20
754.553025
 30
0.0
 11
518.249999
 21
754.553025
 31
0.0
  0
ARC
  5
AF
330
7B
100
AcDbEntity
  8
0
  6
Continuous
 62
     0
370
    30
100
AcDbCircle
 10
517.749999
 20
754.553025
 30
0.0
 40
0.5000000000009308
100
AcDbArc
 50
0.0
 51
90.0
  0
LINE
  5
B0
330
7B
100
AcDbEntity
  8
0
  6
Continuous
 62
     0
370
     0
100
AcDbLine
 10
478.249999
 20
754.553025
 30
0.0
 11
478.749999
 21
754.553025
 31
0.0
  0
LINE
  5
B1
330
7B
100
AcDbEntity
  8
0
  6
Continuous
 62
     0
370
     0
100
AcDbLine
 10
478.749999
 20
754.553025
 30
0.0
 11
478.749999
 21
755.053025
 31
0.0
  0
ARC
  5
B2
330
7B
100
AcDbEntity
  8
0
  6
Continuous
 62
     0
370
    30
100
AcDbCircle
 10
478.749999
 20
754.553025
 30
0.0
 40
0.4999999999817106
100
AcDbArc
 50
90.0
 51
180.0
  0
LINE
  5
B3
330
7B
100
AcDbEntity
  8
0
  6
Continuous
 62
     0
370
    30
100
AcDbLine
 10
517.749999
 20
755.053025
 30
0.0
 11
478.749999
 21
755.053025
 31
0.0
  0
LINE
  5
B4
330
7B
100
AcDbEntity
  8
0
  6
Continuous
 62
     0
370
     0
100
AcDbLine
 10
478.749999
 20
754.553025
 30
0.0
 11
517.749999
 21
754.553025
 31
0.0
  0
LINE
  5
B5
330
7B
100
AcDbEntity
  8
0
  6
Continuous
 62
     0
370
     0
100
AcDbLine
 10
478.749999
 20
745.553025
 30
0.0
 11
478.749999
 21
754.553025
 31
0.0
  0
LINE
  5
B6
330
7B
100
AcDbEntity
  8
0
  6
Continuous
 62
     0
370
     0
100
AcDbLine
 10
517.749999
 20
754.553025
 30
0.0
 11
517.749999
 21
745.553025
 31
0.0
  0
LINE
  5
B7
330
7B
100
AcDbEntity
  8
0
  6
Continuous
 62
     0
370
    30
100
AcDbLine
 10
478.749999
 20
745.053025
 30
0.0
 11
517.749999
 21
745.053025
 31
0.0
  0
LINE
  5
B8
330
7B
100
AcDbEntity
  8
0
  6
Continuous
 62
     0
370
     0
100
AcDbLine
 10
517.749999
 20
745.553025
 30
0.0
 11
478.749999
 21
745.553025
 31
0.0
  0
LINE
  5
B9
330
7B
100
AcDbEntity
  8
0
  6
Continuous
 62
     0
370
     0
100
AcDbLine
 10
478.749999
 20
738.053025
 30
0.0
 11
478.749999
 21
745.053025
 31
0.0
  0
LINE
  5
BA
330
7B
100
AcDbEntity
  8
0
  6
Continuous
 62
     0
370
     0
100
AcDbLine
 10
478.749999
 20
762.053025
 30
0.0
 11
517.749999
 21
762.053025
 31
0.0
  0
LINE
  5
BB
330
7B
100
AcDbEntity
  8
0
  6
Continuous
 62
     0
370
     0
100
AcDbLine
 10
517.749999
 20
738.053025
 30
0.0
 11
478.749999
 21
738.053025
 31
0.0
  0
ARC
  5
BC
330
7B
100
AcDbEntity
  8
0
  6
Continuous
 62
     0
370
    30
100
AcDbCircle
 10
498.249999
 20
750.053025
 30
0.0
 40
23.99999999999999
100
AcDbArc
 50
0.0
 51
180.0
  0
ARC
  5
BD
330
7B
100
AcDbEntity
  8
0
  6
Continuous
 62
     0
370
    30
100
AcDbCircle
 10
498.249999
 20
750.053025
 30
0.0
 40
23.99999999999999
100
AcDbArc
 50
180.0
 51
360.0
  0
LINE
  5
BE
330
7B
100
AcDbEntity
  8
0
  6
Continuous
 62
     0
370
    30
100
AcDbLine
 10
364.030824
 20
778.053025
 30
0.0
 11
364.030824
 21
722.053025
 31
0.0
  0
LINE
  5
BF
330
7B
100
AcDbEntity
  8
0
  6
Continuous
 62
     0
370
     0
100
AcDbLine
 10
363.530824
 20
778.053025
 30
0.0
 11
364.030824
 21
778.053025
 31
0.0
  0
LINE
  5
C0
330
7B
100
AcDbEntity
  8
0
  6
Continuous
 62
     0
370
     0
100
AcDbLine
 10
363.530824
 20
722.053025
 30
0.0
 11
363.530824
 21
778.053025
 31
0.0
  0
LINE
  5
C1
330
7B
100
AcDbEntity
  8
0
  6
Continuous
 62
     0
370
     0
100
AcDbLine
 10
364.030824
 20
722.053025
 30
0.0
 11
363.530824
 21
722.053025
 31
0.0
  0
LINE
  5
C2
330
7B
100
AcDbEntity
  8
0
  6
Continuous
 62
     0
370
    30
100
AcDbLine
 10
307.530824
 20
778.553025
 30
0.0
 11
363.530824
 21
778.553025
 31
0.0
  0
LINE
  5
C3
330
7B
100
AcDbEntity
  8
0
  6
Continuous
 62
     0
370
     0
100
AcDbLine
 10
307.530824
 20
778.053025
 30
0.0
 11
307.530824
 21
778.553025
 31
0.0
  0
LINE
  5
C4
330
7B
100
AcDbEntity
  8
0
  6
Continuous
 62
     0
370
     0
100
AcDbLine
 10
363.530824
 20
778.053025
 30
0.0
 11
307.530824
 21
778.053025
 31
0.0
  0
LINE
  5
C5
330
7B
100
AcDbEntity
  8
0
  6
Continuous
 62
     0
370
     0
100
AcDbLine
 10
363.530824
 20
778.553025
 30
0.0
 11
363.530824
 21
778.053025
 31
0.0
  0
LINE
  5
C6
330
7B
100
AcDbEntity
  8
0
  6
Continuous
 62
     0
370
    30
100
AcDbLine
 10
307.030824
 20
722.053025
 30
0.0
 11
307.030824
 21
778.053025
 31
0.0
  0
LINE
  5
C7
330
7B
100
AcDbEntity
  8
0
  6
Continuous
 62
     0
370
     0
100
AcDbLine
 10
307.530824
 20
722.053025
 30
0.0
 11
307.030824
 21
722.053025
 31
0.0
  0
LINE
  5
C8
330
7B
100
AcDbEntity
  8
0
  6
Continuous
 62
     0
370
     0
100
AcDbLine
 10
307.530824
 20
778.053025
 30
0.0
 11
307.530824
 21
722.053025
 31
0.0
  0
LINE
  5
C9
330
7B
100
AcDbEntity
  8
0
  6
Continuous
 62
     0
370
     0
100
AcDbLine
 10
307.030824
 20
778.053025
 30
0.0
 11
307.530824
 21
778.053025
 31
0.0
  0
ARC
  5
CA
330
7B
100
AcDbEntity
  8
0
  6
Continuous
 62
     0
370
    30
100
AcDbCircle
 10
307.530824
 20
778.053025
 30
0.0
 40
0.4999999999894911
100
AcDbArc
 50
90.0
 51
180.0
  0
LINE
  5
CB
330
7B
100
AcDbEntity
  8
0
  6
Continuous
 62
     0
370
    30
100
AcDbLine
 10
363.530824
 20
721.553025
 30
0.0
 11
307.530824
 21
721.553025
 31
0.0
  0
LINE
  5
CC
330
7B
100
AcDbEntity
  8
0
  6
Continuous
 62
     0
370
     0
100
AcDbLine
 10
363.530824
 20
722.053025
 30
0.0
 11
363.530824
 21
721.553025
 31
0.0
  0
LINE
  5
CD
330
7B
100
AcDbEntity
  8
0
  6
Continuous
 62
     0
370
     0
100
AcDbLine
 10
307.530824
 20
722.053025
 30
0.0
 11
363.530824
 21
722.053025
 31
0.0
  0
LINE
  5
CE
330
7B
100
AcDbEntity
  8
0
  6
Continuous
 62
     0
370
     0
100
AcDbLine
 10
307.530824
 20
721.553025
 30
0.0
 11
307.530824
 21
722.053025
 31
0.0
  0
ARC
  5
CF
330
7B
100
AcDbEntity
  8
0
  6
Continuous
 62
     0
370
    30
100
AcDbCircle
 10
307.530824
 20
722.053025
 30
0.0
 40
0.5000000000028564
100
AcDbArc
 50
180.0
 51
270.0
  0
ARC
  5
D0
330
7B
100
AcDbEntity
  8
0
  6
Continuous
 62
     0
370
    30
100
AcDbCircle
 10
363.530824
 20
778.053025
 30
0.0
 40
0.4999999999897113
100
AcDbArc
 50
360.0
 51
90.0
  0
ARC
  5
D1
330
7B
100
AcDbEntity
  8
0
  6
Continuous
 62
     0
370
    30
100
AcDbCircle
 10
363.530824
 20
722.053025
 30
0.0
 40
0.5000000000086047
100
AcDbArc
 50
270.0
 51
360.0
  0
LINE
  5
D2
330
7B
100
AcDbEntity
  8
0
  6
Continuous
 62
     0
370
     0
100
AcDbLine
 10
315.530824
 20
758.311368
 30
0.0
 11
315.030824
 21
758.311368
 31
0.0
  0
LINE
  5
D3
330
7B
100
AcDbEntity
  8
0
  6
Continuous
 62
     0
370
     0
100
AcDbLine
 10
316.030824
 20
762.053025
 30
0.0
 11
315.530824
 21
758.311368
 31
0.0
  0
ARC
  5
D4
330
7B
100
AcDbEntity
  8
0
  6
Continuous
 62
     0
370
     0
100
AcDbCircle
 10
326.12654
 20
757.350372
 30
0.0
 40
11.13725394619595
100
AcDbArc
 50
155.023577
 51
175.049988
  0
LINE
  5
D5
330
7B
100
AcDbEntity
  8
0
  6
Continuous
 62
     0
370
     0
100
AcDbLine
 10
315.030824
 20
758.311368
 30
0.0
 11
315.030824
 21
741.794683
 31
0.0
  0
LINE
  5
D6
330
7B
100
AcDbEntity
  8
0
  6
Continuous
 62
     0
370
     0
100
AcDbLine
 10
315.030824
 20
741.794683
 30
0.0
 11
315.530824
 21
741.794683
 31
0.0
  0
ARC
  5
D7
330
7B
100
AcDbEntity
  8
0
  6
Continuous
 62
     0
370
     0
100
AcDbCircle
 10
326.100738
 20
742.748782
 30
0.0
 40
11.11095427388752
100
AcDbArc
 50
184.926066
 51
205.000369
  0
LINE
  5
D8
330
7B
100
AcDbEntity
  8
0
  6
Continuous
 62
     0
370
    30
100
AcDbLine
 10
315.530824
 20
741.794683
 30
0.0
 11
316.030824
 21
738.053025
 31
0.0
  0
LINE
  5
D9
330
7B
100
AcDbEntity
  8
0
  6
Continuous
 62
     0
370
     0
100
AcDbLine
 10
316.030824
 20
745.053025
 30
0.0
 11
316.030824
 21
738.053025
 31
0.0
  0
LINE
  5
DA
330
7B
100
AcDbEntity
  8
0
  6
Continuous
 62
     0
370
    30
100
AcDbLine
 10
315.530824
 20
741.794683
 30
0.0
 11
315.530824
 21
745.553025
 31
0.0
  0
LINE
  5
DB
330
7B
100
AcDbEntity
  8
0
  6
Continuous
 62
     0
370
    30
100
AcDbLine
 10
315.530824
 20
754.553025
 30
0.0
 11
315.530824
 21
745.553025
 31
0.0
  0
LINE
  5
DC
330
7B
100
AcDbEntity
  8
0
  6
Continuous
 62
     0
370
    30
100
AcDbLine
 10
315.530824
 20
758.311368
 30
0.0
 11
315.530824
 21
754.553025
 31
0.0
  0
LINE
  5
DD
330
7B
100
AcDbEntity
  8
0
  6
Continuous
 62
     0
370
     0
100
AcDbLine
 10
316.030824
 20
762.053025
 30
0.0
 11
316.030824
 21
755.053025
 31
0.0
  0
LINE
  5
DE
330
7B
100
AcDbEntity
  8
0
  6
Continuous
 62
     0
370
     0
100
AcDbLine
 10
356.030824
 20
741.794683
 30
0.0
 11
356.030824
 21
758.311368
 31
0.0
  0
LINE
  5
DF
330
7B
100
AcDbEntity
  8
0
  6
Continuous
 62
     0
370
     0
100
AcDbLine
 10
356.030824
 20
758.311368
 30
0.0
 11
355.530824
 21
758.311368
 31
0.0
  0
LINE
  5
E0
330
7B
100
AcDbEntity
  8
0
  6
Continuous
 62
     0
370
     0
100
AcDbLine
 10
355.530824
 20
741.794683
 30
0.0
 11
356.030824
 21
741.794683
 31
0.0
  0
LINE
  5
E1
330
7B
100
AcDbEntity
  8
0
  6
Continuous
 62
     0
370
     0
100
AcDbLine
 10
355.030824
 20
738.053025
 30
0.0
 11
355.530824
 21
741.794683
 31
0.0
  0
ARC
  5
E2
330
7B
100
AcDbEntity
  8
0
  6
Continuous
 62
     0
370
     0
100
AcDbCircle
 10
344.935108
 20
742.755678
 30
0.0
 40
11.13725394607854
100
AcDbArc
 50
335.023577
 51
355.049988
  0
ARC
  5
E3
330
7B
100
AcDbEntity
  8
0
  6
Continuous
 62
     0
370
     0
100
AcDbCircle
 10
344.934212
 20
757.350133
 30
0.0
 40
11.13816794884419
100
AcDbArc
 50
4.950842
 51
24.975593
  0
LINE
  5
E4
330
7B
100
AcDbEntity
  8
0
  6
Continuous
 62
     0
370
     0
100
AcDbLine
 10
355.530824
 20
758.311368
 30
0.0
 11
355.030824
 21
762.053025
 31
0.0
  0
LINE
  5
E5
330
7B
100
AcDbEntity
  8
0
  6
Continuous
 62
     0
370
     0
100
AcDbLine
 10
355.030824
 20
755.053025
 30
0.0
 11
355.030824
 21
762.053025
 31
0.0
  0
LINE
  5
E6
330
7B
100
AcDbEntity
  8
0
  6
Continuous
 62
     0
370
    30
100
AcDbLine
 10
355.530824
 20
758.311368
 30
0.0
 11
355.530824
 21
754.553025
 31
0.0
  0
LINE
  5
E7
330
7B
100
AcDbEntity
  8
0
  6
Continuous
 62
     0
370
    30
100
AcDbLine
 10
355.530824
 20
745.553025
 30
0.0
 11
355.530824
 21
754.553025
 31
0.0
  0
LINE
  5
E8
330
7B
100
AcDbEntity
  8
0
  6
Continuous
 62
     0
370
    30
100
AcDbLine
 10
355.530824
 20
741.794683
 30
0.0
 11
355.530824
 21
745.553025
 31
0.0
  0
ARC
  5
E9
330
7B
100
AcDbEntity
  8
0
  6
Continuous
 62
     0
370
    30
100
AcDbCircle
 10
316.030824
 20
745.553025
 30
0.0
 40
0.5000000000023306
100
AcDbArc
 50
180.0
 51
270.0
  0
LINE
  5
EA
330
7B
100
AcDbEntity
  8
0
  6
Continuous
 62
     0
370
     0
100
AcDbLine
 10
316.030824
 20
745.553025
 30
0.0
 11
316.030824
 21
745.053025
 31
0.0
  0
LINE
  5
EB
330
7B
100
AcDbEntity
  8
0
  6
Continuous
 62
     0
370
     0
100
AcDbLine
 10
315.530824
 20
745.553025
 30
0.0
 11
316.030824
 21
745.553025
 31
0.0
  0
ARC
  5
EC
330
7B
100
AcDbEntity
  8
0
  6
Continuous
 62
     0
370
    30
100
AcDbCircle
 10
355.030824
 20
745.553025
 30
0.0
 40
0.4999999999963016
100
AcDbArc
 50
270.0
 51
0.0
  0
LINE
  5
ED
330
7B
100
AcDbEntity
  8
0
  6
Continuous
 62
     0
370
     0
100
AcDbLine
 10
355.030824
 20
745.553025
 30
0.0
 11
355.530824
 21
745.553025
 31
0.0
  0
LINE
  5
EE
330
7B
100
AcDbEntity
  8
0
  6
Continuous
 62
     0
370
     0
100
AcDbLine
 10
355.030824
 20
745.053025
 30
0.0
 11
355.030824
 21
745.553025
 31
0.0
  0
ARC
  5
EF
330
7B
100
AcDbEntity
  8
0
  6
Continuous
 62
     0
370
    30
100
AcDbCircle
 10
316.030824
 20
754.553025
 30
0.0
 40
0.4999999999973994
100
AcDbArc
 50
90.0
 51
180.0
  0
LINE
  5
F0
330
7B
100
AcDbEntity
  8
0
  6
Continuous
 62
     0
370
     0
100
AcDbLine
 10
316.030824
 20
754.553025
 30
0.0
 11
315.530824
 21
754.553025
 31
0.0
  0
LINE
  5
F1
330
7B
100
AcDbEntity
  8
0
  6
Continuous
 62
     0
370
     0
100
AcDbLine
 10
316.030824
 20
755.053025
 30
0.0
 11
316.030824
 21
754.553025
 31
0.0
  0
ARC
  5
F2
330
7B
100
AcDbEntity
  8
0
  6
Continuous
 62
     0
370
    30
100
AcDbCircle
 10
355.030824
 20
754.553025
 30
0.0
 40
0.4999999999905178
100
AcDbArc
 50
360.0
 51
90.0
  0
LINE
  5
F3
330
7B
100
AcDbEntity
  8
0
  6
Continuous
 62
     0
370
     0
100
AcDbLine
 10
355.030824
 20
754.553025
 30
0.0
 11
355.030824
 21
755.053025
 31
0.0
  0
LINE
  5
F4
330
7B
100
AcDbEntity
  8
0
  6
Continuous
 62
     0
370
     0
100
AcDbLine
 10
355.530824
 20
754.553025
 30
0.0
 11
355.030824
 21
754.553025
 31
0.0
  0
LINE
  5
F5
330
7B
100
AcDbEntity
  8
0
  6
Continuous
 62
     0
370
     0
100
AcDbLine
 10
355.030824
 20
754.553025
 30
0.0
 11
316.030824
 21
754.553025
 31
0.0
  0
LINE
  5
F6
330
7B
100
AcDbEntity
  8
0
  6
Continuous
 62
     0
370
    30
100
AcDbLine
 10
316.030824
 20
755.053025
 30
0.0
 11
355.030824
 21
755.053025
 31
0.0
  0
LINE
  5
F7
330
7B
100
AcDbEntity
  8
0
  6
Continuous
 62
     0
370
     0
100
AcDbLine
 10
355.030824
 20
745.553025
 30
0.0
 11
355.030824
 21
754.553025
 31
0.0
  0
LINE
  5
F8
330
7B
100
AcDbEntity
  8
0
  6
Continuous
 62
     0
370
     0
100
AcDbLine
 10
316.030824
 20
754.553025
 30
0.0
 11
316.030824
 21
745.553025
 31
0.0
  0
LINE
  5
F9
330
7B
100
AcDbEntity
  8
0
  6
Continuous
 62
     0
370
     0
100
AcDbLine
 10
316.030824
 20
745.553025
 30
0.0
 11
355.030824
 21
745.553025
 31
0.0
  0
LINE
  5
FA
330
7B
100
AcDbEntity
  8
0
  6
Continuous
 62
     0
370
    30
100
AcDbLine
 10
355.030824
 20
745.053025
 30
0.0
 11
316.030824
 21
745.053025
 31
0.0
  0
LINE
  5
FB
330
7B
100
AcDbEntity
  8
0
  6
Continuous
 62
     0
370
     0
100
AcDbLine
 10
355.030824
 20
738.053025
 30
0.0
 11
355.030824
 21
745.053025
 31
0.0
  0
LINE
  5
FC
330
7B
100
AcDbEntity
  8
0
  6
Continuous
 62
     0
370
     0
100
AcDbLine
 10
355.030824
 20
762.053025
 30
0.0
 11
316.030824
 21
762.053025
 31
0.0
  0
LINE
  5
FD
330
7B
100
AcDbEntity
  8
0
  6
Continuous
 62
     0
370
     0
100
AcDbLine
 10
316.030824
 20
738.053025
 30
0.0
 11
355.030824
 21
738.053025
 31
0.0
  0
ARC
  5
FE
330
7B
100
AcDbEntity
  8
0
  6
Continuous
 62
     0
370
    30
100
AcDbCircle
 10
335.530824
 20
750.053025
 30
0.0
 40
23.99999999999999
100
AcDbArc
 50
180.0
 51
360.0
  0
ARC
  5
FF
330
7B
100
AcDbEntity
  8
0
  6
Continuous
 62
     0
370
    30
100
AcDbCircle
 10
335.530824
 20
750.053025
 30
0.0
 40
23.99999999999999
100
AcDbArc
 50
0.0
 51
180.0
  0
ARC
  5
100
330
7B
100
AcDbEntity
  8
0
  6
Continuous
 62
     0
370
    30
100
AcDbCircle
 10
444.890411
 20
559.726381
 30
0.0
 40
0.5
100
AcDbArc
 50
360.0
 51
90.0
  0
ARC
  5
101
330
7B
100
AcDbEntity
  8
0
  6
Continuous
 62
     0
370
    30
100
AcDbCircle
 10
388.890411
 20
559.726381
 30
0.0
 40
0.5
100
AcDbArc
 50
90.0
 51
180.0
  0
LINE
  5
102
330
7B
100
AcDbEntity
  8
0
  6
Continuous
 62
     0
370
     0
100
AcDbLine
 10
444.890411
 20
559.726381
 30
0.0
 11
388.890411
 21
559.726381
 31
0.0
  0
LINE
  5
103
330
7B
100
AcDbEntity
  8
0
  6
Continuous
 62
     0
370
     0
100
AcDbLine
 10
444.890411
 20
560.226381
 30
0.0
 11
444.890411
 21
559.726381
 31
0.0
  0
LINE
  5
104
330
7B
100
AcDbEntity
  8
0
  6
Continuous
 62
     0
370
    30
100
AcDbLine
 10
388.890411
 20
560.226381
 30
0.0
 11
444.890411
 21
560.226381
 31
0.0
  0
LINE
  5
105
330
7B
100
AcDbEntity
  8
0
  6
Continuous
 62
     0
370
     0
100
AcDbLine
 10
388.890411
 20
559.726381
 30
0.0
 11
388.890411
 21
560.226381
 31
0.0
  0
LINE
  5
106
330
7B
100
AcDbEntity
  8
0
  6
Continuous
 62
     0
370
     0
100
AcDbLine
 10
388.890411
 20
559.726381
 30
0.0
 11
388.390411
 21
559.726381
 31
0.0
  0
LINE
  5
107
330
7B
100
AcDbEntity
  8
0
  6
Continuous
 62
     0
370
     0
100
AcDbLine
 10
445.390411
 20
559.726381
 30
0.0
 11
444.890411
 21
559.726381
 31
0.0
  0
LINE
  5
108
330
7B
100
AcDbEntity
  8
0
  6
Continuous
 62
     0
370
    30
100
AcDbLine
 10
388.390411
 20
559.726381
 30
0.0
 11
388.390411
 21
550.006381
 31
0.0
  0
LINE
  5
109
330
7B
100
AcDbEntity
  8
0
  6
Continuous
 62
     0
370
    30
100
AcDbLine
 10
388.890411
 20
550.006381
 30
0.0
 11
388.390411
 21
550.006381
 31
0.0
  0
LINE
  5
10A
330
7B
100
AcDbEntity
  8
0
  6
Continuous
 62
     0
370
     0
100
AcDbLine
 10
388.890411
 20
559.726381
 30
0.0
 11
388.890411
 21
550.006381
 31
0.0
  0
LINE
  5
10B
330
7B
100
AcDbEntity
  8
0
  6
Continuous
 62
     0
370
    30
100
AcDbLine
 10
444.890411
 20
550.006381
 30
0.0
 11
388.890411
 21
550.006381
 31
0.0
  0
LINE
  5
10C
330
7B
100
AcDbEntity
  8
0
  6
Continuous
 62
     0
370
     0
100
AcDbLine
 10
444.890411
 20
559.726381
 30
0.0
 11
444.890411
 21
550.006381
 31
0.0
  0
LINE
  5
10D
330
7B
100
AcDbEntity
  8
0
  6
Continuous
 62
     0
370
    30
100
AcDbLine
 10
445.390411
 20
550.006381
 30
0.0
 11
445.390411
 21
559.726381
 31
0.0
  0
LINE
  5
10E
330
7B
100
AcDbEntity
  8
0
  6
Continuous
 62
     0
370
    30
100
AcDbLine
 10
445.390411
 20
550.006381
 30
0.0
 11
444.890411
 21
550.006381
 31
0.0
  0
LINE
  5
10F
330
7B
100
AcDbEntity
  8
0
  6
Continuous
 62
     0
370
    30
100
AcDbLine
 10
436.390411
 20
673.226381
 30
0.0
 11
397.390411
 21
673.226381
 31
0.0
  0
LINE
  5
110
330
7B
100
AcDbEntity
  8
0
  6
Continuous
 62
     0
370
    30
100
AcDbLine
 10
397.390411
 20
673.226381
 30
0.0
 11
396.890411
 21
673.226381
 31
0.0
  0
LINE
  5
111
330
7B
100
AcDbEntity
  8
0
  6
Continuous
 62
     0
370
    30
100
AcDbLine
 10
436.890411
 20
673.226381
 30
0.0
 11
436.390411
 21
673.226381
 31
0.0
  0
LINE
  5
112
330
7B
100
AcDbEntity
  8
0
  6
Continuous
 62
     0
370
    30
100
AcDbLine
 10
436.890411
 20
661.226381
 30
0.0
 11
436.890411
 21
673.226381
 31
0.0
  0
LINE
  5
113
330
7B
100
AcDbEntity
  8
0
  6
Continuous
 62
     0
370
    30
100
AcDbLine
 10
436.890411
 20
560.226381
 30
0.0
 11
436.890411
 21
661.226381
 31
0.0
  0
LINE
  5
114
330
7B
100
AcDbEntity
  8
0
  6
Continuous
 62
     0
370
    30
100
AcDbLine
 10
436.890411
 20
691.692931
 30
0.0
 11
436.890411
 21
720.726381
 31
0.0
  0
LINE
  5
115
330
7B
100
AcDbEntity
  8
0
  6
Continuous
 62
     0
370
    30
100
AcDbLine
 10
436.890411
 20
673.226381
 30
0.0
 11
436.890411
 21
691.692931
 31
0.0
  0
ELLIPSE
  5
116
330
7B
100
AcDbEntity
  8
0
  6
Continuous
 62
     0
370
     0
100
AcDbEllipse
 10
436.390411
 20
691.692931
 30
0.0
 11
-0.500000000000002
 21
0.0
 31
0.0
210
0.0
220
0.0
230
-1.0
 40
0.512043
 41
1.570796326794904
 42
3.141592653589682
  0
LINE
  5
117
330
7B
100
AcDbEntity
  8
0
  6
Continuous
 62
     0
370
     0
100
AcDbLine
 10
436.390411
 20
673.226381
 30
0.0
 11
436.390411
 21
691.948952
 31
0.0
  0
LINE
  5
118
330
7B
100
AcDbEntity
  8
0
  6
Continuous
 62
     0
370
     0
100
AcDbLine
 10
397.390411
 20
691.948952
 30
0.0
 11
436.390411
 21
691.948952
 31
0.0
  0
LINE
  5
119
330
7B
100
AcDbEntity
  8
0
  6
Continuous
 62
     0
370
     0
100
AcDbLine
 10
397.390411
 20
673.226381
 30
0.0
 11
397.390411
 21
691.948952
 31
0.0
  0
ELLIPSE
  5
11A
330
7B
100
AcDbEntity
  8
0
  6
Continuous
 62
     0
370
     0
100
AcDbEllipse
 10
397.390411
 20
691.692931
 30
0.0
 11
-0.500000000000002
 21
0.0
 31
0.0
210
0.0
220
0.0
230
-1.0
 40
0.512043
 41
0.0
 42
1.570796326794904
  0
LINE
  5
11B
330
7B
100
AcDbEntity
  8
0
  6
Continuous
 62
     0
370
    30
100
AcDbLine
 10
396.890411
 20
673.226381
 30
0.0
 11
396.890411
 21
691.692931
 31
0.0
  0
LINE
  5
11C
330
7B
100
AcDbEntity
  8
0
  6
Continuous
 62
     0
370
     0
100
AcDbLine
 10
397.390411
 20
721.226381
 30
0.0
 11
397.390411
 21
691.948952
 31
0.0
  0
ARC
  5
11D
330
7B
100
AcDbEntity
  8
0
  6
Continuous
 62
     0
370
    30
100
AcDbCircle
 10
397.390411
 20
720.726381
 30
0.0
 40
0.5000000000048797
100
AcDbArc
 50
90.0
 51
180.0
  0
LINE
  5
11E
330
7B
100
AcDbEntity
  8
0
  6
Continuous
 62
     0
370
    30
100
AcDbLine
 10
396.890411
 20
691.692931
 30
0.0
 11
396.890411
 21
720.726381
 31
0.0
  0
ARC
  5
11F
330
7B
100
AcDbEntity
  8
0
  6
Continuous
 62
     0
370
    30
100
AcDbCircle
 10
436.390411
 20
720.726381
 30
0.0
 40
0.5000000000047429
100
AcDbArc
 50
0.0
 51
90.0
  0
LINE
  5
120
330
7B
100
AcDbEntity
  8
0
  6
Continuous
 62
     0
370
     0
100
AcDbLine
 10
436.390411
 20
691.948952
 30
0.0
 11
436.390411
 21
721.226381
 31
0.0
  0
LINE
  5
121
330
7B
100
AcDbEntity
  8
0
  6
Continuous
 62
     0
370
    30
100
AcDbLine
 10
397.390411
 20
721.226381
 30
0.0
 11
436.390411
 21
721.226381
 31
0.0
  0
LINE
  5
122
330
7B
100
AcDbEntity
  8
0
  6
Continuous
 62
     0
370
    30
100
AcDbLine
 10
396.890411
 20
661.226381
 30
0.0
 11
396.890411
 21
673.226381
 31
0.0
  0
LINE
  5
123
330
7B
100
AcDbEntity
  8
0
  6
Continuous
 62
     0
370
     0
100
AcDbLine
 10
397.390411
 20
661.226381
 30
0.0
 11
396.890411
 21
661.226381
 31
0.0
  0
LINE
  5
124
330
7B
100
AcDbEntity
  8
0
  6
Continuous
 62
     0
370
     0
100
AcDbLine
 10
397.390411
 20
673.226381
 30
0.0
 11
397.390411
 21
661.226381
 31
0.0
  0
LINE
  5
125
330
7B
100
AcDbEntity
  8
0
  6
Continuous
 62
     0
370
     0
100
AcDbLine
 10
397.390411
 20
661.226381
 30
0.0
 11
436.390411
 21
661.226381
 31
0.0
  0
LINE
  5
126
330
7B
100
AcDbEntity
  8
0
  6
Continuous
 62
     0
370
     0
100
AcDbLine
 10
436.390411
 20
661.226381
 30
0.0
 11
436.390411
 21
673.226381
 31
0.0
  0
LINE
  5
127
330
7B
100
AcDbEntity
  8
0
  6
Continuous
 62
     0
370
     0
100
AcDbLine
 10
436.890411
 20
661.226381
 30
0.0
 11
436.390411
 21
661.226381
 31
0.0
  0
LINE
  5
128
330
7B
100
AcDbEntity
  8
0
  6
Continuous
 62
     0
370
    30
100
AcDbLine
 10
396.890411
 20
661.226381
 30
0.0
 11
396.890411
 21
560.226381
 31
0.0
  0
LINE
  5
129
330
7B
100
AcDbEntity
  8
0
  6
Continuous
 62
     0
370
     0
100
AcDbLine
 10
397.390411
 20
661.226381
 30
0.0
 11
397.390411
 21
560.226381
 31
0.0
  0
LINE
  5
12A
330
7B
100
AcDbEntity
  8
0
  6
Continuous
 62
     0
370
     0
100
AcDbLine
 10
436.390411
 20
661.226381
 30
0.0
 11
436.390411
 21
560.226381
 31
0.0
  0
ENDBLK
  5
12C
330
7B
100
AcDbEntity
  8
0
100
AcDbBlockEnd
  0
BLOCK
  5
1CC
330
12E
100
AcDbEntity
  8
0
100
AcDbBlockBegin
  2
b
 70
     0
 10
276.450317
 20
122.441742
 30
0.0
  3
b
  1

  0
ARC
  5
12F
330
12E
100
AcDbEntity
  8
0
  6
Continuous
 62
     0
370
    30
100
AcDbCircle
 10
470.249999
 20
378.491944
 30
0.0
 40
0.5
100
AcDbArc
 50
180.0
 51
270.0
  0
LINE
  5
130
330
12E
100
AcDbEntity
  8
0
  6
Continuous
 62
     0
370
     0
100
AcDbLine
 10
470.249999
 20
378.491944
 30
0.0
 11
470.249999
 21
377.991944
 31
0.0
  0
LINE
  5
131
330
12E
100
AcDbEntity
  8
0
  6
Continuous
 62
     0
370
    30
100
AcDbLine
 10
470.249999
 20
377.991944
 30
0.0
 11
526.249999
 21
377.991944
 31
0.0
  0
LINE
  5
132
330
12E
100
AcDbEntity
  8
0
  6
Continuous
 62
     0
370
     0
100
AcDbLine
 10
526.249999
 20
377.991944
 30
0.0
 11
526.249999
 21
378.491944
 31
0.0
  0
LINE
  5
133
330
12E
100
AcDbEntity
  8
0
  6
Continuous
 62
     0
370
     0
100
AcDbLine
 10
526.249999
 20
378.491944
 30
0.0
 11
470.249999
 21
378.491944
 31
0.0
  0
ARC
  5
134
330
12E
100
AcDbEntity
  8
0
  6
Continuous
 62
     0
370
    30
100
AcDbCircle
 10
526.249999
 20
378.491944
 30
0.0
 40
0.5
100
AcDbArc
 50
270.0
 51
0.0
  0
LINE
  5
135
330
12E
100
AcDbEntity
  8
0
  6
Continuous
 62
     0
370
     0
100
AcDbLine
 10
526.749999
 20
378.491944
 30
0.0
 11
526.249999
 21
378.491944
 31
0.0
  0
LINE
  5
136
330
12E
100
AcDbEntity
  8
0
  6
Continuous
 62
     0
370
     0
100
AcDbLine
 10
470.249999
 20
378.491944
 30
0.0
 11
469.749999
 21
378.491944
 31
0.0
  0
LINE
  5
137
330
12E
100
AcDbEntity
  8
0
  6
Continuous
 62
     0
370
    30
100
AcDbLine
 10
526.749999
 20
378.491944
 30
0.0
 11
526.749999
 21
388.211944
 31
0.0
  0
LINE
  5
138
330
12E
100
AcDbEntity
  8
0
  6
Continuous
 62
     0
370
    30
100
AcDbLine
 10
526.749999
 20
388.211944
 30
0.0
 11
526.249999
 21
388.211944
 31
0.0
  0
LINE
  5
139
330
12E
100
AcDbEntity
  8
0
  6
Continuous
 62
     0
370
     0
100
AcDbLine
 10
526.249999
 20
388.211944
 30
0.0
 11
526.249999
 21
378.491944
 31
0.0
  0
LINE
  5
13A
330
12E
100
AcDbEntity
  8
0
  6
Continuous
 62
     0
370
     0
100
AcDbLine
 10
470.249999
 20
378.491944
 30
0.0
 11
470.249999
 21
388.211944
 31
0.0
  0
LINE
  5
13B
330
12E
100
AcDbEntity
  8
0
  6
Continuous
 62
     0
370
    30
100
AcDbLine
 10
470.249999
 20
388.211944
 30
0.0
 11
469.749999
 21
388.211944
 31
0.0
  0
LINE
  5
13C
330
12E
100
AcDbEntity
  8
0
  6
Continuous
 62
     0
370
    30
100
AcDbLine
 10
469.749999
 20
388.211944
 30
0.0
 11
469.749999
 21
378.491944
 31
0.0
  0
LINE
  5
13D
330
12E
100
AcDbEntity
  8
0
  6
Continuous
 62
     0
370
    30
100
AcDbLine
 10
526.249999
 20
388.211944
 30
0.0
 11
470.249999
 21
388.211944
 31
0.0
  0
ARC
  5
13E
330
12E
100
AcDbEntity
  8
0
  6
Continuous
 62
     0
370
    30
100
AcDbCircle
 10
517.723238
 20
377.265184
 30
0.0
 40
0.527439666705886
100
AcDbArc
 50
2.908246
 51
87.091773
  0
ARC
  5
13F
330
12E
100
AcDbEntity
  8
0
  6
Continuous
 62
     0
370
    30
100
AcDbCircle
 10
518.750273
 20
377.29167
 30
0.0
 40
0.5002746874565984
100
AcDbArc
 50
90.031451
 51
179.968549
  0
LINE
  5
140
330
12E
100
AcDbEntity
  8
0
  6
Continuous
 62
     0
370
    30
100
AcDbLine
 10
518.249999
 20
377.291945
 30
0.0
 11
518.249999
 21
370.791945
 31
0.0
  0
LINE
  5
141
330
12E
100
AcDbEntity
  8
0
  6
Continuous
 62
     0
370
    30
100
AcDbLine
 10
518.249999
 20
370.791945
 30
0.0
 11
518.249999
 21
350.291945
 31
0.0
  0
LWPOLYLINE
  5
142
330
12E
100
AcDbEntity
  8
0
  6
Continuous
 62
     0
370
     0
100
AcDbPolyline
 90
       17
 70
     0
 43
0.0
 10
517.75
 20
377.791931
 10
517.75
 20
377.7547
 10
517.75
 20
377.644073
 10
517.75
 20
377.463593
 10
517.75
 20
377.218658
 10
517.75
 20
376.916382
 10
517.75
 20
376.56488
 10
517.75
 20
376.173035
 10
517.75
 20
375.749725
 10
517.75
 20
375.287079
 10
517.75
 20
374.770874
 10
517.75
 20
374.203644
 10
517.75
 20
373.589752
 10
517.75
 20
372.935455
 10
517.75
 20
372.248871
 10
517.75
 20
371.539642
 10
517.75
 20
370.791931
  0
LINE
  5
143
330
12E
100
AcDbEntity
  8
0
  6
Continuous
 62
     0
370
     0
100
AcDbLine
 10
517.749999
 20
370.791945
 30
0.0
 11
518.249999
 21
370.791945
 31
0.0
  0
ARC
  5
144
330
12E
100
AcDbEntity
  8
0
  6
Continuous
 62
     0
370
    30
100
AcDbCircle
 10
477.749999
 20
377.291945
 30
0.0
 40
0.5
100
AcDbArc
 50
0.0
 51
90.0
  0
ARC
  5
145
330
12E
100
AcDbEntity
  8
0
  6
Continuous
 62
     0
370
    30
100
AcDbCircle
 10
478.776751
 20
377.265193
 30
0.0
 40
0.5274310155261523
100
AcDbArc
 50
92.907378
 51
177.092603
  0
LINE
  5
146
330
12E
100
AcDbEntity
  8
0
  6
Continuous
 62
     0
370
    30
100
AcDbLine
 10
478.249999
 20
377.291945
 30
0.0
 11
478.249999
 21
370.791945
 31
0.0
  0
LINE
  5
147
330
12E
100
AcDbEntity
  8
0
  6
Continuous
 62
     0
370
     0
100
AcDbLine
 10
478.249999
 20
370.791945
 30
0.0
 11
478.749999
 21
370.791945
 31
0.0
  0
LINE
  5
148
330
12E
100
AcDbEntity
  8
0
  6
Continuous
 62
     0
370
     0
100
AcDbLine
 10
478.749999
 20
370.791945
 30
0.0
 11
478.749999
 21
377.791945
 31
0.0
  0
LINE
  5
149
330
12E
100
AcDbEntity
  8
0
  6
Continuous
 62
     0
370
    30
100
AcDbLine
 10
478.249999
 20
350.291945
 30
0.0
 11
478.249999
 21
370.791945
 31
0.0
  0
LINE
  5
14A
330
12E
100
AcDbEntity
  8
0
  6
Continuous
 62
     0
370
    30
100
AcDbLine
 10
517.749999
 20
350.291945
 30
0.0
 11
517.749999
 21
349.791945
 31
0.0
  0
ARC
  5
14B
330
12E
100
AcDbEntity
  8
0
  6
Continuous
 62
     0
370
    30
100
AcDbCircle
 10
517.749999
 20
350.291945
 30
0.0
 40
0.5000000000015774
100
AcDbArc
 50
270.0
 51
360.0
  0
LINE
  5
14C
330
12E
100
AcDbEntity
  8
0
  6
Continuous
 62
     0
370
     0
100
AcDbLine
 10
518.249999
 20
350.291945
 30
0.0
 11
517.749999
 21
350.291945
 31
0.0
  0
ARC
  5
14D
330
12E
100
AcDbEntity
  8
0
  6
Continuous
 62
     0
370
    30
100
AcDbCircle
 10
478.749999
 20
350.291945
 30
0.0
 40
0.4999999999991545
100
AcDbArc
 50
180.0
 51
270.0
  0
LWPOLYLINE
  5
14E
330
12E
100
AcDbEntity
  8
0
  6
Continuous
 62
     0
370
    30
100
AcDbPolyline
 90
        5
 70
     0
 43
0.0
 10
478.75
 20
349.791931
 10
478.75
 20
349.826965
 10
478.75
 20
349.937988
 10
478.75
 20
350.107147
 10
478.75
 20
350.291931
  0
LINE
  5
14F
330
12E
100
AcDbEntity
  8
0
  6
Continuous
 62
     0
370
     0
100
AcDbLine
 10
478.749999
 20
350.291945
 30
0.0
 11
478.249999
 21
350.291945
 31
0.0
  0
LINE
  5
150
330
12E
100
AcDbEntity
  8
0
  6
Continuous
 62
     0
370
     0
100
AcDbLine
 10
517.749999
 20
350.291945
 30
0.0
 11
478.749999
 21
350.291945
 31
0.0
  0
LINE
  5
151
330
12E
100
AcDbEntity
  8
0
  6
Continuous
 62
     0
370
    30
100
AcDbLine
 10
478.749999
 20
349.791945
 30
0.0
 11
517.749999
 21
349.791945
 31
0.0
  0
LINE
  5
152
330
12E
100
AcDbEntity
  8
0
  6
Continuous
 62
     0
370
     0
100
AcDbLine
 10
478.749999
 20
350.291945
 30
0.0
 11
478.749999
 21
370.791945
 31
0.0
  0
LINE
  5
153
330
12E
100
AcDbEntity
  8
0
  6
Continuous
 62
     0
370
     0
100
AcDbLine
 10
517.749999
 20
370.791945
 30
0.0
 11
517.749999
 21
350.291945
 31
0.0
  0
LINE
  5
154
330
12E
100
AcDbEntity
  8
0
  6
Continuous
 62
     0
370
     0
100
AcDbLine
 10
517.749999
 20
370.791945
 30
0.0
 11
478.749999
 21
370.791945
 31
0.0
  0
LINE
  5
155
330
12E
100
AcDbEntity
  8
0
  6
Continuous
 62
     0
370
    30
100
AcDbLine
 10
522.249999
 20
377.791945
 30
0.0
 11
474.249999
 21
377.791945
 31
0.0
  0
ARC
  5
156
330
12E
100
AcDbEntity
  8
0
  6
Continuous
 62
     0
370
    30
100
AcDbCircle
 10
363.530824
 20
378.491944
 30
0.0
 40
0.5
100
AcDbArc
 50
270.0
 51
360.0
  0
LINE
  5
157
330
12E
100
AcDbEntity
  8
0
  6
Continuous
 62
     0
370
     0
100
AcDbLine
 10
307.530824
 20
378.491944
 30
0.0
 11
363.530824
 21
378.491944
 31
0.0
  0
LINE
  5
158
330
12E
100
AcDbEntity
  8
0
  6
Continuous
 62
     0
370
     0
100
AcDbLine
 10
307.530824
 20
377.991944
 30
0.0
 11
307.530824
 21
378.491944
 31
0.0
  0
LINE
  5
159
330
12E
100
AcDbEntity
  8
0
  6
Continuous
 62
     0
370
    30
100
AcDbLine
 10
363.530824
 20
377.991944
 30
0.0
 11
307.530824
 21
377.991944
 31
0.0
  0
LINE
  5
15A
330
12E
100
AcDbEntity
  8
0
  6
Continuous
 62
     0
370
     0
100
AcDbLine
 10
363.530824
 20
378.491944
 30
0.0
 11
363.530824
 21
377.991944
 31
0.0
  0
ARC
  5
15B
330
12E
100
AcDbEntity
  8
0
  6
Continuous
 62
     0
370
    30
100
AcDbCircle
 10
307.530824
 20
378.491944
 30
0.0
 40
0.5
100
AcDbArc
 50
180.0
 51
270.0
  0
LINE
  5
15C
330
12E
100
AcDbEntity
  8
0
  6
Continuous
 62
     0
370
     0
100
AcDbLine
 10
307.030824
 20
378.491944
 30
0.0
 11
307.530824
 21
378.491944
 31
0.0
  0
LINE
  5
15D
330
12E
100
AcDbEntity
  8
0
  6
Continuous
 62
     0
370
     0
100
AcDbLine
 10
363.530824
 20
378.491944
 30
0.0
 11
364.030824
 21
378.491944
 31
0.0
  0
LINE
  5
15E
330
12E
100
AcDbEntity
  8
0
  6
Continuous
 62
     0
370
     0
100
AcDbLine
 10
307.530824
 20
388.211944
 30
0.0
 11
307.530824
 21
378.491944
 31
0.0
  0
LINE
  5
15F
330
12E
100
AcDbEntity
  8
0
  6
Continuous
 62
     0
370
    30
100
AcDbLine
 10
307.030824
 20
388.211944
 30
0.0
 11
307.530824
 21
388.211944
 31
0.0
  0
LINE
  5
160
330
12E
100
AcDbEntity
  8
0
  6
Continuous
 62
     0
370
    30
100
AcDbLine
 10
307.030824
 20
378.491944
 30
0.0
 11
307.030824
 21
388.211944
 31
0.0
  0
LINE
  5
161
330
12E
100
AcDbEntity
  8
0
  6
Continuous
 62
     0
370
    30
100
AcDbLine
 10
364.030824
 20
388.211944
 30
0.0
 11
364.030824
 21
378.491944
 31
0.0
  0
LINE
  5
162
330
12E
100
AcDbEntity
  8
0
  6
Continuous
 62
     0
370
    30
100
AcDbLine
 10
363.530824
 20
388.211944
 30
0.0
 11
364.030824
 21
388.211944
 31
0.0
  0
LINE
  5
163
330
12E
100
AcDbEntity
  8
0
  6
Continuous
 62
     0
370
     0
100
AcDbLine
 10
363.530824
 20
378.491944
 30
0.0
 11
363.530824
 21
388.211944
 31
0.0
  0
LINE
  5
164
330
12E
100
AcDbEntity
  8
0
  6
Continuous
 62
     0
370
    30
100
AcDbLine
 10
307.530824
 20
388.211944
 30
0.0
 11
363.530824
 21
388.211944
 31
0.0
  0
ARC
  5
165
330
12E
100
AcDbEntity
  8
0
  6
Continuous
 62
     0
370
    30
100
AcDbCircle
 10
315.03055
 20
377.29167
 30
0.0
 40
0.5002746874548067
100
AcDbArc
 50
0.031451
 51
89.968549
  0
ARC
  5
166
330
12E
100
AcDbEntity
  8
0
  6
Continuous
 62
     0
370
    30
100
AcDbCircle
 10
316.057585
 20
377.265184
 30
0.0
 40
0.5274396666966763
100
AcDbArc
 50
92.908227
 51
177.091754
  0
LINE
  5
167
330
12E
100
AcDbEntity
  8
0
  6
Continuous
 62
     0
370
    30
100
AcDbLine
 10
315.530824
 20
370.791945
 30
0.0
 11
315.530824
 21
350.291945
 31
0.0
  0
LINE
  5
168
330
12E
100
AcDbEntity
  8
0
  6
Continuous
 62
     0
370
    30
100
AcDbLine
 10
315.530824
 20
377.291945
 30
0.0
 11
315.530824
 21
370.791945
 31
0.0
  0
LINE
  5
169
330
12E
100
AcDbEntity
  8
0
  6
Continuous
 62
     0
370
     0
100
AcDbLine
 10
316.030824
 20
370.791945
 30
0.0
 11
315.530824
 21
370.791945
 31
0.0
  0
LWPOLYLINE
  5
16A
330
12E
100
AcDbEntity
  8
0
  6
Continuous
 62
     0
370
     0
100
AcDbPolyline
 90
       17
 70
     0
 43
0.0
 10
316.030823
 20
377.791931
 10
316.030823
 20
377.7547
 10
316.030823
 20
377.644073
 10
316.030823
 20
377.463593
 10
316.030823
 20
377.218658
 10
316.030823
 20
376.916382
 10
316.030823
 20
376.56488
 10
316.030823
 20
376.173035
 10
316.030823
 20
375.749725
 10
316.030823
 20
375.287079
 10
316.030823
 20
374.770874
 10
316.030823
 20
374.203644
 10
316.030823
 20
373.589752
 10
316.030823
 20
372.935455
 10
316.030823
 20
372.248871
 10
316.030823
 20
371.539642
 10
316.030823
 20
370.791931
  0
ARC
  5
16B
330
12E
100
AcDbEntity
  8
0
  6
Continuous
 62
     0
370
    30
100
AcDbCircle
 10
356.030824
 20
377.291945
 30
0.0
 40
0.5
100
AcDbArc
 50
90.0
 51
180.0
  0
ARC
  5
16C
330
12E
100
AcDbEntity
  8
0
  6
Continuous
 62
     0
370
    30
100
AcDbCircle
 10
355.004072
 20
377.265193
 30
0.0
 40
0.5274310155199036
100
AcDbArc
 50
2.907397
 51
87.092622
  0
LINE
  5
16D
330
12E
100
AcDbEntity
  8
0
  6
Continuous
 62
     0
370
     0
100
AcDbLine
 10
355.030824
 20
370.791945
 30
0.0
 11
355.030824
 21
377.791945
 31
0.0
  0
LINE
  5
16E
330
12E
100
AcDbEntity
  8
0
  6
Continuous
 62
     0
370
     0
100
AcDbLine
 10
355.530824
 20
370.791945
 30
0.0
 11
355.030824
 21
370.791945
 31
0.0
  0
LINE
  5
16F
330
12E
100
AcDbEntity
  8
0
  6
Continuous
 62
     0
370
    30
100
AcDbLine
 10
355.530824
 20
377.291945
 30
0.0
 11
355.530824
 21
370.791945
 31
0.0
  0
LINE
  5
170
330
12E
100
AcDbEntity
  8
0
  6
Continuous
 62
     0
370
    30
100
AcDbLine
 10
355.530824
 20
350.291945
 30
0.0
 11
355.530824
 21
370.791945
 31
0.0
  0
LINE
  5
171
330
12E
100
AcDbEntity
  8
0
  6
Continuous
 62
     0
370
     0
100
AcDbLine
 10
315.530824
 20
350.291945
 30
0.0
 11
316.030824
 21
350.291945
 31
0.0
  0
ARC
  5
172
330
12E
100
AcDbEntity
  8
0
  6
Continuous
 62
     0
370
    30
100
AcDbCircle
 10
316.030824
 20
350.291945
 30
0.0
 40
0.4999999999934204
100
AcDbArc
 50
180.0
 51
270.0
  0
LINE
  5
173
330
12E
100
AcDbEntity
  8
0
  6
Continuous
 62
     0
370
    30
100
AcDbLine
 10
316.030824
 20
350.291945
 30
0.0
 11
316.030824
 21
349.791945
 31
0.0
  0
LINE
  5
174
330
12E
100
AcDbEntity
  8
0
  6
Continuous
 62
     0
370
     0
100
AcDbLine
 10
355.030824
 20
350.291945
 30
0.0
 11
355.530824
 21
350.291945
 31
0.0
  0
LWPOLYLINE
  5
175
330
12E
100
AcDbEntity
  8
0
  6
Continuous
 62
     0
370
    30
100
AcDbPolyline
 90
        5
 70
     0
 43
0.0
 10
355.030823
 20
349.791931
 10
355.030823
 20
349.826965
 10
355.030823
 20
349.937988
 10
355.030823
 20
350.107147
 10
355.030823
 20
350.291931
  0
ARC
  5
176
330
12E
100
AcDbEntity
  8
0
  6
Continuous
 62
     0
370
    30
100
AcDbCircle
 10
355.030824
 20
350.291945
 30
0.0
 40
0.4999999999993214
100
AcDbArc
 50
270.0
 51
0.0
  0
LINE
  5
177
330
12E
100
AcDbEntity
  8
0
  6
Continuous
 62
     0
370
    30
100
AcDbLine
 10
355.030824
 20
349.791945
 30
0.0
 11
316.030824
 21
349.791945
 31
0.0
  0
LINE
  5
178
330
12E
100
AcDbEntity
  8
0
  6
Continuous
 62
     0
370
     0
100
AcDbLine
 10
316.030824
 20
350.291945
 30
0.0
 11
355.030824
 21
350.291945
 31
0.0
  0
LINE
  5
179
330
12E
100
AcDbEntity
  8
0
  6
Continuous
 62
     0
370
     0
100
AcDbLine
 10
355.030824
 20
350.291945
 30
0.0
 11
355.030824
 21
370.791945
 31
0.0
  0
LINE
  5
17A
330
12E
100
AcDbEntity
  8
0
  6
Continuous
 62
     0
370
     0
100
AcDbLine
 10
316.030824
 20
370.791945
 30
0.0
 11
316.030824
 21
350.291945
 31
0.0
  0
LINE
  5
17B
330
12E
100
AcDbEntity
  8
0
  6
Continuous
 62
     0
370
     0
100
AcDbLine
 10
316.030824
 20
370.791945
 30
0.0
 11
355.030824
 21
370.791945
 31
0.0
  0
LINE
  5
17C
330
12E
100
AcDbEntity
  8
0
  6
Continuous
 62
     0
370
    30
100
AcDbLine
 10
311.530824
 20
377.791945
 30
0.0
 11
359.530824
 21
377.791945
 31
0.0
  0
LINE
  5
17D
330
12E
100
AcDbEntity
  8
0
  6
Continuous
 62
     0
370
    30
100
AcDbLine
 10
359.530824
 20
377.791945
 30
0.0
 11
359.530824
 21
377.991945
 31
0.0
  0
ARC
  5
17E
330
12E
100
AcDbEntity
  8
0
  6
Continuous
 62
     0
370
    30
100
AcDbCircle
 10
416.890411
 20
264.451135
 30
0.0
 40
24.0
100
AcDbArc
 50
326.44269
 51
90.0
  0
ARC
  5
17F
330
12E
100
AcDbEntity
  8
0
  6
Continuous
 62
     0
370
    30
100
AcDbCircle
 10
416.890411
 20
264.451135
 30
0.0
 40
24.0
100
AcDbArc
 50
90.0
 51
213.55731
  0
LINE
  5
180
330
12E
100
AcDbEntity
  8
0
  6
Continuous
 62
     0
370
    30
100
AcDbLine
 10
445.390411
 20
292.451135
 30
0.0
 11
445.390411
 21
236.451135
 31
0.0
  0
LINE
  5
181
330
12E
100
AcDbEntity
  8
0
  6
Continuous
 62
     0
370
     0
100
AcDbLine
 10
444.890411
 20
292.451135
 30
0.0
 11
445.390411
 21
292.451135
 31
0.0
  0
LINE
  5
182
330
12E
100
AcDbEntity
  8
0
  6
Continuous
 62
     0
370
     0
100
AcDbLine
 10
444.890411
 20
236.451135
 30
0.0
 11
444.890411
 21
292.451135
 31
0.0
  0
LINE
  5
183
330
12E
100
AcDbEntity
  8
0
  6
Continuous
 62
     0
370
     0
100
AcDbLine
 10
445.390411
 20
236.451135
 30
0.0
 11
444.890411
 21
236.451135
 31
0.0
  0
LINE
  5
184
330
12E
100
AcDbEntity
  8
0
  6
Continuous
 62
     0
370
    30
100
AcDbLine
 10
388.890411
 20
292.951135
 30
0.0
 11
444.890411
 21
292.951135
 31
0.0
  0
LINE
  5
185
330
12E
100
AcDbEntity
  8
0
  6
Continuous
 62
     0
370
     0
100
AcDbLine
 10
388.890411
 20
292.451135
 30
0.0
 11
388.890411
 21
292.951135
 31
0.0
  0
LINE
  5
186
330
12E
100
AcDbEntity
  8
0
  6
Continuous
 62
     0
370
     0
100
AcDbLine
 10
444.890411
 20
292.451135
 30
0.0
 11
388.890411
 21
292.451135
 31
0.0
  0
LINE
  5
187
330
12E
100
AcDbEntity
  8
0
  6
Continuous
 62
     0
370
     0
100
AcDbLine
 10
444.890411
 20
292.951135
 30
0.0
 11
444.890411
 21
292.451135
 31
0.0
  0
LINE
  5
188
330
12E
100
AcDbEntity
  8
0
  6
Continuous
 62
     0
370
    30
100
AcDbLine
 10
388.390411
 20
236.451135
 30
0.0
 11
388.390411
 21
292.451135
 31
0.0
  0
LINE
  5
189
330
12E
100
AcDbEntity
  8
0
  6
Continuous
 62
     0
370
     0
100
AcDbLine
 10
388.890411
 20
236.451135
 30
0.0
 11
388.390411
 21
236.451135
 31
0.0
  0
LINE
  5
18A
330
12E
100
AcDbEntity
  8
0
  6
Continuous
 62
     0
370
     0
100
AcDbLine
 10
388.890411
 20
292.451135
 30
0.0
 11
388.890411
 21
236.451135
 31
0.0
  0
LINE
  5
18B
330
12E
100
AcDbEntity
  8
0
  6
Continuous
 62
     0
370
     0
100
AcDbLine
 10
388.390411
 20
292.451135
 30
0.0
 11
388.890411
 21
292.451135
 31
0.0
  0
ARC
  5
18C
330
12E
100
AcDbEntity
  8
0
  6
Continuous
 62
     0
370
    30
100
AcDbCircle
 10
388.890411
 20
292.451135
 30
0.0
 40
0.5000000000001101
100
AcDbArc
 50
90.0
 51
180.0
  0
LINE
  5
18D
330
12E
100
AcDbEntity
  8
0
  6
Continuous
 62
     0
370
    30
100
AcDbLine
 10
396.890411
 20
235.951135
 30
0.0
 11
388.890411
 21
235.951135
 31
0.0
  0
LINE
  5
18E
330
12E
100
AcDbEntity
  8
0
  6
Continuous
 62
     0
370
    30
100
AcDbLine
 10
444.890411
 20
235.951135
 30
0.0
 11
436.890411
 21
235.951135
 31
0.0
  0
LINE
  5
18F
330
12E
100
AcDbEntity
  8
0
  6
Continuous
 62
     0
370
     0
100
AcDbLine
 10
444.890411
 20
236.451135
 30
0.0
 11
444.890411
 21
235.951135
 31
0.0
  0
LINE
  5
190
330
12E
100
AcDbEntity
  8
0
  6
Continuous
 62
     0
370
     0
100
AcDbLine
 10
436.890411
 20
236.451135
 30
0.0
 11
444.890411
 21
236.451135
 31
0.0
  0
LINE
  5
191
330
12E
100
AcDbEntity
  8
0
  6
Continuous
 62
     0
370
     0
100
AcDbLine
 10
388.890411
 20
236.451135
 30
0.0
 11
396.890411
 21
236.451135
 31
0.0
  0
LINE
  5
192
330
12E
100
AcDbEntity
  8
0
  6
Continuous
 62
     0
370
     0
100
AcDbLine
 10
388.890411
 20
235.951135
 30
0.0
 11
388.890411
 21
236.451135
 31
0.0
  0
ARC
  5
193
330
12E
100
AcDbEntity
  8
0
  6
Continuous
 62
     0
370
    30
100
AcDbCircle
 10
388.890411
 20
236.451135
 30
0.0
 40
0.5000000000000355
100
AcDbArc
 50
180.0
 51
270.0
  0
ARC
  5
194
330
12E
100
AcDbEntity
  8
0
  6
Continuous
 62
     0
370
    30
100
AcDbCircle
 10
444.890411
 20
292.451135
 30
0.0
 40
0.4999999999995701
100
AcDbArc
 50
0.0
 51
90.0
  0
ARC
  5
195
330
12E
100
AcDbEntity
  8
0
  6
Continuous
 62
     0
370
    30
100
AcDbCircle
 10
444.890411
 20
236.451135
 30
0.0
 40
0.5000000000000764
100
AcDbArc
 50
270.0
 51
360.0
  0
ARC
  5
196
330
12E
100
AcDbEntity
  8
0
  6
Continuous
 62
     0
370
    30
100
AcDbCircle
 10
416.890411
 20
264.451135
 30
0.0
 40
24.25000000000001
100
AcDbArc
 50
0.0
 51
180.0
  0
ARC
  5
197
330
12E
100
AcDbEntity
  8
0
  6
Continuous
 62
     0
370
    30
100
AcDbCircle
 10
416.890411
 20
264.451135
 30
0.0
 40
24.24999999999998
100
AcDbArc
 50
180.0
 51
214.43763
  0
ARC
  5
198
330
12E
100
AcDbEntity
  8
0
  6
Continuous
 62
     0
370
    30
100
AcDbCircle
 10
416.890411
 20
264.451135
 30
0.0
 40
24.24999999999991
100
AcDbArc
 50
325.56237
 51
0.0
  0
ARC
  5
199
330
12E
100
AcDbEntity
  8
0
  6
Continuous
 62
     0
370
    30
100
AcDbCircle
 10
413.390411
 20
276.451134
 30
0.0
 40
0.5
100
AcDbArc
 50
180.0
 51
270.0
  0
LINE
  5
19A
330
12E
100
AcDbEntity
  8
0
  6
Continuous
 62
     0
370
    30
100
AcDbLine
 10
412.890411
 20
283.451134
 30
0.0
 11
412.890411
 21
276.451134
 31
0.0
  0
ARC
  5
19B
330
12E
100
AcDbEntity
  8
0
  6
Continuous
 62
     0
370
    30
100
AcDbCircle
 10
413.390411
 20
283.451134
 30
0.0
 40
0.5
100
AcDbArc
 50
90.0
 51
180.0
  0
LINE
  5
19C
330
12E
100
AcDbEntity
  8
0
  6
Continuous
 62
     0
370
    30
100
AcDbLine
 10
420.390411
 20
283.951134
 30
0.0
 11
413.390411
 21
283.951134
 31
0.0
  0
LINE
  5
19D
330
12E
100
AcDbEntity
  8
0
  6
Continuous
 62
     0
370
     0
100
AcDbLine
 10
420.390411
 20
276.451134
 30
0.0
 11
420.390411
 21
283.451134
 31
0.0
  0
LINE
  5
19E
330
12E
100
AcDbEntity
  8
0
  6
Continuous
 62
     0
370
     0
100
AcDbLine
 10
420.890411
 20
276.451134
 30
0.0
 11
420.390411
 21
276.451134
 31
0.0
  0
LINE
  5
19F
330
12E
100
AcDbEntity
  8
0
  6
Continuous
 62
     0
370
    30
100
AcDbLine
 10
420.890411
 20
283.451134
 30
0.0
 11
420.890411
 21
276.451134
 31
0.0
  0
LINE
  5
1A0
330
12E
100
AcDbEntity
  8
0
  6
Continuous
 62
     0
370
     0
100
AcDbLine
 10
420.390411
 20
283.451134
 30
0.0
 11
420.890411
 21
283.451134
 31
0.0
  0
LINE
  5
1A1
330
12E
100
AcDbEntity
  8
0
  6
Continuous
 62
     0
370
     0
100
AcDbLine
 10
420.390411
 20
283.451134
 30
0.0
 11
413.390411
 21
283.451134
 31
0.0
  0
LINE
  5
1A2
330
12E
100
AcDbEntity
  8
0
  6
Continuous
 62
     0
370
     0
100
AcDbLine
 10
420.390411
 20
283.951134
 30
0.0
 11
420.390411
 21
283.451134
 31
0.0
  0
LINE
  5
1A3
330
12E
100
AcDbEntity
  8
0
  6
Continuous
 62
     0
370
     0
100
AcDbLine
 10
413.390411
 20
283.451134
 30
0.0
 11
413.390411
 21
283.951134
 31
0.0
  0
LINE
  5
1A4
330
12E
100
AcDbEntity
  8
0
  6
Continuous
 62
     0
370
     0
100
AcDbLine
 10
413.390411
 20
283.451134
 30
0.0
 11
413.390411
 21
276.451134
 31
0.0
  0
LINE
  5
1A5
330
12E
100
AcDbEntity
  8
0
  6
Continuous
 62
     0
370
     0
100
AcDbLine
 10
412.890411
 20
283.451134
 30
0.0
 11
413.390411
 21
283.451134
 31
0.0
  0
LINE
  5
1A6
330
12E
100
AcDbEntity
  8
0
  6
Continuous
 62
     0
370
     0
100
AcDbLine
 10
413.390411
 20
276.451134
 30
0.0
 11
412.890411
 21
276.451134
 31
0.0
  0
ARC
  5
1A7
330
12E
100
AcDbEntity
  8
0
  6
Continuous
 62
     0
370
    30
100
AcDbCircle
 10
420.390411
 20
283.451134
 30
0.0
 40
0.4999999999999707
100
AcDbArc
 50
0.0
 51
90.0
  0
LINE
  5
1A8
330
12E
100
AcDbEntity
  8
0
  6
Continuous
 62
     0
370
     0
100
AcDbLine
 10
413.390411
 20
276.451134
 30
0.0
 11
420.390411
 21
276.451134
 31
0.0
  0
LINE
  5
1A9
330
12E
100
AcDbEntity
  8
0
  6
Continuous
 62
     0
370
     0
100
AcDbLine
 10
413.390411
 20
275.951134
 30
0.0
 11
413.390411
 21
276.451134
 31
0.0
  0
LINE
  5
1AA
330
12E
100
AcDbEntity
  8
0
  6
Continuous
 62
     0
370
    30
100
AcDbLine
 10
420.390411
 20
275.951134
 30
0.0
 11
413.390411
 21
275.951134
 31
0.0
  0
LINE
  5
1AB
330
12E
100
AcDbEntity
  8
0
  6
Continuous
 62
     0
370
     0
100
AcDbLine
 10
420.390411
 20
276.451134
 30
0.0
 11
420.390411
 21
275.951134
 31
0.0
  0
ARC
  5
1AC
330
12E
100
AcDbEntity
  8
0
  6
Continuous
 62
     0
370
    30
100
AcDbCircle
 10
420.390411
 20
276.451134
 30
0.0
 40
0.4999999999999618
100
AcDbArc
 50
270.0
 51
0.0
  0
LINE
  5
1AD
330
12E
100
AcDbEntity
  8
0
  6
Continuous
 62
     0
370
    30
100
AcDbLine
 10
436.390411
 20
114.446992
 30
0.0
 11
397.390411
 21
114.446992
 31
0.0
  0
ARC
  5
1AE
330
12E
100
AcDbEntity
  8
0
  6
Continuous
 62
     0
370
    30
100
AcDbCircle
 10
397.434831
 20
114.990937
 30
0.0
 40
0.5457551947131984
100
AcDbArc
 50
175.99107
 51
265.331448
  0
ARC
  5
1AF
330
12E
100
AcDbEntity
  8
0
  6
Continuous
 62
     0
370
    30
100
AcDbCircle
 10
436.345992
 20
114.990937
 30
0.0
 40
0.5457552033713375
100
AcDbArc
 50
274.668553
 51
4.008934
  0
LINE
  5
1B0
330
12E
100
AcDbEntity
  8
0
  6
Continuous
 62
     0
370
    30
100
AcDbLine
 10
436.890411
 20
209.451128
 30
0.0
 11
436.890411
 21
268.951131
 31
0.0
  0
LINE
  5
1B1
330
12E
100
AcDbEntity
  8
0
  6
Continuous
 62
     0
370
    30
100
AcDbLine
 10
436.890411
 20
177.145477
 30
0.0
 11
436.890411
 21
209.451128
 31
0.0
  0
LINE
  5
1B2
330
12E
100
AcDbEntity
  8
0
  6
Continuous
 62
     0
370
    30
100
AcDbLine
 10
436.890411
 20
126.037364
 30
0.0
 11
436.890411
 21
177.145477
 31
0.0
  0
LINE
  5
1B3
330
12E
100
AcDbEntity
  8
0
  6
Continuous
 62
     0
370
    30
100
AcDbLine
 10
436.890411
 20
115.029092
 30
0.0
 11
436.890411
 21
126.037364
 31
0.0
  0
ARC
  5
1B4
330
12E
100
AcDbEntity
  8
0
  6
Continuous
 62
     0
370
     0
100
AcDbCircle
 10
436.423185
 20
126.075519
 30
0.0
 40
0.4687818374911125
100
AcDbArc
 50
265.991066
 51
355.331448
  0
LINE
  5
1B5
330
12E
100
AcDbEntity
  8
0
  6
Continuous
 62
     0
370
     0
100
AcDbLine
 10
436.390411
 20
114.446992
 30
0.0
 11
436.390411
 21
125.607884
 31
0.0
  0
LINE
  5
1B6
330
12E
100
AcDbEntity
  8
0
  6
Continuous
 62
     0
370
     0
100
AcDbLine
 10
397.390411
 20
125.607884
 30
0.0
 11
436.390411
 21
125.607884
 31
0.0
  0
LINE
  5
1B7
330
12E
100
AcDbEntity
  8
0
  6
Continuous
 62
     0
370
     0
100
AcDbLine
 10
397.390411
 20
114.446992
 30
0.0
 11
397.390411
 21
125.607884
 31
0.0
  0
ARC
  5
1B8
330
12E
100
AcDbEntity
  8
0
  6
Continuous
 62
     0
370
     0
100
AcDbCircle
 10
397.357638
 20
126.075519
 30
0.0
 40
0.4687818374930298
100
AcDbArc
 50
184.668552
 51
274.008934
  0
LINE
  5
1B9
330
12E
100
AcDbEntity
  8
0
  6
Continuous
 62
     0
370
    30
100
AcDbLine
 10
396.890411
 20
115.029092
 30
0.0
 11
396.890411
 21
126.037364
 31
0.0
  0
LINE
  5
1BA
330
12E
100
AcDbEntity
  8
0
  6
Continuous
 62
     0
370
     0
100
AcDbLine
 10
397.390411
 20
177.145477
 30
0.0
 11
397.390411
 21
125.607884
 31
0.0
  0
LINE
  5
1BB
330
12E
100
AcDbEntity
  8
0
  6
Continuous
 62
     0
370
     0
100
AcDbLine
 10
396.890411
 20
177.145477
 30
0.0
 11
397.390411
 21
177.145477
 31
0.0
  0
LINE
  5
1BC
330
12E
100
AcDbEntity
  8
0
  6
Continuous
 62
     0
370
    30
100
AcDbLine
 10
396.890411
 20
126.037364
 30
0.0
 11
396.890411
 21
177.145477
 31
0.0
  0
LINE
  5
1BD
330
12E
100
AcDbEntity
  8
0
  6
Continuous
 62
     0
370
     0
100
AcDbLine
 10
436.390411
 20
177.145477
 30
0.0
 11
436.890411
 21
177.145477
 31
0.0
  0
LINE
  5
1BE
330
12E
100
AcDbEntity
  8
0
  6
Continuous
 62
     0
370
     0
100
AcDbLine
 10
436.390411
 20
125.607884
 30
0.0
 11
436.390411
 21
177.145477
 31
0.0
  0
LINE
  5
1BF
330
12E
100
AcDbEntity
  8
0
  6
Continuous
 62
     0
370
     0
100
AcDbLine
 10
397.390411
 20
177.145477
 30
0.0
 11
436.390411
 21
177.145477
 31
0.0
  0
LINE
  5
1C0
330
12E
100
AcDbEntity
  8
0
  6
Continuous
 62
     0
370
     0
100
AcDbLine
 10
436.390411
 20
209.451128
 30
0.0
 11
436.390411
 21
177.145477
 31
0.0
  0
LINE
  5
1C1
330
12E
100
AcDbEntity
  8
0
  6
Continuous
 62
     0
370
     0
100
AcDbLine
 10
397.390411
 20
209.451128
 30
0.0
 11
436.390411
 21
209.451128
 31
0.0
  0
LINE
  5
1C2
330
12E
100
AcDbEntity
  8
0
  6
Continuous
 62
     0
370
     0
100
AcDbLine
 10
397.390411
 20
177.145477
 30
0.0
 11
397.390411
 21
209.451128
 31
0.0
  0
LINE
  5
1C3
330
12E
100
AcDbEntity
  8
0
  6
Continuous
 62
     0
370
     0
100
AcDbLine
 10
396.890411
 20
209.451128
 30
0.0
 11
397.390411
 21
209.451128
 31
0.0
  0
LINE
  5
1C4
330
12E
100
AcDbEntity
  8
0
  6
Continuous
 62
     0
370
    30
100
AcDbLine
 10
396.890411
 20
177.145477
 30
0.0
 11
396.890411
 21
209.451128
 31
0.0
  0
LINE
  5
1C5
330
12E
100
AcDbEntity
  8
0
  6
Continuous
 62
     0
370
     0
100
AcDbLine
 10
436.390411
 20
209.451128
 30
0.0
 11
436.890411
 21
209.451128
 31
0.0
  0
ARC
  5
1C6
330
12E
100
AcDbEntity
  8
0
  6
Continuous
 62
     0
370
    30
100
AcDbCircle
 10
436.390411
 20
268.951131
 30
0.0
 40
0.4999999999999933
100
AcDbArc
 50
0.0
 51
90.0
  0
LINE
  5
1C7
330
12E
100
AcDbEntity
  8
0
  6
Continuous
 62
     0
370
     0
100
AcDbLine
 10
436.390411
 20
209.451128
 30
0.0
 11
436.390411
 21
269.451131
 31
0.0
  0
LINE
  5
1C8
330
12E
100
AcDbEntity
  8
0
  6
Continuous
 62
     0
370
    30
100
AcDbLine
 10
397.390411
 20
269.451131
 30
0.0
 11
436.390411
 21
269.451131
 31
0.0
  0
LINE
  5
1C9
330
12E
100
AcDbEntity
  8
0
  6
Continuous
 62
     0
370
     0
100
AcDbLine
 10
397.390411
 20
209.451128
 30
0.0
 11
397.390411
 21
269.451131
 31
0.0
  0
ARC
  5
1CA
330
12E
100
AcDbEntity
  8
0
  6
Continuous
 62
     0
370
    30
100
AcDbCircle
 10
397.390411
 20
268.951131
 30
0.0
 40
0.4999999999999369
100
AcDbArc
 50
90.0
 51
180.0
  0
LINE
  5
1CB
330
12E
100
AcDbEntity
  8
0
  6
Continuous
 62
     0
370
    30
100
AcDbLine
 10
396.890411
 20
209.451128
 30
0.0
 11
396.890411
 21
268.951131
 31
0.0
  0
ENDBLK
  5
1CD
330
12E
100
AcDbEntity
  8
0
100
AcDbBlockEnd
  0
BLOCK
  5
23E
330
1CF
100
AcDbEntity
  8
0
100
AcDbBlockBegin
  2
c
 70
     0
 10
276.450317
 20
122.441742
 30
0.0
  3
c
  1

  0
ARC
  5
1D0
330
1CF
100
AcDbEntity
  8
0
  6
Continuous
 62
     0
370
    30
100
AcDbCircle
 10
605.192097
 20
778.053025
 30
0.0
 40
0.5
100
AcDbArc
 50
360.0
 51
90.0
  0
LINE
  5
1D1
330
1CF
100
AcDbEntity
  8
0
  6
Continuous
 62
     0
370
     0
100
AcDbLine
 10
605.192097
 20
722.053025
 30
0.0
 11
605.192097
 21
778.053025
 31
0.0
  0
LINE
  5
1D2
330
1CF
100
AcDbEntity
  8
0
  6
Continuous
 62
     0
370
     0
100
AcDbLine
 10
605.692097
 20
722.053025
 30
0.0
 11
605.192097
 21
722.053025
 31
0.0
  0
LINE
  5
1D3
330
1CF
100
AcDbEntity
  8
0
  6
Continuous
 62
     0
370
    30
100
AcDbLine
 10
605.692097
 20
778.053025
 30
0.0
 11
605.692097
 21
722.053025
 31
0.0
  0
LINE
  5
1D4
330
1CF
100
AcDbEntity
  8
0
  6
Continuous
 62
     0
370
     0
100
AcDbLine
 10
605.192097
 20
778.053025
 30
0.0
 11
605.692097
 21
778.053025
 31
0.0
  0
LINE
  5
1D5
330
1CF
100
AcDbEntity
  8
0
  6
Continuous
 62
     0
370
     0
100
AcDbLine
 10
605.192097
 20
778.053025
 30
0.0
 11
605.192097
 21
778.553025
 31
0.0
  0
ARC
  5
1D6
330
1CF
100
AcDbEntity
  8
0
  6
Continuous
 62
     0
370
    30
100
AcDbCircle
 10
605.192097
 20
722.053025
 30
0.0
 40
0.5
100
AcDbArc
 50
270.0
 51
360.0
  0
LINE
  5
1D7
330
1CF
100
AcDbEntity
  8
0
  6
Continuous
 62
     0
370
     0
100
AcDbLine
 10
605.192097
 20
721.553025
 30
0.0
 11
605.192097
 21
722.053025
 31
0.0
  0
LINE
  5
1D8
330
1CF
100
AcDbEntity
  8
0
  6
Continuous
 62
     0
370
    30
100
AcDbLine
 10
595.472097
 20
778.553025
 30
0.0
 11
605.192097
 21
778.553025
 31
0.0
  0
LINE
  5
1D9
330
1CF
100
AcDbEntity
  8
0
  6
Continuous
 62
     0
370
    30
100
AcDbLine
 10
595.472097
 20
778.053025
 30
0.0
 11
595.472097
 21
778.553025
 31
0.0
  0
LINE
  5
1DA
330
1CF
100
AcDbEntity
  8
0
  6
Continuous
 62
     0
370
     0
100
AcDbLine
 10
605.192097
 20
778.053025
 30
0.0
 11
595.472097
 21
778.053025
 31
0.0
  0
LINE
  5
1DB
330
1CF
100
AcDbEntity
  8
0
  6
Continuous
 62
     0
370
    30
100
AcDbLine
 10
595.472097
 20
722.053025
 30
0.0
 11
595.472097
 21
778.053025
 31
0.0
  0
LINE
  5
1DC
330
1CF
100
AcDbEntity
  8
0
  6
Continuous
 62
     0
370
     0
100
AcDbLine
 10
605.192097
 20
722.053025
 30
0.0
 11
595.472097
 21
722.053025
 31
0.0
  0
LINE
  5
1DD
330
1CF
100
AcDbEntity
  8
0
  6
Continuous
 62
     0
370
    30
100
AcDbLine
 10
595.472097
 20
721.553025
 30
0.0
 11
595.472097
 21
722.053025
 31
0.0
  0
LINE
  5
1DE
330
1CF
100
AcDbEntity
  8
0
  6
Continuous
 62
     0
370
    30
100
AcDbLine
 10
605.192097
 20
721.553025
 30
0.0
 11
595.472097
 21
721.553025
 31
0.0
  0
LINE
  5
1DF
330
1CF
100
AcDbEntity
  8
0
  6
Continuous
 62
     0
370
     0
100
AcDbLine
 10
606.392096
 20
758.311368
 30
0.0
 11
605.892096
 21
758.311368
 31
0.0
  0
ARC
  5
1E0
330
1CF
100
AcDbEntity
  8
0
  6
Continuous
 62
     0
370
    30
100
AcDbCircle
 10
621.209079
 20
762.195607
 30
0.0
 40
15.31764642655331
100
AcDbArc
 50
180.533336
 51
194.689422
  0
LINE
  5
1E1
330
1CF
100
AcDbEntity
  8
0
  6
Continuous
 62
     0
370
     0
100
AcDbLine
 10
606.392096
 20
741.794683
 30
0.0
 11
606.392096
 21
758.311368
 31
0.0
  0
LINE
  5
1E2
330
1CF
100
AcDbEntity
  8
0
  6
Continuous
 62
     0
370
     0
100
AcDbLine
 10
605.892096
 20
741.794683
 30
0.0
 11
606.392096
 21
741.794683
 31
0.0
  0
ARC
  5
1E3
330
1CF
100
AcDbEntity
  8
0
  6
Continuous
 62
     0
370
    30
100
AcDbCircle
 10
621.194249
 20
737.912425
 30
0.0
 40
15.30279835681438
100
AcDbArc
 50
165.303675
 51
179.473567
  0
ARC
  5
1E4
330
1CF
100
AcDbEntity
  8
0
  6
Continuous
 62
     0
370
    30
100
AcDbCircle
 10
612.892096
 20
738.053025
 30
0.0
 40
6.999999999999559
100
AcDbArc
 50
90.0
 51
180.0
  0
LINE
  5
1E5
330
1CF
100
AcDbEntity
  8
0
  6
Continuous
 62
     0
370
     0
100
AcDbLine
 10
612.892096
 20
745.553025
 30
0.0
 11
612.892096
 21
745.053025
 31
0.0
  0
ARC
  5
1E6
330
1CF
100
AcDbEntity
  8
0
  6
Continuous
 62
     0
370
     0
100
AcDbCircle
 10
612.892096
 20
738.053025
 30
0.0
 40
7.500000000000559
100
AcDbArc
 50
90.0
 51
150.073565
  0
LINE
  5
1E7
330
1CF
100
AcDbEntity
  8
0
  6
Continuous
 62
     0
370
     0
100
AcDbLine
 10
633.392096
 20
745.553025
 30
0.0
 11
612.892096
 21
745.553025
 31
0.0
  0
LINE
  5
1E8
330
1CF
100
AcDbEntity
  8
0
  6
Continuous
 62
     0
370
     0
100
AcDbLine
 10
633.392096
 20
754.553025
 30
0.0
 11
633.392096
 21
745.553025
 31
0.0
  0
LINE
  5
1E9
330
1CF
100
AcDbEntity
  8
0
  6
Continuous
 62
     0
370
     0
100
AcDbLine
 10
612.892096
 20
754.553025
 30
0.0
 11
633.392096
 21
754.553025
 31
0.0
  0
ARC
  5
1EA
330
1CF
100
AcDbEntity
  8
0
  6
Continuous
 62
     0
370
     0
100
AcDbCircle
 10
612.892096
 20
762.053025
 30
0.0
 40
7.500000000000494
100
AcDbArc
 50
209.926435
 51
270.0
  0
LINE
  5
1EB
330
1CF
100
AcDbEntity
  8
0
  6
Continuous
 62
     0
370
     0
100
AcDbLine
 10
612.892096
 20
755.053025
 30
0.0
 11
612.892096
 21
754.553025
 31
0.0
  0
ARC
  5
1EC
330
1CF
100
AcDbEntity
  8
0
  6
Continuous
 62
     0
370
    30
100
AcDbCircle
 10
612.892096
 20
762.053025
 30
0.0
 40
6.999999999999226
100
AcDbArc
 50
180.0
 51
270.0
  0
LINE
  5
1ED
330
1CF
100
AcDbEntity
  8
0
  6
Continuous
 62
     0
370
     0
100
AcDbLine
 10
633.392096
 20
745.053025
 30
0.0
 11
633.392096
 21
745.553025
 31
0.0
  0
ARC
  5
1EE
330
1CF
100
AcDbEntity
  8
0
  6
Continuous
 62
     0
370
    30
100
AcDbCircle
 10
633.392096
 20
745.553025
 30
0.0
 40
0.4999999999993037
100
AcDbArc
 50
270.0
 51
0.0
  0
LINE
  5
1EF
330
1CF
100
AcDbEntity
  8
0
  6
Continuous
 62
     0
370
    30
100
AcDbLine
 10
633.392096
 20
745.553025
 30
0.0
 11
633.892096
 21
745.553025
 31
0.0
  0
LINE
  5
1F0
330
1CF
100
AcDbEntity
  8
0
  6
Continuous
 62
     0
370
     0
100
AcDbLine
 10
633.392096
 20
754.553025
 30
0.0
 11
633.392096
 21
755.053025
 31
0.0
  0
LWPOLYLINE
  5
1F1
330
1CF
100
AcDbEntity
  8
0
  6
Continuous
 62
     0
370
    30
100
AcDbPolyline
 90
        5
 70
     0
 43
0.0
 10
633.89209
 20
754.55304
 10
633.857117
 20
754.55304
 10
633.746033
 20
754.55304
 10
633.576904
 20
754.55304
 10
633.39209
 20
754.55304
  0
ARC
  5
1F2
330
1CF
100
AcDbEntity
  8
0
  6
Continuous
 62
     0
370
    30
100
AcDbCircle
 10
633.392096
 20
754.553025
 30
0.0
 40
0.5000000000016556
100
AcDbArc
 50
0.0
 51
90.0
  0
LINE
  5
1F3
330
1CF
100
AcDbEntity
  8
0
  6
Continuous
 62
     0
370
    30
100
AcDbLine
 10
612.892096
 20
755.053025
 30
0.0
 11
633.392096
 21
755.053025
 31
0.0
  0
LINE
  5
1F4
330
1CF
100
AcDbEntity
  8
0
  6
Continuous
 62
     0
370
    30
100
AcDbLine
 10
633.892096
 20
754.553025
 30
0.0
 11
633.892096
 21
745.553025
 31
0.0
  0
LINE
  5
1F5
330
1CF
100
AcDbEntity
  8
0
  6
Continuous
 62
     0
370
    30
100
AcDbLine
 10
633.392096
 20
745.053025
 30
0.0
 11
612.892096
 21
745.053025
 31
0.0
  0
LINE
  5
1F6
330
1CF
100
AcDbEntity
  8
0
  6
Continuous
 62
     0
370
    30
100
AcDbLine
 10
605.892095
 20
726.053025
 30
0.0
 11
605.892096
 21
750.053025
 31
0.0
  0
LINE
  5
1F7
330
1CF
100
AcDbEntity
  8
0
  6
Continuous
 62
     0
370
    30
100
AcDbLine
 10
605.892096
 20
750.053025
 30
0.0
 11
605.892095
 21
774.053025
 31
0.0
  0
LINE
  5
1F8
330
1CF
100
AcDbEntity
  8
0
  6
Continuous
 62
     0
370
    30
100
AcDbLine
 10
605.892095
 20
774.053025
 30
0.0
 11
605.692095
 21
774.053025
 31
0.0
  0
LINE
  5
1F9
330
1CF
100
AcDbEntity
  8
0
  6
Continuous
 62
     0
370
    30
100
AcDbLine
 10
605.892095
 20
726.053025
 30
0.0
 11
605.692095
 21
726.053025
 31
0.0
  0
ARC
  5
1FA
330
1CF
100
AcDbEntity
  8
0
  6
Continuous
 62
     0
370
    30
100
AcDbCircle
 10
691.232911
 20
559.726381
 30
0.0
 40
0.5
100
AcDbArc
 50
90.0
 51
180.0
  0
LINE
  5
1FB
330
1CF
100
AcDbEntity
  8
0
  6
Continuous
 62
     0
370
     0
100
AcDbLine
 10
747.232911
 20
559.726381
 30
0.0
 11
691.232911
 21
559.726381
 31
0.0
  0
LINE
  5
1FC
330
1CF
100
AcDbEntity
  8
0
  6
Continuous
 62
     0
370
     0
100
AcDbLine
 10
747.232911
 20
560.226381
 30
0.0
 11
747.232911
 21
559.726381
 31
0.0
  0
LINE
  5
1FD
330
1CF
100
AcDbEntity
  8
0
  6
Continuous
 62
     0
370
    30
100
AcDbLine
 10
691.232911
 20
560.226381
 30
0.0
 11
747.232911
 21
560.226381
 31
0.0
  0
LINE
  5
1FE
330
1CF
100
AcDbEntity
  8
0
  6
Continuous
 62
     0
370
     0
100
AcDbLine
 10
691.232911
 20
559.726381
 30
0.0
 11
691.232911
 21
560.226381
 31
0.0
  0
LINE
  5
1FF
330
1CF
100
AcDbEntity
  8
0
  6
Continuous
 62
     0
370
     0
100
AcDbLine
 10
691.232911
 20
559.726381
 30
0.0
 11
690.732911
 21
559.726381
 31
0.0
  0
ARC
  5
200
330
1CF
100
AcDbEntity
  8
0
  6
Continuous
 62
     0
370
    30
100
AcDbCircle
 10
747.232911
 20
559.726381
 30
0.0
 40
0.5
100
AcDbArc
 50
360.0
 51
90.0
  0
LWPOLYLINE
  5
201
330
1CF
100
AcDbEntity
  8
0
  6
Continuous
 62
     0
370
     0
100
AcDbPolyline
 90
        6
 70
     0
 43
0.0
 10
747.73291
 20
559.726379
 10
747.708862
 20
559.726379
 10
747.643127
 20
559.726379
 10
747.549866
 20
559.726379
 10
747.425598
 20
559.726379
 10
747.23291
 20
559.726379
  0
LINE
  5
202
330
1CF
100
AcDbEntity
  8
0
  6
Continuous
 62
     0
370
    30
100
AcDbLine
 10
690.732911
 20
550.006381
 30
0.0
 11
690.732911
 21
559.726381
 31
0.0
  0
LINE
  5
203
330
1CF
100
AcDbEntity
  8
0
  6
Continuous
 62
     0
370
    30
100
AcDbLine
 10
691.232911
 20
550.006381
 30
0.0
 11
690.732911
 21
550.006381
 31
0.0
  0
LINE
  5
204
330
1CF
100
AcDbEntity
  8
0
  6
Continuous
 62
     0
370
     0
100
AcDbLine
 10
691.232911
 20
559.726381
 30
0.0
 11
691.232911
 21
550.006381
 31
0.0
  0
LINE
  5
205
330
1CF
100
AcDbEntity
  8
0
  6
Continuous
 62
     0
370
    30
100
AcDbLine
 10
747.232911
 20
550.006381
 30
0.0
 11
691.232911
 21
550.006381
 31
0.0
  0
LINE
  5
206
330
1CF
100
AcDbEntity
  8
0
  6
Continuous
 62
     0
370
     0
100
AcDbLine
 10
747.232911
 20
559.726381
 30
0.0
 11
747.232911
 21
550.006381
 31
0.0
  0
LINE
  5
207
330
1CF
100
AcDbEntity
  8
0
  6
Continuous
 62
     0
370
    30
100
AcDbLine
 10
747.732911
 20
550.006381
 30
0.0
 11
747.232911
 21
550.006381
 31
0.0
  0
LINE
  5
208
330
1CF
100
AcDbEntity
  8
0
  6
Continuous
 62
     0
370
    30
100
AcDbLine
 10
747.732911
 20
559.726381
 30
0.0
 11
747.732911
 21
550.006381
 31
0.0
  0
ARC
  5
209
330
1CF
100
AcDbEntity
  8
0
  6
Continuous
 62
     0
370
    30
100
AcDbCircle
 10
707.23291
 20
565.726381
 30
0.0
 40
0.5
100
AcDbArc
 50
270.0
 51
360.0
  0
LINE
  5
20A
330
1CF
100
AcDbEntity
  8
0
  6
Continuous
 62
     0
370
     0
100
AcDbLine
 10
700.23291
 20
565.726381
 30
0.0
 11
707.23291
 21
565.726381
 31
0.0
  0
LINE
  5
20B
330
1CF
100
AcDbEntity
  8
0
  6
Continuous
 62
     0
370
     0
100
AcDbLine
 10
700.23291
 20
565.226381
 30
0.0
 11
700.23291
 21
565.726381
 31
0.0
  0
LINE
  5
20C
330
1CF
100
AcDbEntity
  8
0
  6
Continuous
 62
     0
370
    30
100
AcDbLine
 10
707.23291
 20
565.226381
 30
0.0
 11
700.23291
 21
565.226381
 31
0.0
  0
LINE
  5
20D
330
1CF
100
AcDbEntity
  8
0
  6
Continuous
 62
     0
370
     0
100
AcDbLine
 10
707.23291
 20
565.726381
 30
0.0
 11
707.23291
 21
565.226381
 31
0.0
  0
LINE
  5
20E
330
1CF
100
AcDbEntity
  8
0
  6
Continuous
 62
     0
370
     0
100
AcDbLine
 10
707.23291
 20
565.726381
 30
0.0
 11
707.73291
 21
565.726381
 31
0.0
  0
ARC
  5
20F
330
1CF
100
AcDbEntity
  8
0
  6
Continuous
 62
     0
370
    30
100
AcDbCircle
 10
700.23291
 20
565.726381
 30
0.0
 40
0.5
100
AcDbArc
 50
180.0
 51
270.0
  0
LINE
  5
210
330
1CF
100
AcDbEntity
  8
0
  6
Continuous
 62
     0
370
     0
100
AcDbLine
 10
699.73291
 20
565.726381
 30
0.0
 11
700.23291
 21
565.726381
 31
0.0
  0
LINE
  5
211
330
1CF
100
AcDbEntity
  8
0
  6
Continuous
 62
     0
370
    30
100
AcDbLine
 10
707.73291
 20
594.726381
 30
0.0
 11
707.73291
 21
565.726381
 31
0.0
  0
LINE
  5
212
330
1CF
100
AcDbEntity
  8
0
  6
Continuous
 62
     0
370
     0
100
AcDbLine
 10
707.23291
 20
594.726381
 30
0.0
 11
707.73291
 21
594.726381
 31
0.0
  0
LINE
  5
213
330
1CF
100
AcDbEntity
  8
0
  6
Continuous
 62
     0
370
     0
100
AcDbLine
 10
707.23291
 20
565.726381
 30
0.0
 11
707.23291
 21
594.726381
 31
0.0
  0
LINE
  5
214
330
1CF
100
AcDbEntity
  8
0
  6
Continuous
 62
     0
370
     0
100
AcDbLine
 10
700.23291
 20
594.726381
 30
0.0
 11
707.23291
 21
594.726381
 31
0.0
  0
LINE
  5
215
330
1CF
100
AcDbEntity
  8
0
  6
Continuous
 62
     0
370
     0
100
AcDbLine
 10
700.23291
 20
565.726381
 30
0.0
 11
700.23291
 21
594.726381
 31
0.0
  0
LINE
  5
216
330
1CF
100
AcDbEntity
  8
0
  6
Continuous
 62
     0
370
     0
100
AcDbLine
 10
699.73291
 20
594.726381
 30
0.0
 11
700.23291
 21
594.726381
 31
0.0
  0
LINE
  5
217
330
1CF
100
AcDbEntity
  8
0
  6
Continuous
 62
     0
370
    30
100
AcDbLine
 10
699.73291
 20
565.726381
 30
0.0
 11
699.73291
 21
594.726381
 31
0.0
  0
ARC
  5
218
330
1CF
100
AcDbEntity
  8
0
  6
Continuous
 62
     0
370
    30
100
AcDbCircle
 10
700.23291
 20
594.726381
 30
0.0
 40
0.5
100
AcDbArc
 50
90.0
 51
180.0
  0
LINE
  5
219
330
1CF
100
AcDbEntity
  8
0
  6
Continuous
 62
     0
370
    30
100
AcDbLine
 10
700.23291
 20
595.226381
 30
0.0
 11
707.23291
 21
595.226381
 31
0.0
  0
LINE
  5
21A
330
1CF
100
AcDbEntity
  8
0
  6
Continuous
 62
     0
370
     0
100
AcDbLine
 10
700.23291
 20
594.726381
 30
0.0
 11
700.23291
 21
595.226381
 31
0.0
  0
LINE
  5
21B
330
1CF
100
AcDbEntity
  8
0
  6
Continuous
 62
     0
370
     0
100
AcDbLine
 10
707.23291
 20
595.226381
 30
0.0
 11
707.23291
 21
594.726381
 31
0.0
  0
ARC
  5
21C
330
1CF
100
AcDbEntity
  8
0
  6
Continuous
 62
     0
370
    30
100
AcDbCircle
 10
707.23291
 20
594.726381
 30
0.0
 40
0.5
100
AcDbArc
 50
360.0
 51
90.0
  0
LWPOLYLINE
  5
21D
330
1CF
100
AcDbEntity
  8
0
  6
Continuous
 62
     0
370
    30
100
AcDbPolyline
 90
        6
 70
     0
 43
0.0
 10
869.237061
 20
673.226379
 10
869.213501
 20
673.226379
 10
869.137573
 20
673.226379
 10
869.012024
 20
673.226379
 10
868.854248
 20
673.226379
 10
868.654968
 20
673.226379
  0
LINE
  5
21E
330
1CF
100
AcDbEntity
  8
0
  6
Continuous
 62
     0
370
    30
100
AcDbLine
 10
868.65495
 20
673.226381
 30
0.0
 11
858.177161
 21
673.226381
 31
0.0
  0
LINE
  5
21F
330
1CF
100
AcDbEntity
  8
0
  6
Continuous
 62
     0
370
    30
100
AcDbLine
 10
858.177161
 20
673.226381
 30
0.0
 11
857.595062
 21
673.226381
 31
0.0
  0
LINE
  5
220
330
1CF
100
AcDbEntity
  8
0
  6
Continuous
 62
     0
370
     0
100
AcDbLine
 10
849.916037
 20
687.084545
 30
0.0
 11
858.177161
 21
673.226381
 31
0.0
  0
LINE
  5
221
330
1CF
100
AcDbEntity
  8
0
  6
Continuous
 62
     0
370
     0
100
AcDbLine
 10
849.486557
 20
686.828524
 30
0.0
 11
849.916037
 21
687.084545
 31
0.0
  0
LINE
  5
222
330
1CF
100
AcDbEntity
  8
0
  6
Continuous
 62
     0
370
    30
100
AcDbLine
 10
857.595062
 20
673.226381
 30
0.0
 11
849.486557
 21
686.828524
 31
0.0
  0
LINE
  5
223
330
1CF
100
AcDbEntity
  8
0
  6
Continuous
 62
     0
370
    30
100
AcDbLine
 10
869.237049
 20
673.226381
 30
0.0
 11
858.076156
 21
691.948952
 31
0.0
  0
LINE
  5
224
330
1CF
100
AcDbEntity
  8
0
  6
Continuous
 62
     0
370
     0
100
AcDbLine
 10
857.646676
 20
691.692931
 30
0.0
 11
858.076156
 21
691.948952
 31
0.0
  0
LINE
  5
225
330
1CF
100
AcDbEntity
  8
0
  6
Continuous
 62
     0
370
     0
100
AcDbLine
 10
868.65495
 20
673.226381
 30
0.0
 11
857.646676
 21
691.692931
 31
0.0
  0
ARC
  5
226
330
1CF
100
AcDbEntity
  8
0
  6
Continuous
 62
     0
370
    30
100
AcDbCircle
 10
806.538562
 20
661.226381
 30
0.0
 40
60.00000000000034
100
AcDbArc
 50
30.8
 51
90.0
  0
LINE
  5
227
330
1CF
100
AcDbEntity
  8
0
  6
Continuous
 62
     0
370
     0
100
AcDbLine
 10
806.538562
 20
720.726381
 30
0.0
 11
806.538562
 21
721.226381
 31
0.0
  0
ARC
  5
228
330
1CF
100
AcDbEntity
  8
0
  6
Continuous
 62
     0
370
     0
100
AcDbCircle
 10
806.538562
 20
661.226381
 30
0.0
 40
59.50000000000007
100
AcDbArc
 50
30.8
 51
90.0
  0
ARC
  5
229
330
1CF
100
AcDbEntity
  8
0
  6
Continuous
 62
     0
370
     0
100
AcDbCircle
 10
806.538562
 20
661.226381
 30
0.0
 40
50.5000000000001
100
AcDbArc
 50
30.8
 51
90.0
  0
LINE
  5
22A
330
1CF
100
AcDbEntity
  8
0
  6
Continuous
 62
     0
370
     0
100
AcDbLine
 10
806.538562
 20
711.226381
 30
0.0
 11
806.538562
 21
711.726381
 31
0.0
  0
ARC
  5
22B
330
1CF
100
AcDbEntity
  8
0
  6
Continuous
 62
     0
370
    30
100
AcDbCircle
 10
806.538562
 20
661.226381
 30
0.0
 40
50.00000000000031
100
AcDbArc
 50
30.8
 51
90.0
  0
LINE
  5
22C
330
1CF
100
AcDbEntity
  8
0
  6
Continuous
 62
     0
370
    30
100
AcDbLine
 10
806.538562
 20
721.226381
 30
0.0
 11
774.232911
 21
721.226381
 31
0.0
  0
LINE
  5
22D
330
1CF
100
AcDbEntity
  8
0
  6
Continuous
 62
     0
370
     0
100
AcDbLine
 10
774.232911
 20
720.726381
 30
0.0
 11
774.232911
 21
721.226381
 31
0.0
  0
LINE
  5
22E
330
1CF
100
AcDbEntity
  8
0
  6
Continuous
 62
     0
370
     0
100
AcDbLine
 10
806.538562
 20
720.726381
 30
0.0
 11
774.232911
 21
720.726381
 31
0.0
  0
LINE
  5
22F
330
1CF
100
AcDbEntity
  8
0
  6
Continuous
 62
     0
370
     0
100
AcDbLine
 10
774.232911
 20
711.726381
 30
0.0
 11
806.538562
 21
711.726381
 31
0.0
  0
LINE
  5
230
330
1CF
100
AcDbEntity
  8
0
  6
Continuous
 62
     0
370
     0
100
AcDbLine
 10
774.232911
 20
711.226381
 30
0.0
 11
774.232911
 21
711.726381
 31
0.0
  0
LINE
  5
231
330
1CF
100
AcDbEntity
  8
0
  6
Continuous
 62
     0
370
    30
100
AcDbLine
 10
806.538562
 20
711.226381
 30
0.0
 11
774.232911
 21
711.226381
 31
0.0
  0
ARC
  5
232
330
1CF
100
AcDbEntity
  8
0
  6
Continuous
 62
     0
370
    30
100
AcDbCircle
 10
774.232911
 20
661.226381
 30
0.0
 40
60.0
100
AcDbArc
 50
90.0
 51
180.0
  0
LINE
  5
233
330
1CF
100
AcDbEntity
  8
0
  6
Continuous
 62
     0
370
     0
100
AcDbLine
 10
714.732911
 20
661.226381
 30
0.0
 11
714.232911
 21
661.226381
 31
0.0
  0
ARC
  5
234
330
1CF
100
AcDbEntity
  8
0
  6
Continuous
 62
     0
370
     0
100
AcDbCircle
 10
774.232911
 20
661.226381
 30
0.0
 40
59.49999999999993
100
AcDbArc
 50
90.0
 51
180.0
  0
ARC
  5
235
330
1CF
100
AcDbEntity
  8
0
  6
Continuous
 62
     0
370
     0
100
AcDbCircle
 10
774.232911
 20
661.226381
 30
0.0
 40
50.49999999999994
100
AcDbArc
 50
90.0
 51
180.0
  0
LWPOLYLINE
  5
236
330
1CF
100
AcDbEntity
  8
0
  6
Continuous
 62
     0
370
     0
100
AcDbPolyline
 90
        5
 70
     0
 43
0.0
 10
724.23291
 20
661.226379
 10
724.197876
 20
661.226379
 10
724.086853
 20
661.226379
 10
723.917725
 20
661.226379
 10
723.73291
 20
661.226379
  0
ARC
  5
237
330
1CF
100
AcDbEntity
  8
0
  6
Continuous
 62
     0
370
    30
100
AcDbCircle
 10
774.232911
 20
661.226381
 30
0.0
 40
50.00000000000006
100
AcDbArc
 50
90.0
 51
180.0
  0
LINE
  5
238
330
1CF
100
AcDbEntity
  8
0
  6
Continuous
 62
     0
370
    30
100
AcDbLine
 10
714.232911
 20
661.226381
 30
0.0
 11
714.232911
 21
560.226381
 31
0.0
  0
LINE
  5
239
330
1CF
100
AcDbEntity
  8
0
  6
Continuous
 62
     0
370
     0
100
AcDbLine
 10
714.732911
 20
661.226381
 30
0.0
 11
714.732911
 21
560.226381
 31
0.0
  0
LINE
  5
23A
330
1CF
100
AcDbEntity
  8
0
  6
Continuous
 62
     0
370
     0
100
AcDbLine
 10
723.732911
 20
661.226381
 30
0.0
 11
723.732911
 21
560.226381
 31
0.0
  0
LINE
  5
23B
330
1CF
100
AcDbEntity
  8
0
  6
Continuous
 62
     0
370
    30
100
AcDbLine
 10
724.232911
 20
661.226381
 30
0.0
 11
724.232911
 21
560.226381
 31
0.0
  0
LINE
  5
23C
330
1CF
100
AcDbEntity
  8
0
  6
Continuous
 62
     0
370
    30
100
AcDbLine
 10
702.23291
 20
560.226381
 30
0.0
 11
702.23291
 21
565.226381
 31
0.0
  0
LINE
  5
23D
330
1CF
100
AcDbEntity
  8
0
  6
Continuous
 62
     0
370
    30
100
AcDbLine
 10
705.23291
 20
560.226381
 30
0.0
 11
705.23291
 21
565.226381
 31
0.0
  0
ENDBLK
  5
23F
330
1CF
100
AcDbEntity
  8
0
100
AcDbBlockEnd
  0
BLOCK
  5
33E
330
241
100
AcDbEntity
  8
0
100
AcDbBlockBegin
  2
d
 70
     0
 10
276.450317
 20
122.441742
 30
0.0
  3
d
  1

  0
ELLIPSE
  5
242
330
241
100
AcDbEntity
  8
0
  6
Continuous
 62
     0
370
     0
100
AcDbEllipse
 10
718.077516
 20
406.429021
 30
0.0
 11
-0.5
 21
0.0
 31
0.0
210
0.0
220
0.0
230
1.0
 40
0.57735
 41
0.7853981633974199
 42
2.356194490192345
  0
LINE
  5
243
330
241
100
AcDbEntity
  8
0
  6
Continuous
 62
     0
370
     0
100
AcDbLine
 10
718.43107
 20
406.224897
 30
0.0
 11
718.43107
 21
451.948705
 31
0.0
  0
ELLIPSE
  5
244
330
241
100
AcDbEntity
  8
0
  6
Continuous
 62
     0
370
     0
100
AcDbEllipse
 10
718.077516
 20
452.15283
 30
0.0
 11
0.5
 21
0.0
 31
0.0
210
0.0
220
0.0
230
-1.0
 40
0.57735
 41
0.7853981633974199
 42
2.356194490192345
  0
LINE
  5
245
330
241
100
AcDbEntity
  8
0
  6
Continuous
 62
     0
370
     0
100
AcDbLine
 10
717.723963
 20
451.948705
 30
0.0
 11
717.723963
 21
406.224897
 31
0.0
  0
ELLIPSE
  5
246
330
241
100
AcDbEntity
  8
0
  6
Continuous
 62
     0
370
     0
100
AcDbEllipse
 10
718.077516
 20
452.15283
 30
0.0
 11
-0.2500000000000001
 21
0.4330127018922193
 31
0.0
210
0.0
220
0.0
230
-1.0
 40
0.57735
 41
0.7853981633974485
 42
2.356194490192317
  0
LINE
  5
247
330
241
100
AcDbEntity
  8
0
  6
Continuous
 62
     0
370
     0
100
AcDbLine
 10
718.43107
 20
451.948705
 30
0.0
 11
758.029049
 21
474.81061
 31
0.0
  0
ELLIPSE
  5
248
330
241
100
AcDbEntity
  8
0
  6
Continuous
 62
     0
370
     0
100
AcDbEllipse
 10
757.675496
 20
475.014734
 30
0.0
 11
0.2500000000000001
 21
-0.4330127018922193
 31
0.0
210
0.0
220
0.0
230
1.0
 40
0.57735
 41
0.7853981633975051
 42
2.356194490192345
  0
LINE
  5
249
330
241
100
AcDbEntity
  8
0
  6
Continuous
 62
     0
370
     0
100
AcDbLine
 10
757.675496
 20
475.422982
 30
0.0
 11
718.077516
 21
452.561078
 31
0.0
  0
ELLIPSE
  5
24A
330
241
100
AcDbEntity
  8
0
  6
Continuous
 62
     0
370
     0
100
AcDbEllipse
 10
757.675496
 20
475.014734
 30
0.0
 11
0.5
 21
0.0
 31
0.0
210
0.0
220
0.0
230
-1.0
 40
0.57735
 41
5.49778714378211
 42
7.068583470577035
  0
LINE
  5
24B
330
241
100
AcDbEntity
  8
0
  6
Continuous
 62
     0
370
     0
100
AcDbLine
 10
758.029049
 20
474.81061
 30
0.0
 11
758.029049
 21
449.260069
 31
0.0
  0
ARC
  5
24C
330
241
100
AcDbEntity
  8
0
  6
Continuous
 62
     0
370
     0
100
AcDbCircle
 10
757.817755
 20
475.261133
 30
0.0
 40
0.2154822031282822
100
AcDbArc
 50
348.68574
 51
131.31426
  0
LINE
  5
24D
330
241
100
AcDbEntity
  8
0
  6
Continuous
 62
     0
370
     0
100
AcDbLine
 10
740.558486
 20
419.000167
 30
0.0
 11
718.43107
 21
406.224897
 31
0.0
  0
ELLIPSE
  5
24E
330
241
100
AcDbEntity
  8
0
  6
Continuous
 62
     0
370
     0
100
AcDbEllipse
 10
718.077516
 20
406.429021
 30
0.0
 11
-0.2500000000000001
 21
0.4330127018922194
 31
0.0
210
0.0
220
0.0
230
-1.0
 40
0.57735
 41
2.356194490192316
 42
3.926990816987298
  0
ARC
  5
24F
330
241
100
AcDbEntity
  8
0
  6
Continuous
 62
     0
370
     0
100
AcDbCircle
 10
718.504293
 20
451.90643
 30
0.0
 40
0.7814744144411578
100
AcDbArc
 50
123.101049
 51
176.898951
  0
ARC
  5
250
330
241
100
AcDbEntity
  8
0
  6
Continuous
 62
     0
370
     0
100
AcDbCircle
 10
717.935257
 20
406.182621
 30
0.0
 40
0.215482203137228
100
AcDbArc
 50
168.68574
 51
311.31426
  0
ELLIPSE
  5
251
330
241
100
AcDbEntity
  8
0
  6
Continuous
 62
     0
370
    30
100
AcDbEllipse
 10
750.802418
 20
478.982907
 30
0.0
 11
0.2500000000000001
 21
0.4330127018922194
 31
0.0
210
0.0
220
0.0
230
1.0
 40
0.57735
 41
-0.000000022850176
 42
0.7853981633974483
  0
LINE
  5
252
330
241
100
AcDbEntity
  8
0
  6
Continuous
 62
     0
370
     0
100
AcDbLine
 10
750.802418
 20
479.391155
 30
0.0
 11
757.675496
 21
475.422982
 31
0.0
  0
LINE
  5
253
330
241
100
AcDbEntity
  8
0
  6
Continuous
 62
     0
370
     0
100
AcDbLine
 10
718.077516
 20
452.561078
 30
0.0
 11
711.204438
 21
456.529251
 31
0.0
  0
ELLIPSE
  5
254
330
241
100
AcDbEntity
  8
0
  6
Continuous
 62
     0
370
    30
100
AcDbEllipse
 10
711.204438
 20
456.121003
 30
0.0
 11
0.2500000000000001
 21
0.4330127018922194
 31
0.0
210
0.0
220
0.0
230
1.0
 40
0.57735
 41
0.7853981633973914
 42
2.356194490192288
  0
LINE
  5
255
330
241
100
AcDbEntity
  8
0
  6
Continuous
 62
     0
370
     0
100
AcDbLine
 10
710.850885
 20
455.916879
 30
0.0
 11
717.723963
 21
451.948705
 31
0.0
  0
LINE
  5
256
330
241
100
AcDbEntity
  8
0
  6
Continuous
 62
     0
370
    30
100
AcDbLine
 10
710.850885
 20
455.916879
 30
0.0
 11
710.850885
 21
410.19307
 31
0.0
  0
LINE
  5
257
330
241
100
AcDbEntity
  8
0
  6
Continuous
 62
     0
370
     0
100
AcDbLine
 10
710.850885
 20
410.19307
 30
0.0
 11
717.723963
 21
406.224897
 31
0.0
  0
ELLIPSE
  5
258
330
241
100
AcDbEntity
  8
0
  6
Continuous
 62
     0
370
    30
100
AcDbEllipse
 10
711.204438
 20
410.397194
 30
0.0
 11
0.2500000000000001
 21
0.4330127018922194
 31
0.0
210
0.0
220
0.0
230
1.0
 40
0.57735
 41
2.356194490192316
 42
3.141592630739637
  0
LINE
  5
259
330
241
100
AcDbEntity
  8
0
  6
Continuous
 62
     0
370
    30
100
AcDbLine
 10
750.802418
 20
479.391155
 30
0.0
 11
711.204438
 21
456.529251
 31
0.0
  0
ELLIPSE
  5
25A
330
241
100
AcDbEntity
  8
0
  6
Continuous
 62
     0
370
    30
100
AcDbEllipse
 10
738.230059
 20
440.517753
 30
0.0
 11
12.00000000000001
 21
20.78460969082653
 31
0.0
210
0.0
220
0.0
230
1.0
 40
0.57735
 41
-0.0000000228501085
 42
3.141592630739608
  0
ARC
  5
25B
330
241
100
AcDbEntity
  8
0
  6
Continuous
 62
     0
370
     0
100
AcDbCircle
 10
746.050771
 20
455.144921
 30
0.0
 40
6.828312714997637
100
AcDbArc
 50
3.385029
 51
26.530057
  0
LINE
  5
25C
330
241
100
AcDbEntity
  8
0
  6
Continuous
 62
     0
370
     0
100
AcDbLine
 10
752.160063
 20
458.194904
 30
0.0
 11
752.86717
 21
455.139854
 31
0.0
  0
ARC
  5
25D
330
241
100
AcDbEntity
  8
0
  6
Continuous
 62
     0
370
     0
100
AcDbCircle
 10
763.084684
 20
458.786761
 30
0.0
 40
10.94064180190341
100
AcDbArc
 50
183.101049
 51
236.898951
  0
LINE
  5
25E
330
241
100
AcDbEntity
  8
0
  6
Continuous
 62
     0
370
     0
100
AcDbLine
 10
757.109811
 20
449.62169
 30
0.0
 11
757.359811
 21
449.646455
 31
0.0
  0
ELLIPSE
  5
25F
330
241
100
AcDbEntity
  8
0
  6
Continuous
 62
     0
370
     0
100
AcDbEllipse
 10
724.229345
 20
425.119981
 30
0.0
 11
-0.5
 21
-1.162403506782539E-13
 31
0.0
210
0.0
220
0.0
230
1.0
 40
0.57735
 41
3.926990816987123
 42
5.497787143781947
  0
LINE
  5
260
330
241
100
AcDbEntity
  8
0
  6
Continuous
 62
     0
370
     0
100
AcDbLine
 10
724.582899
 20
438.809922
 30
0.0
 11
724.582899
 21
425.324105
 31
0.0
  0
ELLIPSE
  5
261
330
241
100
AcDbEntity
  8
0
  6
Continuous
 62
     0
370
     0
100
AcDbEllipse
 10
724.229345
 20
438.605798
 30
0.0
 11
0.5
 21
1.162403506782539E-13
 31
0.0
210
0.0
220
0.0
230
-1.0
 40
0.57735
 41
3.926990816987404
 42
5.497787143782313
  0
LINE
  5
262
330
241
100
AcDbEntity
  8
0
  6
Continuous
 62
     0
370
     0
100
AcDbLine
 10
723.875792
 20
425.324105
 30
0.0
 11
723.875792
 21
438.809922
 31
0.0
  0
ARC
  5
263
330
241
100
AcDbEntity
  8
0
  6
Continuous
 62
     0
370
     0
100
AcDbCircle
 10
730.692191
 20
425.727286
 30
0.0
 40
6.828312714977289
100
AcDbArc
 50
183.385029
 51
206.530057
  0
ARC
  5
264
330
241
100
AcDbEntity
  8
0
  6
Continuous
 62
     0
370
     0
100
AcDbCircle
 10
730.956593
 20
424.000704
 30
0.0
 40
6.509636980752097
100
AcDbArc
 50
168.270072
 51
191.729928
  0
ARC
  5
265
330
241
100
AcDbEntity
  8
0
  6
Continuous
 62
     0
370
     0
100
AcDbCircle
 10
735.56084
 20
440.541572
 30
0.0
 40
11.11367654073168
100
AcDbArc
 50
171.03608
 51
188.96392
  0
ARC
  5
266
330
241
100
AcDbEntity
  8
0
  6
Continuous
 62
     0
370
     0
100
AcDbCircle
 10
738.423352
 20
437.64356
 30
0.0
 40
14.59424210710171
100
AcDbArc
 50
161.504804
 51
175.416072
  0
ARC
  5
267
330
241
100
AcDbEntity
  8
0
  6
Continuous
 62
     0
370
     0
100
AcDbCircle
 10
735.423257
 20
442.810001
 30
0.0
 40
11.5548260661104
100
AcDbArc
 50
200.253999
 51
237.289502
  0
ARC
  5
268
330
241
100
AcDbEntity
  8
0
  6
Continuous
 62
     0
370
     0
100
AcDbCircle
 10
729.959423
 20
433.045359
 30
0.0
 40
0.7814744143970043
100
AcDbArc
 50
123.101049
 51
176.898951
  0
ARC
  5
269
330
241
100
AcDbEntity
  8
0
  6
Continuous
 62
     0
370
     0
100
AcDbCircle
 10
735.50752
 20
442.865078
 30
0.0
 40
10.94064180190012
100
AcDbArc
 50
183.101049
 51
236.898951
  0
ARC
  5
26A
330
241
100
AcDbEntity
  8
0
  6
Continuous
 62
     0
370
     0
100
AcDbCircle
 10
727.087988
 20
423.239493
 30
0.0
 40
3.259000202386058
100
AcDbArc
 50
50.085784
 51
140.234431
  0
LINE
  5
26B
330
241
100
AcDbEntity
  8
0
  6
Continuous
 62
     0
370
     0
100
AcDbLine
 10
729.179093
 20
425.739165
 30
0.0
 11
743.674782
 21
417.370075
 31
0.0
  0
LINE
  5
26C
330
241
100
AcDbEntity
  8
0
  6
Continuous
 62
     0
370
     0
100
AcDbLine
 10
743.674782
 20
417.370075
 30
0.0
 11
743.674782
 21
424.718544
 31
0.0
  0
LINE
  5
26D
330
241
100
AcDbEntity
  8
0
  6
Continuous
 62
     0
370
     0
100
AcDbLine
 10
743.674782
 20
424.718544
 30
0.0
 11
729.179093
 21
433.087634
 31
0.0
  0
LINE
  5
26E
330
241
100
AcDbEntity
  8
0
  6
Continuous
 62
     0
370
     0
100
AcDbLine
 10
772.1055
 20
433.495883
 30
0.0
 11
771.959053
 21
433.291759
 31
0.0
  0
LINE
  5
26F
330
241
100
AcDbEntity
  8
0
  6
Continuous
 62
     0
370
     0
100
AcDbLine
 10
771.959053
 20
433.291759
 30
0.0
 11
771.855499
 21
433.06287
 31
0.0
  0
ARC
  5
270
330
241
100
AcDbEntity
  8
0
  6
Continuous
 62
     0
370
     0
100
AcDbCircle
 10
744.170594
 20
417.3278
 30
0.0
 40
0.2154822031311185
100
AcDbArc
 50
228.68574
 51
11.31426
  0
ARC
  5
271
330
241
100
AcDbEntity
  8
0
  6
Continuous
 62
     0
370
     0
100
AcDbCircle
 10
744.028335
 20
418.066999
 30
0.0
 40
0.7814744144502559
100
AcDbArc
 50
243.101049
 51
296.898951
  0
ARC
  5
272
330
241
100
AcDbEntity
  8
0
  6
Continuous
 62
     0
370
     0
100
AcDbCircle
 10
743.886076
 20
417.3278
 30
0.0
 40
0.215482203139451
100
AcDbArc
 50
168.68574
 51
311.31426
  0
ARC
  5
273
330
241
100
AcDbEntity
  8
0
  6
Continuous
 62
     0
370
     0
100
AcDbCircle
 10
771.178723
 20
440.597952
 30
0.0
 40
0.7814744144544936
100
AcDbArc
 50
3.101049
 51
56.898951
  0
ARC
  5
274
330
241
100
AcDbEntity
  8
0
  6
Continuous
 62
     0
370
     0
100
AcDbCircle
 10
771.890017
 20
440.844352
 30
0.0
 40
0.2154822031424373
100
AcDbArc
 50
288.68574
 51
71.31426
  0
ARC
  5
275
330
241
100
AcDbEntity
  8
0
  6
Continuous
 62
     0
370
     0
100
AcDbCircle
 10
771.747758
 20
441.090752
 30
0.0
 40
0.2154822031458188
100
AcDbArc
 50
348.68574
 51
131.31426
  0
ARC
  5
276
330
241
100
AcDbEntity
  8
0
  6
Continuous
 62
     0
370
     0
100
AcDbCircle
 10
744.028335
 20
425.415468
 30
0.0
 40
0.7814744144443977
100
AcDbArc
 50
243.101049
 51
296.898951
  0
ARC
  5
277
330
241
100
AcDbEntity
  8
0
  6
Continuous
 62
     0
370
     0
100
AcDbCircle
 10
743.601558
 20
424.676269
 30
0.0
 40
0.7814744144105894
100
AcDbArc
 50
3.101049
 51
56.898951
  0
ARC
  5
278
330
241
100
AcDbEntity
  8
0
  6
Continuous
 62
     0
370
     0
100
AcDbCircle
 10
744.455112
 20
424.676269
 30
0.0
 40
0.7814744144202252
100
AcDbArc
 50
123.101049
 51
176.898951
  0
LINE
  5
279
330
241
100
AcDbEntity
  8
0
  6
Continuous
 62
     0
370
     0
100
AcDbLine
 10
771.6055
 20
441.2526
 30
0.0
 11
744.028335
 21
425.330917
 31
0.0
  0
LINE
  5
27A
330
241
100
AcDbEntity
  8
0
  6
Continuous
 62
     0
370
     0
100
AcDbLine
 10
744.381888
 20
424.718544
 30
0.0
 11
771.959053
 21
440.640228
 31
0.0
  0
LINE
  5
27B
330
241
100
AcDbEntity
  8
0
  6
Continuous
 62
     0
370
     0
100
AcDbLine
 10
744.028335
 20
425.330917
 30
0.0
 11
729.532646
 21
433.700007
 31
0.0
  0
LINE
  5
27C
330
241
100
AcDbEntity
  8
0
  6
Continuous
 62
     0
370
     0
100
AcDbLine
 10
744.381888
 20
417.370075
 30
0.0
 11
744.381888
 21
424.718544
 31
0.0
  0
LINE
  5
27D
330
241
100
AcDbEntity
  8
0
  6
Continuous
 62
     0
370
     0
100
AcDbLine
 10
757.109811
 20
449.62169
 30
0.0
 11
771.6055
 21
441.2526
 31
0.0
  0
LINE
  5
27E
330
241
100
AcDbEntity
  8
0
  6
Continuous
 62
     0
370
     0
100
AcDbLine
 10
771.959053
 20
440.640228
 30
0.0
 11
771.959053
 21
433.291759
 31
0.0
  0
ELLIPSE
  5
27F
330
241
100
AcDbEntity
  8
0
  6
Continuous
 62
     0
370
     0
100
AcDbEllipse
 10
729.532646
 20
425.943289
 30
0.0
 11
0.2500000000000001
 21
0.4330127018922194
 31
0.0
210
0.0
220
0.0
230
1.0
 40
0.57735
 41
2.356194490192771
 42
3.141592630739637
  0
LINE
  5
280
330
241
100
AcDbEntity
  8
0
  6
Continuous
 62
     0
370
     0
100
AcDbLine
 10
771.959053
 20
433.291759
 30
0.0
 11
744.381888
 21
417.370075
 31
0.0
  0
ARC
  5
281
330
241
100
AcDbEntity
  8
0
  6
Continuous
 62
     0
370
     0
100
AcDbCircle
 10
727.482864
 20
423.292202
 30
0.0
 40
2.964439200749492
100
AcDbArc
 50
55.233122
 51
191.9715
  0
LINE
  5
282
330
241
100
AcDbEntity
  8
0
  6
Continuous
 62
     0
370
     0
100
AcDbLine
 10
724.582899
 20
442.273221
 30
0.0
 11
752.160063
 21
458.194904
 31
0.0
  0
LINE
  5
283
330
241
100
AcDbEntity
  8
0
  6
Continuous
 62
     0
370
     0
100
AcDbLine
 10
757.109811
 20
449.62169
 30
0.0
 11
729.532646
 21
433.700007
 31
0.0
  0
LINE
  5
284
330
241
100
AcDbEntity
  8
0
  6
Continuous
 62
     0
370
     0
100
AcDbLine
 10
729.386199
 20
425.45049
 30
0.0
 11
724.582899
 21
422.677303
 31
0.0
  0
LWPOLYLINE
  5
285
330
241
100
AcDbEntity
  8
0
  6
Continuous
 62
     0
370
    30
100
AcDbPolyline
 90
       58
 70
     0
 43
0.0
 10
755.314514
 20
451.333435
 10
755.244751
 20
452.273438
 10
755.130005
 20
453.199738
 10
754.968445
 20
454.107452
 10
754.758545
 20
454.991516
 10
754.499023
 20
455.846832
 10
754.189026
 20
456.668213
 10
753.828125
 20
457.4505
 10
753.416443
 20
458.188721
 10
752.954407
 20
458.878052
 10
752.443176
 20
459.514069
 10
751.884277
 20
460.092651
 10
751.279663
 20
460.610199
 10
750.631958
 20
461.063629
 10
749.944153
 20
461.45047
 10
749.219482
 20
461.76886
 10
748.461731
 20
462.017639
 10
747.674866
 20
462.19632
 10
746.863159
 20
462.305084
 10
746.030823
 20
462.344788
 10
745.182373
 20
462.316895
 10
744.322144
 20
462.22345
 10
743.454468
 20
462.067047
 10
742.583618
 20
461.850708
 10
741.713501
 20
461.57782
 10
740.848022
 20
461.252075
 10
739.990601
 20
460.877441
 10
739.14447
 20
460.457977
 10
738.3125
 20
459.997833
 10
737.478394
 20
459.489227
 10
736.630493
 20
458.923462
 10
735.771729
 20
458.299744
 10
734.905334
 20
457.617737
 10
734.034912
 20
456.877716
 10
733.164246
 20
456.080322
 10
732.297363
 20
455.226959
 10
731.438599
 20
454.319489
 10
730.592163
 20
453.360474
 10
729.762512
 20
452.352997
 10
728.954041
 20
451.300751
 10
728.171082
 20
450.208008
 10
727.417847
 20
449.079437
 10
726.698242
 20
447.920258
 10
726.01593
 20
446.735901
 10
725.374207
 20
445.532135
 10
724.776001
 20
444.314941
 10
724.223755
 20
443.09024
 10
723.719482
 20
441.864044
 10
723.264648
 20
440.642212
 10
722.860168
 20
439.430389
 10
722.506531
 20
438.233887
 10
722.203796
 20
437.05777
 10
721.951416
 20
435.906616
 10
721.748474
 20
434.784515
 10
721.59375
 20
433.69516
 10
721.485535
 20
432.641663
 10
721.421997
 20
431.626709
 10
721.40094
 20
430.638153
  0
LWPOLYLINE
  5
286
330
241
100
AcDbEntity
  8
0
  6
Continuous
 62
     0
370
    30
100
AcDbPolyline
 90
       30
 70
     0
 43
0.0
 10
721.40094
 20
430.638153
 10
721.420593
 20
429.706299
 10
721.481079
 20
428.782379
 10
721.584351
 20
427.870728
 10
721.7323
 20
426.975952
 10
721.926453
 20
426.102753
 10
722.16803
 20
425.255951
 10
722.458008
 20
424.44046
 10
722.796875
 20
423.661102
 10
723.184631
 20
422.922668
 10
723.621033
 20
422.229767
 10
724.105225
 20
421.58667
 10
724.635864
 20
420.997406
 10
725.211243
 20
420.465576
 10
725.829163
 20
419.994293
 10
726.486938
 20
419.58609
 10
727.181641
 20
419.243042
 10
727.909851
 20
418.966492
 10
728.667969
 20
418.757233
 10
729.452087
 20
418.615387
 10
730.258118
 20
418.540497
 10
731.082092
 20
418.531433
 10
731.919678
 20
418.586609
 10
732.766846
 20
418.703857
 10
733.619507
 20
418.880554
 10
734.473816
 20
419.113708
 10
735.325989
 20
419.399994
 10
736.172546
 20
419.73584
 10
737.010315
 20
420.117462
 10
737.863892
 20
420.555908
  0
ARC
  5
287
330
241
100
AcDbEntity
  8
0
  6
Continuous
 62
     0
370
    30
100
AcDbCircle
 10
727.336167
 20
422.883356
 30
0.0
 40
3.26947829483837
100
AcDbArc
 50
53.462555
 51
113.496558
  0
LINE
  5
288
330
241
100
AcDbEntity
  8
0
  6
Continuous
 62
     0
370
    30
100
AcDbLine
 10
771.8555
 20
433.06287
 30
0.0
 11
744.278335
 21
417.141187
 31
0.0
  0
LINE
  5
289
330
241
100
AcDbEntity
  8
0
  6
Continuous
 62
     0
370
    30
100
AcDbLine
 10
729.282646
 20
425.510277
 30
0.0
 11
743.778335
 21
417.141187
 31
0.0
  0
LINE
  5
28A
330
241
100
AcDbEntity
  8
0
  6
Continuous
 62
     0
370
    30
100
AcDbLine
 10
772.1055
 20
440.844352
 30
0.0
 11
772.1055
 21
433.495883
 31
0.0
  0
LINE
  5
28B
330
241
100
AcDbEntity
  8
0
  6
Continuous
 62
     0
370
    30
100
AcDbLine
 10
757.359811
 20
449.646455
 30
0.0
 11
771.8555
 21
441.277365
 31
0.0
  0
ARC
  5
28C
330
241
100
AcDbEntity
  8
0
  6
Continuous
 62
     0
370
    30
100
AcDbCircle
 10
763.597844
 20
459.145197
 30
0.0
 40
11.36394170197072
100
AcDbArc
 50
194.288689
 51
236.706209
  0
LINE
  5
28D
330
241
100
AcDbEntity
  8
0
  6
Continuous
 62
     0
370
    30
100
AcDbLine
 10
752.585461
 20
456.340701
 30
0.0
 11
752.720837
 21
455.344196
 31
0.0
  0
LINE
  5
28E
330
241
100
AcDbEntity
  8
0
  6
Continuous
 62
     0
370
    30
100
AcDbLine
 10
710.954438
 20
409.964182
 30
0.0
 11
717.827516
 21
405.996008
 31
0.0
  0
LINE
  5
28F
330
241
100
AcDbEntity
  8
0
  6
Continuous
 62
     0
370
    30
100
AcDbLine
 10
751.052418
 20
479.41592
 30
0.0
 11
757.925496
 21
475.447747
 31
0.0
  0
LINE
  5
290
330
241
100
AcDbEntity
  8
0
  6
Continuous
 62
     0
370
    30
100
AcDbLine
 10
740.704932
 20
418.915616
 30
0.0
 11
718.327516
 21
405.996008
 31
0.0
  0
LINE
  5
291
330
241
100
AcDbEntity
  8
0
  6
Continuous
 62
     0
370
    30
100
AcDbLine
 10
758.175496
 20
475.014734
 30
0.0
 11
758.175496
 21
449.175518
 31
0.0
  0
ELLIPSE
  5
292
330
241
100
AcDbEntity
  8
0
  6
Continuous
 62
     0
370
     0
100
AcDbEllipse
 10
642.615664
 20
408.584909
 30
0.0
 11
-0.5
 21
0.0
 31
0.0
210
0.0
220
0.0
230
1.0
 40
0.57735
 41
2.356194490192373
 42
3.926990816987298
  0
LINE
  5
293
330
241
100
AcDbEntity
  8
0
  6
Continuous
 62
     0
370
     0
100
AcDbLine
 10
642.969218
 20
382.830244
 30
0.0
 11
642.969218
 21
408.380785
 31
0.0
  0
LINE
  5
294
330
241
100
AcDbEntity
  8
0
  6
Continuous
 62
     0
370
     0
100
AcDbLine
 10
603.017685
 20
386.131253
 30
0.0
 11
642.615664
 21
408.993157
 31
0.0
  0
ELLIPSE
  5
295
330
241
100
AcDbEntity
  8
0
  6
Continuous
 62
     0
370
     0
100
AcDbEllipse
 10
603.017685
 20
385.723005
 30
0.0
 11
0.2500000000000001
 21
-0.4330127018922193
 31
0.0
210
0.0
220
0.0
230
1.0
 40
0.57735
 41
0.7853981633973346
 42
2.356194490192345
  0
LINE
  5
296
330
241
100
AcDbEntity
  8
0
  6
Continuous
 62
     0
370
     0
100
AcDbLine
 10
642.969218
 20
408.380785
 30
0.0
 11
603.371238
 21
385.518881
 31
0.0
  0
ELLIPSE
  5
297
330
241
100
AcDbEntity
  8
0
  6
Continuous
 62
     0
370
     0
100
AcDbEllipse
 10
642.615664
 20
408.584909
 30
0.0
 11
-0.2500000000000001
 21
0.4330127018922193
 31
0.0
210
0.0
220
0.0
230
-1.0
 40
0.57735
 41
0.785398163397406
 42
2.356194490192317
  0
LINE
  5
298
330
241
100
AcDbEntity
  8
0
  6
Continuous
 62
     0
370
     0
100
AcDbLine
 10
602.664131
 20
339.795072
 30
0.0
 11
602.664131
 21
385.518881
 31
0.0
  0
ELLIPSE
  5
299
330
241
100
AcDbEntity
  8
0
  6
Continuous
 62
     0
370
     0
100
AcDbEllipse
 10
603.017685
 20
339.999196
 30
0.0
 11
0.5
 21
-2.775557561562891E-17
 31
0.0
210
0.0
220
0.0
230
-1.0
 40
0.57735
 41
0.7853981633974767
 42
2.356194490192288
  0
LINE
  5
29A
330
241
100
AcDbEntity
  8
0
  6
Continuous
 62
     0
370
     0
100
AcDbLine
 10
603.371238
 20
385.518881
 30
0.0
 11
603.371238
 21
339.795072
 31
0.0
  0
ELLIPSE
  5
29B
330
241
100
AcDbEntity
  8
0
  6
Continuous
 62
     0
370
     0
100
AcDbEllipse
 10
603.017685
 20
385.723005
 30
0.0
 11
-0.5
 21
2.775557561562891E-17
 31
0.0
210
0.0
220
0.0
230
1.0
 40
0.57735
 41
0.7853981633973914
 42
2.356194490192487
  0
LINE
  5
29C
330
241
100
AcDbEntity
  8
0
  6
Continuous
 62
     0
370
     0
100
AcDbLine
 10
602.664131
 20
385.518881
 30
0.0
 11
603.017685
 21
386.131253
 31
0.0
  0
LINE
  5
29D
330
241
100
AcDbEntity
  8
0
  6
Continuous
 62
     0
370
     0
100
AcDbLine
 10
603.371238
 20
339.795072
 30
0.0
 11
625.498654
 21
352.570342
 31
0.0
  0
ELLIPSE
  5
29E
330
241
100
AcDbEntity
  8
0
  6
Continuous
 62
     0
370
     0
100
AcDbEllipse
 10
603.017685
 20
339.999196
 30
0.0
 11
0.2500000000000001
 21
-0.4330127018922194
 31
0.0
210
0.0
220
0.0
230
1.0
 40
0.57735
 41
5.497787143782138
 42
7.06858347057702
  0
ARC
  5
29F
330
241
100
AcDbEntity
  8
0
  6
Continuous
 62
     0
370
     0
100
AcDbCircle
 10
602.875426
 20
339.752797
 30
0.0
 40
0.2154822031405239
100
AcDbArc
 50
168.68574
 51
311.31426
  0
ARC
  5
2A0
330
241
100
AcDbEntity
  8
0
  6
Continuous
 62
     0
370
     0
100
AcDbCircle
 10
642.757923
 20
408.831309
 30
0.0
 40
0.2154822031374866
100
AcDbArc
 50
348.68574
 51
131.31426
  0
LINE
  5
2A1
330
241
100
AcDbEntity
  8
0
  6
Continuous
 62
     0
370
     0
100
AcDbLine
 10
596.144607
 20
390.099426
 30
0.0
 11
603.017685
 21
386.131253
 31
0.0
  0
ELLIPSE
  5
2A2
330
241
100
AcDbEntity
  8
0
  6
Continuous
 62
     0
370
    30
100
AcDbEllipse
 10
596.144607
 20
389.691178
 30
0.0
 11
-0.2500000000000001
 21
-0.4330127018922194
 31
0.0
210
0.0
220
0.0
230
-1.0
 40
0.57735
 41
0.7853981633973914
 42
2.35619449019243
  0
LINE
  5
2A3
330
241
100
AcDbEntity
  8
0
  6
Continuous
 62
     0
370
     0
100
AcDbLine
 10
602.664131
 20
385.518881
 30
0.0
 11
595.791053
 21
389.487054
 31
0.0
  0
LINE
  5
2A4
330
241
100
AcDbEntity
  8
0
  6
Continuous
 62
     0
370
    30
100
AcDbLine
 10
595.791053
 20
343.763245
 30
0.0
 11
595.791053
 21
389.487054
 31
0.0
  0
LINE
  5
2A5
330
241
100
AcDbEntity
  8
0
  6
Continuous
 62
     0
370
     0
100
AcDbLine
 10
602.664131
 20
339.795072
 30
0.0
 11
595.791053
 21
343.763245
 31
0.0
  0
ELLIPSE
  5
2A6
330
241
100
AcDbEntity
  8
0
  6
Continuous
 62
     0
370
    30
100
AcDbEllipse
 10
596.144607
 20
343.96737
 30
0.0
 11
-0.2500000000000001
 21
-0.4330127018922194
 31
0.0
210
0.0
220
0.0
230
-1.0
 40
0.57735
 41
0.0000000228502361
 42
0.7853981633973346
  0
ELLIPSE
  5
2A7
330
241
100
AcDbEntity
  8
0
  6
Continuous
 62
     0
370
    30
100
AcDbEllipse
 10
635.742586
 20
412.553082
 30
0.0
 11
-0.2500000000000001
 21
-0.4330127018922193
 31
0.0
210
0.0
220
0.0
230
-1.0
 40
0.57735
 41
2.356194490192345
 42
3.141592676439938
  0
LINE
  5
2A8
330
241
100
AcDbEntity
  8
0
  6
Continuous
 62
     0
370
     0
100
AcDbLine
 10
642.615664
 20
408.993157
 30
0.0
 11
635.742586
 21
412.961331
 31
0.0
  0
LINE
  5
2A9
330
241
100
AcDbEntity
  8
0
  6
Continuous
 62
     0
370
    30
100
AcDbLine
 10
596.144607
 20
390.099426
 30
0.0
 11
635.742586
 21
412.961331
 31
0.0
  0
ELLIPSE
  5
2AA
330
241
100
AcDbEntity
  8
0
  6
Continuous
 62
     0
370
    30
100
AcDbEllipse
 10
623.170228
 20
374.087929
 30
0.0
 11
-12.00000000000001
 21
-20.78460969082653
 31
0.0
210
0.0
220
0.0
230
-1.0
 40
0.57735
 41
0.0000000228500854
 42
0.7853981633977161
  0
ELLIPSE
  5
2AB
330
241
100
AcDbEntity
  8
0
  6
Continuous
 62
     0
370
    30
100
AcDbEllipse
 10
623.170228
 20
374.087929
 30
0.0
 11
-12.00000000000001
 21
-20.78460969082653
 31
0.0
210
0.0
220
0.0
230
-1.0
 40
0.57735
 41
0.7853981633977161
 42
3.141592676439928
  0
LINE
  5
2AC
330
241
100
AcDbEntity
  8
0
  6
Continuous
 62
     0
370
     0
100
AcDbLine
 10
609.523067
 20
372.380097
 30
0.0
 11
608.81596
 21
372.380097
 31
0.0
  0
ARC
  5
2AD
330
241
100
AcDbEntity
  8
0
  6
Continuous
 62
     0
370
     0
100
AcDbCircle
 10
620.501214
 20
374.111747
 30
0.0
 40
11.11387978265269
100
AcDbArc
 50
171.036245
 51
188.963755
  0
ARC
  5
2AE
330
241
100
AcDbEntity
  8
0
  6
Continuous
 62
     0
370
     0
100
AcDbCircle
 10
623.362325
 20
371.21398
 30
0.0
 40
14.59303133061904
100
AcDbArc
 50
161.504224
 51
175.416652
  0
LINE
  5
2AF
330
241
100
AcDbEntity
  8
0
  6
Continuous
 62
     0
370
     0
100
AcDbLine
 10
609.523067
 20
358.89428
 30
0.0
 11
609.523067
 21
372.380097
 31
0.0
  0
LINE
  5
2B0
330
241
100
AcDbEntity
  8
0
  6
Continuous
 62
     0
370
     0
100
AcDbLine
 10
608.81596
 20
372.380097
 30
0.0
 11
608.81596
 21
358.89428
 31
0.0
  0
ELLIPSE
  5
2B1
330
241
100
AcDbEntity
  8
0
  6
Continuous
 62
     0
370
     0
100
AcDbEllipse
 10
609.169514
 20
358.690156
 30
0.0
 11
0.5
 21
-1.163236174051008E-13
 31
0.0
210
0.0
220
0.0
230
-1.0
 40
0.57735
 41
3.926990816987249
 42
5.497787143782076
  0
ARC
  5
2B2
330
241
100
AcDbEntity
  8
0
  6
Continuous
 62
     0
370
     0
100
AcDbCircle
 10
615.616486
 20
359.293221
 30
0.0
 40
6.812217028294215
100
AcDbArc
 50
183.357306
 51
206.55778
  0
ARC
  5
2B3
330
241
100
AcDbEntity
  8
0
  6
Continuous
 62
     0
370
    30
100
AcDbCircle
 10
615.894215
 20
357.570879
 30
0.0
 40
6.507143902461543
100
AcDbArc
 50
168.265514
 51
191.734486
  0
ARC
  5
2B4
330
241
100
AcDbEntity
  8
0
  6
Continuous
 62
     0
370
     0
100
AcDbCircle
 10
612.422022
 20
356.863898
 30
0.0
 40
2.963766878236368
100
AcDbArc
 50
55.200322
 51
192.0043
  0
LINE
  5
2B5
330
241
100
AcDbEntity
  8
0
  6
Continuous
 62
     0
370
     0
100
AcDbLine
 10
614.119261
 20
359.30934
 30
0.0
 11
614.222814
 21
359.080452
 31
0.0
  0
ARC
  5
2B6
330
241
100
AcDbEntity
  8
0
  6
Continuous
 62
     0
370
     0
100
AcDbCircle
 10
612.025481
 20
356.839292
 30
0.0
 40
3.238063531790086
100
AcDbArc
 50
49.713141
 51
140.607074
  0
LINE
  5
2B7
330
241
100
AcDbEntity
  8
0
  6
Continuous
 62
     0
370
     0
100
AcDbLine
 10
628.61495
 20
350.94025
 30
0.0
 11
614.119261
 21
359.30934
 31
0.0
  0
LINE
  5
2B8
330
241
100
AcDbEntity
  8
0
  6
Continuous
 62
     0
370
     0
100
AcDbLine
 10
628.61495
 20
358.28872
 30
0.0
 11
628.61495
 21
350.94025
 31
0.0
  0
LINE
  5
2B9
330
241
100
AcDbEntity
  8
0
  6
Continuous
 62
     0
370
     0
100
AcDbLine
 10
614.119261
 20
366.65781
 30
0.0
 11
628.61495
 21
358.28872
 31
0.0
  0
ARC
  5
2BA
330
241
100
AcDbEntity
  8
0
  6
Continuous
 62
     0
370
     0
100
AcDbCircle
 10
620.39506
 20
376.405586
 30
0.0
 40
11.59330818475659
100
AcDbArc
 50
200.317687
 51
237.225813
  0
ARC
  5
2BB
330
241
100
AcDbEntity
  8
0
  6
Continuous
 62
     0
370
     0
100
AcDbCircle
 10
614.899591
 20
366.615534
 30
0.0
 40
0.7814744143919681
100
AcDbArc
 50
123.101049
 51
176.898951
  0
ARC
  5
2BC
330
241
100
AcDbEntity
  8
0
  6
Continuous
 62
     0
370
     0
100
AcDbCircle
 10
620.447688
 20
376.435253
 30
0.0
 40
10.94064180190151
100
AcDbArc
 50
183.101049
 51
236.898951
  0
ARC
  5
2BD
330
241
100
AcDbEntity
  8
0
  6
Continuous
 62
     0
370
     0
100
AcDbCircle
 10
630.990387
 20
388.714949
 30
0.0
 40
6.828871940451473
100
AcDbArc
 50
3.385989
 51
26.529096
  0
LINE
  5
2BE
330
241
100
AcDbEntity
  8
0
  6
Continuous
 62
     0
370
     0
100
AcDbLine
 10
637.525625
 20
389.910794
 30
0.0
 11
637.100231
 21
391.765079
 31
0.0
  0
ARC
  5
2BF
330
241
100
AcDbEntity
  8
0
  6
Continuous
 62
     0
370
     0
100
AcDbCircle
 10
648.024853
 20
392.356936
 30
0.0
 40
10.94064180190075
100
AcDbArc
 50
183.101049
 51
236.898951
  0
LINE
  5
2C0
330
241
100
AcDbEntity
  8
0
  6
Continuous
 62
     0
370
     0
100
AcDbLine
 10
642.299979
 20
383.21663
 30
0.0
 11
642.049979
 21
383.191865
 31
0.0
  0
ARC
  5
2C1
330
241
100
AcDbEntity
  8
0
  6
Continuous
 62
     0
370
     0
100
AcDbCircle
 10
628.826245
 20
350.897975
 30
0.0
 40
0.2154822031338097
100
AcDbArc
 50
168.68574
 51
311.31426
  0
ARC
  5
2C2
330
241
100
AcDbEntity
  8
0
  6
Continuous
 62
     0
370
     0
100
AcDbCircle
 10
629.110762
 20
350.897975
 30
0.0
 40
0.2154822031346457
100
AcDbArc
 50
228.68574
 51
11.31426
  0
ARC
  5
2C3
330
241
100
AcDbEntity
  8
0
  6
Continuous
 62
     0
370
     0
100
AcDbCircle
 10
628.968503
 20
351.637174
 30
0.0
 40
0.7814744144298045
100
AcDbArc
 50
243.101049
 51
296.898951
  0
LINE
  5
2C4
330
241
100
AcDbEntity
  8
0
  6
Continuous
 62
     0
370
     0
100
AcDbLine
 10
656.899221
 20
366.861934
 30
0.0
 11
657.045668
 21
367.066058
 31
0.0
  0
LINE
  5
2C5
330
241
100
AcDbEntity
  8
0
  6
Continuous
 62
     0
370
     0
100
AcDbLine
 10
656.795668
 20
366.633045
 30
0.0
 11
656.899221
 21
366.861934
 31
0.0
  0
LINE
  5
2C6
330
241
100
AcDbEntity
  8
0
  6
Continuous
 62
     0
370
     0
100
AcDbLine
 10
628.61495
 20
358.28872
 30
0.0
 11
628.968503
 21
358.901092
 31
0.0
  0
ARC
  5
2C7
330
241
100
AcDbEntity
  8
0
  6
Continuous
 62
     0
370
     0
100
AcDbCircle
 10
628.968503
 20
358.985643
 30
0.0
 40
0.7814744144472051
100
AcDbArc
 50
243.101049
 51
296.898951
  0
ARC
  5
2C8
330
241
100
AcDbEntity
  8
0
  6
Continuous
 62
     0
370
     0
100
AcDbCircle
 10
628.541727
 20
358.246444
 30
0.0
 40
0.7814744144148946
100
AcDbArc
 50
3.101049
 51
56.898951
  0
ARC
  5
2C9
330
241
100
AcDbEntity
  8
0
  6
Continuous
 62
     0
370
     0
100
AcDbCircle
 10
656.687927
 20
374.660927
 30
0.0
 40
0.2154822031376651
100
AcDbArc
 50
348.68574
 51
131.31426
  0
ARC
  5
2CA
330
241
100
AcDbEntity
  8
0
  6
Continuous
 62
     0
370
     0
100
AcDbCircle
 10
656.118891
 20
374.168128
 30
0.0
 40
0.7814744144205055
100
AcDbArc
 50
3.101049
 51
56.898951
  0
ARC
  5
2CB
330
241
100
AcDbEntity
  8
0
  6
Continuous
 62
     0
370
     0
100
AcDbCircle
 10
656.830186
 20
374.414527
 30
0.0
 40
0.2154822031372267
100
AcDbArc
 50
288.68574
 51
71.31426
  0
LINE
  5
2CC
330
241
100
AcDbEntity
  8
0
  6
Continuous
 62
     0
370
     0
100
AcDbLine
 10
656.899221
 20
374.210403
 30
0.0
 11
629.322057
 21
358.28872
 31
0.0
  0
LINE
  5
2CD
330
241
100
AcDbEntity
  8
0
  6
Continuous
 62
     0
370
     0
100
AcDbLine
 10
628.968503
 20
358.901092
 30
0.0
 11
656.545668
 21
374.822775
 31
0.0
  0
LINE
  5
2CE
330
241
100
AcDbEntity
  8
0
  6
Continuous
 62
     0
370
     0
100
AcDbLine
 10
656.545668
 20
374.822775
 30
0.0
 11
642.049979
 21
383.191865
 31
0.0
  0
LINE
  5
2CF
330
241
100
AcDbEntity
  8
0
  6
Continuous
 62
     0
370
     0
100
AcDbLine
 10
656.899221
 20
366.861934
 30
0.0
 11
656.899221
 21
374.210403
 31
0.0
  0
LINE
  5
2D0
330
241
100
AcDbEntity
  8
0
  6
Continuous
 62
     0
370
     0
100
AcDbLine
 10
614.472814
 20
367.270182
 30
0.0
 11
628.968503
 21
358.901092
 31
0.0
  0
LINE
  5
2D1
330
241
100
AcDbEntity
  8
0
  6
Continuous
 62
     0
370
     0
100
AcDbLine
 10
629.322057
 20
358.28872
 30
0.0
 11
629.322057
 21
350.94025
 31
0.0
  0
LINE
  5
2D2
330
241
100
AcDbEntity
  8
0
  6
Continuous
 62
     0
370
     0
100
AcDbLine
 10
629.322057
 20
350.94025
 30
0.0
 11
656.899221
 21
366.861934
 31
0.0
  0
LINE
  5
2D3
330
241
100
AcDbEntity
  8
0
  6
Continuous
 62
     0
370
     0
100
AcDbLine
 10
614.472814
 20
367.270182
 30
0.0
 11
642.049979
 21
383.191865
 31
0.0
  0
LINE
  5
2D4
330
241
100
AcDbEntity
  8
0
  6
Continuous
 62
     0
370
     0
100
AcDbLine
 10
637.100231
 20
391.765079
 30
0.0
 11
609.523067
 21
375.843396
 31
0.0
  0
LINE
  5
2D5
330
241
100
AcDbEntity
  8
0
  6
Continuous
 62
     0
370
     0
100
AcDbLine
 10
609.523067
 20
356.247478
 30
0.0
 11
614.326368
 21
359.020665
 31
0.0
  0
LWPOLYLINE
  5
2D6
330
241
100
AcDbEntity
  8
0
  6
Continuous
 62
     0
370
    30
100
AcDbPolyline
 90
       30
 70
     0
 43
0.0
 10
622.804077
 20
354.126068
 10
621.978455
 20
353.701202
 10
621.141052
 20
353.318115
 10
620.294739
 20
352.980682
 10
619.442688
 20
352.692657
 10
618.58844
 20
352.457672
 10
617.735596
 20
352.279022
 10
616.888184
 20
352.159729
 10
616.050232
 20
352.102448
 10
615.225769
 20
352.109283
 10
614.419006
 20
352.181946
 10
613.634094
 20
352.321533
 10
612.875061
 20
352.528534
 10
612.145752
 20
352.802826
 10
611.44989
 20
353.143677
 10
610.790771
 20
353.549683
 10
610.171509
 20
354.018921
 10
609.594666
 20
354.548767
 10
609.0625
 20
355.136139
 10
608.576721
 20
355.777496
 10
608.138733
 20
356.468811
 10
607.749268
 20
357.20578
 10
607.408752
 20
357.983826
 10
607.117188
 20
358.798187
 10
606.873962
 20
359.644012
 10
606.678223
 20
360.516418
 10
606.528748
 20
361.410553
 10
606.424011
 20
362.321686
 10
606.362122
 20
363.245239
 10
606.341064
 20
364.208313
  0
LWPOLYLINE
  5
2D7
330
241
100
AcDbEntity
  8
0
  6
Continuous
 62
     0
370
    30
100
AcDbPolyline
 90
       58
 70
     0
 43
0.0
 10
606.341064
 20
364.208313
 10
606.361572
 20
365.182007
 10
606.424438
 20
366.196381
 10
606.531982
 20
367.249298
 10
606.685974
 20
368.338165
 10
606.888184
 20
369.459778
 10
607.139832
 20
370.610535
 10
607.441833
 20
371.786316
 10
607.794678
 20
372.982544
 10
608.198364
 20
374.194183
 10
608.652466
 20
375.415894
 10
609.156006
 20
376.642059
 10
609.707581
 20
377.866821
 10
610.305054
 20
379.084198
 10
610.946167
 20
380.288177
 10
611.627869
 20
381.47287
 10
612.346985
 20
382.632477
 10
613.099731
 20
383.761536
 10
613.882263
 20
384.854858
 10
614.690369
 20
385.907715
 10
615.519775
 20
386.915894
 10
616.365967
 20
387.875671
 10
617.224609
 20
388.783936
 10
618.09137
 20
389.638123
 10
618.962036
 20
390.43634
 10
619.832458
 20
391.177277
 10
620.698914
 20
391.860107
 10
621.557861
 20
392.484711
 10
622.405945
 20
393.051361
 10
623.240295
 20
393.560822
 10
624.072083
 20
394.021545
 10
624.91803
 20
394.44165
 10
625.775269
 20
394.816986
 10
626.640686
 20
395.143494
 10
627.510681
 20
395.417206
 10
628.381592
 20
395.63443
 10
629.249329
 20
395.791748
 10
630.10968
 20
395.886139
 10
630.958374
 20
395.915039
 10
631.790955
 20
395.876343
 10
632.603027
 20
395.768646
 10
633.39032
 20
395.591003
 10
634.148499
 20
395.343292
 10
634.873657
 20
395.02594
 10
635.562134
 20
394.640106
 10
636.210449
 20
394.187653
 10
636.815674
 20
393.671051
 10
637.375305
 20
393.093353
 10
637.887268
 20
392.458191
 10
638.350037
 20
391.769623
 10
638.762512
 20
391.032104
 10
639.124146
 20
390.250427
 10
639.434875
 20
389.429626
 10
639.69519
 20
388.574768
 10
639.905823
 20
387.691101
 10
640.068115
 20
386.783691
 10
640.183533
 20
385.857635
 10
640.2547
 20
384.903687
  0
LINE
  5
2D8
330
241
100
AcDbEntity
  8
0
  6
Continuous
 62
     0
370
    30
100
AcDbLine
 10
628.718503
 20
350.711362
 30
0.0
 11
614.222814
 21
359.080452
 31
0.0
  0
LINE
  5
2D9
330
241
100
AcDbEntity
  8
0
  6
Continuous
 62
     0
370
    30
100
AcDbLine
 10
656.795668
 20
366.633045
 30
0.0
 11
629.218503
 21
350.711362
 31
0.0
  0
LINE
  5
2DA
330
241
100
AcDbEntity
  8
0
  6
Continuous
 62
     0
370
    30
100
AcDbLine
 10
657.045668
 20
374.414527
 30
0.0
 11
657.045668
 21
367.066058
 31
0.0
  0
LINE
  5
2DB
330
241
100
AcDbEntity
  8
0
  6
Continuous
 62
     0
370
    30
100
AcDbLine
 10
656.795668
 20
374.84754
 30
0.0
 11
642.299979
 21
383.21663
 31
0.0
  0
ARC
  5
2DC
330
241
100
AcDbEntity
  8
0
  6
Continuous
 62
     0
370
    30
100
AcDbCircle
 10
648.536239
 20
392.714107
 30
0.0
 40
11.36191052224423
100
AcDbArc
 50
194.284086
 51
236.710186
  0
LINE
  5
2DD
330
241
100
AcDbEntity
  8
0
  6
Continuous
 62
     0
370
    30
100
AcDbLine
 10
637.661005
 20
388.914362
 30
0.0
 11
637.525614
 21
389.910839
 31
0.0
  0
ARC
  5
2DE
330
241
100
AcDbEntity
  8
0
  6
Continuous
 62
     0
370
    30
100
AcDbCircle
 10
612.276082
 20
356.451294
 30
0.0
 40
3.271427888936779
100
AcDbArc
 50
53.482293
 51
113.477148
  0
LINE
  5
2DF
330
241
100
AcDbEntity
  8
0
  6
Continuous
 62
     0
370
    30
100
AcDbLine
 10
642.865664
 20
409.017922
 30
0.0
 11
635.992586
 21
412.986095
 31
0.0
  0
LINE
  5
2E0
330
241
100
AcDbEntity
  8
0
  6
Continuous
 62
     0
370
    30
100
AcDbLine
 10
602.767685
 20
339.566184
 30
0.0
 11
595.894607
 21
343.534357
 31
0.0
  0
LINE
  5
2E1
330
241
100
AcDbEntity
  8
0
  6
Continuous
 62
     0
370
    30
100
AcDbLine
 10
625.645101
 20
352.485791
 30
0.0
 11
603.267685
 21
339.566184
 31
0.0
  0
LINE
  5
2E2
330
241
100
AcDbEntity
  8
0
  6
Continuous
 62
     0
370
    30
100
AcDbLine
 10
643.115664
 20
408.584909
 30
0.0
 11
643.115664
 21
382.745693
 31
0.0
  0
ELLIPSE
  5
2E3
330
241
100
AcDbEntity
  8
0
  6
Continuous
 62
     0
370
    30
100
AcDbEllipse
 10
760.985626
 20
205.95719
 30
0.0
 11
-24.0
 21
0.0
 31
0.0
210
0.0
220
0.0
230
1.0
 40
0.57735
 41
2.356194490192345
 42
3.897076159969374
  0
ELLIPSE
  5
2E4
330
241
100
AcDbEntity
  8
0
  6
Continuous
 62
     0
370
    30
100
AcDbEllipse
 10
760.985626
 20
205.95719
 30
0.0
 11
-24.0
 21
0.0
 31
0.0
210
0.0
220
0.0
230
1.0
 40
0.57735
 41
5.52770178352063
 42
8.63937979737193
  0
LINE
  5
2E5
330
241
100
AcDbEntity
  8
0
  6
Continuous
 62
     0
370
    30
100
AcDbLine
 10
750.025471
 20
195.955107
 30
0.0
 11
743.66151
 21
199.629341
 31
0.0
  0
ELLIPSE
  5
2E6
330
241
100
AcDbEntity
  8
0
  6
Continuous
 62
     0
370
    30
100
AcDbEllipse
 10
744.015063
 20
199.833465
 30
0.0
 11
0.5
 21
0.0
 31
0.0
210
0.0
220
0.0
230
-1.0
 40
0.57735
 41
2.356194490192341
 42
3.141592662229482
  0
ELLIPSE
  5
2E7
330
241
100
AcDbEntity
  8
0
  6
Continuous
 62
     0
370
    30
100
AcDbEllipse
 10
777.956189
 20
212.080914
 30
0.0
 11
0.5
 21
0.0
 31
0.0
210
0.0
220
0.0
230
-1.0
 40
0.57735
 41
0.0000000086396837
 42
0.7853981633974626
  0
LINE
  5
2E8
330
241
100
AcDbEntity
  8
0
  6
Continuous
 62
     0
370
    30
100
AcDbLine
 10
778.309742
 20
211.87679
 30
0.0
 11
750.732578
 21
195.955107
 31
0.0
  0
ELLIPSE
  5
2E9
330
241
100
AcDbEntity
  8
0
  6
Continuous
 62
     0
370
    30
100
AcDbEllipse
 10
750.379025
 20
196.159231
 30
0.0
 11
0.5
 21
0.0
 31
0.0
210
0.0
220
0.0
230
-1.0
 40
0.57735
 41
0.7853981633974342
 42
2.356194490192343
  0
LINE
  5
2EA
330
241
100
AcDbEntity
  8
0
  6
Continuous
 62
     0
370
     0
100
AcDbLine
 10
800.583606
 20
205.95719
 30
0.0
 11
778.456189
 21
218.73246
 31
0.0
  0
ELLIPSE
  5
2EB
330
241
100
AcDbEntity
  8
0
  6
Continuous
 62
     0
370
     0
100
AcDbEllipse
 10
800.583606
 20
205.548941
 30
0.0
 11
0.2500000000000001
 21
0.4330127018922194
 31
0.0
210
0.0
220
0.0
230
1.0
 40
0.57735
 41
5.497787143782134
 42
7.068583470577042
  0
ELLIPSE
  5
2EC
330
241
100
AcDbEntity
  8
0
  6
Continuous
 62
     0
370
     0
100
AcDbEllipse
 10
721.387646
 20
205.548941
 30
0.0
 11
0.25
 21
-0.4330127018922194
 31
0.0
210
0.0
220
0.0
230
1.0
 40
0.57735
 41
2.356194490192352
 42
3.926990816987252
  0
LINE
  5
2ED
330
241
100
AcDbEntity
  8
0
  6
Continuous
 62
     0
370
     0
100
AcDbLine
 10
743.515064
 20
218.73246
 30
0.0
 11
721.387646
 21
205.95719
 31
0.0
  0
LINE
  5
2EE
330
241
100
AcDbEntity
  8
0
  6
Continuous
 62
     0
370
     0
100
AcDbLine
 10
760.632073
 20
182.482913
 30
0.0
 11
721.034093
 21
205.344817
 31
0.0
  0
ELLIPSE
  5
2EF
330
241
100
AcDbEntity
  8
0
  6
Continuous
 62
     0
370
     0
100
AcDbEllipse
 10
760.985626
 20
182.687037
 30
0.0
 11
0.2500000000000001
 21
0.4330127018922193
 31
0.0
210
0.0
220
0.0
230
1.0
 40
0.57735
 41
0.7853981633974483
 42
2.356194490192352
  0
LINE
  5
2F0
330
241
100
AcDbEntity
  8
0
  6
Continuous
 62
     0
370
     0
100
AcDbLine
 10
721.387646
 20
205.95719
 30
0.0
 11
760.985626
 21
183.095285
 31
0.0
  0
ELLIPSE
  5
2F1
330
241
100
AcDbEntity
  8
0
  6
Continuous
 62
     0
370
     0
100
AcDbEllipse
 10
721.387646
 20
205.548941
 30
0.0
 11
-0.2500000000000001
 21
-0.4330127018922193
 31
0.0
210
0.0
220
0.0
230
-1.0
 40
0.57735
 41
0.7853981633974445
 42
2.356194490192345
  0
ARC
  5
2F2
330
241
100
AcDbEntity
  8
0
  6
Continuous
 62
     0
370
     0
100
AcDbCircle
 10
721.103129
 20
205.548941
 30
0.0
 40
0.2154822031355787
100
AcDbArc
 50
108.68574
 51
251.31426
  0
LINE
  5
2F3
330
241
100
AcDbEntity
  8
0
  6
Continuous
 62
     0
370
     0
100
AcDbLine
 10
800.937159
 20
205.344817
 30
0.0
 11
761.33918
 21
182.482913
 31
0.0
  0
ELLIPSE
  5
2F4
330
241
100
AcDbEntity
  8
0
  6
Continuous
 62
     0
370
     0
100
AcDbEllipse
 10
800.583606
 20
205.548941
 30
0.0
 11
-0.2500000000000001
 21
0.4330127018922194
 31
0.0
210
0.0
220
0.0
230
-1.0
 40
0.57735
 41
0.7853981633974485
 42
2.356194490192347
  0
LINE
  5
2F5
330
241
100
AcDbEntity
  8
0
  6
Continuous
 62
     0
370
     0
100
AcDbLine
 10
760.985626
 20
183.095285
 30
0.0
 11
800.583606
 21
205.95719
 31
0.0
  0
ELLIPSE
  5
2F6
330
241
100
AcDbEntity
  8
0
  6
Continuous
 62
     0
370
     0
100
AcDbEllipse
 10
760.985626
 20
182.687037
 30
0.0
 11
0.2500000000000001
 21
-0.4330127018922194
 31
0.0
210
0.0
220
0.0
230
1.0
 40
0.57735
 41
0.7853981633974483
 42
2.356194490192324
  0
LINE
  5
2F7
330
241
100
AcDbEntity
  8
0
  6
Continuous
 62
     0
370
     0
100
AcDbLine
 10
761.33918
 20
182.482913
 30
0.0
 11
760.632073
 21
182.482913
 31
0.0
  0
ARC
  5
2F8
330
241
100
AcDbEntity
  8
0
  6
Continuous
 62
     0
370
     0
100
AcDbCircle
 10
800.868124
 20
205.548941
 30
0.0
 40
0.2154822031356932
100
AcDbArc
 50
288.68574
 51
71.31426
  0
ELLIPSE
  5
2F9
330
241
100
AcDbEntity
  8
0
  6
Continuous
 62
     0
370
    30
100
AcDbEllipse
 10
721.387646
 20
197.612595
 30
0.0
 11
0.5
 21
0.0
 31
0.0
210
0.0
220
0.0
230
-1.0
 40
0.57735
 41
2.356194490192349
 42
3.141592662229487
  0
LINE
  5
2FA
330
241
100
AcDbEntity
  8
0
  6
Continuous
 62
     0
370
     0
100
AcDbLine
 10
721.034093
 20
205.344817
 30
0.0
 11
721.034093
 21
197.40847
 31
0.0
  0
LINE
  5
2FB
330
241
100
AcDbEntity
  8
0
  6
Continuous
 62
     0
370
    30
100
AcDbLine
 10
760.632073
 20
174.546566
 30
0.0
 11
721.034093
 21
197.40847
 31
0.0
  0
LINE
  5
2FC
330
241
100
AcDbEntity
  8
0
  6
Continuous
 62
     0
370
     0
100
AcDbLine
 10
760.632073
 20
182.482913
 30
0.0
 11
760.632073
 21
174.546566
 31
0.0
  0
ELLIPSE
  5
2FD
330
241
100
AcDbEntity
  8
0
  6
Continuous
 62
     0
370
    30
100
AcDbEllipse
 10
760.985626
 20
174.75069
 30
0.0
 11
0.5
 21
0.0
 31
0.0
210
0.0
220
0.0
230
-1.0
 40
0.57735
 41
0.7853981633974343
 42
2.356194490192345
  0
LINE
  5
2FE
330
241
100
AcDbEntity
  8
0
  6
Continuous
 62
     0
370
     0
100
AcDbLine
 10
761.33918
 20
182.482913
 30
0.0
 11
761.33918
 21
174.546566
 31
0.0
  0
LINE
  5
2FF
330
241
100
AcDbEntity
  8
0
  6
Continuous
 62
     0
370
    30
100
AcDbLine
 10
800.937159
 20
197.40847
 30
0.0
 11
761.33918
 21
174.546566
 31
0.0
  0
LINE
  5
300
330
241
100
AcDbEntity
  8
0
  6
Continuous
 62
     0
370
     0
100
AcDbLine
 10
800.937159
 20
205.344817
 30
0.0
 11
800.937159
 21
197.40847
 31
0.0
  0
LWPOLYLINE
  5
301
330
241
100
AcDbEntity
  8
0
  6
Continuous
 62
     0
370
    30
100
AcDbPolyline
 90
       30
 70
     0
 43
0.0
 10
743.838257
 20
196.057175
 10
743.026245
 20
196.549332
 10
742.24231
 20
197.0737
 10
741.491333
 20
197.629837
 10
740.778381
 20
198.217026
 10
740.108582
 20
198.834198
 10
739.486816
 20
199.479965
 10
738.917969
 20
200.152588
 10
738.406616
 20
200.849976
 10
737.957092
 20
201.569733
 10
737.573303
 20
202.309143
 10
737.258606
 20
203.065201
 10
737.01593
 20
203.834656
 10
736.847473
 20
204.614059
 10
736.754822
 20
205.399826
 10
736.738953
 20
206.188232
 10
736.799866
 20
206.97554
 10
736.937073
 20
207.758026
 10
737.149231
 20
208.532028
 10
737.434448
 20
209.294037
 10
737.789978
 20
210.04071
 10
738.212769
 20
210.768951
 10
738.698975
 20
211.475922
 10
739.244568
 20
212.159058
 10
739.845032
 20
212.816177
 10
740.495544
 20
213.445374
 10
741.191223
 20
214.045135
 10
741.927063
 20
214.614243
 10
742.697998
 20
215.151825
 10
743.515076
 20
215.667007
  0
LWPOLYLINE
  5
302
330
241
100
AcDbEntity
  8
0
  6
Continuous
 62
     0
370
    30
100
AcDbPolyline
 90
       59
 70
     0
 43
0.0
 10
778.456177
 20
215.667007
 10
779.263489
 20
215.15834
 10
780.040283
 20
214.617126
 10
780.781494
 20
214.04393
 10
781.481995
 20
213.439651
 10
782.136597
 20
212.805511
 10
782.740356
 20
212.143066
 10
783.288269
 20
211.454285
 10
783.775879
 20
210.741394
 10
784.198975
 20
210.007034
 10
784.553711
 20
209.254089
 10
784.836853
 20
208.485779
 10
785.045837
 20
207.705505
 10
785.178589
 20
206.91687
 10
785.233887
 20
206.123627
 10
785.211243
 20
205.329575
 10
785.11084
 20
204.538544
 10
784.933594
 20
203.754318
 10
784.681213
 20
202.98056
 10
784.35614
 20
202.220779
 10
783.961243
 20
201.478271
 10
783.500244
 20
200.756042
 10
782.97699
 20
200.056854
 10
782.396057
 20
199.383118
 10
781.762207
 20
198.736908
 10
781.080261
 20
198.119949
 10
780.355469
 20
197.5336
 10
779.592957
 20
196.978897
 10
778.797852
 20
196.456543
 10
777.974609
 20
195.966568
 10
777.10498
 20
195.497284
 10
776.178894
 20
195.045013
 10
775.197205
 20
194.612671
 10
774.161255
 20
194.203262
 10
773.07312
 20
193.819717
 10
771.935425
 20
193.464996
 10
770.751343
 20
193.141907
 10
769.524658
 20
192.853149
 10
768.259827
 20
192.601181
 10
766.961731
 20
192.388245
 10
765.635925
 20
192.216278
 10
764.288147
 20
192.086884
 10
762.924561
 20
192.001266
 10
761.551697
 20
191.960266
 10
760.176147
 20
191.964249
 10
758.804443
 20
192.013199
 10
757.443237
 20
192.106628
 10
756.098877
 20
192.243668
 10
754.777527
 20
192.423004
 10
753.484985
 20
192.643005
 10
752.226562
 20
192.901657
 10
751.007141
 20
193.196686
 10
749.830933
 20
193.525558
 10
748.701782
 20
193.885605
 10
747.622742
 20
194.273926
 10
746.596313
 20
194.687622
 10
745.624329
 20
195.123703
 10
744.708191
 20
195.579208
 10
743.838257
 20
196.057175
  0
ELLIPSE
  5
303
330
241
100
AcDbEntity
  8
0
  6
Continuous
 62
     0
370
    30
100
AcDbEllipse
 10
800.583606
 20
197.612595
 30
0.0
 11
0.5
 21
0.0
 31
0.0
210
0.0
220
0.0
230
-1.0
 40
0.57735
 41
0.000000008639688
 42
0.7853981633974484
  0
LINE
  5
304
330
241
100
AcDbEntity
  8
0
  6
Continuous
 62
     0
370
    30
100
AcDbLine
 10
880.843152
 20
244.943212
 30
0.0
 11
853.265987
 21
229.021529
 31
0.0
  0
ARC
  5
305
330
241
100
AcDbEntity
  8
0
  6
Continuous
 62
     0
370
    30
100
AcDbCircle
 10
852.916666
 20
229.797543
 30
0.0
 40
0.8510132678621316
100
AcDbArc
 50
240.748843
 51
294.234819
  0
LINE
  5
306
330
241
100
AcDbEntity
  8
0
  6
Continuous
 62
     0
370
    30
100
AcDbLine
 10
852.500827
 20
229.055046
 30
0.0
 11
845.091912
 21
233.332585
 31
0.0
  0
LINE
  5
307
330
241
100
AcDbEntity
  8
0
  6
Continuous
 62
     0
370
    30
100
AcDbLine
 10
845.091912
 20
233.332585
 30
0.0
 11
844.917266
 21
233.511833
 31
0.0
  0
ARC
  5
308
330
241
100
AcDbEntity
  8
0
  6
Continuous
 62
     0
370
    30
100
AcDbCircle
 10
880.763964
 20
245.135532
 30
0.0
 40
0.207984424509439
100
AcDbArc
 50
292.379313
 51
19.725417
  0
LINE
  5
309
330
241
100
AcDbEntity
  8
0
  6
Continuous
 62
     0
370
     0
100
AcDbLine
 10
839.250415
 20
248.020319
 30
0.0
 11
845.091912
 21
233.332585
 31
0.0
  0
ELLIPSE
  5
30A
330
241
100
AcDbEntity
  8
0
  6
Continuous
 62
     0
370
     0
100
AcDbEllipse
 10
872.647521
 20
264.752837
 30
0.0
 11
-0.4646039010202274
 21
-0.1847788276745706
 31
0.0
210
0.0
220
0.0
230
1.0
 40
0.200293
 41
2.200978074977115
 42
3.141746564606265
  0
LINE
  5
30B
330
241
100
AcDbEntity
  8
0
  6
Continuous
 62
     0
370
     0
100
AcDbLine
 10
880.843152
 20
244.943212
 30
0.0
 11
872.951209
 21
264.786543
 31
0.0
  0
LINE
  5
30C
330
241
100
AcDbEntity
  8
0
  6
Continuous
 62
     0
370
     0
100
AcDbLine
 10
845.374044
 20
248.86486
 30
0.0
 11
872.951209
 21
264.786543
 31
0.0
  0
LINE
  5
30D
330
241
100
AcDbEntity
  8
0
  6
Continuous
 62
     0
370
     0
100
AcDbLine
 10
853.265987
 20
229.021529
 30
0.0
 11
845.374044
 21
248.86486
 31
0.0
  0
ELLIPSE
  5
30E
330
241
100
AcDbEntity
  8
0
  6
Continuous
 62
     0
370
     0
100
AcDbEllipse
 10
845.070356
 20
248.831154
 30
0.0
 11
-0.4646039010202274
 21
-0.1847788276745706
 31
0.0
210
0.0
220
0.0
230
1.0
 40
0.200293
 41
0.6301817481822312
 42
2.200978074977115
  0
LINE
  5
30F
330
241
100
AcDbEntity
  8
0
  6
Continuous
 62
     0
370
     0
100
AcDbLine
 10
852.500827
 20
229.055046
 30
0.0
 11
844.716803
 21
248.62703
 31
0.0
  0
LWPOLYLINE
  5
310
330
241
100
AcDbEntity
  8
0
  6
Continuous
 62
     0
370
     0
100
AcDbPolyline
 90
       27
 70
     0
 43
0.0
 10
808.931458
 20
293.809906
 10
810.442139
 20
292.906677
 10
811.97229
 20
291.928314
 10
813.519287
 20
290.873871
 10
815.0802
 20
289.742737
 10
816.651917
 20
288.534576
 10
818.231079
 20
287.24942
 10
819.814148
 20
285.887695
 10
821.397461
 20
284.450195
 10
822.977173
 20
282.93808
 10
824.549194
 20
281.352997
 10
826.109436
 20
279.696991
 10
827.653748
 20
277.972534
 10
829.177917
 20
276.182434
 10
830.677612
 20
274.330078
 10
832.148682
 20
272.419067
 10
833.586914
 20
270.453522
 10
834.988281
 20
268.437805
 10
836.348877
 20
266.376709
 10
837.664856
 20
264.275177
 10
838.932678
 20
262.138489
 10
840.149109
 20
259.972107
 10
841.310974
 20
257.781616
 10
842.415527
 20
255.572769
 10
843.460388
 20
253.351273
 10
844.443359
 20
251.122925
 10
845.374023
 20
248.864853
  0
ARC
  5
311
330
241
100
AcDbEntity
  8
0
  6
Continuous
 62
     0
370
     0
100
AcDbCircle
 10
809.358239
 20
293.155267
 30
0.0
 40
0.7814744144184964
100
AcDbArc
 50
123.101049
 51
176.898951
  0
LWPOLYLINE
  5
312
330
241
100
AcDbEntity
  8
0
  6
Continuous
 62
     0
370
     0
100
AcDbPolyline
 90
       27
 70
     0
 43
0.0
 10
844.716797
 20
248.627029
 10
843.806152
 20
250.837524
 10
842.832336
 20
253.046982
 10
841.79718
 20
255.24971
 10
840.702759
 20
257.440002
 10
839.551514
 20
259.612152
 10
838.346191
 20
261.760468
 10
837.089844
 20
263.879425
 10
835.785645
 20
265.963623
 10
834.437317
 20
268.007843
 10
833.048401
 20
270.00708
 10
831.622864
 20
271.956665
 10
830.164795
 20
273.852264
 10
828.678223
 20
275.689789
 10
827.167358
 20
277.465607
 10
825.636414
 20
279.176453
 10
824.089661
 20
280.819427
 10
822.531128
 20
282.392151
 10
820.964966
 20
283.892548
 10
819.395142
 20
285.319031
 10
817.825439
 20
286.67041
 10
816.259644
 20
287.945862
 10
814.701111
 20
289.14502
 10
813.15332
 20
290.267822
 10
811.619202
 20
291.314545
 10
810.101746
 20
292.285889
 10
808.577881
 20
293.19754
  0
LWPOLYLINE
  5
313
330
241
100
AcDbEntity
  8
0
  6
Continuous
 62
     0
370
     0
100
AcDbPolyline
 90
       25
 70
     0
 43
0.0
 10
808.577881
 20
285.84906
 10
809.955688
 20
285.022919
 10
811.352478
 20
284.122528
 10
812.765442
 20
283.146912
 10
814.191345
 20
282.09549
 10
815.626892
 20
280.967987
 10
817.068359
 20
279.764618
 10
818.511902
 20
278.486023
 10
819.95343
 20
277.13324
 10
821.388794
 20
275.707855
 10
822.813538
 20
274.211884
 10
824.223267
 20
272.647888
 10
825.613464
 20
271.01889
 10
826.979553
 20
269.328369
 10
828.317017
 20
267.580292
 10
829.62146
 20
265.779053
 10
830.888489
 20
263.929413
 10
832.114014
 20
262.03656
 10
833.294128
 20
260.105927
 10
834.424988
 20
258.143188
 10
835.503296
 20
256.154358
 10
836.526001
 20
254.145416
 10
837.490295
 20
252.122559
 10
838.39386
 20
250.091949
 10
839.250427
 20
248.020325
  0
ARC
  5
314
330
241
100
AcDbEntity
  8
0
  6
Continuous
 62
     0
370
     0
100
AcDbCircle
 10
808.789203
 20
285.806797
 30
0.0
 40
0.215482203136354
100
AcDbArc
 50
168.68574
 51
311.31426
  0
ARC
  5
315
330
241
100
AcDbEntity
  8
0
  6
Continuous
 62
     0
370
     0
100
AcDbCircle
 10
836.650886
 20
309.569749
 30
0.0
 40
0.2154822031340526
100
AcDbArc
 50
348.68574
 51
131.31426
  0
LWPOLYLINE
  5
316
330
241
100
AcDbEntity
  8
0
  6
Continuous
 62
     0
370
     0
100
AcDbPolyline
 90
       27
 70
     0
 43
0.0
 10
872.951233
 20
264.78653
 10
872.032715
 20
267.015991
 10
871.050537
 20
269.244385
 10
870.00647
 20
271.466003
 10
868.902649
 20
273.675079
 10
867.741516
 20
275.865814
 10
866.525818
 20
278.032562
 10
865.258606
 20
280.169647
 10
863.943237
 20
282.271667
 10
862.583191
 20
284.333313
 10
861.182312
 20
286.34964
 10
859.744507
 20
288.315857
 10
858.273865
 20
290.2276
 10
856.774475
 20
292.08075
 10
855.25061
 20
293.871643
 10
853.706543
 20
295.596985
 10
852.146423
 20
297.253876
 10
850.574524
 20
298.839874
 10
848.994934
 20
300.352936
 10
847.411621
 20
301.791412
 10
845.828491
 20
303.154114
 10
844.249268
 20
304.440247
 10
842.677429
 20
305.649414
 10
841.116394
 20
306.781525
 10
839.569214
 20
307.836945
 10
838.038818
 20
308.816284
 10
836.508606
 20
309.731598
  0
LINE
  5
317
330
241
100
AcDbEntity
  8
0
  6
Continuous
 62
     0
370
     0
100
AcDbLine
 10
808.931462
 20
293.809915
 30
0.0
 11
836.508627
 21
309.731598
 31
0.0
  0
LINE
  5
318
330
241
100
AcDbEntity
  8
0
  6
Continuous
 62
     0
370
     0
100
AcDbLine
 10
813.665081
 20
322.920325
 30
0.0
 11
836.508627
 21
309.731598
 31
0.0
  0
LINE
  5
319
330
241
100
AcDbEntity
  8
0
  6
Continuous
 62
     0
370
     0
100
AcDbLine
 10
786.087917
 20
306.998642
 30
0.0
 11
813.665081
 21
322.920325
 31
0.0
  0
LINE
  5
31A
330
241
100
AcDbEntity
  8
0
  6
Continuous
 62
     0
370
     0
100
AcDbLine
 10
808.931462
 20
293.809915
 30
0.0
 11
786.087917
 21
306.998642
 31
0.0
  0
ELLIPSE
  5
31B
330
241
100
AcDbEntity
  8
0
  6
Continuous
 62
     0
370
     0
100
AcDbEllipse
 10
786.087917
 20
306.590393
 30
0.0
 11
-0.2500000000000011
 21
-0.4330127018922211
 31
0.0
210
0.0
220
0.0
230
-1.0
 40
0.57735
 41
0.7853981633974483
 42
2.356194490192345
  0
LINE
  5
31C
330
241
100
AcDbEntity
  8
0
  6
Continuous
 62
     0
370
     0
100
AcDbLine
 10
808.577909
 20
293.197542
 30
0.0
 11
785.734364
 21
306.386269
 31
0.0
  0
LINE
  5
31D
330
241
100
AcDbEntity
  8
0
  6
Continuous
 62
     0
370
     0
100
AcDbLine
 10
785.734364
 20
299.0378
 30
0.0
 11
808.577909
 21
285.849073
 31
0.0
  0
ELLIPSE
  5
31E
330
241
100
AcDbEntity
  8
0
  6
Continuous
 62
     0
370
     0
100
AcDbEllipse
 10
786.087917
 20
299.241924
 30
0.0
 11
-0.2500000000000016
 21
-0.433012701892222
 31
0.0
210
0.0
220
0.0
230
-1.0
 40
0.57735
 41
0.000000022850166
 42
0.7853981633974484
  0
ELLIPSE
  5
31F
330
241
100
AcDbEntity
  8
0
  6
Continuous
 62
     0
370
     0
100
AcDbEllipse
 10
813.665081
 20
322.512077
 30
0.0
 11
-0.2500000000000011
 21
-0.4330127018922211
 31
0.0
210
0.0
220
0.0
230
-1.0
 40
0.57735
 41
2.356194490192316
 42
3.141592676439949
  0
LWPOLYLINE
  5
320
330
241
100
AcDbEntity
  8
0
  6
Continuous
 62
     0
370
     0
100
AcDbPolyline
 90
       24
 70
     0
 43
0.0
 10
813.6651
 20
322.920319
 10
812.353516
 20
323.654144
 10
811.027039
 20
324.348602
 10
809.687256
 20
325.001129
 10
808.33606
 20
325.609039
 10
806.975464
 20
326.169769
 10
805.607605
 20
326.680725
 10
804.234619
 20
327.139435
 10
802.858887
 20
327.543549
 10
801.482849
 20
327.890747
 10
800.10907
 20
328.178864
 10
798.740051
 20
328.405884
 10
797.378601
 20
328.569946
 10
796.027344
 20
328.669434
 10
794.689087
 20
328.702789
 10
793.366577
 20
328.668793
 10
792.062622
 20
328.566437
 10
790.779968
 20
328.394867
 10
789.521423
 20
328.153595
 10
788.289673
 20
327.842346
 10
787.087219
 20
327.46109
 10
785.916748
 20
327.010071
 10
784.780579
 20
326.489868
 10
783.6651
 20
325.892059
  0
ELLIPSE
  5
321
330
241
100
AcDbEntity
  8
0
  6
Continuous
 62
     0
370
     0
100
AcDbEllipse
 10
786.087917
 20
258.008847
 30
0.0
 11
30.00000000000001
 21
-51.96152422706632
 31
0.0
210
0.0
220
0.0
230
1.0
 40
0.57735
 41
2.356194490192346
 42
3.926990816987241
  0
ARC
  5
322
330
241
100
AcDbEntity
  8
0
  6
Continuous
 62
     0
370
     0
100
AcDbCircle
 10
743.730546
 20
282.29962
 30
0.0
 40
0.2154822031351365
100
AcDbArc
 50
108.68574
 51
251.31426
  0
LWPOLYLINE
  5
323
330
241
100
AcDbEntity
  8
0
  6
Continuous
 62
     0
370
     0
100
AcDbPolyline
 90
       47
 70
     0
 43
0.0
 10
785.734375
 20
306.386261
 10
784.433411
 20
307.114136
 10
783.117615
 20
307.802979
 10
781.788696
 20
308.450195
 10
780.448425
 20
309.053162
 10
779.098877
 20
309.609283
 10
777.742004
 20
310.116028
 10
776.380127
 20
310.570953
 10
775.015564
 20
310.97168
 10
773.650696
 20
311.315948
 10
772.288025
 20
311.601593
 10
770.930115
 20
311.82663
 10
769.579651
 20
311.989197
 10
768.23938
 20
312.087677
 10
766.911987
 20
312.120544
 10
765.60022
 20
312.086578
 10
764.306946
 20
311.984802
 10
763.03479
 20
311.814362
 10
761.786499
 20
311.574738
 10
760.564819
 20
311.265686
 10
759.372253
 20
310.887177
 10
758.211426
 20
310.439484
 10
757.084656
 20
309.923126
 10
755.994263
 20
309.338928
 10
754.942383
 20
308.687927
 10
753.93103
 20
307.971497
 10
752.962097
 20
307.191162
 10
752.037231
 20
306.348785
 10
751.157837
 20
305.446381
 10
750.325378
 20
304.486176
 10
749.540771
 20
303.470703
 10
748.805054
 20
302.402496
 10
748.118835
 20
301.284363
 10
747.482727
 20
300.119202
 10
746.896912
 20
298.910034
 10
746.361511
 20
297.659943
 10
745.876526
 20
296.372131
 10
745.44165
 20
295.049805
 10
745.056458
 20
293.696198
 10
744.720337
 20
292.314545
 10
744.432495
 20
290.908081
 10
744.192078
 20
289.480042
 10
743.998047
 20
288.033508
 10
743.849243
 20
286.571594
 10
743.744507
 20
285.09729
 10
743.682373
 20
283.613495
 10
743.661499
 20
282.09549
  0
LWPOLYLINE
  5
324
330
241
100
AcDbEntity
  8
0
  6
Continuous
 62
     0
370
     0
100
AcDbPolyline
 90
       43
 70
     0
 43
0.0
 10
750.025452
 20
278.421265
 10
750.045959
 20
279.806854
 10
750.108643
 20
281.185425
 10
750.214966
 20
282.553802
 10
750.366455
 20
283.908783
 10
750.564453
 20
285.246948
 10
750.810181
 20
286.56485
 10
751.104736
 20
287.858917
 10
751.449036
 20
289.12561
 10
751.84375
 20
290.361298
 10
752.289429
 20
291.562347
 10
752.786438
 20
292.725159
 10
753.334778
 20
293.846222
 10
753.934387
 20
294.922058
 10
754.584839
 20
295.949341
 10
755.285583
 20
296.924866
 10
756.035645
 20
297.845581
 10
756.834045
 20
298.708679
 10
757.679321
 20
299.511536
 10
758.569946
 20
300.25177
 10
759.50415
 20
300.927307
 10
760.479797
 20
301.536377
 10
761.494751
 20
302.077423
 10
762.54657
 20
302.549286
 10
763.632629
 20
302.951141
 10
764.750305
 20
303.28241
 10
765.896667
 20
303.542938
 10
767.068909
 20
303.732819
 10
768.263855
 20
303.852539
 10
769.478577
 20
303.902832
 10
770.709961
 20
303.884796
 10
771.954895
 20
303.799774
 10
773.210327
 20
303.649353
 10
774.473267
 20
303.435394
 10
775.740723
 20
303.159943
 10
777.009827
 20
302.825287
 10
778.277832
 20
302.433838
 10
779.542114
 20
301.98822
 10
780.800049
 20
301.491058
 10
782.049316
 20
300.94519
 10
783.287659
 20
300.353485
 10
784.513
 20
299.718842
 10
785.734375
 20
299.037811
  0
ARC
  5
325
330
241
100
AcDbEntity
  8
0
  6
Continuous
 62
     0
370
     0
100
AcDbCircle
 10
750.379025
 20
279.118185
 30
0.0
 40
0.7814744144240475
100
AcDbArc
 50
243.101049
 51
296.898951
  0
LWPOLYLINE
  5
326
330
241
100
AcDbEntity
  8
0
  6
Continuous
 62
     0
370
     0
100
AcDbPolyline
 90
       43
 70
     0
 43
0.0
 10
785.733459
 20
299.036255
 10
784.539612
 20
299.688446
 10
783.331604
 20
300.300781
 10
782.11145
 20
300.870453
 10
780.881226
 20
301.394653
 10
779.643066
 20
301.870605
 10
778.399414
 20
302.295624
 10
777.15271
 20
302.667175
 10
775.905518
 20
302.982727
 10
774.660645
 20
303.240021
 10
773.420776
 20
303.436859
 10
772.188843
 20
303.571289
 10
770.967773
 20
303.641602
 10
769.760559
 20
303.646271
 10
768.57019
 20
303.584045
 10
767.399597
 20
303.453918
 10
766.251709
 20
303.25528
 10
765.129578
 20
302.987671
 10
764.035889
 20
302.651031
 10
762.973389
 20
302.245636
 10
761.944763
 20
301.772003
 10
760.952393
 20
301.231049
 10
759.998718
 20
300.623901
 10
759.085693
 20
299.952087
 10
758.215454
 20
299.217407
 10
757.389526
 20
298.421906
 10
756.609619
 20
297.567871
 10
755.876831
 20
296.657867
 10
755.192383
 20
295.694672
 10
754.556946
 20
294.681213
 10
753.971252
 20
293.620636
 10
753.435486
 20
292.516144
 10
752.94989
 20
291.371155
 10
752.514282
 20
290.189026
 10
752.128418
 20
288.973267
 10
751.791687
 20
287.727417
 10
751.503479
 20
286.454895
 10
751.262878
 20
285.159271
 10
751.068787
 20
283.843903
 10
750.920105
 20
282.512177
 10
750.815491
 20
281.167358
 10
750.753479
 20
279.812592
 10
750.732605
 20
278.421265
  0
LINE
  5
327
330
241
100
AcDbEntity
  8
0
  6
Continuous
 62
     0
370
     0
100
AcDbLine
 10
750.732578
 20
278.421261
 30
0.0
 11
778.309742
 21
294.342945
 31
0.0
  0
ELLIPSE
  5
328
330
241
100
AcDbEntity
  8
0
  6
Continuous
 62
     0
370
     0
100
AcDbEllipse
 10
813.665081
 20
273.93053
 30
0.0
 11
-25.00000000000001
 21
43.30127018922194
 31
0.0
210
0.0
220
0.0
230
-1.0
 40
0.57735
 41
5.497787143782138
 42
5.696005854306579
  0
ARC
  5
329
330
241
100
AcDbEntity
  8
0
  6
Continuous
 62
     0
370
     0
100
AcDbCircle
 10
778.240707
 20
294.547069
 30
0.0
 40
0.2154822031358553
100
AcDbArc
 50
288.68574
 51
71.31426
  0
LINE
  5
32A
330
241
100
AcDbEntity
  8
0
  6
Continuous
 62
     0
370
     0
100
AcDbLine
 10
743.66151
 20
282.095496
 30
0.0
 11
743.66151
 21
199.629341
 31
0.0
  0
LINE
  5
32B
330
241
100
AcDbEntity
  8
0
  6
Continuous
 62
     0
370
     0
100
AcDbLine
 10
750.025471
 20
278.421261
 30
0.0
 11
750.025471
 21
195.955107
 31
0.0
  0
LINE
  5
32C
330
241
100
AcDbEntity
  8
0
  6
Continuous
 62
     0
370
     0
100
AcDbLine
 10
750.732578
 20
278.421261
 30
0.0
 11
750.732578
 21
195.955107
 31
0.0
  0
LINE
  5
32D
330
241
100
AcDbEntity
  8
0
  6
Continuous
 62
     0
370
     0
100
AcDbLine
 10
778.309742
 20
294.342945
 30
0.0
 11
778.309742
 21
211.87679
 31
0.0
  0
LINE
  5
32E
330
241
100
AcDbEntity
  8
0
  6
Continuous
 62
     0
370
    30
100
AcDbLine
 10
778.456189
 20
294.547069
 30
0.0
 11
778.456189
 21
212.080914
 31
0.0
  0
LINE
  5
32F
330
241
100
AcDbEntity
  8
0
  6
Continuous
 62
     0
370
    30
100
AcDbLine
 10
743.515063
 20
282.29962
 30
0.0
 11
743.515063
 21
199.833465
 31
0.0
  0
LWPOLYLINE
  5
330
330
241
100
AcDbEntity
  8
0
  6
Continuous
 62
     0
370
    30
100
AcDbPolyline
 90
        6
 70
     0
 43
0.0
 10
778.456177
 20
294.547058
 10
778.480957
 20
296.058075
 10
778.555176
 20
297.538605
 10
778.678589
 20
298.986145
 10
778.851013
 20
300.398193
 10
779.104248
 20
301.946747
  0
LWPOLYLINE
  5
331
330
241
100
AcDbEntity
  8
0
  6
Continuous
 62
     0
370
    30
100
AcDbPolyline
 90
       32
 70
     0
 43
0.0
 10
761.087891
 20
301.31012
 10
761.71582
 20
301.654419
 10
762.359619
 20
301.971497
 10
763.01886
 20
302.261139
 10
763.693115
 20
302.523163
 10
764.381836
 20
302.757355
 10
765.084717
 20
302.963531
 10
765.801147
 20
303.141479
 10
766.530823
 20
303.291016
 10
767.273132
 20
303.411957
 10
768.02771
 20
303.504059
 10
768.794128
 20
303.567352
 10
769.571838
 20
303.601776
 10
770.360413
 20
303.60733
 10
771.159424
 20
303.584015
 10
771.968323
 20
303.53186
 10
772.786743
 20
303.450806
 10
773.614136
 20
303.340851
 10
774.449951
 20
303.201996
 10
775.29364
 20
303.034241
 10
776.144592
 20
302.837494
 10
777.002258
 20
302.611786
 10
777.866089
 20
302.357239
 10
778.735474
 20
302.074493
 10
779.609863
 20
301.764252
 10
780.48877
 20
301.427185
 10
781.37146
 20
301.062225
 10
782.257324
 20
300.665039
 10
783.145752
 20
300.237396
 10
784.036621
 20
299.796814
 10
784.92926
 20
299.34494
 10
785.837891
 20
298.808899
  0
LWPOLYLINE
  5
332
330
241
100
AcDbEntity
  8
0
  6
Continuous
 62
     0
370
    30
100
AcDbPolyline
 90
       23
 70
     0
 43
0.0
 10
743.515076
 20
282.299622
 10
743.542175
 20
284.033569
 10
743.623413
 20
285.735809
 10
743.758789
 20
287.403778
 10
743.94812
 20
289.035065
 10
744.191284
 20
290.627136
 10
744.488159
 20
292.177826
 10
744.838196
 20
293.685303
 10
745.241089
 20
295.147827
 10
745.696228
 20
296.563538
 10
746.203308
 20
297.930695
 10
746.761841
 20
299.247498
 10
747.371338
 20
300.512177
 10
748.031067
 20
301.723114
 10
748.740051
 20
302.878876
 10
749.497437
 20
303.977905
 10
750.302368
 20
305.018707
 10
751.153809
 20
305.999817
 10
752.050842
 20
306.919708
 10
752.992615
 20
307.776917
 10
753.977478
 20
308.57016
 10
755.003845
 20
309.298248
 10
756.087891
 20
309.970367
  0
LINE
  5
333
330
241
100
AcDbEntity
  8
0
  6
Continuous
 62
     0
370
    30
100
AcDbLine
 10
756.087916
 20
309.97037
 30
0.0
 11
783.66508
 21
325.892054
 31
0.0
  0
LWPOLYLINE
  5
334
330
241
100
AcDbEntity
  8
0
  6
Continuous
 62
     0
370
    30
100
AcDbPolyline
 90
       23
 70
     0
 43
0.0
 10
783.6651
 20
325.892059
 10
784.770264
 20
326.485321
 10
785.913208
 20
327.011108
 10
787.092102
 20
327.468567
 10
788.304993
 20
327.856964
 10
789.549866
 20
328.175476
 10
790.82489
 20
328.423615
 10
792.128357
 20
328.601379
 10
793.458496
 20
328.708801
 10
794.813538
 20
328.745941
 10
796.191772
 20
328.712799
 10
797.591431
 20
328.609467
 10
799.010803
 20
328.435944
 10
800.448059
 20
328.192627
 10
801.901489
 20
327.880096
 10
803.369263
 20
327.49881
 10
804.849609
 20
327.049316
 10
806.34082
 20
326.532166
 10
807.841003
 20
325.947876
 10
809.348267
 20
325.297272
 10
810.860413
 20
324.581543
 10
812.375244
 20
323.801788
 10
813.9151
 20
322.945099
  0
LINE
  5
335
330
241
100
AcDbEntity
  8
0
  6
Continuous
 62
     0
370
    30
100
AcDbLine
 10
836.758627
 20
309.756362
 30
0.0
 11
813.915081
 21
322.945089
 31
0.0
  0
LINE
  5
336
330
241
100
AcDbEntity
  8
0
  6
Continuous
 62
     0
370
    30
100
AcDbLine
 10
808.681462
 20
285.620184
 30
0.0
 11
785.837917
 21
298.808911
 31
0.0
  0
LWPOLYLINE
  5
337
330
241
100
AcDbEntity
  8
0
  6
Continuous
 62
     0
370
    30
100
AcDbPolyline
 90
       27
 70
     0
 43
0.0
 10
836.758606
 20
309.756348
 10
838.439331
 20
308.747375
 10
840.118469
 20
307.662262
 10
841.792969
 20
306.503113
 10
843.459839
 20
305.272003
 10
845.115967
 20
303.971008
 10
846.758362
 20
302.602234
 10
848.384155
 20
301.167877
 10
849.991028
 20
299.670441
 10
851.576538
 20
298.112457
 10
853.138367
 20
296.496399
 10
854.674133
 20
294.824829
 10
856.181458
 20
293.10022
 10
857.65802
 20
291.325104
 10
859.10144
 20
289.502014
 10
860.50946
 20
287.633667
 10
861.880127
 20
285.723114
 10
863.211365
 20
283.773407
 10
864.501221
 20
281.787598
 10
865.74762
 20
279.768738
 10
866.948608
 20
277.71991
 10
868.102173
 20
275.644135
 10
869.206238
 20
273.544617
 10
870.259094
 20
271.42514
 10
871.258972
 20
269.289581
 10
872.204163
 20
267.141937
 10
873.112122
 20
264.937622
  0
LWPOLYLINE
  5
338
330
241
100
AcDbEntity
  8
0
  6
Continuous
 62
     0
370
    30
100
AcDbPolyline
 90
       39
 70
     0
 43
0.0
 10
808.681458
 20
285.620178
 10
809.642212
 20
285.050354
 10
810.603088
 20
284.450226
 10
811.563171
 20
283.820374
 10
812.521606
 20
283.161346
 10
813.477539
 20
282.473724
 10
814.430115
 20
281.757996
 10
815.378479
 20
281.014771
 10
816.32196
 20
280.244629
 10
817.259827
 20
279.44812
 10
818.191467
 20
278.625885
 10
819.116211
 20
277.778473
 10
820.033325
 20
276.906494
 10
820.942139
 20
276.010529
 10
821.842041
 20
275.091278
 10
822.732361
 20
274.149414
 10
823.612366
 20
273.185669
 10
824.481384
 20
272.200806
 10
825.338745
 20
271.195496
 10
826.183838
 20
270.170532
 10
827.016052
 20
269.126648
 10
827.834717
 20
268.064636
 10
828.639282
 20
266.98526
 10
829.429077
 20
265.889374
 10
830.203552
 20
264.77774
 10
830.962097
 20
263.651245
 10
831.704224
 20
262.510681
 10
832.42926
 20
261.356903
 10
833.136841
 20
260.190796
 10
833.826294
 20
259.013214
 10
834.497009
 20
257.825043
 10
835.148682
 20
256.627167
 10
835.78125
 20
255.42038
 10
836.393921
 20
254.205658
 10
836.984741
 20
252.984039
 10
837.553589
 20
251.756378
 10
838.108459
 20
250.522888
 10
838.628052
 20
249.286285
 10
839.139343
 20
248.039658
  0
LINE
  5
339
330
241
100
AcDbEntity
  8
0
  6
Continuous
 62
     0
370
    30
100
AcDbLine
 10
880.959745
 20
245.205729
 30
0.0
 11
873.112124
 21
264.937616
 31
0.0
  0
LINE
  5
33A
330
241
100
AcDbEntity
  8
0
  6
Continuous
 62
     0
370
    30
100
AcDbLine
 10
801.083606
 20
205.548941
 30
0.0
 11
801.083606
 21
197.612595
 31
0.0
  0
LINE
  5
33B
330
241
100
AcDbEntity
  8
0
  6
Continuous
 62
     0
370
    30
100
AcDbLine
 10
720.887646
 20
205.548941
 30
0.0
 11
720.887646
 21
197.612595
 31
0.0
  0
LINE
  5
33C
330
241
100
AcDbEntity
  8
0
  6
Continuous
 62
     0
370
    30
100
AcDbLine
 10
721.137646
 20
205.981954
 30
0.0
 11
743.515064
 21
218.901562
 31
0.0
  0
LINE
  5
33D
330
241
100
AcDbEntity
  8
0
  6
Continuous
 62
     0
370
    30
100
AcDbLine
 10
778.456189
 20
218.901562
 30
0.0
 11
800.833606
 21
205.981954
 31
0.0
  0
ENDBLK
  5
33F
330
241
100
AcDbEntity
  8
0
100
AcDbBlockEnd
  0
BLOCK
  5
3AE
330
341
100
AcDbEntity
  8
0
100
AcDbBlockBegin
  2
e
 70
     0
 10
225.493073
 20
0.0
 30
0.0
  3
e
  1

  0
ARC
  5
342
330
341
100
AcDbEntity
  8
0
  6
Continuous
 62
     0
370
    30
100
AcDbCircle
 10
166.440609
 20
778.052995
 30
0.0
 40
0.5
100
AcDbArc
 50
90.0
 51
180.0
  0
LINE
  5
343
330
341
100
AcDbEntity
  8
0
  6
Continuous
 62
     0
370
     0
100
AcDbLine
 10
166.440609
 20
778.052995
 30
0.0
 11
165.940609
 21
778.052995
 31
0.0
  0
LINE
  5
344
330
341
100
AcDbEntity
  8
0
  6
Continuous
 62
     0
370
    30
100
AcDbLine
 10
165.940609
 20
778.052995
 30
0.0
 11
165.940609
 21
722.052995
 31
0.0
  0
LINE
  5
345
330
341
100
AcDbEntity
  8
0
  6
Continuous
 62
     0
370
     0
100
AcDbLine
 10
165.940609
 20
722.052995
 30
0.0
 11
166.440609
 21
722.052995
 31
0.0
  0
LINE
  5
346
330
341
100
AcDbEntity
  8
0
  6
Continuous
 62
     0
370
     0
100
AcDbLine
 10
166.440609
 20
722.052995
 30
0.0
 11
166.440609
 21
778.052995
 31
0.0
  0
LINE
  5
347
330
341
100
AcDbEntity
  8
0
  6
Continuous
 62
     0
370
     0
100
AcDbLine
 10
166.440609
 20
778.052995
 30
0.0
 11
166.440609
 21
778.552995
 31
0.0
  0
ARC
  5
348
330
341
100
AcDbEntity
  8
0
  6
Continuous
 62
     0
370
    30
100
AcDbCircle
 10
166.440609
 20
722.052995
 30
0.0
 40
0.5
100
AcDbArc
 50
180.0
 51
270.0
  0
LINE
  5
349
330
341
100
AcDbEntity
  8
0
  6
Continuous
 62
     0
370
     0
100
AcDbLine
 10
166.440609
 20
721.552995
 30
0.0
 11
166.440609
 21
722.052995
 31
0.0
  0
LINE
  5
34A
330
341
100
AcDbEntity
  8
0
  6
Continuous
 62
     0
370
     0
100
AcDbLine
 10
166.440609
 20
778.052995
 30
0.0
 11
176.160609
 21
778.052995
 31
0.0
  0
LINE
  5
34B
330
341
100
AcDbEntity
  8
0
  6
Continuous
 62
     0
370
    30
100
AcDbLine
 10
176.160609
 20
778.052995
 30
0.0
 11
176.160609
 21
778.552995
 31
0.0
  0
LINE
  5
34C
330
341
100
AcDbEntity
  8
0
  6
Continuous
 62
     0
370
    30
100
AcDbLine
 10
176.160609
 20
778.552995
 30
0.0
 11
166.440609
 21
778.552995
 31
0.0
  0
LINE
  5
34D
330
341
100
AcDbEntity
  8
0
  6
Continuous
 62
     0
370
     0
100
AcDbLine
 10
166.440609
 20
722.052995
 30
0.0
 11
176.160609
 21
722.052995
 31
0.0
  0
LINE
  5
34E
330
341
100
AcDbEntity
  8
0
  6
Continuous
 62
     0
370
    30
100
AcDbLine
 10
176.160609
 20
722.052995
 30
0.0
 11
176.160609
 21
778.052995
 31
0.0
  0
LINE
  5
34F
330
341
100
AcDbEntity
  8
0
  6
Continuous
 62
     0
370
    30
100
AcDbLine
 10
166.440609
 20
721.552995
 30
0.0
 11
176.160609
 21
721.552995
 31
0.0
  0
LINE
  5
350
330
341
100
AcDbEntity
  8
0
  6
Continuous
 62
     0
370
    30
100
AcDbLine
 10
176.160609
 20
721.552995
 30
0.0
 11
176.160609
 21
722.052995
 31
0.0
  0
ARC
  5
351
330
341
100
AcDbEntity
  8
0
  6
Continuous
 62
     0
370
    30
100
AcDbCircle
 10
150.423627
 20
762.195576
 30
0.0
 40
15.31764642654709
100
AcDbArc
 50
345.310578
 51
359.466664
  0
LINE
  5
352
330
341
100
AcDbEntity
  8
0
  6
Continuous
 62
     0
370
     0
100
AcDbLine
 10
165.240609
 20
758.311337
 30
0.0
 11
165.740609
 21
758.311337
 31
0.0
  0
LINE
  5
353
330
341
100
AcDbEntity
  8
0
  6
Continuous
 62
     0
370
     0
100
AcDbLine
 10
165.740609
 20
741.794652
 30
0.0
 11
165.240609
 21
741.794652
 31
0.0
  0
LINE
  5
354
330
341
100
AcDbEntity
  8
0
  6
Continuous
 62
     0
370
     0
100
AcDbLine
 10
165.240609
 20
741.794652
 30
0.0
 11
165.240609
 21
758.311337
 31
0.0
  0
ARC
  5
355
330
341
100
AcDbEntity
  8
0
  6
Continuous
 62
     0
370
    30
100
AcDbCircle
 10
150.438457
 20
737.912395
 30
0.0
 40
15.30279835681736
100
AcDbArc
 50
0.526433
 51
14.696325
  0
ARC
  5
356
330
341
100
AcDbEntity
  8
0
  6
Continuous
 62
     0
370
     0
100
AcDbCircle
 10
158.740609
 20
738.052995
 30
0.0
 40
7.499999999999046
100
AcDbArc
 50
29.926435
 51
90.0
  0
LINE
  5
357
330
341
100
AcDbEntity
  8
0
  6
Continuous
 62
     0
370
     0
100
AcDbLine
 10
158.740609
 20
745.552995
 30
0.0
 11
158.740609
 21
745.052995
 31
0.0
  0
ARC
  5
358
330
341
100
AcDbEntity
  8
0
  6
Continuous
 62
     0
370
    30
100
AcDbCircle
 10
158.740609
 20
738.052995
 30
0.0
 40
7.000000000000092
100
AcDbArc
 50
0.0
 51
90.0
  0
ARC
  5
359
330
341
100
AcDbEntity
  8
0
  6
Continuous
 62
     0
370
     0
100
AcDbCircle
 10
158.740609
 20
762.052995
 30
0.0
 40
7.500000000000494
100
AcDbArc
 50
270.0
 51
330.073565
  0
LINE
  5
35A
330
341
100
AcDbEntity
  8
0
  6
Continuous
 62
     0
370
     0
100
AcDbLine
 10
158.740609
 20
754.552995
 30
0.0
 11
138.240609
 21
754.552995
 31
0.0
  0
LINE
  5
35B
330
341
100
AcDbEntity
  8
0
  6
Continuous
 62
     0
370
     0
100
AcDbLine
 10
138.240609
 20
754.552995
 30
0.0
 11
138.240609
 21
745.552995
 31
0.0
  0
LINE
  5
35C
330
341
100
AcDbEntity
  8
0
  6
Continuous
 62
     0
370
     0
100
AcDbLine
 10
138.240609
 20
745.552995
 30
0.0
 11
158.740609
 21
745.552995
 31
0.0
  0
ARC
  5
35D
330
341
100
AcDbEntity
  8
0
  6
Continuous
 62
     0
370
    30
100
AcDbCircle
 10
158.740609
 20
762.052995
 30
0.0
 40
7.000000000000014
100
AcDbArc
 50
270.0
 51
360.0
  0
LINE
  5
35E
330
341
100
AcDbEntity
  8
0
  6
Continuous
 62
     0
370
     0
100
AcDbLine
 10
158.740609
 20
755.052995
 30
0.0
 11
158.740609
 21
754.552995
 31
0.0
  0
LINE
  5
35F
330
341
100
AcDbEntity
  8
0
  6
Continuous
 62
     0
370
    30
100
AcDbLine
 10
138.240609
 20
745.552995
 30
0.0
 11
137.740609
 21
745.552995
 31
0.0
  0
ARC
  5
360
330
341
100
AcDbEntity
  8
0
  6
Continuous
 62
     0
370
    30
100
AcDbCircle
 10
138.240609
 20
745.552995
 30
0.0
 40
0.5000000000081357
100
AcDbArc
 50
180.0
 51
270.0
  0
LINE
  5
361
330
341
100
AcDbEntity
  8
0
  6
Continuous
 62
     0
370
     0
100
AcDbLine
 10
138.240609
 20
745.052995
 30
0.0
 11
138.240609
 21
745.552995
 31
0.0
  0
ARC
  5
362
330
341
100
AcDbEntity
  8
0
  6
Continuous
 62
     0
370
    30
100
AcDbCircle
 10
138.240609
 20
754.552995
 30
0.0
 40
0.4999999999929443
100
AcDbArc
 50
90.0
 51
180.0
  0
LWPOLYLINE
  5
363
330
341
100
AcDbEntity
  8
0
  6
Continuous
 62
     0
370
    30
100
AcDbPolyline
 90
        5
 70
     0
 43
0.0
 10
137.740616
 20
754.552979
 10
137.77562
 20
754.552979
 10
137.886658
 20
754.552979
 10
138.055801
 20
754.552979
 10
138.240616
 20
754.552979
  0
LINE
  5
364
330
341
100
AcDbEntity
  8
0
  6
Continuous
 62
     0
370
     0
100
AcDbLine
 10
138.240609
 20
754.552995
 30
0.0
 11
138.240609
 21
755.052995
 31
0.0
  0
LINE
  5
365
330
341
100
AcDbEntity
  8
0
  6
Continuous
 62
     0
370
    30
100
AcDbLine
 10
158.740609
 20
755.052995
 30
0.0
 11
138.240609
 21
755.052995
 31
0.0
  0
LINE
  5
366
330
341
100
AcDbEntity
  8
0
  6
Continuous
 62
     0
370
    30
100
AcDbLine
 10
137.740609
 20
754.552995
 30
0.0
 11
137.740609
 21
745.552995
 31
0.0
  0
LINE
  5
367
330
341
100
AcDbEntity
  8
0
  6
Continuous
 62
     0
370
    30
100
AcDbLine
 10
138.240609
 20
745.052995
 30
0.0
 11
158.740609
 21
745.052995
 31
0.0
  0
LINE
  5
368
330
341
100
AcDbEntity
  8
0
  6
Continuous
 62
     0
370
    30
100
AcDbLine
 10
165.740609
 20
750.052995
 30
0.0
 11
165.74061
 21
774.052995
 31
0.0
  0
LINE
  5
369
330
341
100
AcDbEntity
  8
0
  6
Continuous
 62
     0
370
    30
100
AcDbLine
 10
165.74061
 20
726.052995
 30
0.0
 11
165.740609
 21
750.052995
 31
0.0
  0
LINE
  5
36A
330
341
100
AcDbEntity
  8
0
  6
Continuous
 62
     0
370
     0
100
AcDbLine
 10
80.399794
 20
559.72635
 30
0.0
 11
24.399794
 21
559.72635
 31
0.0
  0
LINE
  5
36B
330
341
100
AcDbEntity
  8
0
  6
Continuous
 62
     0
370
     0
100
AcDbLine
 10
80.399794
 20
560.22635
 30
0.0
 11
80.399794
 21
559.72635
 31
0.0
  0
LINE
  5
36C
330
341
100
AcDbEntity
  8
0
  6
Continuous
 62
     0
370
    30
100
AcDbLine
 10
24.399794
 20
560.22635
 30
0.0
 11
80.399794
 21
560.22635
 31
0.0
  0
LINE
  5
36D
330
341
100
AcDbEntity
  8
0
  6
Continuous
 62
     0
370
     0
100
AcDbLine
 10
24.399794
 20
559.72635
 30
0.0
 11
24.399794
 21
560.22635
 31
0.0
  0
ARC
  5
36E
330
341
100
AcDbEntity
  8
0
  6
Continuous
 62
     0
370
    30
100
AcDbCircle
 10
80.399794
 20
559.72635
 30
0.0
 40
0.5
100
AcDbArc
 50
360.0
 51
90.0
  0
ARC
  5
36F
330
341
100
AcDbEntity
  8
0
  6
Continuous
 62
     0
370
    30
100
AcDbCircle
 10
24.399794
 20
559.72635
 30
0.0
 40
0.5
100
AcDbArc
 50
90.0
 51
180.0
  0
LINE
  5
370
330
341
100
AcDbEntity
  8
0
  6
Continuous
 62
     0
370
     0
100
AcDbLine
 10
80.899794
 20
559.72635
 30
0.0
 11
80.399794
 21
559.72635
 31
0.0
  0
LINE
  5
371
330
341
100
AcDbEntity
  8
0
  6
Continuous
 62
     0
370
     0
100
AcDbLine
 10
24.399794
 20
559.72635
 30
0.0
 11
23.899794
 21
559.72635
 31
0.0
  0
LINE
  5
372
330
341
100
AcDbEntity
  8
0
  6
Continuous
 62
     0
370
    30
100
AcDbLine
 10
23.899794
 20
559.72635
 30
0.0
 11
23.899794
 21
550.00635
 31
0.0
  0
LINE
  5
373
330
341
100
AcDbEntity
  8
0
  6
Continuous
 62
     0
370
     0
100
AcDbLine
 10
80.399794
 20
550.00635
 30
0.0
 11
80.399794
 21
559.72635
 31
0.0
  0
LINE
  5
374
330
341
100
AcDbEntity
  8
0
  6
Continuous
 62
     0
370
    30
100
AcDbLine
 10
80.899794
 20
550.00635
 30
0.0
 11
80.399794
 21
550.00635
 31
0.0
  0
LINE
  5
375
330
341
100
AcDbEntity
  8
0
  6
Continuous
 62
     0
370
    30
100
AcDbLine
 10
80.899794
 20
559.72635
 30
0.0
 11
80.899794
 21
550.00635
 31
0.0
  0
LINE
  5
376
330
341
100
AcDbEntity
  8
0
  6
Continuous
 62
     0
370
     0
100
AcDbLine
 10
24.399794
 20
550.00635
 30
0.0
 11
24.399794
 21
559.72635
 31
0.0
  0
LINE
  5
377
330
341
100
AcDbEntity
  8
0
  6
Continuous
 62
     0
370
    30
100
AcDbLine
 10
80.399794
 20
550.00635
 30
0.0
 11
24.399794
 21
550.00635
 31
0.0
  0
LINE
  5
378
330
341
100
AcDbEntity
  8
0
  6
Continuous
 62
     0
370
    30
100
AcDbLine
 10
24.399794
 20
550.00635
 30
0.0
 11
23.899794
 21
550.00635
 31
0.0
  0
LINE
  5
379
330
341
100
AcDbEntity
  8
0
  6
Continuous
 62
     0
370
     0
100
AcDbLine
 10
64.399795
 20
565.72635
 30
0.0
 11
71.399795
 21
565.72635
 31
0.0
  0
LINE
  5
37A
330
341
100
AcDbEntity
  8
0
  6
Continuous
 62
     0
370
     0
100
AcDbLine
 10
64.399795
 20
565.22635
 30
0.0
 11
64.399795
 21
565.72635
 31
0.0
  0
LINE
  5
37B
330
341
100
AcDbEntity
  8
0
  6
Continuous
 62
     0
370
    30
100
AcDbLine
 10
71.399795
 20
565.22635
 30
0.0
 11
64.399795
 21
565.22635
 31
0.0
  0
LINE
  5
37C
330
341
100
AcDbEntity
  8
0
  6
Continuous
 62
     0
370
     0
100
AcDbLine
 10
71.399795
 20
565.72635
 30
0.0
 11
71.399795
 21
565.22635
 31
0.0
  0
ARC
  5
37D
330
341
100
AcDbEntity
  8
0
  6
Continuous
 62
     0
370
    30
100
AcDbCircle
 10
64.399795
 20
565.72635
 30
0.0
 40
0.5
100
AcDbArc
 50
180.0
 51
270.0
  0
ARC
  5
37E
330
341
100
AcDbEntity
  8
0
  6
Continuous
 62
     0
370
    30
100
AcDbCircle
 10
71.399795
 20
565.72635
 30
0.0
 40
0.5
100
AcDbArc
 50
270.0
 51
360.0
  0
LWPOLYLINE
  5
37F
330
341
100
AcDbEntity
  8
0
  6
Continuous
 62
     0
370
     0
100
AcDbPolyline
 90
        5
 70
     0
 43
0.0
 10
63.899796
 20
565.726379
 10
63.934803
 20
565.726379
 10
64.045845
 20
565.726379
 10
64.214996
 20
565.726379
 10
64.399796
 20
565.726379
  0
LINE
  5
380
330
341
100
AcDbEntity
  8
0
  6
Continuous
 62
     0
370
     0
100
AcDbLine
 10
71.399795
 20
565.72635
 30
0.0
 11
71.899795
 21
565.72635
 31
0.0
  0
LINE
  5
381
330
341
100
AcDbEntity
  8
0
  6
Continuous
 62
     0
370
    30
100
AcDbLine
 10
71.899795
 20
565.72635
 30
0.0
 11
71.899795
 21
594.72635
 31
0.0
  0
LINE
  5
382
330
341
100
AcDbEntity
  8
0
  6
Continuous
 62
     0
370
    30
100
AcDbLine
 10
64.399795
 20
595.22635
 30
0.0
 11
71.399795
 21
595.22635
 31
0.0
  0
LINE
  5
383
330
341
100
AcDbEntity
  8
0
  6
Continuous
 62
     0
370
     0
100
AcDbLine
 10
64.399795
 20
594.72635
 30
0.0
 11
64.399795
 21
595.22635
 31
0.0
  0
LINE
  5
384
330
341
100
AcDbEntity
  8
0
  6
Continuous
 62
     0
370
     0
100
AcDbLine
 10
71.399795
 20
594.72635
 30
0.0
 11
64.399795
 21
594.72635
 31
0.0
  0
LINE
  5
385
330
341
100
AcDbEntity
  8
0
  6
Continuous
 62
     0
370
     0
100
AcDbLine
 10
71.399795
 20
595.22635
 30
0.0
 11
71.399795
 21
594.72635
 31
0.0
  0
ARC
  5
386
330
341
100
AcDbEntity
  8
0
  6
Continuous
 62
     0
370
    30
100
AcDbCircle
 10
71.399795
 20
594.72635
 30
0.0
 40
0.5
100
AcDbArc
 50
360.0
 51
90.0
  0
LINE
  5
387
330
341
100
AcDbEntity
  8
0
  6
Continuous
 62
     0
370
     0
100
AcDbLine
 10
71.899795
 20
594.72635
 30
0.0
 11
71.399795
 21
594.72635
 31
0.0
  0
ARC
  5
388
330
341
100
AcDbEntity
  8
0
  6
Continuous
 62
     0
370
    30
100
AcDbCircle
 10
64.399795
 20
594.72635
 30
0.0
 40
0.5
100
AcDbArc
 50
90.0
 51
180.0
  0
LINE
  5
389
330
341
100
AcDbEntity
  8
0
  6
Continuous
 62
     0
370
     0
100
AcDbLine
 10
64.399795
 20
594.72635
 30
0.0
 11
63.899795
 21
594.72635
 31
0.0
  0
LINE
  5
38A
330
341
100
AcDbEntity
  8
0
  6
Continuous
 62
     0
370
    30
100
AcDbLine
 10
63.899795
 20
594.72635
 30
0.0
 11
63.899795
 21
565.72635
 31
0.0
  0
LINE
  5
38B
330
341
100
AcDbEntity
  8
0
  6
Continuous
 62
     0
370
     0
100
AcDbLine
 10
64.399795
 20
594.72635
 30
0.0
 11
64.399795
 21
565.72635
 31
0.0
  0
LINE
  5
38C
330
341
100
AcDbEntity
  8
0
  6
Continuous
 62
     0
370
     0
100
AcDbLine
 10
71.399795
 20
594.72635
 30
0.0
 11
71.399795
 21
565.72635
 31
0.0
  0
LWPOLYLINE
  5
38D
330
341
100
AcDbEntity
  8
0
  6
Continuous
 62
     0
370
    30
100
AcDbPolyline
 90
        6
 70
     0
 43
0.0
 10
-85.962357
 20
673.226379
 10
-85.988213
 20
673.226379
 10
-86.06488
 20
673.226379
 10
-86.182243
 20
673.226379
 10
-86.334396
 20
673.226379
 10
-86.544456
 20
673.226379
  0
LINE
  5
38E
330
341
100
AcDbEntity
  8
0
  6
Continuous
 62
     0
370
    30
100
AcDbLine
 10
-86.544456
 20
673.22635
 30
0.0
 11
-97.022244
 21
673.22635
 31
0.0
  0
LINE
  5
38F
330
341
100
AcDbEntity
  8
0
  6
Continuous
 62
     0
370
    30
100
AcDbLine
 10
-97.022244
 20
673.22635
 30
0.0
 11
-97.604343
 21
673.22635
 31
0.0
  0
LINE
  5
390
330
341
100
AcDbEntity
  8
0
  6
Continuous
 62
     0
370
    30
100
AcDbLine
 10
-85.962356
 20
673.22635
 30
0.0
 11
-77.853852
 21
686.828493
 31
0.0
  0
LINE
  5
391
330
341
100
AcDbEntity
  8
0
  6
Continuous
 62
     0
370
     0
100
AcDbLine
 10
-78.283332
 20
687.084515
 30
0.0
 11
-77.853852
 21
686.828493
 31
0.0
  0
LINE
  5
392
330
341
100
AcDbEntity
  8
0
  6
Continuous
 62
     0
370
     0
100
AcDbLine
 10
-86.544456
 20
673.22635
 30
0.0
 11
-78.283332
 21
687.084515
 31
0.0
  0
ARC
  5
393
330
341
100
AcDbEntity
  8
0
  6
Continuous
 62
     0
370
     0
100
AcDbCircle
 10
-34.905857
 20
661.22635
 30
0.0
 40
50.5000000000003
100
AcDbArc
 50
90.0
 51
149.2
  0
LINE
  5
394
330
341
100
AcDbEntity
  8
0
  6
Continuous
 62
     0
370
     0
100
AcDbLine
 10
-2.600205
 20
711.72635
 30
0.0
 11
-34.905857
 21
711.72635
 31
0.0
  0
ARC
  5
395
330
341
100
AcDbEntity
  8
0
  6
Continuous
 62
     0
370
     0
100
AcDbCircle
 10
-2.600205
 20
661.22635
 30
0.0
 40
50.49999999999987
100
AcDbArc
 50
360.0
 51
90.0
  0
LINE
  5
396
330
341
100
AcDbEntity
  8
0
  6
Continuous
 62
     0
370
     0
100
AcDbLine
 10
47.899795
 20
560.22635
 30
0.0
 11
47.899795
 21
661.22635
 31
0.0
  0
LINE
  5
397
330
341
100
AcDbEntity
  8
0
  6
Continuous
 62
     0
370
     0
100
AcDbLine
 10
56.899795
 20
661.22635
 30
0.0
 11
56.899795
 21
560.22635
 31
0.0
  0
ARC
  5
398
330
341
100
AcDbEntity
  8
0
  6
Continuous
 62
     0
370
     0
100
AcDbCircle
 10
-2.600205
 20
661.22635
 30
0.0
 40
59.49999999999991
100
AcDbArc
 50
0.0
 51
90.0
  0
LINE
  5
399
330
341
100
AcDbEntity
  8
0
  6
Continuous
 62
     0
370
     0
100
AcDbLine
 10
-34.905857
 20
720.72635
 30
0.0
 11
-2.600205
 21
720.72635
 31
0.0
  0
ARC
  5
39A
330
341
100
AcDbEntity
  8
0
  6
Continuous
 62
     0
370
     0
100
AcDbCircle
 10
-34.905857
 20
661.22635
 30
0.0
 40
59.50000000000021
100
AcDbArc
 50
90.0
 51
149.2
  0
LINE
  5
39B
330
341
100
AcDbEntity
  8
0
  6
Continuous
 62
     0
370
     0
100
AcDbLine
 10
-97.022244
 20
673.22635
 30
0.0
 11
-86.013971
 21
691.692901
 31
0.0
  0
LINE
  5
39C
330
341
100
AcDbEntity
  8
0
  6
Continuous
 62
     0
370
     0
100
AcDbLine
 10
-86.443451
 20
691.948922
 30
0.0
 11
-86.013971
 21
691.692901
 31
0.0
  0
LINE
  5
39D
330
341
100
AcDbEntity
  8
0
  6
Continuous
 62
     0
370
    30
100
AcDbLine
 10
-97.604343
 20
673.22635
 30
0.0
 11
-86.443451
 21
691.948922
 31
0.0
  0
ARC
  5
39E
330
341
100
AcDbEntity
  8
0
  6
Continuous
 62
     0
370
    30
100
AcDbCircle
 10
-34.905857
 20
661.22635
 30
0.0
 40
50.0
100
AcDbArc
 50
90.0
 51
149.2
  0
LINE
  5
39F
330
341
100
AcDbEntity
  8
0
  6
Continuous
 62
     0
370
     0
100
AcDbLine
 10
-34.905857
 20
711.72635
 30
0.0
 11
-34.905857
 21
711.22635
 31
0.0
  0
LINE
  5
3A0
330
341
100
AcDbEntity
  8
0
  6
Continuous
 62
     0
370
     0
100
AcDbLine
 10
-34.905857
 20
721.22635
 30
0.0
 11
-34.905857
 21
720.72635
 31
0.0
  0
ARC
  5
3A1
330
341
100
AcDbEntity
  8
0
  6
Continuous
 62
     0
370
    30
100
AcDbCircle
 10
-34.905857
 20
661.22635
 30
0.0
 40
60.00000000000004
100
AcDbArc
 50
90.0
 51
149.2
  0
LINE
  5
3A2
330
341
100
AcDbEntity
  8
0
  6
Continuous
 62
     0
370
    30
100
AcDbLine
 10
-2.600205
 20
721.22635
 30
0.0
 11
-34.905857
 21
721.22635
 31
0.0
  0
LINE
  5
3A3
330
341
100
AcDbEntity
  8
0
  6
Continuous
 62
     0
370
    30
100
AcDbLine
 10
-34.905857
 20
711.22635
 30
0.0
 11
-2.600205
 21
711.22635
 31
0.0
  0
LINE
  5
3A4
330
341
100
AcDbEntity
  8
0
  6
Continuous
 62
     0
370
     0
100
AcDbLine
 10
-2.600205
 20
711.72635
 30
0.0
 11
-2.600205
 21
711.22635
 31
0.0
  0
LINE
  5
3A5
330
341
100
AcDbEntity
  8
0
  6
Continuous
 62
     0
370
     0
100
AcDbLine
 10
-2.600205
 20
721.22635
 30
0.0
 11
-2.600205
 21
720.72635
 31
0.0
  0
LINE
  5
3A6
330
341
100
AcDbEntity
  8
0
  6
Continuous
 62
     0
370
     0
100
AcDbLine
 10
57.399795
 20
661.22635
 30
0.0
 11
56.899795
 21
661.22635
 31
0.0
  0
ARC
  5
3A7
330
341
100
AcDbEntity
  8
0
  6
Continuous
 62
     0
370
    30
100
AcDbCircle
 10
-2.600205
 20
661.22635
 30
0.0
 40
59.99999999999992
100
AcDbArc
 50
0.0
 51
90.0
  0
ARC
  5
3A8
330
341
100
AcDbEntity
  8
0
  6
Continuous
 62
     0
370
    30
100
AcDbCircle
 10
-2.600205
 20
661.22635
 30
0.0
 40
50.0
100
AcDbArc
 50
360.0
 51
90.0
  0
LINE
  5
3A9
330
341
100
AcDbEntity
  8
0
  6
Continuous
 62
     0
370
     0
100
AcDbLine
 10
47.899795
 20
661.22635
 30
0.0
 11
47.399795
 21
661.22635
 31
0.0
  0
LINE
  5
3AA
330
341
100
AcDbEntity
  8
0
  6
Continuous
 62
     0
370
    30
100
AcDbLine
 10
57.399795
 20
661.22635
 30
0.0
 11
57.399795
 21
560.22635
 31
0.0
  0
LINE
  5
3AB
330
341
100
AcDbEntity
  8
0
  6
Continuous
 62
     0
370
    30
100
AcDbLine
 10
47.399795
 20
661.22635
 30
0.0
 11
47.399795
 21
560.22635
 31
0.0
  0
LINE
  5
3AC
330
341
100
AcDbEntity
  8
0
  6
Continuous
 62
     0
370
    30
100
AcDbLine
 10
69.399796
 20
560.22635
 30
0.0
 11
69.399796
 21
565.22635
 31
0.0
  0
LINE
  5
3AD
330
341
100
AcDbEntity
  8
0
  6
Continuous
 62
     0
370
    30
100
AcDbLine
 10
66.399796
 20
560.22635
 30
0.0
 11
66.399796
 21
565.22635
 31
0.0
  0
ENDBLK
  5
3AF
330
341
100
AcDbEntity
  8
0
100
AcDbBlockEnd
  0
ENDSEC
  0
SECTION
  2
ENTITIES
  0
INSERT
  5
12D
330
1F
100
AcDbEntity
  8
0
  6
Continuous
 62
     7
420
 16250871
370
     0
100
AcDbBlockReference
  2
a
 10
276.450317
 20
122.441742
 30
0.0
  0
INSERT
  5
1CE
330
1F
100
AcDbEntity
  8
0
  6
Continuous
 62
     7
420
 16250871
370
     0
100
AcDbBlockReference
  2
b
 10
276.450317
 20
122.441742
 30
0.0
  0
INSERT
  5
240
330
1F
100
AcDbEntity
  8
0
  6
Continuous
 62
     7
420
 16250871
370
     0
100
AcDbBlockReference
  2
c
 10
276.450317
 20
122.441742
 30
0.0
  0
INSERT
  5
340
330
1F
100
AcDbEntity
  8
0
  6
Continuous
 62
     7
420
 16250871
370
     0
100
AcDbBlockReference
  2
d
 10
276.450317
 20
122.441742
 30
0.0
  0
INSERT
  5
3B0
330
1F
100
AcDbEntity
  8
0
  6
Continuous
 62
     7
420
 16250871
370
     0
100
AcDbBlockReference
  2
e
 10
225.493073
 20
0.0
 30
0.0
  0
ENDSEC
  0
SECTION
  2
OBJECTS
  0
DICTIONARY
  5
C
330
0
100
AcDbDictionary
281
     1
  3
ACAD_DETAILVIEWSTYLE
350
3E8
  3
ACAD_GROUP
350
D
  3
ACAD_LAYOUT
350
1A
  3
ACAD_MATERIAL
350
43
  3
ACAD_MLEADERSTYLE
350
6B
  3
ACAD_MLINESTYLE
350
17
  3
ACAD_PLOTSETTINGS
350
19
  3
ACAD_PLOTSTYLENAME
350
E
  3
ACAD_SCALELIST
350
47
  3
ACAD_SECTIONVIEWSTYLE
350
3E9
  3
ACAD_TABLESTYLE
350
69
  3
ACAD_VISUALSTYLE
350
2A
  3
ACDB_RECOMPOSE_DATA
350
3E5
  3
AcDbVariableDictionary
350
3B1
  0
SUN
  5
6D
330
29
100
AcDbSun
 90
        1
290
     0
 63
     7
421
 16777215
 40
1.0
291
     1
 91
  2455826
 92
 54000000
292
     0
 70
     2
 71
   256
280
     1
  0
DICTIONARY
  5
3E8
102
{ACAD_REACTORS
330
C
102
}
330
C
100
AcDbDictionary
281
     1
  0
DICTIONARY
  5
D
102
{ACAD_REACTORS
330
C
102
}
330
C
100
AcDbDictionary
281
     1
  0
DICTIONARY
  5
1A
102
{ACAD_REACTORS
330
C
102
}
330
C
100
AcDbDictionary
281
     1
  3
Layout1
350
1E
  3
Layout2
350
26
  3
Model
350
22
  0
DICTIONARY
  5
43
102
{ACAD_REACTORS
330
C
102
}
330
C
100
AcDbDictionary
281
     1
  3
ByBlock
350
45
  3
ByLayer
350
44
  3
Global
350
46
  0
DICTIONARY
  5
6B
102
{ACAD_REACTORS
330
C
102
}
330
C
100
AcDbDictionary
281
     1
  3
Standard
350
6C
  0
DICTIONARY
  5
17
102
{ACAD_REACTORS
330
C
102
}
330
C
100
AcDbDictionary
281
     1
  3
Standard
350
18
  0
DICTIONARY
  5
19
102
{ACAD_REACTORS
330
C
102
}
330
C
100
AcDbDictionary
281
     1
  0
ACDBDICTIONARYWDFLT
  5
E
102
{ACAD_REACTORS
330
C
102
}
330
C
100
AcDbDictionary
281
     1
  3
Normal
350
F
100
AcDbDictionaryWithDefault
340
F
  0
DICTIONARY
  5
47
102
{ACAD_REACTORS
330
C
102
}
330
C
100
AcDbDictionary
281
     1
  3
A0
350
48
  3
A1
350
49
  3
A2
350
4A
  3
A3
350
4B
  3
A4
350
4C
  3
A5
350
4D
  3
A6
350
4E
  3
A7
350
4F
  3
A8
350
50
  3
A9
350
51
  3
B0
350
52
  3
B1
350
53
  3
B2
350
54
  3
B3
350
55
  3
B4
350
56
  3
B5
350
57
  3
B6
350
58
  3
B7
350
59
  3
B8
350
5A
  3
B9
350
5B
  3
C0
350
5C
  3
C1
350
5D
  3
C2
350
5E
  3
C3
350
5F
  3
C4
350
60
  3
C5
350
61
  3
C6
350
62
  3
C7
350
63
  3
C8
350
64
  3
C9
350
65
  3
D0
350
66
  3
D1
350
67
  3
D2
350
68
  0
DICTIONARY
  5
3E9
102
{ACAD_REACTORS
330
C
102
}
330
C
100
AcDbDictionary
281
     1
  0
DICTIONARY
  5
69
102
{ACAD_REACTORS
330
C
102
}
330
C
100
AcDbDictionary
281
     1
  3
Standard
350
6A
  0
DICTIONARY
  5
2A
102
{ACAD_REACTORS
330
C
102
}
330
C
100
AcDbDictionary
281
     1
  3
2dWireframe
350
2F
  3
Basic
350
32
  3
Brighten
350
36
  3
ColorChange
350
3A
  3
Conceptual
350
34
  3
Dim
350
35
  3
EdgeColorOff
350
3D
  3
Facepattern
350
39
  3
Flat
350
2B
  3
FlatWithEdges
350
2C
  3
Gouraud
350
2D
  3
GouraudWithEdges
350
2E
  3
Hidden
350
31
  3
JitterOff
350
3B
  3
Linepattern
350
38
  3
OverhangOff
350
3C
  3
Realistic
350
33
  3
Shaded
350
42
  3
Shaded with edges
350
41
  3
Shades of Gray
350
3E
  3
Sketchy
350
3F
  3
Thicken
350
37
  3
Wireframe
350
30
  3
X-Ray
350
40
  0
XRECORD
  5
3E5
102
{ACAD_REACTORS
330
C
102
}
330
C
100
AcDbXrecord
280
     1
 90
        1
330
6A
  0
DICTIONARY
  5
3B1
102
{ACAD_REACTORS
330
C
102
}
330
C
100
AcDbDictionary
281
     1
  3
CANNOSCALE
350
3B2
  3
CMLEADERSTYLE
350
3E7
  3
CTABLESTYLE
350
3E6
  0
LAYOUT
  5
1E
102
{ACAD_REACTORS
330
1A
102
}
330
1A
100
AcDbPlotSettings
  1

  2
none_device
  4

  6

 40
0.0
 41
0.0
 42
0.0
 43
0.0
 44
0.0
 45
0.0
 46
0.0
 47
0.0
 48
0.0
 49
0.0
140
0.0
141
0.0
142
1.0
143
1.0
 70
   688
 72
     1
 73
     0
 74
     5
  7

 75
    16
 76
     0
 77
     2
 78
   300
147
1.0
148
0.0
149
0.0
100
AcDbLayout
  1
Layout1
 70
     1
 71
     1
 10
0.0
 20
0.0
 11
420.0
 21
297.0
 12
0.0
 22
0.0
 32
0.0
 14
1.000000E+20
 24
1.000000E+20
 34
1.000000E+20
 15
-1.000000E+20
 25
-1.000000E+20
 35
-1.000000E+20
146
0.0
 13
0.0
 23
0.0
 33
0.0
 16
1.0
 26
0.0
 36
0.0
 17
0.0
 27
1.0
 37
0.0
 76
     0
330
1B
  0
LAYOUT
  5
26
102
{ACAD_REACTORS
330
1A
102
}
330
1A
100
AcDbPlotSettings
  1

  2
none_device
  4

  6

 40
0.0
 41
0.0
 42
0.0
 43
0.0
 44
0.0
 45
0.0
 46
0.0
 47
0.0
 48
0.0
 49
0.0
140
0.0
141
0.0
142
1.0
143
1.0
 70
   688
 72
     1
 73
     0
 74
     5
  7

 75
    16
 76
     0
 77
     2
 78
   300
147
1.0
148
0.0
149
0.0
100
AcDbLayout
  1
Layout2
 70
     1
 71
     2
 10
0.0
 20
0.0
 11
0.0
 21
0.0
 12
0.0
 22
0.0
 32
0.0
 14
0.0
 24
0.0
 34
0.0
 15
0.0
 25
0.0
 35
0.0
146
0.0
 13
0.0
 23
0.0
 33
0.0
 16
1.0
 26
0.0
 36
0.0
 17
0.0
 27
1.0
 37
0.0
 76
     0
330
23
  0
LAYOUT
  5
22
102
{ACAD_REACTORS
330
1A
102
}
330
1A
100
AcDbPlotSettings
  1

  2
none_device
  4
Letter_(8.50_x_11.00_Inches)
  6

 40
6.35
 41
6.35
 42
6.350005
 43
6.350005
 44
215.9
 45
279.4
 46
0.0
 47
0.0
 48
0.0
 49
0.0
140
0.0
141
0.0
142
1.0
143
1.0
 70
  1712
 72
     1
 73
     0
 74
     0
  7

 75
     0
 76
     0
 77
     2
 78
   300
147
1.0
148
0.0
149
0.0
100
AcDbLayout
  1
Model
 70
     1
 71
     0
 10
0.0
 20
0.0
 11
420.0
 21
297.0
 12
0.0
 22
0.0
 32
0.0
 14
1.000000E+20
 24
1.000000E+20
 34
1.000000E+20
 15
-1.000000E+20
 25
-1.000000E+20
 35
-1.000000E+20
146
0.0
 13
0.0
 23
0.0
 33
0.0
 16
1.0
 26
0.0
 36
0.0
 17
0.0
 27
1.0
 37
0.0
 76
     0
330
1F
331
29
  0
MATERIAL
  5
45
102
{ACAD_REACTORS
330
43
102
}
330
43
100
AcDbMaterial
  1
ByBlock
 72
     1
 94
      127
  0
MATERIAL
  5
44
102
{ACAD_REACTORS
330
43
102
}
330
43
100
AcDbMaterial
  1
ByLayer
 72
     1
 94
      127
  0
MATERIAL
  5
46
102
{ACAD_REACTORS
330
43
102
}
330
43
100
AcDbMaterial
  1
Global
 72
     1
 94
      127
  0
MLEADERSTYLE
  5
6C
102
{ACAD_REACTORS
330
6B
102
}
330
6B
100
AcDbMLeaderStyle
179
     2
170
     2
171
     1
172
     0
 90
        2
 40
0.0
 41
0.0
173
     1
 91
-1056964608
340
14
 92
       -2
290
     1
 42
2.0
291
     1
 43
8.0
  3
Standard
341
0
 44
4.0
300

342
11
174
     1
178
     6
175
     1
176
     0
 93
-1056964608
 45
4.0
292
     0
297
     0
 46
4.0
343
0
 94
-1056964608
 47
1.0
 49
1.0
140
1.0
293
     1
141
0.0
294
     1
177
     0
142
1.0
295
     0
296
     0
143
3.75
271
     0
272
     9
273
     9
  0
MLINESTYLE
  5
18
102
{ACAD_REACTORS
330
17
102
}
330
17
100
AcDbMlineStyle
  2
Standard
 70
     0
  3

 62
   256
 51
90.0
 52
90.0
 71
     2
 49
0.5
 62
   256
  6
BYLAYER
 49
-0.5
 62
   256
  6
BYLAYER
  0
ACDBPLACEHOLDER
  5
F
102
{ACAD_REACTORS
330
E
102
}
330
E
  0
SCALE
  5
48
102
{ACAD_REACTORS
330
47
102
}
330
47
100
AcDbScale
 70
     0
300
1:1
140
1.0
141
1.0
290
     1
  0
SCALE
  5
49
102
{ACAD_REACTORS
330
47
102
}
330
47
100
AcDbScale
 70
     0
300
1:2
140
1.0
141
2.0
290
     0
  0
SCALE
  5
4A
102
{ACAD_REACTORS
330
47
102
}
330
47
100
AcDbScale
 70
     0
300
1:4
140
1.0
141
4.0
290
     0
  0
SCALE
  5
4B
102
{ACAD_REACTORS
330
47
102
}
330
47
100
AcDbScale
 70
     0
300
1:5
140
1.0
141
5.0
290
     0
  0
SCALE
  5
4C
102
{ACAD_REACTORS
330
47
102
}
330
47
100
AcDbScale
 70
     0
300
1:8
140
1.0
141
8.0
290
     0
  0
SCALE
  5
4D
102
{ACAD_REACTORS
330
47
102
}
330
47
100
AcDbScale
 70
     0
300
1:10
140
1.0
141
10.0
290
     0
  0
SCALE
  5
4E
102
{ACAD_REACTORS
330
47
102
}
330
47
100
AcDbScale
 70
     0
300
1:16
140
1.0
141
16.0
290
     0
  0
SCALE
  5
4F
102
{ACAD_REACTORS
330
47
102
}
330
47
100
AcDbScale
 70
     0
300
1:20
140
1.0
141
20.0
290
     0
  0
SCALE
  5
50
102
{ACAD_REACTORS
330
47
102
}
330
47
100
AcDbScale
 70
     0
300
1:30
140
1.0
141
30.0
290
     0
  0
SCALE
  5
51
102
{ACAD_REACTORS
330
47
102
}
330
47
100
AcDbScale
 70
     0
300
1:40
140
1.0
141
40.0
290
     0
  0
SCALE
  5
52
102
{ACAD_REACTORS
330
47
102
}
330
47
100
AcDbScale
 70
     0
300
1:50
140
1.0
141
50.0
290
     0
  0
SCALE
  5
53
102
{ACAD_REACTORS
330
47
102
}
330
47
100
AcDbScale
 70
     0
300
1:100
140
1.0
141
100.0
290
     0
  0
SCALE
  5
54
102
{ACAD_REACTORS
330
47
102
}
330
47
100
AcDbScale
 70
     0
300
2:1
140
2.0
141
1.0
290
     0
  0
SCALE
  5
55
102
{ACAD_REACTORS
330
47
102
}
330
47
100
AcDbScale
 70
     0
300
4:1
140
4.0
141
1.0
290
     0
  0
SCALE
  5
56
102
{ACAD_REACTORS
330
47
102
}
330
47
100
AcDbScale
 70
     0
300
8:1
140
8.0
141
1.0
290
     0
  0
SCALE
  5
57
102
{ACAD_REACTORS
330
47
102
}
330
47
100
AcDbScale
 70
     0
300
10:1
140
10.0
141
1.0
290
     0
  0
SCALE
  5
58
102
{ACAD_REACTORS
330
47
102
}
330
47
100
AcDbScale
 70
     0
300
100:1
140
100.0
141
1.0
290
     0
  0
SCALE
  5
59
102
{ACAD_REACTORS
330
47
102
}
330
47
100
AcDbScale
 70
     0
300
1/128" = 1'-0"
140
0.007812
141
12.0
290
     0
  0
SCALE
  5
5A
102
{ACAD_REACTORS
330
47
102
}
330
47
100
AcDbScale
 70
     0
300
1/64" = 1'-0"
140
0.015625
141
12.0
290
     0
  0
SCALE
  5
5B
102
{ACAD_REACTORS
330
47
102
}
330
47
100
AcDbScale
 70
     0
300
1/32" = 1'-0"
140
0.03125
141
12.0
290
     0
  0
SCALE
  5
5C
102
{ACAD_REACTORS
330
47
102
}
330
47
100
AcDbScale
 70
     0
300
1/16" = 1'-0"
140
0.0625
141
12.0
290
     0
  0
SCALE
  5
5D
102
{ACAD_REACTORS
330
47
102
}
330
47
100
AcDbScale
 70
     0
300
3/32" = 1'-0"
140
0.09375
141
12.0
290
     0
  0
SCALE
  5
5E
102
{ACAD_REACTORS
330
47
102
}
330
47
100
AcDbScale
 70
     0
300
1/8" = 1'-0"
140
0.125
141
12.0
290
     0
  0
SCALE
  5
5F
102
{ACAD_REACTORS
330
47
102
}
330
47
100
AcDbScale
 70
     0
300
3/16" = 1'-0"
140
0.1875
141
12.0
290
     0
  0
SCALE
  5
60
102
{ACAD_REACTORS
330
47
102
}
330
47
100
AcDbScale
 70
     0
300
1/4" = 1'-0"
140
0.25
141
12.0
290
     0
  0
SCALE
  5
61
102
{ACAD_REACTORS
330
47
102
}
330
47
100
AcDbScale
 70
     0
300
3/8" = 1'-0"
140
0.375
141
12.0
290
     0
  0
SCALE
  5
62
102
{ACAD_REACTORS
330
47
102
}
330
47
100
AcDbScale
 70
     0
300
1/2" = 1'-0"
140
0.5
141
12.0
290
     0
  0
SCALE
  5
63
102
{ACAD_REACTORS
330
47
102
}
330
47
100
AcDbScale
 70
     0
300
3/4" = 1'-0"
140
0.75
141
12.0
290
     0
  0
SCALE
  5
64
102
{ACAD_REACTORS
330
47
102
}
330
47
100
AcDbScale
 70
     0
300
1" = 1'-0"
140
1.0
141
12.0
290
     0
  0
SCALE
  5
65
102
{ACAD_REACTORS
330
47
102
}
330
47
100
AcDbScale
 70
     0
300
1-1/2" = 1'-0"
140
1.5
141
12.0
290
     0
  0
SCALE
  5
66
102
{ACAD_REACTORS
330
47
102
}
330
47
100
AcDbScale
 70
     0
300
3" = 1'-0"
140
3.0
141
12.0
290
     0
  0
SCALE
  5
67
102
{ACAD_REACTORS
330
47
102
}
330
47
100
AcDbScale
 70
     0
300
6" = 1'-0"
140
6.0
141
12.0
290
     0
  0
SCALE
  5
68
102
{ACAD_REACTORS
330
47
102
}
330
47
100
AcDbScale
 70
     0
300
1'-0" = 1'-0"
140
12.0
141
12.0
290
     0
  0
TABLESTYLE
  5
6A
102
{ACAD_REACTORS
330
69
102
}
102
{ACAD_XDICTIONARY
360
3E3
102
}
330
69
100
AcDbTableStyle
  3
Standard
 70
     0
 71
     0
 40
0.06
 41
0.06
280
     0
281
     0
  7
Standard
140
4.5
170
     2
 62
     0
 63
   257
283
     0
 90
        4
 91
        0
  1

274
    -2
284
     1
 64
     0
275
    -2
285
     1
 65
     0
276
    -2
286
     1
 66
     0
277
    -2
287
     1
 67
     0
278
    -2
288
     1
 68
     0
279
    -2
289
     1
 69
     0
  7
Standard
140
6.0
170
     5
 62
     0
 63
   257
283
     0
 90
        4
 91
        0
  1

274
    -2
284
     1
 64
     0
275
    -2
285
     1
 65
     0
276
    -2
286
     1
 66
     0
277
    -2
287
     1
 67
     0
278
    -2
288
     1
 68
     0
279
    -2
289
     1
 69
     0
  7
Standard
140
4.5
170
     5
 62
     0
 63
   257
283
     0
 90
        4
 91
        0
  1

274
    -2
284
     1
 64
     0
275
    -2
285
     1
 65
     0
276
    -2
286
     1
 66
     0
277
    -2
287
     1
 67
     0
278
    -2
288
     1
 68
     0
279
    -2
289
     1
 69
     0
  0
VISUALSTYLE
  5
2F
102
{ACAD_REACTORS
330
2A
102
}
102
{ACAD_XDICTIONARY
360
3BB
102
}
330
2A
100
AcDbVisualStyle
  2
2dWireframe
 70
     4
177
     2
291
     0
 71
     0
176
     1
 72
     2
176
     1
 73
     0
176
     1
 90
        0
176
     1
 40
0.6
176
     1
 41
30.0
176
     1
 62
     5
 63
     7
421
 16777215
176
     1
 74
     1
176
     1
 91
        4
176
     1
 64
     7
176
     1
 65
   257
176
     1
 75
     1
176
     1
175
     1
176
     1
 42
1.0
176
     1
 92
        0
176
     1
 66
   257
176
     1
 43
1.0
176
     1
 76
     1
176
     1
 77
     6
176
     1
 78
     2
176
     1
 67
     7
176
     1
 79
     5
176
     1
170
     0
176
     1
171
     0
176
     1
290
     0
176
     1
 93
        1
176
     1
 44
0.0
176
     1
173
     0
176
     1
  0
VISUALSTYLE
  5
32
102
{ACAD_REACTORS
330
2A
102
}
102
{ACAD_XDICTIONARY
360
3C1
102
}
330
2A
100
AcDbVisualStyle
  2
Basic
 70
     7
177
     2
291
     1
 71
     1
176
     1
 72
     0
176
     1
 73
     1
176
     1
 90
        0
176
     1
 40
0.6
176
     1
 41
30.0
176
     1
 62
     5
 63
     7
421
 16777215
176
     1
 74
     0
176
     1
 91
        4
176
     1
 64
     7
176
     1
 65
   257
176
     1
 75
     1
176
     1
175
     1
176
     1
 42
1.0
176
     1
 92
        8
176
     1
 66
     7
176
     1
 43
1.0
176
     1
 76
     1
176
     1
 77
     6
176
     1
 78
     2
176
     1
 67
     7
176
     1
 79
     5
176
     1
170
     0
176
     1
171
     0
176
     1
290
     0
176
     1
 93
        1
176
     1
 44
0.0
176
     1
173
     0
176
     1
  0
VISUALSTYLE
  5
36
102
{ACAD_REACTORS
330
2A
102
}
102
{ACAD_XDICTIONARY
360
3C9
102
}
330
2A
100
AcDbVisualStyle
  2
Brighten
 70
    12
177
     2
291
     1
 71
     2
176
     1
 72
     2
176
     1
 73
     0
176
     1
 90
        0
176
     1
 40
0.6
176
     1
 41
30.0
176
     1
 62
     5
 63
     7
421
 16777215
176
     1
 74
     1
176
     1
 91
        4
176
     1
 64
     7
176
     1
 65
   257
176
     1
 75
     1
176
     1
175
     1
176
     1
 42
1.0
176
     1
 92
        8
176
     1
 66
     7
176
     1
 43
1.0
176
     1
 76
     1
176
     1
 77
     6
176
     1
 78
     2
176
     1
 67
     7
176
     1
 79
     5
176
     1
170
     0
176
     1
171
     0
176
     1
290
     0
176
     1
 93
        1
176
     1
 44
50.0
176
     1
173
     0
176
     1
  0
VISUALSTYLE
  5
3A
102
{ACAD_REACTORS
330
2A
102
}
102
{ACAD_XDICTIONARY
360
3D1
102
}
330
2A
100
AcDbVisualStyle
  2
ColorChange
 70
    16
177
     2
291
     1
 71
     2
176
     1
 72
     2
176
     1
 73
     3
176
     1
 90
        0
176
     1
 40
0.6
176
     1
 41
30.0
176
     1
 62
     5
 63
     8
421
  8421504
176
     1
 74
     1
176
     1
 91
        4
176
     1
 64
     7
176
     1
 65
   257
176
     1
 75
     1
176
     1
175
     1
176
     1
 42
1.0
176
     1
 92
        8
176
     1
 66
     8
424
  8421504
176
     1
 43
1.0
176
     1
 76
     1
176
     1
 77
     6
176
     1
 78
     2
176
     1
 67
     7
176
     1
 79
     5
176
     1
170
     0
176
     1
171
     0
176
     1
290
     0
176
     1
 93
        1
176
     1
 44
0.0
176
     1
173
     0
176
     1
  0
VISUALSTYLE
  5
34
102
{ACAD_REACTORS
330
2A
102
}
102
{ACAD_XDICTIONARY
360
3C5
102
}
330
2A
100
AcDbVisualStyle
  2
Conceptual
 70
     9
177
     2
291
     0
 71
     3
176
     1
 72
     2
176
     1
 73
     0
176
     1
 90
        0
176
     1
 40
0.6
176
     1
 41
30.0
176
     1
 62
     5
 63
     7
421
 16777215
176
     1
 74
     2
176
     1
 91
        2
176
     1
 64
     7
176
     1
 65
   257
176
     1
 75
     1
176
     1
175
     1
176
     1
 42
179.0
176
     1
 92
        8
176
     1
 66
     7
176
     1
 43
1.0
176
     1
 76
     1
176
     1
 77
     6
176
     1
 78
     2
176
     1
 67
     7
176
     1
 79
     3
176
     1
170
     0
176
     1
171
     0
176
     1
290
     0
176
     1
 93
        1
176
     1
 44
0.0
176
     1
173
     0
176
     1
  0
VISUALSTYLE
  5
35
102
{ACAD_REACTORS
330
2A
102
}
102
{ACAD_XDICTIONARY
360
3C7
102
}
330
2A
100
AcDbVisualStyle
  2
Dim
 70
    11
177
     2
291
     1
 71
     2
176
     1
 72
     2
176
     1
 73
     0
176
     1
 90
        0
176
     1
 40
0.6
176
     1
 41
30.0
176
     1
 62
     5
 63
     7
421
 16777215
176
     1
 74
     1
176
     1
 91
        4
176
     1
 64
     7
176
     1
 65
   257
176
     1
 75
     1
176
     1
175
     1
176
     1
 42
1.0
176
     1
 92
        8
176
     1
 66
     7
176
     1
 43
1.0
176
     1
 76
     1
176
     1
 77
     6
176
     1
 78
     2
176
     1
 67
     7
176
     1
 79
     5
176
     1
170
     0
176
     1
171
     0
176
     1
290
     0
176
     1
 93
        1
176
     1
 44
-50.0
176
     1
173
     0
176
     1
  0
VISUALSTYLE
  5
3D
102
{ACAD_REACTORS
330
2A
102
}
102
{ACAD_XDICTIONARY
360
3D7
102
}
330
2A
100
AcDbVisualStyle
  2
EdgeColorOff
 70
    22
177
     2
291
     1
 71
     2
176
     0
 72
     2
176
     0
 73
     0
176
     0
 90
        0
176
     0
 40
0.6
176
     0
 41
30.0
176
     0
 62
     5
 63
     7
421
 16777215
176
     0
 74
     1
176
     0
 91
        4
176
     0
 64
     7
176
     0
 65
   257
176
     0
 75
     1
176
     0
175
     1
176
     0
 42
1.0
176
     0
 92
        8
176
     2
 66
     7
176
     0
 43
1.0
176
     0
 76
     1
176
     0
 77
     6
176
     0
 78
     2
176
     0
 67
     7
176
     0
 79
     5
176
     0
170
     0
176
     0
171
     0
176
     0
290
     0
176
     0
 93
        1
176
     0
 44
0.0
176
     0
173
     0
176
     0
  0
VISUALSTYLE
  5
39
102
{ACAD_REACTORS
330
2A
102
}
102
{ACAD_XDICTIONARY
360
3CF
102
}
330
2A
100
AcDbVisualStyle
  2
Facepattern
 70
    15
177
     2
291
     1
 71
     2
176
     1
 72
     2
176
     1
 73
     0
176
     1
 90
        0
176
     1
 40
0.6
176
     1
 41
30.0
176
     1
 62
     5
 63
     7
421
 16777215
176
     1
 74
     1
176
     1
 91
        4
176
     1
 64
     7
176
     1
 65
   257
176
     1
 75
     1
176
     1
175
     1
176
     1
 42
1.0
176
     1
 92
        8
176
     1
 66
     7
176
     1
 43
1.0
176
     1
 76
     1
176
     1
 77
     6
176
     1
 78
     2
176
     1
 67
     7
176
     1
 79
     5
176
     1
170
     0
176
     1
171
     0
176
     1
290
     0
176
     1
 93
        1
176
     1
 44
0.0
176
     1
173
     0
176
     1
  0
VISUALSTYLE
  5
2B
102
{ACAD_REACTORS
330
2A
102
}
102
{ACAD_XDICTIONARY
360
3B3
102
}
330
2A
100
AcDbVisualStyle
  2
Flat
 70
     0
177
     2
291
     1
 71
     2
176
     1
 72
     1
176
     1
 73
     1
176
     1
 90
        2
176
     1
 40
0.6
176
     1
 41
30.0
176
     1
 62
     5
 63
     7
421
 16777215
176
     1
 74
     0
176
     1
 91
        0
176
     1
 64
     7
176
     1
 65
   257
176
     1
 75
     1
176
     1
175
     1
176
     1
 42
1.0
176
     1
 92
        8
176
     1
 66
     7
176
     1
 43
1.0
176
     1
 76
     1
176
     1
 77
     6
176
     1
 78
     2
176
     1
 67
     7
176
     1
 79
     5
176
     1
170
     0
176
     1
171
     0
176
     1
290
     0
176
     1
 93
       13
176
     1
 44
0.0
176
     1
173
     0
176
     1
  0
VISUALSTYLE
  5
2C
102
{ACAD_REACTORS
330
2A
102
}
102
{ACAD_XDICTIONARY
360
3B5
102
}
330
2A
100
AcDbVisualStyle
  2
FlatWithEdges
 70
     1
177
     2
291
     1
 71
     2
176
     1
 72
     1
176
     1
 73
     1
176
     1
 90
        2
176
     1
 40
0.6
176
     1
 41
30.0
176
     1
 62
     5
 63
     7
421
 16777215
176
     1
 74
     1
176
     1
 91
        0
176
     1
 64
     7
176
     1
 65
   257
176
     1
 75
     1
176
     1
175
     1
176
     1
 42
1.0
176
     1
 92
        0
176
     1
 66
   257
176
     1
 43
1.0
176
     1
 76
     1
176
     1
 77
     6
176
     1
 78
     2
176
     1
 67
     7
176
     1
 79
     5
176
     1
170
     0
176
     1
171
     0
176
     1
290
     0
176
     1
 93
       13
176
     1
 44
0.0
176
     1
173
     0
176
     1
  0
VISUALSTYLE
  5
2D
102
{ACAD_REACTORS
330
2A
102
}
102
{ACAD_XDICTIONARY
360
3B7
102
}
330
2A
100
AcDbVisualStyle
  2
Gouraud
 70
     2
177
     2
291
     1
 71
     2
176
     1
 72
     2
176
     1
 73
     1
176
     1
 90
        2
176
     1
 40
0.6
176
     1
 41
30.0
176
     1
 62
     5
 63
     7
421
 16777215
176
     1
 74
     0
176
     1
 91
        0
176
     1
 64
     7
176
     1
 65
   257
176
     1
 75
     1
176
     1
175
     1
176
     1
 42
1.0
176
     1
 92
        0
176
     1
 66
     7
176
     1
 43
1.0
176
     1
 76
     1
176
     1
 77
     6
176
     1
 78
     2
176
     1
 67
     7
176
     1
 79
     5
176
     1
170
     0
176
     1
171
     0
176
     1
290
     0
176
     1
 93
       13
176
     1
 44
0.0
176
     1
173
     0
176
     1
  0
VISUALSTYLE
  5
2E
102
{ACAD_REACTORS
330
2A
102
}
102
{ACAD_XDICTIONARY
360
3B9
102
}
330
2A
100
AcDbVisualStyle
  2
GouraudWithEdges
 70
     3
177
     2
291
     1
 71
     2
176
     1
 72
     2
176
     1
 73
     1
176
     1
 90
        2
176
     1
 40
0.6
176
     1
 41
30.0
176
     1
 62
     5
 63
     7
421
 16777215
176
     1
 74
     1
176
     1
 91
        0
176
     1
 64
     7
176
     1
 65
   257
176
     1
 75
     1
176
     1
175
     1
176
     1
 42
1.0
176
     1
 92
        0
176
     1
 66
   257
176
     1
 43
1.0
176
     1
 76
     1
176
     1
 77
     6
176
     1
 78
     2
176
     1
 67
     7
176
     1
 79
     5
176
     1
170
     0
176
     1
171
     0
176
     1
290
     0
176
     1
 93
       13
176
     1
 44
0.0
176
     1
173
     0
176
     1
  0
VISUALSTYLE
  5
31
102
{ACAD_REACTORS
330
2A
102
}
102
{ACAD_XDICTIONARY
360
3BF
102
}
330
2A
100
AcDbVisualStyle
  2
Hidden
 70
     6
177
     2
291
     0
 71
     1
176
     1
 72
     2
176
     1
 73
     2
176
     1
 90
        0
176
     1
 40
0.6
176
     1
 41
30.0
176
     1
 62
     5
 63
     7
421
 16777215
176
     1
 74
     2
176
     1
 91
        2
176
     1
 64
     7
176
     1
 65
   257
176
     1
 75
     2
176
     1
175
     1
176
     1
 42
40.0
176
     1
 92
        0
176
     1
 66
   257
176
     1
 43
1.0
176
     1
 76
     1
176
     1
 77
     6
176
     1
 78
     2
176
     1
 67
     7
176
     1
 79
     3
176
     1
170
     0
176
     1
171
     0
176
     1
290
     0
176
     1
 93
        1
176
     1
 44
0.0
176
     1
173
     0
176
     1
  0
VISUALSTYLE
  5
3B
102
{ACAD_REACTORS
330
2A
102
}
102
{ACAD_XDICTIONARY
360
3D3
102
}
330
2A
100
AcDbVisualStyle
  2
JitterOff
 70
    20
177
     2
291
     1
 71
     2
176
     0
 72
     2
176
     0
 73
     0
176
     0
 90
        0
176
     0
 40
0.6
176
     0
 41
30.0
176
     0
 62
     5
 63
     7
421
 16777215
176
     0
 74
     1
176
     0
 91
        4
176
     0
 64
     7
176
     0
 65
   257
176
     0
 75
     1
176
     0
175
     1
176
     0
 42
1.0
176
     0
 92
       10
176
     2
 66
     7
176
     0
 43
1.0
176
     0
 76
     1
176
     0
 77
     6
176
     0
 78
     2
176
     0
 67
     7
176
     0
 79
     5
176
     0
170
     0
176
     0
171
     0
176
     0
290
     0
176
     0
 93
        1
176
     0
 44
0.0
176
     0
173
     0
176
     0
  0
VISUALSTYLE
  5
38
102
{ACAD_REACTORS
330
2A
102
}
102
{ACAD_XDICTIONARY
360
3CD
102
}
330
2A
100
AcDbVisualStyle
  2
Linepattern
 70
    14
177
     2
291
     1
 71
     2
176
     1
 72
     2
176
     1
 73
     0
176
     1
 90
        0
176
     1
 40
0.6
176
     1
 41
30.0
176
     1
 62
     5
 63
     7
421
 16777215
176
     1
 74
     1
176
     1
 91
        4
176
     1
 64
     7
176
     1
 65
   257
176
     1
 75
     7
176
     1
175
     7
176
     1
 42
1.0
176
     1
 92
        8
176
     1
 66
     7
176
     1
 43
1.0
176
     1
 76
     1
176
     1
 77
     6
176
     1
 78
     2
176
     1
 67
     7
176
     1
 79
     5
176
     1
170
     0
176
     1
171
     0
176
     1
290
     0
176
     1
 93
        1
176
     1
 44
0.0
176
     1
173
     0
176
     1
  0
VISUALSTYLE
  5
3C
102
{ACAD_REACTORS
330
2A
102
}
102
{ACAD_XDICTIONARY
360
3D5
102
}
330
2A
100
AcDbVisualStyle
  2
OverhangOff
 70
    21
177
     2
291
     1
 71
     2
176
     0
 72
     2
176
     0
 73
     0
176
     0
 90
        0
176
     0
 40
0.6
176
     0
 41
30.0
176
     0
 62
     5
 63
     7
421
 16777215
176
     0
 74
     1
176
     0
 91
        4
176
     0
 64
     7
176
     0
 65
   257
176
     0
 75
     1
176
     0
175
     1
176
     0
 42
1.0
176
     0
 92
        9
176
     2
 66
     7
176
     0
 43
1.0
176
     0
 76
     1
176
     0
 77
     6
176
     0
 78
     2
176
     0
 67
     7
176
     0
 79
     5
176
     0
170
     0
176
     0
171
     0
176
     0
290
     0
176
     0
 93
        1
176
     0
 44
0.0
176
     0
173
     0
176
     0
  0
VISUALSTYLE
  5
33
102
{ACAD_REACTORS
330
2A
102
}
102
{ACAD_XDICTIONARY
360
3C3
102
}
330
2A
100
AcDbVisualStyle
  2
Realistic
 70
     8
177
     2
291
     0
 71
     2
176
     1
 72
     3
176
     1
 73
     0
176
     1
 90
        2
176
     1
 40
0.6
176
     1
 41
30.0
176
     1
 62
     5
 63
     7
421
 16777215
176
     1
 74
     0
176
     1
 91
        0
176
     1
 64
     7
176
     1
 65
   257
176
     1
 75
     1
176
     1
175
     1
176
     1
 42
1.0
176
     1
 92
        8
176
     1
 66
   257
176
     1
 43
1.0
176
     1
 76
     1
176
     1
 77
     6
176
     1
 78
     2
176
     1
 67
     7
176
     1
 79
     3
176
     1
170
     0
176
     1
171
     0
176
     1
290
     0
176
     1
 93
       13
176
     1
 44
0.0
176
     1
173
     0
176
     1
  0
VISUALSTYLE
  5
42
102
{ACAD_REACTORS
330
2A
102
}
102
{ACAD_XDICTIONARY
360
3E1
102
}
330
2A
100
AcDbVisualStyle
  2
Shaded
 70
    27
177
     2
291
     0
 71
     2
176
     1
 72
     2
176
     1
 73
     1
176
     1
 90
        2
176
     1
 40
0.6
176
     1
 41
30.0
176
     1
 62
     5
 63
     7
421
 16777215
176
     1
 74
     0
176
     1
 91
        4
176
     1
 64
     7
176
     1
 65
   257
176
     1
 75
     1
176
     1
175
     1
176
     1
 42
1.0
176
     1
 92
        8
176
     1
 66
   257
176
     1
 43
1.0
176
     1
 76
     1
176
     1
 77
     6
176
     1
 78
     2
176
     1
 67
     8
425
  7895160
176
     1
 79
     3
176
     1
170
     0
176
     1
171
     0
176
     1
290
     0
176
     1
 93
        5
176
     1
 44
0.0
176
     1
173
     0
176
     1
  0
VISUALSTYLE
  5
41
102
{ACAD_REACTORS
330
2A
102
}
102
{ACAD_XDICTIONARY
360
3DF
102
}
330
2A
100
AcDbVisualStyle
  2
Shaded with edges
 70
    26
177
     2
291
     0
 71
     2
176
     1
 72
     2
176
     1
 73
     1
176
     1
 90
        2
176
     1
 40
0.6
176
     1
 41
30.0
176
     1
 62
     5
 63
     7
421
 16777215
176
     1
 74
     1
176
     1
 91
       10
176
     1
 64
     7
176
     1
 65
   257
176
     1
 75
     2
176
     1
175
     1
176
     1
 42
1.0
176
     1
 92
        8
176
     1
 66
   257
176
     1
 43
1.0
176
     1
 76
     1
176
     1
 77
     6
176
     1
 78
     2
176
     1
 67
     7
176
     1
 79
     3
176
     1
170
     0
176
     1
171
     0
176
     1
290
     0
176
     1
 93
        5
176
     1
 44
0.0
176
     1
173
     0
176
     1
  0
VISUALSTYLE
  5
3E
102
{ACAD_REACTORS
330
2A
102
}
102
{ACAD_XDICTIONARY
360
3D9
102
}
330
2A
100
AcDbVisualStyle
  2
Shades of Gray
 70
    23
177
     2
291
     0
 71
     2
176
     1
 72
     2
176
     1
 73
     3
176
     1
 90
        0
176
     1
 40
0.6
176
     1
 41
30.0
176
     1
 62
     5
 63
     7
421
 16777215
176
     1
 74
     2
176
     1
 91
        2
176
     1
 64
     7
176
     1
 65
     7
176
     1
 75
     1
176
     1
175
     1
176
     1
 42
40.0
176
     1
 92
        8
176
     1
 66
     7
176
     1
 43
1.0
176
     1
 76
     1
176
     1
 77
     6
176
     1
 78
     2
176
     1
 67
     7
176
     1
 79
     3
176
     1
170
     0
176
     1
171
     0
176
     1
290
     0
176
     1
 93
        1
176
     1
 44
0.0
176
     1
173
     0
176
     1
  0
VISUALSTYLE
  5
3F
102
{ACAD_REACTORS
330
2A
102
}
102
{ACAD_XDICTIONARY
360
3DB
102
}
330
2A
100
AcDbVisualStyle
  2
Sketchy
 70
    24
177
     2
291
     0
 71
     1
176
     1
 72
     2
176
     1
 73
     2
176
     1
 90
        0
176
     1
 40
0.6
176
     1
 41
30.0
176
     1
 62
     5
 63
     7
421
 16777215
176
     1
 74
     2
176
     1
 91
        2
176
     1
 64
     7
176
     1
 65
     7
176
     1
 75
     1
176
     1
175
     1
176
     1
 42
40.0
176
     1
 92
       11
176
     1
 66
     7
176
     1
 43
1.0
176
     1
 76
     1
176
     1
 77
     6
176
     1
 78
     2
176
     1
 67
     7
176
     1
 79
     6
176
     1
170
     0
176
     1
171
     0
176
     1
290
     0
176
     1
 93
        1
176
     1
 44
0.0
176
     1
173
     0
176
     1
  0
VISUALSTYLE
  5
37
102
{ACAD_REACTORS
330
2A
102
}
102
{ACAD_XDICTIONARY
360
3CB
102
}
330
2A
100
AcDbVisualStyle
  2
Thicken
 70
    13
177
     2
291
     1
 71
     2
176
     1
 72
     2
176
     1
 73
     0
176
     1
 90
        0
176
     1
 40
0.6
176
     1
 41
30.0
176
     1
 62
     5
 63
     7
421
 16777215
176
     1
 74
     1
176
     1
 91
        4
176
     1
 64
     7
176
     1
 65
   257
176
     1
 75
     1
176
     1
175
     1
176
     1
 42
1.0
176
     1
 92
       12
176
     1
 66
     7
176
     1
 43
1.0
176
     1
 76
     1
176
     1
 77
     6
176
     1
 78
     2
176
     1
 67
     7
176
     1
 79
     5
176
     1
170
     0
176
     1
171
     0
176
     1
290
     0
176
     1
 93
        1
176
     1
 44
0.0
176
     1
173
     0
176
     1
  0
VISUALSTYLE
  5
30
102
{ACAD_REACTORS
330
2A
102
}
102
{ACAD_XDICTIONARY
360
3BD
102
}
330
2A
100
AcDbVisualStyle
  2
Wireframe
 70
     5
177
     2
291
     0
 71
     0
176
     1
 72
     2
176
     1
 73
     0
176
     1
 90
        0
176
     1
 40
0.6
176
     1
 41
30.0
176
     1
 62
     5
 63
     7
421
 16777215
176
     1
 74
     1
176
     1
 91
        4
176
     1
 64
     7
176
     1
 65
   257
176
     1
 75
     1
176
     1
175
     1
176
     1
 42
1.0
176
     1
 92
        0
176
     1
 66
   257
176
     1
 43
1.0
176
     1
 76
     1
176
     1
 77
     6
176
     1
 78
     2
176
     1
 67
     7
176
     1
 79
     3
176
     1
170
     0
176
     1
171
     0
176
     1
290
     0
176
     1
 93
        1
176
     1
 44
0.0
176
     1
173
     0
176
     1
  0
VISUALSTYLE
  5
40
102
{ACAD_REACTORS
330
2A
102
}
102
{ACAD_XDICTIONARY
360
3DD
102
}
330
2A
100
AcDbVisualStyle
  2
X-Ray
 70
    25
177
     2
291
     0
 71
     2
176
     1
 72
     2
176
     1
 73
     1
176
     1
 90
        1
176
     1
 40
0.5
176
     1
 41
30.0
176
     1
 62
     5
 63
     7
421
 16777215
176
     1
 74
     1
176
     1
 91
        0
176
     1
 64
     7
176
     1
 65
   257
176
     1
 75
     1
176
     1
175
     1
176
     1
 42
1.0
176
     1
 92
        8
176
     1
 66
     7
176
     1
 43
1.0
176
     1
 76
     1
176
     1
 77
     6
176
     1
 78
     2
176
     1
 67
     7
176
     1
 79
     3
176
     1
170
     0
176
     1
171
     0
176
     1
290
     0
176
     1
 93
       13
176
     1
 44
0.0
176
     1
173
     0
176
     1
  0
DICTIONARYVAR
  5
3B2
102
{ACAD_REACTORS
330
3B1
102
}
330
3B1
100
DictionaryVariables
280
     0
  1
1:1
  0
DICTIONARYVAR
  5
3E7
102
{ACAD_REACTORS
330
3B1
102
}
330
3B1
100
DictionaryVariables
280
     0
  1
Standard
  0
DICTIONARYVAR
  5
3E6
102
{ACAD_REACTORS
330
3B1
102
}
330
3B1
100
DictionaryVariables
280
     0
  1
Standard
  0
DICTIONARY
  5
3E3
330
6A
100
AcDbDictionary
280
     1
281
     1
  3
ACAD_ROUNDTRIP_2008_TABLESTYLE_CELLSTYLEMAP
360
3E4
  0
DICTIONARY
  5
3BB
330
2F
100
AcDbDictionary
280
     1
281
     1
  3
ACAD_XREC_ROUNDTRIP
360
3BC
  0
DICTIONARY
  5
3C1
330
32
100
AcDbDictionary
280
     1
281
     1
  3
ACAD_XREC_ROUNDTRIP
360
3C2
  0
DICTIONARY
  5
3C9
330
36
100
AcDbDictionary
280
     1
281
     1
  3
ACAD_XREC_ROUNDTRIP
360
3CA
  0
DICTIONARY
  5
3D1
330
3A
100
AcDbDictionary
280
     1
281
     1
  3
ACAD_XREC_ROUNDTRIP
360
3D2
  0
DICTIONARY
  5
3C5
330
34
100
AcDbDictionary
280
     1
281
     1
  3
ACAD_XREC_ROUNDTRIP
360
3C6
  0
DICTIONARY
  5
3C7
330
35
100
AcDbDictionary
280
     1
281
     1
  3
ACAD_XREC_ROUNDTRIP
360
3C8
  0
DICTIONARY
  5
3D7
330
3D
100
AcDbDictionary
280
     1
281
     1
  3
ACAD_XREC_ROUNDTRIP
360
3D8
  0
DICTIONARY
  5
3CF
330
39
100
AcDbDictionary
280
     1
281
     1
  3
ACAD_XREC_ROUNDTRIP
360
3D0
  0
DICTIONARY
  5
3B3
330
2B
100
AcDbDictionary
280
     1
281
     1
  3
ACAD_XREC_ROUNDTRIP
360
3B4
  0
DICTIONARY
  5
3B5
330
2C
100
AcDbDictionary
280
     1
281
     1
  3
ACAD_XREC_ROUNDTRIP
360
3B6
  0
DICTIONARY
  5
3B7
330
2D
100
AcDbDictionary
280
     1
281
     1
  3
ACAD_XREC_ROUNDTRIP
360
3B8
  0
DICTIONARY
  5
3B9
330
2E
100
AcDbDictionary
280
     1
281
     1
  3
ACAD_XREC_ROUNDTRIP
360
3BA
  0
DICTIONARY
  5
3BF
330
31
100
AcDbDictionary
280
     1
281
     1
  3
ACAD_XREC_ROUNDTRIP
360
3C0
  0
DICTIONARY
  5
3D3
330
3B
100
AcDbDictionary
280
     1
281
     1
  3
ACAD_XREC_ROUNDTRIP
360
3D4
  0
DICTIONARY
  5
3CD
330
38
100
AcDbDictionary
280
     1
281
     1
  3
ACAD_XREC_ROUNDTRIP
360
3CE
  0
DICTIONARY
  5
3D5
330
3C
100
AcDbDictionary
280
     1
281
     1
  3
ACAD_XREC_ROUNDTRIP
360
3D6
  0
DICTIONARY
  5
3C3
330
33
100
AcDbDictionary
280
     1
281
     1
  3
ACAD_XREC_ROUNDTRIP
360
3C4
  0
DICTIONARY
  5
3E1
330
42
100
AcDbDictionary
280
     1
281
     1
  3
ACAD_XREC_ROUNDTRIP
360
3E2
  0
DICTIONARY
  5
3DF
330
41
100
AcDbDictionary
280
     1
281
     1
  3
ACAD_XREC_ROUNDTRIP
360
3E0
  0
DICTIONARY
  5
3D9
330
3E
100
AcDbDictionary
280
     1
281
     1
  3
ACAD_XREC_ROUNDTRIP
360
3DA
  0
DICTIONARY
  5
3DB
330
3F
100
AcDbDictionary
280
     1
281
     1
  3
ACAD_XREC_ROUNDTRIP
360
3DC
  0
DICTIONARY
  5
3CB
330
37
100
AcDbDictionary
280
     1
281
     1
  3
ACAD_XREC_ROUNDTRIP
360
3CC
  0
DICTIONARY
  5
3BD
330
30
100
AcDbDictionary
280
     1
281
     1
  3
ACAD_XREC_ROUNDTRIP
360
3BE
  0
DICTIONARY
  5
3DD
330
40
100
AcDbDictionary
280
     1
281
     1
  3
ACAD_XREC_ROUNDTRIP
360
3DE
  0
CELLSTYLEMAP
  5
3E4
102
{ACAD_REACTORS
330
3E3
102
}
330
3E3
100
AcDbCellStyleMap
 90
        3
300
CELLSTYLE
  1
TABLEFORMAT_BEGIN
 90
        5
170
     1
 91
        0
 92
    32768
 62
   257
 93
        1
300
CONTENTFORMAT
  1
CONTENTFORMAT_BEGIN
 90
        0
 91
        0
 92
        4
 93
        0
300

 40
0.0
140
1.0
 94
        5
 62
     0
340
11
144
6.0
309
CONTENTFORMAT_END
171
     1
301
MARGIN
  1
CELLMARGIN_BEGIN
 40
1.5
 40
1.5
 40
1.5
 40
1.5
 40
1.5
 40
1.5
309
CELLMARGIN_END
 94
        6
 95
        1
302
GRIDFORMAT
  1
GRIDFORMAT_BEGIN
 90
        0
 91
        1
 62
     0
 92
       -2
340
14
 93
        0
 40
0.045
309
GRIDFORMAT_END
 95
        2
302
GRIDFORMAT
  1
GRIDFORMAT_BEGIN
 90
        0
 91
        1
 62
     0
 92
       -2
340
14
 93
        0
 40
0.045
309
GRIDFORMAT_END
 95
        4
302
GRIDFORMAT
  1
GRIDFORMAT_BEGIN
 90
        0
 91
        1
 62
     0
 92
       -2
340
14
 93
        0
 40
0.045
309
GRIDFORMAT_END
 95
        8
302
GRIDFORMAT
  1
GRIDFORMAT_BEGIN
 90
        0
 91
        1
 62
     0
 92
       -2
340
14
 93
        0
 40
0.045
309
GRIDFORMAT_END
 95
       16
302
GRIDFORMAT
  1
GRIDFORMAT_BEGIN
 90
        0
 91
        1
 62
     0
 92
       -2
340
14
 93
        0
 40
0.045
309
GRIDFORMAT_END
 95
       32
302
GRIDFORMAT
  1
GRIDFORMAT_BEGIN
 90
        0
 91
        1
 62
     0
 92
       -2
340
14
 93
        0
 40
0.045
309
GRIDFORMAT_END
309
TABLEFORMAT_END
  1
CELLSTYLE_BEGIN
 90
        1
 91
        1
300
_TITLE
309
CELLSTYLE_END
300
CELLSTYLE
  1
TABLEFORMAT_BEGIN
 90
        5
170
     1
 91
        0
 92
        0
 62
   257
 93
        1
300
CONTENTFORMAT
  1
CONTENTFORMAT_BEGIN
 90
        0
 91
        0
 92
        4
 93
        0
300

 40
0.0
140
1.0
 94
        5
 62
     0
340
11
144
4.5
309
CONTENTFORMAT_END
171
     1
301
MARGIN
  1
CELLMARGIN_BEGIN
 40
1.5
 40
1.5
 40
1.5
 40
1.5
 40
1.5
 40
1.5
309
CELLMARGIN_END
 94
        6
 95
        1
302
GRIDFORMAT
  1
GRIDFORMAT_BEGIN
 90
        0
 91
        1
 62
     0
 92
       -2
340
14
 93
        0
 40
0.045
309
GRIDFORMAT_END
 95
        2
302
GRIDFORMAT
  1
GRIDFORMAT_BEGIN
 90
        0
 91
        1
 62
     0
 92
       -2
340
14
 93
        0
 40
0.045
309
GRIDFORMAT_END
 95
        4
302
GRIDFORMAT
  1
GRIDFORMAT_BEGIN
 90
        0
 91
        1
 62
     0
 92
       -2
340
14
 93
        0
 40
0.045
309
GRIDFORMAT_END
 95
        8
302
GRIDFORMAT
  1
GRIDFORMAT_BEGIN
 90
        0
 91
        1
 62
     0
 92
       -2
340
14
 93
        0
 40
0.045
309
GRIDFORMAT_END
 95
       16
302
GRIDFORMAT
  1
GRIDFORMAT_BEGIN
 90
        0
 91
        1
 62
     0
 92
       -2
340
14
 93
        0
 40
0.045
309
GRIDFORMAT_END
 95
       32
302
GRIDFORMAT
  1
GRIDFORMAT_BEGIN
 90
        0
 91
        1
 62
     0
 92
       -2
340
14
 93
        0
 40
0.045
309
GRIDFORMAT_END
309
TABLEFORMAT_END
  1
CELLSTYLE_BEGIN
 90
        2
 91
        1
300
_HEADER
309
CELLSTYLE_END
300
CELLSTYLE
  1
TABLEFORMAT_BEGIN
 90
        5
170
     1
 91
        0
 92
        0
 62
   257
 93
        1
300
CONTENTFORMAT
  1
CONTENTFORMAT_BEGIN
 90
        0
 91
        0
 92
        4
 93
        0
300

 40
0.0
140
1.0
 94
        2
 62
     0
340
11
144
4.5
309
CONTENTFORMAT_END
171
     1
301
MARGIN
  1
CELLMARGIN_BEGIN
 40
1.5
 40
1.5
 40
1.5
 40
1.5
 40
1.5
 40
1.5
309
CELLMARGIN_END
 94
        6
 95
        1
302
GRIDFORMAT
  1
GRIDFORMAT_BEGIN
 90
        0
 91
        1
 62
     0
 92
       -2
340
14
 93
        0
 40
0.045
309
GRIDFORMAT_END
 95
        2
302
GRIDFORMAT
  1
GRIDFORMAT_BEGIN
 90
        0
 91
        1
 62
     0
 92
       -2
340
14
 93
        0
 40
0.045
309
GRIDFORMAT_END
 95
        4
302
GRIDFORMAT
  1
GRIDFORMAT_BEGIN
 90
        0
 91
        1
 62
     0
 92
       -2
340
14
 93
        0
 40
0.045
309
GRIDFORMAT_END
 95
        8
302
GRIDFORMAT
  1
GRIDFORMAT_BEGIN
 90
        0
 91
        1
 62
     0
 92
       -2
340
14
 93
        0
 40
0.045
309
GRIDFORMAT_END
 95
       16
302
GRIDFORMAT
  1
GRIDFORMAT_BEGIN
 90
        0
 91
        1
 62
     0
 92
       -2
340
14
 93
        0
 40
0.045
309
GRIDFORMAT_END
 95
       32
302
GRIDFORMAT
  1
GRIDFORMAT_BEGIN
 90
        0
 91
        1
 62
     0
 92
       -2
340
14
 93
        0
 40
0.045
309
GRIDFORMAT_END
309
TABLEFORMAT_END
  1
CELLSTYLE_BEGIN
 90
        3
 91
        2
300
_DATA
309
CELLSTYLE_END
  0
XRECORD
  5
3BC
102
{ACAD_REACTORS
330
3BB
102
}
330
3BB
100
AcDbXrecord
280
     1
102
RTVSPost2010Prop28
280
     1
102
RTVSPost2010PropOp28
 70
     1
102
RTVSPost2010Prop29
280
     1
102
RTVSPost2010PropOp29
 70
     1
102
RTVSPost2010Prop30
280
     0
102
RTVSPost2010PropOp30
 70
     1
102
RTVSPost2010Prop31
280
     0
102
RTVSPost2010PropOp31
 70
     1
102
RTVSPost2010Prop32
280
     0
102
RTVSPost2010PropOp32
 70
     1
102
RTVSPost2010Prop33
280
     0
102
RTVSPost2010PropOp33
 70
     1
102
RTVSPost2010Prop34
280
     0
102
RTVSPost2010PropOp34
 70
     1
102
RTVSPost2010Prop35
280
     0
102
RTVSPost2010PropOp35
 70
     1
102
RTVSPost2010Prop36
280
     0
102
RTVSPost2010PropOp36
 70
     1
102
RTVSPost2010Prop37
 90
       50
102
RTVSPost2010PropOp37
 70
     1
102
RTVSPost2010Prop38
140
0.0
102
RTVSPost2010PropOp38
 70
     1
102
RTVSPost2010Prop39
140
1.0
102
RTVSPost2010PropOp39
 70
     1
102
RTVSPost2010Prop40
 90
        0
102
RTVSPost2010PropOp40
 70
     1
102
RTVSPost2010Prop41ColorIndex
 90
       18
102
RTVSPost2010Prop41ColorRGB
 90
        0
102
RTVSPost2010PropOp41
 70
     1
102
RTVSPost2010Prop42
 90
       50
102
RTVSPost2010PropOp42
 70
     1
102
RTVSPost2010Prop43
 90
        3
102
RTVSPost2010PropOp43
 70
     1
102
RTVSPost2010Prop44ColorIndex
 90
        5
102
RTVSPost2010Prop44ColorRGB
 90
      255
102
RTVSPost2010PropOp44
 70
     1
102
RTVSPost2010Prop45
280
     0
102
RTVSPost2010PropOp45
 70
     1
102
RTVSPost2010Prop46
 90
       50
102
RTVSPost2010PropOp46
 70
     1
102
RTVSPost2010Prop47
 90
       50
102
RTVSPost2010PropOp47
 70
     1
102
RTVSPost2010Prop48
 90
       50
102
RTVSPost2010PropOp48
 70
     1
102
RTVSPost2010Prop49
280
     0
102
RTVSPost2010PropOp49
 70
     1
102
RTVSPost2010Prop50
 90
       50
102
RTVSPost2010PropOp50
 70
     1
102
RTVSPost2010Prop51ColorIndex
 90
      256
102
RTVSPost2010Prop51ColorRGB
 90
-16777216
102
RTVSPost2010PropOp51
 70
     0
102
RTVSPost2010Prop52
140
1.0
102
RTVSPost2010PropOp52
 70
     0
102
RTVSPost2010Prop53
 90
        2
102
RTVSPost2010PropOp53
 70
     1
102
RTVSPost2010Prop54
  1
strokes_ogs.tif
102
RTVSPost2010PropOp54
 70
     1
102
RTVSPost2010Prop55
280
     0
102
RTVSPost2010PropOp55
 70
     1
102
RTVSPost2010Prop56
140
1.0
102
RTVSPost2010PropOp56
 70
     1
102
RTVSPost2010Prop57
140
1.0
102
RTVSPost2010PropOp57
 70
     1
  0
XRECORD
  5
3C2
102
{ACAD_REACTORS
330
3C1
102
}
330
3C1
100
AcDbXrecord
280
     1
102
RTVSPost2010Prop28
280
     0
102
RTVSPost2010PropOp28
 70
     1
102
RTVSPost2010Prop29
280
     1
102
RTVSPost2010PropOp29
 70
     1
102
RTVSPost2010Prop30
280
     1
102
RTVSPost2010PropOp30
 70
     1
102
RTVSPost2010Prop31
280
     0
102
RTVSPost2010PropOp31
 70
     1
102
RTVSPost2010Prop32
280
     0
102
RTVSPost2010PropOp32
 70
     1
102
RTVSPost2010Prop33
280
     0
102
RTVSPost2010PropOp33
 70
     1
102
RTVSPost2010Prop34
280
     0
102
RTVSPost2010PropOp34
 70
     1
102
RTVSPost2010Prop35
280
     0
102
RTVSPost2010PropOp35
 70
     1
102
RTVSPost2010Prop36
280
     0
102
RTVSPost2010PropOp36
 70
     1
102
RTVSPost2010Prop37
 90
       50
102
RTVSPost2010PropOp37
 70
     1
102
RTVSPost2010Prop38
140
0.0
102
RTVSPost2010PropOp38
 70
     1
102
RTVSPost2010Prop39
140
1.0
102
RTVSPost2010PropOp39
 70
     1
102
RTVSPost2010Prop40
 90
        0
102
RTVSPost2010PropOp40
 70
     1
102
RTVSPost2010Prop41ColorIndex
 90
       18
102
RTVSPost2010Prop41ColorRGB
 90
        0
102
RTVSPost2010PropOp41
 70
     1
102
RTVSPost2010Prop42
 90
       50
102
RTVSPost2010PropOp42
 70
     1
102
RTVSPost2010Prop43
 90
        3
102
RTVSPost2010PropOp43
 70
     1
102
RTVSPost2010Prop44ColorIndex
 90
        5
102
RTVSPost2010Prop44ColorRGB
 90
      255
102
RTVSPost2010PropOp44
 70
     1
102
RTVSPost2010Prop45
280
     0
102
RTVSPost2010PropOp45
 70
     1
102
RTVSPost2010Prop46
 90
       50
102
RTVSPost2010PropOp46
 70
     1
102
RTVSPost2010Prop47
 90
       50
102
RTVSPost2010PropOp47
 70
     1
102
RTVSPost2010Prop48
 90
       50
102
RTVSPost2010PropOp48
 70
     1
102
RTVSPost2010Prop49
280
     0
102
RTVSPost2010PropOp49
 70
     1
102
RTVSPost2010Prop50
 90
       50
102
RTVSPost2010PropOp50
 70
     1
102
RTVSPost2010Prop51ColorIndex
 90
      256
102
RTVSPost2010Prop51ColorRGB
 90
-16777216
102
RTVSPost2010PropOp51
 70
     0
102
RTVSPost2010Prop52
140
1.0
102
RTVSPost2010PropOp52
 70
     0
102
RTVSPost2010Prop53
 90
        2
102
RTVSPost2010PropOp53
 70
     1
102
RTVSPost2010Prop54
  1
strokes_ogs.tif
102
RTVSPost2010PropOp54
 70
     1
102
RTVSPost2010Prop55
280
     0
102
RTVSPost2010PropOp55
 70
     1
102
RTVSPost2010Prop56
140
1.0
102
RTVSPost2010PropOp56
 70
     1
102
RTVSPost2010Prop57
140
1.0
102
RTVSPost2010PropOp57
 70
     1
  0
XRECORD
  5
3CA
102
{ACAD_REACTORS
330
3C9
102
}
330
3C9
100
AcDbXrecord
280
     1
102
RTVSPost2010Prop28
280
     0
102
RTVSPost2010PropOp28
 70
     1
102
RTVSPost2010Prop29
280
     1
102
RTVSPost2010PropOp29
 70
     1
102
RTVSPost2010Prop30
280
     1
102
RTVSPost2010PropOp30
 70
     1
102
RTVSPost2010Prop31
280
     0
102
RTVSPost2010PropOp31
 70
     1
102
RTVSPost2010Prop32
280
     0
102
RTVSPost2010PropOp32
 70
     1
102
RTVSPost2010Prop33
280
     0
102
RTVSPost2010PropOp33
 70
     1
102
RTVSPost2010Prop34
280
     0
102
RTVSPost2010PropOp34
 70
     1
102
RTVSPost2010Prop35
280
     0
102
RTVSPost2010PropOp35
 70
     1
102
RTVSPost2010Prop36
280
     0
102
RTVSPost2010PropOp36
 70
     1
102
RTVSPost2010Prop37
 90
       50
102
RTVSPost2010PropOp37
 70
     1
102
RTVSPost2010Prop38
140
0.0
102
RTVSPost2010PropOp38
 70
     1
102
RTVSPost2010Prop39
140
1.0
102
RTVSPost2010PropOp39
 70
     1
102
RTVSPost2010Prop40
 90
        0
102
RTVSPost2010PropOp40
 70
     1
102
RTVSPost2010Prop41ColorIndex
 90
       18
102
RTVSPost2010Prop41ColorRGB
 90
        0
102
RTVSPost2010PropOp41
 70
     1
102
RTVSPost2010Prop42
 90
       50
102
RTVSPost2010PropOp42
 70
     1
102
RTVSPost2010Prop43
 90
        3
102
RTVSPost2010PropOp43
 70
     1
102
RTVSPost2010Prop44ColorIndex
 90
        5
102
RTVSPost2010Prop44ColorRGB
 90
      255
102
RTVSPost2010PropOp44
 70
     1
102
RTVSPost2010Prop45
280
     0
102
RTVSPost2010PropOp45
 70
     1
102
RTVSPost2010Prop46
 90
       50
102
RTVSPost2010PropOp46
 70
     1
102
RTVSPost2010Prop47
 90
       50
102
RTVSPost2010PropOp47
 70
     1
102
RTVSPost2010Prop48
 90
       50
102
RTVSPost2010PropOp48
 70
     1
102
RTVSPost2010Prop49
280
     0
102
RTVSPost2010PropOp49
 70
     1
102
RTVSPost2010Prop50
 90
       50
102
RTVSPost2010PropOp50
 70
     1
102
RTVSPost2010Prop51ColorIndex
 90
      256
102
RTVSPost2010Prop51ColorRGB
 90
-16777216
102
RTVSPost2010PropOp51
 70
     0
102
RTVSPost2010Prop52
140
1.0
102
RTVSPost2010PropOp52
 70
     0
102
RTVSPost2010Prop53
 90
        2
102
RTVSPost2010PropOp53
 70
     1
102
RTVSPost2010Prop54
  1
strokes_ogs.tif
102
RTVSPost2010PropOp54
 70
     1
102
RTVSPost2010Prop55
280
     0
102
RTVSPost2010PropOp55
 70
     1
102
RTVSPost2010Prop56
140
1.0
102
RTVSPost2010PropOp56
 70
     1
102
RTVSPost2010Prop57
140
1.0
102
RTVSPost2010PropOp57
 70
     1
  0
XRECORD
  5
3D2
102
{ACAD_REACTORS
330
3D1
102
}
330
3D1
100
AcDbXrecord
280
     1
102
RTVSPost2010Prop28
280
     0
102
RTVSPost2010PropOp28
 70
     1
102
RTVSPost2010Prop29
280
     1
102
RTVSPost2010PropOp29
 70
     1
102
RTVSPost2010Prop30
280
     1
102
RTVSPost2010PropOp30
 70
     1
102
RTVSPost2010Prop31
280
     0
102
RTVSPost2010PropOp31
 70
     1
102
RTVSPost2010Prop32
280
     0
102
RTVSPost2010PropOp32
 70
     1
102
RTVSPost2010Prop33
280
     0
102
RTVSPost2010PropOp33
 70
     1
102
RTVSPost2010Prop34
280
     0
102
RTVSPost2010PropOp34
 70
     1
102
RTVSPost2010Prop35
280
     0
102
RTVSPost2010PropOp35
 70
     1
102
RTVSPost2010Prop36
280
     0
102
RTVSPost2010PropOp36
 70
     1
102
RTVSPost2010Prop37
 90
       50
102
RTVSPost2010PropOp37
 70
     1
102
RTVSPost2010Prop38
140
0.0
102
RTVSPost2010PropOp38
 70
     1
102
RTVSPost2010Prop39
140
1.0
102
RTVSPost2010PropOp39
 70
     1
102
RTVSPost2010Prop40
 90
        0
102
RTVSPost2010PropOp40
 70
     1
102
RTVSPost2010Prop41ColorIndex
 90
       18
102
RTVSPost2010Prop41ColorRGB
 90
        0
102
RTVSPost2010PropOp41
 70
     1
102
RTVSPost2010Prop42
 90
       50
102
RTVSPost2010PropOp42
 70
     1
102
RTVSPost2010Prop43
 90
        3
102
RTVSPost2010PropOp43
 70
     1
102
RTVSPost2010Prop44ColorIndex
 90
        5
102
RTVSPost2010Prop44ColorRGB
 90
      255
102
RTVSPost2010PropOp44
 70
     1
102
RTVSPost2010Prop45
280
     0
102
RTVSPost2010PropOp45
 70
     1
102
RTVSPost2010Prop46
 90
       50
102
RTVSPost2010PropOp46
 70
     1
102
RTVSPost2010Prop47
 90
       50
102
RTVSPost2010PropOp47
 70
     1
102
RTVSPost2010Prop48
 90
       50
102
RTVSPost2010PropOp48
 70
     1
102
RTVSPost2010Prop49
280
     0
102
RTVSPost2010PropOp49
 70
     1
102
RTVSPost2010Prop50
 90
       50
102
RTVSPost2010PropOp50
 70
     1
102
RTVSPost2010Prop51ColorIndex
 90
      256
102
RTVSPost2010Prop51ColorRGB
 90
-16777216
102
RTVSPost2010PropOp51
 70
     0
102
RTVSPost2010Prop52
140
1.0
102
RTVSPost2010PropOp52
 70
     0
102
RTVSPost2010Prop53
 90
        2
102
RTVSPost2010PropOp53
 70
     1
102
RTVSPost2010Prop54
  1
strokes_ogs.tif
102
RTVSPost2010PropOp54
 70
     1
102
RTVSPost2010Prop55
280
     0
102
RTVSPost2010PropOp55
 70
     1
102
RTVSPost2010Prop56
140
1.0
102
RTVSPost2010PropOp56
 70
     1
102
RTVSPost2010Prop57
140
1.0
102
RTVSPost2010PropOp57
 70
     1
  0
XRECORD
  5
3C6
102
{ACAD_REACTORS
330
3C5
102
}
330
3C5
100
AcDbXrecord
280
     1
102
RTVSPost2010Prop28
280
     0
102
RTVSPost2010PropOp28
 70
     1
102
RTVSPost2010Prop29
280
     1
102
RTVSPost2010PropOp29
 70
     1
102
RTVSPost2010Prop30
280
     1
102
RTVSPost2010PropOp30
 70
     1
102
RTVSPost2010Prop31
280
     0
102
RTVSPost2010PropOp31
 70
     1
102
RTVSPost2010Prop32
280
     0
102
RTVSPost2010PropOp32
 70
     1
102
RTVSPost2010Prop33
280
     0
102
RTVSPost2010PropOp33
 70
     1
102
RTVSPost2010Prop34
280
     0
102
RTVSPost2010PropOp34
 70
     1
102
RTVSPost2010Prop35
280
     0
102
RTVSPost2010PropOp35
 70
     1
102
RTVSPost2010Prop36
280
     0
102
RTVSPost2010PropOp36
 70
     1
102
RTVSPost2010Prop37
 90
       50
102
RTVSPost2010PropOp37
 70
     1
102
RTVSPost2010Prop38
140
0.0
102
RTVSPost2010PropOp38
 70
     1
102
RTVSPost2010Prop39
140
1.0
102
RTVSPost2010PropOp39
 70
     1
102
RTVSPost2010Prop40
 90
        0
102
RTVSPost2010PropOp40
 70
     1
102
RTVSPost2010Prop41ColorIndex
 90
       18
102
RTVSPost2010Prop41ColorRGB
 90
        0
102
RTVSPost2010PropOp41
 70
     1
102
RTVSPost2010Prop42
 90
       50
102
RTVSPost2010PropOp42
 70
     1
102
RTVSPost2010Prop43
 90
        3
102
RTVSPost2010PropOp43
 70
     1
102
RTVSPost2010Prop44ColorIndex
 90
        5
102
RTVSPost2010Prop44ColorRGB
 90
      255
102
RTVSPost2010PropOp44
 70
     1
102
RTVSPost2010Prop45
280
     0
102
RTVSPost2010PropOp45
 70
     1
102
RTVSPost2010Prop46
 90
       50
102
RTVSPost2010PropOp46
 70
     1
102
RTVSPost2010Prop47
 90
       50
102
RTVSPost2010PropOp47
 70
     1
102
RTVSPost2010Prop48
 90
       50
102
RTVSPost2010PropOp48
 70
     1
102
RTVSPost2010Prop49
280
     0
102
RTVSPost2010PropOp49
 70
     1
102
RTVSPost2010Prop50
 90
       50
102
RTVSPost2010PropOp50
 70
     1
102
RTVSPost2010Prop51ColorIndex
 90
      256
102
RTVSPost2010Prop51ColorRGB
 90
-16777216
102
RTVSPost2010PropOp51
 70
     0
102
RTVSPost2010Prop52
140
1.0
102
RTVSPost2010PropOp52
 70
     0
102
RTVSPost2010Prop53
 90
        2
102
RTVSPost2010PropOp53
 70
     1
102
RTVSPost2010Prop54
  1
strokes_ogs.tif
102
RTVSPost2010PropOp54
 70
     1
102
RTVSPost2010Prop55
280
     0
102
RTVSPost2010PropOp55
 70
     1
102
RTVSPost2010Prop56
140
1.0
102
RTVSPost2010PropOp56
 70
     1
102
RTVSPost2010Prop57
140
1.0
102
RTVSPost2010PropOp57
 70
     1
  0
XRECORD
  5
3C8
102
{ACAD_REACTORS
330
3C7
102
}
330
3C7
100
AcDbXrecord
280
     1
102
RTVSPost2010Prop28
280
     0
102
RTVSPost2010PropOp28
 70
     1
102
RTVSPost2010Prop29
280
     1
102
RTVSPost2010PropOp29
 70
     1
102
RTVSPost2010Prop30
280
     1
102
RTVSPost2010PropOp30
 70
     1
102
RTVSPost2010Prop31
280
     0
102
RTVSPost2010PropOp31
 70
     1
102
RTVSPost2010Prop32
280
     0
102
RTVSPost2010PropOp32
 70
     1
102
RTVSPost2010Prop33
280
     0
102
RTVSPost2010PropOp33
 70
     1
102
RTVSPost2010Prop34
280
     0
102
RTVSPost2010PropOp34
 70
     1
102
RTVSPost2010Prop35
280
     0
102
RTVSPost2010PropOp35
 70
     1
102
RTVSPost2010Prop36
280
     0
102
RTVSPost2010PropOp36
 70
     1
102
RTVSPost2010Prop37
 90
       50
102
RTVSPost2010PropOp37
 70
     1
102
RTVSPost2010Prop38
140
0.0
102
RTVSPost2010PropOp38
 70
     1
102
RTVSPost2010Prop39
140
1.0
102
RTVSPost2010PropOp39
 70
     1
102
RTVSPost2010Prop40
 90
        0
102
RTVSPost2010PropOp40
 70
     1
102
RTVSPost2010Prop41ColorIndex
 90
       18
102
RTVSPost2010Prop41ColorRGB
 90
        0
102
RTVSPost2010PropOp41
 70
     1
102
RTVSPost2010Prop42
 90
       50
102
RTVSPost2010PropOp42
 70
     1
102
RTVSPost2010Prop43
 90
        3
102
RTVSPost2010PropOp43
 70
     1
102
RTVSPost2010Prop44ColorIndex
 90
        5
102
RTVSPost2010Prop44ColorRGB
 90
      255
102
RTVSPost2010PropOp44
 70
     1
102
RTVSPost2010Prop45
280
     0
102
RTVSPost2010PropOp45
 70
     1
102
RTVSPost2010Prop46
 90
       50
102
RTVSPost2010PropOp46
 70
     1
102
RTVSPost2010Prop47
 90
       50
102
RTVSPost2010PropOp47
 70
     1
102
RTVSPost2010Prop48
 90
       50
102
RTVSPost2010PropOp48
 70
     1
102
RTVSPost2010Prop49
280
     0
102
RTVSPost2010PropOp49
 70
     1
102
RTVSPost2010Prop50
 90
       50
102
RTVSPost2010PropOp50
 70
     1
102
RTVSPost2010Prop51ColorIndex
 90
      256
102
RTVSPost2010Prop51ColorRGB
 90
-16777216
102
RTVSPost2010PropOp51
 70
     0
102
RTVSPost2010Prop52
140
1.0
102
RTVSPost2010PropOp52
 70
     0
102
RTVSPost2010Prop53
 90
        2
102
RTVSPost2010PropOp53
 70
     1
102
RTVSPost2010Prop54
  1
strokes_ogs.tif
102
RTVSPost2010PropOp54
 70
     1
102
RTVSPost2010Prop55
280
     0
102
RTVSPost2010PropOp55
 70
     1
102
RTVSPost2010Prop56
140
1.0
102
RTVSPost2010PropOp56
 70
     1
102
RTVSPost2010Prop57
140
1.0
102
RTVSPost2010PropOp57
 70
     1
  0
XRECORD
  5
3D8
102
{ACAD_REACTORS
330
3D7
102
}
330
3D7
100
AcDbXrecord
280
     1
102
RTVSPost2010Prop28
280
     0
102
RTVSPost2010PropOp28
 70
     0
102
RTVSPost2010Prop29
280
     1
102
RTVSPost2010PropOp29
 70
     0
102
RTVSPost2010Prop30
280
     1
102
RTVSPost2010PropOp30
 70
     0
102
RTVSPost2010Prop31
280
     0
102
RTVSPost2010PropOp31
 70
     0
102
RTVSPost2010Prop32
280
     0
102
RTVSPost2010PropOp32
 70
     0
102
RTVSPost2010Prop33
280
     0
102
RTVSPost2010PropOp33
 70
     0
102
RTVSPost2010Prop34
280
     0
102
RTVSPost2010PropOp34
 70
     0
102
RTVSPost2010Prop35
280
     0
102
RTVSPost2010PropOp35
 70
     0
102
RTVSPost2010Prop36
280
     0
102
RTVSPost2010PropOp36
 70
     0
102
RTVSPost2010Prop37
 90
       50
102
RTVSPost2010PropOp37
 70
     0
102
RTVSPost2010Prop38
140
0.0
102
RTVSPost2010PropOp38
 70
     0
102
RTVSPost2010Prop39
140
1.0
102
RTVSPost2010PropOp39
 70
     0
102
RTVSPost2010Prop40
 90
        0
102
RTVSPost2010PropOp40
 70
     0
102
RTVSPost2010Prop41ColorIndex
 90
       18
102
RTVSPost2010Prop41ColorRGB
 90
        0
102
RTVSPost2010PropOp41
 70
     0
102
RTVSPost2010Prop42
 90
       50
102
RTVSPost2010PropOp42
 70
     0
102
RTVSPost2010Prop43
 90
        3
102
RTVSPost2010PropOp43
 70
     0
102
RTVSPost2010Prop44ColorIndex
 90
        5
102
RTVSPost2010Prop44ColorRGB
 90
      255
102
RTVSPost2010PropOp44
 70
     0
102
RTVSPost2010Prop45
280
     0
102
RTVSPost2010PropOp45
 70
     0
102
RTVSPost2010Prop46
 90
       50
102
RTVSPost2010PropOp46
 70
     0
102
RTVSPost2010Prop47
 90
       50
102
RTVSPost2010PropOp47
 70
     0
102
RTVSPost2010Prop48
 90
       50
102
RTVSPost2010PropOp48
 70
     0
102
RTVSPost2010Prop49
280
     0
102
RTVSPost2010PropOp49
 70
     0
102
RTVSPost2010Prop50
 90
       50
102
RTVSPost2010PropOp50
 70
     0
102
RTVSPost2010Prop51ColorIndex
 90
      256
102
RTVSPost2010Prop51ColorRGB
 90
-16777216
102
RTVSPost2010PropOp51
 70
     0
102
RTVSPost2010Prop52
140
1.0
102
RTVSPost2010PropOp52
 70
     0
102
RTVSPost2010Prop53
 90
        2
102
RTVSPost2010PropOp53
 70
     0
102
RTVSPost2010Prop54
  1
strokes_ogs.tif
102
RTVSPost2010PropOp54
 70
     0
102
RTVSPost2010Prop55
280
     0
102
RTVSPost2010PropOp55
 70
     0
102
RTVSPost2010Prop56
140
1.0
102
RTVSPost2010PropOp56
 70
     0
102
RTVSPost2010Prop57
140
1.0
102
RTVSPost2010PropOp57
 70
     0
  0
XRECORD
  5
3D0
102
{ACAD_REACTORS
330
3CF
102
}
330
3CF
100
AcDbXrecord
280
     1
102
RTVSPost2010Prop28
280
     0
102
RTVSPost2010PropOp28
 70
     1
102
RTVSPost2010Prop29
280
     1
102
RTVSPost2010PropOp29
 70
     1
102
RTVSPost2010Prop30
280
     1
102
RTVSPost2010PropOp30
 70
     1
102
RTVSPost2010Prop31
280
     0
102
RTVSPost2010PropOp31
 70
     1
102
RTVSPost2010Prop32
280
     0
102
RTVSPost2010PropOp32
 70
     1
102
RTVSPost2010Prop33
280
     0
102
RTVSPost2010PropOp33
 70
     1
102
RTVSPost2010Prop34
280
     0
102
RTVSPost2010PropOp34
 70
     1
102
RTVSPost2010Prop35
280
     0
102
RTVSPost2010PropOp35
 70
     1
102
RTVSPost2010Prop36
280
     0
102
RTVSPost2010PropOp36
 70
     1
102
RTVSPost2010Prop37
 90
       50
102
RTVSPost2010PropOp37
 70
     1
102
RTVSPost2010Prop38
140
0.0
102
RTVSPost2010PropOp38
 70
     1
102
RTVSPost2010Prop39
140
1.0
102
RTVSPost2010PropOp39
 70
     1
102
RTVSPost2010Prop40
 90
        0
102
RTVSPost2010PropOp40
 70
     1
102
RTVSPost2010Prop41ColorIndex
 90
       18
102
RTVSPost2010Prop41ColorRGB
 90
        0
102
RTVSPost2010PropOp41
 70
     1
102
RTVSPost2010Prop42
 90
       50
102
RTVSPost2010PropOp42
 70
     1
102
RTVSPost2010Prop43
 90
        3
102
RTVSPost2010PropOp43
 70
     1
102
RTVSPost2010Prop44ColorIndex
 90
        5
102
RTVSPost2010Prop44ColorRGB
 90
      255
102
RTVSPost2010PropOp44
 70
     1
102
RTVSPost2010Prop45
280
     0
102
RTVSPost2010PropOp45
 70
     1
102
RTVSPost2010Prop46
 90
       50
102
RTVSPost2010PropOp46
 70
     1
102
RTVSPost2010Prop47
 90
       50
102
RTVSPost2010PropOp47
 70
     1
102
RTVSPost2010Prop48
 90
       50
102
RTVSPost2010PropOp48
 70
     1
102
RTVSPost2010Prop49
280
     0
102
RTVSPost2010PropOp49
 70
     1
102
RTVSPost2010Prop50
 90
       50
102
RTVSPost2010PropOp50
 70
     1
102
RTVSPost2010Prop51ColorIndex
 90
      256
102
RTVSPost2010Prop51ColorRGB
 90
-16777216
102
RTVSPost2010PropOp51
 70
     0
102
RTVSPost2010Prop52
140
1.0
102
RTVSPost2010PropOp52
 70
     0
102
RTVSPost2010Prop53
 90
        2
102
RTVSPost2010PropOp53
 70
     1
102
RTVSPost2010Prop54
  1
strokes_ogs.tif
102
RTVSPost2010PropOp54
 70
     1
102
RTVSPost2010Prop55
280
     0
102
RTVSPost2010PropOp55
 70
     1
102
RTVSPost2010Prop56
140
1.0
102
RTVSPost2010PropOp56
 70
     1
102
RTVSPost2010Prop57
140
1.0
102
RTVSPost2010PropOp57
 70
     1
  0
XRECORD
  5
3B4
102
{ACAD_REACTORS
330
3B3
102
}
330
3B3
100
AcDbXrecord
280
     1
102
RTVSPost2010Prop28
280
     0
102
RTVSPost2010PropOp28
 70
     1
102
RTVSPost2010Prop29
280
     1
102
RTVSPost2010PropOp29
 70
     1
102
RTVSPost2010Prop30
280
     1
102
RTVSPost2010PropOp30
 70
     1
102
RTVSPost2010Prop31
280
     0
102
RTVSPost2010PropOp31
 70
     1
102
RTVSPost2010Prop32
280
     0
102
RTVSPost2010PropOp32
 70
     1
102
RTVSPost2010Prop33
280
     0
102
RTVSPost2010PropOp33
 70
     1
102
RTVSPost2010Prop34
280
     0
102
RTVSPost2010PropOp34
 70
     1
102
RTVSPost2010Prop35
280
     0
102
RTVSPost2010PropOp35
 70
     1
102
RTVSPost2010Prop36
280
     0
102
RTVSPost2010PropOp36
 70
     1
102
RTVSPost2010Prop37
 90
       50
102
RTVSPost2010PropOp37
 70
     1
102
RTVSPost2010Prop38
140
0.0
102
RTVSPost2010PropOp38
 70
     1
102
RTVSPost2010Prop39
140
1.0
102
RTVSPost2010PropOp39
 70
     1
102
RTVSPost2010Prop40
 90
        0
102
RTVSPost2010PropOp40
 70
     1
102
RTVSPost2010Prop41ColorIndex
 90
       18
102
RTVSPost2010Prop41ColorRGB
 90
        0
102
RTVSPost2010PropOp41
 70
     1
102
RTVSPost2010Prop42
 90
       50
102
RTVSPost2010PropOp42
 70
     1
102
RTVSPost2010Prop43
 90
        3
102
RTVSPost2010PropOp43
 70
     1
102
RTVSPost2010Prop44ColorIndex
 90
        5
102
RTVSPost2010Prop44ColorRGB
 90
      255
102
RTVSPost2010PropOp44
 70
     1
102
RTVSPost2010Prop45
280
     0
102
RTVSPost2010PropOp45
 70
     1
102
RTVSPost2010Prop46
 90
       50
102
RTVSPost2010PropOp46
 70
     1
102
RTVSPost2010Prop47
 90
       50
102
RTVSPost2010PropOp47
 70
     1
102
RTVSPost2010Prop48
 90
       50
102
RTVSPost2010PropOp48
 70
     1
102
RTVSPost2010Prop49
280
     0
102
RTVSPost2010PropOp49
 70
     1
102
RTVSPost2010Prop50
 90
       50
102
RTVSPost2010PropOp50
 70
     1
102
RTVSPost2010Prop51ColorIndex
 90
      256
102
RTVSPost2010Prop51ColorRGB
 90
-16777216
102
RTVSPost2010PropOp51
 70
     0
102
RTVSPost2010Prop52
140
1.0
102
RTVSPost2010PropOp52
 70
     0
102
RTVSPost2010Prop53
 90
        2
102
RTVSPost2010PropOp53
 70
     1
102
RTVSPost2010Prop54
  1
strokes_ogs.tif
102
RTVSPost2010PropOp54
 70
     1
102
RTVSPost2010Prop55
280
     0
102
RTVSPost2010PropOp55
 70
     1
102
RTVSPost2010Prop56
140
1.0
102
RTVSPost2010PropOp56
 70
     1
102
RTVSPost2010Prop57
140
1.0
102
RTVSPost2010PropOp57
 70
     1
  0
XRECORD
  5
3B6
102
{ACAD_REACTORS
330
3B5
102
}
330
3B5
100
AcDbXrecord
280
     1
102
RTVSPost2010Prop28
280
     0
102
RTVSPost2010PropOp28
 70
     1
102
RTVSPost2010Prop29
280
     1
102
RTVSPost2010PropOp29
 70
     1
102
RTVSPost2010Prop30
280
     1
102
RTVSPost2010PropOp30
 70
     1
102
RTVSPost2010Prop31
280
     0
102
RTVSPost2010PropOp31
 70
     1
102
RTVSPost2010Prop32
280
     0
102
RTVSPost2010PropOp32
 70
     1
102
RTVSPost2010Prop33
280
     0
102
RTVSPost2010PropOp33
 70
     1
102
RTVSPost2010Prop34
280
     0
102
RTVSPost2010PropOp34
 70
     1
102
RTVSPost2010Prop35
280
     0
102
RTVSPost2010PropOp35
 70
     1
102
RTVSPost2010Prop36
280
     0
102
RTVSPost2010PropOp36
 70
     1
102
RTVSPost2010Prop37
 90
       50
102
RTVSPost2010PropOp37
 70
     1
102
RTVSPost2010Prop38
140
0.0
102
RTVSPost2010PropOp38
 70
     1
102
RTVSPost2010Prop39
140
1.0
102
RTVSPost2010PropOp39
 70
     1
102
RTVSPost2010Prop40
 90
        0
102
RTVSPost2010PropOp40
 70
     1
102
RTVSPost2010Prop41ColorIndex
 90
       18
102
RTVSPost2010Prop41ColorRGB
 90
        0
102
RTVSPost2010PropOp41
 70
     1
102
RTVSPost2010Prop42
 90
       50
102
RTVSPost2010PropOp42
 70
     1
102
RTVSPost2010Prop43
 90
        3
102
RTVSPost2010PropOp43
 70
     1
102
RTVSPost2010Prop44ColorIndex
 90
        5
102
RTVSPost2010Prop44ColorRGB
 90
      255
102
RTVSPost2010PropOp44
 70
     1
102
RTVSPost2010Prop45
280
     0
102
RTVSPost2010PropOp45
 70
     1
102
RTVSPost2010Prop46
 90
       50
102
RTVSPost2010PropOp46
 70
     1
102
RTVSPost2010Prop47
 90
       50
102
RTVSPost2010PropOp47
 70
     1
102
RTVSPost2010Prop48
 90
       50
102
RTVSPost2010PropOp48
 70
     1
102
RTVSPost2010Prop49
280
     0
102
RTVSPost2010PropOp49
 70
     1
102
RTVSPost2010Prop50
 90
       50
102
RTVSPost2010PropOp50
 70
     1
102
RTVSPost2010Prop51ColorIndex
 90
      256
102
RTVSPost2010Prop51ColorRGB
 90
-16777216
102
RTVSPost2010PropOp51
 70
     0
102
RTVSPost2010Prop52
140
1.0
102
RTVSPost2010PropOp52
 70
     0
102
RTVSPost2010Prop53
 90
        2
102
RTVSPost2010PropOp53
 70
     1
102
RTVSPost2010Prop54
  1
strokes_ogs.tif
102
RTVSPost2010PropOp54
 70
     1
102
RTVSPost2010Prop55
280
     0
102
RTVSPost2010PropOp55
 70
     1
102
RTVSPost2010Prop56
140
1.0
102
RTVSPost2010PropOp56
 70
     1
102
RTVSPost2010Prop57
140
1.0
102
RTVSPost2010PropOp57
 70
     1
  0
XRECORD
  5
3B8
102
{ACAD_REACTORS
330
3B7
102
}
330
3B7
100
AcDbXrecord
280
     1
102
RTVSPost2010Prop28
280
     0
102
RTVSPost2010PropOp28
 70
     1
102
RTVSPost2010Prop29
280
     1
102
RTVSPost2010PropOp29
 70
     1
102
RTVSPost2010Prop30
280
     1
102
RTVSPost2010PropOp30
 70
     1
102
RTVSPost2010Prop31
280
     0
102
RTVSPost2010PropOp31
 70
     1
102
RTVSPost2010Prop32
280
     0
102
RTVSPost2010PropOp32
 70
     1
102
RTVSPost2010Prop33
280
     0
102
RTVSPost2010PropOp33
 70
     1
102
RTVSPost2010Prop34
280
     0
102
RTVSPost2010PropOp34
 70
     1
102
RTVSPost2010Prop35
280
     0
102
RTVSPost2010PropOp35
 70
     1
102
RTVSPost2010Prop36
280
     0
102
RTVSPost2010PropOp36
 70
     1
102
RTVSPost2010Prop37
 90
       50
102
RTVSPost2010PropOp37
 70
     1
102
RTVSPost2010Prop38
140
0.0
102
RTVSPost2010PropOp38
 70
     1
102
RTVSPost2010Prop39
140
1.0
102
RTVSPost2010PropOp39
 70
     1
102
RTVSPost2010Prop40
 90
        0
102
RTVSPost2010PropOp40
 70
     1
102
RTVSPost2010Prop41ColorIndex
 90
       18
102
RTVSPost2010Prop41ColorRGB
 90
        0
102
RTVSPost2010PropOp41
 70
     1
102
RTVSPost2010Prop42
 90
       50
102
RTVSPost2010PropOp42
 70
     1
102
RTVSPost2010Prop43
 90
        3
102
RTVSPost2010PropOp43
 70
     1
102
RTVSPost2010Prop44ColorIndex
 90
        5
102
RTVSPost2010Prop44ColorRGB
 90
      255
102
RTVSPost2010PropOp44
 70
     1
102
RTVSPost2010Prop45
280
     0
102
RTVSPost2010PropOp45
 70
     1
102
RTVSPost2010Prop46
 90
       50
102
RTVSPost2010PropOp46
 70
     1
102
RTVSPost2010Prop47
 90
       50
102
RTVSPost2010PropOp47
 70
     1
102
RTVSPost2010Prop48
 90
       50
102
RTVSPost2010PropOp48
 70
     1
102
RTVSPost2010Prop49
280
     0
102
RTVSPost2010PropOp49
 70
     1
102
RTVSPost2010Prop50
 90
       50
102
RTVSPost2010PropOp50
 70
     1
102
RTVSPost2010Prop51ColorIndex
 90
      256
102
RTVSPost2010Prop51ColorRGB
 90
-16777216
102
RTVSPost2010PropOp51
 70
     0
102
RTVSPost2010Prop52
140
1.0
102
RTVSPost2010PropOp52
 70
     0
102
RTVSPost2010Prop53
 90
        2
102
RTVSPost2010PropOp53
 70
     1
102
RTVSPost2010Prop54
  1
strokes_ogs.tif
102
RTVSPost2010PropOp54
 70
     1
102
RTVSPost2010Prop55
280
     0
102
RTVSPost2010PropOp55
 70
     1
102
RTVSPost2010Prop56
140
1.0
102
RTVSPost2010PropOp56
 70
     1
102
RTVSPost2010Prop57
140
1.0
102
RTVSPost2010PropOp57
 70
     1
  0
XRECORD
  5
3BA
102
{ACAD_REACTORS
330
3B9
102
}
330
3B9
100
AcDbXrecord
280
     1
102
RTVSPost2010Prop28
280
     0
102
RTVSPost2010PropOp28
 70
     1
102
RTVSPost2010Prop29
280
     1
102
RTVSPost2010PropOp29
 70
     1
102
RTVSPost2010Prop30
280
     1
102
RTVSPost2010PropOp30
 70
     1
102
RTVSPost2010Prop31
280
     0
102
RTVSPost2010PropOp31
 70
     1
102
RTVSPost2010Prop32
280
     0
102
RTVSPost2010PropOp32
 70
     1
102
RTVSPost2010Prop33
280
     0
102
RTVSPost2010PropOp33
 70
     1
102
RTVSPost2010Prop34
280
     0
102
RTVSPost2010PropOp34
 70
     1
102
RTVSPost2010Prop35
280
     0
102
RTVSPost2010PropOp35
 70
     1
102
RTVSPost2010Prop36
280
     0
102
RTVSPost2010PropOp36
 70
     1
102
RTVSPost2010Prop37
 90
       50
102
RTVSPost2010PropOp37
 70
     1
102
RTVSPost2010Prop38
140
0.0
102
RTVSPost2010PropOp38
 70
     1
102
RTVSPost2010Prop39
140
1.0
102
RTVSPost2010PropOp39
 70
     1
102
RTVSPost2010Prop40
 90
        0
102
RTVSPost2010PropOp40
 70
     1
102
RTVSPost2010Prop41ColorIndex
 90
       18
102
RTVSPost2010Prop41ColorRGB
 90
        0
102
RTVSPost2010PropOp41
 70
     1
102
RTVSPost2010Prop42
 90
       50
102
RTVSPost2010PropOp42
 70
     1
102
RTVSPost2010Prop43
 90
        3
102
RTVSPost2010PropOp43
 70
     1
102
RTVSPost2010Prop44ColorIndex
 90
        5
102
RTVSPost2010Prop44ColorRGB
 90
      255
102
RTVSPost2010PropOp44
 70
     1
102
RTVSPost2010Prop45
280
     0
102
RTVSPost2010PropOp45
 70
     1
102
RTVSPost2010Prop46
 90
       50
102
RTVSPost2010PropOp46
 70
     1
102
RTVSPost2010Prop47
 90
       50
102
RTVSPost2010PropOp47
 70
     1
102
RTVSPost2010Prop48
 90
       50
102
RTVSPost2010PropOp48
 70
     1
102
RTVSPost2010Prop49
280
     0
102
RTVSPost2010PropOp49
 70
     1
102
RTVSPost2010Prop50
 90
       50
102
RTVSPost2010PropOp50
 70
     1
102
RTVSPost2010Prop51ColorIndex
 90
      256
102
RTVSPost2010Prop51ColorRGB
 90
-16777216
102
RTVSPost2010PropOp51
 70
     0
102
RTVSPost2010Prop52
140
1.0
102
RTVSPost2010PropOp52
 70
     0
102
RTVSPost2010Prop53
 90
        2
102
RTVSPost2010PropOp53
 70
     1
102
RTVSPost2010Prop54
  1
strokes_ogs.tif
102
RTVSPost2010PropOp54
 70
     1
102
RTVSPost2010Prop55
280
     0
102
RTVSPost2010PropOp55
 70
     1
102
RTVSPost2010Prop56
140
1.0
102
RTVSPost2010PropOp56
 70
     1
102
RTVSPost2010Prop57
140
1.0
102
RTVSPost2010PropOp57
 70
     1
  0
XRECORD
  5
3C0
102
{ACAD_REACTORS
330
3BF
102
}
330
3BF
100
AcDbXrecord
280
     1
102
RTVSPost2010Prop28
280
     0
102
RTVSPost2010PropOp28
 70
     1
102
RTVSPost2010Prop29
280
     1
102
RTVSPost2010PropOp29
 70
     1
102
RTVSPost2010Prop30
280
     1
102
RTVSPost2010PropOp30
 70
     1
102
RTVSPost2010Prop31
280
     0
102
RTVSPost2010PropOp31
 70
     1
102
RTVSPost2010Prop32
280
     0
102
RTVSPost2010PropOp32
 70
     1
102
RTVSPost2010Prop33
280
     0
102
RTVSPost2010PropOp33
 70
     1
102
RTVSPost2010Prop34
280
     0
102
RTVSPost2010PropOp34
 70
     1
102
RTVSPost2010Prop35
280
     0
102
RTVSPost2010PropOp35
 70
     1
102
RTVSPost2010Prop36
280
     0
102
RTVSPost2010PropOp36
 70
     1
102
RTVSPost2010Prop37
 90
       50
102
RTVSPost2010PropOp37
 70
     1
102
RTVSPost2010Prop38
140
0.0
102
RTVSPost2010PropOp38
 70
     1
102
RTVSPost2010Prop39
140
1.0
102
RTVSPost2010PropOp39
 70
     1
102
RTVSPost2010Prop40
 90
        0
102
RTVSPost2010PropOp40
 70
     1
102
RTVSPost2010Prop41ColorIndex
 90
       18
102
RTVSPost2010Prop41ColorRGB
 90
        0
102
RTVSPost2010PropOp41
 70
     1
102
RTVSPost2010Prop42
 90
       50
102
RTVSPost2010PropOp42
 70
     1
102
RTVSPost2010Prop43
 90
        3
102
RTVSPost2010PropOp43
 70
     1
102
RTVSPost2010Prop44ColorIndex
 90
        5
102
RTVSPost2010Prop44ColorRGB
 90
      255
102
RTVSPost2010PropOp44
 70
     1
102
RTVSPost2010Prop45
280
     0
102
RTVSPost2010PropOp45
 70
     1
102
RTVSPost2010Prop46
 90
       50
102
RTVSPost2010PropOp46
 70
     1
102
RTVSPost2010Prop47
 90
       50
102
RTVSPost2010PropOp47
 70
     1
102
RTVSPost2010Prop48
 90
       50
102
RTVSPost2010PropOp48
 70
     1
102
RTVSPost2010Prop49
280
     0
102
RTVSPost2010PropOp49
 70
     1
102
RTVSPost2010Prop50
 90
       50
102
RTVSPost2010PropOp50
 70
     1
102
RTVSPost2010Prop51ColorIndex
 90
      256
102
RTVSPost2010Prop51ColorRGB
 90
-16777216
102
RTVSPost2010PropOp51
 70
     0
102
RTVSPost2010Prop52
140
1.0
102
RTVSPost2010PropOp52
 70
     0
102
RTVSPost2010Prop53
 90
        2
102
RTVSPost2010PropOp53
 70
     1
102
RTVSPost2010Prop54
  1
strokes_ogs.tif
102
RTVSPost2010PropOp54
 70
     1
102
RTVSPost2010Prop55
280
     0
102
RTVSPost2010PropOp55
 70
     1
102
RTVSPost2010Prop56
140
1.0
102
RTVSPost2010PropOp56
 70
     1
102
RTVSPost2010Prop57
140
1.0
102
RTVSPost2010PropOp57
 70
     1
  0
XRECORD
  5
3D4
102
{ACAD_REACTORS
330
3D3
102
}
330
3D3
100
AcDbXrecord
280
     1
102
RTVSPost2010Prop28
280
     0
102
RTVSPost2010PropOp28
 70
     0
102
RTVSPost2010Prop29
280
     1
102
RTVSPost2010PropOp29
 70
     0
102
RTVSPost2010Prop30
280
     1
102
RTVSPost2010PropOp30
 70
     0
102
RTVSPost2010Prop31
280
     0
102
RTVSPost2010PropOp31
 70
     0
102
RTVSPost2010Prop32
280
     0
102
RTVSPost2010PropOp32
 70
     0
102
RTVSPost2010Prop33
280
     0
102
RTVSPost2010PropOp33
 70
     0
102
RTVSPost2010Prop34
280
     0
102
RTVSPost2010PropOp34
 70
     0
102
RTVSPost2010Prop35
280
     0
102
RTVSPost2010PropOp35
 70
     0
102
RTVSPost2010Prop36
280
     0
102
RTVSPost2010PropOp36
 70
     0
102
RTVSPost2010Prop37
 90
       50
102
RTVSPost2010PropOp37
 70
     0
102
RTVSPost2010Prop38
140
0.0
102
RTVSPost2010PropOp38
 70
     0
102
RTVSPost2010Prop39
140
1.0
102
RTVSPost2010PropOp39
 70
     0
102
RTVSPost2010Prop40
 90
        0
102
RTVSPost2010PropOp40
 70
     0
102
RTVSPost2010Prop41ColorIndex
 90
       18
102
RTVSPost2010Prop41ColorRGB
 90
        0
102
RTVSPost2010PropOp41
 70
     0
102
RTVSPost2010Prop42
 90
       50
102
RTVSPost2010PropOp42
 70
     0
102
RTVSPost2010Prop43
 90
        3
102
RTVSPost2010PropOp43
 70
     0
102
RTVSPost2010Prop44ColorIndex
 90
        5
102
RTVSPost2010Prop44ColorRGB
 90
      255
102
RTVSPost2010PropOp44
 70
     0
102
RTVSPost2010Prop45
280
     0
102
RTVSPost2010PropOp45
 70
     0
102
RTVSPost2010Prop46
 90
       50
102
RTVSPost2010PropOp46
 70
     0
102
RTVSPost2010Prop47
 90
       50
102
RTVSPost2010PropOp47
 70
     0
102
RTVSPost2010Prop48
 90
       50
102
RTVSPost2010PropOp48
 70
     0
102
RTVSPost2010Prop49
280
     0
102
RTVSPost2010PropOp49
 70
     0
102
RTVSPost2010Prop50
 90
       50
102
RTVSPost2010PropOp50
 70
     0
102
RTVSPost2010Prop51ColorIndex
 90
      256
102
RTVSPost2010Prop51ColorRGB
 90
-16777216
102
RTVSPost2010PropOp51
 70
     0
102
RTVSPost2010Prop52
140
1.0
102
RTVSPost2010PropOp52
 70
     0
102
RTVSPost2010Prop53
 90
        2
102
RTVSPost2010PropOp53
 70
     0
102
RTVSPost2010Prop54
  1
strokes_ogs.tif
102
RTVSPost2010PropOp54
 70
     0
102
RTVSPost2010Prop55
280
     0
102
RTVSPost2010PropOp55
 70
     0
102
RTVSPost2010Prop56
140
1.0
102
RTVSPost2010PropOp56
 70
     0
102
RTVSPost2010Prop57
140
1.0
102
RTVSPost2010PropOp57
 70
     0
  0
XRECORD
  5
3CE
102
{ACAD_REACTORS
330
3CD
102
}
330
3CD
100
AcDbXrecord
280
     1
102
RTVSPost2010Prop28
280
     0
102
RTVSPost2010PropOp28
 70
     1
102
RTVSPost2010Prop29
280
     1
102
RTVSPost2010PropOp29
 70
     1
102
RTVSPost2010Prop30
280
     1
102
RTVSPost2010PropOp30
 70
     1
102
RTVSPost2010Prop31
280
     0
102
RTVSPost2010PropOp31
 70
     1
102
RTVSPost2010Prop32
280
     0
102
RTVSPost2010PropOp32
 70
     1
102
RTVSPost2010Prop33
280
     0
102
RTVSPost2010PropOp33
 70
     1
102
RTVSPost2010Prop34
280
     0
102
RTVSPost2010PropOp34
 70
     1
102
RTVSPost2010Prop35
280
     0
102
RTVSPost2010PropOp35
 70
     1
102
RTVSPost2010Prop36
280
     0
102
RTVSPost2010PropOp36
 70
     1
102
RTVSPost2010Prop37
 90
       50
102
RTVSPost2010PropOp37
 70
     1
102
RTVSPost2010Prop38
140
0.0
102
RTVSPost2010PropOp38
 70
     1
102
RTVSPost2010Prop39
140
1.0
102
RTVSPost2010PropOp39
 70
     1
102
RTVSPost2010Prop40
 90
        0
102
RTVSPost2010PropOp40
 70
     1
102
RTVSPost2010Prop41ColorIndex
 90
       18
102
RTVSPost2010Prop41ColorRGB
 90
        0
102
RTVSPost2010PropOp41
 70
     1
102
RTVSPost2010Prop42
 90
       50
102
RTVSPost2010PropOp42
 70
     1
102
RTVSPost2010Prop43
 90
        3
102
RTVSPost2010PropOp43
 70
     1
102
RTVSPost2010Prop44ColorIndex
 90
        5
102
RTVSPost2010Prop44ColorRGB
 90
      255
102
RTVSPost2010PropOp44
 70
     1
102
RTVSPost2010Prop45
280
     0
102
RTVSPost2010PropOp45
 70
     1
102
RTVSPost2010Prop46
 90
       50
102
RTVSPost2010PropOp46
 70
     1
102
RTVSPost2010Prop47
 90
       50
102
RTVSPost2010PropOp47
 70
     1
102
RTVSPost2010Prop48
 90
       50
102
RTVSPost2010PropOp48
 70
     1
102
RTVSPost2010Prop49
280
     0
102
RTVSPost2010PropOp49
 70
     1
102
RTVSPost2010Prop50
 90
       50
102
RTVSPost2010PropOp50
 70
     1
102
RTVSPost2010Prop51ColorIndex
 90
      256
102
RTVSPost2010Prop51ColorRGB
 90
-16777216
102
RTVSPost2010PropOp51
 70
     0
102
RTVSPost2010Prop52
140
1.0
102
RTVSPost2010PropOp52
 70
     0
102
RTVSPost2010Prop53
 90
        2
102
RTVSPost2010PropOp53
 70
     1
102
RTVSPost2010Prop54
  1
strokes_ogs.tif
102
RTVSPost2010PropOp54
 70
     1
102
RTVSPost2010Prop55
280
     0
102
RTVSPost2010PropOp55
 70
     1
102
RTVSPost2010Prop56
140
1.0
102
RTVSPost2010PropOp56
 70
     1
102
RTVSPost2010Prop57
140
1.0
102
RTVSPost2010PropOp57
 70
     1
  0
XRECORD
  5
3D6
102
{ACAD_REACTORS
330
3D5
102
}
330
3D5
100
AcDbXrecord
280
     1
102
RTVSPost2010Prop28
280
     0
102
RTVSPost2010PropOp28
 70
     0
102
RTVSPost2010Prop29
280
     1
102
RTVSPost2010PropOp29
 70
     0
102
RTVSPost2010Prop30
280
     1
102
RTVSPost2010PropOp30
 70
     0
102
RTVSPost2010Prop31
280
     0
102
RTVSPost2010PropOp31
 70
     0
102
RTVSPost2010Prop32
280
     0
102
RTVSPost2010PropOp32
 70
     0
102
RTVSPost2010Prop33
280
     0
102
RTVSPost2010PropOp33
 70
     0
102
RTVSPost2010Prop34
280
     0
102
RTVSPost2010PropOp34
 70
     0
102
RTVSPost2010Prop35
280
     0
102
RTVSPost2010PropOp35
 70
     0
102
RTVSPost2010Prop36
280
     0
102
RTVSPost2010PropOp36
 70
     0
102
RTVSPost2010Prop37
 90
       50
102
RTVSPost2010PropOp37
 70
     0
102
RTVSPost2010Prop38
140
0.0
102
RTVSPost2010PropOp38
 70
     0
102
RTVSPost2010Prop39
140
1.0
102
RTVSPost2010PropOp39
 70
     0
102
RTVSPost2010Prop40
 90
        0
102
RTVSPost2010PropOp40
 70
     0
102
RTVSPost2010Prop41ColorIndex
 90
       18
102
RTVSPost2010Prop41ColorRGB
 90
        0
102
RTVSPost2010PropOp41
 70
     0
102
RTVSPost2010Prop42
 90
       50
102
RTVSPost2010PropOp42
 70
     0
102
RTVSPost2010Prop43
 90
        3
102
RTVSPost2010PropOp43
 70
     0
102
RTVSPost2010Prop44ColorIndex
 90
        5
102
RTVSPost2010Prop44ColorRGB
 90
      255
102
RTVSPost2010PropOp44
 70
     0
102
RTVSPost2010Prop45
280
     0
102
RTVSPost2010PropOp45
 70
     0
102
RTVSPost2010Prop46
 90
       50
102
RTVSPost2010PropOp46
 70
     0
102
RTVSPost2010Prop47
 90
       50
102
RTVSPost2010PropOp47
 70
     0
102
RTVSPost2010Prop48
 90
       50
102
RTVSPost2010PropOp48
 70
     0
102
RTVSPost2010Prop49
280
     0
102
RTVSPost2010PropOp49
 70
     0
102
RTVSPost2010Prop50
 90
       50
102
RTVSPost2010PropOp50
 70
     0
102
RTVSPost2010Prop51ColorIndex
 90
      256
102
RTVSPost2010Prop51ColorRGB
 90
-16777216
102
RTVSPost2010PropOp51
 70
     0
102
RTVSPost2010Prop52
140
1.0
102
RTVSPost2010PropOp52
 70
     0
102
RTVSPost2010Prop53
 90
        2
102
RTVSPost2010PropOp53
 70
     0
102
RTVSPost2010Prop54
  1
strokes_ogs.tif
102
RTVSPost2010PropOp54
 70
     0
102
RTVSPost2010Prop55
280
     0
102
RTVSPost2010PropOp55
 70
     0
102
RTVSPost2010Prop56
140
1.0
102
RTVSPost2010PropOp56
 70
     0
102
RTVSPost2010Prop57
140
1.0
102
RTVSPost2010PropOp57
 70
     0
  0
XRECORD
  5
3C4
102
{ACAD_REACTORS
330
3C3
102
}
330
3C3
100
AcDbXrecord
280
     1
102
RTVSPost2010Prop28
280
     0
102
RTVSPost2010PropOp28
 70
     1
102
RTVSPost2010Prop29
280
     1
102
RTVSPost2010PropOp29
 70
     1
102
RTVSPost2010Prop30
280
     1
102
RTVSPost2010PropOp30
 70
     1
102
RTVSPost2010Prop31
280
     0
102
RTVSPost2010PropOp31
 70
     1
102
RTVSPost2010Prop32
280
     0
102
RTVSPost2010PropOp32
 70
     1
102
RTVSPost2010Prop33
280
     0
102
RTVSPost2010PropOp33
 70
     1
102
RTVSPost2010Prop34
280
     0
102
RTVSPost2010PropOp34
 70
     1
102
RTVSPost2010Prop35
280
     0
102
RTVSPost2010PropOp35
 70
     1
102
RTVSPost2010Prop36
280
     0
102
RTVSPost2010PropOp36
 70
     1
102
RTVSPost2010Prop37
 90
       50
102
RTVSPost2010PropOp37
 70
     1
102
RTVSPost2010Prop38
140
0.0
102
RTVSPost2010PropOp38
 70
     1
102
RTVSPost2010Prop39
140
1.0
102
RTVSPost2010PropOp39
 70
     1
102
RTVSPost2010Prop40
 90
        0
102
RTVSPost2010PropOp40
 70
     1
102
RTVSPost2010Prop41ColorIndex
 90
       18
102
RTVSPost2010Prop41ColorRGB
 90
        0
102
RTVSPost2010PropOp41
 70
     1
102
RTVSPost2010Prop42
 90
       50
102
RTVSPost2010PropOp42
 70
     1
102
RTVSPost2010Prop43
 90
        3
102
RTVSPost2010PropOp43
 70
     1
102
RTVSPost2010Prop44ColorIndex
 90
        5
102
RTVSPost2010Prop44ColorRGB
 90
      255
102
RTVSPost2010PropOp44
 70
     1
102
RTVSPost2010Prop45
280
     0
102
RTVSPost2010PropOp45
 70
     1
102
RTVSPost2010Prop46
 90
       50
102
RTVSPost2010PropOp46
 70
     1
102
RTVSPost2010Prop47
 90
       50
102
RTVSPost2010PropOp47
 70
     1
102
RTVSPost2010Prop48
 90
       50
102
RTVSPost2010PropOp48
 70
     1
102
RTVSPost2010Prop49
280
     0
102
RTVSPost2010PropOp49
 70
     1
102
RTVSPost2010Prop50
 90
       50
102
RTVSPost2010PropOp50
 70
     1
102
RTVSPost2010Prop51ColorIndex
 90
      256
102
RTVSPost2010Prop51ColorRGB
 90
-16777216
102
RTVSPost2010PropOp51
 70
     0
102
RTVSPost2010Prop52
140
1.0
102
RTVSPost2010PropOp52
 70
     0
102
RTVSPost2010Prop53
 90
        2
102
RTVSPost2010PropOp53
 70
     1
102
RTVSPost2010Prop54
  1
strokes_ogs.tif
102
RTVSPost2010PropOp54
 70
     1
102
RTVSPost2010Prop55
280
     0
102
RTVSPost2010PropOp55
 70
     1
102
RTVSPost2010Prop56
140
1.0
102
RTVSPost2010PropOp56
 70
     1
102
RTVSPost2010Prop57
140
1.0
102
RTVSPost2010PropOp57
 70
     1
  0
XRECORD
  5
3E2
102
{ACAD_REACTORS
330
3E1
102
}
330
3E1
100
AcDbXrecord
280
     1
102
RTVSPost2010Prop28
280
     0
102
RTVSPost2010PropOp28
 70
     1
102
RTVSPost2010Prop29
280
     1
102
RTVSPost2010PropOp29
 70
     1
102
RTVSPost2010Prop30
280
     1
102
RTVSPost2010PropOp30
 70
     1
102
RTVSPost2010Prop31
280
     0
102
RTVSPost2010PropOp31
 70
     1
102
RTVSPost2010Prop32
280
     0
102
RTVSPost2010PropOp32
 70
     1
102
RTVSPost2010Prop33
280
     0
102
RTVSPost2010PropOp33
 70
     1
102
RTVSPost2010Prop34
280
     0
102
RTVSPost2010PropOp34
 70
     1
102
RTVSPost2010Prop35
280
     0
102
RTVSPost2010PropOp35
 70
     1
102
RTVSPost2010Prop36
280
     0
102
RTVSPost2010PropOp36
 70
     1
102
RTVSPost2010Prop37
 90
       50
102
RTVSPost2010PropOp37
 70
     1
102
RTVSPost2010Prop38
140
0.0
102
RTVSPost2010PropOp38
 70
     1
102
RTVSPost2010Prop39
140
1.0
102
RTVSPost2010PropOp39
 70
     1
102
RTVSPost2010Prop40
 90
        0
102
RTVSPost2010PropOp40
 70
     1
102
RTVSPost2010Prop41ColorIndex
 90
       18
102
RTVSPost2010Prop41ColorRGB
 90
        0
102
RTVSPost2010PropOp41
 70
     1
102
RTVSPost2010Prop42
 90
       50
102
RTVSPost2010PropOp42
 70
     1
102
RTVSPost2010Prop43
 90
        3
102
RTVSPost2010PropOp43
 70
     1
102
RTVSPost2010Prop44ColorIndex
 90
        5
102
RTVSPost2010Prop44ColorRGB
 90
      255
102
RTVSPost2010PropOp44
 70
     1
102
RTVSPost2010Prop45
280
     0
102
RTVSPost2010PropOp45
 70
     1
102
RTVSPost2010Prop46
 90
       50
102
RTVSPost2010PropOp46
 70
     1
102
RTVSPost2010Prop47
 90
       50
102
RTVSPost2010PropOp47
 70
     1
102
RTVSPost2010Prop48
 90
       50
102
RTVSPost2010PropOp48
 70
     1
102
RTVSPost2010Prop49
280
     0
102
RTVSPost2010PropOp49
 70
     1
102
RTVSPost2010Prop50
 90
       50
102
RTVSPost2010PropOp50
 70
     1
102
RTVSPost2010Prop51ColorIndex
 90
      256
102
RTVSPost2010Prop51ColorRGB
 90
-16777216
102
RTVSPost2010PropOp51
 70
     0
102
RTVSPost2010Prop52
140
1.0
102
RTVSPost2010PropOp52
 70
     0
102
RTVSPost2010Prop53
 90
        2
102
RTVSPost2010PropOp53
 70
     1
102
RTVSPost2010Prop54
  1
strokes_ogs.tif
102
RTVSPost2010PropOp54
 70
     1
102
RTVSPost2010Prop55
280
     0
102
RTVSPost2010PropOp55
 70
     1
102
RTVSPost2010Prop56
140
1.0
102
RTVSPost2010PropOp56
 70
     1
102
RTVSPost2010Prop57
140
1.0
102
RTVSPost2010PropOp57
 70
     1
  0
XRECORD
  5
3E0
102
{ACAD_REACTORS
330
3DF
102
}
330
3DF
100
AcDbXrecord
280
     1
102
RTVSPost2010Prop28
280
     0
102
RTVSPost2010PropOp28
 70
     1
102
RTVSPost2010Prop29
280
     1
102
RTVSPost2010PropOp29
 70
     1
102
RTVSPost2010Prop30
280
     1
102
RTVSPost2010PropOp30
 70
     1
102
RTVSPost2010Prop31
280
     0
102
RTVSPost2010PropOp31
 70
     1
102
RTVSPost2010Prop32
280
     0
102
RTVSPost2010PropOp32
 70
     1
102
RTVSPost2010Prop33
280
     0
102
RTVSPost2010PropOp33
 70
     1
102
RTVSPost2010Prop34
280
     0
102
RTVSPost2010PropOp34
 70
     1
102
RTVSPost2010Prop35
280
     0
102
RTVSPost2010PropOp35
 70
     1
102
RTVSPost2010Prop36
280
     0
102
RTVSPost2010PropOp36
 70
     1
102
RTVSPost2010Prop37
 90
       50
102
RTVSPost2010PropOp37
 70
     1
102
RTVSPost2010Prop38
140
0.0
102
RTVSPost2010PropOp38
 70
     1
102
RTVSPost2010Prop39
140
1.0
102
RTVSPost2010PropOp39
 70
     1
102
RTVSPost2010Prop40
 90
        0
102
RTVSPost2010PropOp40
 70
     1
102
RTVSPost2010Prop41ColorIndex
 90
       18
102
RTVSPost2010Prop41ColorRGB
 90
        0
102
RTVSPost2010PropOp41
 70
     1
102
RTVSPost2010Prop42
 90
       50
102
RTVSPost2010PropOp42
 70
     1
102
RTVSPost2010Prop43
 90
        3
102
RTVSPost2010PropOp43
 70
     1
102
RTVSPost2010Prop44ColorIndex
 90
        5
102
RTVSPost2010Prop44ColorRGB
 90
      255
102
RTVSPost2010PropOp44
 70
     1
102
RTVSPost2010Prop45
280
     0
102
RTVSPost2010PropOp45
 70
     1
102
RTVSPost2010Prop46
 90
       50
102
RTVSPost2010PropOp46
 70
     1
102
RTVSPost2010Prop47
 90
       50
102
RTVSPost2010PropOp47
 70
     1
102
RTVSPost2010Prop48
 90
       50
102
RTVSPost2010PropOp48
 70
     1
102
RTVSPost2010Prop49
280
     0
102
RTVSPost2010PropOp49
 70
     1
102
RTVSPost2010Prop50
 90
       50
102
RTVSPost2010PropOp50
 70
     1
102
RTVSPost2010Prop51ColorIndex
 90
      256
102
RTVSPost2010Prop51ColorRGB
 90
-16777216
102
RTVSPost2010PropOp51
 70
     0
102
RTVSPost2010Prop52
140
1.0
102
RTVSPost2010PropOp52
 70
     0
102
RTVSPost2010Prop53
 90
        2
102
RTVSPost2010PropOp53
 70
     1
102
RTVSPost2010Prop54
  1
strokes_ogs.tif
102
RTVSPost2010PropOp54
 70
     1
102
RTVSPost2010Prop55
280
     0
102
RTVSPost2010PropOp55
 70
     1
102
RTVSPost2010Prop56
140
1.0
102
RTVSPost2010PropOp56
 70
     1
102
RTVSPost2010Prop57
140
1.0
102
RTVSPost2010PropOp57
 70
     1
  0
XRECORD
  5
3DA
102
{ACAD_REACTORS
330
3D9
102
}
330
3D9
100
AcDbXrecord
280
     1
102
RTVSPost2010Prop28
280
     0
102
RTVSPost2010PropOp28
 70
     1
102
RTVSPost2010Prop29
280
     1
102
RTVSPost2010PropOp29
 70
     1
102
RTVSPost2010Prop30
280
     1
102
RTVSPost2010PropOp30
 70
     1
102
RTVSPost2010Prop31
280
     0
102
RTVSPost2010PropOp31
 70
     1
102
RTVSPost2010Prop32
280
     0
102
RTVSPost2010PropOp32
 70
     1
102
RTVSPost2010Prop33
280
     0
102
RTVSPost2010PropOp33
 70
     1
102
RTVSPost2010Prop34
280
     0
102
RTVSPost2010PropOp34
 70
     1
102
RTVSPost2010Prop35
280
     0
102
RTVSPost2010PropOp35
 70
     1
102
RTVSPost2010Prop36
280
     0
102
RTVSPost2010PropOp36
 70
     1
102
RTVSPost2010Prop37
 90
       50
102
RTVSPost2010PropOp37
 70
     1
102
RTVSPost2010Prop38
140
0.0
102
RTVSPost2010PropOp38
 70
     1
102
RTVSPost2010Prop39
140
1.0
102
RTVSPost2010PropOp39
 70
     1
102
RTVSPost2010Prop40
 90
        0
102
RTVSPost2010PropOp40
 70
     1
102
RTVSPost2010Prop41ColorIndex
 90
       18
102
RTVSPost2010Prop41ColorRGB
 90
        0
102
RTVSPost2010PropOp41
 70
     1
102
RTVSPost2010Prop42
 90
       50
102
RTVSPost2010PropOp42
 70
     1
102
RTVSPost2010Prop43
 90
        3
102
RTVSPost2010PropOp43
 70
     1
102
RTVSPost2010Prop44ColorIndex
 90
        5
102
RTVSPost2010Prop44ColorRGB
 90
      255
102
RTVSPost2010PropOp44
 70
     1
102
RTVSPost2010Prop45
280
     0
102
RTVSPost2010PropOp45
 70
     1
102
RTVSPost2010Prop46
 90
       50
102
RTVSPost2010PropOp46
 70
     1
102
RTVSPost2010Prop47
 90
       50
102
RTVSPost2010PropOp47
 70
     1
102
RTVSPost2010Prop48
 90
       50
102
RTVSPost2010PropOp48
 70
     1
102
RTVSPost2010Prop49
280
     0
102
RTVSPost2010PropOp49
 70
     1
102
RTVSPost2010Prop50
 90
       50
102
RTVSPost2010PropOp50
 70
     1
102
RTVSPost2010Prop51ColorIndex
 90
      256
102
RTVSPost2010Prop51ColorRGB
 90
-16777216
102
RTVSPost2010PropOp51
 70
     0
102
RTVSPost2010Prop52
140
1.0
102
RTVSPost2010PropOp52
 70
     0
102
RTVSPost2010Prop53
 90
        2
102
RTVSPost2010PropOp53
 70
     1
102
RTVSPost2010Prop54
  1
strokes_ogs.tif
102
RTVSPost2010PropOp54
 70
     1
102
RTVSPost2010Prop55
280
     0
102
RTVSPost2010PropOp55
 70
     1
102
RTVSPost2010Prop56
140
1.0
102
RTVSPost2010PropOp56
 70
     1
102
RTVSPost2010Prop57
140
1.0
102
RTVSPost2010PropOp57
 70
     1
  0
XRECORD
  5
3DC
102
{ACAD_REACTORS
330
3DB
102
}
330
3DB
100
AcDbXrecord
280
     1
102
RTVSPost2010Prop28
280
     0
102
RTVSPost2010PropOp28
 70
     1
102
RTVSPost2010Prop29
280
     1
102
RTVSPost2010PropOp29
 70
     1
102
RTVSPost2010Prop30
280
     1
102
RTVSPost2010PropOp30
 70
     1
102
RTVSPost2010Prop31
280
     0
102
RTVSPost2010PropOp31
 70
     1
102
RTVSPost2010Prop32
280
     0
102
RTVSPost2010PropOp32
 70
     1
102
RTVSPost2010Prop33
280
     0
102
RTVSPost2010PropOp33
 70
     1
102
RTVSPost2010Prop34
280
     0
102
RTVSPost2010PropOp34
 70
     1
102
RTVSPost2010Prop35
280
     0
102
RTVSPost2010PropOp35
 70
     1
102
RTVSPost2010Prop36
280
     0
102
RTVSPost2010PropOp36
 70
     1
102
RTVSPost2010Prop37
 90
       50
102
RTVSPost2010PropOp37
 70
     1
102
RTVSPost2010Prop38
140
0.0
102
RTVSPost2010PropOp38
 70
     1
102
RTVSPost2010Prop39
140
1.0
102
RTVSPost2010PropOp39
 70
     1
102
RTVSPost2010Prop40
 90
        0
102
RTVSPost2010PropOp40
 70
     1
102
RTVSPost2010Prop41ColorIndex
 90
       18
102
RTVSPost2010Prop41ColorRGB
 90
        0
102
RTVSPost2010PropOp41
 70
     1
102
RTVSPost2010Prop42
 90
       50
102
RTVSPost2010PropOp42
 70
     1
102
RTVSPost2010Prop43
 90
        3
102
RTVSPost2010PropOp43
 70
     1
102
RTVSPost2010Prop44ColorIndex
 90
        5
102
RTVSPost2010Prop44ColorRGB
 90
      255
102
RTVSPost2010PropOp44
 70
     1
102
RTVSPost2010Prop45
280
     0
102
RTVSPost2010PropOp45
 70
     1
102
RTVSPost2010Prop46
 90
       50
102
RTVSPost2010PropOp46
 70
     1
102
RTVSPost2010Prop47
 90
       50
102
RTVSPost2010PropOp47
 70
     1
102
RTVSPost2010Prop48
 90
       50
102
RTVSPost2010PropOp48
 70
     1
102
RTVSPost2010Prop49
280
     0
102
RTVSPost2010PropOp49
 70
     1
102
RTVSPost2010Prop50
 90
       50
102
RTVSPost2010PropOp50
 70
     1
102
RTVSPost2010Prop51ColorIndex
 90
      256
102
RTVSPost2010Prop51ColorRGB
 90
-16777216
102
RTVSPost2010PropOp51
 70
     0
102
RTVSPost2010Prop52
140
1.0
102
RTVSPost2010PropOp52
 70
     0
102
RTVSPost2010Prop53
 90
        2
102
RTVSPost2010PropOp53
 70
     1
102
RTVSPost2010Prop54
  1
strokes_ogs.tif
102
RTVSPost2010PropOp54
 70
     1
102
RTVSPost2010Prop55
280
     0
102
RTVSPost2010PropOp55
 70
     1
102
RTVSPost2010Prop56
140
1.0
102
RTVSPost2010PropOp56
 70
     1
102
RTVSPost2010Prop57
140
1.0
102
RTVSPost2010PropOp57
 70
     1
  0
XRECORD
  5
3CC
102
{ACAD_REACTORS
330
3CB
102
}
330
3CB
100
AcDbXrecord
280
     1
102
RTVSPost2010Prop28
280
     0
102
RTVSPost2010PropOp28
 70
     1
102
RTVSPost2010Prop29
280
     1
102
RTVSPost2010PropOp29
 70
     1
102
RTVSPost2010Prop30
280
     1
102
RTVSPost2010PropOp30
 70
     1
102
RTVSPost2010Prop31
280
     0
102
RTVSPost2010PropOp31
 70
     1
102
RTVSPost2010Prop32
280
     0
102
RTVSPost2010PropOp32
 70
     1
102
RTVSPost2010Prop33
280
     0
102
RTVSPost2010PropOp33
 70
     1
102
RTVSPost2010Prop34
280
     0
102
RTVSPost2010PropOp34
 70
     1
102
RTVSPost2010Prop35
280
     0
102
RTVSPost2010PropOp35
 70
     1
102
RTVSPost2010Prop36
280
     0
102
RTVSPost2010PropOp36
 70
     1
102
RTVSPost2010Prop37
 90
       50
102
RTVSPost2010PropOp37
 70
     1
102
RTVSPost2010Prop38
140
0.0
102
RTVSPost2010PropOp38
 70
     1
102
RTVSPost2010Prop39
140
1.0
102
RTVSPost2010PropOp39
 70
     1
102
RTVSPost2010Prop40
 90
        0
102
RTVSPost2010PropOp40
 70
     1
102
RTVSPost2010Prop41ColorIndex
 90
       18
102
RTVSPost2010Prop41ColorRGB
 90
        0
102
RTVSPost2010PropOp41
 70
     1
102
RTVSPost2010Prop42
 90
       50
102
RTVSPost2010PropOp42
 70
     1
102
RTVSPost2010Prop43
 90
        3
102
RTVSPost2010PropOp43
 70
     1
102
RTVSPost2010Prop44ColorIndex
 90
        5
102
RTVSPost2010Prop44ColorRGB
 90
      255
102
RTVSPost2010PropOp44
 70
     1
102
RTVSPost2010Prop45
280
     0
102
RTVSPost2010PropOp45
 70
     1
102
RTVSPost2010Prop46
 90
       50
102
RTVSPost2010PropOp46
 70
     1
102
RTVSPost2010Prop47
 90
       50
102
RTVSPost2010PropOp47
 70
     1
102
RTVSPost2010Prop48
 90
       50
102
RTVSPost2010PropOp48
 70
     1
102
RTVSPost2010Prop49
280
     0
102
RTVSPost2010PropOp49
 70
     1
102
RTVSPost2010Prop50
 90
       50
102
RTVSPost2010PropOp50
 70
     1
102
RTVSPost2010Prop51ColorIndex
 90
      256
102
RTVSPost2010Prop51ColorRGB
 90
-16777216
102
RTVSPost2010PropOp51
 70
     0
102
RTVSPost2010Prop52
140
1.0
102
RTVSPost2010PropOp52
 70
     0
102
RTVSPost2010Prop53
 90
        2
102
RTVSPost2010PropOp53
 70
     1
102
RTVSPost2010Prop54
  1
strokes_ogs.tif
102
RTVSPost2010PropOp54
 70
     1
102
RTVSPost2010Prop55
280
     0
102
RTVSPost2010PropOp55
 70
     1
102
RTVSPost2010Prop56
140
1.0
102
RTVSPost2010PropOp56
 70
     1
102
RTVSPost2010Prop57
140
1.0
102
RTVSPost2010PropOp57
 70
     1
  0
XRECORD
  5
3BE
102
{ACAD_REACTORS
330
3BD
102
}
330
3BD
100
AcDbXrecord
280
     1
102
RTVSPost2010Prop28
280
     0
102
RTVSPost2010PropOp28
 70
     1
102
RTVSPost2010Prop29
280
     1
102
RTVSPost2010PropOp29
 70
     1
102
RTVSPost2010Prop30
280
     1
102
RTVSPost2010PropOp30
 70
     1
102
RTVSPost2010Prop31
280
     0
102
RTVSPost2010PropOp31
 70
     1
102
RTVSPost2010Prop32
280
     0
102
RTVSPost2010PropOp32
 70
     1
102
RTVSPost2010Prop33
280
     0
102
RTVSPost2010PropOp33
 70
     1
102
RTVSPost2010Prop34
280
     0
102
RTVSPost2010PropOp34
 70
     1
102
RTVSPost2010Prop35
280
     0
102
RTVSPost2010PropOp35
 70
     1
102
RTVSPost2010Prop36
280
     0
102
RTVSPost2010PropOp36
 70
     1
102
RTVSPost2010Prop37
 90
       50
102
RTVSPost2010PropOp37
 70
     1
102
RTVSPost2010Prop38
140
0.0
102
RTVSPost2010PropOp38
 70
     1
102
RTVSPost2010Prop39
140
1.0
102
RTVSPost2010PropOp39
 70
     1
102
RTVSPost2010Prop40
 90
        0
102
RTVSPost2010PropOp40
 70
     1
102
RTVSPost2010Prop41ColorIndex
 90
       18
102
RTVSPost2010Prop41ColorRGB
 90
        0
102
RTVSPost2010PropOp41
 70
     1
102
RTVSPost2010Prop42
 90
       50
102
RTVSPost2010PropOp42
 70
     1
102
RTVSPost2010Prop43
 90
        3
102
RTVSPost2010PropOp43
 70
     1
102
RTVSPost2010Prop44ColorIndex
 90
        5
102
RTVSPost2010Prop44ColorRGB
 90
      255
102
RTVSPost2010PropOp44
 70
     1
102
RTVSPost2010Prop45
280
     0
102
RTVSPost2010PropOp45
 70
     1
102
RTVSPost2010Prop46
 90
       50
102
RTVSPost2010PropOp46
 70
     1
102
RTVSPost2010Prop47
 90
       50
102
RTVSPost2010PropOp47
 70
     1
102
RTVSPost2010Prop48
 90
       50
102
RTVSPost2010PropOp48
 70
     1
102
RTVSPost2010Prop49
280
     0
102
RTVSPost2010PropOp49
 70
     1
102
RTVSPost2010Prop50
 90
       50
102
RTVSPost2010PropOp50
 70
     1
102
RTVSPost2010Prop51ColorIndex
 90
      256
102
RTVSPost2010Prop51ColorRGB
 90
-16777216
102
RTVSPost2010PropOp51
 70
     0
102
RTVSPost2010Prop52
140
1.0
102
RTVSPost2010PropOp52
 70
     0
102
RTVSPost2010Prop53
 90
        2
102
RTVSPost2010PropOp53
 70
     1
102
RTVSPost2010Prop54
  1
strokes_ogs.tif
102
RTVSPost2010PropOp54
 70
     1
102
RTVSPost2010Prop55
280
     0
102
RTVSPost2010PropOp55
 70
     1
102
RTVSPost2010Prop56
140
1.0
102
RTVSPost2010PropOp56
 70
     1
102
RTVSPost2010Prop57
140
1.0
102
RTVSPost2010PropOp57
 70
     1
  0
XRECORD
  5
3DE
102
{ACAD_REACTORS
330
3DD
102
}
330
3DD
100
AcDbXrecord
280
     1
102
RTVSPost2010Prop28
280
     0
102
RTVSPost2010PropOp28
 70
     1
102
RTVSPost2010Prop29
280
     1
102
RTVSPost2010PropOp29
 70
     1
102
RTVSPost2010Prop30
280
     1
102
RTVSPost2010PropOp30
 70
     1
102
RTVSPost2010Prop31
280
     0
102
RTVSPost2010PropOp31
 70
     1
102
RTVSPost2010Prop32
280
     0
102
RTVSPost2010PropOp32
 70
     1
102
RTVSPost2010Prop33
280
     0
102
RTVSPost2010PropOp33
 70
     1
102
RTVSPost2010Prop34
280
     0
102
RTVSPost2010PropOp34
 70
     1
102
RTVSPost2010Prop35
280
     0
102
RTVSPost2010PropOp35
 70
     1
102
RTVSPost2010Prop36
280
     0
102
RTVSPost2010PropOp36
 70
     1
102
RTVSPost2010Prop37
 90
       50
102
RTVSPost2010PropOp37
 70
     1
102
RTVSPost2010Prop38
140
0.0
102
RTVSPost2010PropOp38
 70
     1
102
RTVSPost2010Prop39
140
1.0
102
RTVSPost2010PropOp39
 70
     1
102
RTVSPost2010Prop40
 90
        0
102
RTVSPost2010PropOp40
 70
     1
102
RTVSPost2010Prop41ColorIndex
 90
       18
102
RTVSPost2010Prop41ColorRGB
 90
        0
102
RTVSPost2010PropOp41
 70
     1
102
RTVSPost2010Prop42
 90
       50
102
RTVSPost2010PropOp42
 70
     1
102
RTVSPost2010Prop43
 90
        3
102
RTVSPost2010PropOp43
 70
     1
102
RTVSPost2010Prop44ColorIndex
 90
        5
102
RTVSPost2010Prop44ColorRGB
 90
      255
102
RTVSPost2010PropOp44
 70
     1
102
RTVSPost2010Prop45
280
     0
102
RTVSPost2010PropOp45
 70
     1
102
RTVSPost2010Prop46
 90
       50
102
RTVSPost2010PropOp46
 70
     1
102
RTVSPost2010Prop47
 90
       50
102
RTVSPost2010PropOp47
 70
     1
102
RTVSPost2010Prop48
 90
       50
102
RTVSPost2010PropOp48
 70
     1
102
RTVSPost2010Prop49
280
     0
102
RTVSPost2010PropOp49
 70
     1
102
RTVSPost2010Prop50
 90
       50
102
RTVSPost2010PropOp50
 70
     1
102
RTVSPost2010Prop51ColorIndex
 90
      256
102
RTVSPost2010Prop51ColorRGB
 90
-16777216
102
RTVSPost2010PropOp51
 70
     0
102
RTVSPost2010Prop52
140
1.0
102
RTVSPost2010PropOp52
 70
     0
102
RTVSPost2010Prop53
 90
        2
102
RTVSPost2010PropOp53
 70
     1
102
RTVSPost2010Prop54
  1
strokes_ogs.tif
102
RTVSPost2010PropOp54
 70
     1
102
RTVSPost2010Prop55
280
     0
102
RTVSPost2010PropOp55
 70
     1
102
RTVSPost2010Prop56
140
1.0
102
RTVSPost2010PropOp56
 70
     1
102
RTVSPost2010Prop57
140
1.0
102
RTVSPost2010PropOp57
 70
     1
  0
ENDSEC
  0
EOF
