  0
SECTION
  2
HEADER
  9
$ACADVER
  1
AC1024
  9
$ACADMAINTVER
 70
     6
  9
$DWGCODEPAGE
  3
ANSI_1252
  9
$INSBASE
 10
0.0
 20
0.0
 30
0.0
  9
$EXTMIN
 10
1.000000E+20
 20
1.000000E+20
 30
1.000000E+20
  9
$EXTMAX
 10
-1.000000E+20
 20
-1.000000E+20
 30
-1.000000E+20
  9
$LIMMIN
 10
0.0
 20
0.0
  9
$LIMMAX
 10
420.0
 20
297.0
  9
$ORTHOMODE
 70
     0
  9
$REGENMODE
 70
     1
  9
$FILLMODE
 70
     1
  9
$QTEXTMODE
 70
     0
  9
$MIRRTEXT
 70
     1
  9
$LTSCALE
 40
1.0
  9
$ATTMODE
 70
     1
  9
$TEXTSIZE
 40
2.5
  9
$TRACEWID
 40
1.0
  9
$TEXTSTYLE
  7
Standard
  9
$CLAYER
  8
0
  9
$CELTYPE
  6
ByLayer
  9
$CECOLOR
 62
   256
  9
$CELTSCALE
 40
1.0
  9
$DISPSILH
 70
     0
  9
$DIMSCALE
 40
1.0
  9
$DIMASZ
 40
2.5
  9
$DIMEXO
 40
0.625
  9
$DIMDLI
 40
3.75
  9
$DIMRND
 40
0.0
  9
$DIMDLE
 40
0.0
  9
$DIMEXE
 40
1.25
  9
$DIMTP
 40
0.0
  9
$DIMTM
 40
0.0
  9
$DIMTXT
 40
2.5
  9
$DIMCEN
 40
2.5
  9
$DIMTSZ
 40
0.0
  9
$DIMTOL
 70
     0
  9
$DIMLIM
 70
     0
  9
$DIMTIH
 70
     0
  9
$DIMTOH
 70
     0
  9
$DIMSE1
 70
     0
  9
$DIMSE2
 70
     0
  9
$DIMTAD
 70
     1
  9
$DIMZIN
 70
     8
  9
$DIMBLK
  1

  9
$DIMASO
 70
     1
  9
$DIMSHO
 70
     1
  9
$DIMPOST
  1

  9
$DIMAPOST
  1

  9
$DIMALT
 70
     0
  9
$DIMALTD
 70
     3
  9
$DIMALTF
 40
0.03937
  9
$DIMLFAC
 40
1.0
  9
$DIMTOFL
 70
     1
  9
$DIMTVP
 40
0.0
  9
$DIMTIX
 70
     0
  9
$DIMSOXD
 70
     0
  9
$DIMSAH
 70
     0
  9
$DIMBLK1
  1

  9
$DIMBLK2
  1

  9
$DIMSTYLE
  2
ISO-25
  9
$DIMCLRD
 70
     0
  9
$DIMCLRE
 70
     0
  9
$DIMCLRT
 70
     0
  9
$DIMTFAC
 40
1.0
  9
$DIMGAP
 40
0.625
  9
$DIMJUST
 70
     0
  9
$DIMSD1
 70
     0
  9
$DIMSD2
 70
     0
  9
$DIMTOLJ
 70
     0
  9
$DIMTZIN
 70
     8
  9
$DIMALTZ
 70
     0
  9
$DIMALTTZ
 70
     0
  9
$DIMUPT
 70
     0
  9
$DIMDEC
 70
     2
  9
$DIMTDEC
 70
     2
  9
$DIMALTU
 70
     2
  9
$DIMALTTD
 70
     3
  9
$DIMTXSTY
  7
Standard
  9
$DIMAUNIT
 70
     0
  9
$DIMADEC
 70
     0
  9
$DIMALTRND
 40
0.0
  9
$DIMAZIN
 70
     0
  9
$DIMDSEP
 70
    44
  9
$DIMATFIT
 70
     3
  9
$DIMFRAC
 70
     0
  9
$DIMLDRBLK
  1

  9
$DIMLUNIT
 70
     2
  9
$DIMLWD
 70
    -2
  9
$DIMLWE
 70
    -2
  9
$DIMTMOVE
 70
     0
  9
$DIMFXL
 40
1.0
  9
$DIMFXLON
 70
     0
  9
$DIMJOGANG
 40
0.785398
  9
$DIMTFILL
 70
     0
  9
$DIMTFILLCLR
 70
     0
  9
$DIMARCSYM
 70
     0
  9
$DIMLTYPE
  6

  9
$DIMLTEX1
  6

  9
$DIMLTEX2
  6

  9
$DIMTXTDIRECTION
 70
     0
  9
$LUNITS
 70
     2
  9
$LUPREC
 70
     4
  9
$SKETCHINC
 40
1.0
  9
$FILLETRAD
 40
10.0
  9
$AUNITS
 70
     0
  9
$AUPREC
 70
     0
  9
$MENU
  1
.
  9
$ELEVATION
 40
0.0
  9
$PELEVATION
 40
0.0
  9
$THICKNESS
 40
0.0
  9
$LIMCHECK
 70
     0
  9
$CHAMFERA
 40
0.0
  9
$CHAMFERB
 40
0.0
  9
$CHAMFERC
 40
0.0
  9
$CHAMFERD
 40
0.0
  9
$SKPOLY
 70
     0
  9
$TDCREATE
 40
2457826.626171956
  9
$TDUCREATE
 40
2457826.584505289
  9
$TDUPDATE
 40
2457826.626172708
  9
$TDUUPDATE
 40
2457826.584506042
  9
$TDINDWG
 40
0.0000000116
  9
$TDUSRTIMER
 40
0.0000000116
  9
$USRTIMER
 70
     1
  9
$ANGBASE
 50
0.0
  9
$ANGDIR
 70
     0
  9
$PDMODE
 70
     0
  9
$PDSIZE
 40
0.0
  9
$PLINEWID
 40
0.0
  9
$SPLFRAME
 70
     0
  9
$SPLINETYPE
 70
     6
  9
$SPLINESEGS
 70
     8
  9
$HANDSEED
  5
3BB
  9
$SURFTAB1
 70
     6
  9
$SURFTAB2
 70
     6
  9
$SURFTYPE
 70
     6
  9
$SURFU
 70
     6
  9
$SURFV
 70
     6
  9
$UCSBASE
  2

  9
$UCSNAME
  2

  9
$UCSORG
 10
0.0
 20
0.0
 30
0.0
  9
$UCSXDIR
 10
1.0
 20
0.0
 30
0.0
  9
$UCSYDIR
 10
0.0
 20
1.0
 30
0.0
  9
$UCSORTHOREF
  2

  9
$UCSORTHOVIEW
 70
     0
  9
$UCSORGTOP
 10
0.0
 20
0.0
 30
0.0
  9
$UCSORGBOTTOM
 10
0.0
 20
0.0
 30
0.0
  9
$UCSORGLEFT
 10
0.0
 20
0.0
 30
0.0
  9
$UCSORGRIGHT
 10
0.0
 20
0.0
 30
0.0
  9
$UCSORGFRONT
 10
0.0
 20
0.0
 30
0.0
  9
$UCSORGBACK
 10
0.0
 20
0.0
 30
0.0
  9
$PUCSBASE
  2

  9
$PUCSNAME
  2

  9
$PUCSORG
 10
0.0
 20
0.0
 30
0.0
  9
$PUCSXDIR
 10
1.0
 20
0.0
 30
0.0
  9
$PUCSYDIR
 10
0.0
 20
1.0
 30
0.0
  9
$PUCSORTHOREF
  2

  9
$PUCSORTHOVIEW
 70
     0
  9
$PUCSORGTOP
 10
0.0
 20
0.0
 30
0.0
  9
$PUCSORGBOTTOM
 10
0.0
 20
0.0
 30
0.0
  9
$PUCSORGLEFT
 10
0.0
 20
0.0
 30
0.0
  9
$PUCSORGRIGHT
 10
0.0
 20
0.0
 30
0.0
  9
$PUCSORGFRONT
 10
0.0
 20
0.0
 30
0.0
  9
$PUCSORGBACK
 10
0.0
 20
0.0
 30
0.0
  9
$USERI1
 70
     0
  9
$USERI2
 70
     0
  9
$USERI3
 70
     0
  9
$USERI4
 70
     0
  9
$USERI5
 70
     0
  9
$USERR1
 40
0.0
  9
$USERR2
 40
0.0
  9
$USERR3
 40
0.0
  9
$USERR4
 40
0.0
  9
$USERR5
 40
0.0
  9
$WORLDVIEW
 70
     1
  9
$SHADEDGE
 70
     3
  9
$SHADEDIF
 70
    70
  9
$TILEMODE
 70
     1
  9
$MAXACTVP
 70
    64
  9
$PINSBASE
 10
0.0
 20
0.0
 30
0.0
  9
$PLIMCHECK
 70
     0
  9
$PEXTMIN
 10
1.000000E+20
 20
1.000000E+20
 30
1.000000E+20
  9
$PEXTMAX
 10
-1.000000E+20
 20
-1.000000E+20
 30
-1.000000E+20
  9
$PLIMMIN
 10
0.0
 20
0.0
  9
$PLIMMAX
 10
420.0
 20
297.0
  9
$UNITMODE
 70
     0
  9
$VISRETAIN
 70
     1
  9
$PLINEGEN
 70
     0
  9
$PSLTSCALE
 70
     1
  9
$TREEDEPTH
 70
  3020
  9
$CMLSTYLE
  2
Standard
  9
$CMLJUST
 70
     0
  9
$CMLSCALE
 40
20.0
  9
$PROXYGRAPHICS
 70
     1
  9
$MEASUREMENT
 70
     1
  9
$CELWEIGHT
370
    -1
  9
$ENDCAPS
280
     0
  9
$JOINSTYLE
280
     0
  9
$LWDISPLAY
290
     0
  9
$INSUNITS
 70
     4
  9
$HYPERLINKBASE
  1

  9
$STYLESHEET
  1

  9
$XEDIT
290
     1
  9
$CEPSNTYPE
380
     0
  9
$PSTYLEMODE
290
     1
  9
$FINGERPRINTGUID
  2
{8F252393-8640-4039-B198-4B012CF59483}
  9
$VERSIONGUID
  2
{FAEB1C32-E019-11D5-929B-00C0DF256EC4}
  9
$EXTNAMES
290
     1
  9
$PSVPSCALE
 40
0.0
  9
$OLESTARTUP
290
     0
  9
$SORTENTS
280
   127
  9
$INDEXCTL
280
     0
  9
$HIDETEXT
280
     1
  9
$XCLIPFRAME
280
     2
  9
$HALOGAP
280
     0
  9
$OBSCOLOR
 70
   257
  9
$OBSLTYPE
280
     0
  9
$INTERSECTIONDISPLAY
280
     0
  9
$INTERSECTIONCOLOR
 70
   257
  9
$DIMASSOC
280
     2
  9
$PROJECTNAME
  1

  9
$CAMERADISPLAY
290
     0
  9
$LENSLENGTH
 40
50.0
  9
$CAMERAHEIGHT
 40
0.0
  9
$STEPSPERSEC
 40
2.0
  9
$STEPSIZE
 40
6.0
  9
$3DDWFPREC
 40
2.0
  9
$PSOLWIDTH
 40
5.0
  9
$PSOLHEIGHT
 40
80.0
  9
$LOFTANG1
 40
1.570796
  9
$LOFTANG2
 40
1.570796
  9
$LOFTMAG1
 40
0.0
  9
$LOFTMAG2
 40
0.0
  9
$LOFTPARAM
 70
     7
  9
$LOFTNORMALS
280
     1
  9
$LATITUDE
 40
37.795
  9
$LONGITUDE
 40
-122.394
  9
$NORTHDIRECTION
 40
0.0
  9
$TIMEZONE
 70
 -8000
  9
$LIGHTGLYPHDISPLAY
280
     1
  9
$TILEMODELIGHTSYNCH
280
     1
  9
$CMATERIAL
347
44
  9
$SOLIDHIST
280
     0
  9
$SHOWHIST
280
     1
  9
$DWFFRAME
280
     2
  9
$DGNFRAME
280
     2
  9
$REALWORLDSCALE
290
     1
  9
$INTERFERECOLOR
 62
   256
  9
$CSHADOW
280
     0
  9
$SHADOWPLANELOCATION
 40
0.0
  0
ENDSEC
  0
SECTION
  2
CLASSES
  0
CLASS
  1
ACDBDICTIONARYWDFLT
  2
AcDbDictionaryWithDefault
  3
ObjectDBX Classes
 90
        0
 91
        4
280
     0
281
     0
  0
CLASS
  1
VISUALSTYLE
  2
AcDbVisualStyle
  3
ObjectDBX Classes
 90
     4095
 91
        4
280
     0
281
     0
  0
CLASS
  1
MATERIAL
  2
AcDbMaterial
  3
ObjectDBX Classes
 90
     1153
 91
        4
280
     0
281
     0
  0
CLASS
  1
SCALE
  2
AcDbScale
  3
ObjectDBX Classes
 90
     1153
 91
        4
280
     0
281
     0
  0
CLASS
  1
TABLESTYLE
  2
AcDbTableStyle
  3
ObjectDBX Classes
 90
     4095
 91
        4
280
     0
281
     0
  0
CLASS
  1
MLEADERSTYLE
  2
AcDbMLeaderStyle
  3
ACDB_MLEADERSTYLE_CLASS
 90
     4095
 91
        4
280
     0
281
     0
  0
CLASS
  1
SUN
  2
AcDbSun
  3
SCENEOE
 90
     1153
 91
        4
280
     0
281
     0
  0
CLASS
  1
DICTIONARYVAR
  2
AcDbDictionaryVar
  3
ObjectDBX Classes
 90
        0
 91
        4
280
     0
281
     0
  0
CLASS
  1
CELLSTYLEMAP
  2
AcDbCellStyleMap
  3
ObjectDBX Classes
 90
     1152
 91
        4
280
     0
281
     0
  0
ENDSEC
  0
SECTION
  2
TABLES
  0
TABLE
  2
VPORT
  5
8
330
0
100
AcDbSymbolTable
 70
     1
  0
VPORT
  5
29
330
8
100
AcDbSymbolTableRecord
100
AcDbViewportTableRecord
  2
*Active
 70
     0
 10
0.0
 20
0.0
 11
1.0
 21
1.0
 12
344.186916
 22
148.5
 13
0.0
 23
0.0
 14
10.0
 24
10.0
 15
10.0
 25
10.0
 16
0.0
 26
0.0
 36
1.0
 17
0.0
 27
0.0
 37
0.0
 40
297.0
 41
1.972973
 42
50.0
 43
0.0
 44
0.0
 50
0.0
 51
0.0
 71
     0
 72
   100
 73
     1
 74
     3
 75
     0
 76
     0
 77
     0
 78
     0
281
     0
 65
     1
110
0.0
120
0.0
130
0.0
111
1.0
121
0.0
131
0.0
112
0.0
122
1.0
132
0.0
 79
     0
146
0.0
348
2F
 60
     3
 61
     5
292
     1
282
     1
141
0.0
142
0.0
 63
   250
361
6D
  0
ENDTAB
  0
TABLE
  2
LTYPE
  5
5
330
0
100
AcDbSymbolTable
 70
     1
  0
LTYPE
  5
14
330
5
100
AcDbSymbolTableRecord
100
AcDbLinetypeTableRecord
  2
ByBlock
 70
     0
  3

 72
    65
 73
     0
 40
0.0
  0
LTYPE
  5
15
330
5
100
AcDbSymbolTableRecord
100
AcDbLinetypeTableRecord
  2
ByLayer
 70
     0
  3

 72
    65
 73
     0
 40
0.0
  0
LTYPE
  5
16
330
5
100
AcDbSymbolTableRecord
100
AcDbLinetypeTableRecord
  2
Continuous
 70
     0
  3
Solid line
 72
    65
 73
     0
 40
0.0
  0
ENDTAB
  0
TABLE
  2
LAYER
  5
2
330
0
100
AcDbSymbolTable
 70
     1
  0
LAYER
  5
10
330
2
100
AcDbSymbolTableRecord
100
AcDbLayerTableRecord
  2
0
 70
     0
 62
   106
  6
Continuous
370
     0
390
F
347
46
  0
ENDTAB
  0
TABLE
  2
STYLE
  5
3
330
0
100
AcDbSymbolTable
 70
     4
  0
STYLE
  5
11
330
3
100
AcDbSymbolTableRecord
100
AcDbTextStyleTableRecord
  2
Standard
 70
     0
 40
0.0
 41
1.0
 50
0.0
 71
     0
 42
2.5
  3
txt
  4

  0
STYLE
  5
6E
330
3
100
AcDbSymbolTableRecord
100
AcDbTextStyleTableRecord
  2
Default
 70
     0
 40
0.0
 41
1.0
 50
0.0
 71
     0
 42
2.5
  3

  4

1001
ACAD
1000
txt
1071
        0
  0
STYLE
  5
6F
330
3
100
AcDbSymbolTableRecord
100
AcDbTextStyleTableRecord
  2
ISO
 70
     0
 40
0.0
 41
1.0
 50
0.0
 71
     0
 42
2.5
  3

  4

1001
ACAD
1000
txt
1071
        0
  0
STYLE
  5
70
330
3
100
AcDbSymbolTableRecord
100
AcDbTextStyleTableRecord
  2
zucchetti
 70
     0
 40
0.0
 41
1.0
 50
0.0
 71
     0
 42
2.5
  3

  4

1001
ACAD
1000
Arial
1071
        0
  0
ENDTAB
  0
TABLE
  2
VIEW
  5
6
330
0
100
AcDbSymbolTable
 70
     0
  0
ENDTAB
  0
TABLE
  2
UCS
  5
7
330
0
100
AcDbSymbolTable
 70
     0
  0
ENDTAB
  0
TABLE
  2
APPID
  5
9
330
0
100
AcDbSymbolTable
 70
     1
  0
APPID
  5
12
330
9
100
AcDbSymbolTableRecord
100
AcDbRegAppTableRecord
  2
ACAD
 70
     0
  0
ENDTAB
  0
TABLE
  2
DIMSTYLE
  5
A
330
0
100
AcDbSymbolTable
 70
     4
100
AcDbDimStyleTable
  0
DIMSTYLE
105
27
330
A
100
AcDbSymbolTableRecord
100
AcDbDimStyleTableRecord
  2
ISO-25
 70
     0
 41
2.5
 42
0.625
 43
3.75
 44
1.25
 73
     0
 74
     0
 77
     1
 78
     8
140
2.5
141
2.5
143
0.03937
147
0.625
171
     3
172
     1
178
     0
271
     2
272
     2
274
     3
278
    44
283
     0
284
     8
340
11
  0
DIMSTYLE
105
71
330
A
100
AcDbSymbolTableRecord
100
AcDbDimStyleTableRecord
  2
Default
 70
     0
  3
<>
 41
4.375
 42
1.05
 44
2.1
 49
10.01
 73
     0
 74
     0
 77
     1
 78
     8
140
3.5
146
0.4
147
1.75
172
     1
271
     2
178
     3
271
     2
272
     3
284
     8
340
6E
341
72
342
72
  0
DIMSTYLE
105
79
330
A
100
AcDbSymbolTableRecord
100
AcDbDimStyleTableRecord
  2
ISO
 70
     0
  3
<>
 41
4.375
 42
1.05
 44
2.1
 49
10.01
 73
     0
 74
     0
 77
     1
 78
     8
140
3.5
146
0.4
147
1.75
172
     1
271
     2
178
     3
271
     2
272
     3
284
     8
340
6F
341
72
342
72
  0
DIMSTYLE
105
7A
330
A
100
AcDbSymbolTableRecord
100
AcDbDimStyleTableRecord
  2
zucchetti
 70
     0
  3
<>
 41
3.0
 42
0.9
 44
1.8
 49
8.58
 73
     0
 74
     0
 77
     1
 78
     8
140
3.0
146
0.6
147
1.5
172
     1
176
     3
177
     3
271
     2
178
     3
271
     2
272
     2
284
     8
340
70
  0
ENDTAB
  0
TABLE
  2
BLOCK_RECORD
  5
1
330
0
100
AcDbSymbolTable
 70
     7
  0
BLOCK_RECORD
  5
1F
330
1
100
AcDbSymbolTableRecord
100
AcDbBlockTableRecord
  2
*Model_Space
340
22
 70
     0
280
     1
281
     0
  0
BLOCK_RECORD
  5
1B
330
1
100
AcDbSymbolTableRecord
100
AcDbBlockTableRecord
  2
*Paper_Space
340
1E
 70
     0
280
     1
281
     0
  0
BLOCK_RECORD
  5
23
330
1
100
AcDbSymbolTableRecord
100
AcDbBlockTableRecord
  2
*Paper_Space0
340
26
 70
     0
280
     1
281
     0
  0
BLOCK_RECORD
  5
72
330
1
100
AcDbSymbolTableRecord
100
AcDbBlockTableRecord
  2
_CLOSED
340
0
 70
     0
280
     1
281
     0
  0
BLOCK_RECORD
  5
7B
330
1
100
AcDbSymbolTableRecord
100
AcDbBlockTableRecord
  2
a
340
0
102
{BLKREFS
331
101
102
}
 70
     0
280
     1
281
     0
  0
BLOCK_RECORD
  5
102
330
1
100
AcDbSymbolTableRecord
100
AcDbBlockTableRecord
  2
b
340
0
102
{BLKREFS
331
158
102
}
 70
     0
280
     1
281
     0
  0
BLOCK_RECORD
  5
159
330
1
100
AcDbSymbolTableRecord
100
AcDbBlockTableRecord
  2
c
340
0
102
{BLKREFS
331
20C
102
}
 70
     0
280
     1
281
     0
  0
BLOCK_RECORD
  5
20D
330
1
100
AcDbSymbolTableRecord
100
AcDbBlockTableRecord
  2
d
340
0
102
{BLKREFS
331
304
102
}
 70
     0
280
     1
281
     0
  0
BLOCK_RECORD
  5
305
330
1
100
AcDbSymbolTableRecord
100
AcDbBlockTableRecord
  2
e
340
0
102
{BLKREFS
331
381
102
}
 70
     0
280
     1
281
     0
  0
ENDTAB
  0
ENDSEC
  0
SECTION
  2
BLOCKS
  0
BLOCK
  5
20
330
1F
100
AcDbEntity
  8
0
100
AcDbBlockBegin
  2
*Model_Space
 70
     0
 10
0.0
 20
0.0
 30
0.0
  3
*Model_Space
  1

  0
ENDBLK
  5
21
330
1F
100
AcDbEntity
  8
0
100
AcDbBlockEnd
  0
BLOCK
  5
1C
330
1B
100
AcDbEntity
 67
     1
  8
0
100
AcDbBlockBegin
  2
*Paper_Space
 70
     0
 10
0.0
 20
0.0
 30
0.0
  3
*Paper_Space
  1

  0
ENDBLK
  5
1D
330
1B
100
AcDbEntity
 67
     1
  8
0
100
AcDbBlockEnd
  0
BLOCK
  5
24
330
23
100
AcDbEntity
  8
0
100
AcDbBlockBegin
  2
*Paper_Space0
 70
     0
 10
0.0
 20
0.0
 30
0.0
  3
*Paper_Space0
  1

  0
ENDBLK
  5
25
330
23
100
AcDbEntity
  8
0
100
AcDbBlockEnd
  0
BLOCK
  5
73
330
72
100
AcDbEntity
  8
0
100
AcDbBlockBegin
  2
_CLOSED
 70
     0
 10
0.0
 20
0.0
 30
0.0
  3
_CLOSED
  1

  0
LINE
  5
75
330
72
100
AcDbEntity
  8
0
  6
ByBlock
 62
     0
370
    -2
100
AcDbLine
 10
-1.0
 20
0.166667
 30
0.0
 11
0.0
 21
0.0
 31
0.0
  0
LINE
  5
76
330
72
100
AcDbEntity
  8
0
  6
ByBlock
 62
     0
370
    -2
100
AcDbLine
 10
0.0
 20
0.0
 30
0.0
 11
-1.0
 21
-0.166667
 31
0.0
  0
LINE
  5
77
330
72
100
AcDbEntity
  8
0
  6
ByBlock
 62
     0
370
    -2
100
AcDbLine
 10
-1.0
 20
0.166667
 30
0.0
 11
-1.0
 21
-0.166667
 31
0.0
  0
LINE
  5
78
330
72
100
AcDbEntity
  8
0
  6
ByBlock
 62
     0
370
    -2
100
AcDbLine
 10
0.0
 20
0.0
 30
0.0
 11
-1.0
 21
0.0
 31
0.0
  0
ENDBLK
  5
74
330
72
100
AcDbEntity
  8
0
100
AcDbBlockEnd
  0
BLOCK
  5
FF
330
7B
100
AcDbEntity
  8
0
100
AcDbBlockBegin
  2
a
 70
     0
 10
367.122772
 20
167.583282
 30
0.0
  3
a
  1

  0
ARC
  5
7C
330
7B
100
AcDbEntity
  8
0
  6
Continuous
 62
     0
370
    30
100
AcDbCircle
 10
572.896563
 20
674.818757
 30
0.0
 40
0.5
100
AcDbArc
 50
179.999909
 51
269.999909
  0
ARC
  5
7D
330
7B
100
AcDbEntity
  8
0
  6
Continuous
 62
     0
370
    30
100
AcDbCircle
 10
572.896563
 20
674.677538
 30
0.0
 40
0.5
100
AcDbArc
 50
179.999909
 51
269.999909
  0
ARC
  5
7E
330
7B
100
AcDbEntity
  8
0
  6
Continuous
 62
     0
370
    30
100
AcDbCircle
 10
572.896563
 20
730.818579
 30
0.0
 40
0.5
100
AcDbArc
 50
90.000091
 51
180.000091
  0
LINE
  5
7F
330
7B
100
AcDbEntity
  8
0
  6
Continuous
 62
     0
370
     0
100
AcDbLine
 10
572.896563
 20
730.818579
 30
0.0
 11
572.396563
 21
730.818579
 31
0.0
  0
LINE
  5
80
330
7B
100
AcDbEntity
  8
0
  6
Continuous
 62
     0
370
    30
100
AcDbLine
 10
572.396563
 20
730.818579
 30
0.0
 11
572.396563
 21
674.818757
 31
0.0
  0
LINE
  5
81
330
7B
100
AcDbEntity
  8
0
  6
Continuous
 62
     0
370
     0
100
AcDbLine
 10
572.396563
 20
674.818757
 30
0.0
 11
572.896563
 21
674.818757
 31
0.0
  0
LINE
  5
82
330
7B
100
AcDbEntity
  8
0
  6
Continuous
 62
     0
370
     0
100
AcDbLine
 10
572.896563
 20
674.820018
 30
0.0
 11
572.896563
 21
730.81984
 31
0.0
  0
LINE
  5
83
330
7B
100
AcDbEntity
  8
0
  6
Continuous
 62
     0
370
     0
100
AcDbLine
 10
572.896563
 20
730.81984
 30
0.0
 11
572.896563
 21
731.318578
 31
0.0
  0
LINE
  5
84
330
7B
100
AcDbEntity
  8
0
  6
Continuous
 62
     0
370
     0
100
AcDbLine
 10
572.896563
 20
674.318759
 30
0.0
 11
572.896563
 21
674.820018
 31
0.0
  0
LINE
  5
85
330
7B
100
AcDbEntity
  8
0
  6
Continuous
 62
     0
370
     0
100
AcDbLine
 10
572.896563
 20
731.318578
 30
0.0
 11
582.616563
 21
731.318578
 31
0.0
  0
LINE
  5
86
330
7B
100
AcDbEntity
  8
0
  6
Continuous
 62
     0
370
     0
100
AcDbLine
 10
572.896563
 20
730.81984
 30
0.0
 11
582.616563
 21
730.81984
 31
0.0
  0
LINE
  5
87
330
7B
100
AcDbEntity
  8
0
  6
Continuous
 62
     0
370
    30
100
AcDbLine
 10
582.616563
 20
730.81984
 30
0.0
 11
582.616563
 21
731.318579
 31
0.0
  0
LINE
  5
88
330
7B
100
AcDbEntity
  8
0
  6
Continuous
 62
     0
370
     0
100
AcDbLine
 10
572.896563
 20
674.820018
 30
0.0
 11
582.616563
 21
674.820018
 31
0.0
  0
LINE
  5
89
330
7B
100
AcDbEntity
  8
0
  6
Continuous
 62
     0
370
    30
100
AcDbLine
 10
582.616563
 20
674.820018
 30
0.0
 11
582.616563
 21
730.81984
 31
0.0
  0
LINE
  5
8A
330
7B
100
AcDbEntity
  8
0
  6
Continuous
 62
     0
370
     0
100
AcDbLine
 10
582.616563
 20
674.177539
 30
0.0
 11
572.896563
 21
674.177539
 31
0.0
  0
LINE
  5
8B
330
7B
100
AcDbEntity
  8
0
  6
Continuous
 62
     0
370
     0
100
AcDbLine
 10
582.616563
 20
674.318759
 30
0.0
 11
572.896563
 21
674.318759
 31
0.0
  0
LINE
  5
8C
330
7B
100
AcDbEntity
  8
0
  6
Continuous
 62
     0
370
    30
100
AcDbLine
 10
582.616563
 20
674.318757
 30
0.0
 11
582.616563
 21
674.820018
 31
0.0
  0
ARC
  5
8D
330
7B
100
AcDbEntity
  8
0
  6
Continuous
 62
     0
370
    30
100
AcDbCircle
 10
571.696563
 20
723.268819
 30
0.0
 40
0.5
100
AcDbArc
 50
270.000091
 51
0.000091
  0
ARC
  5
8E
330
7B
100
AcDbEntity
  8
0
  6
Continuous
 62
     0
370
    30
100
AcDbCircle
 10
571.677971
 20
722.24978
 30
0.0
 40
0.5193730448106566
100
AcDbArc
 50
3.143122
 51
87.948573
  0
LINE
  5
8F
330
7B
100
AcDbEntity
  8
0
  6
Continuous
 62
     0
370
     0
100
AcDbLine
 10
571.696563
 20
722.768821
 30
0.0
 11
565.196563
 21
722.759343
 31
0.0
  0
LWPOLYLINE
  5
90
330
7B
100
AcDbEntity
  8
0
  6
Continuous
 62
     0
370
     0
100
AcDbPolyline
 90
        5
 70
     0
 43
0.0
 10
565.196533
 20
722.759338
 10
565.196533
 20
722.724792
 10
565.196533
 20
722.614136
 10
565.196533
 20
722.445251
 10
565.196533
 20
722.26062
  0
LINE
  5
91
330
7B
100
AcDbEntity
  8
0
  6
Continuous
 62
     0
370
     0
100
AcDbLine
 10
565.196563
 20
722.260605
 30
0.0
 11
572.196563
 21
722.278258
 31
0.0
  0
LINE
  5
92
330
7B
100
AcDbEntity
  8
0
  6
Continuous
 62
     0
370
     0
100
AcDbLine
 10
544.696563
 20
722.759343
 30
0.0
 11
565.196563
 21
722.759343
 31
0.0
  0
ARC
  5
93
330
7B
100
AcDbEntity
  8
0
  6
Continuous
 62
     0
370
    30
100
AcDbCircle
 10
571.696563
 20
682.268949
 30
0.0
 40
0.5
100
AcDbArc
 50
359.999909
 51
89.999909
  0
ARC
  5
94
330
7B
100
AcDbEntity
  8
0
  6
Continuous
 62
     0
370
    30
100
AcDbCircle
 10
571.661622
 20
683.30333
 30
0.0
 40
0.5355228490988363
100
AcDbArc
 50
273.741054
 51
357.329872
  0
LINE
  5
95
330
7B
100
AcDbEntity
  8
0
  6
Continuous
 62
     0
370
     0
100
AcDbLine
 10
571.696563
 20
682.768948
 30
0.0
 11
565.196563
 21
682.75947
 31
0.0
  0
LINE
  5
96
330
7B
100
AcDbEntity
  8
0
  6
Continuous
 62
     0
370
     0
100
AcDbLine
 10
565.196563
 20
682.75947
 30
0.0
 11
544.696563
 21
682.75947
 31
0.0
  0
ARC
  5
97
330
7B
100
AcDbEntity
  8
0
  6
Continuous
 62
     0
370
    30
100
AcDbCircle
 10
544.696562
 20
722.259344
 30
0.0
 40
0.4999992050784559
100
AcDbArc
 50
89.999909
 51
179.999909
  0
LINE
  5
98
330
7B
100
AcDbEntity
  8
0
  6
Continuous
 62
     0
370
    30
100
AcDbLine
 10
544.196563
 20
722.259345
 30
0.0
 11
544.696563
 21
722.260605
 31
0.0
  0
LINE
  5
99
330
7B
100
AcDbEntity
  8
0
  6
Continuous
 62
     0
370
     0
100
AcDbLine
 10
544.696563
 20
722.260605
 30
0.0
 11
544.696563
 21
722.759343
 31
0.0
  0
LINE
  5
9A
330
7B
100
AcDbEntity
  8
0
  6
Continuous
 62
     0
370
    30
100
AcDbLine
 10
544.696563
 20
683.260729
 30
0.0
 11
544.196563
 21
683.259469
 31
0.0
  0
ARC
  5
9B
330
7B
100
AcDbEntity
  8
0
  6
Continuous
 62
     0
370
    30
100
AcDbCircle
 10
544.696562
 20
683.259469
 30
0.0
 40
0.499999205079511
100
AcDbArc
 50
180.000091
 51
270.000091
  0
LINE
  5
9C
330
7B
100
AcDbEntity
  8
0
  6
Continuous
 62
     0
370
     0
100
AcDbLine
 10
544.696563
 20
682.75947
 30
0.0
 11
544.696563
 21
683.260729
 31
0.0
  0
LINE
  5
9D
330
7B
100
AcDbEntity
  8
0
  6
Continuous
 62
     0
370
     0
100
AcDbLine
 10
565.196563
 20
682.759469
 30
0.0
 11
565.196563
 21
683.260729
 31
0.0
  0
LINE
  5
9E
330
7B
100
AcDbEntity
  8
0
  6
Continuous
 62
     0
370
     0
100
AcDbLine
 10
565.196563
 20
683.260729
 30
0.0
 11
544.696563
 21
683.260729
 31
0.0
  0
LINE
  5
9F
330
7B
100
AcDbEntity
  8
0
  6
Continuous
 62
     0
370
     0
100
AcDbLine
 10
544.696563
 20
683.260729
 30
0.0
 11
544.696563
 21
722.260605
 31
0.0
  0
LINE
  5
A0
330
7B
100
AcDbEntity
  8
0
  6
Continuous
 62
     0
370
    30
100
AcDbLine
 10
544.196563
 20
722.259345
 30
0.0
 11
544.196563
 21
683.259469
 31
0.0
  0
LINE
  5
A1
330
7B
100
AcDbEntity
  8
0
  6
Continuous
 62
     0
370
     0
100
AcDbLine
 10
544.696563
 20
722.260605
 30
0.0
 11
565.196563
 21
722.260605
 31
0.0
  0
LINE
  5
A2
330
7B
100
AcDbEntity
  8
0
  6
Continuous
 62
     0
370
     0
100
AcDbLine
 10
572.196563
 20
683.278382
 30
0.0
 11
565.196563
 21
683.260729
 31
0.0
  0
LINE
  5
A3
330
7B
100
AcDbEntity
  8
0
  6
Continuous
 62
     0
370
     0
100
AcDbLine
 10
565.196563
 20
683.260729
 30
0.0
 11
565.196563
 21
722.260605
 31
0.0
  0
LINE
  5
A4
330
7B
100
AcDbEntity
  8
0
  6
Continuous
 62
     0
370
    30
100
AcDbLine
 10
572.196563
 20
678.748135
 30
0.0
 11
572.196563
 21
726.747982
 31
0.0
  0
ARC
  5
A5
330
7B
100
AcDbEntity
  8
0
  6
Continuous
 62
     0
370
    30
100
AcDbCircle
 10
572.896563
 20
530.819216
 30
0.0
 40
0.5
100
AcDbArc
 50
90.000091
 51
180.000091
  0
ARC
  5
A6
330
7B
100
AcDbEntity
  8
0
  6
Continuous
 62
     0
370
    30
100
AcDbCircle
 10
572.896563
 20
474.819394
 30
0.0
 40
0.5
100
AcDbArc
 50
179.999909
 51
269.999909
  0
ARC
  5
A7
330
7B
100
AcDbEntity
  8
0
  6
Continuous
 62
     0
370
    30
100
AcDbCircle
 10
572.896563
 20
474.678174
 30
0.0
 40
0.5
100
AcDbArc
 50
179.999909
 51
269.999909
  0
LINE
  5
A8
330
7B
100
AcDbEntity
  8
0
  6
Continuous
 62
     0
370
     0
100
AcDbLine
 10
572.896563
 20
530.820477
 30
0.0
 11
572.896563
 21
474.820655
 31
0.0
  0
LINE
  5
A9
330
7B
100
AcDbEntity
  8
0
  6
Continuous
 62
     0
370
     0
100
AcDbLine
 10
572.396563
 20
530.819216
 30
0.0
 11
572.896563
 21
530.819216
 31
0.0
  0
LINE
  5
AA
330
7B
100
AcDbEntity
  8
0
  6
Continuous
 62
     0
370
    30
100
AcDbLine
 10
572.396563
 20
474.819394
 30
0.0
 11
572.396563
 21
530.819216
 31
0.0
  0
LINE
  5
AB
330
7B
100
AcDbEntity
  8
0
  6
Continuous
 62
     0
370
     0
100
AcDbLine
 10
572.896563
 20
474.819394
 30
0.0
 11
572.396563
 21
474.819394
 31
0.0
  0
LINE
  5
AC
330
7B
100
AcDbEntity
  8
0
  6
Continuous
 62
     0
370
     0
100
AcDbLine
 10
572.896563
 20
474.820655
 30
0.0
 11
572.896563
 21
474.319395
 31
0.0
  0
LWPOLYLINE
  5
AD
330
7B
100
AcDbEntity
  8
0
  6
Continuous
 62
     0
370
     0
100
AcDbPolyline
 90
        5
 70
     0
 43
0.0
 10
572.896545
 20
531.319214
 10
572.896545
 20
531.284668
 10
572.896545
 20
531.174011
 10
572.896545
 20
531.005127
 10
572.896545
 20
530.820496
  0
LINE
  5
AE
330
7B
100
AcDbEntity
  8
0
  6
Continuous
 62
     0
370
     0
100
AcDbLine
 10
572.896563
 20
474.178176
 30
0.0
 11
582.616563
 21
474.178176
 31
0.0
  0
LINE
  5
AF
330
7B
100
AcDbEntity
  8
0
  6
Continuous
 62
     0
370
     0
100
AcDbLine
 10
572.896563
 20
474.319395
 30
0.0
 11
582.616563
 21
474.319395
 31
0.0
  0
LINE
  5
B0
330
7B
100
AcDbEntity
  8
0
  6
Continuous
 62
     0
370
    30
100
AcDbLine
 10
582.616563
 20
474.820655
 30
0.0
 11
582.616563
 21
474.319394
 31
0.0
  0
LINE
  5
B1
330
7B
100
AcDbEntity
  8
0
  6
Continuous
 62
     0
370
     0
100
AcDbLine
 10
572.896563
 20
474.820655
 30
0.0
 11
582.616563
 21
474.820655
 31
0.0
  0
LINE
  5
B2
330
7B
100
AcDbEntity
  8
0
  6
Continuous
 62
     0
370
    30
100
AcDbLine
 10
582.616563
 20
530.820477
 30
0.0
 11
582.616563
 21
474.820655
 31
0.0
  0
LINE
  5
B3
330
7B
100
AcDbEntity
  8
0
  6
Continuous
 62
     0
370
     0
100
AcDbLine
 10
572.896563
 20
530.820477
 30
0.0
 11
582.616563
 21
530.820477
 31
0.0
  0
LINE
  5
B4
330
7B
100
AcDbEntity
  8
0
  6
Continuous
 62
     0
370
     0
100
AcDbLine
 10
582.616563
 20
531.319214
 30
0.0
 11
572.896563
 21
531.319214
 31
0.0
  0
LINE
  5
B5
330
7B
100
AcDbEntity
  8
0
  6
Continuous
 62
     0
370
    30
100
AcDbLine
 10
582.616563
 20
531.319216
 30
0.0
 11
582.616563
 21
530.820477
 31
0.0
  0
ARC
  5
B6
330
7B
100
AcDbEntity
  8
0
  6
Continuous
 62
     0
370
    30
100
AcDbCircle
 10
571.696563
 20
482.269586
 30
0.0
 40
0.5
100
AcDbArc
 50
359.999909
 51
89.999909
  0
ARC
  5
B7
330
7B
100
AcDbEntity
  8
0
  6
Continuous
 62
     0
370
    30
100
AcDbCircle
 10
571.661777
 20
483.303814
 30
0.0
 40
0.5353611055108283
100
AcDbArc
 50
273.725578
 51
357.345348
  0
LINE
  5
B8
330
7B
100
AcDbEntity
  8
0
  6
Continuous
 62
     0
370
     0
100
AcDbLine
 10
565.196563
 20
483.261366
 30
0.0
 11
572.196563
 21
483.279018
 31
0.0
  0
LINE
  5
B9
330
7B
100
AcDbEntity
  8
0
  6
Continuous
 62
     0
370
     0
100
AcDbLine
 10
565.196563
 20
482.760107
 30
0.0
 11
565.196563
 21
483.261366
 31
0.0
  0
LINE
  5
BA
330
7B
100
AcDbEntity
  8
0
  6
Continuous
 62
     0
370
     0
100
AcDbLine
 10
571.696563
 20
482.769584
 30
0.0
 11
565.196563
 21
482.760107
 31
0.0
  0
LINE
  5
BB
330
7B
100
AcDbEntity
  8
0
  6
Continuous
 62
     0
370
     0
100
AcDbLine
 10
544.696563
 20
482.760107
 30
0.0
 11
565.196563
 21
482.760107
 31
0.0
  0
ARC
  5
BC
330
7B
100
AcDbEntity
  8
0
  6
Continuous
 62
     0
370
    30
100
AcDbCircle
 10
571.696563
 20
523.269456
 30
0.0
 40
0.5
100
AcDbArc
 50
270.000091
 51
0.000091
  0
ARC
  5
BD
330
7B
100
AcDbEntity
  8
0
  6
Continuous
 62
     0
370
    30
100
AcDbCircle
 10
571.677827
 20
522.25027
 30
0.0
 40
0.5195248095312865
100
AcDbArc
 50
3.158405
 51
87.93329
  0
LINE
  5
BE
330
7B
100
AcDbEntity
  8
0
  6
Continuous
 62
     0
370
     0
100
AcDbLine
 10
565.196563
 20
522.759979
 30
0.0
 11
544.696563
 21
522.759979
 31
0.0
  0
LINE
  5
BF
330
7B
100
AcDbEntity
  8
0
  6
Continuous
 62
     0
370
     0
100
AcDbLine
 10
571.696563
 20
522.769457
 30
0.0
 11
565.196563
 21
522.759979
 31
0.0
  0
LINE
  5
C0
330
7B
100
AcDbEntity
  8
0
  6
Continuous
 62
     0
370
     0
100
AcDbLine
 10
544.696563
 20
483.261366
 30
0.0
 11
544.696563
 21
482.760107
 31
0.0
  0
LINE
  5
C1
330
7B
100
AcDbEntity
  8
0
  6
Continuous
 62
     0
370
    30
100
AcDbLine
 10
544.196563
 20
483.260105
 30
0.0
 11
544.696563
 21
483.261366
 31
0.0
  0
ARC
  5
C2
330
7B
100
AcDbEntity
  8
0
  6
Continuous
 62
     0
370
    30
100
AcDbCircle
 10
544.696562
 20
483.260106
 30
0.0
 40
0.4999992050824046
100
AcDbArc
 50
180.000091
 51
270.000091
  0
LWPOLYLINE
  5
C3
330
7B
100
AcDbEntity
  8
0
  6
Continuous
 62
     0
370
     0
100
AcDbPolyline
 90
        5
 70
     0
 43
0.0
 10
544.696533
 20
522.76001
 10
544.696533
 20
522.725403
 10
544.696533
 20
522.614807
 10
544.696533
 20
522.445923
 10
544.696533
 20
522.26123
  0
ARC
  5
C4
330
7B
100
AcDbEntity
  8
0
  6
Continuous
 62
     0
370
    30
100
AcDbCircle
 10
544.696562
 20
522.25998
 30
0.0
 40
0.4999992050816
100
AcDbArc
 50
89.999909
 51
179.999909
  0
LINE
  5
C5
330
7B
100
AcDbEntity
  8
0
  6
Continuous
 62
     0
370
    30
100
AcDbLine
 10
544.696563
 20
522.261242
 30
0.0
 11
544.196563
 21
522.259981
 31
0.0
  0
LINE
  5
C6
330
7B
100
AcDbEntity
  8
0
  6
Continuous
 62
     0
370
     0
100
AcDbLine
 10
565.196563
 20
522.261242
 30
0.0
 11
544.696563
 21
522.261242
 31
0.0
  0
LINE
  5
C7
330
7B
100
AcDbEntity
  8
0
  6
Continuous
 62
     0
370
     0
100
AcDbLine
 10
565.196563
 20
522.759981
 30
0.0
 11
565.196563
 21
522.261242
 31
0.0
  0
LINE
  5
C8
330
7B
100
AcDbEntity
  8
0
  6
Continuous
 62
     0
370
    30
100
AcDbLine
 10
544.196563
 20
483.260105
 30
0.0
 11
544.196563
 21
522.259981
 31
0.0
  0
LINE
  5
C9
330
7B
100
AcDbEntity
  8
0
  6
Continuous
 62
     0
370
     0
100
AcDbLine
 10
544.696563
 20
522.261242
 30
0.0
 11
544.696563
 21
483.261366
 31
0.0
  0
LINE
  5
CA
330
7B
100
AcDbEntity
  8
0
  6
Continuous
 62
     0
370
     0
100
AcDbLine
 10
544.696563
 20
483.261366
 30
0.0
 11
565.196563
 21
483.261366
 31
0.0
  0
LINE
  5
CB
330
7B
100
AcDbEntity
  8
0
  6
Continuous
 62
     0
370
     0
100
AcDbLine
 10
572.196563
 20
522.278894
 30
0.0
 11
565.196563
 21
522.261242
 31
0.0
  0
LINE
  5
CC
330
7B
100
AcDbEntity
  8
0
  6
Continuous
 62
     0
370
     0
100
AcDbLine
 10
565.196563
 20
522.261242
 30
0.0
 11
565.196563
 21
483.261366
 31
0.0
  0
LWPOLYLINE
  5
CD
330
7B
100
AcDbEntity
  8
0
  6
Continuous
 62
     0
370
    30
100
AcDbPolyline
 90
       57
 70
     0
 43
0.0
 10
572.196533
 20
526.748596
 10
572.196533
 20
526.720459
 10
572.196533
 20
526.627502
 10
572.196533
 20
526.466309
 10
572.196533
 20
526.233887
 10
572.196533
 20
525.927673
 10
572.196533
 20
525.545715
 10
572.196533
 20
525.086731
 10
572.196533
 20
524.550049
 10
572.196533
 20
523.935913
 10
572.196533
 20
523.245239
 10
572.196533
 20
522.479858
 10
572.196533
 20
521.642334
 10
572.196533
 20
520.736206
 10
572.196533
 20
519.765625
 10
572.196533
 20
518.735596
 10
572.196533
 20
517.65155
 10
572.196533
 20
516.519592
 10
572.196533
 20
515.346252
 10
572.196533
 20
514.138245
 10
572.196533
 20
512.902527
 10
572.196533
 20
511.646118
 10
572.196533
 20
510.375885
 10
572.196533
 20
509.098572
 10
572.196533
 20
507.820679
 10
572.196533
 20
506.548248
 10
572.196533
 20
505.286957
 10
572.196533
 20
504.041992
 10
572.196533
 20
502.818024
 10
572.196533
 20
501.594238
 10
572.196533
 20
500.34906
 10
572.196533
 20
499.087158
 10
572.196533
 20
497.81366
 10
572.196533
 20
496.534241
 10
572.196533
 20
495.254944
 10
572.196533
 20
493.982239
 10
572.196533
 20
492.722839
 10
572.196533
 20
491.483673
 10
572.196533
 20
490.271729
 10
572.196533
 20
489.093933
 10
572.196533
 20
487.957123
 10
572.196533
 20
486.867767
 10
572.196533
 20
485.83197
 10
572.196533
 20
484.855286
 10
572.196533
 20
483.942719
 10
572.196533
 20
483.09848
 10
572.196533
 20
482.32608
 10
572.196533
 20
481.628174
 10
572.196533
 20
481.006683
 10
572.196533
 20
480.462555
 10
572.196533
 20
479.996002
 10
572.196533
 20
479.606506
 10
572.196533
 20
479.292755
 10
572.196533
 20
479.052856
 10
572.196533
 20
478.884277
 10
572.196533
 20
478.784058
 10
572.196533
 20
478.748779
  0
LINE
  5
CE
330
7B
100
AcDbEntity
  8
0
  6
Continuous
 62
     0
370
    30
100
AcDbLine
 10
572.196563
 20
526.748695
 30
0.0
 11
572.396563
 21
526.748695
 31
0.0
  0
LINE
  5
CF
330
7B
100
AcDbEntity
  8
0
  6
Continuous
 62
     0
370
    30
100
AcDbLine
 10
407.09113
 20
584.159269
 30
0.0
 11
398.59248
 21
584.159269
 31
0.0
  0
LINE
  5
D0
330
7B
100
AcDbEntity
  8
0
  6
Continuous
 62
     0
370
    30
100
AcDbLine
 10
398.59248
 20
621.45915
 30
0.0
 11
398.59248
 21
584.159269
 31
0.0
  0
LINE
  5
D1
330
7B
100
AcDbEntity
  8
0
  6
Continuous
 62
     0
370
    30
100
AcDbLine
 10
407.09113
 20
621.45915
 30
0.0
 11
407.09113
 21
584.159269
 31
0.0
  0
LINE
  5
D2
330
7B
100
AcDbEntity
  8
0
  6
Continuous
 62
     0
370
    30
100
AcDbLine
 10
407.09113
 20
621.45915
 30
0.0
 11
398.59248
 21
621.45915
 31
0.0
  0
LINE
  5
D3
330
7B
100
AcDbEntity
  8
0
  6
Continuous
 62
     0
370
     0
100
AcDbLine
 10
465.996208
 20
583.210922
 30
0.0
 11
465.996208
 21
582.709661
 31
0.0
  0
LINE
  5
D4
330
7B
100
AcDbEntity
  8
0
  6
Continuous
 62
     0
370
     0
100
AcDbLine
 10
465.996208
 20
582.709663
 30
0.0
 11
572.396563
 21
582.709663
 31
0.0
  0
LINE
  5
D5
330
7B
100
AcDbEntity
  8
0
  6
Continuous
 62
     0
370
     0
100
AcDbLine
 10
465.996208
 20
583.210922
 30
0.0
 11
572.396563
 21
583.210922
 31
0.0
  0
ARC
  5
D6
330
7B
100
AcDbEntity
  8
0
  6
Continuous
 62
     0
370
    30
100
AcDbCircle
 10
397.564755
 20
622.264727
 30
0.0
 40
0.5457545607952081
100
AcDbArc
 50
85.990987
 51
175.331367
  0
LINE
  5
D7
330
7B
100
AcDbEntity
  8
0
  6
Continuous
 62
     0
370
    30
100
AcDbLine
 10
397.020811
 20
583.309271
 30
0.0
 11
397.020811
 21
622.309147
 31
0.0
  0
ARC
  5
D8
330
7B
100
AcDbEntity
  8
0
  6
Continuous
 62
     0
370
    30
100
AcDbCircle
 10
397.564755
 20
583.353692
 30
0.0
 40
0.5457545313208627
100
AcDbArc
 50
184.668615
 51
274.009015
  0
LINE
  5
D9
330
7B
100
AcDbEntity
  8
0
  6
Continuous
 62
     0
370
    30
100
AcDbLine
 10
397.602911
 20
582.809273
 30
0.0
 11
408.080699
 21
582.809273
 31
0.0
  0
ARC
  5
DA
330
7B
100
AcDbEntity
  8
0
  6
Continuous
 62
     0
370
    30
100
AcDbCircle
 10
408.118855
 20
583.353692
 30
0.0
 40
0.5457545599591016
100
AcDbArc
 50
265.990994
 51
355.331361
  0
LINE
  5
DB
330
7B
100
AcDbEntity
  8
0
  6
Continuous
 62
     0
370
    30
100
AcDbLine
 10
408.662798
 20
583.309271
 30
0.0
 11
408.662798
 21
622.309147
 31
0.0
  0
ARC
  5
DC
330
7B
100
AcDbEntity
  8
0
  6
Continuous
 62
     0
370
    30
100
AcDbCircle
 10
408.118855
 20
622.264727
 30
0.0
 40
0.5457545515683029
100
AcDbArc
 50
4.668639
 51
94.009002
  0
LINE
  5
DD
330
7B
100
AcDbEntity
  8
0
  6
Continuous
 62
     0
370
    30
100
AcDbLine
 10
397.602911
 20
622.809146
 30
0.0
 11
408.080699
 21
622.809146
 31
0.0
  0
LINE
  5
DE
330
7B
100
AcDbEntity
  8
0
  6
Continuous
 62
     0
370
     0
100
AcDbLine
 10
408.080699
 20
582.809273
 30
0.0
 11
414.029135
 21
582.784109
 31
0.0
  0
ARC
  5
DF
330
7B
100
AcDbEntity
  8
0
  6
Continuous
 62
     0
370
     0
100
AcDbCircle
 10
413.990122
 20
583.252114
 30
0.0
 40
0.4696284070073207
100
AcDbArc
 50
274.765157
 51
3.985233
  0
LINE
  5
E0
330
7B
100
AcDbEntity
  8
0
  6
Continuous
 62
     0
370
     0
100
AcDbLine
 10
408.662798
 20
583.309271
 30
0.0
 11
414.458615
 21
583.284753
 31
0.0
  0
LINE
  5
E1
330
7B
100
AcDbEntity
  8
0
  6
Continuous
 62
     0
370
     0
100
AcDbLine
 10
465.996208
 20
622.210798
 30
0.0
 11
572.396563
 21
622.210798
 31
0.0
  0
LINE
  5
E2
330
7B
100
AcDbEntity
  8
0
  6
Continuous
 62
     0
370
     0
100
AcDbLine
 10
465.996208
 20
622.709536
 30
0.0
 11
572.396563
 21
622.709536
 31
0.0
  0
LINE
  5
E3
330
7B
100
AcDbEntity
  8
0
  6
Continuous
 62
     0
370
     0
100
AcDbLine
 10
465.996208
 20
622.210798
 30
0.0
 11
465.996208
 21
622.709537
 31
0.0
  0
LINE
  5
E4
330
7B
100
AcDbEntity
  8
0
  6
Continuous
 62
     0
370
     0
100
AcDbLine
 10
408.662798
 20
622.309147
 30
0.0
 11
414.458615
 21
622.284629
 31
0.0
  0
ARC
  5
E5
330
7B
100
AcDbEntity
  8
0
  6
Continuous
 62
     0
370
     0
100
AcDbCircle
 10
413.991838
 20
622.317535
 30
0.0
 40
0.4679352204596982
100
AcDbArc
 50
355.967498
 51
85.428386
  0
LINE
  5
E6
330
7B
100
AcDbEntity
  8
0
  6
Continuous
 62
     0
370
     0
100
AcDbLine
 10
408.080699
 20
622.809146
 30
0.0
 11
414.029135
 21
622.783982
 31
0.0
  0
ELLIPSE
  5
E7
330
7B
100
AcDbEntity
  8
0
  6
Continuous
 62
     0
370
     0
100
AcDbEllipse
 10
465.996208
 20
582.86223
 30
0.0
 11
60.5
 21
0.0
 31
0.0
210
0.0
220
0.0
230
1.0
 40
0.002522
 41
3.679154063204054
 42
4.71238898038469
  0
LINE
  5
E8
330
7B
100
AcDbEntity
  8
0
  6
Continuous
 62
     0
370
     0
100
AcDbLine
 10
465.996208
 20
583.210922
 30
0.0
 11
465.996208
 21
622.210798
 31
0.0
  0
LINE
  5
E9
330
7B
100
AcDbEntity
  8
0
  6
Continuous
 62
     0
370
     0
100
AcDbLine
 10
414.458615
 20
583.284753
 30
0.0
 11
414.458615
 21
622.284629
 31
0.0
  0
ELLIPSE
  5
EA
330
7B
100
AcDbEntity
  8
0
  6
Continuous
 62
     0
370
     0
100
AcDbEllipse
 10
465.996208
 20
583.362229
 30
0.0
 11
60.0
 21
0.0
 31
0.0
210
0.0
220
0.0
230
1.0
 40
0.002522
 41
3.679154063204042
 42
4.71238898038469
  0
ELLIPSE
  5
EB
330
7B
100
AcDbEntity
  8
0
  6
Continuous
 62
     0
370
     0
100
AcDbEllipse
 10
465.996208
 20
622.362105
 30
0.0
 11
60.0
 21
0.0
 31
0.0
210
0.0
220
0.0
230
1.0
 40
0.002522
 41
3.679154063204042
 42
4.71238898038469
  0
ELLIPSE
  5
EC
330
7B
100
AcDbEntity
  8
0
  6
Continuous
 62
     0
370
     0
100
AcDbEllipse
 10
465.996208
 20
622.862103
 30
0.0
 11
60.5
 21
0.0
 31
0.0
210
0.0
220
0.0
230
1.0
 40
0.002522
 41
3.679154063204053
 42
4.71238898038469
  0
LINE
  5
ED
330
7B
100
AcDbEntity
  8
0
  6
Continuous
 62
     0
370
    30
100
AcDbLine
 10
582.616563
 20
630.820159
 30
0.0
 11
582.616563
 21
631.318898
 31
0.0
  0
LINE
  5
EE
330
7B
100
AcDbEntity
  8
0
  6
Continuous
 62
     0
370
    30
100
AcDbLine
 10
582.616563
 20
574.820337
 30
0.0
 11
582.616563
 21
630.820159
 31
0.0
  0
LINE
  5
EF
330
7B
100
AcDbEntity
  8
0
  6
Continuous
 62
     0
370
    30
100
AcDbLine
 10
582.616563
 20
574.319076
 30
0.0
 11
582.616563
 21
574.820337
 31
0.0
  0
LINE
  5
F0
330
7B
100
AcDbEntity
  8
0
  6
Continuous
 62
     0
370
     0
100
AcDbLine
 10
572.896563
 20
574.319076
 30
0.0
 11
572.896563
 21
574.820337
 31
0.0
  0
LINE
  5
F1
330
7B
100
AcDbEntity
  8
0
  6
Continuous
 62
     0
370
    30
100
AcDbLine
 10
572.896563
 20
574.819076
 30
0.0
 11
572.396563
 21
574.819076
 31
0.0
  0
ARC
  5
F2
330
7B
100
AcDbEntity
  8
0
  6
Continuous
 62
     0
370
    30
100
AcDbCircle
 10
572.896563
 20
574.819076
 30
0.0
 40
0.500000000000001
100
AcDbArc
 50
180.0
 51
270.0
  0
LINE
  5
F3
330
7B
100
AcDbEntity
  8
0
  6
Continuous
 62
     0
370
     0
100
AcDbLine
 10
572.396563
 20
630.818898
 30
0.0
 11
572.896563
 21
630.818898
 31
0.0
  0
LINE
  5
F4
330
7B
100
AcDbEntity
  8
0
  6
Continuous
 62
     0
370
    30
100
AcDbLine
 10
572.396563
 20
574.819076
 30
0.0
 11
572.396563
 21
630.818898
 31
0.0
  0
LINE
  5
F5
330
7B
100
AcDbEntity
  8
0
  6
Continuous
 62
     0
370
     0
100
AcDbLine
 10
572.896563
 20
630.820159
 30
0.0
 11
572.896563
 21
574.820337
 31
0.0
  0
ARC
  5
F6
330
7B
100
AcDbEntity
  8
0
  6
Continuous
 62
     0
370
    30
100
AcDbCircle
 10
572.896563
 20
630.818898
 30
0.0
 40
0.500000000000001
100
AcDbArc
 50
90.0
 51
180.0
  0
LINE
  5
F7
330
7B
100
AcDbEntity
  8
0
  6
Continuous
 62
     0
370
     0
100
AcDbLine
 10
572.896563
 20
630.820159
 30
0.0
 11
572.896563
 21
631.318898
 31
0.0
  0
ARC
  5
F8
330
7B
100
AcDbEntity
  8
0
  6
Continuous
 62
     0
370
    30
100
AcDbCircle
 10
572.896563
 20
574.677856
 30
0.0
 40
0.500000000000001
100
AcDbArc
 50
180.0
 51
270.0
  0
LINE
  5
F9
330
7B
100
AcDbEntity
  8
0
  6
Continuous
 62
     0
370
     0
100
AcDbLine
 10
582.616563
 20
574.820337
 30
0.0
 11
572.896563
 21
574.820337
 31
0.0
  0
LINE
  5
FA
330
7B
100
AcDbEntity
  8
0
  6
Continuous
 62
     0
370
     0
100
AcDbLine
 10
572.896563
 20
574.319077
 30
0.0
 11
582.616563
 21
574.319077
 31
0.0
  0
LINE
  5
FB
330
7B
100
AcDbEntity
  8
0
  6
Continuous
 62
     0
370
     0
100
AcDbLine
 10
572.896563
 20
630.820159
 30
0.0
 11
582.616563
 21
630.820159
 31
0.0
  0
LINE
  5
FC
330
7B
100
AcDbEntity
  8
0
  6
Continuous
 62
     0
370
     0
100
AcDbLine
 10
582.616563
 20
631.318896
 30
0.0
 11
572.896563
 21
631.318896
 31
0.0
  0
LINE
  5
FD
330
7B
100
AcDbEntity
  8
0
  6
Continuous
 62
     0
370
     0
100
AcDbLine
 10
582.616563
 20
574.177858
 30
0.0
 11
572.896563
 21
574.177858
 31
0.0
  0
LINE
  5
FE
330
7B
100
AcDbEntity
  8
0
  6
Continuous
 62
     0
370
    30
100
AcDbLine
 10
465.996208
 20
622.709537
 30
0.0
 11
464.020675
 21
622.709619
 31
0.0
  0
ENDBLK
  5
100
330
7B
100
AcDbEntity
  8
0
100
AcDbBlockEnd
  0
BLOCK
  5
156
330
102
100
AcDbEntity
  8
0
100
AcDbBlockBegin
  2
b
 70
     0
 10
367.122772
 20
167.583282
 30
0.0
  3
b
  1

  0
ARC
  5
103
330
102
100
AcDbEntity
  8
0
  6
Continuous
 62
     0
370
    30
100
AcDbCircle
 10
572.896555
 20
234.004541
 30
0.0
 40
0.5
100
AcDbArc
 50
90.000091
 51
180.000091
  0
LINE
  5
104
330
102
100
AcDbEntity
  8
0
  6
Continuous
 62
     0
370
     0
100
AcDbLine
 10
572.896555
 20
234.004541
 30
0.0
 11
572.396555
 21
234.004541
 31
0.0
  0
LINE
  5
105
330
102
100
AcDbEntity
  8
0
  6
Continuous
 62
     0
370
    30
100
AcDbLine
 10
572.396555
 20
234.004541
 30
0.0
 11
572.396555
 21
178.004719
 31
0.0
  0
LINE
  5
106
330
102
100
AcDbEntity
  8
0
  6
Continuous
 62
     0
370
     0
100
AcDbLine
 10
572.396555
 20
178.004719
 30
0.0
 11
572.896555
 21
178.004719
 31
0.0
  0
LINE
  5
107
330
102
100
AcDbEntity
  8
0
  6
Continuous
 62
     0
370
     0
100
AcDbLine
 10
572.896555
 20
178.00598
 30
0.0
 11
572.896555
 21
234.005802
 31
0.0
  0
LINE
  5
108
330
102
100
AcDbEntity
  8
0
  6
Continuous
 62
     0
370
     0
100
AcDbLine
 10
572.896555
 20
234.005802
 30
0.0
 11
572.896555
 21
234.50454
 31
0.0
  0
ARC
  5
109
330
102
100
AcDbEntity
  8
0
  6
Continuous
 62
     0
370
    30
100
AcDbCircle
 10
572.896555
 20
178.004719
 30
0.0
 40
0.5
100
AcDbArc
 50
179.999909
 51
269.999909
  0
ARC
  5
10A
330
102
100
AcDbEntity
  8
0
  6
Continuous
 62
     0
370
    30
100
AcDbCircle
 10
572.896555
 20
177.863502
 30
0.0
 40
0.5
100
AcDbArc
 50
179.999909
 51
269.999909
  0
LINE
  5
10B
330
102
100
AcDbEntity
  8
0
  6
Continuous
 62
     0
370
     0
100
AcDbLine
 10
572.896555
 20
177.504721
 30
0.0
 11
572.896555
 21
178.00598
 31
0.0
  0
LINE
  5
10C
330
102
100
AcDbEntity
  8
0
  6
Continuous
 62
     0
370
     0
100
AcDbLine
 10
572.896555
 20
234.005802
 30
0.0
 11
582.616555
 21
234.005802
 31
0.0
  0
LINE
  5
10D
330
102
100
AcDbEntity
  8
0
  6
Continuous
 62
     0
370
    30
100
AcDbLine
 10
582.616555
 20
234.005802
 30
0.0
 11
582.616555
 21
234.504541
 31
0.0
  0
LINE
  5
10E
330
102
100
AcDbEntity
  8
0
  6
Continuous
 62
     0
370
     0
100
AcDbLine
 10
582.616555
 20
234.50454
 30
0.0
 11
572.896555
 21
234.50454
 31
0.0
  0
LINE
  5
10F
330
102
100
AcDbEntity
  8
0
  6
Continuous
 62
     0
370
     0
100
AcDbLine
 10
572.896555
 20
178.00598
 30
0.0
 11
582.616555
 21
178.00598
 31
0.0
  0
LINE
  5
110
330
102
100
AcDbEntity
  8
0
  6
Continuous
 62
     0
370
    30
100
AcDbLine
 10
582.616555
 20
178.00598
 30
0.0
 11
582.616555
 21
234.005802
 31
0.0
  0
LINE
  5
111
330
102
100
AcDbEntity
  8
0
  6
Continuous
 62
     0
370
     0
100
AcDbLine
 10
572.896555
 20
177.504721
 30
0.0
 11
582.616555
 21
177.504721
 31
0.0
  0
LINE
  5
112
330
102
100
AcDbEntity
  8
0
  6
Continuous
 62
     0
370
    30
100
AcDbLine
 10
582.616555
 20
177.504719
 30
0.0
 11
582.616555
 21
178.00598
 31
0.0
  0
LINE
  5
113
330
102
100
AcDbEntity
  8
0
  6
Continuous
 62
     0
370
     0
100
AcDbLine
 10
572.896555
 20
177.363504
 30
0.0
 11
582.616555
 21
177.363504
 31
0.0
  0
ARC
  5
114
330
102
100
AcDbEntity
  8
0
  6
Continuous
 62
     0
370
    30
100
AcDbCircle
 10
556.886384
 20
218.12615
 30
0.0
 40
15.31083875831571
100
AcDbArc
 50
345.307234
 51
359.46489
  0
LINE
  5
115
330
102
100
AcDbEntity
  8
0
  6
Continuous
 62
     0
370
     0
100
AcDbLine
 10
571.696555
 20
214.242773
 30
0.0
 11
572.196555
 21
214.244034
 31
0.0
  0
LINE
  5
116
330
102
100
AcDbEntity
  8
0
  6
Continuous
 62
     0
370
     0
100
AcDbLine
 10
572.196555
 20
197.727401
 30
0.0
 11
571.696555
 21
197.727401
 31
0.0
  0
LINE
  5
117
330
102
100
AcDbEntity
  8
0
  6
Continuous
 62
     0
370
     0
100
AcDbLine
 10
571.696555
 20
197.72614
 30
0.0
 11
571.696555
 21
214.242773
 31
0.0
  0
ARC
  5
118
330
102
100
AcDbEntity
  8
0
  6
Continuous
 62
     0
370
    30
100
AcDbCircle
 10
556.887781
 20
193.843045
 30
0.0
 40
15.30941684676745
100
AcDbArc
 50
0.524666
 51
14.69307
  0
ARC
  5
119
330
102
100
AcDbEntity
  8
0
  6
Continuous
 62
     0
370
     0
100
AcDbCircle
 10
565.19656
 20
193.984467
 30
0.0
 40
7.500003912639478
100
AcDbArc
 50
29.926557
 51
90.000035
  0
LINE
  5
11A
330
102
100
AcDbEntity
  8
0
  6
Continuous
 62
     0
370
     0
100
AcDbLine
 10
565.196555
 20
201.484471
 30
0.0
 11
565.196555
 21
200.983211
 31
0.0
  0
ARC
  5
11B
330
102
100
AcDbEntity
  8
0
  6
Continuous
 62
     0
370
    30
100
AcDbCircle
 10
565.196567
 20
193.983223
 30
0.0
 40
6.999988871522461
100
AcDbArc
 50
0.000091
 51
90.000091
  0
ARC
  5
11C
330
102
100
AcDbEntity
  8
0
  6
Continuous
 62
     0
370
     0
100
AcDbCircle
 10
565.19656
 20
217.984446
 30
0.0
 40
7.500004324256356
100
AcDbArc
 50
269.999967
 51
330.073441
  0
LINE
  5
11D
330
102
100
AcDbEntity
  8
0
  6
Continuous
 62
     0
370
     0
100
AcDbLine
 10
565.196555
 20
210.484442
 30
0.0
 11
544.696555
 21
210.484442
 31
0.0
  0
LINE
  5
11E
330
102
100
AcDbEntity
  8
0
  6
Continuous
 62
     0
370
     0
100
AcDbLine
 10
544.696555
 20
210.484442
 30
0.0
 11
544.696555
 21
201.484471
 31
0.0
  0
LINE
  5
11F
330
102
100
AcDbEntity
  8
0
  6
Continuous
 62
     0
370
     0
100
AcDbLine
 10
544.696555
 20
201.484471
 30
0.0
 11
565.196555
 21
201.484471
 31
0.0
  0
ARC
  5
120
330
102
100
AcDbEntity
  8
0
  6
Continuous
 62
     0
370
    30
100
AcDbCircle
 10
565.196567
 20
217.983169
 30
0.0
 40
6.999988871522484
100
AcDbArc
 50
269.999909
 51
359.999909
  0
LWPOLYLINE
  5
121
330
102
100
AcDbEntity
  8
0
  6
Continuous
 62
     0
370
     0
100
AcDbPolyline
 90
        5
 70
     0
 43
0.0
 10
565.196533
 20
210.983185
 10
565.196533
 20
210.948639
 10
565.196533
 20
210.837997
 10
565.196533
 20
210.669113
 10
565.196533
 20
210.484436
  0
LINE
  5
122
330
102
100
AcDbEntity
  8
0
  6
Continuous
 62
     0
370
    30
100
AcDbLine
 10
544.696555
 20
201.484471
 30
0.0
 11
544.196555
 21
201.48321
 31
0.0
  0
ARC
  5
123
330
102
100
AcDbEntity
  8
0
  6
Continuous
 62
     0
370
    30
100
AcDbCircle
 10
544.696555
 20
201.483211
 30
0.0
 40
0.4999992051088981
100
AcDbArc
 50
180.000091
 51
270.000091
  0
LINE
  5
124
330
102
100
AcDbEntity
  8
0
  6
Continuous
 62
     0
370
     0
100
AcDbLine
 10
544.696555
 20
200.983211
 30
0.0
 11
544.696555
 21
201.484471
 31
0.0
  0
ARC
  5
125
330
102
100
AcDbEntity
  8
0
  6
Continuous
 62
     0
370
    30
100
AcDbCircle
 10
544.696555
 20
210.48318
 30
0.0
 40
0.4999992051086037
100
AcDbArc
 50
89.999909
 51
179.999909
  0
LINE
  5
126
330
102
100
AcDbEntity
  8
0
  6
Continuous
 62
     0
370
    30
100
AcDbLine
 10
544.196555
 20
210.483181
 30
0.0
 11
544.696555
 21
210.484442
 31
0.0
  0
LINE
  5
127
330
102
100
AcDbEntity
  8
0
  6
Continuous
 62
     0
370
     0
100
AcDbLine
 10
544.696555
 20
210.484442
 30
0.0
 11
544.696555
 21
210.98318
 31
0.0
  0
LINE
  5
128
330
102
100
AcDbEntity
  8
0
  6
Continuous
 62
     0
370
     0
100
AcDbLine
 10
565.196555
 20
210.98318
 30
0.0
 11
544.696555
 21
210.98318
 31
0.0
  0
LINE
  5
129
330
102
100
AcDbEntity
  8
0
  6
Continuous
 62
     0
370
    30
100
AcDbLine
 10
544.196555
 20
210.483181
 30
0.0
 11
544.196555
 21
201.48321
 31
0.0
  0
LINE
  5
12A
330
102
100
AcDbEntity
  8
0
  6
Continuous
 62
     0
370
     0
100
AcDbLine
 10
544.696555
 20
200.983211
 30
0.0
 11
565.196555
 21
200.983211
 31
0.0
  0
LINE
  5
12B
330
102
100
AcDbEntity
  8
0
  6
Continuous
 62
     0
370
    30
100
AcDbLine
 10
572.196555
 20
205.994543
 30
0.0
 11
572.196555
 21
229.933945
 31
0.0
  0
LINE
  5
12C
330
102
100
AcDbEntity
  8
0
  6
Continuous
 62
     0
370
    30
100
AcDbLine
 10
572.196555
 20
181.934098
 30
0.0
 11
572.196555
 21
205.994543
 31
0.0
  0
ARC
  5
12D
330
102
100
AcDbEntity
  8
0
  6
Continuous
 62
     0
370
    30
100
AcDbCircle
 10
572.896555
 20
177.500373
 30
0.0
 40
0.5
100
AcDbArc
 50
179.999909
 51
269.999909
  0
ARC
  5
12E
330
102
100
AcDbEntity
  8
0
  6
Continuous
 62
     0
370
    30
100
AcDbCircle
 10
572.896555
 20
177.359156
 30
0.0
 40
0.5
100
AcDbArc
 50
179.999909
 51
269.999909
  0
LINE
  5
12F
330
102
100
AcDbEntity
  8
0
  6
Continuous
 62
     0
370
     0
100
AcDbLine
 10
572.896555
 20
176.859157
 30
0.0
 11
582.616555
 21
176.859157
 31
0.0
  0
LINE
  5
130
330
102
100
AcDbEntity
  8
0
  6
Continuous
 62
     0
370
     0
100
AcDbLine
 10
572.896555
 20
177.000374
 30
0.0
 11
582.616555
 21
177.000374
 31
0.0
  0
LINE
  5
131
330
102
100
AcDbEntity
  8
0
  6
Continuous
 62
     0
370
     0
100
AcDbLine
 10
544.696555
 20
200.682567
 30
0.0
 11
544.696555
 21
200.478865
 31
0.0
  0
ARC
  5
132
330
102
100
AcDbEntity
  8
0
  6
Continuous
 62
     0
370
    30
100
AcDbCircle
 10
544.696555
 20
200.978865
 30
0.0
 40
0.5000005374942711
100
AcDbArc
 50
216.341462
 51
270.000023
  0
LINE
  5
133
330
102
100
AcDbEntity
  8
0
  6
Continuous
 62
     0
370
     0
100
AcDbLine
 10
565.196555
 20
200.478865
 30
0.0
 11
544.696555
 21
200.478865
 31
0.0
  0
LINE
  5
134
330
102
100
AcDbEntity
  8
0
  6
Continuous
 62
     0
370
     0
100
AcDbLine
 10
565.196555
 20
200.682567
 30
0.0
 11
565.196555
 21
200.478863
 31
0.0
  0
ARC
  5
135
330
102
100
AcDbEntity
  8
0
  6
Continuous
 62
     0
370
    30
100
AcDbCircle
 10
565.196565
 20
193.478874
 30
0.0
 40
6.999990932616138
100
AcDbArc
 50
4.121196
 51
90.000081
  0
LINE
  5
136
330
102
100
AcDbEntity
  8
0
  6
Continuous
 62
     0
370
    30
100
AcDbLine
 10
572.196555
 20
181.93403
 30
0.0
 11
572.196555
 21
181.429752
 31
0.0
  0
LINE
  5
137
330
102
100
AcDbEntity
  8
0
  6
Continuous
 62
     0
370
    30
100
AcDbLine
 10
572.196555
 20
181.429675
 30
0.0
 11
572.396555
 21
181.429694
 31
0.0
  0
LINE
  5
138
330
102
100
AcDbEntity
  8
0
  6
Continuous
 62
     0
370
    30
100
AcDbLine
 10
397.020804
 20
161.781036
 30
0.0
 11
397.602903
 21
161.782297
 31
0.0
  0
LINE
  5
139
330
102
100
AcDbEntity
  8
0
  6
Continuous
 62
     0
370
    30
100
AcDbLine
 10
397.020804
 20
161.682688
 30
0.0
 11
397.602903
 21
161.681428
 31
0.0
  0
LINE
  5
13A
330
102
100
AcDbEntity
  8
0
  6
Continuous
 62
     0
370
    30
100
AcDbLine
 10
407.091123
 20
161.681428
 30
0.0
 11
408.080691
 21
161.681428
 31
0.0
  0
LINE
  5
13B
330
102
100
AcDbEntity
  8
0
  6
Continuous
 62
     0
370
    30
100
AcDbLine
 10
397.602903
 20
161.681428
 30
0.0
 11
398.592472
 21
161.681428
 31
0.0
  0
LINE
  5
13C
330
102
100
AcDbEntity
  8
0
  6
Continuous
 62
     0
370
    30
100
AcDbLine
 10
408.662791
 20
161.682688
 30
0.0
 11
408.080692
 21
161.681428
 31
0.0
  0
LINE
  5
13D
330
102
100
AcDbEntity
  8
0
  6
Continuous
 62
     0
370
    30
100
AcDbLine
 10
408.662791
 20
161.781036
 30
0.0
 11
408.080692
 21
161.782297
 31
0.0
  0
LINE
  5
13E
330
102
100
AcDbEntity
  8
0
  6
Continuous
 62
     0
370
    30
100
AcDbLine
 10
397.602903
 20
161.782297
 30
0.0
 11
408.080691
 21
161.782297
 31
0.0
  0
LINE
  5
13F
330
102
100
AcDbEntity
  8
0
  6
Continuous
 62
     0
370
     0
100
AcDbLine
 10
465.996201
 20
200.780912
 30
0.0
 11
566.867285
 21
200.780912
 31
0.0
  0
LINE
  5
140
330
102
100
AcDbEntity
  8
0
  6
Continuous
 62
     0
370
     0
100
AcDbLine
 10
465.996201
 20
201.282171
 30
0.0
 11
544.207215
 21
201.282171
 31
0.0
  0
LINE
  5
141
330
102
100
AcDbEntity
  8
0
  6
Continuous
 62
     0
370
     0
100
AcDbLine
 10
465.996201
 20
200.78091
 30
0.0
 11
465.996201
 21
201.282171
 31
0.0
  0
LINE
  5
142
330
102
100
AcDbEntity
  8
0
  6
Continuous
 62
     0
370
     0
100
AcDbLine
 10
408.662791
 20
161.781036
 30
0.0
 11
414.458607
 21
171.503577
 31
0.0
  0
LINE
  5
143
330
102
100
AcDbEntity
  8
0
  6
Continuous
 62
     0
370
     0
100
AcDbLine
 10
414.458607
 20
171.503576
 30
0.0
 11
414.028572
 21
171.759928
 31
0.0
  0
LINE
  5
144
330
102
100
AcDbEntity
  8
0
  6
Continuous
 62
     0
370
     0
100
AcDbLine
 10
408.080691
 20
161.782297
 30
0.0
 11
414.029127
 21
171.760858
 31
0.0
  0
LINE
  5
145
330
102
100
AcDbEntity
  8
0
  6
Continuous
 62
     0
370
     0
100
AcDbLine
 10
405.869008
 20
176.623989
 30
0.0
 11
397.020804
 21
161.781036
 31
0.0
  0
LINE
  5
146
330
102
100
AcDbEntity
  8
0
  6
Continuous
 62
     0
370
     0
100
AcDbLine
 10
406.298488
 20
176.36923
 30
0.0
 11
397.602903
 21
161.782297
 31
0.0
  0
LINE
  5
147
330
102
100
AcDbEntity
  8
0
  6
Continuous
 62
     0
370
     0
100
AcDbLine
 10
405.869008
 20
176.623991
 30
0.0
 11
406.297933
 21
176.368299
 31
0.0
  0
LINE
  5
148
330
102
100
AcDbEntity
  8
0
  6
Continuous
 62
     0
370
     0
100
AcDbLine
 10
465.996201
 20
210.780882
 30
0.0
 11
465.996201
 21
210.282143
 31
0.0
  0
LINE
  5
149
330
102
100
AcDbEntity
  8
0
  6
Continuous
 62
     0
370
     0
100
AcDbLine
 10
544.196555
 20
210.282143
 30
0.0
 11
465.996201
 21
210.282143
 31
0.0
  0
LINE
  5
14A
330
102
100
AcDbEntity
  8
0
  6
Continuous
 62
     0
370
     0
100
AcDbLine
 10
544.294837
 20
210.78088
 30
0.0
 11
465.996201
 21
210.78088
 31
0.0
  0
ARC
  5
14B
330
102
100
AcDbEntity
  8
0
  6
Continuous
 62
     0
370
     0
100
AcDbCircle
 10
465.996167
 20
140.780874
 30
0.0
 40
60.00003839182574
100
AcDbArc
 50
89.999968
 51
149.199876
  0
ARC
  5
14C
330
102
100
AcDbEntity
  8
0
  6
Continuous
 62
     0
370
     0
100
AcDbCircle
 10
465.996161
 20
140.780835
 30
0.0
 40
70.00004479046298
100
AcDbArc
 50
89.999968
 51
149.199876
  0
ARC
  5
14D
330
102
100
AcDbEntity
  8
0
  6
Continuous
 62
     0
370
     0
100
AcDbCircle
 10
465.996162
 20
140.782098
 30
0.0
 40
69.50004447053122
100
AcDbArc
 50
89.999968
 51
149.199876
  0
ARC
  5
14E
330
102
100
AcDbEntity
  8
0
  6
Continuous
 62
     0
370
     0
100
AcDbCircle
 10
465.996167
 20
140.782133
 30
0.0
 40
60.5000387117573
100
AcDbArc
 50
89.999968
 51
149.199876
  0
LINE
  5
14F
330
102
100
AcDbEntity
  8
0
  6
Continuous
 62
     0
370
    30
100
AcDbLine
 10
582.616555
 20
177.252546
 30
0.0
 11
582.616555
 21
177.363506
 31
0.0
  0
ARC
  5
150
330
102
100
AcDbEntity
  8
0
  6
Continuous
 62
     0
370
    30
100
AcDbCircle
 10
572.896555
 20
177.611329
 30
0.0
 40
0.500000000000001
100
AcDbArc
 50
180.0
 51
270.0
  0
ARC
  5
151
330
102
100
AcDbEntity
  8
0
  6
Continuous
 62
     0
370
    30
100
AcDbCircle
 10
572.896555
 20
177.752546
 30
0.0
 40
0.5
100
AcDbArc
 50
180.0
 51
270.0
  0
LINE
  5
152
330
102
100
AcDbEntity
  8
0
  6
Continuous
 62
     0
370
     0
100
AcDbLine
 10
572.896555
 20
177.252546
 30
0.0
 11
572.896555
 21
177.363504
 31
0.0
  0
LINE
  5
153
330
102
100
AcDbEntity
  8
0
  6
Continuous
 62
     0
370
     0
100
AcDbLine
 10
582.616555
 20
177.111331
 30
0.0
 11
572.896555
 21
177.111331
 31
0.0
  0
LINE
  5
154
330
102
100
AcDbEntity
  8
0
  6
Continuous
 62
     0
370
     0
100
AcDbLine
 10
572.896555
 20
177.252548
 30
0.0
 11
582.616555
 21
177.252548
 31
0.0
  0
LINE
  5
155
330
102
100
AcDbEntity
  8
0
  6
Continuous
 62
     0
370
    30
100
AcDbLine
 10
405.869008
 20
176.623991
 30
0.0
 11
407.071546
 21
178.568237
 31
0.0
  0
ENDBLK
  5
157
330
102
100
AcDbEntity
  8
0
100
AcDbBlockEnd
  0
BLOCK
  5
20A
330
159
100
AcDbEntity
  8
0
100
AcDbBlockBegin
  2
c
 70
     0
 10
367.122772
 20
167.583282
 30
0.0
  3
c
  1

  0
LINE
  5
15A
330
159
100
AcDbEntity
  8
0
  6
Continuous
 62
     0
370
     0
100
AcDbLine
 10
691.378919
 20
674.318759
 30
0.0
 11
691.377658
 21
674.818757
 31
0.0
  0
LINE
  5
15B
330
159
100
AcDbEntity
  8
0
  6
Continuous
 62
     0
370
     0
100
AcDbLine
 10
691.377658
 20
674.818757
 30
0.0
 11
635.377836
 21
674.677538
 31
0.0
  0
LINE
  5
15C
330
159
100
AcDbEntity
  8
0
  6
Continuous
 62
     0
370
     0
100
AcDbLine
 10
635.377836
 20
674.677538
 30
0.0
 11
635.379097
 21
674.177539
 31
0.0
  0
LINE
  5
15D
330
159
100
AcDbEntity
  8
0
  6
Continuous
 62
     0
370
    30
100
AcDbLine
 10
635.379097
 20
674.177539
 30
0.0
 11
691.378919
 21
674.318759
 31
0.0
  0
LINE
  5
15E
330
159
100
AcDbEntity
  8
0
  6
Continuous
 62
     0
370
     0
100
AcDbLine
 10
634.877837
 20
674.676277
 30
0.0
 11
635.377836
 21
674.677538
 31
0.0
  0
LINE
  5
15F
330
159
100
AcDbEntity
  8
0
  6
Continuous
 62
     0
370
     0
100
AcDbLine
 10
635.377836
 20
674.677538
 30
0.0
 11
635.236616
 21
730.67736
 31
0.0
  0
LINE
  5
160
330
159
100
AcDbEntity
  8
0
  6
Continuous
 62
     0
370
     0
100
AcDbLine
 10
635.236616
 20
730.67736
 30
0.0
 11
634.736618
 21
730.676099
 31
0.0
  0
LINE
  5
161
330
159
100
AcDbEntity
  8
0
  6
Continuous
 62
     0
370
    30
100
AcDbLine
 10
634.736618
 20
730.676099
 30
0.0
 11
634.877837
 21
674.676277
 31
0.0
  0
LINE
  5
162
330
159
100
AcDbEntity
  8
0
  6
Continuous
 62
     0
370
     0
100
AcDbLine
 10
635.235355
 20
731.177358
 30
0.0
 11
635.236616
 21
730.67736
 31
0.0
  0
LINE
  5
163
330
159
100
AcDbEntity
  8
0
  6
Continuous
 62
     0
370
     0
100
AcDbLine
 10
635.236616
 20
730.67736
 30
0.0
 11
691.236438
 21
730.818579
 31
0.0
  0
LINE
  5
164
330
159
100
AcDbEntity
  8
0
  6
Continuous
 62
     0
370
     0
100
AcDbLine
 10
691.236438
 20
730.818579
 30
0.0
 11
691.235177
 21
731.318578
 31
0.0
  0
LINE
  5
165
330
159
100
AcDbEntity
  8
0
  6
Continuous
 62
     0
370
    30
100
AcDbLine
 10
691.235177
 20
731.318578
 30
0.0
 11
635.235355
 21
731.177358
 31
0.0
  0
ARC
  5
166
330
159
100
AcDbEntity
  8
0
  6
Continuous
 62
     0
370
    30
100
AcDbCircle
 10
635.236616
 20
730.67736
 30
0.0
 40
0.4999999999974291
100
AcDbArc
 50
90.144487
 51
180.144487
  0
LINE
  5
167
330
159
100
AcDbEntity
  8
0
  6
Continuous
 62
     0
370
     0
100
AcDbLine
 10
691.736437
 20
730.81984
 30
0.0
 11
691.236438
 21
730.818579
 31
0.0
  0
LINE
  5
168
330
159
100
AcDbEntity
  8
0
  6
Continuous
 62
     0
370
     0
100
AcDbLine
 10
691.236438
 20
730.818579
 30
0.0
 11
691.377658
 21
674.818757
 31
0.0
  0
LINE
  5
169
330
159
100
AcDbEntity
  8
0
  6
Continuous
 62
     0
370
     0
100
AcDbLine
 10
691.377658
 20
674.818757
 30
0.0
 11
691.877656
 21
674.820018
 31
0.0
  0
LINE
  5
16A
330
159
100
AcDbEntity
  8
0
  6
Continuous
 62
     0
370
    30
100
AcDbLine
 10
691.877656
 20
674.820018
 30
0.0
 11
691.736437
 21
730.81984
 31
0.0
  0
ARC
  5
16B
330
159
100
AcDbEntity
  8
0
  6
Continuous
 62
     0
370
    30
100
AcDbCircle
 10
691.236438
 20
730.818579
 30
0.0
 40
0.5000000000061524
100
AcDbArc
 50
0.144487
 51
90.144487
  0
ARC
  5
16C
330
159
100
AcDbEntity
  8
0
  6
Continuous
 62
     0
370
    30
100
AcDbCircle
 10
635.377836
 20
674.677538
 30
0.0
 40
0.4999999999990447
100
AcDbArc
 50
180.144487
 51
270.144487
  0
ARC
  5
16D
330
159
100
AcDbEntity
  8
0
  6
Continuous
 62
     0
370
    30
100
AcDbCircle
 10
691.377658
 20
674.818757
 30
0.0
 40
0.4999999999994876
100
AcDbArc
 50
270.144487
 51
0.144487
  0
ARC
  5
16E
330
159
100
AcDbEntity
  8
0
  6
Continuous
 62
     0
370
     0
100
AcDbCircle
 10
655.986098
 20
712.13391
 30
0.0
 40
11.13725394621911
100
AcDbArc
 50
95.094499
 51
115.12091
  0
LINE
  5
16F
330
159
100
AcDbEntity
  8
0
  6
Continuous
 62
     0
370
     0
100
AcDbLine
 10
651.258001
 20
722.217735
 30
0.0
 11
654.998385
 21
722.727169
 31
0.0
  0
LINE
  5
170
330
159
100
AcDbEntity
  8
0
  6
Continuous
 62
     0
370
     0
100
AcDbLine
 10
654.998385
 20
722.727169
 30
0.0
 11
654.997124
 21
723.227168
 31
0.0
  0
LINE
  5
171
330
159
100
AcDbEntity
  8
0
  6
Continuous
 62
     0
370
     0
100
AcDbLine
 10
671.513757
 20
723.268819
 30
0.0
 11
671.515018
 21
722.768821
 31
0.0
  0
LINE
  5
172
330
159
100
AcDbEntity
  8
0
  6
Continuous
 62
     0
370
     0
100
AcDbLine
 10
654.997124
 20
723.227168
 30
0.0
 11
671.513757
 21
723.268819
 31
0.0
  0
LINE
  5
173
330
159
100
AcDbEntity
  8
0
  6
Continuous
 62
     0
370
    30
100
AcDbLine
 10
671.515018
 20
722.768821
 30
0.0
 11
675.257924
 21
722.278258
 31
0.0
  0
ARC
  5
174
330
159
100
AcDbEntity
  8
0
  6
Continuous
 62
     0
370
     0
100
AcDbCircle
 10
670.587576
 20
712.196534
 30
0.0
 40
11.11095427386166
100
AcDbArc
 50
65.144118
 51
85.218422
  0
LINE
  5
175
330
159
100
AcDbEntity
  8
0
  6
Continuous
 62
     0
370
    30
100
AcDbLine
 10
671.515018
 20
722.768821
 30
0.0
 11
667.756688
 21
722.759343
 31
0.0
  0
LWPOLYLINE
  5
176
330
159
100
AcDbEntity
  8
0
  6
Continuous
 62
     0
370
     0
100
AcDbPolyline
 90
       17
 70
     0
 43
0.0
 10
668.257935
 20
722.26062
 10
668.295227
 20
722.260681
 10
668.405823
 20
722.260986
 10
668.586304
 20
722.261414
 10
668.831238
 20
722.262024
 10
669.133545
 20
722.262817
 10
669.484985
 20
722.263672
 10
669.876892
 20
722.264709
 10
670.300171
 20
722.265747
 10
670.762817
 20
722.266907
 10
671.278992
 20
722.26825
 10
671.846252
 20
722.269653
 10
672.460144
 20
722.271179
 10
673.114441
 20
722.272827
 10
673.801025
 20
722.274597
 10
674.510254
 20
722.276367
 10
675.257935
 20
722.278259
  0
LINE
  5
177
330
159
100
AcDbEntity
  8
0
  6
Continuous
 62
     0
370
    30
100
AcDbLine
 10
654.998385
 20
722.727169
 30
0.0
 11
658.756716
 21
722.736647
 31
0.0
  0
LINE
  5
178
330
159
100
AcDbEntity
  8
0
  6
Continuous
 62
     0
370
    30
100
AcDbLine
 10
658.756717
 20
722.736647
 30
0.0
 11
667.756688
 21
722.759343
 31
0.0
  0
LINE
  5
179
330
159
100
AcDbEntity
  8
0
  6
Continuous
 62
     0
370
     0
100
AcDbLine
 10
651.258001
 20
722.217735
 30
0.0
 11
658.257979
 21
722.235388
 31
0.0
  0
LINE
  5
17A
330
159
100
AcDbEntity
  8
0
  6
Continuous
 62
     0
370
     0
100
AcDbLine
 10
671.615889
 20
682.768948
 30
0.0
 11
671.61715
 21
682.268949
 31
0.0
  0
LINE
  5
17B
330
159
100
AcDbEntity
  8
0
  6
Continuous
 62
     0
370
     0
100
AcDbLine
 10
655.100517
 20
682.227298
 30
0.0
 11
655.099256
 21
682.727296
 31
0.0
  0
LINE
  5
17C
330
159
100
AcDbEntity
  8
0
  6
Continuous
 62
     0
370
     0
100
AcDbLine
 10
671.61715
 20
682.268949
 30
0.0
 11
655.100517
 21
682.227298
 31
0.0
  0
ARC
  5
17D
330
159
100
AcDbEntity
  8
0
  6
Continuous
 62
     0
370
     0
100
AcDbCircle
 10
670.628177
 20
693.362207
 30
0.0
 40
11.13725394606954
100
AcDbArc
 50
275.094499
 51
295.12091
  0
LINE
  5
17E
330
159
100
AcDbEntity
  8
0
  6
Continuous
 62
     0
370
     0
100
AcDbLine
 10
675.356274
 20
683.278382
 30
0.0
 11
671.615889
 21
682.768948
 31
0.0
  0
LINE
  5
17F
330
159
100
AcDbEntity
  8
0
  6
Continuous
 62
     0
370
     0
100
AcDbLine
 10
655.099256
 20
682.727296
 30
0.0
 11
651.35635
 21
683.217859
 31
0.0
  0
ARC
  5
180
330
159
100
AcDbEntity
  8
0
  6
Continuous
 62
     0
370
     0
100
AcDbCircle
 10
656.033766
 20
693.326299
 30
0.0
 40
11.13816794884129
100
AcDbArc
 50
245.168895
 51
265.193645
  0
LINE
  5
181
330
159
100
AcDbEntity
  8
0
  6
Continuous
 62
     0
370
    30
100
AcDbLine
 10
655.099256
 20
682.727296
 30
0.0
 11
658.857587
 21
682.736774
 31
0.0
  0
LINE
  5
182
330
159
100
AcDbEntity
  8
0
  6
Continuous
 62
     0
370
     0
100
AcDbLine
 10
658.356328
 20
683.235512
 30
0.0
 11
651.35635
 21
683.217859
 31
0.0
  0
LINE
  5
183
330
159
100
AcDbEntity
  8
0
  6
Continuous
 62
     0
370
    30
100
AcDbLine
 10
671.615889
 20
682.768948
 30
0.0
 11
667.857559
 21
682.75947
 31
0.0
  0
LINE
  5
184
330
159
100
AcDbEntity
  8
0
  6
Continuous
 62
     0
370
    30
100
AcDbLine
 10
667.85756
 20
682.75947
 30
0.0
 11
658.857588
 21
682.736774
 31
0.0
  0
LINE
  5
185
330
159
100
AcDbEntity
  8
0
  6
Continuous
 62
     0
370
     0
100
AcDbLine
 10
667.756688
 20
722.759343
 30
0.0
 11
667.757949
 21
722.259345
 31
0.0
  0
LINE
  5
186
330
159
100
AcDbEntity
  8
0
  6
Continuous
 62
     0
370
     0
100
AcDbLine
 10
667.757949
 20
722.259345
 30
0.0
 11
668.257948
 21
722.260605
 31
0.0
  0
ARC
  5
187
330
159
100
AcDbEntity
  8
0
  6
Continuous
 62
     0
370
    30
100
AcDbCircle
 10
667.757949
 20
722.259345
 30
0.0
 40
0.4999999999956147
100
AcDbArc
 50
0.144487
 51
90.144487
  0
LWPOLYLINE
  5
188
330
159
100
AcDbEntity
  8
0
  6
Continuous
 62
     0
370
     0
100
AcDbPolyline
 90
        5
 70
     0
 43
0.0
 10
668.356323
 20
683.260742
 10
668.321289
 20
683.26062
 10
668.210266
 20
683.260376
 10
668.041077
 20
683.259949
 10
667.856323
 20
683.25946
  0
LINE
  5
189
330
159
100
AcDbEntity
  8
0
  6
Continuous
 62
     0
370
     0
100
AcDbLine
 10
667.856299
 20
683.259469
 30
0.0
 11
667.85756
 21
682.75947
 31
0.0
  0
ARC
  5
18A
330
159
100
AcDbEntity
  8
0
  6
Continuous
 62
     0
370
    30
100
AcDbCircle
 10
667.856299
 20
683.259469
 30
0.0
 40
0.5000000000012459
100
AcDbArc
 50
270.144487
 51
0.144487
  0
LINE
  5
18B
330
159
100
AcDbEntity
  8
0
  6
Continuous
 62
     0
370
     0
100
AcDbLine
 10
658.25798
 20
722.235388
 30
0.0
 11
658.757978
 21
722.236649
 31
0.0
  0
LINE
  5
18C
330
159
100
AcDbEntity
  8
0
  6
Continuous
 62
     0
370
     0
100
AcDbLine
 10
658.757978
 20
722.236649
 30
0.0
 11
658.756717
 21
722.736647
 31
0.0
  0
ARC
  5
18D
330
159
100
AcDbEntity
  8
0
  6
Continuous
 62
     0
370
    30
100
AcDbCircle
 10
658.757978
 20
722.236649
 30
0.0
 40
0.5000000000007415
100
AcDbArc
 50
90.144487
 51
180.144487
  0
LWPOLYLINE
  5
18E
330
159
100
AcDbEntity
  8
0
  6
Continuous
 62
     0
370
     0
100
AcDbPolyline
 90
        5
 70
     0
 43
0.0
 10
658.857605
 20
682.736755
 10
658.857483
 20
682.77179
 10
658.857239
 20
682.882812
 10
658.856812
 20
683.051941
 10
658.856323
 20
683.236755
  0
LINE
  5
18F
330
159
100
AcDbEntity
  8
0
  6
Continuous
 62
     0
370
     0
100
AcDbLine
 10
658.856327
 20
683.236773
 30
0.0
 11
658.356329
 21
683.235512
 31
0.0
  0
ARC
  5
190
330
159
100
AcDbEntity
  8
0
  6
Continuous
 62
     0
370
    30
100
AcDbCircle
 10
658.856327
 20
683.236773
 30
0.0
 40
0.5000000000028091
100
AcDbArc
 50
180.144487
 51
270.144487
  0
LINE
  5
191
330
159
100
AcDbEntity
  8
0
  6
Continuous
 62
     0
370
    30
100
AcDbLine
 10
658.25798
 20
722.235388
 30
0.0
 11
658.356329
 21
683.235512
 31
0.0
  0
LINE
  5
192
330
159
100
AcDbEntity
  8
0
  6
Continuous
 62
     0
370
     0
100
AcDbLine
 10
658.856327
 20
683.236773
 30
0.0
 11
658.757978
 21
722.236649
 31
0.0
  0
LINE
  5
193
330
159
100
AcDbEntity
  8
0
  6
Continuous
 62
     0
370
     0
100
AcDbLine
 10
667.856299
 20
683.259469
 30
0.0
 11
658.856327
 21
683.236773
 31
0.0
  0
LINE
  5
194
330
159
100
AcDbEntity
  8
0
  6
Continuous
 62
     0
370
     0
100
AcDbLine
 10
658.757978
 20
722.236649
 30
0.0
 11
667.757949
 21
722.259345
 31
0.0
  0
LINE
  5
195
330
159
100
AcDbEntity
  8
0
  6
Continuous
 62
     0
370
    30
100
AcDbLine
 10
668.356297
 20
683.260729
 30
0.0
 11
668.257948
 21
722.260605
 31
0.0
  0
LINE
  5
196
330
159
100
AcDbEntity
  8
0
  6
Continuous
 62
     0
370
     0
100
AcDbLine
 10
667.757949
 20
722.259345
 30
0.0
 11
667.856299
 21
683.259469
 31
0.0
  0
LINE
  5
197
330
159
100
AcDbEntity
  8
0
  6
Continuous
 62
     0
370
     0
100
AcDbLine
 10
675.356274
 20
683.278382
 30
0.0
 11
668.356296
 21
683.260729
 31
0.0
  0
LINE
  5
198
330
159
100
AcDbEntity
  8
0
  6
Continuous
 62
     0
370
     0
100
AcDbLine
 10
651.35635
 20
683.217859
 30
0.0
 11
651.258001
 21
722.217735
 31
0.0
  0
LINE
  5
199
330
159
100
AcDbEntity
  8
0
  6
Continuous
 62
     0
370
     0
100
AcDbLine
 10
675.257924
 20
722.278258
 30
0.0
 11
675.356274
 21
683.278382
 31
0.0
  0
ARC
  5
19A
330
159
100
AcDbEntity
  8
0
  6
Continuous
 62
     0
370
    30
100
AcDbCircle
 10
663.307137
 20
702.748059
 30
0.0
 40
24.0
100
AcDbArc
 50
90.144487
 51
270.144487
  0
ARC
  5
19B
330
159
100
AcDbEntity
  8
0
  6
Continuous
 62
     0
370
    30
100
AcDbCircle
 10
663.307137
 20
702.748059
 30
0.0
 40
24.0
100
AcDbArc
 50
270.144487
 51
90.144487
  0
LINE
  5
19C
330
159
100
AcDbEntity
  8
0
  6
Continuous
 62
     0
370
    30
100
AcDbLine
 10
635.739711
 20
531.177995
 30
0.0
 11
691.739533
 21
531.319214
 31
0.0
  0
LINE
  5
19D
330
159
100
AcDbEntity
  8
0
  6
Continuous
 62
     0
370
     0
100
AcDbLine
 10
635.740972
 20
530.677996
 30
0.0
 11
635.739711
 21
531.177995
 31
0.0
  0
LINE
  5
19E
330
159
100
AcDbEntity
  8
0
  6
Continuous
 62
     0
370
     0
100
AcDbLine
 10
691.740794
 20
530.819216
 30
0.0
 11
635.740972
 21
530.677996
 31
0.0
  0
LINE
  5
19F
330
159
100
AcDbEntity
  8
0
  6
Continuous
 62
     0
370
     0
100
AcDbLine
 10
691.739533
 20
531.319214
 30
0.0
 11
691.740794
 21
530.819216
 31
0.0
  0
LINE
  5
1A0
330
159
100
AcDbEntity
  8
0
  6
Continuous
 62
     0
370
    30
100
AcDbLine
 10
635.382193
 20
474.676913
 30
0.0
 11
635.240973
 21
530.676735
 31
0.0
  0
LINE
  5
1A1
330
159
100
AcDbEntity
  8
0
  6
Continuous
 62
     0
370
     0
100
AcDbLine
 10
635.882191
 20
474.678174
 30
0.0
 11
635.382193
 21
474.676913
 31
0.0
  0
LINE
  5
1A2
330
159
100
AcDbEntity
  8
0
  6
Continuous
 62
     0
370
     0
100
AcDbLine
 10
635.740972
 20
530.677996
 30
0.0
 11
635.882191
 21
474.678174
 31
0.0
  0
LINE
  5
1A3
330
159
100
AcDbEntity
  8
0
  6
Continuous
 62
     0
370
     0
100
AcDbLine
 10
635.240973
 20
530.676735
 30
0.0
 11
635.740972
 21
530.677996
 31
0.0
  0
LINE
  5
1A4
330
159
100
AcDbEntity
  8
0
  6
Continuous
 62
     0
370
    30
100
AcDbLine
 10
691.883274
 20
474.319395
 30
0.0
 11
635.883452
 21
474.178176
 31
0.0
  0
LINE
  5
1A5
330
159
100
AcDbEntity
  8
0
  6
Continuous
 62
     0
370
     0
100
AcDbLine
 10
691.882013
 20
474.819394
 30
0.0
 11
691.883274
 21
474.319395
 31
0.0
  0
LINE
  5
1A6
330
159
100
AcDbEntity
  8
0
  6
Continuous
 62
     0
370
     0
100
AcDbLine
 10
635.882191
 20
474.678174
 30
0.0
 11
691.882013
 21
474.819394
 31
0.0
  0
LINE
  5
1A7
330
159
100
AcDbEntity
  8
0
  6
Continuous
 62
     0
370
     0
100
AcDbLine
 10
635.883452
 20
474.178176
 30
0.0
 11
635.882191
 21
474.678174
 31
0.0
  0
ARC
  5
1A8
330
159
100
AcDbEntity
  8
0
  6
Continuous
 62
     0
370
    30
100
AcDbCircle
 10
635.882191
 20
474.678174
 30
0.0
 40
0.5000000000007176
100
AcDbArc
 50
180.144487
 51
270.144487
  0
LINE
  5
1A9
330
159
100
AcDbEntity
  8
0
  6
Continuous
 62
     0
370
    30
100
AcDbLine
 10
692.240792
 20
530.820477
 30
0.0
 11
692.382011
 21
474.820655
 31
0.0
  0
LINE
  5
1AA
330
159
100
AcDbEntity
  8
0
  6
Continuous
 62
     0
370
     0
100
AcDbLine
 10
691.740794
 20
530.819216
 30
0.0
 11
692.240792
 21
530.820477
 31
0.0
  0
LINE
  5
1AB
330
159
100
AcDbEntity
  8
0
  6
Continuous
 62
     0
370
     0
100
AcDbLine
 10
691.882013
 20
474.819394
 30
0.0
 11
691.740794
 21
530.819216
 31
0.0
  0
LINE
  5
1AC
330
159
100
AcDbEntity
  8
0
  6
Continuous
 62
     0
370
     0
100
AcDbLine
 10
692.382011
 20
474.820655
 30
0.0
 11
691.882013
 21
474.819394
 31
0.0
  0
ARC
  5
1AD
330
159
100
AcDbEntity
  8
0
  6
Continuous
 62
     0
370
    30
100
AcDbCircle
 10
691.882013
 20
474.819394
 30
0.0
 40
0.4999999999991231
100
AcDbArc
 50
270.144487
 51
0.144487
  0
ARC
  5
1AE
330
159
100
AcDbEntity
  8
0
  6
Continuous
 62
     0
370
    30
100
AcDbCircle
 10
635.740972
 20
530.677996
 30
0.0
 40
0.5000000000008794
100
AcDbArc
 50
90.144487
 51
180.144487
  0
ARC
  5
1AF
330
159
100
AcDbEntity
  8
0
  6
Continuous
 62
     0
370
    30
100
AcDbCircle
 10
691.740794
 20
530.819216
 30
0.0
 40
0.5000000000004106
100
AcDbArc
 50
0.144487
 51
90.144487
  0
LWPOLYLINE
  5
1B0
330
159
100
AcDbEntity
  8
0
  6
Continuous
 62
     0
370
     0
100
AcDbPolyline
 90
        5
 70
     0
 43
0.0
 10
655.603638
 20
482.727936
 10
655.603699
 20
482.690186
 10
655.604004
 20
482.582764
 10
655.60437
 20
482.421783
 10
655.604858
 20
482.227936
  0
LINE
  5
1B1
330
159
100
AcDbEntity
  8
0
  6
Continuous
 62
     0
370
     0
100
AcDbLine
 10
651.860705
 20
483.218496
 30
0.0
 11
655.603612
 21
482.727933
 31
0.0
  0
LINE
  5
1B2
330
159
100
AcDbEntity
  8
0
  6
Continuous
 62
     0
370
     0
100
AcDbLine
 10
655.604872
 20
482.227935
 30
0.0
 11
672.121505
 21
482.269586
 31
0.0
  0
LINE
  5
1B3
330
159
100
AcDbEntity
  8
0
  6
Continuous
 62
     0
370
     0
100
AcDbLine
 10
672.121505
 20
482.269586
 30
0.0
 11
672.120244
 21
482.769584
 31
0.0
  0
LINE
  5
1B4
330
159
100
AcDbEntity
  8
0
  6
Continuous
 62
     0
370
    30
100
AcDbLine
 10
672.120244
 20
482.769584
 30
0.0
 11
675.860629
 21
483.279018
 31
0.0
  0
LWPOLYLINE
  5
1B5
330
159
100
AcDbEntity
  8
0
  6
Continuous
 62
     0
370
     0
100
AcDbPolyline
 90
       17
 70
     0
 43
0.0
 10
668.860657
 20
483.261353
 10
668.897888
 20
483.261475
 10
669.008484
 20
483.261749
 10
669.189026
 20
483.262207
 10
669.433899
 20
483.262817
 10
669.736206
 20
483.26358
 10
670.087708
 20
483.264465
 10
670.479553
 20
483.265442
 10
670.902893
 20
483.26651
 10
671.36554
 20
483.26767
 10
671.881714
 20
483.268982
 10
672.448914
 20
483.270416
 10
673.062866
 20
483.271973
 10
673.717102
 20
483.273621
 10
674.403687
 20
483.27533
 10
675.112915
 20
483.27713
 10
675.860657
 20
483.279022
  0
LINE
  5
1B6
330
159
100
AcDbEntity
  8
0
  6
Continuous
 62
     0
370
    30
100
AcDbLine
 10
672.120244
 20
482.769584
 30
0.0
 11
668.361914
 21
482.760107
 31
0.0
  0
LINE
  5
1B7
330
159
100
AcDbEntity
  8
0
  6
Continuous
 62
     0
370
    30
100
AcDbLine
 10
659.361943
 20
482.737411
 30
0.0
 11
668.361915
 21
482.760107
 31
0.0
  0
LINE
  5
1B8
330
159
100
AcDbEntity
  8
0
  6
Continuous
 62
     0
370
    30
100
AcDbLine
 10
655.603612
 20
482.727933
 30
0.0
 11
659.361943
 21
482.737411
 31
0.0
  0
LINE
  5
1B9
330
159
100
AcDbEntity
  8
0
  6
Continuous
 62
     0
370
     0
100
AcDbLine
 10
651.860705
 20
483.218496
 30
0.0
 11
658.860683
 21
483.236148
 31
0.0
  0
LINE
  5
1BA
330
159
100
AcDbEntity
  8
0
  6
Continuous
 62
     0
370
     0
100
AcDbLine
 10
672.018112
 20
523.269456
 30
0.0
 11
655.50148
 21
523.227804
 31
0.0
  0
LINE
  5
1BB
330
159
100
AcDbEntity
  8
0
  6
Continuous
 62
     0
370
     0
100
AcDbLine
 10
655.50148
 20
523.227804
 30
0.0
 11
655.502741
 21
522.727806
 31
0.0
  0
LINE
  5
1BC
330
159
100
AcDbEntity
  8
0
  6
Continuous
 62
     0
370
     0
100
AcDbLine
 10
672.019373
 20
522.769457
 30
0.0
 11
672.018112
 21
523.269456
 31
0.0
  0
LINE
  5
1BD
330
159
100
AcDbEntity
  8
0
  6
Continuous
 62
     0
370
     0
100
AcDbLine
 10
675.76228
 20
522.278894
 30
0.0
 11
672.019373
 21
522.769457
 31
0.0
  0
ARC
  5
1BE
330
159
100
AcDbEntity
  8
0
  6
Continuous
 62
     0
370
     0
100
AcDbCircle
 10
656.490695
 20
512.133651
 30
0.0
 40
11.13816794880909
100
AcDbArc
 50
95.09533
 51
115.12008
  0
LINE
  5
1BF
330
159
100
AcDbEntity
  8
0
  6
Continuous
 62
     0
370
     0
100
AcDbLine
 10
655.502741
 20
522.727806
 30
0.0
 11
651.762356
 21
522.218372
 31
0.0
  0
LINE
  5
1C0
330
159
100
AcDbEntity
  8
0
  6
Continuous
 62
     0
370
     0
100
AcDbLine
 10
658.762334
 20
522.236024
 30
0.0
 11
651.762356
 21
522.218372
 31
0.0
  0
LINE
  5
1C1
330
159
100
AcDbEntity
  8
0
  6
Continuous
 62
     0
370
    30
100
AcDbLine
 10
655.502741
 20
522.727806
 30
0.0
 11
659.261071
 21
522.737283
 31
0.0
  0
LINE
  5
1C2
330
159
100
AcDbEntity
  8
0
  6
Continuous
 62
     0
370
    30
100
AcDbLine
 10
668.261044
 20
522.759979
 30
0.0
 11
659.261072
 21
522.737283
 31
0.0
  0
LINE
  5
1C3
330
159
100
AcDbEntity
  8
0
  6
Continuous
 62
     0
370
    30
100
AcDbLine
 10
672.019373
 20
522.769457
 30
0.0
 11
668.261043
 21
522.759979
 31
0.0
  0
ARC
  5
1C4
330
159
100
AcDbEntity
  8
0
  6
Continuous
 62
     0
370
    30
100
AcDbCircle
 10
668.360654
 20
483.260105
 30
0.0
 40
0.5000000000004704
100
AcDbArc
 50
270.144487
 51
0.144487
  0
LINE
  5
1C5
330
159
100
AcDbEntity
  8
0
  6
Continuous
 62
     0
370
     0
100
AcDbLine
 10
668.360654
 20
483.260105
 30
0.0
 11
668.860652
 21
483.261366
 31
0.0
  0
LWPOLYLINE
  5
1C6
330
159
100
AcDbEntity
  8
0
  6
Continuous
 62
     0
370
     0
100
AcDbPolyline
 90
        5
 70
     0
 43
0.0
 10
668.361938
 20
482.760101
 10
668.361816
 20
482.795105
 10
668.361572
 20
482.906158
 10
668.361145
 20
483.075317
 10
668.360657
 20
483.260101
  0
ARC
  5
1C7
330
159
100
AcDbEntity
  8
0
  6
Continuous
 62
     0
370
    30
100
AcDbCircle
 10
668.262305
 20
522.259981
 30
0.0
 40
0.4999999999980981
100
AcDbArc
 50
0.144487
 51
90.144487
  0
LINE
  5
1C8
330
159
100
AcDbEntity
  8
0
  6
Continuous
 62
     0
370
     0
100
AcDbLine
 10
668.262305
 20
522.259981
 30
0.0
 11
668.261044
 21
522.759979
 31
0.0
  0
LWPOLYLINE
  5
1C9
330
159
100
AcDbEntity
  8
0
  6
Continuous
 62
     0
370
     0
100
AcDbPolyline
 90
        5
 70
     0
 43
0.0
 10
668.762329
 20
522.26123
 10
668.727295
 20
522.261169
 10
668.616272
 20
522.260864
 10
668.447083
 20
522.260437
 10
668.262329
 20
522.26001
  0
ARC
  5
1CA
330
159
100
AcDbEntity
  8
0
  6
Continuous
 62
     0
370
    30
100
AcDbCircle
 10
659.360683
 20
483.237409
 30
0.0
 40
0.4999999999962349
100
AcDbArc
 50
180.144487
 51
270.144487
  0
LINE
  5
1CB
330
159
100
AcDbEntity
  8
0
  6
Continuous
 62
     0
370
     0
100
AcDbLine
 10
659.360683
 20
483.237409
 30
0.0
 11
659.361943
 21
482.737411
 31
0.0
  0
LINE
  5
1CC
330
159
100
AcDbEntity
  8
0
  6
Continuous
 62
     0
370
     0
100
AcDbLine
 10
658.860684
 20
483.236148
 30
0.0
 11
659.360683
 21
483.237409
 31
0.0
  0
ARC
  5
1CD
330
159
100
AcDbEntity
  8
0
  6
Continuous
 62
     0
370
    30
100
AcDbCircle
 10
659.262333
 20
522.237285
 30
0.0
 40
0.5000000000001206
100
AcDbArc
 50
90.144487
 51
180.144487
  0
LINE
  5
1CE
330
159
100
AcDbEntity
  8
0
  6
Continuous
 62
     0
370
     0
100
AcDbLine
 10
659.262333
 20
522.237285
 30
0.0
 11
658.762335
 21
522.236024
 31
0.0
  0
LINE
  5
1CF
330
159
100
AcDbEntity
  8
0
  6
Continuous
 62
     0
370
     0
100
AcDbLine
 10
659.261072
 20
522.737283
 30
0.0
 11
659.262333
 21
522.237285
 31
0.0
  0
LINE
  5
1D0
330
159
100
AcDbEntity
  8
0
  6
Continuous
 62
     0
370
     0
100
AcDbLine
 10
659.262333
 20
522.237285
 30
0.0
 11
659.360683
 21
483.237409
 31
0.0
  0
LINE
  5
1D1
330
159
100
AcDbEntity
  8
0
  6
Continuous
 62
     0
370
    30
100
AcDbLine
 10
658.860684
 20
483.236148
 30
0.0
 11
658.762335
 21
522.236024
 31
0.0
  0
LINE
  5
1D2
330
159
100
AcDbEntity
  8
0
  6
Continuous
 62
     0
370
     0
100
AcDbLine
 10
668.262305
 20
522.259981
 30
0.0
 11
659.262333
 21
522.237285
 31
0.0
  0
LINE
  5
1D3
330
159
100
AcDbEntity
  8
0
  6
Continuous
 62
     0
370
     0
100
AcDbLine
 10
659.360683
 20
483.237409
 30
0.0
 11
668.360654
 21
483.260105
 31
0.0
  0
LINE
  5
1D4
330
159
100
AcDbEntity
  8
0
  6
Continuous
 62
     0
370
     0
100
AcDbLine
 10
668.360654
 20
483.260105
 30
0.0
 11
668.262305
 21
522.259981
 31
0.0
  0
LINE
  5
1D5
330
159
100
AcDbEntity
  8
0
  6
Continuous
 62
     0
370
    30
100
AcDbLine
 10
668.762303
 20
522.261242
 30
0.0
 11
668.860652
 21
483.261366
 31
0.0
  0
LINE
  5
1D6
330
159
100
AcDbEntity
  8
0
  6
Continuous
 62
     0
370
     0
100
AcDbLine
 10
675.76228
 20
522.278894
 30
0.0
 11
668.762302
 21
522.261242
 31
0.0
  0
LINE
  5
1D7
330
159
100
AcDbEntity
  8
0
  6
Continuous
 62
     0
370
     0
100
AcDbLine
 10
651.762356
 20
522.218372
 30
0.0
 11
651.860705
 21
483.218496
 31
0.0
  0
LINE
  5
1D8
330
159
100
AcDbEntity
  8
0
  6
Continuous
 62
     0
370
     0
100
AcDbLine
 10
675.860629
 20
483.279018
 30
0.0
 11
675.76228
 21
522.278894
 31
0.0
  0
ARC
  5
1D9
330
159
100
AcDbEntity
  8
0
  6
Continuous
 62
     0
370
    30
100
AcDbCircle
 10
663.811492
 20
502.748695
 30
0.0
 40
24.00000000000001
100
AcDbArc
 50
270.144487
 51
90.144487
  0
ARC
  5
1DA
330
159
100
AcDbEntity
  8
0
  6
Continuous
 62
     0
370
    30
100
AcDbCircle
 10
663.811492
 20
502.748695
 30
0.0
 40
24.00000000000001
100
AcDbArc
 50
90.144487
 51
270.144487
  0
ARC
  5
1DB
330
159
100
AcDbEntity
  8
0
  6
Continuous
 62
     0
370
     0
100
AcDbCircle
 10
671.089991
 20
512.195143
 30
0.0
 40
11.11313640192206
100
AcDbArc
 50
65.178545
 51
85.209322
  0
ARC
  5
1DC
330
159
100
AcDbEntity
  8
0
  6
Continuous
 62
     0
370
     0
100
AcDbCircle
 10
671.144524
 20
493.313193
 30
0.0
 40
11.08673779135717
100
AcDbArc
 50
275.055556
 51
295.134521
  0
ARC
  5
1DD
330
159
100
AcDbEntity
  8
0
  6
Continuous
 62
     0
370
     0
100
AcDbCircle
 10
656.532994
 20
493.302247
 30
0.0
 40
11.11313640142451
100
AcDbArc
 50
245.178545
 51
265.209322
  0
LINE
  5
1DE
330
159
100
AcDbEntity
  8
0
  6
Continuous
 62
     0
370
    30
100
AcDbLine
 10
707.460134
 20
622.309147
 30
0.0
 11
707.458873
 21
622.809146
 31
0.0
  0
LINE
  5
1DF
330
159
100
AcDbEntity
  8
0
  6
Continuous
 62
     0
370
    30
100
AcDbLine
 10
707.558483
 20
583.309271
 30
0.0
 11
707.460134
 21
622.309147
 31
0.0
  0
LINE
  5
1E0
330
159
100
AcDbEntity
  8
0
  6
Continuous
 62
     0
370
    30
100
AcDbLine
 10
707.558483
 20
583.309272
 30
0.0
 11
707.559744
 21
582.809273
 31
0.0
  0
ELLIPSE
  5
1E1
330
159
100
AcDbEntity
  8
0
  6
Continuous
 62
     0
370
     0
100
AcDbEllipse
 10
692.97155
 20
583.272486
 30
0.0
 11
-0.001260888100258636
 21
0.499998410158668
 31
0.0
210
0.0
220
0.0
230
1.0
 40
0.512043
 41
1.570796326923224
 42
3.14159265371811
  0
LINE
  5
1E2
330
159
100
AcDbEntity
  8
0
  6
Continuous
 62
     0
370
    30
100
AcDbLine
 10
692.972811
 20
582.772488
 30
0.0
 11
707.559744
 21
582.809273
 31
0.0
  0
LINE
  5
1E3
330
159
100
AcDbEntity
  8
0
  6
Continuous
 62
     0
370
     0
100
AcDbLine
 10
692.71553
 20
583.271841
 30
0.0
 11
707.558483
 21
583.309271
 31
0.0
  0
ARC
  5
1E4
330
159
100
AcDbEntity
  8
0
  6
Continuous
 62
     0
370
    30
100
AcDbCircle
 10
659.058635
 20
583.186965
 30
0.0
 40
0.5
100
AcDbArc
 50
180.144487
 51
270.144487
  0
LINE
  5
1E5
330
159
100
AcDbEntity
  8
0
  6
Continuous
 62
     0
370
     0
100
AcDbLine
 10
692.61718
 20
622.271717
 30
0.0
 11
707.460134
 21
622.309147
 31
0.0
  0
LINE
  5
1E6
330
159
100
AcDbEntity
  8
0
  6
Continuous
 62
     0
370
    30
100
AcDbLine
 10
692.87194
 20
622.772361
 30
0.0
 11
707.458873
 21
622.809146
 31
0.0
  0
ELLIPSE
  5
1E7
330
159
100
AcDbEntity
  8
0
  6
Continuous
 62
     0
370
     0
100
AcDbEllipse
 10
692.873201
 20
622.272362
 30
0.0
 11
0.001260888100258636
 21
-0.499998410158668
 31
0.0
210
0.0
220
0.0
230
-1.0
 40
0.512043
 41
1.570796326666584
 42
3.141592653461476
  0
ARC
  5
1E8
330
159
100
AcDbEntity
  8
0
  6
Continuous
 62
     0
370
    30
100
AcDbCircle
 10
658.960285
 20
622.186841
 30
0.0
 40
0.5
100
AcDbArc
 50
90.144487
 51
180.144487
  0
LINE
  5
1E9
330
159
100
AcDbEntity
  8
0
  6
Continuous
 62
     0
370
    30
100
AcDbLine
 10
659.059895
 20
582.686967
 30
0.0
 11
692.972811
 21
582.772488
 31
0.0
  0
LINE
  5
1EA
330
159
100
AcDbEntity
  8
0
  6
Continuous
 62
     0
370
     0
100
AcDbLine
 10
692.71553
 20
583.271841
 30
0.0
 11
692.61718
 21
622.271717
 31
0.0
  0
LINE
  5
1EB
330
159
100
AcDbEntity
  8
0
  6
Continuous
 62
     0
370
    30
100
AcDbLine
 10
658.558636
 20
583.185704
 30
0.0
 11
658.460287
 21
622.18558
 31
0.0
  0
LINE
  5
1EC
330
159
100
AcDbEntity
  8
0
  6
Continuous
 62
     0
370
     0
100
AcDbLine
 10
658.558636
 20
583.185704
 30
0.0
 11
692.71553
 21
583.271841
 31
0.0
  0
LINE
  5
1ED
330
159
100
AcDbEntity
  8
0
  6
Continuous
 62
     0
370
     0
100
AcDbLine
 10
658.460287
 20
622.18558
 30
0.0
 11
692.61718
 21
622.271717
 31
0.0
  0
LINE
  5
1EE
330
159
100
AcDbEntity
  8
0
  6
Continuous
 62
     0
370
    30
100
AcDbLine
 10
658.959024
 20
622.68684
 30
0.0
 11
692.87194
 21
622.772361
 31
0.0
  0
ARC
  5
1EF
330
159
100
AcDbEntity
  8
0
  6
Continuous
 62
     0
370
    30
100
AcDbCircle
 10
691.629835
 20
574.819076
 30
0.0
 40
0.5
100
AcDbArc
 50
270.144487
 51
0.144487
  0
LINE
  5
1F0
330
159
100
AcDbEntity
  8
0
  6
Continuous
 62
     0
370
     0
100
AcDbLine
 10
692.129834
 20
574.820337
 30
0.0
 11
691.629835
 21
574.819076
 31
0.0
  0
LINE
  5
1F1
330
159
100
AcDbEntity
  8
0
  6
Continuous
 62
     0
370
     0
100
AcDbLine
 10
691.629835
 20
574.819076
 30
0.0
 11
691.631096
 21
574.319077
 31
0.0
  0
LINE
  5
1F2
330
159
100
AcDbEntity
  8
0
  6
Continuous
 62
     0
370
     0
100
AcDbLine
 10
691.488616
 20
630.818898
 30
0.0
 11
691.988614
 21
630.820159
 31
0.0
  0
LINE
  5
1F3
330
159
100
AcDbEntity
  8
0
  6
Continuous
 62
     0
370
     0
100
AcDbLine
 10
691.508916
 20
622.768923
 30
0.0
 11
691.488616
 21
630.818898
 31
0.0
  0
LINE
  5
1F4
330
159
100
AcDbEntity
  8
0
  6
Continuous
 62
     0
370
     0
100
AcDbLine
 10
691.629835
 20
574.819076
 30
0.0
 11
691.609787
 21
582.769051
 31
0.0
  0
LINE
  5
1F5
330
159
100
AcDbEntity
  8
0
  6
Continuous
 62
     0
370
    30
100
AcDbLine
 10
692.109786
 20
582.770311
 30
0.0
 11
692.129834
 21
574.820337
 31
0.0
  0
LINE
  5
1F6
330
159
100
AcDbEntity
  8
0
  6
Continuous
 62
     0
370
    30
100
AcDbLine
 10
691.988614
 20
630.820159
 30
0.0
 11
692.008915
 21
622.770184
 31
0.0
  0
LINE
  5
1F7
330
159
100
AcDbEntity
  8
0
  6
Continuous
 62
     0
370
     0
100
AcDbLine
 10
691.487355
 20
631.318896
 30
0.0
 11
691.488616
 21
630.818898
 31
0.0
  0
ARC
  5
1F8
330
159
100
AcDbEntity
  8
0
  6
Continuous
 62
     0
370
    30
100
AcDbCircle
 10
691.488616
 20
630.818898
 30
0.0
 40
0.5
100
AcDbArc
 50
0.144487
 51
90.144487
  0
LINE
  5
1F9
330
159
100
AcDbEntity
  8
0
  6
Continuous
 62
     0
370
     0
100
AcDbLine
 10
635.488794
 20
630.677678
 30
0.0
 11
635.487533
 21
631.177677
 31
0.0
  0
LINE
  5
1FA
330
159
100
AcDbEntity
  8
0
  6
Continuous
 62
     0
370
     0
100
AcDbLine
 10
691.488616
 20
630.818898
 30
0.0
 11
635.488794
 21
630.677678
 31
0.0
  0
LINE
  5
1FB
330
159
100
AcDbEntity
  8
0
  6
Continuous
 62
     0
370
    30
100
AcDbLine
 10
635.487533
 20
631.177677
 30
0.0
 11
691.487355
 21
631.318896
 31
0.0
  0
LINE
  5
1FC
330
159
100
AcDbEntity
  8
0
  6
Continuous
 62
     0
370
     0
100
AcDbLine
 10
634.988796
 20
630.676417
 30
0.0
 11
635.488794
 21
630.677678
 31
0.0
  0
ARC
  5
1FD
330
159
100
AcDbEntity
  8
0
  6
Continuous
 62
     0
370
    30
100
AcDbCircle
 10
635.488794
 20
630.677678
 30
0.0
 40
0.5
100
AcDbArc
 50
90.144487
 51
180.144487
  0
LINE
  5
1FE
330
159
100
AcDbEntity
  8
0
  6
Continuous
 62
     0
370
     0
100
AcDbLine
 10
635.630013
 20
574.677856
 30
0.0
 11
635.130015
 21
574.676596
 31
0.0
  0
LINE
  5
1FF
330
159
100
AcDbEntity
  8
0
  6
Continuous
 62
     0
370
     0
100
AcDbLine
 10
635.488794
 20
630.677678
 30
0.0
 11
635.630013
 21
574.677856
 31
0.0
  0
LINE
  5
200
330
159
100
AcDbEntity
  8
0
  6
Continuous
 62
     0
370
    30
100
AcDbLine
 10
635.130015
 20
574.676596
 30
0.0
 11
634.988796
 21
630.676417
 31
0.0
  0
LINE
  5
201
330
159
100
AcDbEntity
  8
0
  6
Continuous
 62
     0
370
     0
100
AcDbLine
 10
635.631274
 20
574.177858
 30
0.0
 11
635.630013
 21
574.677856
 31
0.0
  0
ARC
  5
202
330
159
100
AcDbEntity
  8
0
  6
Continuous
 62
     0
370
    30
100
AcDbCircle
 10
635.630013
 20
574.677856
 30
0.0
 40
0.5
100
AcDbArc
 50
180.144487
 51
270.144487
  0
ARC
  5
203
330
159
100
AcDbEntity
  8
0
  6
Continuous
 62
     0
370
    30
100
AcDbCircle
 10
663.559315
 20
602.748377
 30
0.0
 40
24.4
100
AcDbArc
 50
54.992032
 51
180.144487
  0
ARC
  5
204
330
159
100
AcDbEntity
  8
0
  6
Continuous
 62
     0
370
    30
100
AcDbCircle
 10
663.559315
 20
602.748377
 30
0.0
 40
24.4
100
AcDbArc
 50
180.144487
 51
304.887011
  0
LINE
  5
205
330
159
100
AcDbEntity
  8
0
  6
Continuous
 62
     0
370
     0
100
AcDbLine
 10
635.630013
 20
574.677856
 30
0.0
 11
691.629835
 21
574.819076
 31
0.0
  0
LINE
  5
206
330
159
100
AcDbEntity
  8
0
  6
Continuous
 62
     0
370
    30
100
AcDbLine
 10
635.631274
 20
574.177858
 30
0.0
 11
691.631096
 21
574.319077
 31
0.0
  0
ARC
  5
207
330
159
100
AcDbEntity
  8
0
  6
Continuous
 62
     0
370
    30
100
AcDbCircle
 10
663.559315
 20
602.748377
 30
0.0
 40
24.25
100
AcDbArc
 50
90.144487
 51
270.144487
  0
ARC
  5
208
330
159
100
AcDbEntity
  8
0
  6
Continuous
 62
     0
370
    30
100
AcDbCircle
 10
663.559315
 20
602.748377
 30
0.0
 40
24.25
100
AcDbArc
 50
55.498508
 51
90.144487
  0
ARC
  5
209
330
159
100
AcDbEntity
  8
0
  6
Continuous
 62
     0
370
    30
100
AcDbCircle
 10
663.559315
 20
602.748377
 30
0.0
 40
24.25
100
AcDbArc
 50
270.144487
 51
304.372657
  0
ENDBLK
  5
20B
330
159
100
AcDbEntity
  8
0
100
AcDbBlockEnd
  0
BLOCK
  5
302
330
20D
100
AcDbEntity
  8
0
100
AcDbBlockBegin
  2
d
 70
     0
 10
367.122772
 20
167.583282
 30
0.0
  3
d
  1

  0
ELLIPSE
  5
20E
330
20D
100
AcDbEntity
  8
0
  6
Continuous
 62
     0
370
     0
100
AcDbEllipse
 10
783.395966
 20
343.982175
 30
0.0
 11
-0.2490525415673232
 21
-0.4335583369500081
 31
0.0
210
0.0
220
0.0
230
-1.0
 40
0.578804
 41
5.499051216948809
 42
7.069847543743576
  0
LINE
  5
20F
330
20D
100
AcDbEntity
  8
0
  6
Continuous
 62
     0
370
     0
100
AcDbLine
 10
783.042413
 20
343.778051
 30
0.0
 11
760.885942
 21
356.505578
 31
0.0
  0
LINE
  5
210
330
20D
100
AcDbEntity
  8
0
  6
Continuous
 62
     0
370
     0
100
AcDbLine
 10
743.400295
 20
386.818416
 30
0.0
 11
743.344702
 21
412.305893
 31
0.0
  0
ELLIPSE
  5
211
330
20D
100
AcDbEntity
  8
0
  6
Continuous
 62
     0
370
     0
100
AcDbEllipse
 10
743.698255
 20
412.510017
 30
0.0
 11
0.4999988106187625
 21
0.001090586916710878
 31
0.0
210
0.0
220
0.0
230
-1.0
 40
0.575892
 41
2.357452203983174
 42
3.928248530778091
  0
ELLIPSE
  5
212
330
20D
100
AcDbEntity
  8
0
  6
Continuous
 62
     0
370
     0
100
AcDbEllipse
 10
743.698255
 20
412.510017
 30
0.0
 11
0.2490525415673232
 21
0.4335583369500082
 31
0.0
210
0.0
220
0.0
230
1.0
 40
0.578804
 41
0.7841340902307561
 42
2.354930417025775
  0
LINE
  5
213
330
20D
100
AcDbEntity
  8
0
  6
Continuous
 62
     0
370
     0
100
AcDbLine
 10
743.344702
 20
412.305893
 30
0.0
 11
782.942556
 21
389.559367
 31
0.0
  0
ELLIPSE
  5
214
330
20D
100
AcDbEntity
  8
0
  6
Continuous
 62
     0
370
     0
100
AcDbEllipse
 10
783.296109
 20
389.763491
 30
0.0
 11
-0.2490525415673232
 21
-0.4335583369500082
 31
0.0
210
0.0
220
0.0
230
-1.0
 40
0.578804
 41
0.7866622365640181
 42
2.35745856335903
  0
LINE
  5
215
330
20D
100
AcDbEntity
  8
0
  6
Continuous
 62
     0
370
     0
100
AcDbLine
 10
783.295217
 20
390.172253
 30
0.0
 11
743.697364
 21
412.918779
 31
0.0
  0
ARC
  5
216
330
20D
100
AcDbEntity
  8
0
  6
Continuous
 62
     0
370
     0
100
AcDbCircle
 10
743.555813
 20
412.756308
 30
0.0
 40
0.2154842526028322
100
AcDbArc
 50
48.936533
 51
191.563984
  0
ELLIPSE
  5
217
330
20D
100
AcDbEntity
  8
0
  6
Continuous
 62
     0
370
     0
100
AcDbEllipse
 10
783.296109
 20
389.763491
 30
0.0
 11
0.4999988106187625
 21
0.001090586916711017
 31
0.0
210
0.0
220
0.0
230
-1.0
 40
0.575892
 41
0.7866558771883271
 42
2.357452203983232
  0
LINE
  5
218
330
20D
100
AcDbEntity
  8
0
  6
Continuous
 62
     0
370
     0
100
AcDbLine
 10
782.942556
 20
389.559367
 30
0.0
 11
783.042413
 21
343.778051
 31
0.0
  0
ELLIPSE
  5
219
330
20D
100
AcDbEntity
  8
0
  6
Continuous
 62
     0
370
     0
100
AcDbEllipse
 10
783.395966
 20
343.982175
 30
0.0
 11
-0.4999988106187625
 21
-0.001090586916711017
 31
0.0
210
0.0
220
0.0
230
1.0
 40
0.575892
 41
0.7841404496065261
 42
2.354936776401467
  0
LINE
  5
21A
330
20D
100
AcDbEntity
  8
0
  6
Continuous
 62
     0
370
     0
100
AcDbLine
 10
783.749519
 20
343.779081
 30
0.0
 11
783.649661
 21
389.560397
 31
0.0
  0
LINE
  5
21B
330
20D
100
AcDbEntity
  8
0
  6
Continuous
 62
     0
370
     0
100
AcDbLine
 10
783.649661
 20
389.560397
 30
0.0
 11
783.295217
 21
390.172253
 31
0.0
  0
ARC
  5
21C
330
20D
100
AcDbEntity
  8
0
  6
Continuous
 62
     0
370
     0
100
AcDbCircle
 10
783.538408
 20
343.735885
 30
0.0
 40
0.2154842526037021
100
AcDbArc
 50
228.936533
 51
11.563984
  0
LINE
  5
21D
330
20D
100
AcDbEntity
  8
0
  6
Continuous
 62
     0
370
     0
100
AcDbLine
 10
743.697364
 20
412.918779
 30
0.0
 11
750.570442
 21
416.886952
 31
0.0
  0
ELLIPSE
  5
21E
330
20D
100
AcDbEntity
  8
0
  6
Continuous
 62
     0
370
    30
100
AcDbEllipse
 10
750.571333
 20
416.47819
 30
0.0
 11
0.2500000000000001
 21
-0.4330127018922194
 31
0.0
210
0.0
220
0.0
230
1.0
 40
0.57735
 41
2.358716269131442
 42
3.141592685079647
  0
LINE
  5
21F
330
20D
100
AcDbEntity
  8
0
  6
Continuous
 62
     0
370
     0
100
AcDbLine
 10
783.295217
 20
390.172253
 30
0.0
 11
790.168295
 21
394.140426
 31
0.0
  0
LINE
  5
220
330
20D
100
AcDbEntity
  8
0
  6
Continuous
 62
     0
370
    30
100
AcDbLine
 10
790.168295
 20
394.140426
 30
0.0
 11
750.570442
 21
416.886952
 31
0.0
  0
LINE
  5
221
330
20D
100
AcDbEntity
  8
0
  6
Continuous
 62
     0
370
     0
100
AcDbLine
 10
783.649661
 20
389.560397
 30
0.0
 11
790.522739
 21
393.52857
 31
0.0
  0
ELLIPSE
  5
222
330
20D
100
AcDbEntity
  8
0
  6
Continuous
 62
     0
370
    30
100
AcDbEllipse
 10
790.169187
 20
393.731664
 30
0.0
 11
0.2500000000000001
 21
-0.4330127018922193
 31
0.0
210
0.0
220
0.0
230
1.0
 40
0.57735
 41
0.7879199423364174
 42
2.358716269131392
  0
LINE
  5
223
330
20D
100
AcDbEntity
  8
0
  6
Continuous
 62
     0
370
     0
100
AcDbLine
 10
783.749519
 20
343.779081
 30
0.0
 11
790.622596
 21
347.747254
 31
0.0
  0
LINE
  5
224
330
20D
100
AcDbEntity
  8
0
  6
Continuous
 62
     0
370
    30
100
AcDbLine
 10
790.622596
 20
347.747254
 30
0.0
 11
790.522739
 21
393.52857
 31
0.0
  0
ELLIPSE
  5
225
330
20D
100
AcDbEntity
  8
0
  6
Continuous
 62
     0
370
    30
100
AcDbEllipse
 10
790.269044
 20
347.950348
 30
0.0
 11
0.2500000000000001
 21
-0.4330127018922194
 31
0.0
210
0.0
220
0.0
230
1.0
 40
0.57735
 41
0.0000000314898596
 42
0.7879199423364742
  0
ELLIPSE
  5
226
330
20D
100
AcDbEntity
  8
0
  6
Continuous
 62
     0
370
    30
100
AcDbEllipse
 10
763.193557
 20
378.041972
 30
0.0
 11
12.00000000000001
 21
-20.78460969082653
 31
0.0
210
0.0
220
0.0
230
1.0
 40
0.57735
 41
0.0000000314898418
 42
2.358716269131661
  0
ELLIPSE
  5
227
330
20D
100
AcDbEntity
  8
0
  6
Continuous
 62
     0
370
    30
100
AcDbEllipse
 10
763.193557
 20
378.041972
 30
0.0
 11
12.00000000000001
 21
-20.78460969082653
 31
0.0
210
0.0
220
0.0
230
1.0
 40
0.57735
 41
2.358716269131661
 42
3.141592685079668
  0
ARC
  5
228
330
20D
100
AcDbEntity
  8
0
  6
Continuous
 62
     0
370
     0
100
AcDbCircle
 10
754.144351
 20
391.988395
 30
0.0
 40
6.798957657544421
100
AcDbArc
 50
63.518473
 51
86.730531
  0
ARC
  5
229
330
20D
100
AcDbEntity
  8
0
  6
Continuous
 62
     0
370
     0
100
AcDbCircle
 10
752.515653
 20
392.609691
 30
0.0
 40
6.48791134936203
100
AcDbArc
 50
48.396924
 51
71.892421
  0
LINE
  5
22A
330
20D
100
AcDbEntity
  8
0
  6
Continuous
 62
     0
370
     0
100
AcDbLine
 10
756.823408
 20
397.461107
 30
0.0
 11
757.17607
 21
398.073993
 31
0.0
  0
ELLIPSE
  5
22B
330
20D
100
AcDbEntity
  8
0
  6
Continuous
 62
     0
370
     0
100
AcDbEllipse
 10
768.501539
 20
391.16099
 30
0.0
 11
-0.2490525415672219
 21
-0.4335583369500663
 31
0.0
210
0.0
220
0.0
230
-1.0
 40
0.578804
 41
3.928254890154074
 42
5.499051216948893
  0
LINE
  5
22C
330
20D
100
AcDbEntity
  8
0
  6
Continuous
 62
     0
370
     0
100
AcDbLine
 10
757.17607
 20
398.073993
 30
0.0
 11
768.855093
 21
391.365114
 31
0.0
  0
LINE
  5
22D
330
20D
100
AcDbEntity
  8
0
  6
Continuous
 62
     0
370
     0
100
AcDbLine
 10
768.502431
 20
390.752229
 30
0.0
 11
756.823408
 21
397.461107
 31
0.0
  0
ARC
  5
22E
330
20D
100
AcDbEntity
  8
0
  6
Continuous
 62
     0
370
    30
100
AcDbCircle
 10
764.54146
 20
380.388896
 30
0.0
 40
11.09450120559405
100
AcDbArc
 50
51.138337
 51
69.08264
  0
ARC
  5
22F
330
20D
100
AcDbEntity
  8
0
  6
Continuous
 62
     0
370
     0
100
AcDbCircle
 10
760.640446
 20
379.392201
 30
0.0
 40
14.52002340992913
100
AcDbArc
 50
41.575466
 51
55.545882
  0
ARC
  5
230
330
20D
100
AcDbEntity
  8
0
  6
Continuous
 62
     0
370
     0
100
AcDbCircle
 10
766.576578
 20
379.240638
 30
0.0
 40
11.67157337485873
100
AcDbArc
 50
80.502549
 51
117.160434
  0
ARC
  5
231
330
20D
100
AcDbEntity
  8
0
  6
Continuous
 62
     0
370
     0
100
AcDbCircle
 10
760.822877
 20
388.969943
 30
0.0
 40
0.7814694835427376
100
AcDbArc
 50
3.184347
 51
56.982493
  0
ARC
  5
232
330
20D
100
AcDbEntity
  8
0
  6
Continuous
 62
     0
370
     0
100
AcDbCircle
 10
766.567134
 20
379.235973
 30
0.0
 40
10.96532649661409
100
AcDbArc
 50
63.249951
 51
116.916994
  0
ARC
  5
233
330
20D
100
AcDbEntity
  8
0
  6
Continuous
 62
     0
370
     0
100
AcDbCircle
 10
753.771627
 20
396.336783
 30
0.0
 40
3.252302477699227
100
AcDbArc
 50
290.014524
 51
20.224606
  0
LINE
  5
234
330
20D
100
AcDbEntity
  8
0
  6
Continuous
 62
     0
370
     0
100
AcDbLine
 10
754.884755
 20
393.2809
 30
0.0
 11
740.389066
 21
384.91181
 31
0.0
  0
LINE
  5
235
330
20D
100
AcDbEntity
  8
0
  6
Continuous
 62
     0
370
     0
100
AcDbLine
 10
740.389066
 20
384.91181
 30
0.0
 11
746.753007
 21
381.256118
 31
0.0
  0
LINE
  5
236
330
20D
100
AcDbEntity
  8
0
  6
Continuous
 62
     0
370
     0
100
AcDbLine
 10
746.753007
 20
381.256118
 30
0.0
 11
761.248696
 21
389.625208
 31
0.0
  0
ARC
  5
237
330
20D
100
AcDbEntity
  8
0
  6
Continuous
 62
     0
370
     0
100
AcDbCircle
 10
753.627134
 20
395.965208
 30
0.0
 40
2.95315793191071
100
AcDbArc
 50
295.070648
 51
72.154971
  0
LINE
  5
238
330
20D
100
AcDbEntity
  8
0
  6
Continuous
 62
     0
370
     0
100
AcDbLine
 10
754.635646
 20
393.305151
 30
0.0
 11
754.884755
 21
393.2809
 31
0.0
  0
ARC
  5
239
330
20D
100
AcDbEntity
  8
0
  6
Continuous
 62
     0
370
     0
100
AcDbCircle
 10
771.959921
 20
363.93225
 30
0.0
 40
6.798957657452698
100
AcDbArc
 50
243.518473
 51
266.730531
  0
LINE
  5
23A
330
20D
100
AcDbEntity
  8
0
  6
Continuous
 62
     0
370
     0
100
AcDbLine
 10
771.572162
 20
357.144358
 30
0.0
 11
769.750915
 21
357.698741
 31
0.0
  0
ARC
  5
23B
330
20D
100
AcDbEntity
  8
0
  6
Continuous
 62
     0
370
     0
100
AcDbCircle
 10
747.179032
 20
380.603072
 30
0.0
 40
0.7797225902980541
100
AcDbArc
 50
123.119108
 51
177.047626
  0
ARC
  5
23C
330
20D
100
AcDbEntity
  8
0
  6
Continuous
 62
     0
370
     0
100
AcDbCircle
 10
746.752879
 20
381.342647
 30
0.0
 40
0.7832376069025317
100
AcDbArc
 50
243.249951
 51
296.916994
  0
LINE
  5
23D
330
20D
100
AcDbEntity
  8
0
  6
Continuous
 62
     0
370
     0
100
AcDbLine
 10
747.10745
 20
380.644263
 30
0.0
 11
746.753007
 21
381.256118
 31
0.0
  0
ARC
  5
23E
330
20D
100
AcDbEntity
  8
0
  6
Continuous
 62
     0
370
     0
100
AcDbCircle
 10
746.822423
 20
349.45923
 30
0.0
 40
0.7832376069020586
100
AcDbArc
 50
243.249951
 51
296.916994
  0
ARC
  5
23F
330
20D
100
AcDbEntity
  8
0
  6
Continuous
 62
     0
370
     0
100
AcDbCircle
 10
746.681987
 20
348.717906
 30
0.0
 40
0.2162002053522249
100
AcDbArc
 50
168.822503
 51
311.177812
  0
ARC
  5
240
330
20D
100
AcDbEntity
  8
0
  6
Continuous
 62
     0
370
     0
100
AcDbCircle
 10
746.965884
 20
348.71765
 30
0.0
 40
0.2154842526037864
100
AcDbArc
 50
228.936533
 51
11.563984
  0
ARC
  5
241
330
20D
100
AcDbEntity
  8
0
  6
Continuous
 62
     0
370
     0
100
AcDbCircle
 10
740.104723
 20
384.502533
 30
0.0
 40
0.2147652256513107
100
AcDbArc
 50
108.548443
 51
251.45124
  0
ARC
  5
242
330
20D
100
AcDbEntity
  8
0
  6
Continuous
 62
     0
370
     0
100
AcDbCircle
 10
740.815092
 20
384.258764
 30
0.0
 40
0.7797225902948599
100
AcDbArc
 50
123.119108
 51
177.047626
  0
ARC
  5
243
330
20D
100
AcDbEntity
  8
0
  6
Continuous
 62
     0
370
     0
100
AcDbCircle
 10
740.247515
 20
384.749339
 30
0.0
 40
0.215484252604081
100
AcDbArc
 50
48.936533
 51
191.563984
  0
LINE
  5
244
330
20D
100
AcDbEntity
  8
0
  6
Continuous
 62
     0
370
     0
100
AcDbLine
 10
740.210448
 20
352.186074
 30
0.0
 11
740.105947
 21
352.415508
 31
0.0
  0
LINE
  5
245
330
20D
100
AcDbEntity
  8
0
  6
Continuous
 62
     0
370
     0
100
AcDbLine
 10
740.105947
 20
352.415508
 30
0.0
 11
739.959502
 21
352.618553
 31
0.0
  0
LINE
  5
246
330
20D
100
AcDbEntity
  8
0
  6
Continuous
 62
     0
370
     0
100
AcDbLine
 10
740.105947
 20
352.415508
 30
0.0
 11
740.036404
 21
384.298924
 31
0.0
  0
LINE
  5
247
330
20D
100
AcDbEntity
  8
0
  6
Continuous
 62
     0
370
     0
100
AcDbLine
 10
746.469888
 20
348.759816
 30
0.0
 11
740.105947
 21
352.415508
 31
0.0
  0
LINE
  5
248
330
20D
100
AcDbEntity
  8
0
  6
Continuous
 62
     0
370
     0
100
AcDbLine
 10
740.036404
 20
384.298924
 30
0.0
 11
746.400345
 21
380.643232
 31
0.0
  0
ELLIPSE
  5
249
330
20D
100
AcDbEntity
  8
0
  6
Continuous
 62
     0
370
     0
100
AcDbEllipse
 10
761.319131
 20
357.33303
 30
0.0
 11
0.2500000000000001
 21
-0.4330127018922194
 31
0.0
210
0.0
220
0.0
230
1.0
 40
0.57735
 41
0.0000000314898294
 42
0.7879199423368233
  0
LINE
  5
24A
330
20D
100
AcDbEntity
  8
0
  6
Continuous
 62
     0
370
     0
100
AcDbLine
 10
761.672683
 20
357.129936
 30
0.0
 11
747.176994
 21
348.760846
 31
0.0
  0
LINE
  5
24B
330
20D
100
AcDbEntity
  8
0
  6
Continuous
 62
     0
370
     0
100
AcDbLine
 10
747.176994
 20
348.760846
 30
0.0
 11
747.10745
 21
380.644263
 31
0.0
  0
LINE
  5
24C
330
20D
100
AcDbEntity
  8
0
  6
Continuous
 62
     0
370
     0
100
AcDbLine
 10
746.400345
 20
380.643232
 30
0.0
 11
746.469888
 21
348.759816
 31
0.0
  0
LINE
  5
24D
330
20D
100
AcDbEntity
  8
0
  6
Continuous
 62
     0
370
     0
100
AcDbLine
 10
747.10745
 20
380.644263
 30
0.0
 11
761.603139
 21
389.013353
 31
0.0
  0
ARC
  5
24E
330
20D
100
AcDbEntity
  8
0
  6
Continuous
 62
     0
370
     0
100
AcDbCircle
 10
766.636677
 20
347.352557
 30
0.0
 40
10.96532649661476
100
AcDbArc
 50
63.249951
 51
116.916994
  0
LINE
  5
24F
330
20D
100
AcDbEntity
  8
0
  6
Continuous
 62
     0
370
     0
100
AcDbLine
 10
754.544044
 20
393.304951
 30
0.0
 11
754.53211
 21
398.776286
 31
0.0
  0
LINE
  5
250
330
20D
100
AcDbEntity
  8
0
  6
Continuous
 62
     0
370
     0
100
AcDbLine
 10
761.672683
 20
357.129936
 30
0.0
 11
761.603139
 21
389.013353
 31
0.0
  0
LINE
  5
251
330
20D
100
AcDbEntity
  8
0
  6
Continuous
 62
     0
370
     0
100
AcDbLine
 10
771.502619
 20
389.027775
 30
0.0
 11
771.572162
 21
357.144358
 31
0.0
  0
LWPOLYLINE
  5
252
330
20D
100
AcDbEntity
  8
0
  6
Continuous
 62
     0
370
    30
100
AcDbPolyline
 90
       30
 70
     0
 43
0.0
 10
763.009338
 20
397.580872
 10
762.195068
 20
398.026062
 10
761.367432
 20
398.432098
 10
760.529236
 20
398.795074
 10
759.683411
 20
399.111237
 10
758.833252
 20
399.376831
 10
757.9823
 20
399.58844
 10
757.134338
 20
399.742859
 10
756.293213
 20
399.83728
 10
755.463013
 20
399.869232
 10
754.647827
 20
399.836761
 10
753.851807
 20
399.738403
 10
753.078979
 20
399.573334
 10
752.333313
 20
399.341248
 10
751.618591
 20
399.04245
 10
750.938293
 20
398.677948
 10
750.295715
 20
398.249329
 10
749.693665
 20
397.758728
 10
749.134644
 20
397.208893
 10
748.620728
 20
396.603058
 10
748.153442
 20
395.944946
 10
747.733948
 20
395.238556
 10
747.362915
 20
394.488342
 10
747.040649
 20
393.698853
 10
746.766846
 20
392.874878
 10
746.540894
 20
392.02124
 10
746.361755
 20
391.142792
 10
746.22821
 20
390.244293
 10
746.138611
 20
389.330383
 10
746.090027
 20
388.371338
  0
LWPOLYLINE
  5
253
330
20D
100
AcDbEntity
  8
0
  6
Continuous
 62
     0
370
    30
100
AcDbPolyline
 90
       58
 70
     0
 43
0.0
 10
764.041443
 20
357.826569
 10
764.890259
 20
357.418427
 10
765.749695
 20
357.056122
 10
766.616394
 20
356.743652
 10
767.486816
 20
356.484955
 10
768.357056
 20
356.28363
 10
769.223022
 20
356.143066
 10
770.080627
 20
356.066132
 10
770.925354
 20
356.055298
 10
771.75293
 20
356.112488
 10
772.558838
 20
356.239044
 10
773.338806
 20
356.435669
 10
774.088684
 20
356.702362
 10
774.804504
 20
357.038513
 10
775.482666
 20
357.44278
 10
776.119873
 20
357.913147
 10
776.713257
 20
358.447021
 10
777.260437
 20
359.041138
 10
777.759399
 20
359.691803
 10
778.208801
 20
360.394806
 10
778.607666
 20
361.145569
 10
778.955566
 20
361.93927
 10
779.252563
 20
362.770844
 10
779.499268
 20
363.635162
 10
779.696472
 20
364.526978
 10
779.845642
 20
365.441223
 10
779.948364
 20
366.372803
 10
780.006531
 20
367.316956
 10
780.022461
 20
368.269104
 10
779.997375
 20
369.246857
 10
779.929688
 20
370.265076
 10
779.817139
 20
371.321655
 10
779.657959
 20
372.413849
 10
779.450439
 20
373.538513
 10
779.19342
 20
374.691956
 10
778.885925
 20
375.869995
 10
778.527588
 20
377.068054
 10
778.118347
 20
378.281036
 10
777.658752
 20
379.503571
 10
777.149841
 20
380.730042
 10
776.593079
 20
381.954498
 10
775.990479
 20
383.171021
 10
775.344543
 20
384.373596
 10
774.658264
 20
385.556274
 10
773.934875
 20
386.713348
 10
773.178223
 20
387.839294
 10
772.39209
 20
388.929016
 10
771.580811
 20
389.977783
 10
770.748718
 20
390.981445
 10
769.900146
 20
391.93631
 10
769.039551
 20
392.839294
 10
768.171265
 20
393.687927
 10
767.2995
 20
394.480347
 10
766.428345
 20
395.215271
 10
765.561584
 20
395.891998
 10
764.702698
 20
396.510376
 10
763.85498
 20
397.07077
 10
763.009338
 20
397.580872
  0
ARC
  5
254
330
20D
100
AcDbEntity
  8
0
  6
Continuous
 62
     0
370
    30
100
AcDbCircle
 10
766.692543
 20
346.723558
 30
0.0
 40
11.39340495697761
100
AcDbArc
 50
74.428839
 51
116.7233
  0
LINE
  5
255
330
20D
100
AcDbEntity
  8
0
  6
Continuous
 62
     0
370
    30
100
AcDbLine
 10
761.569131
 20
356.900017
 30
0.0
 11
747.073442
 21
348.530928
 31
0.0
  0
LINE
  5
256
330
20D
100
AcDbEntity
  8
0
  6
Continuous
 62
     0
370
    30
100
AcDbLine
 10
754.635646
 20
393.305151
 30
0.0
 11
740.139957
 21
384.936061
 31
0.0
  0
LINE
  5
257
330
20D
100
AcDbEntity
  8
0
  6
Continuous
 62
     0
370
    30
100
AcDbLine
 10
746.574389
 20
348.530382
 30
0.0
 11
740.210448
 21
352.186074
 31
0.0
  0
LINE
  5
258
330
20D
100
AcDbEntity
  8
0
  6
Continuous
 62
     0
370
    30
100
AcDbLine
 10
739.959502
 20
352.618541
 30
0.0
 11
739.889959
 21
384.501958
 31
0.0
  0
LINE
  5
259
330
20D
100
AcDbEntity
  8
0
  6
Continuous
 62
     0
370
    30
100
AcDbLine
 10
769.751119
 20
357.698685
 30
0.0
 11
768.823835
 21
358.075877
 31
0.0
  0
ARC
  5
25A
330
20D
100
AcDbEntity
  8
0
  6
Continuous
 62
     0
370
    30
100
AcDbCircle
 10
753.329318
 20
396.307735
 30
0.0
 40
3.27444698755669
100
AcDbArc
 50
293.51233
 51
353.442923
  0
LINE
  5
25B
330
20D
100
AcDbEntity
  8
0
  6
Continuous
 62
     0
370
    30
100
AcDbLine
 10
790.519044
 20
347.517336
 30
0.0
 11
783.645966
 21
343.549162
 31
0.0
  0
LINE
  5
25C
330
20D
100
AcDbEntity
  8
0
  6
Continuous
 62
     0
370
    30
100
AcDbLine
 10
750.321333
 20
416.911203
 30
0.0
 11
743.448255
 21
412.94303
 31
0.0
  0
LINE
  5
25D
330
20D
100
AcDbEntity
  8
0
  6
Continuous
 62
     0
370
    30
100
AcDbLine
 10
743.254476
 20
386.734228
 30
0.0
 11
743.198256
 21
412.508927
 31
0.0
  0
LINE
  5
25E
330
20D
100
AcDbEntity
  8
0
  6
Continuous
 62
     0
370
    30
100
AcDbLine
 10
783.146914
 20
343.548617
 30
0.0
 11
760.738862
 21
356.420661
 31
0.0
  0
LINE
  5
25F
330
20D
100
AcDbEntity
  8
0
  6
Continuous
 62
     0
370
     0
100
AcDbLine
 10
744.053997
 20
249.41408
 30
0.0
 11
783.65185
 21
226.667554
 31
0.0
  0
ELLIPSE
  5
260
330
20D
100
AcDbEntity
  8
0
  6
Continuous
 62
     0
370
     0
100
AcDbEllipse
 10
744.054888
 20
249.005318
 30
0.0
 11
-0.2490525415673232
 21
-0.4335583369500081
 31
0.0
210
0.0
220
0.0
230
-1.0
 40
0.578804
 41
0.7866622365640749
 42
2.357458563358959
  0
LINE
  5
261
330
20D
100
AcDbEntity
  8
0
  6
Continuous
 62
     0
370
     0
100
AcDbLine
 10
783.299189
 20
226.054668
 30
0.0
 11
743.701335
 21
248.801194
 31
0.0
  0
ELLIPSE
  5
262
330
20D
100
AcDbEntity
  8
0
  6
Continuous
 62
     0
370
     0
100
AcDbEllipse
 10
783.652742
 20
226.258792
 30
0.0
 11
0.2490525415673232
 21
0.4335583369500081
 31
0.0
210
0.0
220
0.0
230
1.0
 40
0.578804
 41
0.7841340902308271
 42
2.354930417025747
  0
LINE
  5
263
330
20D
100
AcDbEntity
  8
0
  6
Continuous
 62
     0
370
     0
100
AcDbLine
 10
743.701335
 20
248.801194
 30
0.0
 11
743.756928
 21
223.313718
 31
0.0
  0
ELLIPSE
  5
264
330
20D
100
AcDbEntity
  8
0
  6
Continuous
 62
     0
370
     0
100
AcDbEllipse
 10
744.054888
 20
249.005318
 30
0.0
 11
-0.4999988106187625
 21
-0.001090586916711017
 31
0.0
210
0.0
220
0.0
230
1.0
 40
0.575892
 41
5.496529429991273
 42
7.067325756786155
  0
ELLIPSE
  5
265
330
20D
100
AcDbEntity
  8
0
  6
Continuous
 62
     0
370
     0
100
AcDbEllipse
 10
783.752599
 20
180.477476
 30
0.0
 11
0.2490525415673232
 21
0.4335583369500081
 31
0.0
210
0.0
220
0.0
230
1.0
 40
0.578804
 41
2.354930417025733
 42
3.925726743820663
  0
LINE
  5
266
330
20D
100
AcDbEntity
  8
0
  6
Continuous
 62
     0
370
     0
100
AcDbLine
 10
761.242575
 20
193.000879
 30
0.0
 11
783.399046
 21
180.273352
 31
0.0
  0
LINE
  5
267
330
20D
100
AcDbEntity
  8
0
  6
Continuous
 62
     0
370
     0
100
AcDbLine
 10
784.006294
 20
226.055698
 30
0.0
 11
784.106152
 21
180.274382
 31
0.0
  0
ELLIPSE
  5
268
330
20D
100
AcDbEntity
  8
0
  6
Continuous
 62
     0
370
     0
100
AcDbEllipse
 10
783.652742
 20
226.258792
 30
0.0
 11
-0.4999988106187625
 21
-0.001090586916711045
 31
0.0
210
0.0
220
0.0
230
1.0
 40
0.575892
 41
0.7841404496066042
 42
2.35493677640148
  0
LINE
  5
269
330
20D
100
AcDbEntity
  8
0
  6
Continuous
 62
     0
370
     0
100
AcDbLine
 10
783.399046
 20
180.273352
 30
0.0
 11
783.299189
 21
226.054668
 31
0.0
  0
ELLIPSE
  5
26A
330
20D
100
AcDbEntity
  8
0
  6
Continuous
 62
     0
370
     0
100
AcDbEllipse
 10
783.752599
 20
180.477476
 30
0.0
 11
0.4999988106187625
 21
0.001090586916711045
 31
0.0
210
0.0
220
0.0
230
-1.0
 40
0.575892
 41
0.7866558771883413
 42
2.357452203983132
  0
ARC
  5
26B
330
20D
100
AcDbEntity
  8
0
  6
Continuous
 62
     0
370
     0
100
AcDbCircle
 10
783.895041
 20
180.231186
 30
0.0
 40
0.2154842526046282
100
AcDbArc
 50
228.936533
 51
11.563984
  0
ARC
  5
26C
330
20D
100
AcDbEntity
  8
0
  6
Continuous
 62
     0
370
     0
100
AcDbCircle
 10
743.912446
 20
249.251609
 30
0.0
 40
0.2154842526039039
100
AcDbArc
 50
48.936533
 51
191.563984
  0
ARC
  5
26D
330
20D
100
AcDbEntity
  8
0
  6
Continuous
 62
     0
370
     0
100
AcDbCircle
 10
783.226031
 20
226.012289
 30
0.0
 40
0.7814694835359599
100
AcDbArc
 50
3.184347
 51
56.982493
  0
ELLIPSE
  5
26E
330
20D
100
AcDbEntity
  8
0
  6
Continuous
 62
     0
370
    30
100
AcDbEllipse
 10
790.625677
 20
184.44565
 30
0.0
 11
-0.2500000000000001
 21
0.4330127018922193
 31
0.0
210
0.0
220
0.0
230
-1.0
 40
0.57735
 41
2.353672711253233
 42
3.141592622099979
  0
LINE
  5
26F
330
20D
100
AcDbEntity
  8
0
  6
Continuous
 62
     0
370
     0
100
AcDbLine
 10
784.106152
 20
180.274382
 30
0.0
 11
790.979229
 21
184.242556
 31
0.0
  0
LINE
  5
270
330
20D
100
AcDbEntity
  8
0
  6
Continuous
 62
     0
370
    30
100
AcDbLine
 10
790.879372
 20
230.023872
 30
0.0
 11
790.979229
 21
184.242556
 31
0.0
  0
LINE
  5
271
330
20D
100
AcDbEntity
  8
0
  6
Continuous
 62
     0
370
     0
100
AcDbLine
 10
784.006294
 20
226.055698
 30
0.0
 11
790.879372
 21
230.023872
 31
0.0
  0
LINE
  5
272
330
20D
100
AcDbEntity
  8
0
  6
Continuous
 62
     0
370
     0
100
AcDbLine
 10
750.927075
 20
253.382254
 30
0.0
 11
744.053997
 21
249.41408
 31
0.0
  0
ELLIPSE
  5
273
330
20D
100
AcDbEntity
  8
0
  6
Continuous
 62
     0
370
    30
100
AcDbEllipse
 10
750.927966
 20
252.973492
 30
0.0
 11
-0.2500000000000001
 21
0.4330127018922193
 31
0.0
210
0.0
220
0.0
230
-1.0
 40
0.57735
 41
-0.0000000314898596
 42
0.7828763844583937
  0
LINE
  5
274
330
20D
100
AcDbEntity
  8
0
  6
Continuous
 62
     0
370
     0
100
AcDbLine
 10
790.524928
 20
230.635727
 30
0.0
 11
783.65185
 21
226.667554
 31
0.0
  0
LINE
  5
275
330
20D
100
AcDbEntity
  8
0
  6
Continuous
 62
     0
370
    30
100
AcDbLine
 10
750.927075
 20
253.382254
 30
0.0
 11
790.524928
 21
230.635727
 31
0.0
  0
ELLIPSE
  5
276
330
20D
100
AcDbEntity
  8
0
  6
Continuous
 62
     0
370
    30
100
AcDbEllipse
 10
790.52582
 20
230.226966
 30
0.0
 11
-0.2500000000000001
 21
0.4330127018922194
 31
0.0
210
0.0
220
0.0
230
-1.0
 40
0.57735
 41
0.7828763844584649
 42
2.353672711253255
  0
ELLIPSE
  5
277
330
20D
100
AcDbEntity
  8
0
  6
Continuous
 62
     0
370
    30
100
AcDbEllipse
 10
763.55019
 20
214.537273
 30
0.0
 11
-12.00000000000001
 21
20.78460969082653
 31
0.0
210
0.0
220
0.0
230
-1.0
 40
0.57735
 41
2.353672711253297
 42
3.141592622099981
  0
ELLIPSE
  5
278
330
20D
100
AcDbEntity
  8
0
  6
Continuous
 62
     0
370
    30
100
AcDbEllipse
 10
763.55019
 20
214.537273
 30
0.0
 11
-12.00000000000001
 21
20.78460969082653
 31
0.0
210
0.0
220
0.0
230
-1.0
 40
0.57735
 41
-0.0000000314898561
 42
2.353672711253296
  0
LINE
  5
279
330
20D
100
AcDbEntity
  8
0
  6
Continuous
 62
     0
370
    30
100
AcDbLine
 10
768.93039
 20
194.54659
 30
0.0
 11
771.928795
 21
193.63966
 31
0.0
  0
ARC
  5
27A
330
20D
100
AcDbEntity
  8
0
  6
Continuous
 62
     0
370
     0
100
AcDbCircle
 10
766.99331
 20
183.847858
 30
0.0
 40
10.96532649660868
100
AcDbArc
 50
63.249951
 51
116.916994
  0
LINE
  5
27B
330
20D
100
AcDbEntity
  8
0
  6
Continuous
 62
     0
370
     0
100
AcDbLine
 10
761.925764
 20
193.395319
 30
0.0
 11
762.029316
 21
193.625238
 31
0.0
  0
LINE
  5
27C
330
20D
100
AcDbEntity
  8
0
  6
Continuous
 62
     0
370
     0
100
AcDbLine
 10
769.211726
 20
227.860416
 30
0.0
 11
757.532703
 21
234.569295
 31
0.0
  0
ELLIPSE
  5
27D
330
20D
100
AcDbEntity
  8
0
  6
Continuous
 62
     0
370
     0
100
AcDbEllipse
 10
757.179149
 20
234.365171
 30
0.0
 11
-0.2490525415674241
 21
-0.4335583369499502
 31
0.0
210
0.0
220
0.0
230
-1.0
 40
0.578804
 41
3.928254890153762
 42
5.499051216948613
  0
LINE
  5
27E
330
20D
100
AcDbEntity
  8
0
  6
Continuous
 62
     0
370
     0
100
AcDbLine
 10
757.180041
 20
233.956409
 30
0.0
 11
768.859064
 21
227.24753
 31
0.0
  0
ELLIPSE
  5
27F
330
20D
100
AcDbEntity
  8
0
  6
Continuous
 62
     0
370
     0
100
AcDbEllipse
 10
768.858172
 20
227.656292
 30
0.0
 11
0.2490525415674241
 21
0.4335583369499502
 31
0.0
210
0.0
220
0.0
230
1.0
 40
0.578804
 41
3.925726743820746
 42
5.496523070615568
  0
ARC
  5
280
330
20D
100
AcDbEntity
  8
0
  6
Continuous
 62
     0
370
     0
100
AcDbCircle
 10
764.89599
 20
216.880538
 30
0.0
 40
11.09867008883847
100
AcDbArc
 50
51.141734
 51
69.079242
  0
ARC
  5
281
330
20D
100
AcDbEntity
  8
0
  6
Continuous
 62
     0
370
     0
100
AcDbCircle
 10
754.500839
 20
228.483147
 30
0.0
 40
6.799514411755337
100
AcDbArc
 50
63.519436
 51
86.729567
  0
ARC
  5
282
330
20D
100
AcDbEntity
  8
0
  6
Continuous
 62
     0
370
     0
100
AcDbCircle
 10
752.872341
 20
229.105088
 30
0.0
 40
6.487803466183673
100
AcDbArc
 50
48.396726
 51
71.892619
  0
ARC
  5
283
330
20D
100
AcDbEntity
  8
0
  6
Continuous
 62
     0
370
     0
100
AcDbCircle
 10
753.982003
 20
232.460398
 30
0.0
 40
2.953805087838172
100
AcDbArc
 50
295.102562
 51
72.123057
  0
LINE
  5
284
330
20D
100
AcDbEntity
  8
0
  6
Continuous
 62
     0
370
     0
100
AcDbLine
 10
755.241388
 20
229.776201
 30
0.0
 11
754.992279
 21
229.800452
 31
0.0
  0
ARC
  5
285
330
20D
100
AcDbEntity
  8
0
  6
Continuous
 62
     0
370
     0
100
AcDbCircle
 10
754.104934
 20
232.842902
 30
0.0
 40
3.270501093238302
100
AcDbArc
 50
290.333626
 51
19.905504
  0
LINE
  5
286
330
20D
100
AcDbEntity
  8
0
  6
Continuous
 62
     0
370
     0
100
AcDbLine
 10
740.745699
 20
221.407111
 30
0.0
 11
755.241388
 21
229.776201
 31
0.0
  0
LINE
  5
287
330
20D
100
AcDbEntity
  8
0
  6
Continuous
 62
     0
370
     0
100
AcDbLine
 10
747.10964
 20
217.75142
 30
0.0
 11
740.745699
 21
221.407111
 31
0.0
  0
LINE
  5
288
330
20D
100
AcDbEntity
  8
0
  6
Continuous
 62
     0
370
     0
100
AcDbLine
 10
761.605329
 20
226.12051
 30
0.0
 11
747.10964
 21
217.75142
 31
0.0
  0
ARC
  5
289
330
20D
100
AcDbEntity
  8
0
  6
Continuous
 62
     0
370
     0
100
AcDbCircle
 10
766.925943
 20
215.782718
 30
0.0
 40
11.62664532528037
100
AcDbArc
 50
80.429187
 51
117.233796
  0
ARC
  5
28A
330
20D
100
AcDbEntity
  8
0
  6
Continuous
 62
     0
370
     0
100
AcDbCircle
 10
747.322517
 20
185.212951
 30
0.0
 40
0.2154842526033027
100
AcDbArc
 50
228.936533
 51
11.563984
  0
ARC
  5
28B
330
20D
100
AcDbEntity
  8
0
  6
Continuous
 62
     0
370
     0
100
AcDbCircle
 10
747.179056
 20
185.954532
 30
0.0
 40
0.7832376069060345
100
AcDbArc
 50
243.249951
 51
296.916994
  0
ARC
  5
28C
330
20D
100
AcDbEntity
  8
0
  6
Continuous
 62
     0
370
     0
100
AcDbCircle
 10
747.03862
 20
185.213207
 30
0.0
 40
0.2162002053534045
100
AcDbArc
 50
168.822503
 51
311.177812
  0
ARC
  5
28D
330
20D
100
AcDbEntity
  8
0
  6
Continuous
 62
     0
370
     0
100
AcDbCircle
 10
746.683821
 20
217.096154
 30
0.0
 40
0.7814694835396636
100
AcDbArc
 50
3.184347
 51
56.982493
  0
ARC
  5
28E
330
20D
100
AcDbEntity
  8
0
  6
Continuous
 62
     0
370
     0
100
AcDbCircle
 10
747.535665
 20
217.098374
 30
0.0
 40
0.7797225902980359
100
AcDbArc
 50
123.119108
 51
177.047626
  0
ARC
  5
28F
330
20D
100
AcDbEntity
  8
0
  6
Continuous
 62
     0
370
     0
100
AcDbCircle
 10
747.109512
 20
217.837948
 30
0.0
 40
0.7832376068991438
100
AcDbArc
 50
243.249951
 51
296.916994
  0
LINE
  5
290
330
20D
100
AcDbEntity
  8
0
  6
Continuous
 62
     0
370
     0
100
AcDbLine
 10
740.46258
 20
188.910809
 30
0.0
 11
740.567082
 21
188.681374
 31
0.0
  0
LINE
  5
291
330
20D
100
AcDbEntity
  8
0
  6
Continuous
 62
     0
370
     0
100
AcDbLine
 10
740.316135
 20
189.113854
 30
0.0
 11
740.46258
 21
188.910809
 31
0.0
  0
ARC
  5
292
330
20D
100
AcDbEntity
  8
0
  6
Continuous
 62
     0
370
     0
100
AcDbCircle
 10
740.604148
 20
221.24464
 30
0.0
 40
0.215484252603914
100
AcDbArc
 50
48.936533
 51
191.563984
  0
ARC
  5
293
330
20D
100
AcDbEntity
  8
0
  6
Continuous
 62
     0
370
     0
100
AcDbCircle
 10
740.461356
 20
220.997834
 30
0.0
 40
0.2147652256521449
100
AcDbArc
 50
108.548443
 51
251.45124
  0
ARC
  5
294
330
20D
100
AcDbEntity
  8
0
  6
Continuous
 62
     0
370
     0
100
AcDbCircle
 10
741.171725
 20
220.754065
 30
0.0
 40
0.7797225902959305
100
AcDbArc
 50
123.119108
 51
177.047626
  0
LINE
  5
295
330
20D
100
AcDbEntity
  8
0
  6
Continuous
 62
     0
370
     0
100
AcDbLine
 10
740.393037
 20
220.794226
 30
0.0
 11
740.46258
 21
188.910809
 31
0.0
  0
LINE
  5
296
330
20D
100
AcDbEntity
  8
0
  6
Continuous
 62
     0
370
     0
100
AcDbLine
 10
746.756978
 20
217.138534
 30
0.0
 11
740.393037
 21
220.794226
 31
0.0
  0
LINE
  5
297
330
20D
100
AcDbEntity
  8
0
  6
Continuous
 62
     0
370
     0
100
AcDbLine
 10
740.46258
 20
188.910809
 30
0.0
 11
746.826521
 21
185.255117
 31
0.0
  0
LINE
  5
298
330
20D
100
AcDbEntity
  8
0
  6
Continuous
 62
     0
370
     0
100
AcDbLine
 10
761.959772
 20
225.508654
 30
0.0
 11
747.464083
 21
217.139564
 31
0.0
  0
ELLIPSE
  5
299
330
20D
100
AcDbEntity
  8
0
  6
Continuous
 62
     0
370
     0
100
AcDbEllipse
 10
761.60622
 20
225.711748
 30
0.0
 11
-0.2500000000000001
 21
0.4330127018922193
 31
0.0
210
0.0
220
0.0
230
-1.0
 40
0.57735
 41
0.7828763844586637
 42
2.353672711253568
  0
LINE
  5
29A
330
20D
100
AcDbEntity
  8
0
  6
Continuous
 62
     0
370
     0
100
AcDbLine
 10
746.826521
 20
185.255117
 30
0.0
 11
746.756978
 21
217.138534
 31
0.0
  0
LINE
  5
29B
330
20D
100
AcDbEntity
  8
0
  6
Continuous
 62
     0
370
     0
100
AcDbLine
 10
747.464083
 20
217.139564
 30
0.0
 11
747.533627
 21
185.256148
 31
0.0
  0
LINE
  5
29C
330
20D
100
AcDbEntity
  8
0
  6
Continuous
 62
     0
370
     0
100
AcDbLine
 10
747.533627
 20
185.256148
 30
0.0
 11
762.029316
 21
193.625238
 31
0.0
  0
ARC
  5
29D
330
20D
100
AcDbEntity
  8
0
  6
Continuous
 62
     0
370
     0
100
AcDbCircle
 10
766.923767
 20
215.731275
 30
0.0
 40
10.96532649660928
100
AcDbArc
 50
63.249951
 51
116.916994
  0
LINE
  5
29E
330
20D
100
AcDbEntity
  8
0
  6
Continuous
 62
     0
370
     0
100
AcDbLine
 10
754.888743
 20
235.271587
 30
0.0
 11
754.900677
 21
229.800252
 31
0.0
  0
LINE
  5
29F
330
20D
100
AcDbEntity
  8
0
  6
Continuous
 62
     0
370
     0
100
AcDbLine
 10
761.959772
 20
225.508654
 30
0.0
 11
762.029316
 21
193.625238
 31
0.0
  0
LINE
  5
2A0
330
20D
100
AcDbEntity
  8
0
  6
Continuous
 62
     0
370
     0
100
AcDbLine
 10
771.928795
 20
193.63966
 30
0.0
 11
771.859252
 21
225.523076
 31
0.0
  0
LWPOLYLINE
  5
2A1
330
20D
100
AcDbEntity
  8
0
  6
Continuous
 62
     0
370
    30
100
AcDbPolyline
 90
       58
 70
     0
 43
0.0
 10
763.365967
 20
234.076187
 10
764.199402
 20
233.573807
 10
765.046936
 20
233.014252
 10
765.90564
 20
232.396713
 10
766.772339
 20
231.720825
 10
767.643494
 20
230.98674
 10
768.515259
 20
230.19516
 10
769.383606
 20
229.347321
 10
770.244324
 20
228.445099
 10
771.09314
 20
227.490967
 10
771.925537
 20
226.488007
 10
772.737122
 20
225.43985
 10
773.523621
 20
224.350693
 10
774.280762
 20
223.225235
 10
775.004639
 20
222.068573
 10
775.691528
 20
220.88623
 10
776.338013
 20
219.683899
 10
776.941284
 20
218.467529
 10
777.498718
 20
217.243134
 10
778.008362
 20
216.016663
 10
778.468689
 20
214.794006
 10
778.878601
 20
213.580841
 10
779.237732
 20
212.382553
 10
779.545959
 20
211.204163
 10
779.803711
 20
210.050339
 10
780.011963
 20
208.925217
 10
780.171814
 20
207.832535
 10
780.284973
 20
206.775436
 10
780.353333
 20
205.756638
 10
780.379028
 20
204.77829
 10
780.363708
 20
203.826019
 10
780.306152
 20
202.881714
 10
780.204102
 20
201.94989
 10
780.055603
 20
201.035385
 10
779.85907
 20
200.143188
 10
779.613159
 20
199.278458
 10
779.316833
 20
198.446365
 10
778.969666
 20
197.652069
 10
778.571533
 20
196.90065
 10
778.122925
 20
196.196915
 10
777.624634
 20
195.545471
 10
777.078125
 20
194.9505
 10
776.485413
 20
194.415741
 10
775.848816
 20
193.944412
 10
775.171204
 20
193.539185
 10
774.455872
 20
193.202042
 10
773.706482
 20
192.934311
 10
772.926941
 20
192.736679
 10
772.121338
 20
192.609116
 10
771.294128
 20
192.550919
 10
770.449585
 20
192.560791
 10
769.592163
 20
192.63678
 10
768.726196
 20
192.776459
 10
767.856018
 20
192.976913
 10
766.985596
 20
193.234818
 10
766.118835
 20
193.546539
 10
765.259277
 20
193.908173
 10
764.397949
 20
194.321899
  0
LWPOLYLINE
  5
2A2
330
20D
100
AcDbEntity
  8
0
  6
Continuous
 62
     0
370
    30
100
AcDbPolyline
 90
       30
 70
     0
 43
0.0
 10
746.446655
 20
224.866623
 10
746.492737
 20
225.791794
 10
746.580811
 20
226.706192
 10
746.712708
 20
227.605347
 10
746.890076
 20
228.484619
 10
747.114319
 20
229.339249
 10
747.386353
 20
230.164398
 10
747.706848
 20
230.955231
 10
748.07605
 20
231.706985
 10
748.493774
 20
232.415054
 10
748.95929
 20
233.075043
 10
749.471558
 20
233.682861
 10
750.028931
 20
234.234818
 10
750.629456
 20
234.727646
 10
751.27063
 20
235.1586
 10
751.949524
 20
235.525497
 10
752.663086
 20
235.826721
 10
753.407654
 20
236.061279
 10
754.179504
 20
236.228821
 10
754.974792
 20
236.329605
 10
755.789307
 20
236.364487
 10
756.619019
 20
236.334869
 10
757.459839
 20
236.242722
 10
758.307617
 20
236.090454
 10
759.158508
 20
235.88089
 10
760.008789
 20
235.617218
 10
760.854858
 20
235.302887
 10
761.69342
 20
234.941544
 10
762.521423
 20
234.537033
 10
763.365967
 20
234.076187
  0
ARC
  5
2A3
330
20D
100
AcDbEntity
  8
0
  6
Continuous
 62
     0
370
     0
100
AcDbCircle
 10
760.996052
 20
215.888405
 30
0.0
 40
14.51986030758766
100
AcDbArc
 50
41.598411
 51
55.540525
  0
ARC
  5
2A4
330
20D
100
AcDbEntity
  8
0
  6
Continuous
 62
     0
370
     0
100
AcDbCircle
 10
772.308422
 20
200.400043
 30
0.0
 40
6.770711284918
100
AcDbArc
 50
243.476263
 51
266.74343
  0
LINE
  5
2A5
330
20D
100
AcDbEntity
  8
0
  6
Continuous
 62
     0
370
    30
100
AcDbLine
 10
747.430075
 20
185.026229
 30
0.0
 11
761.925764
 21
193.395319
 31
0.0
  0
LINE
  5
2A6
330
20D
100
AcDbEntity
  8
0
  6
Continuous
 62
     0
370
    30
100
AcDbLine
 10
746.931022
 20
185.025683
 30
0.0
 11
740.567081
 21
188.681375
 31
0.0
  0
LINE
  5
2A7
330
20D
100
AcDbEntity
  8
0
  6
Continuous
 62
     0
370
    30
100
AcDbLine
 10
740.49659
 20
221.431362
 30
0.0
 11
754.992279
 21
229.800452
 31
0.0
  0
LINE
  5
2A8
330
20D
100
AcDbEntity
  8
0
  6
Continuous
 62
     0
370
    30
100
AcDbLine
 10
740.316135
 20
189.113843
 30
0.0
 11
740.246592
 21
220.997259
 31
0.0
  0
ARC
  5
2A9
330
20D
100
AcDbEntity
  8
0
  6
Continuous
 62
     0
370
    30
100
AcDbCircle
 10
753.695361
 20
232.796068
 30
0.0
 40
3.264308017427407
100
AcDbArc
 50
293.409659
 51
353.54557
  0
ARC
  5
2AA
330
20D
100
AcDbEntity
  8
0
  6
Continuous
 62
     0
370
    30
100
AcDbCircle
 10
767.049407
 20
183.216495
 30
0.0
 40
11.39562111960636
100
AcDbArc
 50
74.432142
 51
116.718993
  0
LINE
  5
2AB
330
20D
100
AcDbEntity
  8
0
  6
Continuous
 62
     0
370
    30
100
AcDbLine
 10
769.180452
 20
194.571188
 30
0.0
 11
770.10815
 21
194.193894
 31
0.0
  0
LINE
  5
2AC
330
20D
100
AcDbEntity
  8
0
  6
Continuous
 62
     0
370
    30
100
AcDbLine
 10
743.804888
 20
249.438331
 30
0.0
 11
750.677966
 21
253.406505
 31
0.0
  0
LINE
  5
2AD
330
20D
100
AcDbEntity
  8
0
  6
Continuous
 62
     0
370
    30
100
AcDbLine
 10
784.002599
 20
180.044464
 30
0.0
 11
790.875677
 21
184.012637
 31
0.0
  0
LINE
  5
2AE
330
20D
100
AcDbEntity
  8
0
  6
Continuous
 62
     0
370
    30
100
AcDbLine
 10
783.503547
 20
180.043918
 30
0.0
 11
761.095495
 21
192.915963
 31
0.0
  0
LINE
  5
2AF
330
20D
100
AcDbEntity
  8
0
  6
Continuous
 62
     0
370
    30
100
AcDbLine
 10
743.611109
 20
223.229529
 30
0.0
 11
743.554889
 21
249.004228
 31
0.0
  0
ELLIPSE
  5
2B0
330
20D
100
AcDbEntity
  8
0
  6
Continuous
 62
     0
370
    30
100
AcDbEllipse
 10
734.095246
 20
211.182262
 30
0.0
 11
61.34985406292216
 21
0.1338150146803056
 31
0.0
210
0.0
220
0.0
230
-1.0
 40
0.575892
 41
2.895013613597469
 42
3.141592662150241
  0
LINE
  5
2B1
330
20D
100
AcDbEntity
  8
0
  6
Continuous
 62
     0
370
    30
100
AcDbLine
 10
677.593871
 20
195.664312
 30
0.0
 11
671.584417
 21
192.194752
 31
0.0
  0
LINE
  5
2B2
330
20D
100
AcDbEntity
  8
0
  6
Continuous
 62
     0
370
    30
100
AcDbLine
 10
674.619844
 20
202.428644
 30
0.0
 11
677.593871
 21
195.664312
 31
0.0
  0
LINE
  5
2B3
330
20D
100
AcDbEntity
  8
0
  6
Continuous
 62
     0
370
    30
100
AcDbLine
 10
671.517905
 20
222.688379
 30
0.0
 11
671.584417
 21
192.194752
 31
0.0
  0
LINE
  5
2B4
330
20D
100
AcDbEntity
  8
0
  6
Continuous
 62
     0
370
     0
100
AcDbLine
 10
674.571809
 20
224.45155
 30
0.0
 11
674.619844
 21
202.428644
 31
0.0
  0
LINE
  5
2B5
330
20D
100
AcDbEntity
  8
0
  6
Continuous
 62
     0
370
    30
100
AcDbLine
 10
677.527359
 20
226.157938
 30
0.0
 11
677.593871
 21
195.664312
 31
0.0
  0
LINE
  5
2B6
330
20D
100
AcDbEntity
  8
0
  6
Continuous
 62
     0
370
    30
100
AcDbLine
 10
677.527359
 20
226.157938
 30
0.0
 11
671.517905
 21
222.688379
 31
0.0
  0
ELLIPSE
  5
2B7
330
20D
100
AcDbEntity
  8
0
  6
Continuous
 62
     0
370
     0
100
AcDbEllipse
 10
691.316938
 20
235.061739
 30
0.0
 11
-0.2500000000000001
 21
0.4330127018922194
 31
0.0
210
0.0
220
0.0
230
-1.0
 40
0.57735
 41
2.35367271125329
 42
3.924469038048194
  0
ELLIPSE
  5
2B8
330
20D
100
AcDbEntity
  8
0
  6
Continuous
 62
     0
370
    30
100
AcDbEllipse
 10
766.55335
 20
278.499502
 30
0.0
 11
-0.2500000000000001
 21
0.4330127018922194
 31
0.0
210
0.0
220
0.0
230
-1.0
 40
0.57735
 41
2.353672711253294
 42
3.141592622099956
  0
LINE
  5
2B9
330
20D
100
AcDbEntity
  8
0
  6
Continuous
 62
     0
370
     0
100
AcDbLine
 10
691.67049
 20
234.858645
 30
0.0
 11
766.906902
 21
278.296408
 31
0.0
  0
LINE
  5
2BA
330
20D
100
AcDbEntity
  8
0
  6
Continuous
 62
     0
370
    30
100
AcDbLine
 10
670.405052
 20
222.741643
 30
0.0
 11
670.815767
 21
223.388046
 31
0.0
  0
LINE
  5
2BB
330
20D
100
AcDbEntity
  8
0
  6
Continuous
 62
     0
370
    30
100
AcDbLine
 10
670.474596
 20
190.858226
 30
0.0
 11
670.405052
 21
222.741643
 31
0.0
  0
ARC
  5
2BC
330
20D
100
AcDbEntity
  8
0
  6
Continuous
 62
     0
370
    30
100
AcDbCircle
 10
670.711133
 20
190.845677
 30
0.0
 40
0.2368696059474774
100
AcDbArc
 50
176.963023
 51
317.97565
  0
LINE
  5
2BD
330
20D
100
AcDbEntity
  8
0
  6
Continuous
 62
     0
370
    30
100
AcDbLine
 10
670.887094
 20
190.687106
 30
0.0
 11
678.296009
 21
194.964645
 31
0.0
  0
LINE
  5
2BE
330
20D
100
AcDbEntity
  8
0
  6
Continuous
 62
     0
370
    30
100
AcDbLine
 10
678.706724
 20
195.611048
 30
0.0
 11
678.296009
 21
194.964645
 31
0.0
  0
LINE
  5
2BF
330
20D
100
AcDbEntity
  8
0
  6
Continuous
 62
     0
370
    30
100
AcDbLine
 10
678.706724
 20
195.611048
 30
0.0
 11
678.63718
 21
227.494464
 31
0.0
  0
ARC
  5
2C0
330
20D
100
AcDbEntity
  8
0
  6
Continuous
 62
     0
370
    30
100
AcDbCircle
 10
678.400643
 20
227.507013
 30
0.0
 40
0.2368695787432439
100
AcDbArc
 50
356.963058
 51
137.975634
  0
LINE
  5
2C1
330
20D
100
AcDbEntity
  8
0
  6
Continuous
 62
     0
370
    30
100
AcDbLine
 10
670.815767
 20
223.388046
 30
0.0
 11
678.224682
 21
227.665585
 31
0.0
  0
ELLIPSE
  5
2C2
330
20D
100
AcDbEntity
  8
0
  6
Continuous
 62
     0
370
     0
100
AcDbEllipse
 10
666.72039
 20
200.57088
 30
0.0
 11
0.4577143692564997
 21
0.2012400461541434
 31
0.0
210
0.0
220
0.0
230
1.0
 40
0.792798
 41
2.808037212080606
 42
3.13146141917414
  0
LINE
  5
2C3
330
20D
100
AcDbEntity
  8
0
  6
Continuous
 62
     0
370
     0
100
AcDbLine
 10
666.235668
 20
200.499539
 30
0.0
 11
670.474596
 21
190.858226
 31
0.0
  0
LINE
  5
2C4
330
20D
100
AcDbEntity
  8
0
  6
Continuous
 62
     0
370
     0
100
AcDbLine
 10
691.600946
 20
266.742061
 30
0.0
 11
766.837359
 21
310.179824
 31
0.0
  0
ELLIPSE
  5
2C5
330
20D
100
AcDbEntity
  8
0
  6
Continuous
 62
     0
370
    30
100
AcDbEllipse
 10
766.483806
 20
310.382918
 30
0.0
 11
0.2499999999999991
 21
-0.4330127018922177
 31
0.0
210
0.0
220
0.0
230
1.0
 40
0.57735
 41
0.7879199423364955
 42
2.35871626913246
  0
LINE
  5
2C6
330
20D
100
AcDbEntity
  8
0
  6
Continuous
 62
     0
370
     0
100
AcDbLine
 10
691.246502
 20
267.353917
 30
0.0
 11
766.482915
 21
310.79168
 31
0.0
  0
ELLIPSE
  5
2C7
330
20D
100
AcDbEntity
  8
0
  6
Continuous
 62
     0
370
     0
100
AcDbEllipse
 10
691.247394
 20
266.945155
 30
0.0
 11
0.2499999999999991
 21
-0.4330127018922177
 31
0.0
210
0.0
220
0.0
230
1.0
 40
0.57735
 41
0.7879199423364955
 42
2.358716269131385
  0
ELLIPSE
  5
2C8
330
20D
100
AcDbEntity
  8
0
  6
Continuous
 62
     0
370
     0
100
AcDbEllipse
 10
675.375844
 20
233.738446
 30
0.0
 11
0.4577143692564989
 21
0.2012400461541451
 31
0.0
210
0.0
220
0.0
230
1.0
 40
0.792798
 41
5.94962986567042
 42
7.520426192465363
  0
LINE
  5
2C9
330
20D
100
AcDbEntity
  8
0
  6
Continuous
 62
     0
370
     0
100
AcDbLine
 10
678.224682
 20
227.665585
 30
0.0
 11
675.374953
 21
234.147208
 31
0.0
  0
LINE
  5
2CA
330
20D
100
AcDbEntity
  8
0
  6
Continuous
 62
     0
370
     0
100
AcDbLine
 10
666.166124
 20
232.382955
 30
0.0
 11
670.405052
 21
222.741643
 31
0.0
  0
LINE
  5
2CB
330
20D
100
AcDbEntity
  8
0
  6
Continuous
 62
     0
370
     0
100
AcDbLine
 10
666.649955
 20
232.863059
 30
0.0
 11
670.815767
 21
223.388046
 31
0.0
  0
ELLIPSE
  5
2CC
330
20D
100
AcDbEntity
  8
0
  6
Continuous
 62
     0
370
     0
100
AcDbEllipse
 10
666.650847
 20
232.454297
 30
0.0
 11
-0.4577143692564997
 21
-0.2012400461541434
 31
0.0
210
0.0
220
0.0
230
-1.0
 40
0.792798
 41
0.3335554415091776
 42
1.904351768304094
  0
ELLIPSE
  5
2CD
330
20D
100
AcDbEntity
  8
0
  6
Continuous
 62
     0
370
     0
100
AcDbEllipse
 10
684.883453
 20
270.600847
 30
0.0
 11
-0.2500000000000001
 21
0.4330127018922194
 31
0.0
210
0.0
220
0.0
230
-1.0
 40
0.57735
 41
5.495265364843084
 42
7.066061691637994
  0
LINE
  5
2CE
330
20D
100
AcDbEntity
  8
0
  6
Continuous
 62
     0
370
     0
100
AcDbLine
 10
760.118974
 20
314.447372
 30
0.0
 11
684.882562
 21
271.009609
 31
0.0
  0
ELLIPSE
  5
2CF
330
20D
100
AcDbEntity
  8
0
  6
Continuous
 62
     0
370
    30
100
AcDbEllipse
 10
760.119866
 20
314.03861
 30
0.0
 11
-0.2500000000000011
 21
0.4330127018922211
 31
0.0
210
0.0
220
0.0
230
-1.0
 40
0.57735
 41
-0.0000000314897921
 42
0.7828763844584026
  0
LINE
  5
2D0
330
20D
100
AcDbEntity
  8
0
  6
Continuous
 62
     0
370
    30
100
AcDbLine
 10
766.906902
 20
278.296408
 30
0.0
 11
766.837359
 21
310.179824
 31
0.0
  0
LINE
  5
2D1
330
20D
100
AcDbEntity
  8
0
  6
Continuous
 62
     0
370
     0
100
AcDbLine
 10
691.67049
 20
234.858645
 30
0.0
 11
691.600946
 21
266.742061
 31
0.0
  0
ELLIPSE
  5
2D2
330
20D
100
AcDbEntity
  8
0
  6
Continuous
 62
     0
370
     0
100
AcDbEllipse
 10
734.096762
 20
210.487367
 30
0.0
 11
59.9998572742515
 21
0.1308704300051888
 31
0.0
210
0.0
220
0.0
230
-1.0
 40
0.575892
 41
3.534745220996194
 42
3.92824853077811
  0
ELLIPSE
  5
2D3
330
20D
100
AcDbEntity
  8
0
  6
Continuous
 62
     0
370
     0
100
AcDbEllipse
 10
734.027218
 20
242.370783
 30
0.0
 11
59.9998572742515
 21
0.1308704300051888
 31
0.0
210
0.0
220
0.0
230
-1.0
 40
0.575892
 41
3.141590456668804
 42
3.92824853077811
  0
LINE
  5
2D4
330
20D
100
AcDbEntity
  8
0
  6
Continuous
 62
     0
370
     0
100
AcDbLine
 10
666.235668
 20
200.499539
 30
0.0
 11
666.166124
 21
232.382955
 31
0.0
  0
ELLIPSE
  5
2D5
330
20D
100
AcDbEntity
  8
0
  6
Continuous
 62
     0
370
     0
100
AcDbEllipse
 10
734.096762
 20
210.487367
 30
0.0
 11
-69.99983348662676
 21
-0.152682168339387
 31
0.0
210
0.0
220
0.0
230
1.0
 40
0.575892
 41
-0.0000000085604492
 42
0.2465790399923238
  0
ELLIPSE
  5
2D6
330
20D
100
AcDbEntity
  8
0
  6
Continuous
 62
     0
370
     0
100
AcDbEllipse
 10
734.027218
 20
242.370783
 30
0.0
 11
-69.99983348662676
 21
-0.152682168339387
 31
0.0
210
0.0
220
0.0
230
1.0
 40
0.575892
 41
5.496529429991269
 42
6.529764347171911
  0
ELLIPSE
  5
2D7
330
20D
100
AcDbEntity
  8
0
  6
Continuous
 62
     0
370
     0
100
AcDbEllipse
 10
734.026327
 20
242.779545
 30
0.0
 11
-69.49983467600799
 21
-0.1515915814226771
 31
0.0
210
0.0
220
0.0
230
1.0
 40
0.575892
 41
5.496529429991269
 42
6.529764347171911
  0
ELLIPSE
  5
2D8
330
20D
100
AcDbEntity
  8
0
  6
Continuous
 62
     0
370
     0
100
AcDbEllipse
 10
734.026327
 20
242.779545
 30
0.0
 11
60.49985608487026
 21
0.1319610169218987
 31
0.0
210
0.0
220
0.0
230
-1.0
 40
0.575892
 41
2.895013613597468
 42
3.92824853077811
  0
LINE
  5
2D9
330
20D
100
AcDbEntity
  8
0
  6
Continuous
 62
     0
370
    30
100
AcDbLine
 10
766.482915
 20
310.79168
 30
0.0
 11
760.118974
 21
314.447372
 31
0.0
  0
LINE
  5
2DA
330
20D
100
AcDbEntity
  8
0
  6
Continuous
 62
     0
370
    30
100
AcDbLine
 10
790.346612
 20
312.388077
 30
0.0
 11
750.748758
 21
335.134603
 31
0.0
  0
ELLIPSE
  5
2DB
330
20D
100
AcDbEntity
  8
0
  6
Continuous
 62
     0
370
    30
100
AcDbEllipse
 10
790.347503
 20
311.979315
 30
0.0
 11
0.2500000000000001
 21
-0.4330127018922194
 31
0.0
210
0.0
220
0.0
230
1.0
 40
0.57735
 41
0.7879199423364636
 42
2.358716269131392
  0
LINE
  5
2DC
330
20D
100
AcDbEntity
  8
0
  6
Continuous
 62
     0
370
    30
100
AcDbLine
 10
790.800913
 20
265.994905
 30
0.0
 11
790.701056
 21
311.776221
 31
0.0
  0
ELLIPSE
  5
2DD
330
20D
100
AcDbEntity
  8
0
  6
Continuous
 62
     0
370
    30
100
AcDbEllipse
 10
790.447361
 20
266.197999
 30
0.0
 11
0.2500000000000001
 21
-0.4330127018922194
 31
0.0
210
0.0
220
0.0
230
1.0
 40
0.57735
 41
0.0000000314898472
 42
0.7879199423364938
  0
ELLIPSE
  5
2DE
330
20D
100
AcDbEntity
  8
0
  6
Continuous
 62
     0
370
    30
100
AcDbEllipse
 10
750.74965
 20
334.725841
 30
0.0
 11
0.2500000000000001
 21
-0.4330127018922194
 31
0.0
210
0.0
220
0.0
230
1.0
 40
0.57735
 41
2.358716269131374
 42
3.14159268507963
  0
ELLIPSE
  5
2DF
330
20D
100
AcDbEntity
  8
0
  6
Continuous
 62
     0
370
     0
100
AcDbEllipse
 10
783.574283
 20
262.229826
 30
0.0
 11
0.2500000000000001
 21
-0.4330127018922194
 31
0.0
210
0.0
220
0.0
230
1.0
 40
0.57735
 41
5.500308922721179
 42
7.071105249516082
  0
ELLIPSE
  5
2E0
330
20D
100
AcDbEntity
  8
0
  6
Continuous
 62
     0
370
     0
100
AcDbEllipse
 10
783.574283
 20
262.229826
 30
0.0
 11
0.4999988106187635
 21
0.001090586916709965
 31
0.0
210
0.0
220
0.0
230
-1.0
 40
0.575892
 41
0.7866558771883158
 42
2.357452203983228
  0
ELLIPSE
  5
2E1
330
20D
100
AcDbEntity
  8
0
  6
Continuous
 62
     0
370
     0
100
AcDbEllipse
 10
783.574283
 20
262.229826
 30
0.0
 11
0.2490525415673239
 21
0.4335583369500089
 31
0.0
210
0.0
220
0.0
230
1.0
 40
0.578804
 41
2.354930417025718
 42
3.925726743820614
  0
ELLIPSE
  5
2E2
330
20D
100
AcDbEntity
  8
0
  6
Continuous
 62
     0
370
     0
100
AcDbEllipse
 10
783.474426
 20
308.011142
 30
0.0
 11
-0.4999988106187626
 21
-0.001090586916710323
 31
0.0
210
0.0
220
0.0
230
1.0
 40
0.575892
 41
0.7841404496065643
 42
2.354936776401474
  0
LINE
  5
2E3
330
20D
100
AcDbEntity
  8
0
  6
Continuous
 62
     0
370
     0
100
AcDbLine
 10
783.220729
 20
262.025702
 30
0.0
 11
783.120872
 21
307.807018
 31
0.0
  0
LINE
  5
2E4
330
20D
100
AcDbEntity
  8
0
  6
Continuous
 62
     0
370
     0
100
AcDbLine
 10
783.827978
 20
307.808048
 30
0.0
 11
783.927835
 21
262.026732
 31
0.0
  0
ELLIPSE
  5
2E5
330
20D
100
AcDbEntity
  8
0
  6
Continuous
 62
     0
370
     0
100
AcDbEllipse
 10
783.474426
 20
308.011142
 30
0.0
 11
0.2490525415673239
 21
0.4335583369500089
 31
0.0
210
0.0
220
0.0
230
1.0
 40
0.578804
 41
0.7841340902308289
 42
2.354930417025718
  0
ELLIPSE
  5
2E6
330
20D
100
AcDbEntity
  8
0
  6
Continuous
 62
     0
370
     0
100
AcDbEllipse
 10
783.474426
 20
308.011142
 30
0.0
 11
0.2500000000000001
 21
-0.4330127018922194
 31
0.0
210
0.0
220
0.0
230
1.0
 40
0.57735
 41
0.7879199423364742
 42
2.358716269131399
  0
ELLIPSE
  5
2E7
330
20D
100
AcDbEntity
  8
0
  6
Continuous
 62
     0
370
     0
100
AcDbEllipse
 10
743.876572
 20
330.757668
 30
0.0
 11
-0.249052541567323
 21
-0.4335583369500082
 31
0.0
210
0.0
220
0.0
230
-1.0
 40
0.578804
 41
0.7866622365640755
 42
2.357458563358973
  0
LINE
  5
2E8
330
20D
100
AcDbEntity
  8
0
  6
Continuous
 62
     0
370
     0
100
AcDbLine
 10
783.120872
 20
307.807018
 30
0.0
 11
743.523018
 21
330.553544
 31
0.0
  0
LINE
  5
2E9
330
20D
100
AcDbEntity
  8
0
  6
Continuous
 62
     0
370
     0
100
AcDbLine
 10
743.87568
 20
331.16643
 30
0.0
 11
783.473534
 21
308.419903
 31
0.0
  0
ELLIPSE
  5
2EA
330
20D
100
AcDbEntity
  8
0
  6
Continuous
 62
     0
370
     0
100
AcDbEllipse
 10
743.876572
 20
330.757668
 30
0.0
 11
-0.4999988106187635
 21
-0.001090586916709965
 31
0.0
210
0.0
220
0.0
230
1.0
 40
0.575892
 41
5.49652942999127
 42
7.067325756786173
  0
ELLIPSE
  5
2EB
330
20D
100
AcDbEntity
  8
0
  6
Continuous
 62
     0
370
     0
100
AcDbEllipse
 10
743.876572
 20
330.757668
 30
0.0
 11
0.2500000000000001
 21
-0.4330127018922194
 31
0.0
210
0.0
220
0.0
230
1.0
 40
0.57735
 41
2.358716269131404
 42
3.929512595926292
  0
LINE
  5
2EC
330
20D
100
AcDbEntity
  8
0
  6
Continuous
 62
     0
370
     0
100
AcDbLine
 10
743.523018
 20
330.553544
 30
0.0
 11
743.578611
 21
305.065862
 31
0.0
  0
ELLIPSE
  5
2ED
330
20D
100
AcDbEntity
  8
0
  6
Continuous
 62
     0
370
    30
100
AcDbEllipse
 10
763.371874
 20
296.289623
 30
0.0
 11
12.2
 21
-21.1310198523403
 31
0.0
210
0.0
220
0.0
230
1.0
 40
0.57735
 41
0.7879199423364973
 42
3.912766064297774
  0
ELLIPSE
  5
2EE
330
20D
100
AcDbEntity
  8
0
  6
Continuous
 62
     0
370
    30
100
AcDbEllipse
 10
763.371874
 20
296.289623
 30
0.0
 11
12.2
 21
-21.1310198523403
 31
0.0
210
0.0
220
0.0
230
1.0
 40
0.57735
 41
5.512032930127116
 42
7.071105249516084
  0
LINE
  5
2EF
330
20D
100
AcDbEntity
  8
0
  6
Continuous
 62
     0
370
     0
100
AcDbLine
 10
790.800913
 20
265.994905
 30
0.0
 11
783.927835
 21
262.026732
 31
0.0
  0
LINE
  5
2F0
330
20D
100
AcDbEntity
  8
0
  6
Continuous
 62
     0
370
     0
100
AcDbLine
 10
761.064437
 20
274.753126
 30
0.0
 11
783.220729
 21
262.025702
 31
0.0
  0
LINE
  5
2F1
330
20D
100
AcDbEntity
  8
0
  6
Continuous
 62
     0
370
     0
100
AcDbLine
 10
783.827978
 20
307.808048
 30
0.0
 11
790.701056
 21
311.776221
 31
0.0
  0
LINE
  5
2F2
330
20D
100
AcDbEntity
  8
0
  6
Continuous
 62
     0
370
     0
100
AcDbLine
 10
790.346612
 20
312.388077
 30
0.0
 11
783.473534
 21
308.419903
 31
0.0
  0
LINE
  5
2F3
330
20D
100
AcDbEntity
  8
0
  6
Continuous
 62
     0
370
     0
100
AcDbLine
 10
743.87568
 20
331.16643
 30
0.0
 11
750.748758
 21
335.134603
 31
0.0
  0
ELLIPSE
  5
2F4
330
20D
100
AcDbEntity
  8
0
  6
Continuous
 62
     0
370
    30
100
AcDbEllipse
 10
763.371874
 20
296.289623
 30
0.0
 11
12.125
 21
-21.00111604177264
 31
0.0
210
0.0
220
0.0
230
1.0
 40
0.57735
 41
2.358716269131393
 42
3.906380952518503
  0
ELLIPSE
  5
2F5
330
20D
100
AcDbEntity
  8
0
  6
Continuous
 62
     0
370
    30
100
AcDbEllipse
 10
763.371874
 20
296.289623
 30
0.0
 11
12.125
 21
-21.00111604177264
 31
0.0
210
0.0
220
0.0
230
1.0
 40
0.57735
 41
5.518418311596276
 42
8.64190157631098
  0
LINE
  5
2F6
330
20D
100
AcDbEntity
  8
0
  6
Continuous
 62
     0
370
    30
100
AcDbLine
 10
783.32523
 20
261.796268
 30
0.0
 11
760.917357
 21
274.668209
 31
0.0
  0
LINE
  5
2F7
330
20D
100
AcDbEntity
  8
0
  6
Continuous
 62
     0
370
    30
100
AcDbLine
 10
743.626572
 20
331.190681
 30
0.0
 11
750.49965
 21
335.158854
 31
0.0
  0
LINE
  5
2F8
330
20D
100
AcDbEntity
  8
0
  6
Continuous
 62
     0
370
    30
100
AcDbLine
 10
783.824283
 20
261.796813
 30
0.0
 11
790.697361
 21
265.764987
 31
0.0
  0
LINE
  5
2F9
330
20D
100
AcDbEntity
  8
0
  6
Continuous
 62
     0
370
    30
100
AcDbLine
 10
743.432793
 20
304.981673
 30
0.0
 11
743.376573
 21
330.756577
 31
0.0
  0
LWPOLYLINE
  5
2FA
330
20D
100
AcDbEntity
  8
0
  6
Continuous
 62
     0
370
    30
100
AcDbPolyline
 90
       12
 70
     0
 43
0.0
 10
691.566956
 20
234.628723
 10
690.097412
 20
233.749771
 10
688.68219
 20
232.841278
 10
687.323364
 20
231.904709
 10
686.022949
 20
230.941528
 10
684.78302
 20
229.953232
 10
683.605591
 20
228.941208
 10
682.491943
 20
227.906723
 10
681.443115
 20
226.850998
 10
680.460327
 20
225.77536
 10
679.544617
 20
224.68129
 10
678.645874
 20
223.499496
  0
ARC
  5
2FB
330
20D
100
AcDbEntity
  8
0
  6
Continuous
 62
     0
370
    30
100
AcDbCircle
 10
695.142144
 20
242.487981
 30
0.0
 40
21.11624544790816
100
AcDbArc
 50
180.673317
 51
203.87881
  0
LWPOLYLINE
  5
2FC
330
20D
100
AcDbEntity
  8
0
  6
Continuous
 62
     0
370
    30
100
AcDbPolyline
 90
       39
 70
     0
 43
0.0
 10
684.633423
 20
271.033844
 10
683.619446
 20
270.436127
 10
682.626404
 20
269.825958
 10
681.654785
 20
269.203705
 10
680.705139
 20
268.569672
 10
679.777893
 20
267.924133
 10
678.873596
 20
267.267487
 10
677.992615
 20
266.599976
 10
677.135498
 20
265.921997
 10
676.302734
 20
265.233795
 10
675.494751
 20
264.535767
 10
674.712036
 20
263.828125
 10
673.954834
 20
263.111237
 10
673.223328
 20
262.385254
 10
672.517883
 20
261.650513
 10
671.838623
 20
260.907257
 10
671.185974
 20
260.155792
 10
670.560059
 20
259.396423
 10
669.961243
 20
258.629486
 10
669.389893
 20
257.855316
 10
668.846191
 20
257.074249
 10
668.330444
 20
256.286591
 10
667.842957
 20
255.49263
 10
667.384033
 20
254.692749
 10
666.953918
 20
253.887238
 10
666.552734
 20
253.076462
 10
666.18042
 20
252.260742
 10
665.836914
 20
251.44046
 10
665.522278
 20
250.615952
 10
665.236633
 20
249.787552
 10
664.981628
 20
248.955627
 10
664.759399
 20
248.120483
 10
664.567688
 20
247.282623
 10
664.398865
 20
246.442688
 10
664.250122
 20
245.601166
 10
664.144043
 20
244.757782
 10
664.108704
 20
243.912094
 10
664.10675
 20
243.065674
 10
664.027405
 20
242.218033
  0
LINE
  5
2FD
330
20D
100
AcDbEntity
  8
0
  6
Continuous
 62
     0
370
    30
100
AcDbLine
 10
664.096928
 20
210.334685
 30
0.0
 11
664.027385
 21
242.218101
 31
0.0
  0
LINE
  5
2FE
330
20D
100
AcDbEntity
  8
0
  6
Continuous
 62
     0
370
    30
100
AcDbLine
 10
684.633453
 20
271.03386
 30
0.0
 11
759.869866
 21
314.471623
 31
0.0
  0
LINE
  5
2FF
330
20D
100
AcDbEntity
  8
0
  6
Continuous
 62
     0
370
    30
100
AcDbLine
 10
675.833559
 20
233.939686
 30
0.0
 11
678.614202
 21
227.615197
 31
0.0
  0
LINE
  5
300
330
20D
100
AcDbEntity
  8
0
  6
Continuous
 62
     0
370
    30
100
AcDbLine
 10
691.566938
 20
234.628726
 30
0.0
 11
766.80335
 21
278.066489
 31
0.0
  0
LINE
  5
301
330
20D
100
AcDbEntity
  8
0
  6
Continuous
 62
     0
370
    30
100
AcDbLine
 10
672.718491
 20
223.381536
 30
0.0
 11
672.745392
 21
211.048447
 31
0.0
  0
ENDBLK
  5
303
330
20D
100
AcDbEntity
  8
0
100
AcDbBlockEnd
  0
BLOCK
  5
37F
330
305
100
AcDbEntity
  8
0
100
AcDbBlockBegin
  2
e
 70
     0
 10
0.0
 20
54.955902
 30
0.0
  3
e
  1

  0
ARC
  5
306
330
305
100
AcDbEntity
  8
0
  6
Continuous
 62
     0
370
    30
100
AcDbCircle
 10
572.896555
 20
-194.544774
 30
0.0
 40
0.5
100
AcDbArc
 50
90.000091
 51
180.000091
  0
LINE
  5
307
330
305
100
AcDbEntity
  8
0
  6
Continuous
 62
     0
370
     0
100
AcDbLine
 10
572.896555
 20
-194.544774
 30
0.0
 11
572.396555
 21
-194.544774
 31
0.0
  0
LINE
  5
308
330
305
100
AcDbEntity
  8
0
  6
Continuous
 62
     0
370
    30
100
AcDbLine
 10
572.396555
 20
-194.544774
 30
0.0
 11
572.396555
 21
-250.544596
 31
0.0
  0
LINE
  5
309
330
305
100
AcDbEntity
  8
0
  6
Continuous
 62
     0
370
     0
100
AcDbLine
 10
572.396555
 20
-250.544596
 30
0.0
 11
572.896555
 21
-250.544596
 31
0.0
  0
LINE
  5
30A
330
305
100
AcDbEntity
  8
0
  6
Continuous
 62
     0
370
     0
100
AcDbLine
 10
572.896555
 20
-250.543335
 30
0.0
 11
572.896555
 21
-194.543513
 31
0.0
  0
ARC
  5
30B
330
305
100
AcDbEntity
  8
0
  6
Continuous
 62
     0
370
    30
100
AcDbCircle
 10
572.896555
 20
-250.544596
 30
0.0
 40
0.5
100
AcDbArc
 50
179.999909
 51
269.999909
  0
ARC
  5
30C
330
305
100
AcDbEntity
  8
0
  6
Continuous
 62
     0
370
    30
100
AcDbCircle
 10
572.896555
 20
-250.68581
 30
0.0
 40
0.5
100
AcDbArc
 50
179.999909
 51
269.999909
  0
LINE
  5
30D
330
305
100
AcDbEntity
  8
0
  6
Continuous
 62
     0
370
     0
100
AcDbLine
 10
572.896555
 20
-251.044594
 30
0.0
 11
572.896555
 21
-250.543335
 31
0.0
  0
LINE
  5
30E
330
305
100
AcDbEntity
  8
0
  6
Continuous
 62
     0
370
     0
100
AcDbLine
 10
572.896555
 20
-194.543513
 30
0.0
 11
572.896555
 21
-194.044775
 31
0.0
  0
LINE
  5
30F
330
305
100
AcDbEntity
  8
0
  6
Continuous
 62
     0
370
     0
100
AcDbLine
 10
572.896555
 20
-251.044594
 30
0.0
 11
582.616555
 21
-251.044594
 31
0.0
  0
LINE
  5
310
330
305
100
AcDbEntity
  8
0
  6
Continuous
 62
     0
370
    30
100
AcDbLine
 10
582.616555
 20
-251.044596
 30
0.0
 11
582.616555
 21
-250.543335
 31
0.0
  0
LINE
  5
311
330
305
100
AcDbEntity
  8
0
  6
Continuous
 62
     0
370
     0
100
AcDbLine
 10
582.616555
 20
-250.543335
 30
0.0
 11
572.896555
 21
-250.543335
 31
0.0
  0
LINE
  5
312
330
305
100
AcDbEntity
  8
0
  6
Continuous
 62
     0
370
     0
100
AcDbLine
 10
572.896555
 20
-251.185809
 30
0.0
 11
582.616555
 21
-251.185809
 31
0.0
  0
LINE
  5
313
330
305
100
AcDbEntity
  8
0
  6
Continuous
 62
     0
370
     0
100
AcDbLine
 10
572.896555
 20
-194.543513
 30
0.0
 11
582.616555
 21
-194.543513
 31
0.0
  0
LINE
  5
314
330
305
100
AcDbEntity
  8
0
  6
Continuous
 62
     0
370
    30
100
AcDbLine
 10
582.616555
 20
-194.543513
 30
0.0
 11
582.616555
 21
-194.044774
 31
0.0
  0
LINE
  5
315
330
305
100
AcDbEntity
  8
0
  6
Continuous
 62
     0
370
     0
100
AcDbLine
 10
582.616555
 20
-194.044775
 30
0.0
 11
572.896555
 21
-194.044775
 31
0.0
  0
LINE
  5
316
330
305
100
AcDbEntity
  8
0
  6
Continuous
 62
     0
370
    30
100
AcDbLine
 10
582.616555
 20
-250.543335
 30
0.0
 11
582.616555
 21
-194.543513
 31
0.0
  0
ARC
  5
317
330
305
100
AcDbEntity
  8
0
  6
Continuous
 62
     0
370
    30
100
AcDbCircle
 10
571.661614
 20
-242.060022
 30
0.0
 40
0.5355225659857998
100
AcDbArc
 50
273.741025
 51
357.329864
  0
ARC
  5
318
330
305
100
AcDbEntity
  8
0
  6
Continuous
 62
     0
370
    30
100
AcDbCircle
 10
571.696282
 20
-243.094677
 30
0.0
 40
0.5002738921883894
100
AcDbArc
 50
0.031542
 51
89.96864
  0
LINE
  5
319
330
305
100
AcDbEntity
  8
0
  6
Continuous
 62
     0
370
     0
100
AcDbLine
 10
571.696555
 20
-242.594403
 30
0.0
 11
565.196555
 21
-242.603881
 31
0.0
  0
LINE
  5
31A
330
305
100
AcDbEntity
  8
0
  6
Continuous
 62
     0
370
     0
100
AcDbLine
 10
565.196555
 20
-242.603881
 30
0.0
 11
544.696555
 21
-242.603881
 31
0.0
  0
LINE
  5
31B
330
305
100
AcDbEntity
  8
0
  6
Continuous
 62
     0
370
     0
100
AcDbLine
 10
572.196555
 20
-242.08497
 30
0.0
 11
565.196555
 21
-242.102621
 31
0.0
  0
LINE
  5
31C
330
305
100
AcDbEntity
  8
0
  6
Continuous
 62
     0
370
     0
100
AcDbLine
 10
565.196555
 20
-242.102621
 30
0.0
 11
565.196555
 21
-242.603881
 31
0.0
  0
ARC
  5
31D
330
305
100
AcDbEntity
  8
0
  6
Continuous
 62
     0
370
    30
100
AcDbCircle
 10
571.696555
 20
-202.094532
 30
0.0
 40
0.5
100
AcDbArc
 50
270.000091
 51
0.000091
  0
ARC
  5
31E
330
305
100
AcDbEntity
  8
0
  6
Continuous
 62
     0
370
    30
100
AcDbCircle
 10
571.677828
 20
-203.113709
 30
0.0
 40
0.5195164515183208
100
AcDbArc
 50
3.157528
 51
87.934129
  0
LINE
  5
31F
330
305
100
AcDbEntity
  8
0
  6
Continuous
 62
     0
370
     0
100
AcDbLine
 10
571.696555
 20
-202.59453
 30
0.0
 11
565.196555
 21
-202.604008
 31
0.0
  0
LWPOLYLINE
  5
320
330
305
100
AcDbEntity
  8
0
  6
Continuous
 62
     0
370
     0
100
AcDbPolyline
 90
        5
 70
     0
 43
0.0
 10
565.196533
 20
-202.604004
 10
565.196533
 20
-202.63855
 10
565.196533
 20
-202.749191
 10
565.196533
 20
-202.918076
 10
565.196533
 20
-203.102753
  0
LINE
  5
321
330
305
100
AcDbEntity
  8
0
  6
Continuous
 62
     0
370
     0
100
AcDbLine
 10
565.196555
 20
-203.102745
 30
0.0
 11
572.196555
 21
-203.085094
 31
0.0
  0
LINE
  5
322
330
305
100
AcDbEntity
  8
0
  6
Continuous
 62
     0
370
     0
100
AcDbLine
 10
544.696555
 20
-202.604008
 30
0.0
 11
565.196555
 21
-202.604008
 31
0.0
  0
LINE
  5
323
330
305
100
AcDbEntity
  8
0
  6
Continuous
 62
     0
370
    30
100
AcDbLine
 10
544.696555
 20
-242.102621
 30
0.0
 11
544.196555
 21
-242.103882
 31
0.0
  0
ARC
  5
324
330
305
100
AcDbEntity
  8
0
  6
Continuous
 62
     0
370
    30
100
AcDbCircle
 10
544.696555
 20
-242.103881
 30
0.0
 40
0.4999992051352707
100
AcDbArc
 50
180.000091
 51
270.000091
  0
LINE
  5
325
330
305
100
AcDbEntity
  8
0
  6
Continuous
 62
     0
370
     0
100
AcDbLine
 10
544.696555
 20
-242.603881
 30
0.0
 11
544.696555
 21
-242.102621
 31
0.0
  0
ARC
  5
326
330
305
100
AcDbEntity
  8
0
  6
Continuous
 62
     0
370
    30
100
AcDbCircle
 10
544.696555
 20
-203.104007
 30
0.0
 40
0.4999992051353258
100
AcDbArc
 50
89.999909
 51
179.999909
  0
LINE
  5
327
330
305
100
AcDbEntity
  8
0
  6
Continuous
 62
     0
370
    30
100
AcDbLine
 10
544.196555
 20
-203.104006
 30
0.0
 11
544.696555
 21
-203.102745
 31
0.0
  0
LINE
  5
328
330
305
100
AcDbEntity
  8
0
  6
Continuous
 62
     0
370
     0
100
AcDbLine
 10
544.696555
 20
-203.102745
 30
0.0
 11
544.696555
 21
-202.604008
 31
0.0
  0
LINE
  5
329
330
305
100
AcDbEntity
  8
0
  6
Continuous
 62
     0
370
     0
100
AcDbLine
 10
544.696555
 20
-242.102621
 30
0.0
 11
544.696555
 21
-203.102745
 31
0.0
  0
LINE
  5
32A
330
305
100
AcDbEntity
  8
0
  6
Continuous
 62
     0
370
    30
100
AcDbLine
 10
544.196555
 20
-203.104006
 30
0.0
 11
544.196555
 21
-242.103882
 31
0.0
  0
LINE
  5
32B
330
305
100
AcDbEntity
  8
0
  6
Continuous
 62
     0
370
     0
100
AcDbLine
 10
544.696555
 20
-203.102745
 30
0.0
 11
565.196555
 21
-203.102745
 31
0.0
  0
LINE
  5
32C
330
305
100
AcDbEntity
  8
0
  6
Continuous
 62
     0
370
     0
100
AcDbLine
 10
565.196555
 20
-242.102621
 30
0.0
 11
544.696555
 21
-242.102621
 31
0.0
  0
LINE
  5
32D
330
305
100
AcDbEntity
  8
0
  6
Continuous
 62
     0
370
     0
100
AcDbLine
 10
565.196555
 20
-242.102621
 30
0.0
 11
565.196555
 21
-203.102745
 31
0.0
  0
LINE
  5
32E
330
305
100
AcDbEntity
  8
0
  6
Continuous
 62
     0
370
    30
100
AcDbLine
 10
572.196555
 20
-246.615216
 30
0.0
 11
572.196555
 21
-198.615368
 31
0.0
  0
ARC
  5
32F
330
305
100
AcDbEntity
  8
0
  6
Continuous
 62
     0
370
    30
100
AcDbCircle
 10
572.896555
 20
-50.545232
 30
0.0
 40
0.5
100
AcDbArc
 50
179.999909
 51
269.999909
  0
ARC
  5
330
330
305
100
AcDbEntity
  8
0
  6
Continuous
 62
     0
370
    30
100
AcDbCircle
 10
572.896555
 20
-50.686447
 30
0.0
 40
0.5
100
AcDbArc
 50
179.999909
 51
269.999909
  0
LINE
  5
331
330
305
100
AcDbEntity
  8
0
  6
Continuous
 62
     0
370
     0
100
AcDbLine
 10
572.896555
 20
5.455851
 30
0.0
 11
572.896555
 21
-50.543971
 31
0.0
  0
LINE
  5
332
330
305
100
AcDbEntity
  8
0
  6
Continuous
 62
     0
370
     0
100
AcDbLine
 10
572.396555
 20
5.45459
 30
0.0
 11
572.896555
 21
5.45459
 31
0.0
  0
LINE
  5
333
330
305
100
AcDbEntity
  8
0
  6
Continuous
 62
     0
370
    30
100
AcDbLine
 10
572.396555
 20
-50.545232
 30
0.0
 11
572.396555
 21
5.45459
 31
0.0
  0
LINE
  5
334
330
305
100
AcDbEntity
  8
0
  6
Continuous
 62
     0
370
     0
100
AcDbLine
 10
572.896555
 20
-50.545232
 30
0.0
 11
572.396555
 21
-50.545232
 31
0.0
  0
ARC
  5
335
330
305
100
AcDbEntity
  8
0
  6
Continuous
 62
     0
370
    30
100
AcDbCircle
 10
572.896555
 20
5.45459
 30
0.0
 40
0.5
100
AcDbArc
 50
90.000091
 51
180.000091
  0
LWPOLYLINE
  5
336
330
305
100
AcDbEntity
  8
0
  6
Continuous
 62
     0
370
     0
100
AcDbPolyline
 90
        6
 70
     0
 43
0.0
 10
572.896545
 20
5.954588
 10
572.896545
 20
5.930915
 10
572.896545
 20
5.865551
 10
572.896545
 20
5.772479
 10
572.896545
 20
5.648401
 10
572.896545
 20
5.455851
  0
LINE
  5
337
330
305
100
AcDbEntity
  8
0
  6
Continuous
 62
     0
370
     0
100
AcDbLine
 10
572.896555
 20
-50.543971
 30
0.0
 11
572.896555
 21
-51.04523
 31
0.0
  0
LINE
  5
338
330
305
100
AcDbEntity
  8
0
  6
Continuous
 62
     0
370
     0
100
AcDbLine
 10
582.616555
 20
5.455851
 30
0.0
 11
572.896555
 21
5.455851
 31
0.0
  0
LINE
  5
339
330
305
100
AcDbEntity
  8
0
  6
Continuous
 62
     0
370
    30
100
AcDbLine
 10
582.616555
 20
5.95459
 30
0.0
 11
582.616555
 21
5.455851
 31
0.0
  0
LINE
  5
33A
330
305
100
AcDbEntity
  8
0
  6
Continuous
 62
     0
370
     0
100
AcDbLine
 10
572.896555
 20
5.954588
 30
0.0
 11
582.616555
 21
5.954588
 31
0.0
  0
LINE
  5
33B
330
305
100
AcDbEntity
  8
0
  6
Continuous
 62
     0
370
     0
100
AcDbLine
 10
582.616555
 20
-51.04523
 30
0.0
 11
572.896555
 21
-51.04523
 31
0.0
  0
LINE
  5
33C
330
305
100
AcDbEntity
  8
0
  6
Continuous
 62
     0
370
    30
100
AcDbLine
 10
582.616555
 20
-50.543971
 30
0.0
 11
582.616555
 21
-51.045232
 31
0.0
  0
LINE
  5
33D
330
305
100
AcDbEntity
  8
0
  6
Continuous
 62
     0
370
     0
100
AcDbLine
 10
572.896555
 20
-50.543971
 30
0.0
 11
582.616555
 21
-50.543971
 31
0.0
  0
LINE
  5
33E
330
305
100
AcDbEntity
  8
0
  6
Continuous
 62
     0
370
     0
100
AcDbLine
 10
582.616555
 20
-51.186445
 30
0.0
 11
572.896555
 21
-51.186445
 31
0.0
  0
LINE
  5
33F
330
305
100
AcDbEntity
  8
0
  6
Continuous
 62
     0
370
    30
100
AcDbLine
 10
582.616555
 20
5.455851
 30
0.0
 11
582.616555
 21
-50.543971
 31
0.0
  0
ARC
  5
340
330
305
100
AcDbEntity
  8
0
  6
Continuous
 62
     0
370
    30
100
AcDbCircle
 10
571.696282
 20
-2.094893
 30
0.0
 40
0.5002738921886059
100
AcDbArc
 50
270.03136
 51
359.968458
  0
ARC
  5
341
330
305
100
AcDbEntity
  8
0
  6
Continuous
 62
     0
370
    30
100
AcDbCircle
 10
571.67782
 20
-3.114354
 30
0.0
 40
0.5195250810219421
100
AcDbArc
 50
3.158396
 51
87.93326
  0
LINE
  5
342
330
305
100
AcDbEntity
  8
0
  6
Continuous
 62
     0
370
     0
100
AcDbLine
 10
565.196555
 20
-2.604644
 30
0.0
 11
544.696555
 21
-2.604644
 31
0.0
  0
LINE
  5
343
330
305
100
AcDbEntity
  8
0
  6
Continuous
 62
     0
370
     0
100
AcDbLine
 10
571.696555
 20
-2.595167
 30
0.0
 11
565.196555
 21
-2.604644
 31
0.0
  0
LINE
  5
344
330
305
100
AcDbEntity
  8
0
  6
Continuous
 62
     0
370
     0
100
AcDbLine
 10
565.196555
 20
-3.103382
 30
0.0
 11
565.196555
 21
-2.604644
 31
0.0
  0
LINE
  5
345
330
305
100
AcDbEntity
  8
0
  6
Continuous
 62
     0
370
     0
100
AcDbLine
 10
572.196555
 20
-3.08573
 30
0.0
 11
565.196555
 21
-3.103382
 31
0.0
  0
ARC
  5
346
330
305
100
AcDbEntity
  8
0
  6
Continuous
 62
     0
370
    30
100
AcDbCircle
 10
571.696555
 20
-43.095038
 30
0.0
 40
0.5
100
AcDbArc
 50
359.999909
 51
89.999909
  0
ARC
  5
347
330
305
100
AcDbEntity
  8
0
  6
Continuous
 62
     0
370
    30
100
AcDbCircle
 10
571.661623
 20
-42.060666
 30
0.0
 40
0.535513891103965
100
AcDbArc
 50
273.740195
 51
357.330694
  0
LINE
  5
348
330
305
100
AcDbEntity
  8
0
  6
Continuous
 62
     0
370
     0
100
AcDbLine
 10
565.196555
 20
-42.103258
 30
0.0
 11
572.196555
 21
-42.085606
 31
0.0
  0
LINE
  5
349
330
305
100
AcDbEntity
  8
0
  6
Continuous
 62
     0
370
     0
100
AcDbLine
 10
565.196555
 20
-42.604517
 30
0.0
 11
565.196555
 21
-42.103258
 31
0.0
  0
LINE
  5
34A
330
305
100
AcDbEntity
  8
0
  6
Continuous
 62
     0
370
     0
100
AcDbLine
 10
571.696555
 20
-42.59504
 30
0.0
 11
565.196555
 21
-42.604517
 31
0.0
  0
LINE
  5
34B
330
305
100
AcDbEntity
  8
0
  6
Continuous
 62
     0
370
     0
100
AcDbLine
 10
544.696555
 20
-42.604517
 30
0.0
 11
565.196555
 21
-42.604517
 31
0.0
  0
LWPOLYLINE
  5
34C
330
305
100
AcDbEntity
  8
0
  6
Continuous
 62
     0
370
     0
100
AcDbPolyline
 90
        6
 70
     0
 43
0.0
 10
544.696533
 20
-2.604644
 10
544.696533
 20
-2.628317
 10
544.696533
 20
-2.693682
 10
544.696533
 20
-2.786754
 10
544.696533
 20
-2.910832
 10
544.696533
 20
-3.103382
  0
ARC
  5
34D
330
305
100
AcDbEntity
  8
0
  6
Continuous
 62
     0
370
    30
100
AcDbCircle
 10
544.696555
 20
-3.104644
 30
0.0
 40
0.499999205133553
100
AcDbArc
 50
89.999909
 51
179.999909
  0
LINE
  5
34E
330
305
100
AcDbEntity
  8
0
  6
Continuous
 62
     0
370
    30
100
AcDbLine
 10
544.696555
 20
-3.103382
 30
0.0
 11
544.196555
 21
-3.104643
 31
0.0
  0
LINE
  5
34F
330
305
100
AcDbEntity
  8
0
  6
Continuous
 62
     0
370
     0
100
AcDbLine
 10
544.696555
 20
-42.103258
 30
0.0
 11
544.696555
 21
-42.604517
 31
0.0
  0
LINE
  5
350
330
305
100
AcDbEntity
  8
0
  6
Continuous
 62
     0
370
    30
100
AcDbLine
 10
544.196555
 20
-42.104519
 30
0.0
 11
544.696555
 21
-42.103258
 31
0.0
  0
ARC
  5
351
330
305
100
AcDbEntity
  8
0
  6
Continuous
 62
     0
370
    30
100
AcDbCircle
 10
544.696555
 20
-42.104518
 30
0.0
 40
0.4999992051383616
100
AcDbArc
 50
180.000091
 51
270.000091
  0
LINE
  5
352
330
305
100
AcDbEntity
  8
0
  6
Continuous
 62
     0
370
    30
100
AcDbLine
 10
544.196555
 20
-42.104519
 30
0.0
 11
544.196555
 21
-3.104643
 31
0.0
  0
LINE
  5
353
330
305
100
AcDbEntity
  8
0
  6
Continuous
 62
     0
370
     0
100
AcDbLine
 10
544.696555
 20
-3.103382
 30
0.0
 11
544.696555
 21
-42.103258
 31
0.0
  0
LINE
  5
354
330
305
100
AcDbEntity
  8
0
  6
Continuous
 62
     0
370
     0
100
AcDbLine
 10
544.696555
 20
-42.103258
 30
0.0
 11
565.196555
 21
-42.103258
 31
0.0
  0
LINE
  5
355
330
305
100
AcDbEntity
  8
0
  6
Continuous
 62
     0
370
     0
100
AcDbLine
 10
565.196555
 20
-3.103382
 30
0.0
 11
544.696555
 21
-3.103382
 31
0.0
  0
LINE
  5
356
330
305
100
AcDbEntity
  8
0
  6
Continuous
 62
     0
370
     0
100
AcDbLine
 10
565.196555
 20
-3.103382
 30
0.0
 11
565.196555
 21
-42.103258
 31
0.0
  0
LWPOLYLINE
  5
357
330
305
100
AcDbEntity
  8
0
  6
Continuous
 62
     0
370
    30
100
AcDbPolyline
 90
       57
 70
     0
 43
0.0
 10
572.196533
 20
1.383995
 10
572.196533
 20
1.355856
 10
572.196533
 20
1.26289
 10
572.196533
 20
1.101693
 10
572.196533
 20
0.869254
 10
572.196533
 20
0.563043
 10
572.196533
 20
0.181099
 10
572.196533
 20
-0.277898
 10
572.196533
 20
-0.814555
 10
572.196533
 20
-1.428709
 10
572.196533
 20
-2.119389
 10
572.196533
 20
-2.884793
 10
572.196533
 20
-3.722286
 10
572.196533
 20
-4.628422
 10
572.196533
 20
-5.598987
 10
572.196533
 20
-6.629059
 10
572.196533
 20
-7.713097
 10
572.196533
 20
-8.845032
 10
572.196533
 20
-10.018386
 10
572.196533
 20
-11.226387
 10
572.196533
 20
-12.462094
 10
572.196533
 20
-13.71852
 10
572.196533
 20
-14.98875
 10
572.196533
 20
-16.266048
 10
572.196533
 20
-17.543961
 10
572.196533
 20
-18.816391
 10
572.196533
 20
-20.077677
 10
572.196533
 20
-21.322636
 10
572.196533
 20
-22.5466
 10
572.196533
 20
-23.770384
 10
572.196533
 20
-25.015553
 10
572.196533
 20
-26.277462
 10
572.196533
 20
-27.550957
 10
572.196533
 20
-28.830389
 10
572.196533
 20
-30.109682
 10
572.196533
 20
-31.382391
 10
572.196533
 20
-32.641788
 10
572.196533
 20
-33.880955
 10
572.196533
 20
-35.092903
 10
572.196533
 20
-36.270683
 10
572.196533
 20
-37.407505
 10
572.196533
 20
-38.496864
 10
572.196533
 20
-39.532669
 10
572.196533
 20
-40.509338
 10
572.196533
 20
-41.421921
 10
572.196533
 20
-42.266155
 10
572.196533
 20
-43.038555
 10
572.196533
 20
-43.736435
 10
572.196533
 20
-44.357948
 10
572.196533
 20
-44.902081
 10
572.196533
 20
-45.368614
 10
572.196533
 20
-45.758118
 10
572.196533
 20
-46.071865
 10
572.196533
 20
-46.311779
 10
572.196533
 20
-46.480358
 10
572.196533
 20
-46.58057
 10
572.196533
 20
-46.615852
  0
LINE
  5
358
330
305
100
AcDbEntity
  8
0
  6
Continuous
 62
     0
370
    30
100
AcDbLine
 10
572.196555
 20
-46.615928
 30
0.0
 11
572.396555
 21
-46.615928
 31
0.0
  0
ARC
  5
359
330
305
100
AcDbEntity
  8
0
  6
Continuous
 62
     0
370
    30
100
AcDbCircle
 10
397.564748
 20
-142.131956
 30
0.0
 40
0.5457545608397447
100
AcDbArc
 50
184.668633
 51
274.009013
  0
LINE
  5
35A
330
305
100
AcDbEntity
  8
0
  6
Continuous
 62
     0
370
    30
100
AcDbLine
 10
397.020804
 20
-103.176501
 30
0.0
 11
397.020804
 21
-142.176377
 31
0.0
  0
ARC
  5
35B
330
305
100
AcDbEntity
  8
0
  6
Continuous
 62
     0
370
    30
100
AcDbCircle
 10
397.564748
 20
-103.220921
 30
0.0
 40
0.5457545313646038
100
AcDbArc
 50
85.990985
 51
175.331385
  0
ARC
  5
35C
330
305
100
AcDbEntity
  8
0
  6
Continuous
 62
     0
370
     0
100
AcDbCircle
 10
406.335785
 20
-103.106165
 30
0.0
 40
0.4679352498165286
100
AcDbArc
 50
94.571617
 51
184.032501
  0
LINE
  5
35D
330
305
100
AcDbEntity
  8
0
  6
Continuous
 62
     0
370
     0
100
AcDbLine
 10
406.298488
 20
-102.639719
 30
0.0
 11
397.602903
 21
-102.676502
 31
0.0
  0
LINE
  5
35E
330
305
100
AcDbEntity
  8
0
  6
Continuous
 62
     0
370
     0
100
AcDbLine
 10
405.869008
 20
-103.139071
 30
0.0
 11
397.020804
 21
-103.176501
 31
0.0
  0
LINE
  5
35F
330
305
100
AcDbEntity
  8
0
  6
Continuous
 62
     0
370
     0
100
AcDbLine
 10
572.396555
 20
-103.052938
 30
0.0
 11
465.996201
 21
-103.052938
 31
0.0
  0
LINE
  5
360
330
305
100
AcDbEntity
  8
0
  6
Continuous
 62
     0
370
     0
100
AcDbLine
 10
572.396555
 20
-102.5542
 30
0.0
 11
465.996201
 21
-102.5542
 31
0.0
  0
LINE
  5
361
330
305
100
AcDbEntity
  8
0
  6
Continuous
 62
     0
370
     0
100
AcDbLine
 10
465.996201
 20
-103.052938
 30
0.0
 11
465.996201
 21
-102.554199
 31
0.0
  0
LINE
  5
362
330
305
100
AcDbEntity
  8
0
  6
Continuous
 62
     0
370
     0
100
AcDbLine
 10
405.869008
 20
-142.138947
 30
0.0
 11
397.020804
 21
-142.176377
 31
0.0
  0
LINE
  5
363
330
305
100
AcDbEntity
  8
0
  6
Continuous
 62
     0
370
     0
100
AcDbLine
 10
406.298488
 20
-142.639591
 30
0.0
 11
397.602903
 21
-142.676375
 31
0.0
  0
ARC
  5
364
330
305
100
AcDbEntity
  8
0
  6
Continuous
 62
     0
370
     0
100
AcDbCircle
 10
406.337501
 20
-142.171586
 30
0.0
 40
0.4696283776581449
100
AcDbArc
 50
176.014767
 51
265.234846
  0
LINE
  5
365
330
305
100
AcDbEntity
  8
0
  6
Continuous
 62
     0
370
     0
100
AcDbLine
 10
465.996201
 20
-142.052814
 30
0.0
 11
465.996201
 21
-142.554075
 31
0.0
  0
LINE
  5
366
330
305
100
AcDbEntity
  8
0
  6
Continuous
 62
     0
370
     0
100
AcDbLine
 10
572.396555
 20
-142.554073
 30
0.0
 11
465.996201
 21
-142.554073
 31
0.0
  0
LINE
  5
367
330
305
100
AcDbEntity
  8
0
  6
Continuous
 62
     0
370
     0
100
AcDbLine
 10
572.396555
 20
-142.052814
 30
0.0
 11
465.996201
 21
-142.052814
 31
0.0
  0
ELLIPSE
  5
368
330
305
100
AcDbEntity
  8
0
  6
Continuous
 62
     0
370
     0
100
AcDbEllipse
 10
465.996201
 20
-102.729458
 30
0.0
 11
69.5
 21
0.0
 31
0.0
210
0.0
220
0.0
230
1.0
 40
0.002522
 41
1.570796326794896
 42
2.604031243975538
  0
LINE
  5
369
330
305
100
AcDbEntity
  8
0
  6
Continuous
 62
     0
370
     0
100
AcDbLine
 10
405.869008
 20
-103.139071
 30
0.0
 11
405.869008
 21
-142.138947
 31
0.0
  0
LINE
  5
36A
330
305
100
AcDbEntity
  8
0
  6
Continuous
 62
     0
370
     0
100
AcDbLine
 10
465.996201
 20
-103.052938
 30
0.0
 11
465.996201
 21
-142.052814
 31
0.0
  0
ELLIPSE
  5
36B
330
305
100
AcDbEntity
  8
0
  6
Continuous
 62
     0
370
     0
100
AcDbEllipse
 10
465.996201
 20
-103.229456
 30
0.0
 11
70.0
 21
0.0
 31
0.0
210
0.0
220
0.0
230
1.0
 40
0.002522
 41
1.570796326794896
 42
2.604031243975541
  0
ELLIPSE
  5
36C
330
305
100
AcDbEntity
  8
0
  6
Continuous
 62
     0
370
     0
100
AcDbEllipse
 10
465.996201
 20
-142.229332
 30
0.0
 11
70.0
 21
0.0
 31
0.0
210
0.0
220
0.0
230
1.0
 40
0.002522
 41
1.570796326794897
 42
2.604031243975559
  0
ELLIPSE
  5
36D
330
305
100
AcDbEntity
  8
0
  6
Continuous
 62
     0
370
     0
100
AcDbEllipse
 10
465.996201
 20
-142.729331
 30
0.0
 11
69.5
 21
0.0
 31
0.0
210
0.0
220
0.0
230
1.0
 40
0.002522
 41
1.570796326794897
 42
2.604031243975539
  0
LINE
  5
36E
330
305
100
AcDbEntity
  8
0
  6
Continuous
 62
     0
370
    30
100
AcDbLine
 10
582.616555
 20
-94.543831
 30
0.0
 11
582.616555
 21
-94.045092
 31
0.0
  0
LINE
  5
36F
330
305
100
AcDbEntity
  8
0
  6
Continuous
 62
     0
370
    30
100
AcDbLine
 10
582.616555
 20
-150.543653
 30
0.0
 11
582.616555
 21
-94.543831
 31
0.0
  0
LINE
  5
370
330
305
100
AcDbEntity
  8
0
  6
Continuous
 62
     0
370
    30
100
AcDbLine
 10
582.616555
 20
-151.044914
 30
0.0
 11
582.616555
 21
-150.543653
 31
0.0
  0
ARC
  5
371
330
305
100
AcDbEntity
  8
0
  6
Continuous
 62
     0
370
    30
100
AcDbCircle
 10
572.896555
 20
-150.686129
 30
0.0
 40
0.500000000000001
100
AcDbArc
 50
180.0
 51
270.0
  0
ARC
  5
372
330
305
100
AcDbEntity
  8
0
  6
Continuous
 62
     0
370
    30
100
AcDbCircle
 10
572.896555
 20
-150.544914
 30
0.0
 40
0.5
100
AcDbArc
 50
180.0
 51
270.0
  0
LINE
  5
373
330
305
100
AcDbEntity
  8
0
  6
Continuous
 62
     0
370
    30
100
AcDbLine
 10
572.896555
 20
-150.544914
 30
0.0
 11
572.396555
 21
-150.544914
 31
0.0
  0
LINE
  5
374
330
305
100
AcDbEntity
  8
0
  6
Continuous
 62
     0
370
     0
100
AcDbLine
 10
572.896555
 20
-151.044914
 30
0.0
 11
572.896555
 21
-150.543653
 31
0.0
  0
LINE
  5
375
330
305
100
AcDbEntity
  8
0
  6
Continuous
 62
     0
370
     0
100
AcDbLine
 10
572.396555
 20
-94.545092
 30
0.0
 11
572.896555
 21
-94.545092
 31
0.0
  0
LINE
  5
376
330
305
100
AcDbEntity
  8
0
  6
Continuous
 62
     0
370
    30
100
AcDbLine
 10
572.396555
 20
-150.544914
 30
0.0
 11
572.396555
 21
-94.545092
 31
0.0
  0
LINE
  5
377
330
305
100
AcDbEntity
  8
0
  6
Continuous
 62
     0
370
     0
100
AcDbLine
 10
572.896555
 20
-94.543831
 30
0.0
 11
572.896555
 21
-150.543653
 31
0.0
  0
ARC
  5
378
330
305
100
AcDbEntity
  8
0
  6
Continuous
 62
     0
370
    30
100
AcDbCircle
 10
572.896555
 20
-94.545092
 30
0.0
 40
0.500000000000001
100
AcDbArc
 50
90.0
 51
180.0
  0
LINE
  5
379
330
305
100
AcDbEntity
  8
0
  6
Continuous
 62
     0
370
     0
100
AcDbLine
 10
572.896555
 20
-94.543831
 30
0.0
 11
572.896555
 21
-94.045092
 31
0.0
  0
LINE
  5
37A
330
305
100
AcDbEntity
  8
0
  6
Continuous
 62
     0
370
     0
100
AcDbLine
 10
582.616555
 20
-151.186127
 30
0.0
 11
572.896555
 21
-151.186127
 31
0.0
  0
LINE
  5
37B
330
305
100
AcDbEntity
  8
0
  6
Continuous
 62
     0
370
     0
100
AcDbLine
 10
572.896555
 20
-151.044912
 30
0.0
 11
582.616555
 21
-151.044912
 31
0.0
  0
LINE
  5
37C
330
305
100
AcDbEntity
  8
0
  6
Continuous
 62
     0
370
     0
100
AcDbLine
 10
582.616555
 20
-150.543653
 30
0.0
 11
572.896555
 21
-150.543653
 31
0.0
  0
LINE
  5
37D
330
305
100
AcDbEntity
  8
0
  6
Continuous
 62
     0
370
     0
100
AcDbLine
 10
572.896555
 20
-94.543831
 30
0.0
 11
582.616555
 21
-94.543831
 31
0.0
  0
LINE
  5
37E
330
305
100
AcDbEntity
  8
0
  6
Continuous
 62
     0
370
     0
100
AcDbLine
 10
582.616555
 20
-94.045094
 30
0.0
 11
572.896555
 21
-94.045094
 31
0.0
  0
ENDBLK
  5
380
330
305
100
AcDbEntity
  8
0
100
AcDbBlockEnd
  0
ENDSEC
  0
SECTION
  2
ENTITIES
  0
INSERT
  5
101
330
1F
100
AcDbEntity
  8
0
  6
Continuous
 62
     7
420
 16250871
370
     0
100
AcDbBlockReference
  2
a
 10
367.122772
 20
167.583282
 30
0.0
  0
INSERT
  5
158
330
1F
100
AcDbEntity
  8
0
  6
Continuous
 62
     7
420
 16250871
370
     0
100
AcDbBlockReference
  2
b
 10
367.122772
 20
167.583282
 30
0.0
  0
INSERT
  5
20C
330
1F
100
AcDbEntity
  8
0
  6
Continuous
 62
     7
420
 16250871
370
     0
100
AcDbBlockReference
  2
c
 10
367.122772
 20
167.583282
 30
0.0
  0
INSERT
  5
304
330
1F
100
AcDbEntity
  8
0
  6
Continuous
 62
     7
420
 16250871
370
     0
100
AcDbBlockReference
  2
d
 10
367.122772
 20
167.583282
 30
0.0
  0
INSERT
  5
381
330
1F
100
AcDbEntity
  8
0
  6
Continuous
 62
     7
420
 16250871
370
     0
100
AcDbBlockReference
  2
e
 10
0.0
 20
54.955902
 30
0.0
  0
ENDSEC
  0
SECTION
  2
OBJECTS
  0
DICTIONARY
  5
C
330
0
100
AcDbDictionary
281
     1
  3
ACAD_DETAILVIEWSTYLE
350
3B9
  3
ACAD_GROUP
350
D
  3
ACAD_LAYOUT
350
1A
  3
ACAD_MATERIAL
350
43
  3
ACAD_MLEADERSTYLE
350
6B
  3
ACAD_MLINESTYLE
350
17
  3
ACAD_PLOTSETTINGS
350
19
  3
ACAD_PLOTSTYLENAME
350
E
  3
ACAD_SCALELIST
350
47
  3
ACAD_SECTIONVIEWSTYLE
350
3BA
  3
ACAD_TABLESTYLE
350
69
  3
ACAD_VISUALSTYLE
350
2A
  3
ACDB_RECOMPOSE_DATA
350
3B6
  3
AcDbVariableDictionary
350
382
  0
SUN
  5
6D
330
29
100
AcDbSun
 90
        1
290
     0
 63
     7
421
 16777215
 40
1.0
291
     1
 91
  2455826
 92
 54000000
292
     0
 70
     2
 71
   256
280
     1
  0
DICTIONARY
  5
3B9
102
{ACAD_REACTORS
330
C
102
}
330
C
100
AcDbDictionary
281
     1
  0
DICTIONARY
  5
D
102
{ACAD_REACTORS
330
C
102
}
330
C
100
AcDbDictionary
281
     1
  0
DICTIONARY
  5
1A
102
{ACAD_REACTORS
330
C
102
}
330
C
100
AcDbDictionary
281
     1
  3
Layout1
350
1E
  3
Layout2
350
26
  3
Model
350
22
  0
DICTIONARY
  5
43
102
{ACAD_REACTORS
330
C
102
}
330
C
100
AcDbDictionary
281
     1
  3
ByBlock
350
45
  3
ByLayer
350
44
  3
Global
350
46
  0
DICTIONARY
  5
6B
102
{ACAD_REACTORS
330
C
102
}
330
C
100
AcDbDictionary
281
     1
  3
Standard
350
6C
  0
DICTIONARY
  5
17
102
{ACAD_REACTORS
330
C
102
}
330
C
100
AcDbDictionary
281
     1
  3
Standard
350
18
  0
DICTIONARY
  5
19
102
{ACAD_REACTORS
330
C
102
}
330
C
100
AcDbDictionary
281
     1
  0
ACDBDICTIONARYWDFLT
  5
E
102
{ACAD_REACTORS
330
C
102
}
330
C
100
AcDbDictionary
281
     1
  3
Normal
350
F
100
AcDbDictionaryWithDefault
340
F
  0
DICTIONARY
  5
47
102
{ACAD_REACTORS
330
C
102
}
330
C
100
AcDbDictionary
281
     1
  3
A0
350
48
  3
A1
350
49
  3
A2
350
4A
  3
A3
350
4B
  3
A4
350
4C
  3
A5
350
4D
  3
A6
350
4E
  3
A7
350
4F
  3
A8
350
50
  3
A9
350
51
  3
B0
350
52
  3
B1
350
53
  3
B2
350
54
  3
B3
350
55
  3
B4
350
56
  3
B5
350
57
  3
B6
350
58
  3
B7
350
59
  3
B8
350
5A
  3
B9
350
5B
  3
C0
350
5C
  3
C1
350
5D
  3
C2
350
5E
  3
C3
350
5F
  3
C4
350
60
  3
C5
350
61
  3
C6
350
62
  3
C7
350
63
  3
C8
350
64
  3
C9
350
65
  3
D0
350
66
  3
D1
350
67
  3
D2
350
68
  0
DICTIONARY
  5
3BA
102
{ACAD_REACTORS
330
C
102
}
330
C
100
AcDbDictionary
281
     1
  0
DICTIONARY
  5
69
102
{ACAD_REACTORS
330
C
102
}
330
C
100
AcDbDictionary
281
     1
  3
Standard
350
6A
  0
DICTIONARY
  5
2A
102
{ACAD_REACTORS
330
C
102
}
330
C
100
AcDbDictionary
281
     1
  3
2dWireframe
350
2F
  3
Basic
350
32
  3
Brighten
350
36
  3
ColorChange
350
3A
  3
Conceptual
350
34
  3
Dim
350
35
  3
EdgeColorOff
350
3D
  3
Facepattern
350
39
  3
Flat
350
2B
  3
FlatWithEdges
350
2C
  3
Gouraud
350
2D
  3
GouraudWithEdges
350
2E
  3
Hidden
350
31
  3
JitterOff
350
3B
  3
Linepattern
350
38
  3
OverhangOff
350
3C
  3
Realistic
350
33
  3
Shaded
350
42
  3
Shaded with edges
350
41
  3
Shades of Gray
350
3E
  3
Sketchy
350
3F
  3
Thicken
350
37
  3
Wireframe
350
30
  3
X-Ray
350
40
  0
XRECORD
  5
3B6
102
{ACAD_REACTORS
330
C
102
}
330
C
100
AcDbXrecord
280
     1
 90
        1
330
6A
  0
DICTIONARY
  5
382
102
{ACAD_REACTORS
330
C
102
}
330
C
100
AcDbDictionary
281
     1
  3
CANNOSCALE
350
383
  3
CMLEADERSTYLE
350
3B8
  3
CTABLESTYLE
350
3B7
  0
LAYOUT
  5
1E
102
{ACAD_REACTORS
330
1A
102
}
330
1A
100
AcDbPlotSettings
  1

  2
none_device
  4

  6

 40
0.0
 41
0.0
 42
0.0
 43
0.0
 44
0.0
 45
0.0
 46
0.0
 47
0.0
 48
0.0
 49
0.0
140
0.0
141
0.0
142
1.0
143
1.0
 70
   688
 72
     1
 73
     0
 74
     5
  7

 75
    16
 76
     0
 77
     2
 78
   300
147
1.0
148
0.0
149
0.0
100
AcDbLayout
  1
Layout1
 70
     1
 71
     1
 10
0.0
 20
0.0
 11
420.0
 21
297.0
 12
0.0
 22
0.0
 32
0.0
 14
1.000000E+20
 24
1.000000E+20
 34
1.000000E+20
 15
-1.000000E+20
 25
-1.000000E+20
 35
-1.000000E+20
146
0.0
 13
0.0
 23
0.0
 33
0.0
 16
1.0
 26
0.0
 36
0.0
 17
0.0
 27
1.0
 37
0.0
 76
     0
330
1B
  0
LAYOUT
  5
26
102
{ACAD_REACTORS
330
1A
102
}
330
1A
100
AcDbPlotSettings
  1

  2
none_device
  4

  6

 40
0.0
 41
0.0
 42
0.0
 43
0.0
 44
0.0
 45
0.0
 46
0.0
 47
0.0
 48
0.0
 49
0.0
140
0.0
141
0.0
142
1.0
143
1.0
 70
   688
 72
     1
 73
     0
 74
     5
  7

 75
    16
 76
     0
 77
     2
 78
   300
147
1.0
148
0.0
149
0.0
100
AcDbLayout
  1
Layout2
 70
     1
 71
     2
 10
0.0
 20
0.0
 11
0.0
 21
0.0
 12
0.0
 22
0.0
 32
0.0
 14
0.0
 24
0.0
 34
0.0
 15
0.0
 25
0.0
 35
0.0
146
0.0
 13
0.0
 23
0.0
 33
0.0
 16
1.0
 26
0.0
 36
0.0
 17
0.0
 27
1.0
 37
0.0
 76
     0
330
23
  0
LAYOUT
  5
22
102
{ACAD_REACTORS
330
1A
102
}
330
1A
100
AcDbPlotSettings
  1

  2
none_device
  4
Letter_(8.50_x_11.00_Inches)
  6

 40
6.35
 41
6.35
 42
6.350005
 43
6.350005
 44
215.9
 45
279.4
 46
0.0
 47
0.0
 48
0.0
 49
0.0
140
0.0
141
0.0
142
1.0
143
1.0
 70
  1712
 72
     1
 73
     0
 74
     0
  7

 75
     0
 76
     0
 77
     2
 78
   300
147
1.0
148
0.0
149
0.0
100
AcDbLayout
  1
Model
 70
     1
 71
     0
 10
0.0
 20
0.0
 11
420.0
 21
297.0
 12
0.0
 22
0.0
 32
0.0
 14
1.000000E+20
 24
1.000000E+20
 34
1.000000E+20
 15
-1.000000E+20
 25
-1.000000E+20
 35
-1.000000E+20
146
0.0
 13
0.0
 23
0.0
 33
0.0
 16
1.0
 26
0.0
 36
0.0
 17
0.0
 27
1.0
 37
0.0
 76
     0
330
1F
331
29
  0
MATERIAL
  5
45
102
{ACAD_REACTORS
330
43
102
}
330
43
100
AcDbMaterial
  1
ByBlock
 72
     1
 94
      127
  0
MATERIAL
  5
44
102
{ACAD_REACTORS
330
43
102
}
330
43
100
AcDbMaterial
  1
ByLayer
 72
     1
 94
      127
  0
MATERIAL
  5
46
102
{ACAD_REACTORS
330
43
102
}
330
43
100
AcDbMaterial
  1
Global
 72
     1
 94
      127
  0
MLEADERSTYLE
  5
6C
102
{ACAD_REACTORS
330
6B
102
}
330
6B
100
AcDbMLeaderStyle
179
     2
170
     2
171
     1
172
     0
 90
        2
 40
0.0
 41
0.0
173
     1
 91
-1056964608
340
14
 92
       -2
290
     1
 42
2.0
291
     1
 43
8.0
  3
Standard
341
0
 44
4.0
300

342
11
174
     1
178
     6
175
     1
176
     0
 93
-1056964608
 45
4.0
292
     0
297
     0
 46
4.0
343
0
 94
-1056964608
 47
1.0
 49
1.0
140
1.0
293
     1
141
0.0
294
     1
177
     0
142
1.0
295
     0
296
     0
143
3.75
271
     0
272
     9
273
     9
  0
MLINESTYLE
  5
18
102
{ACAD_REACTORS
330
17
102
}
330
17
100
AcDbMlineStyle
  2
Standard
 70
     0
  3

 62
   256
 51
90.0
 52
90.0
 71
     2
 49
0.5
 62
   256
  6
BYLAYER
 49
-0.5
 62
   256
  6
BYLAYER
  0
ACDBPLACEHOLDER
  5
F
102
{ACAD_REACTORS
330
E
102
}
330
E
  0
SCALE
  5
48
102
{ACAD_REACTORS
330
47
102
}
330
47
100
AcDbScale
 70
     0
300
1:1
140
1.0
141
1.0
290
     1
  0
SCALE
  5
49
102
{ACAD_REACTORS
330
47
102
}
330
47
100
AcDbScale
 70
     0
300
1:2
140
1.0
141
2.0
290
     0
  0
SCALE
  5
4A
102
{ACAD_REACTORS
330
47
102
}
330
47
100
AcDbScale
 70
     0
300
1:4
140
1.0
141
4.0
290
     0
  0
SCALE
  5
4B
102
{ACAD_REACTORS
330
47
102
}
330
47
100
AcDbScale
 70
     0
300
1:5
140
1.0
141
5.0
290
     0
  0
SCALE
  5
4C
102
{ACAD_REACTORS
330
47
102
}
330
47
100
AcDbScale
 70
     0
300
1:8
140
1.0
141
8.0
290
     0
  0
SCALE
  5
4D
102
{ACAD_REACTORS
330
47
102
}
330
47
100
AcDbScale
 70
     0
300
1:10
140
1.0
141
10.0
290
     0
  0
SCALE
  5
4E
102
{ACAD_REACTORS
330
47
102
}
330
47
100
AcDbScale
 70
     0
300
1:16
140
1.0
141
16.0
290
     0
  0
SCALE
  5
4F
102
{ACAD_REACTORS
330
47
102
}
330
47
100
AcDbScale
 70
     0
300
1:20
140
1.0
141
20.0
290
     0
  0
SCALE
  5
50
102
{ACAD_REACTORS
330
47
102
}
330
47
100
AcDbScale
 70
     0
300
1:30
140
1.0
141
30.0
290
     0
  0
SCALE
  5
51
102
{ACAD_REACTORS
330
47
102
}
330
47
100
AcDbScale
 70
     0
300
1:40
140
1.0
141
40.0
290
     0
  0
SCALE
  5
52
102
{ACAD_REACTORS
330
47
102
}
330
47
100
AcDbScale
 70
     0
300
1:50
140
1.0
141
50.0
290
     0
  0
SCALE
  5
53
102
{ACAD_REACTORS
330
47
102
}
330
47
100
AcDbScale
 70
     0
300
1:100
140
1.0
141
100.0
290
     0
  0
SCALE
  5
54
102
{ACAD_REACTORS
330
47
102
}
330
47
100
AcDbScale
 70
     0
300
2:1
140
2.0
141
1.0
290
     0
  0
SCALE
  5
55
102
{ACAD_REACTORS
330
47
102
}
330
47
100
AcDbScale
 70
     0
300
4:1
140
4.0
141
1.0
290
     0
  0
SCALE
  5
56
102
{ACAD_REACTORS
330
47
102
}
330
47
100
AcDbScale
 70
     0
300
8:1
140
8.0
141
1.0
290
     0
  0
SCALE
  5
57
102
{ACAD_REACTORS
330
47
102
}
330
47
100
AcDbScale
 70
     0
300
10:1
140
10.0
141
1.0
290
     0
  0
SCALE
  5
58
102
{ACAD_REACTORS
330
47
102
}
330
47
100
AcDbScale
 70
     0
300
100:1
140
100.0
141
1.0
290
     0
  0
SCALE
  5
59
102
{ACAD_REACTORS
330
47
102
}
330
47
100
AcDbScale
 70
     0
300
1/128" = 1'-0"
140
0.007812
141
12.0
290
     0
  0
SCALE
  5
5A
102
{ACAD_REACTORS
330
47
102
}
330
47
100
AcDbScale
 70
     0
300
1/64" = 1'-0"
140
0.015625
141
12.0
290
     0
  0
SCALE
  5
5B
102
{ACAD_REACTORS
330
47
102
}
330
47
100
AcDbScale
 70
     0
300
1/32" = 1'-0"
140
0.03125
141
12.0
290
     0
  0
SCALE
  5
5C
102
{ACAD_REACTORS
330
47
102
}
330
47
100
AcDbScale
 70
     0
300
1/16" = 1'-0"
140
0.0625
141
12.0
290
     0
  0
SCALE
  5
5D
102
{ACAD_REACTORS
330
47
102
}
330
47
100
AcDbScale
 70
     0
300
3/32" = 1'-0"
140
0.09375
141
12.0
290
     0
  0
SCALE
  5
5E
102
{ACAD_REACTORS
330
47
102
}
330
47
100
AcDbScale
 70
     0
300
1/8" = 1'-0"
140
0.125
141
12.0
290
     0
  0
SCALE
  5
5F
102
{ACAD_REACTORS
330
47
102
}
330
47
100
AcDbScale
 70
     0
300
3/16" = 1'-0"
140
0.1875
141
12.0
290
     0
  0
SCALE
  5
60
102
{ACAD_REACTORS
330
47
102
}
330
47
100
AcDbScale
 70
     0
300
1/4" = 1'-0"
140
0.25
141
12.0
290
     0
  0
SCALE
  5
61
102
{ACAD_REACTORS
330
47
102
}
330
47
100
AcDbScale
 70
     0
300
3/8" = 1'-0"
140
0.375
141
12.0
290
     0
  0
SCALE
  5
62
102
{ACAD_REACTORS
330
47
102
}
330
47
100
AcDbScale
 70
     0
300
1/2" = 1'-0"
140
0.5
141
12.0
290
     0
  0
SCALE
  5
63
102
{ACAD_REACTORS
330
47
102
}
330
47
100
AcDbScale
 70
     0
300
3/4" = 1'-0"
140
0.75
141
12.0
290
     0
  0
SCALE
  5
64
102
{ACAD_REACTORS
330
47
102
}
330
47
100
AcDbScale
 70
     0
300
1" = 1'-0"
140
1.0
141
12.0
290
     0
  0
SCALE
  5
65
102
{ACAD_REACTORS
330
47
102
}
330
47
100
AcDbScale
 70
     0
300
1-1/2" = 1'-0"
140
1.5
141
12.0
290
     0
  0
SCALE
  5
66
102
{ACAD_REACTORS
330
47
102
}
330
47
100
AcDbScale
 70
     0
300
3" = 1'-0"
140
3.0
141
12.0
290
     0
  0
SCALE
  5
67
102
{ACAD_REACTORS
330
47
102
}
330
47
100
AcDbScale
 70
     0
300
6" = 1'-0"
140
6.0
141
12.0
290
     0
  0
SCALE
  5
68
102
{ACAD_REACTORS
330
47
102
}
330
47
100
AcDbScale
 70
     0
300
1'-0" = 1'-0"
140
12.0
141
12.0
290
     0
  0
TABLESTYLE
  5
6A
102
{ACAD_REACTORS
330
69
102
}
102
{ACAD_XDICTIONARY
360
3B4
102
}
330
69
100
AcDbTableStyle
  3
Standard
 70
     0
 71
     0
 40
0.06
 41
0.06
280
     0
281
     0
  7
Standard
140
4.5
170
     2
 62
     0
 63
   257
283
     0
 90
        4
 91
        0
  1

274
    -2
284
     1
 64
     0
275
    -2
285
     1
 65
     0
276
    -2
286
     1
 66
     0
277
    -2
287
     1
 67
     0
278
    -2
288
     1
 68
     0
279
    -2
289
     1
 69
     0
  7
Standard
140
6.0
170
     5
 62
     0
 63
   257
283
     0
 90
        4
 91
        0
  1

274
    -2
284
     1
 64
     0
275
    -2
285
     1
 65
     0
276
    -2
286
     1
 66
     0
277
    -2
287
     1
 67
     0
278
    -2
288
     1
 68
     0
279
    -2
289
     1
 69
     0
  7
Standard
140
4.5
170
     5
 62
     0
 63
   257
283
     0
 90
        4
 91
        0
  1

274
    -2
284
     1
 64
     0
275
    -2
285
     1
 65
     0
276
    -2
286
     1
 66
     0
277
    -2
287
     1
 67
     0
278
    -2
288
     1
 68
     0
279
    -2
289
     1
 69
     0
  0
VISUALSTYLE
  5
2F
102
{ACAD_REACTORS
330
2A
102
}
102
{ACAD_XDICTIONARY
360
38C
102
}
330
2A
100
AcDbVisualStyle
  2
2dWireframe
 70
     4
177
     2
291
     0
 71
     0
176
     1
 72
     2
176
     1
 73
     0
176
     1
 90
        0
176
     1
 40
0.6
176
     1
 41
30.0
176
     1
 62
     5
 63
     7
421
 16777215
176
     1
 74
     1
176
     1
 91
        4
176
     1
 64
     7
176
     1
 65
   257
176
     1
 75
     1
176
     1
175
     1
176
     1
 42
1.0
176
     1
 92
        0
176
     1
 66
   257
176
     1
 43
1.0
176
     1
 76
     1
176
     1
 77
     6
176
     1
 78
     2
176
     1
 67
     7
176
     1
 79
     5
176
     1
170
     0
176
     1
171
     0
176
     1
290
     0
176
     1
 93
        1
176
     1
 44
0.0
176
     1
173
     0
176
     1
  0
VISUALSTYLE
  5
32
102
{ACAD_REACTORS
330
2A
102
}
102
{ACAD_XDICTIONARY
360
392
102
}
330
2A
100
AcDbVisualStyle
  2
Basic
 70
     7
177
     2
291
     1
 71
     1
176
     1
 72
     0
176
     1
 73
     1
176
     1
 90
        0
176
     1
 40
0.6
176
     1
 41
30.0
176
     1
 62
     5
 63
     7
421
 16777215
176
     1
 74
     0
176
     1
 91
        4
176
     1
 64
     7
176
     1
 65
   257
176
     1
 75
     1
176
     1
175
     1
176
     1
 42
1.0
176
     1
 92
        8
176
     1
 66
     7
176
     1
 43
1.0
176
     1
 76
     1
176
     1
 77
     6
176
     1
 78
     2
176
     1
 67
     7
176
     1
 79
     5
176
     1
170
     0
176
     1
171
     0
176
     1
290
     0
176
     1
 93
        1
176
     1
 44
0.0
176
     1
173
     0
176
     1
  0
VISUALSTYLE
  5
36
102
{ACAD_REACTORS
330
2A
102
}
102
{ACAD_XDICTIONARY
360
39A
102
}
330
2A
100
AcDbVisualStyle
  2
Brighten
 70
    12
177
     2
291
     1
 71
     2
176
     1
 72
     2
176
     1
 73
     0
176
     1
 90
        0
176
     1
 40
0.6
176
     1
 41
30.0
176
     1
 62
     5
 63
     7
421
 16777215
176
     1
 74
     1
176
     1
 91
        4
176
     1
 64
     7
176
     1
 65
   257
176
     1
 75
     1
176
     1
175
     1
176
     1
 42
1.0
176
     1
 92
        8
176
     1
 66
     7
176
     1
 43
1.0
176
     1
 76
     1
176
     1
 77
     6
176
     1
 78
     2
176
     1
 67
     7
176
     1
 79
     5
176
     1
170
     0
176
     1
171
     0
176
     1
290
     0
176
     1
 93
        1
176
     1
 44
50.0
176
     1
173
     0
176
     1
  0
VISUALSTYLE
  5
3A
102
{ACAD_REACTORS
330
2A
102
}
102
{ACAD_XDICTIONARY
360
3A2
102
}
330
2A
100
AcDbVisualStyle
  2
ColorChange
 70
    16
177
     2
291
     1
 71
     2
176
     1
 72
     2
176
     1
 73
     3
176
     1
 90
        0
176
     1
 40
0.6
176
     1
 41
30.0
176
     1
 62
     5
 63
     8
421
  8421504
176
     1
 74
     1
176
     1
 91
        4
176
     1
 64
     7
176
     1
 65
   257
176
     1
 75
     1
176
     1
175
     1
176
     1
 42
1.0
176
     1
 92
        8
176
     1
 66
     8
424
  8421504
176
     1
 43
1.0
176
     1
 76
     1
176
     1
 77
     6
176
     1
 78
     2
176
     1
 67
     7
176
     1
 79
     5
176
     1
170
     0
176
     1
171
     0
176
     1
290
     0
176
     1
 93
        1
176
     1
 44
0.0
176
     1
173
     0
176
     1
  0
VISUALSTYLE
  5
34
102
{ACAD_REACTORS
330
2A
102
}
102
{ACAD_XDICTIONARY
360
396
102
}
330
2A
100
AcDbVisualStyle
  2
Conceptual
 70
     9
177
     2
291
     0
 71
     3
176
     1
 72
     2
176
     1
 73
     0
176
     1
 90
        0
176
     1
 40
0.6
176
     1
 41
30.0
176
     1
 62
     5
 63
     7
421
 16777215
176
     1
 74
     2
176
     1
 91
        2
176
     1
 64
     7
176
     1
 65
   257
176
     1
 75
     1
176
     1
175
     1
176
     1
 42
179.0
176
     1
 92
        8
176
     1
 66
     7
176
     1
 43
1.0
176
     1
 76
     1
176
     1
 77
     6
176
     1
 78
     2
176
     1
 67
     7
176
     1
 79
     3
176
     1
170
     0
176
     1
171
     0
176
     1
290
     0
176
     1
 93
        1
176
     1
 44
0.0
176
     1
173
     0
176
     1
  0
VISUALSTYLE
  5
35
102
{ACAD_REACTORS
330
2A
102
}
102
{ACAD_XDICTIONARY
360
398
102
}
330
2A
100
AcDbVisualStyle
  2
Dim
 70
    11
177
     2
291
     1
 71
     2
176
     1
 72
     2
176
     1
 73
     0
176
     1
 90
        0
176
     1
 40
0.6
176
     1
 41
30.0
176
     1
 62
     5
 63
     7
421
 16777215
176
     1
 74
     1
176
     1
 91
        4
176
     1
 64
     7
176
     1
 65
   257
176
     1
 75
     1
176
     1
175
     1
176
     1
 42
1.0
176
     1
 92
        8
176
     1
 66
     7
176
     1
 43
1.0
176
     1
 76
     1
176
     1
 77
     6
176
     1
 78
     2
176
     1
 67
     7
176
     1
 79
     5
176
     1
170
     0
176
     1
171
     0
176
     1
290
     0
176
     1
 93
        1
176
     1
 44
-50.0
176
     1
173
     0
176
     1
  0
VISUALSTYLE
  5
3D
102
{ACAD_REACTORS
330
2A
102
}
102
{ACAD_XDICTIONARY
360
3A8
102
}
330
2A
100
AcDbVisualStyle
  2
EdgeColorOff
 70
    22
177
     2
291
     1
 71
     2
176
     0
 72
     2
176
     0
 73
     0
176
     0
 90
        0
176
     0
 40
0.6
176
     0
 41
30.0
176
     0
 62
     5
 63
     7
421
 16777215
176
     0
 74
     1
176
     0
 91
        4
176
     0
 64
     7
176
     0
 65
   257
176
     0
 75
     1
176
     0
175
     1
176
     0
 42
1.0
176
     0
 92
        8
176
     2
 66
     7
176
     0
 43
1.0
176
     0
 76
     1
176
     0
 77
     6
176
     0
 78
     2
176
     0
 67
     7
176
     0
 79
     5
176
     0
170
     0
176
     0
171
     0
176
     0
290
     0
176
     0
 93
        1
176
     0
 44
0.0
176
     0
173
     0
176
     0
  0
VISUALSTYLE
  5
39
102
{ACAD_REACTORS
330
2A
102
}
102
{ACAD_XDICTIONARY
360
3A0
102
}
330
2A
100
AcDbVisualStyle
  2
Facepattern
 70
    15
177
     2
291
     1
 71
     2
176
     1
 72
     2
176
     1
 73
     0
176
     1
 90
        0
176
     1
 40
0.6
176
     1
 41
30.0
176
     1
 62
     5
 63
     7
421
 16777215
176
     1
 74
     1
176
     1
 91
        4
176
     1
 64
     7
176
     1
 65
   257
176
     1
 75
     1
176
     1
175
     1
176
     1
 42
1.0
176
     1
 92
        8
176
     1
 66
     7
176
     1
 43
1.0
176
     1
 76
     1
176
     1
 77
     6
176
     1
 78
     2
176
     1
 67
     7
176
     1
 79
     5
176
     1
170
     0
176
     1
171
     0
176
     1
290
     0
176
     1
 93
        1
176
     1
 44
0.0
176
     1
173
     0
176
     1
  0
VISUALSTYLE
  5
2B
102
{ACAD_REACTORS
330
2A
102
}
102
{ACAD_XDICTIONARY
360
384
102
}
330
2A
100
AcDbVisualStyle
  2
Flat
 70
     0
177
     2
291
     1
 71
     2
176
     1
 72
     1
176
     1
 73
     1
176
     1
 90
        2
176
     1
 40
0.6
176
     1
 41
30.0
176
     1
 62
     5
 63
     7
421
 16777215
176
     1
 74
     0
176
     1
 91
        0
176
     1
 64
     7
176
     1
 65
   257
176
     1
 75
     1
176
     1
175
     1
176
     1
 42
1.0
176
     1
 92
        8
176
     1
 66
     7
176
     1
 43
1.0
176
     1
 76
     1
176
     1
 77
     6
176
     1
 78
     2
176
     1
 67
     7
176
     1
 79
     5
176
     1
170
     0
176
     1
171
     0
176
     1
290
     0
176
     1
 93
       13
176
     1
 44
0.0
176
     1
173
     0
176
     1
  0
VISUALSTYLE
  5
2C
102
{ACAD_REACTORS
330
2A
102
}
102
{ACAD_XDICTIONARY
360
386
102
}
330
2A
100
AcDbVisualStyle
  2
FlatWithEdges
 70
     1
177
     2
291
     1
 71
     2
176
     1
 72
     1
176
     1
 73
     1
176
     1
 90
        2
176
     1
 40
0.6
176
     1
 41
30.0
176
     1
 62
     5
 63
     7
421
 16777215
176
     1
 74
     1
176
     1
 91
        0
176
     1
 64
     7
176
     1
 65
   257
176
     1
 75
     1
176
     1
175
     1
176
     1
 42
1.0
176
     1
 92
        0
176
     1
 66
   257
176
     1
 43
1.0
176
     1
 76
     1
176
     1
 77
     6
176
     1
 78
     2
176
     1
 67
     7
176
     1
 79
     5
176
     1
170
     0
176
     1
171
     0
176
     1
290
     0
176
     1
 93
       13
176
     1
 44
0.0
176
     1
173
     0
176
     1
  0
VISUALSTYLE
  5
2D
102
{ACAD_REACTORS
330
2A
102
}
102
{ACAD_XDICTIONARY
360
388
102
}
330
2A
100
AcDbVisualStyle
  2
Gouraud
 70
     2
177
     2
291
     1
 71
     2
176
     1
 72
     2
176
     1
 73
     1
176
     1
 90
        2
176
     1
 40
0.6
176
     1
 41
30.0
176
     1
 62
     5
 63
     7
421
 16777215
176
     1
 74
     0
176
     1
 91
        0
176
     1
 64
     7
176
     1
 65
   257
176
     1
 75
     1
176
     1
175
     1
176
     1
 42
1.0
176
     1
 92
        0
176
     1
 66
     7
176
     1
 43
1.0
176
     1
 76
     1
176
     1
 77
     6
176
     1
 78
     2
176
     1
 67
     7
176
     1
 79
     5
176
     1
170
     0
176
     1
171
     0
176
     1
290
     0
176
     1
 93
       13
176
     1
 44
0.0
176
     1
173
     0
176
     1
  0
VISUALSTYLE
  5
2E
102
{ACAD_REACTORS
330
2A
102
}
102
{ACAD_XDICTIONARY
360
38A
102
}
330
2A
100
AcDbVisualStyle
  2
GouraudWithEdges
 70
     3
177
     2
291
     1
 71
     2
176
     1
 72
     2
176
     1
 73
     1
176
     1
 90
        2
176
     1
 40
0.6
176
     1
 41
30.0
176
     1
 62
     5
 63
     7
421
 16777215
176
     1
 74
     1
176
     1
 91
        0
176
     1
 64
     7
176
     1
 65
   257
176
     1
 75
     1
176
     1
175
     1
176
     1
 42
1.0
176
     1
 92
        0
176
     1
 66
   257
176
     1
 43
1.0
176
     1
 76
     1
176
     1
 77
     6
176
     1
 78
     2
176
     1
 67
     7
176
     1
 79
     5
176
     1
170
     0
176
     1
171
     0
176
     1
290
     0
176
     1
 93
       13
176
     1
 44
0.0
176
     1
173
     0
176
     1
  0
VISUALSTYLE
  5
31
102
{ACAD_REACTORS
330
2A
102
}
102
{ACAD_XDICTIONARY
360
390
102
}
330
2A
100
AcDbVisualStyle
  2
Hidden
 70
     6
177
     2
291
     0
 71
     1
176
     1
 72
     2
176
     1
 73
     2
176
     1
 90
        0
176
     1
 40
0.6
176
     1
 41
30.0
176
     1
 62
     5
 63
     7
421
 16777215
176
     1
 74
     2
176
     1
 91
        2
176
     1
 64
     7
176
     1
 65
   257
176
     1
 75
     2
176
     1
175
     1
176
     1
 42
40.0
176
     1
 92
        0
176
     1
 66
   257
176
     1
 43
1.0
176
     1
 76
     1
176
     1
 77
     6
176
     1
 78
     2
176
     1
 67
     7
176
     1
 79
     3
176
     1
170
     0
176
     1
171
     0
176
     1
290
     0
176
     1
 93
        1
176
     1
 44
0.0
176
     1
173
     0
176
     1
  0
VISUALSTYLE
  5
3B
102
{ACAD_REACTORS
330
2A
102
}
102
{ACAD_XDICTIONARY
360
3A4
102
}
330
2A
100
AcDbVisualStyle
  2
JitterOff
 70
    20
177
     2
291
     1
 71
     2
176
     0
 72
     2
176
     0
 73
     0
176
     0
 90
        0
176
     0
 40
0.6
176
     0
 41
30.0
176
     0
 62
     5
 63
     7
421
 16777215
176
     0
 74
     1
176
     0
 91
        4
176
     0
 64
     7
176
     0
 65
   257
176
     0
 75
     1
176
     0
175
     1
176
     0
 42
1.0
176
     0
 92
       10
176
     2
 66
     7
176
     0
 43
1.0
176
     0
 76
     1
176
     0
 77
     6
176
     0
 78
     2
176
     0
 67
     7
176
     0
 79
     5
176
     0
170
     0
176
     0
171
     0
176
     0
290
     0
176
     0
 93
        1
176
     0
 44
0.0
176
     0
173
     0
176
     0
  0
VISUALSTYLE
  5
38
102
{ACAD_REACTORS
330
2A
102
}
102
{ACAD_XDICTIONARY
360
39E
102
}
330
2A
100
AcDbVisualStyle
  2
Linepattern
 70
    14
177
     2
291
     1
 71
     2
176
     1
 72
     2
176
     1
 73
     0
176
     1
 90
        0
176
     1
 40
0.6
176
     1
 41
30.0
176
     1
 62
     5
 63
     7
421
 16777215
176
     1
 74
     1
176
     1
 91
        4
176
     1
 64
     7
176
     1
 65
   257
176
     1
 75
     7
176
     1
175
     7
176
     1
 42
1.0
176
     1
 92
        8
176
     1
 66
     7
176
     1
 43
1.0
176
     1
 76
     1
176
     1
 77
     6
176
     1
 78
     2
176
     1
 67
     7
176
     1
 79
     5
176
     1
170
     0
176
     1
171
     0
176
     1
290
     0
176
     1
 93
        1
176
     1
 44
0.0
176
     1
173
     0
176
     1
  0
VISUALSTYLE
  5
3C
102
{ACAD_REACTORS
330
2A
102
}
102
{ACAD_XDICTIONARY
360
3A6
102
}
330
2A
100
AcDbVisualStyle
  2
OverhangOff
 70
    21
177
     2
291
     1
 71
     2
176
     0
 72
     2
176
     0
 73
     0
176
     0
 90
        0
176
     0
 40
0.6
176
     0
 41
30.0
176
     0
 62
     5
 63
     7
421
 16777215
176
     0
 74
     1
176
     0
 91
        4
176
     0
 64
     7
176
     0
 65
   257
176
     0
 75
     1
176
     0
175
     1
176
     0
 42
1.0
176
     0
 92
        9
176
     2
 66
     7
176
     0
 43
1.0
176
     0
 76
     1
176
     0
 77
     6
176
     0
 78
     2
176
     0
 67
     7
176
     0
 79
     5
176
     0
170
     0
176
     0
171
     0
176
     0
290
     0
176
     0
 93
        1
176
     0
 44
0.0
176
     0
173
     0
176
     0
  0
VISUALSTYLE
  5
33
102
{ACAD_REACTORS
330
2A
102
}
102
{ACAD_XDICTIONARY
360
394
102
}
330
2A
100
AcDbVisualStyle
  2
Realistic
 70
     8
177
     2
291
     0
 71
     2
176
     1
 72
     3
176
     1
 73
     0
176
     1
 90
        2
176
     1
 40
0.6
176
     1
 41
30.0
176
     1
 62
     5
 63
     7
421
 16777215
176
     1
 74
     0
176
     1
 91
        0
176
     1
 64
     7
176
     1
 65
   257
176
     1
 75
     1
176
     1
175
     1
176
     1
 42
1.0
176
     1
 92
        8
176
     1
 66
   257
176
     1
 43
1.0
176
     1
 76
     1
176
     1
 77
     6
176
     1
 78
     2
176
     1
 67
     7
176
     1
 79
     3
176
     1
170
     0
176
     1
171
     0
176
     1
290
     0
176
     1
 93
       13
176
     1
 44
0.0
176
     1
173
     0
176
     1
  0
VISUALSTYLE
  5
42
102
{ACAD_REACTORS
330
2A
102
}
102
{ACAD_XDICTIONARY
360
3B2
102
}
330
2A
100
AcDbVisualStyle
  2
Shaded
 70
    27
177
     2
291
     0
 71
     2
176
     1
 72
     2
176
     1
 73
     1
176
     1
 90
        2
176
     1
 40
0.6
176
     1
 41
30.0
176
     1
 62
     5
 63
     7
421
 16777215
176
     1
 74
     0
176
     1
 91
        4
176
     1
 64
     7
176
     1
 65
   257
176
     1
 75
     1
176
     1
175
     1
176
     1
 42
1.0
176
     1
 92
        8
176
     1
 66
   257
176
     1
 43
1.0
176
     1
 76
     1
176
     1
 77
     6
176
     1
 78
     2
176
     1
 67
     8
425
  7895160
176
     1
 79
     3
176
     1
170
     0
176
     1
171
     0
176
     1
290
     0
176
     1
 93
        5
176
     1
 44
0.0
176
     1
173
     0
176
     1
  0
VISUALSTYLE
  5
41
102
{ACAD_REACTORS
330
2A
102
}
102
{ACAD_XDICTIONARY
360
3B0
102
}
330
2A
100
AcDbVisualStyle
  2
Shaded with edges
 70
    26
177
     2
291
     0
 71
     2
176
     1
 72
     2
176
     1
 73
     1
176
     1
 90
        2
176
     1
 40
0.6
176
     1
 41
30.0
176
     1
 62
     5
 63
     7
421
 16777215
176
     1
 74
     1
176
     1
 91
       10
176
     1
 64
     7
176
     1
 65
   257
176
     1
 75
     2
176
     1
175
     1
176
     1
 42
1.0
176
     1
 92
        8
176
     1
 66
   257
176
     1
 43
1.0
176
     1
 76
     1
176
     1
 77
     6
176
     1
 78
     2
176
     1
 67
     7
176
     1
 79
     3
176
     1
170
     0
176
     1
171
     0
176
     1
290
     0
176
     1
 93
        5
176
     1
 44
0.0
176
     1
173
     0
176
     1
  0
VISUALSTYLE
  5
3E
102
{ACAD_REACTORS
330
2A
102
}
102
{ACAD_XDICTIONARY
360
3AA
102
}
330
2A
100
AcDbVisualStyle
  2
Shades of Gray
 70
    23
177
     2
291
     0
 71
     2
176
     1
 72
     2
176
     1
 73
     3
176
     1
 90
        0
176
     1
 40
0.6
176
     1
 41
30.0
176
     1
 62
     5
 63
     7
421
 16777215
176
     1
 74
     2
176
     1
 91
        2
176
     1
 64
     7
176
     1
 65
     7
176
     1
 75
     1
176
     1
175
     1
176
     1
 42
40.0
176
     1
 92
        8
176
     1
 66
     7
176
     1
 43
1.0
176
     1
 76
     1
176
     1
 77
     6
176
     1
 78
     2
176
     1
 67
     7
176
     1
 79
     3
176
     1
170
     0
176
     1
171
     0
176
     1
290
     0
176
     1
 93
        1
176
     1
 44
0.0
176
     1
173
     0
176
     1
  0
VISUALSTYLE
  5
3F
102
{ACAD_REACTORS
330
2A
102
}
102
{ACAD_XDICTIONARY
360
3AC
102
}
330
2A
100
AcDbVisualStyle
  2
Sketchy
 70
    24
177
     2
291
     0
 71
     1
176
     1
 72
     2
176
     1
 73
     2
176
     1
 90
        0
176
     1
 40
0.6
176
     1
 41
30.0
176
     1
 62
     5
 63
     7
421
 16777215
176
     1
 74
     2
176
     1
 91
        2
176
     1
 64
     7
176
     1
 65
     7
176
     1
 75
     1
176
     1
175
     1
176
     1
 42
40.0
176
     1
 92
       11
176
     1
 66
     7
176
     1
 43
1.0
176
     1
 76
     1
176
     1
 77
     6
176
     1
 78
     2
176
     1
 67
     7
176
     1
 79
     6
176
     1
170
     0
176
     1
171
     0
176
     1
290
     0
176
     1
 93
        1
176
     1
 44
0.0
176
     1
173
     0
176
     1
  0
VISUALSTYLE
  5
37
102
{ACAD_REACTORS
330
2A
102
}
102
{ACAD_XDICTIONARY
360
39C
102
}
330
2A
100
AcDbVisualStyle
  2
Thicken
 70
    13
177
     2
291
     1
 71
     2
176
     1
 72
     2
176
     1
 73
     0
176
     1
 90
        0
176
     1
 40
0.6
176
     1
 41
30.0
176
     1
 62
     5
 63
     7
421
 16777215
176
     1
 74
     1
176
     1
 91
        4
176
     1
 64
     7
176
     1
 65
   257
176
     1
 75
     1
176
     1
175
     1
176
     1
 42
1.0
176
     1
 92
       12
176
     1
 66
     7
176
     1
 43
1.0
176
     1
 76
     1
176
     1
 77
     6
176
     1
 78
     2
176
     1
 67
     7
176
     1
 79
     5
176
     1
170
     0
176
     1
171
     0
176
     1
290
     0
176
     1
 93
        1
176
     1
 44
0.0
176
     1
173
     0
176
     1
  0
VISUALSTYLE
  5
30
102
{ACAD_REACTORS
330
2A
102
}
102
{ACAD_XDICTIONARY
360
38E
102
}
330
2A
100
AcDbVisualStyle
  2
Wireframe
 70
     5
177
     2
291
     0
 71
     0
176
     1
 72
     2
176
     1
 73
     0
176
     1
 90
        0
176
     1
 40
0.6
176
     1
 41
30.0
176
     1
 62
     5
 63
     7
421
 16777215
176
     1
 74
     1
176
     1
 91
        4
176
     1
 64
     7
176
     1
 65
   257
176
     1
 75
     1
176
     1
175
     1
176
     1
 42
1.0
176
     1
 92
        0
176
     1
 66
   257
176
     1
 43
1.0
176
     1
 76
     1
176
     1
 77
     6
176
     1
 78
     2
176
     1
 67
     7
176
     1
 79
     3
176
     1
170
     0
176
     1
171
     0
176
     1
290
     0
176
     1
 93
        1
176
     1
 44
0.0
176
     1
173
     0
176
     1
  0
VISUALSTYLE
  5
40
102
{ACAD_REACTORS
330
2A
102
}
102
{ACAD_XDICTIONARY
360
3AE
102
}
330
2A
100
AcDbVisualStyle
  2
X-Ray
 70
    25
177
     2
291
     0
 71
     2
176
     1
 72
     2
176
     1
 73
     1
176
     1
 90
        1
176
     1
 40
0.5
176
     1
 41
30.0
176
     1
 62
     5
 63
     7
421
 16777215
176
     1
 74
     1
176
     1
 91
        0
176
     1
 64
     7
176
     1
 65
   257
176
     1
 75
     1
176
     1
175
     1
176
     1
 42
1.0
176
     1
 92
        8
176
     1
 66
     7
176
     1
 43
1.0
176
     1
 76
     1
176
     1
 77
     6
176
     1
 78
     2
176
     1
 67
     7
176
     1
 79
     3
176
     1
170
     0
176
     1
171
     0
176
     1
290
     0
176
     1
 93
       13
176
     1
 44
0.0
176
     1
173
     0
176
     1
  0
DICTIONARYVAR
  5
383
102
{ACAD_REACTORS
330
382
102
}
330
382
100
DictionaryVariables
280
     0
  1
1:1
  0
DICTIONARYVAR
  5
3B8
102
{ACAD_REACTORS
330
382
102
}
330
382
100
DictionaryVariables
280
     0
  1
Standard
  0
DICTIONARYVAR
  5
3B7
102
{ACAD_REACTORS
330
382
102
}
330
382
100
DictionaryVariables
280
     0
  1
Standard
  0
DICTIONARY
  5
3B4
330
6A
100
AcDbDictionary
280
     1
281
     1
  3
ACAD_ROUNDTRIP_2008_TABLESTYLE_CELLSTYLEMAP
360
3B5
  0
DICTIONARY
  5
38C
330
2F
100
AcDbDictionary
280
     1
281
     1
  3
ACAD_XREC_ROUNDTRIP
360
38D
  0
DICTIONARY
  5
392
330
32
100
AcDbDictionary
280
     1
281
     1
  3
ACAD_XREC_ROUNDTRIP
360
393
  0
DICTIONARY
  5
39A
330
36
100
AcDbDictionary
280
     1
281
     1
  3
ACAD_XREC_ROUNDTRIP
360
39B
  0
DICTIONARY
  5
3A2
330
3A
100
AcDbDictionary
280
     1
281
     1
  3
ACAD_XREC_ROUNDTRIP
360
3A3
  0
DICTIONARY
  5
396
330
34
100
AcDbDictionary
280
     1
281
     1
  3
ACAD_XREC_ROUNDTRIP
360
397
  0
DICTIONARY
  5
398
330
35
100
AcDbDictionary
280
     1
281
     1
  3
ACAD_XREC_ROUNDTRIP
360
399
  0
DICTIONARY
  5
3A8
330
3D
100
AcDbDictionary
280
     1
281
     1
  3
ACAD_XREC_ROUNDTRIP
360
3A9
  0
DICTIONARY
  5
3A0
330
39
100
AcDbDictionary
280
     1
281
     1
  3
ACAD_XREC_ROUNDTRIP
360
3A1
  0
DICTIONARY
  5
384
330
2B
100
AcDbDictionary
280
     1
281
     1
  3
ACAD_XREC_ROUNDTRIP
360
385
  0
DICTIONARY
  5
386
330
2C
100
AcDbDictionary
280
     1
281
     1
  3
ACAD_XREC_ROUNDTRIP
360
387
  0
DICTIONARY
  5
388
330
2D
100
AcDbDictionary
280
     1
281
     1
  3
ACAD_XREC_ROUNDTRIP
360
389
  0
DICTIONARY
  5
38A
330
2E
100
AcDbDictionary
280
     1
281
     1
  3
ACAD_XREC_ROUNDTRIP
360
38B
  0
DICTIONARY
  5
390
330
31
100
AcDbDictionary
280
     1
281
     1
  3
ACAD_XREC_ROUNDTRIP
360
391
  0
DICTIONARY
  5
3A4
330
3B
100
AcDbDictionary
280
     1
281
     1
  3
ACAD_XREC_ROUNDTRIP
360
3A5
  0
DICTIONARY
  5
39E
330
38
100
AcDbDictionary
280
     1
281
     1
  3
ACAD_XREC_ROUNDTRIP
360
39F
  0
DICTIONARY
  5
3A6
330
3C
100
AcDbDictionary
280
     1
281
     1
  3
ACAD_XREC_ROUNDTRIP
360
3A7
  0
DICTIONARY
  5
394
330
33
100
AcDbDictionary
280
     1
281
     1
  3
ACAD_XREC_ROUNDTRIP
360
395
  0
DICTIONARY
  5
3B2
330
42
100
AcDbDictionary
280
     1
281
     1
  3
ACAD_XREC_ROUNDTRIP
360
3B3
  0
DICTIONARY
  5
3B0
330
41
100
AcDbDictionary
280
     1
281
     1
  3
ACAD_XREC_ROUNDTRIP
360
3B1
  0
DICTIONARY
  5
3AA
330
3E
100
AcDbDictionary
280
     1
281
     1
  3
ACAD_XREC_ROUNDTRIP
360
3AB
  0
DICTIONARY
  5
3AC
330
3F
100
AcDbDictionary
280
     1
281
     1
  3
ACAD_XREC_ROUNDTRIP
360
3AD
  0
DICTIONARY
  5
39C
330
37
100
AcDbDictionary
280
     1
281
     1
  3
ACAD_XREC_ROUNDTRIP
360
39D
  0
DICTIONARY
  5
38E
330
30
100
AcDbDictionary
280
     1
281
     1
  3
ACAD_XREC_ROUNDTRIP
360
38F
  0
DICTIONARY
  5
3AE
330
40
100
AcDbDictionary
280
     1
281
     1
  3
ACAD_XREC_ROUNDTRIP
360
3AF
  0
CELLSTYLEMAP
  5
3B5
102
{ACAD_REACTORS
330
3B4
102
}
330
3B4
100
AcDbCellStyleMap
 90
        3
300
CELLSTYLE
  1
TABLEFORMAT_BEGIN
 90
        5
170
     1
 91
        0
 92
    32768
 62
   257
 93
        1
300
CONTENTFORMAT
  1
CONTENTFORMAT_BEGIN
 90
        0
 91
        0
 92
        4
 93
        0
300

 40
0.0
140
1.0
 94
        5
 62
     0
340
11
144
6.0
309
CONTENTFORMAT_END
171
     1
301
MARGIN
  1
CELLMARGIN_BEGIN
 40
1.5
 40
1.5
 40
1.5
 40
1.5
 40
1.5
 40
1.5
309
CELLMARGIN_END
 94
        6
 95
        1
302
GRIDFORMAT
  1
GRIDFORMAT_BEGIN
 90
        0
 91
        1
 62
     0
 92
       -2
340
14
 93
        0
 40
0.045
309
GRIDFORMAT_END
 95
        2
302
GRIDFORMAT
  1
GRIDFORMAT_BEGIN
 90
        0
 91
        1
 62
     0
 92
       -2
340
14
 93
        0
 40
0.045
309
GRIDFORMAT_END
 95
        4
302
GRIDFORMAT
  1
GRIDFORMAT_BEGIN
 90
        0
 91
        1
 62
     0
 92
       -2
340
14
 93
        0
 40
0.045
309
GRIDFORMAT_END
 95
        8
302
GRIDFORMAT
  1
GRIDFORMAT_BEGIN
 90
        0
 91
        1
 62
     0
 92
       -2
340
14
 93
        0
 40
0.045
309
GRIDFORMAT_END
 95
       16
302
GRIDFORMAT
  1
GRIDFORMAT_BEGIN
 90
        0
 91
        1
 62
     0
 92
       -2
340
14
 93
        0
 40
0.045
309
GRIDFORMAT_END
 95
       32
302
GRIDFORMAT
  1
GRIDFORMAT_BEGIN
 90
        0
 91
        1
 62
     0
 92
       -2
340
14
 93
        0
 40
0.045
309
GRIDFORMAT_END
309
TABLEFORMAT_END
  1
CELLSTYLE_BEGIN
 90
        1
 91
        1
300
_TITLE
309
CELLSTYLE_END
300
CELLSTYLE
  1
TABLEFORMAT_BEGIN
 90
        5
170
     1
 91
        0
 92
        0
 62
   257
 93
        1
300
CONTENTFORMAT
  1
CONTENTFORMAT_BEGIN
 90
        0
 91
        0
 92
        4
 93
        0
300

 40
0.0
140
1.0
 94
        5
 62
     0
340
11
144
4.5
309
CONTENTFORMAT_END
171
     1
301
MARGIN
  1
CELLMARGIN_BEGIN
 40
1.5
 40
1.5
 40
1.5
 40
1.5
 40
1.5
 40
1.5
309
CELLMARGIN_END
 94
        6
 95
        1
302
GRIDFORMAT
  1
GRIDFORMAT_BEGIN
 90
        0
 91
        1
 62
     0
 92
       -2
340
14
 93
        0
 40
0.045
309
GRIDFORMAT_END
 95
        2
302
GRIDFORMAT
  1
GRIDFORMAT_BEGIN
 90
        0
 91
        1
 62
     0
 92
       -2
340
14
 93
        0
 40
0.045
309
GRIDFORMAT_END
 95
        4
302
GRIDFORMAT
  1
GRIDFORMAT_BEGIN
 90
        0
 91
        1
 62
     0
 92
       -2
340
14
 93
        0
 40
0.045
309
GRIDFORMAT_END
 95
        8
302
GRIDFORMAT
  1
GRIDFORMAT_BEGIN
 90
        0
 91
        1
 62
     0
 92
       -2
340
14
 93
        0
 40
0.045
309
GRIDFORMAT_END
 95
       16
302
GRIDFORMAT
  1
GRIDFORMAT_BEGIN
 90
        0
 91
        1
 62
     0
 92
       -2
340
14
 93
        0
 40
0.045
309
GRIDFORMAT_END
 95
       32
302
GRIDFORMAT
  1
GRIDFORMAT_BEGIN
 90
        0
 91
        1
 62
     0
 92
       -2
340
14
 93
        0
 40
0.045
309
GRIDFORMAT_END
309
TABLEFORMAT_END
  1
CELLSTYLE_BEGIN
 90
        2
 91
        1
300
_HEADER
309
CELLSTYLE_END
300
CELLSTYLE
  1
TABLEFORMAT_BEGIN
 90
        5
170
     1
 91
        0
 92
        0
 62
   257
 93
        1
300
CONTENTFORMAT
  1
CONTENTFORMAT_BEGIN
 90
        0
 91
        0
 92
        4
 93
        0
300

 40
0.0
140
1.0
 94
        2
 62
     0
340
11
144
4.5
309
CONTENTFORMAT_END
171
     1
301
MARGIN
  1
CELLMARGIN_BEGIN
 40
1.5
 40
1.5
 40
1.5
 40
1.5
 40
1.5
 40
1.5
309
CELLMARGIN_END
 94
        6
 95
        1
302
GRIDFORMAT
  1
GRIDFORMAT_BEGIN
 90
        0
 91
        1
 62
     0
 92
       -2
340
14
 93
        0
 40
0.045
309
GRIDFORMAT_END
 95
        2
302
GRIDFORMAT
  1
GRIDFORMAT_BEGIN
 90
        0
 91
        1
 62
     0
 92
       -2
340
14
 93
        0
 40
0.045
309
GRIDFORMAT_END
 95
        4
302
GRIDFORMAT
  1
GRIDFORMAT_BEGIN
 90
        0
 91
        1
 62
     0
 92
       -2
340
14
 93
        0
 40
0.045
309
GRIDFORMAT_END
 95
        8
302
GRIDFORMAT
  1
GRIDFORMAT_BEGIN
 90
        0
 91
        1
 62
     0
 92
       -2
340
14
 93
        0
 40
0.045
309
GRIDFORMAT_END
 95
       16
302
GRIDFORMAT
  1
GRIDFORMAT_BEGIN
 90
        0
 91
        1
 62
     0
 92
       -2
340
14
 93
        0
 40
0.045
309
GRIDFORMAT_END
 95
       32
302
GRIDFORMAT
  1
GRIDFORMAT_BEGIN
 90
        0
 91
        1
 62
     0
 92
       -2
340
14
 93
        0
 40
0.045
309
GRIDFORMAT_END
309
TABLEFORMAT_END
  1
CELLSTYLE_BEGIN
 90
        3
 91
        2
300
_DATA
309
CELLSTYLE_END
  0
XRECORD
  5
38D
102
{ACAD_REACTORS
330
38C
102
}
330
38C
100
AcDbXrecord
280
     1
102
RTVSPost2010Prop28
280
     1
102
RTVSPost2010PropOp28
 70
     1
102
RTVSPost2010Prop29
280
     1
102
RTVSPost2010PropOp29
 70
     1
102
RTVSPost2010Prop30
280
     0
102
RTVSPost2010PropOp30
 70
     1
102
RTVSPost2010Prop31
280
     0
102
RTVSPost2010PropOp31
 70
     1
102
RTVSPost2010Prop32
280
     0
102
RTVSPost2010PropOp32
 70
     1
102
RTVSPost2010Prop33
280
     0
102
RTVSPost2010PropOp33
 70
     1
102
RTVSPost2010Prop34
280
     0
102
RTVSPost2010PropOp34
 70
     1
102
RTVSPost2010Prop35
280
     0
102
RTVSPost2010PropOp35
 70
     1
102
RTVSPost2010Prop36
280
     0
102
RTVSPost2010PropOp36
 70
     1
102
RTVSPost2010Prop37
 90
       50
102
RTVSPost2010PropOp37
 70
     1
102
RTVSPost2010Prop38
140
0.0
102
RTVSPost2010PropOp38
 70
     1
102
RTVSPost2010Prop39
140
1.0
102
RTVSPost2010PropOp39
 70
     1
102
RTVSPost2010Prop40
 90
        0
102
RTVSPost2010PropOp40
 70
     1
102
RTVSPost2010Prop41ColorIndex
 90
       18
102
RTVSPost2010Prop41ColorRGB
 90
        0
102
RTVSPost2010PropOp41
 70
     1
102
RTVSPost2010Prop42
 90
       50
102
RTVSPost2010PropOp42
 70
     1
102
RTVSPost2010Prop43
 90
        3
102
RTVSPost2010PropOp43
 70
     1
102
RTVSPost2010Prop44ColorIndex
 90
        5
102
RTVSPost2010Prop44ColorRGB
 90
      255
102
RTVSPost2010PropOp44
 70
     1
102
RTVSPost2010Prop45
280
     0
102
RTVSPost2010PropOp45
 70
     1
102
RTVSPost2010Prop46
 90
       50
102
RTVSPost2010PropOp46
 70
     1
102
RTVSPost2010Prop47
 90
       50
102
RTVSPost2010PropOp47
 70
     1
102
RTVSPost2010Prop48
 90
       50
102
RTVSPost2010PropOp48
 70
     1
102
RTVSPost2010Prop49
280
     0
102
RTVSPost2010PropOp49
 70
     1
102
RTVSPost2010Prop50
 90
       50
102
RTVSPost2010PropOp50
 70
     1
102
RTVSPost2010Prop51ColorIndex
 90
      256
102
RTVSPost2010Prop51ColorRGB
 90
-16777216
102
RTVSPost2010PropOp51
 70
     0
102
RTVSPost2010Prop52
140
1.0
102
RTVSPost2010PropOp52
 70
     0
102
RTVSPost2010Prop53
 90
        2
102
RTVSPost2010PropOp53
 70
     1
102
RTVSPost2010Prop54
  1
strokes_ogs.tif
102
RTVSPost2010PropOp54
 70
     1
102
RTVSPost2010Prop55
280
     0
102
RTVSPost2010PropOp55
 70
     1
102
RTVSPost2010Prop56
140
1.0
102
RTVSPost2010PropOp56
 70
     1
102
RTVSPost2010Prop57
140
1.0
102
RTVSPost2010PropOp57
 70
     1
  0
XRECORD
  5
393
102
{ACAD_REACTORS
330
392
102
}
330
392
100
AcDbXrecord
280
     1
102
RTVSPost2010Prop28
280
     0
102
RTVSPost2010PropOp28
 70
     1
102
RTVSPost2010Prop29
280
     1
102
RTVSPost2010PropOp29
 70
     1
102
RTVSPost2010Prop30
280
     1
102
RTVSPost2010PropOp30
 70
     1
102
RTVSPost2010Prop31
280
     0
102
RTVSPost2010PropOp31
 70
     1
102
RTVSPost2010Prop32
280
     0
102
RTVSPost2010PropOp32
 70
     1
102
RTVSPost2010Prop33
280
     0
102
RTVSPost2010PropOp33
 70
     1
102
RTVSPost2010Prop34
280
     0
102
RTVSPost2010PropOp34
 70
     1
102
RTVSPost2010Prop35
280
     0
102
RTVSPost2010PropOp35
 70
     1
102
RTVSPost2010Prop36
280
     0
102
RTVSPost2010PropOp36
 70
     1
102
RTVSPost2010Prop37
 90
       50
102
RTVSPost2010PropOp37
 70
     1
102
RTVSPost2010Prop38
140
0.0
102
RTVSPost2010PropOp38
 70
     1
102
RTVSPost2010Prop39
140
1.0
102
RTVSPost2010PropOp39
 70
     1
102
RTVSPost2010Prop40
 90
        0
102
RTVSPost2010PropOp40
 70
     1
102
RTVSPost2010Prop41ColorIndex
 90
       18
102
RTVSPost2010Prop41ColorRGB
 90
        0
102
RTVSPost2010PropOp41
 70
     1
102
RTVSPost2010Prop42
 90
       50
102
RTVSPost2010PropOp42
 70
     1
102
RTVSPost2010Prop43
 90
        3
102
RTVSPost2010PropOp43
 70
     1
102
RTVSPost2010Prop44ColorIndex
 90
        5
102
RTVSPost2010Prop44ColorRGB
 90
      255
102
RTVSPost2010PropOp44
 70
     1
102
RTVSPost2010Prop45
280
     0
102
RTVSPost2010PropOp45
 70
     1
102
RTVSPost2010Prop46
 90
       50
102
RTVSPost2010PropOp46
 70
     1
102
RTVSPost2010Prop47
 90
       50
102
RTVSPost2010PropOp47
 70
     1
102
RTVSPost2010Prop48
 90
       50
102
RTVSPost2010PropOp48
 70
     1
102
RTVSPost2010Prop49
280
     0
102
RTVSPost2010PropOp49
 70
     1
102
RTVSPost2010Prop50
 90
       50
102
RTVSPost2010PropOp50
 70
     1
102
RTVSPost2010Prop51ColorIndex
 90
      256
102
RTVSPost2010Prop51ColorRGB
 90
-16777216
102
RTVSPost2010PropOp51
 70
     0
102
RTVSPost2010Prop52
140
1.0
102
RTVSPost2010PropOp52
 70
     0
102
RTVSPost2010Prop53
 90
        2
102
RTVSPost2010PropOp53
 70
     1
102
RTVSPost2010Prop54
  1
strokes_ogs.tif
102
RTVSPost2010PropOp54
 70
     1
102
RTVSPost2010Prop55
280
     0
102
RTVSPost2010PropOp55
 70
     1
102
RTVSPost2010Prop56
140
1.0
102
RTVSPost2010PropOp56
 70
     1
102
RTVSPost2010Prop57
140
1.0
102
RTVSPost2010PropOp57
 70
     1
  0
XRECORD
  5
39B
102
{ACAD_REACTORS
330
39A
102
}
330
39A
100
AcDbXrecord
280
     1
102
RTVSPost2010Prop28
280
     0
102
RTVSPost2010PropOp28
 70
     1
102
RTVSPost2010Prop29
280
     1
102
RTVSPost2010PropOp29
 70
     1
102
RTVSPost2010Prop30
280
     1
102
RTVSPost2010PropOp30
 70
     1
102
RTVSPost2010Prop31
280
     0
102
RTVSPost2010PropOp31
 70
     1
102
RTVSPost2010Prop32
280
     0
102
RTVSPost2010PropOp32
 70
     1
102
RTVSPost2010Prop33
280
     0
102
RTVSPost2010PropOp33
 70
     1
102
RTVSPost2010Prop34
280
     0
102
RTVSPost2010PropOp34
 70
     1
102
RTVSPost2010Prop35
280
     0
102
RTVSPost2010PropOp35
 70
     1
102
RTVSPost2010Prop36
280
     0
102
RTVSPost2010PropOp36
 70
     1
102
RTVSPost2010Prop37
 90
       50
102
RTVSPost2010PropOp37
 70
     1
102
RTVSPost2010Prop38
140
0.0
102
RTVSPost2010PropOp38
 70
     1
102
RTVSPost2010Prop39
140
1.0
102
RTVSPost2010PropOp39
 70
     1
102
RTVSPost2010Prop40
 90
        0
102
RTVSPost2010PropOp40
 70
     1
102
RTVSPost2010Prop41ColorIndex
 90
       18
102
RTVSPost2010Prop41ColorRGB
 90
        0
102
RTVSPost2010PropOp41
 70
     1
102
RTVSPost2010Prop42
 90
       50
102
RTVSPost2010PropOp42
 70
     1
102
RTVSPost2010Prop43
 90
        3
102
RTVSPost2010PropOp43
 70
     1
102
RTVSPost2010Prop44ColorIndex
 90
        5
102
RTVSPost2010Prop44ColorRGB
 90
      255
102
RTVSPost2010PropOp44
 70
     1
102
RTVSPost2010Prop45
280
     0
102
RTVSPost2010PropOp45
 70
     1
102
RTVSPost2010Prop46
 90
       50
102
RTVSPost2010PropOp46
 70
     1
102
RTVSPost2010Prop47
 90
       50
102
RTVSPost2010PropOp47
 70
     1
102
RTVSPost2010Prop48
 90
       50
102
RTVSPost2010PropOp48
 70
     1
102
RTVSPost2010Prop49
280
     0
102
RTVSPost2010PropOp49
 70
     1
102
RTVSPost2010Prop50
 90
       50
102
RTVSPost2010PropOp50
 70
     1
102
RTVSPost2010Prop51ColorIndex
 90
      256
102
RTVSPost2010Prop51ColorRGB
 90
-16777216
102
RTVSPost2010PropOp51
 70
     0
102
RTVSPost2010Prop52
140
1.0
102
RTVSPost2010PropOp52
 70
     0
102
RTVSPost2010Prop53
 90
        2
102
RTVSPost2010PropOp53
 70
     1
102
RTVSPost2010Prop54
  1
strokes_ogs.tif
102
RTVSPost2010PropOp54
 70
     1
102
RTVSPost2010Prop55
280
     0
102
RTVSPost2010PropOp55
 70
     1
102
RTVSPost2010Prop56
140
1.0
102
RTVSPost2010PropOp56
 70
     1
102
RTVSPost2010Prop57
140
1.0
102
RTVSPost2010PropOp57
 70
     1
  0
XRECORD
  5
3A3
102
{ACAD_REACTORS
330
3A2
102
}
330
3A2
100
AcDbXrecord
280
     1
102
RTVSPost2010Prop28
280
     0
102
RTVSPost2010PropOp28
 70
     1
102
RTVSPost2010Prop29
280
     1
102
RTVSPost2010PropOp29
 70
     1
102
RTVSPost2010Prop30
280
     1
102
RTVSPost2010PropOp30
 70
     1
102
RTVSPost2010Prop31
280
     0
102
RTVSPost2010PropOp31
 70
     1
102
RTVSPost2010Prop32
280
     0
102
RTVSPost2010PropOp32
 70
     1
102
RTVSPost2010Prop33
280
     0
102
RTVSPost2010PropOp33
 70
     1
102
RTVSPost2010Prop34
280
     0
102
RTVSPost2010PropOp34
 70
     1
102
RTVSPost2010Prop35
280
     0
102
RTVSPost2010PropOp35
 70
     1
102
RTVSPost2010Prop36
280
     0
102
RTVSPost2010PropOp36
 70
     1
102
RTVSPost2010Prop37
 90
       50
102
RTVSPost2010PropOp37
 70
     1
102
RTVSPost2010Prop38
140
0.0
102
RTVSPost2010PropOp38
 70
     1
102
RTVSPost2010Prop39
140
1.0
102
RTVSPost2010PropOp39
 70
     1
102
RTVSPost2010Prop40
 90
        0
102
RTVSPost2010PropOp40
 70
     1
102
RTVSPost2010Prop41ColorIndex
 90
       18
102
RTVSPost2010Prop41ColorRGB
 90
        0
102
RTVSPost2010PropOp41
 70
     1
102
RTVSPost2010Prop42
 90
       50
102
RTVSPost2010PropOp42
 70
     1
102
RTVSPost2010Prop43
 90
        3
102
RTVSPost2010PropOp43
 70
     1
102
RTVSPost2010Prop44ColorIndex
 90
        5
102
RTVSPost2010Prop44ColorRGB
 90
      255
102
RTVSPost2010PropOp44
 70
     1
102
RTVSPost2010Prop45
280
     0
102
RTVSPost2010PropOp45
 70
     1
102
RTVSPost2010Prop46
 90
       50
102
RTVSPost2010PropOp46
 70
     1
102
RTVSPost2010Prop47
 90
       50
102
RTVSPost2010PropOp47
 70
     1
102
RTVSPost2010Prop48
 90
       50
102
RTVSPost2010PropOp48
 70
     1
102
RTVSPost2010Prop49
280
     0
102
RTVSPost2010PropOp49
 70
     1
102
RTVSPost2010Prop50
 90
       50
102
RTVSPost2010PropOp50
 70
     1
102
RTVSPost2010Prop51ColorIndex
 90
      256
102
RTVSPost2010Prop51ColorRGB
 90
-16777216
102
RTVSPost2010PropOp51
 70
     0
102
RTVSPost2010Prop52
140
1.0
102
RTVSPost2010PropOp52
 70
     0
102
RTVSPost2010Prop53
 90
        2
102
RTVSPost2010PropOp53
 70
     1
102
RTVSPost2010Prop54
  1
strokes_ogs.tif
102
RTVSPost2010PropOp54
 70
     1
102
RTVSPost2010Prop55
280
     0
102
RTVSPost2010PropOp55
 70
     1
102
RTVSPost2010Prop56
140
1.0
102
RTVSPost2010PropOp56
 70
     1
102
RTVSPost2010Prop57
140
1.0
102
RTVSPost2010PropOp57
 70
     1
  0
XRECORD
  5
397
102
{ACAD_REACTORS
330
396
102
}
330
396
100
AcDbXrecord
280
     1
102
RTVSPost2010Prop28
280
     0
102
RTVSPost2010PropOp28
 70
     1
102
RTVSPost2010Prop29
280
     1
102
RTVSPost2010PropOp29
 70
     1
102
RTVSPost2010Prop30
280
     1
102
RTVSPost2010PropOp30
 70
     1
102
RTVSPost2010Prop31
280
     0
102
RTVSPost2010PropOp31
 70
     1
102
RTVSPost2010Prop32
280
     0
102
RTVSPost2010PropOp32
 70
     1
102
RTVSPost2010Prop33
280
     0
102
RTVSPost2010PropOp33
 70
     1
102
RTVSPost2010Prop34
280
     0
102
RTVSPost2010PropOp34
 70
     1
102
RTVSPost2010Prop35
280
     0
102
RTVSPost2010PropOp35
 70
     1
102
RTVSPost2010Prop36
280
     0
102
RTVSPost2010PropOp36
 70
     1
102
RTVSPost2010Prop37
 90
       50
102
RTVSPost2010PropOp37
 70
     1
102
RTVSPost2010Prop38
140
0.0
102
RTVSPost2010PropOp38
 70
     1
102
RTVSPost2010Prop39
140
1.0
102
RTVSPost2010PropOp39
 70
     1
102
RTVSPost2010Prop40
 90
        0
102
RTVSPost2010PropOp40
 70
     1
102
RTVSPost2010Prop41ColorIndex
 90
       18
102
RTVSPost2010Prop41ColorRGB
 90
        0
102
RTVSPost2010PropOp41
 70
     1
102
RTVSPost2010Prop42
 90
       50
102
RTVSPost2010PropOp42
 70
     1
102
RTVSPost2010Prop43
 90
        3
102
RTVSPost2010PropOp43
 70
     1
102
RTVSPost2010Prop44ColorIndex
 90
        5
102
RTVSPost2010Prop44ColorRGB
 90
      255
102
RTVSPost2010PropOp44
 70
     1
102
RTVSPost2010Prop45
280
     0
102
RTVSPost2010PropOp45
 70
     1
102
RTVSPost2010Prop46
 90
       50
102
RTVSPost2010PropOp46
 70
     1
102
RTVSPost2010Prop47
 90
       50
102
RTVSPost2010PropOp47
 70
     1
102
RTVSPost2010Prop48
 90
       50
102
RTVSPost2010PropOp48
 70
     1
102
RTVSPost2010Prop49
280
     0
102
RTVSPost2010PropOp49
 70
     1
102
RTVSPost2010Prop50
 90
       50
102
RTVSPost2010PropOp50
 70
     1
102
RTVSPost2010Prop51ColorIndex
 90
      256
102
RTVSPost2010Prop51ColorRGB
 90
-16777216
102
RTVSPost2010PropOp51
 70
     0
102
RTVSPost2010Prop52
140
1.0
102
RTVSPost2010PropOp52
 70
     0
102
RTVSPost2010Prop53
 90
        2
102
RTVSPost2010PropOp53
 70
     1
102
RTVSPost2010Prop54
  1
strokes_ogs.tif
102
RTVSPost2010PropOp54
 70
     1
102
RTVSPost2010Prop55
280
     0
102
RTVSPost2010PropOp55
 70
     1
102
RTVSPost2010Prop56
140
1.0
102
RTVSPost2010PropOp56
 70
     1
102
RTVSPost2010Prop57
140
1.0
102
RTVSPost2010PropOp57
 70
     1
  0
XRECORD
  5
399
102
{ACAD_REACTORS
330
398
102
}
330
398
100
AcDbXrecord
280
     1
102
RTVSPost2010Prop28
280
     0
102
RTVSPost2010PropOp28
 70
     1
102
RTVSPost2010Prop29
280
     1
102
RTVSPost2010PropOp29
 70
     1
102
RTVSPost2010Prop30
280
     1
102
RTVSPost2010PropOp30
 70
     1
102
RTVSPost2010Prop31
280
     0
102
RTVSPost2010PropOp31
 70
     1
102
RTVSPost2010Prop32
280
     0
102
RTVSPost2010PropOp32
 70
     1
102
RTVSPost2010Prop33
280
     0
102
RTVSPost2010PropOp33
 70
     1
102
RTVSPost2010Prop34
280
     0
102
RTVSPost2010PropOp34
 70
     1
102
RTVSPost2010Prop35
280
     0
102
RTVSPost2010PropOp35
 70
     1
102
RTVSPost2010Prop36
280
     0
102
RTVSPost2010PropOp36
 70
     1
102
RTVSPost2010Prop37
 90
       50
102
RTVSPost2010PropOp37
 70
     1
102
RTVSPost2010Prop38
140
0.0
102
RTVSPost2010PropOp38
 70
     1
102
RTVSPost2010Prop39
140
1.0
102
RTVSPost2010PropOp39
 70
     1
102
RTVSPost2010Prop40
 90
        0
102
RTVSPost2010PropOp40
 70
     1
102
RTVSPost2010Prop41ColorIndex
 90
       18
102
RTVSPost2010Prop41ColorRGB
 90
        0
102
RTVSPost2010PropOp41
 70
     1
102
RTVSPost2010Prop42
 90
       50
102
RTVSPost2010PropOp42
 70
     1
102
RTVSPost2010Prop43
 90
        3
102
RTVSPost2010PropOp43
 70
     1
102
RTVSPost2010Prop44ColorIndex
 90
        5
102
RTVSPost2010Prop44ColorRGB
 90
      255
102
RTVSPost2010PropOp44
 70
     1
102
RTVSPost2010Prop45
280
     0
102
RTVSPost2010PropOp45
 70
     1
102
RTVSPost2010Prop46
 90
       50
102
RTVSPost2010PropOp46
 70
     1
102
RTVSPost2010Prop47
 90
       50
102
RTVSPost2010PropOp47
 70
     1
102
RTVSPost2010Prop48
 90
       50
102
RTVSPost2010PropOp48
 70
     1
102
RTVSPost2010Prop49
280
     0
102
RTVSPost2010PropOp49
 70
     1
102
RTVSPost2010Prop50
 90
       50
102
RTVSPost2010PropOp50
 70
     1
102
RTVSPost2010Prop51ColorIndex
 90
      256
102
RTVSPost2010Prop51ColorRGB
 90
-16777216
102
RTVSPost2010PropOp51
 70
     0
102
RTVSPost2010Prop52
140
1.0
102
RTVSPost2010PropOp52
 70
     0
102
RTVSPost2010Prop53
 90
        2
102
RTVSPost2010PropOp53
 70
     1
102
RTVSPost2010Prop54
  1
strokes_ogs.tif
102
RTVSPost2010PropOp54
 70
     1
102
RTVSPost2010Prop55
280
     0
102
RTVSPost2010PropOp55
 70
     1
102
RTVSPost2010Prop56
140
1.0
102
RTVSPost2010PropOp56
 70
     1
102
RTVSPost2010Prop57
140
1.0
102
RTVSPost2010PropOp57
 70
     1
  0
XRECORD
  5
3A9
102
{ACAD_REACTORS
330
3A8
102
}
330
3A8
100
AcDbXrecord
280
     1
102
RTVSPost2010Prop28
280
     0
102
RTVSPost2010PropOp28
 70
     0
102
RTVSPost2010Prop29
280
     1
102
RTVSPost2010PropOp29
 70
     0
102
RTVSPost2010Prop30
280
     1
102
RTVSPost2010PropOp30
 70
     0
102
RTVSPost2010Prop31
280
     0
102
RTVSPost2010PropOp31
 70
     0
102
RTVSPost2010Prop32
280
     0
102
RTVSPost2010PropOp32
 70
     0
102
RTVSPost2010Prop33
280
     0
102
RTVSPost2010PropOp33
 70
     0
102
RTVSPost2010Prop34
280
     0
102
RTVSPost2010PropOp34
 70
     0
102
RTVSPost2010Prop35
280
     0
102
RTVSPost2010PropOp35
 70
     0
102
RTVSPost2010Prop36
280
     0
102
RTVSPost2010PropOp36
 70
     0
102
RTVSPost2010Prop37
 90
       50
102
RTVSPost2010PropOp37
 70
     0
102
RTVSPost2010Prop38
140
0.0
102
RTVSPost2010PropOp38
 70
     0
102
RTVSPost2010Prop39
140
1.0
102
RTVSPost2010PropOp39
 70
     0
102
RTVSPost2010Prop40
 90
        0
102
RTVSPost2010PropOp40
 70
     0
102
RTVSPost2010Prop41ColorIndex
 90
       18
102
RTVSPost2010Prop41ColorRGB
 90
        0
102
RTVSPost2010PropOp41
 70
     0
102
RTVSPost2010Prop42
 90
       50
102
RTVSPost2010PropOp42
 70
     0
102
RTVSPost2010Prop43
 90
        3
102
RTVSPost2010PropOp43
 70
     0
102
RTVSPost2010Prop44ColorIndex
 90
        5
102
RTVSPost2010Prop44ColorRGB
 90
      255
102
RTVSPost2010PropOp44
 70
     0
102
RTVSPost2010Prop45
280
     0
102
RTVSPost2010PropOp45
 70
     0
102
RTVSPost2010Prop46
 90
       50
102
RTVSPost2010PropOp46
 70
     0
102
RTVSPost2010Prop47
 90
       50
102
RTVSPost2010PropOp47
 70
     0
102
RTVSPost2010Prop48
 90
       50
102
RTVSPost2010PropOp48
 70
     0
102
RTVSPost2010Prop49
280
     0
102
RTVSPost2010PropOp49
 70
     0
102
RTVSPost2010Prop50
 90
       50
102
RTVSPost2010PropOp50
 70
     0
102
RTVSPost2010Prop51ColorIndex
 90
      256
102
RTVSPost2010Prop51ColorRGB
 90
-16777216
102
RTVSPost2010PropOp51
 70
     0
102
RTVSPost2010Prop52
140
1.0
102
RTVSPost2010PropOp52
 70
     0
102
RTVSPost2010Prop53
 90
        2
102
RTVSPost2010PropOp53
 70
     0
102
RTVSPost2010Prop54
  1
strokes_ogs.tif
102
RTVSPost2010PropOp54
 70
     0
102
RTVSPost2010Prop55
280
     0
102
RTVSPost2010PropOp55
 70
     0
102
RTVSPost2010Prop56
140
1.0
102
RTVSPost2010PropOp56
 70
     0
102
RTVSPost2010Prop57
140
1.0
102
RTVSPost2010PropOp57
 70
     0
  0
XRECORD
  5
3A1
102
{ACAD_REACTORS
330
3A0
102
}
330
3A0
100
AcDbXrecord
280
     1
102
RTVSPost2010Prop28
280
     0
102
RTVSPost2010PropOp28
 70
     1
102
RTVSPost2010Prop29
280
     1
102
RTVSPost2010PropOp29
 70
     1
102
RTVSPost2010Prop30
280
     1
102
RTVSPost2010PropOp30
 70
     1
102
RTVSPost2010Prop31
280
     0
102
RTVSPost2010PropOp31
 70
     1
102
RTVSPost2010Prop32
280
     0
102
RTVSPost2010PropOp32
 70
     1
102
RTVSPost2010Prop33
280
     0
102
RTVSPost2010PropOp33
 70
     1
102
RTVSPost2010Prop34
280
     0
102
RTVSPost2010PropOp34
 70
     1
102
RTVSPost2010Prop35
280
     0
102
RTVSPost2010PropOp35
 70
     1
102
RTVSPost2010Prop36
280
     0
102
RTVSPost2010PropOp36
 70
     1
102
RTVSPost2010Prop37
 90
       50
102
RTVSPost2010PropOp37
 70
     1
102
RTVSPost2010Prop38
140
0.0
102
RTVSPost2010PropOp38
 70
     1
102
RTVSPost2010Prop39
140
1.0
102
RTVSPost2010PropOp39
 70
     1
102
RTVSPost2010Prop40
 90
        0
102
RTVSPost2010PropOp40
 70
     1
102
RTVSPost2010Prop41ColorIndex
 90
       18
102
RTVSPost2010Prop41ColorRGB
 90
        0
102
RTVSPost2010PropOp41
 70
     1
102
RTVSPost2010Prop42
 90
       50
102
RTVSPost2010PropOp42
 70
     1
102
RTVSPost2010Prop43
 90
        3
102
RTVSPost2010PropOp43
 70
     1
102
RTVSPost2010Prop44ColorIndex
 90
        5
102
RTVSPost2010Prop44ColorRGB
 90
      255
102
RTVSPost2010PropOp44
 70
     1
102
RTVSPost2010Prop45
280
     0
102
RTVSPost2010PropOp45
 70
     1
102
RTVSPost2010Prop46
 90
       50
102
RTVSPost2010PropOp46
 70
     1
102
RTVSPost2010Prop47
 90
       50
102
RTVSPost2010PropOp47
 70
     1
102
RTVSPost2010Prop48
 90
       50
102
RTVSPost2010PropOp48
 70
     1
102
RTVSPost2010Prop49
280
     0
102
RTVSPost2010PropOp49
 70
     1
102
RTVSPost2010Prop50
 90
       50
102
RTVSPost2010PropOp50
 70
     1
102
RTVSPost2010Prop51ColorIndex
 90
      256
102
RTVSPost2010Prop51ColorRGB
 90
-16777216
102
RTVSPost2010PropOp51
 70
     0
102
RTVSPost2010Prop52
140
1.0
102
RTVSPost2010PropOp52
 70
     0
102
RTVSPost2010Prop53
 90
        2
102
RTVSPost2010PropOp53
 70
     1
102
RTVSPost2010Prop54
  1
strokes_ogs.tif
102
RTVSPost2010PropOp54
 70
     1
102
RTVSPost2010Prop55
280
     0
102
RTVSPost2010PropOp55
 70
     1
102
RTVSPost2010Prop56
140
1.0
102
RTVSPost2010PropOp56
 70
     1
102
RTVSPost2010Prop57
140
1.0
102
RTVSPost2010PropOp57
 70
     1
  0
XRECORD
  5
385
102
{ACAD_REACTORS
330
384
102
}
330
384
100
AcDbXrecord
280
     1
102
RTVSPost2010Prop28
280
     0
102
RTVSPost2010PropOp28
 70
     1
102
RTVSPost2010Prop29
280
     1
102
RTVSPost2010PropOp29
 70
     1
102
RTVSPost2010Prop30
280
     1
102
RTVSPost2010PropOp30
 70
     1
102
RTVSPost2010Prop31
280
     0
102
RTVSPost2010PropOp31
 70
     1
102
RTVSPost2010Prop32
280
     0
102
RTVSPost2010PropOp32
 70
     1
102
RTVSPost2010Prop33
280
     0
102
RTVSPost2010PropOp33
 70
     1
102
RTVSPost2010Prop34
280
     0
102
RTVSPost2010PropOp34
 70
     1
102
RTVSPost2010Prop35
280
     0
102
RTVSPost2010PropOp35
 70
     1
102
RTVSPost2010Prop36
280
     0
102
RTVSPost2010PropOp36
 70
     1
102
RTVSPost2010Prop37
 90
       50
102
RTVSPost2010PropOp37
 70
     1
102
RTVSPost2010Prop38
140
0.0
102
RTVSPost2010PropOp38
 70
     1
102
RTVSPost2010Prop39
140
1.0
102
RTVSPost2010PropOp39
 70
     1
102
RTVSPost2010Prop40
 90
        0
102
RTVSPost2010PropOp40
 70
     1
102
RTVSPost2010Prop41ColorIndex
 90
       18
102
RTVSPost2010Prop41ColorRGB
 90
        0
102
RTVSPost2010PropOp41
 70
     1
102
RTVSPost2010Prop42
 90
       50
102
RTVSPost2010PropOp42
 70
     1
102
RTVSPost2010Prop43
 90
        3
102
RTVSPost2010PropOp43
 70
     1
102
RTVSPost2010Prop44ColorIndex
 90
        5
102
RTVSPost2010Prop44ColorRGB
 90
      255
102
RTVSPost2010PropOp44
 70
     1
102
RTVSPost2010Prop45
280
     0
102
RTVSPost2010PropOp45
 70
     1
102
RTVSPost2010Prop46
 90
       50
102
RTVSPost2010PropOp46
 70
     1
102
RTVSPost2010Prop47
 90
       50
102
RTVSPost2010PropOp47
 70
     1
102
RTVSPost2010Prop48
 90
       50
102
RTVSPost2010PropOp48
 70
     1
102
RTVSPost2010Prop49
280
     0
102
RTVSPost2010PropOp49
 70
     1
102
RTVSPost2010Prop50
 90
       50
102
RTVSPost2010PropOp50
 70
     1
102
RTVSPost2010Prop51ColorIndex
 90
      256
102
RTVSPost2010Prop51ColorRGB
 90
-16777216
102
RTVSPost2010PropOp51
 70
     0
102
RTVSPost2010Prop52
140
1.0
102
RTVSPost2010PropOp52
 70
     0
102
RTVSPost2010Prop53
 90
        2
102
RTVSPost2010PropOp53
 70
     1
102
RTVSPost2010Prop54
  1
strokes_ogs.tif
102
RTVSPost2010PropOp54
 70
     1
102
RTVSPost2010Prop55
280
     0
102
RTVSPost2010PropOp55
 70
     1
102
RTVSPost2010Prop56
140
1.0
102
RTVSPost2010PropOp56
 70
     1
102
RTVSPost2010Prop57
140
1.0
102
RTVSPost2010PropOp57
 70
     1
  0
XRECORD
  5
387
102
{ACAD_REACTORS
330
386
102
}
330
386
100
AcDbXrecord
280
     1
102
RTVSPost2010Prop28
280
     0
102
RTVSPost2010PropOp28
 70
     1
102
RTVSPost2010Prop29
280
     1
102
RTVSPost2010PropOp29
 70
     1
102
RTVSPost2010Prop30
280
     1
102
RTVSPost2010PropOp30
 70
     1
102
RTVSPost2010Prop31
280
     0
102
RTVSPost2010PropOp31
 70
     1
102
RTVSPost2010Prop32
280
     0
102
RTVSPost2010PropOp32
 70
     1
102
RTVSPost2010Prop33
280
     0
102
RTVSPost2010PropOp33
 70
     1
102
RTVSPost2010Prop34
280
     0
102
RTVSPost2010PropOp34
 70
     1
102
RTVSPost2010Prop35
280
     0
102
RTVSPost2010PropOp35
 70
     1
102
RTVSPost2010Prop36
280
     0
102
RTVSPost2010PropOp36
 70
     1
102
RTVSPost2010Prop37
 90
       50
102
RTVSPost2010PropOp37
 70
     1
102
RTVSPost2010Prop38
140
0.0
102
RTVSPost2010PropOp38
 70
     1
102
RTVSPost2010Prop39
140
1.0
102
RTVSPost2010PropOp39
 70
     1
102
RTVSPost2010Prop40
 90
        0
102
RTVSPost2010PropOp40
 70
     1
102
RTVSPost2010Prop41ColorIndex
 90
       18
102
RTVSPost2010Prop41ColorRGB
 90
        0
102
RTVSPost2010PropOp41
 70
     1
102
RTVSPost2010Prop42
 90
       50
102
RTVSPost2010PropOp42
 70
     1
102
RTVSPost2010Prop43
 90
        3
102
RTVSPost2010PropOp43
 70
     1
102
RTVSPost2010Prop44ColorIndex
 90
        5
102
RTVSPost2010Prop44ColorRGB
 90
      255
102
RTVSPost2010PropOp44
 70
     1
102
RTVSPost2010Prop45
280
     0
102
RTVSPost2010PropOp45
 70
     1
102
RTVSPost2010Prop46
 90
       50
102
RTVSPost2010PropOp46
 70
     1
102
RTVSPost2010Prop47
 90
       50
102
RTVSPost2010PropOp47
 70
     1
102
RTVSPost2010Prop48
 90
       50
102
RTVSPost2010PropOp48
 70
     1
102
RTVSPost2010Prop49
280
     0
102
RTVSPost2010PropOp49
 70
     1
102
RTVSPost2010Prop50
 90
       50
102
RTVSPost2010PropOp50
 70
     1
102
RTVSPost2010Prop51ColorIndex
 90
      256
102
RTVSPost2010Prop51ColorRGB
 90
-16777216
102
RTVSPost2010PropOp51
 70
     0
102
RTVSPost2010Prop52
140
1.0
102
RTVSPost2010PropOp52
 70
     0
102
RTVSPost2010Prop53
 90
        2
102
RTVSPost2010PropOp53
 70
     1
102
RTVSPost2010Prop54
  1
strokes_ogs.tif
102
RTVSPost2010PropOp54
 70
     1
102
RTVSPost2010Prop55
280
     0
102
RTVSPost2010PropOp55
 70
     1
102
RTVSPost2010Prop56
140
1.0
102
RTVSPost2010PropOp56
 70
     1
102
RTVSPost2010Prop57
140
1.0
102
RTVSPost2010PropOp57
 70
     1
  0
XRECORD
  5
389
102
{ACAD_REACTORS
330
388
102
}
330
388
100
AcDbXrecord
280
     1
102
RTVSPost2010Prop28
280
     0
102
RTVSPost2010PropOp28
 70
     1
102
RTVSPost2010Prop29
280
     1
102
RTVSPost2010PropOp29
 70
     1
102
RTVSPost2010Prop30
280
     1
102
RTVSPost2010PropOp30
 70
     1
102
RTVSPost2010Prop31
280
     0
102
RTVSPost2010PropOp31
 70
     1
102
RTVSPost2010Prop32
280
     0
102
RTVSPost2010PropOp32
 70
     1
102
RTVSPost2010Prop33
280
     0
102
RTVSPost2010PropOp33
 70
     1
102
RTVSPost2010Prop34
280
     0
102
RTVSPost2010PropOp34
 70
     1
102
RTVSPost2010Prop35
280
     0
102
RTVSPost2010PropOp35
 70
     1
102
RTVSPost2010Prop36
280
     0
102
RTVSPost2010PropOp36
 70
     1
102
RTVSPost2010Prop37
 90
       50
102
RTVSPost2010PropOp37
 70
     1
102
RTVSPost2010Prop38
140
0.0
102
RTVSPost2010PropOp38
 70
     1
102
RTVSPost2010Prop39
140
1.0
102
RTVSPost2010PropOp39
 70
     1
102
RTVSPost2010Prop40
 90
        0
102
RTVSPost2010PropOp40
 70
     1
102
RTVSPost2010Prop41ColorIndex
 90
       18
102
RTVSPost2010Prop41ColorRGB
 90
        0
102
RTVSPost2010PropOp41
 70
     1
102
RTVSPost2010Prop42
 90
       50
102
RTVSPost2010PropOp42
 70
     1
102
RTVSPost2010Prop43
 90
        3
102
RTVSPost2010PropOp43
 70
     1
102
RTVSPost2010Prop44ColorIndex
 90
        5
102
RTVSPost2010Prop44ColorRGB
 90
      255
102
RTVSPost2010PropOp44
 70
     1
102
RTVSPost2010Prop45
280
     0
102
RTVSPost2010PropOp45
 70
     1
102
RTVSPost2010Prop46
 90
       50
102
RTVSPost2010PropOp46
 70
     1
102
RTVSPost2010Prop47
 90
       50
102
RTVSPost2010PropOp47
 70
     1
102
RTVSPost2010Prop48
 90
       50
102
RTVSPost2010PropOp48
 70
     1
102
RTVSPost2010Prop49
280
     0
102
RTVSPost2010PropOp49
 70
     1
102
RTVSPost2010Prop50
 90
       50
102
RTVSPost2010PropOp50
 70
     1
102
RTVSPost2010Prop51ColorIndex
 90
      256
102
RTVSPost2010Prop51ColorRGB
 90
-16777216
102
RTVSPost2010PropOp51
 70
     0
102
RTVSPost2010Prop52
140
1.0
102
RTVSPost2010PropOp52
 70
     0
102
RTVSPost2010Prop53
 90
        2
102
RTVSPost2010PropOp53
 70
     1
102
RTVSPost2010Prop54
  1
strokes_ogs.tif
102
RTVSPost2010PropOp54
 70
     1
102
RTVSPost2010Prop55
280
     0
102
RTVSPost2010PropOp55
 70
     1
102
RTVSPost2010Prop56
140
1.0
102
RTVSPost2010PropOp56
 70
     1
102
RTVSPost2010Prop57
140
1.0
102
RTVSPost2010PropOp57
 70
     1
  0
XRECORD
  5
38B
102
{ACAD_REACTORS
330
38A
102
}
330
38A
100
AcDbXrecord
280
     1
102
RTVSPost2010Prop28
280
     0
102
RTVSPost2010PropOp28
 70
     1
102
RTVSPost2010Prop29
280
     1
102
RTVSPost2010PropOp29
 70
     1
102
RTVSPost2010Prop30
280
     1
102
RTVSPost2010PropOp30
 70
     1
102
RTVSPost2010Prop31
280
     0
102
RTVSPost2010PropOp31
 70
     1
102
RTVSPost2010Prop32
280
     0
102
RTVSPost2010PropOp32
 70
     1
102
RTVSPost2010Prop33
280
     0
102
RTVSPost2010PropOp33
 70
     1
102
RTVSPost2010Prop34
280
     0
102
RTVSPost2010PropOp34
 70
     1
102
RTVSPost2010Prop35
280
     0
102
RTVSPost2010PropOp35
 70
     1
102
RTVSPost2010Prop36
280
     0
102
RTVSPost2010PropOp36
 70
     1
102
RTVSPost2010Prop37
 90
       50
102
RTVSPost2010PropOp37
 70
     1
102
RTVSPost2010Prop38
140
0.0
102
RTVSPost2010PropOp38
 70
     1
102
RTVSPost2010Prop39
140
1.0
102
RTVSPost2010PropOp39
 70
     1
102
RTVSPost2010Prop40
 90
        0
102
RTVSPost2010PropOp40
 70
     1
102
RTVSPost2010Prop41ColorIndex
 90
       18
102
RTVSPost2010Prop41ColorRGB
 90
        0
102
RTVSPost2010PropOp41
 70
     1
102
RTVSPost2010Prop42
 90
       50
102
RTVSPost2010PropOp42
 70
     1
102
RTVSPost2010Prop43
 90
        3
102
RTVSPost2010PropOp43
 70
     1
102
RTVSPost2010Prop44ColorIndex
 90
        5
102
RTVSPost2010Prop44ColorRGB
 90
      255
102
RTVSPost2010PropOp44
 70
     1
102
RTVSPost2010Prop45
280
     0
102
RTVSPost2010PropOp45
 70
     1
102
RTVSPost2010Prop46
 90
       50
102
RTVSPost2010PropOp46
 70
     1
102
RTVSPost2010Prop47
 90
       50
102
RTVSPost2010PropOp47
 70
     1
102
RTVSPost2010Prop48
 90
       50
102
RTVSPost2010PropOp48
 70
     1
102
RTVSPost2010Prop49
280
     0
102
RTVSPost2010PropOp49
 70
     1
102
RTVSPost2010Prop50
 90
       50
102
RTVSPost2010PropOp50
 70
     1
102
RTVSPost2010Prop51ColorIndex
 90
      256
102
RTVSPost2010Prop51ColorRGB
 90
-16777216
102
RTVSPost2010PropOp51
 70
     0
102
RTVSPost2010Prop52
140
1.0
102
RTVSPost2010PropOp52
 70
     0
102
RTVSPost2010Prop53
 90
        2
102
RTVSPost2010PropOp53
 70
     1
102
RTVSPost2010Prop54
  1
strokes_ogs.tif
102
RTVSPost2010PropOp54
 70
     1
102
RTVSPost2010Prop55
280
     0
102
RTVSPost2010PropOp55
 70
     1
102
RTVSPost2010Prop56
140
1.0
102
RTVSPost2010PropOp56
 70
     1
102
RTVSPost2010Prop57
140
1.0
102
RTVSPost2010PropOp57
 70
     1
  0
XRECORD
  5
391
102
{ACAD_REACTORS
330
390
102
}
330
390
100
AcDbXrecord
280
     1
102
RTVSPost2010Prop28
280
     0
102
RTVSPost2010PropOp28
 70
     1
102
RTVSPost2010Prop29
280
     1
102
RTVSPost2010PropOp29
 70
     1
102
RTVSPost2010Prop30
280
     1
102
RTVSPost2010PropOp30
 70
     1
102
RTVSPost2010Prop31
280
     0
102
RTVSPost2010PropOp31
 70
     1
102
RTVSPost2010Prop32
280
     0
102
RTVSPost2010PropOp32
 70
     1
102
RTVSPost2010Prop33
280
     0
102
RTVSPost2010PropOp33
 70
     1
102
RTVSPost2010Prop34
280
     0
102
RTVSPost2010PropOp34
 70
     1
102
RTVSPost2010Prop35
280
     0
102
RTVSPost2010PropOp35
 70
     1
102
RTVSPost2010Prop36
280
     0
102
RTVSPost2010PropOp36
 70
     1
102
RTVSPost2010Prop37
 90
       50
102
RTVSPost2010PropOp37
 70
     1
102
RTVSPost2010Prop38
140
0.0
102
RTVSPost2010PropOp38
 70
     1
102
RTVSPost2010Prop39
140
1.0
102
RTVSPost2010PropOp39
 70
     1
102
RTVSPost2010Prop40
 90
        0
102
RTVSPost2010PropOp40
 70
     1
102
RTVSPost2010Prop41ColorIndex
 90
       18
102
RTVSPost2010Prop41ColorRGB
 90
        0
102
RTVSPost2010PropOp41
 70
     1
102
RTVSPost2010Prop42
 90
       50
102
RTVSPost2010PropOp42
 70
     1
102
RTVSPost2010Prop43
 90
        3
102
RTVSPost2010PropOp43
 70
     1
102
RTVSPost2010Prop44ColorIndex
 90
        5
102
RTVSPost2010Prop44ColorRGB
 90
      255
102
RTVSPost2010PropOp44
 70
     1
102
RTVSPost2010Prop45
280
     0
102
RTVSPost2010PropOp45
 70
     1
102
RTVSPost2010Prop46
 90
       50
102
RTVSPost2010PropOp46
 70
     1
102
RTVSPost2010Prop47
 90
       50
102
RTVSPost2010PropOp47
 70
     1
102
RTVSPost2010Prop48
 90
       50
102
RTVSPost2010PropOp48
 70
     1
102
RTVSPost2010Prop49
280
     0
102
RTVSPost2010PropOp49
 70
     1
102
RTVSPost2010Prop50
 90
       50
102
RTVSPost2010PropOp50
 70
     1
102
RTVSPost2010Prop51ColorIndex
 90
      256
102
RTVSPost2010Prop51ColorRGB
 90
-16777216
102
RTVSPost2010PropOp51
 70
     0
102
RTVSPost2010Prop52
140
1.0
102
RTVSPost2010PropOp52
 70
     0
102
RTVSPost2010Prop53
 90
        2
102
RTVSPost2010PropOp53
 70
     1
102
RTVSPost2010Prop54
  1
strokes_ogs.tif
102
RTVSPost2010PropOp54
 70
     1
102
RTVSPost2010Prop55
280
     0
102
RTVSPost2010PropOp55
 70
     1
102
RTVSPost2010Prop56
140
1.0
102
RTVSPost2010PropOp56
 70
     1
102
RTVSPost2010Prop57
140
1.0
102
RTVSPost2010PropOp57
 70
     1
  0
XRECORD
  5
3A5
102
{ACAD_REACTORS
330
3A4
102
}
330
3A4
100
AcDbXrecord
280
     1
102
RTVSPost2010Prop28
280
     0
102
RTVSPost2010PropOp28
 70
     0
102
RTVSPost2010Prop29
280
     1
102
RTVSPost2010PropOp29
 70
     0
102
RTVSPost2010Prop30
280
     1
102
RTVSPost2010PropOp30
 70
     0
102
RTVSPost2010Prop31
280
     0
102
RTVSPost2010PropOp31
 70
     0
102
RTVSPost2010Prop32
280
     0
102
RTVSPost2010PropOp32
 70
     0
102
RTVSPost2010Prop33
280
     0
102
RTVSPost2010PropOp33
 70
     0
102
RTVSPost2010Prop34
280
     0
102
RTVSPost2010PropOp34
 70
     0
102
RTVSPost2010Prop35
280
     0
102
RTVSPost2010PropOp35
 70
     0
102
RTVSPost2010Prop36
280
     0
102
RTVSPost2010PropOp36
 70
     0
102
RTVSPost2010Prop37
 90
       50
102
RTVSPost2010PropOp37
 70
     0
102
RTVSPost2010Prop38
140
0.0
102
RTVSPost2010PropOp38
 70
     0
102
RTVSPost2010Prop39
140
1.0
102
RTVSPost2010PropOp39
 70
     0
102
RTVSPost2010Prop40
 90
        0
102
RTVSPost2010PropOp40
 70
     0
102
RTVSPost2010Prop41ColorIndex
 90
       18
102
RTVSPost2010Prop41ColorRGB
 90
        0
102
RTVSPost2010PropOp41
 70
     0
102
RTVSPost2010Prop42
 90
       50
102
RTVSPost2010PropOp42
 70
     0
102
RTVSPost2010Prop43
 90
        3
102
RTVSPost2010PropOp43
 70
     0
102
RTVSPost2010Prop44ColorIndex
 90
        5
102
RTVSPost2010Prop44ColorRGB
 90
      255
102
RTVSPost2010PropOp44
 70
     0
102
RTVSPost2010Prop45
280
     0
102
RTVSPost2010PropOp45
 70
     0
102
RTVSPost2010Prop46
 90
       50
102
RTVSPost2010PropOp46
 70
     0
102
RTVSPost2010Prop47
 90
       50
102
RTVSPost2010PropOp47
 70
     0
102
RTVSPost2010Prop48
 90
       50
102
RTVSPost2010PropOp48
 70
     0
102
RTVSPost2010Prop49
280
     0
102
RTVSPost2010PropOp49
 70
     0
102
RTVSPost2010Prop50
 90
       50
102
RTVSPost2010PropOp50
 70
     0
102
RTVSPost2010Prop51ColorIndex
 90
      256
102
RTVSPost2010Prop51ColorRGB
 90
-16777216
102
RTVSPost2010PropOp51
 70
     0
102
RTVSPost2010Prop52
140
1.0
102
RTVSPost2010PropOp52
 70
     0
102
RTVSPost2010Prop53
 90
        2
102
RTVSPost2010PropOp53
 70
     0
102
RTVSPost2010Prop54
  1
strokes_ogs.tif
102
RTVSPost2010PropOp54
 70
     0
102
RTVSPost2010Prop55
280
     0
102
RTVSPost2010PropOp55
 70
     0
102
RTVSPost2010Prop56
140
1.0
102
RTVSPost2010PropOp56
 70
     0
102
RTVSPost2010Prop57
140
1.0
102
RTVSPost2010PropOp57
 70
     0
  0
XRECORD
  5
39F
102
{ACAD_REACTORS
330
39E
102
}
330
39E
100
AcDbXrecord
280
     1
102
RTVSPost2010Prop28
280
     0
102
RTVSPost2010PropOp28
 70
     1
102
RTVSPost2010Prop29
280
     1
102
RTVSPost2010PropOp29
 70
     1
102
RTVSPost2010Prop30
280
     1
102
RTVSPost2010PropOp30
 70
     1
102
RTVSPost2010Prop31
280
     0
102
RTVSPost2010PropOp31
 70
     1
102
RTVSPost2010Prop32
280
     0
102
RTVSPost2010PropOp32
 70
     1
102
RTVSPost2010Prop33
280
     0
102
RTVSPost2010PropOp33
 70
     1
102
RTVSPost2010Prop34
280
     0
102
RTVSPost2010PropOp34
 70
     1
102
RTVSPost2010Prop35
280
     0
102
RTVSPost2010PropOp35
 70
     1
102
RTVSPost2010Prop36
280
     0
102
RTVSPost2010PropOp36
 70
     1
102
RTVSPost2010Prop37
 90
       50
102
RTVSPost2010PropOp37
 70
     1
102
RTVSPost2010Prop38
140
0.0
102
RTVSPost2010PropOp38
 70
     1
102
RTVSPost2010Prop39
140
1.0
102
RTVSPost2010PropOp39
 70
     1
102
RTVSPost2010Prop40
 90
        0
102
RTVSPost2010PropOp40
 70
     1
102
RTVSPost2010Prop41ColorIndex
 90
       18
102
RTVSPost2010Prop41ColorRGB
 90
        0
102
RTVSPost2010PropOp41
 70
     1
102
RTVSPost2010Prop42
 90
       50
102
RTVSPost2010PropOp42
 70
     1
102
RTVSPost2010Prop43
 90
        3
102
RTVSPost2010PropOp43
 70
     1
102
RTVSPost2010Prop44ColorIndex
 90
        5
102
RTVSPost2010Prop44ColorRGB
 90
      255
102
RTVSPost2010PropOp44
 70
     1
102
RTVSPost2010Prop45
280
     0
102
RTVSPost2010PropOp45
 70
     1
102
RTVSPost2010Prop46
 90
       50
102
RTVSPost2010PropOp46
 70
     1
102
RTVSPost2010Prop47
 90
       50
102
RTVSPost2010PropOp47
 70
     1
102
RTVSPost2010Prop48
 90
       50
102
RTVSPost2010PropOp48
 70
     1
102
RTVSPost2010Prop49
280
     0
102
RTVSPost2010PropOp49
 70
     1
102
RTVSPost2010Prop50
 90
       50
102
RTVSPost2010PropOp50
 70
     1
102
RTVSPost2010Prop51ColorIndex
 90
      256
102
RTVSPost2010Prop51ColorRGB
 90
-16777216
102
RTVSPost2010PropOp51
 70
     0
102
RTVSPost2010Prop52
140
1.0
102
RTVSPost2010PropOp52
 70
     0
102
RTVSPost2010Prop53
 90
        2
102
RTVSPost2010PropOp53
 70
     1
102
RTVSPost2010Prop54
  1
strokes_ogs.tif
102
RTVSPost2010PropOp54
 70
     1
102
RTVSPost2010Prop55
280
     0
102
RTVSPost2010PropOp55
 70
     1
102
RTVSPost2010Prop56
140
1.0
102
RTVSPost2010PropOp56
 70
     1
102
RTVSPost2010Prop57
140
1.0
102
RTVSPost2010PropOp57
 70
     1
  0
XRECORD
  5
3A7
102
{ACAD_REACTORS
330
3A6
102
}
330
3A6
100
AcDbXrecord
280
     1
102
RTVSPost2010Prop28
280
     0
102
RTVSPost2010PropOp28
 70
     0
102
RTVSPost2010Prop29
280
     1
102
RTVSPost2010PropOp29
 70
     0
102
RTVSPost2010Prop30
280
     1
102
RTVSPost2010PropOp30
 70
     0
102
RTVSPost2010Prop31
280
     0
102
RTVSPost2010PropOp31
 70
     0
102
RTVSPost2010Prop32
280
     0
102
RTVSPost2010PropOp32
 70
     0
102
RTVSPost2010Prop33
280
     0
102
RTVSPost2010PropOp33
 70
     0
102
RTVSPost2010Prop34
280
     0
102
RTVSPost2010PropOp34
 70
     0
102
RTVSPost2010Prop35
280
     0
102
RTVSPost2010PropOp35
 70
     0
102
RTVSPost2010Prop36
280
     0
102
RTVSPost2010PropOp36
 70
     0
102
RTVSPost2010Prop37
 90
       50
102
RTVSPost2010PropOp37
 70
     0
102
RTVSPost2010Prop38
140
0.0
102
RTVSPost2010PropOp38
 70
     0
102
RTVSPost2010Prop39
140
1.0
102
RTVSPost2010PropOp39
 70
     0
102
RTVSPost2010Prop40
 90
        0
102
RTVSPost2010PropOp40
 70
     0
102
RTVSPost2010Prop41ColorIndex
 90
       18
102
RTVSPost2010Prop41ColorRGB
 90
        0
102
RTVSPost2010PropOp41
 70
     0
102
RTVSPost2010Prop42
 90
       50
102
RTVSPost2010PropOp42
 70
     0
102
RTVSPost2010Prop43
 90
        3
102
RTVSPost2010PropOp43
 70
     0
102
RTVSPost2010Prop44ColorIndex
 90
        5
102
RTVSPost2010Prop44ColorRGB
 90
      255
102
RTVSPost2010PropOp44
 70
     0
102
RTVSPost2010Prop45
280
     0
102
RTVSPost2010PropOp45
 70
     0
102
RTVSPost2010Prop46
 90
       50
102
RTVSPost2010PropOp46
 70
     0
102
RTVSPost2010Prop47
 90
       50
102
RTVSPost2010PropOp47
 70
     0
102
RTVSPost2010Prop48
 90
       50
102
RTVSPost2010PropOp48
 70
     0
102
RTVSPost2010Prop49
280
     0
102
RTVSPost2010PropOp49
 70
     0
102
RTVSPost2010Prop50
 90
       50
102
RTVSPost2010PropOp50
 70
     0
102
RTVSPost2010Prop51ColorIndex
 90
      256
102
RTVSPost2010Prop51ColorRGB
 90
-16777216
102
RTVSPost2010PropOp51
 70
     0
102
RTVSPost2010Prop52
140
1.0
102
RTVSPost2010PropOp52
 70
     0
102
RTVSPost2010Prop53
 90
        2
102
RTVSPost2010PropOp53
 70
     0
102
RTVSPost2010Prop54
  1
strokes_ogs.tif
102
RTVSPost2010PropOp54
 70
     0
102
RTVSPost2010Prop55
280
     0
102
RTVSPost2010PropOp55
 70
     0
102
RTVSPost2010Prop56
140
1.0
102
RTVSPost2010PropOp56
 70
     0
102
RTVSPost2010Prop57
140
1.0
102
RTVSPost2010PropOp57
 70
     0
  0
XRECORD
  5
395
102
{ACAD_REACTORS
330
394
102
}
330
394
100
AcDbXrecord
280
     1
102
RTVSPost2010Prop28
280
     0
102
RTVSPost2010PropOp28
 70
     1
102
RTVSPost2010Prop29
280
     1
102
RTVSPost2010PropOp29
 70
     1
102
RTVSPost2010Prop30
280
     1
102
RTVSPost2010PropOp30
 70
     1
102
RTVSPost2010Prop31
280
     0
102
RTVSPost2010PropOp31
 70
     1
102
RTVSPost2010Prop32
280
     0
102
RTVSPost2010PropOp32
 70
     1
102
RTVSPost2010Prop33
280
     0
102
RTVSPost2010PropOp33
 70
     1
102
RTVSPost2010Prop34
280
     0
102
RTVSPost2010PropOp34
 70
     1
102
RTVSPost2010Prop35
280
     0
102
RTVSPost2010PropOp35
 70
     1
102
RTVSPost2010Prop36
280
     0
102
RTVSPost2010PropOp36
 70
     1
102
RTVSPost2010Prop37
 90
       50
102
RTVSPost2010PropOp37
 70
     1
102
RTVSPost2010Prop38
140
0.0
102
RTVSPost2010PropOp38
 70
     1
102
RTVSPost2010Prop39
140
1.0
102
RTVSPost2010PropOp39
 70
     1
102
RTVSPost2010Prop40
 90
        0
102
RTVSPost2010PropOp40
 70
     1
102
RTVSPost2010Prop41ColorIndex
 90
       18
102
RTVSPost2010Prop41ColorRGB
 90
        0
102
RTVSPost2010PropOp41
 70
     1
102
RTVSPost2010Prop42
 90
       50
102
RTVSPost2010PropOp42
 70
     1
102
RTVSPost2010Prop43
 90
        3
102
RTVSPost2010PropOp43
 70
     1
102
RTVSPost2010Prop44ColorIndex
 90
        5
102
RTVSPost2010Prop44ColorRGB
 90
      255
102
RTVSPost2010PropOp44
 70
     1
102
RTVSPost2010Prop45
280
     0
102
RTVSPost2010PropOp45
 70
     1
102
RTVSPost2010Prop46
 90
       50
102
RTVSPost2010PropOp46
 70
     1
102
RTVSPost2010Prop47
 90
       50
102
RTVSPost2010PropOp47
 70
     1
102
RTVSPost2010Prop48
 90
       50
102
RTVSPost2010PropOp48
 70
     1
102
RTVSPost2010Prop49
280
     0
102
RTVSPost2010PropOp49
 70
     1
102
RTVSPost2010Prop50
 90
       50
102
RTVSPost2010PropOp50
 70
     1
102
RTVSPost2010Prop51ColorIndex
 90
      256
102
RTVSPost2010Prop51ColorRGB
 90
-16777216
102
RTVSPost2010PropOp51
 70
     0
102
RTVSPost2010Prop52
140
1.0
102
RTVSPost2010PropOp52
 70
     0
102
RTVSPost2010Prop53
 90
        2
102
RTVSPost2010PropOp53
 70
     1
102
RTVSPost2010Prop54
  1
strokes_ogs.tif
102
RTVSPost2010PropOp54
 70
     1
102
RTVSPost2010Prop55
280
     0
102
RTVSPost2010PropOp55
 70
     1
102
RTVSPost2010Prop56
140
1.0
102
RTVSPost2010PropOp56
 70
     1
102
RTVSPost2010Prop57
140
1.0
102
RTVSPost2010PropOp57
 70
     1
  0
XRECORD
  5
3B3
102
{ACAD_REACTORS
330
3B2
102
}
330
3B2
100
AcDbXrecord
280
     1
102
RTVSPost2010Prop28
280
     0
102
RTVSPost2010PropOp28
 70
     1
102
RTVSPost2010Prop29
280
     1
102
RTVSPost2010PropOp29
 70
     1
102
RTVSPost2010Prop30
280
     1
102
RTVSPost2010PropOp30
 70
     1
102
RTVSPost2010Prop31
280
     0
102
RTVSPost2010PropOp31
 70
     1
102
RTVSPost2010Prop32
280
     0
102
RTVSPost2010PropOp32
 70
     1
102
RTVSPost2010Prop33
280
     0
102
RTVSPost2010PropOp33
 70
     1
102
RTVSPost2010Prop34
280
     0
102
RTVSPost2010PropOp34
 70
     1
102
RTVSPost2010Prop35
280
     0
102
RTVSPost2010PropOp35
 70
     1
102
RTVSPost2010Prop36
280
     0
102
RTVSPost2010PropOp36
 70
     1
102
RTVSPost2010Prop37
 90
       50
102
RTVSPost2010PropOp37
 70
     1
102
RTVSPost2010Prop38
140
0.0
102
RTVSPost2010PropOp38
 70
     1
102
RTVSPost2010Prop39
140
1.0
102
RTVSPost2010PropOp39
 70
     1
102
RTVSPost2010Prop40
 90
        0
102
RTVSPost2010PropOp40
 70
     1
102
RTVSPost2010Prop41ColorIndex
 90
       18
102
RTVSPost2010Prop41ColorRGB
 90
        0
102
RTVSPost2010PropOp41
 70
     1
102
RTVSPost2010Prop42
 90
       50
102
RTVSPost2010PropOp42
 70
     1
102
RTVSPost2010Prop43
 90
        3
102
RTVSPost2010PropOp43
 70
     1
102
RTVSPost2010Prop44ColorIndex
 90
        5
102
RTVSPost2010Prop44ColorRGB
 90
      255
102
RTVSPost2010PropOp44
 70
     1
102
RTVSPost2010Prop45
280
     0
102
RTVSPost2010PropOp45
 70
     1
102
RTVSPost2010Prop46
 90
       50
102
RTVSPost2010PropOp46
 70
     1
102
RTVSPost2010Prop47
 90
       50
102
RTVSPost2010PropOp47
 70
     1
102
RTVSPost2010Prop48
 90
       50
102
RTVSPost2010PropOp48
 70
     1
102
RTVSPost2010Prop49
280
     0
102
RTVSPost2010PropOp49
 70
     1
102
RTVSPost2010Prop50
 90
       50
102
RTVSPost2010PropOp50
 70
     1
102
RTVSPost2010Prop51ColorIndex
 90
      256
102
RTVSPost2010Prop51ColorRGB
 90
-16777216
102
RTVSPost2010PropOp51
 70
     0
102
RTVSPost2010Prop52
140
1.0
102
RTVSPost2010PropOp52
 70
     0
102
RTVSPost2010Prop53
 90
        2
102
RTVSPost2010PropOp53
 70
     1
102
RTVSPost2010Prop54
  1
strokes_ogs.tif
102
RTVSPost2010PropOp54
 70
     1
102
RTVSPost2010Prop55
280
     0
102
RTVSPost2010PropOp55
 70
     1
102
RTVSPost2010Prop56
140
1.0
102
RTVSPost2010PropOp56
 70
     1
102
RTVSPost2010Prop57
140
1.0
102
RTVSPost2010PropOp57
 70
     1
  0
XRECORD
  5
3B1
102
{ACAD_REACTORS
330
3B0
102
}
330
3B0
100
AcDbXrecord
280
     1
102
RTVSPost2010Prop28
280
     0
102
RTVSPost2010PropOp28
 70
     1
102
RTVSPost2010Prop29
280
     1
102
RTVSPost2010PropOp29
 70
     1
102
RTVSPost2010Prop30
280
     1
102
RTVSPost2010PropOp30
 70
     1
102
RTVSPost2010Prop31
280
     0
102
RTVSPost2010PropOp31
 70
     1
102
RTVSPost2010Prop32
280
     0
102
RTVSPost2010PropOp32
 70
     1
102
RTVSPost2010Prop33
280
     0
102
RTVSPost2010PropOp33
 70
     1
102
RTVSPost2010Prop34
280
     0
102
RTVSPost2010PropOp34
 70
     1
102
RTVSPost2010Prop35
280
     0
102
RTVSPost2010PropOp35
 70
     1
102
RTVSPost2010Prop36
280
     0
102
RTVSPost2010PropOp36
 70
     1
102
RTVSPost2010Prop37
 90
       50
102
RTVSPost2010PropOp37
 70
     1
102
RTVSPost2010Prop38
140
0.0
102
RTVSPost2010PropOp38
 70
     1
102
RTVSPost2010Prop39
140
1.0
102
RTVSPost2010PropOp39
 70
     1
102
RTVSPost2010Prop40
 90
        0
102
RTVSPost2010PropOp40
 70
     1
102
RTVSPost2010Prop41ColorIndex
 90
       18
102
RTVSPost2010Prop41ColorRGB
 90
        0
102
RTVSPost2010PropOp41
 70
     1
102
RTVSPost2010Prop42
 90
       50
102
RTVSPost2010PropOp42
 70
     1
102
RTVSPost2010Prop43
 90
        3
102
RTVSPost2010PropOp43
 70
     1
102
RTVSPost2010Prop44ColorIndex
 90
        5
102
RTVSPost2010Prop44ColorRGB
 90
      255
102
RTVSPost2010PropOp44
 70
     1
102
RTVSPost2010Prop45
280
     0
102
RTVSPost2010PropOp45
 70
     1
102
RTVSPost2010Prop46
 90
       50
102
RTVSPost2010PropOp46
 70
     1
102
RTVSPost2010Prop47
 90
       50
102
RTVSPost2010PropOp47
 70
     1
102
RTVSPost2010Prop48
 90
       50
102
RTVSPost2010PropOp48
 70
     1
102
RTVSPost2010Prop49
280
     0
102
RTVSPost2010PropOp49
 70
     1
102
RTVSPost2010Prop50
 90
       50
102
RTVSPost2010PropOp50
 70
     1
102
RTVSPost2010Prop51ColorIndex
 90
      256
102
RTVSPost2010Prop51ColorRGB
 90
-16777216
102
RTVSPost2010PropOp51
 70
     0
102
RTVSPost2010Prop52
140
1.0
102
RTVSPost2010PropOp52
 70
     0
102
RTVSPost2010Prop53
 90
        2
102
RTVSPost2010PropOp53
 70
     1
102
RTVSPost2010Prop54
  1
strokes_ogs.tif
102
RTVSPost2010PropOp54
 70
     1
102
RTVSPost2010Prop55
280
     0
102
RTVSPost2010PropOp55
 70
     1
102
RTVSPost2010Prop56
140
1.0
102
RTVSPost2010PropOp56
 70
     1
102
RTVSPost2010Prop57
140
1.0
102
RTVSPost2010PropOp57
 70
     1
  0
XRECORD
  5
3AB
102
{ACAD_REACTORS
330
3AA
102
}
330
3AA
100
AcDbXrecord
280
     1
102
RTVSPost2010Prop28
280
     0
102
RTVSPost2010PropOp28
 70
     1
102
RTVSPost2010Prop29
280
     1
102
RTVSPost2010PropOp29
 70
     1
102
RTVSPost2010Prop30
280
     1
102
RTVSPost2010PropOp30
 70
     1
102
RTVSPost2010Prop31
280
     0
102
RTVSPost2010PropOp31
 70
     1
102
RTVSPost2010Prop32
280
     0
102
RTVSPost2010PropOp32
 70
     1
102
RTVSPost2010Prop33
280
     0
102
RTVSPost2010PropOp33
 70
     1
102
RTVSPost2010Prop34
280
     0
102
RTVSPost2010PropOp34
 70
     1
102
RTVSPost2010Prop35
280
     0
102
RTVSPost2010PropOp35
 70
     1
102
RTVSPost2010Prop36
280
     0
102
RTVSPost2010PropOp36
 70
     1
102
RTVSPost2010Prop37
 90
       50
102
RTVSPost2010PropOp37
 70
     1
102
RTVSPost2010Prop38
140
0.0
102
RTVSPost2010PropOp38
 70
     1
102
RTVSPost2010Prop39
140
1.0
102
RTVSPost2010PropOp39
 70
     1
102
RTVSPost2010Prop40
 90
        0
102
RTVSPost2010PropOp40
 70
     1
102
RTVSPost2010Prop41ColorIndex
 90
       18
102
RTVSPost2010Prop41ColorRGB
 90
        0
102
RTVSPost2010PropOp41
 70
     1
102
RTVSPost2010Prop42
 90
       50
102
RTVSPost2010PropOp42
 70
     1
102
RTVSPost2010Prop43
 90
        3
102
RTVSPost2010PropOp43
 70
     1
102
RTVSPost2010Prop44ColorIndex
 90
        5
102
RTVSPost2010Prop44ColorRGB
 90
      255
102
RTVSPost2010PropOp44
 70
     1
102
RTVSPost2010Prop45
280
     0
102
RTVSPost2010PropOp45
 70
     1
102
RTVSPost2010Prop46
 90
       50
102
RTVSPost2010PropOp46
 70
     1
102
RTVSPost2010Prop47
 90
       50
102
RTVSPost2010PropOp47
 70
     1
102
RTVSPost2010Prop48
 90
       50
102
RTVSPost2010PropOp48
 70
     1
102
RTVSPost2010Prop49
280
     0
102
RTVSPost2010PropOp49
 70
     1
102
RTVSPost2010Prop50
 90
       50
102
RTVSPost2010PropOp50
 70
     1
102
RTVSPost2010Prop51ColorIndex
 90
      256
102
RTVSPost2010Prop51ColorRGB
 90
-16777216
102
RTVSPost2010PropOp51
 70
     0
102
RTVSPost2010Prop52
140
1.0
102
RTVSPost2010PropOp52
 70
     0
102
RTVSPost2010Prop53
 90
        2
102
RTVSPost2010PropOp53
 70
     1
102
RTVSPost2010Prop54
  1
strokes_ogs.tif
102
RTVSPost2010PropOp54
 70
     1
102
RTVSPost2010Prop55
280
     0
102
RTVSPost2010PropOp55
 70
     1
102
RTVSPost2010Prop56
140
1.0
102
RTVSPost2010PropOp56
 70
     1
102
RTVSPost2010Prop57
140
1.0
102
RTVSPost2010PropOp57
 70
     1
  0
XRECORD
  5
3AD
102
{ACAD_REACTORS
330
3AC
102
}
330
3AC
100
AcDbXrecord
280
     1
102
RTVSPost2010Prop28
280
     0
102
RTVSPost2010PropOp28
 70
     1
102
RTVSPost2010Prop29
280
     1
102
RTVSPost2010PropOp29
 70
     1
102
RTVSPost2010Prop30
280
     1
102
RTVSPost2010PropOp30
 70
     1
102
RTVSPost2010Prop31
280
     0
102
RTVSPost2010PropOp31
 70
     1
102
RTVSPost2010Prop32
280
     0
102
RTVSPost2010PropOp32
 70
     1
102
RTVSPost2010Prop33
280
     0
102
RTVSPost2010PropOp33
 70
     1
102
RTVSPost2010Prop34
280
     0
102
RTVSPost2010PropOp34
 70
     1
102
RTVSPost2010Prop35
280
     0
102
RTVSPost2010PropOp35
 70
     1
102
RTVSPost2010Prop36
280
     0
102
RTVSPost2010PropOp36
 70
     1
102
RTVSPost2010Prop37
 90
       50
102
RTVSPost2010PropOp37
 70
     1
102
RTVSPost2010Prop38
140
0.0
102
RTVSPost2010PropOp38
 70
     1
102
RTVSPost2010Prop39
140
1.0
102
RTVSPost2010PropOp39
 70
     1
102
RTVSPost2010Prop40
 90
        0
102
RTVSPost2010PropOp40
 70
     1
102
RTVSPost2010Prop41ColorIndex
 90
       18
102
RTVSPost2010Prop41ColorRGB
 90
        0
102
RTVSPost2010PropOp41
 70
     1
102
RTVSPost2010Prop42
 90
       50
102
RTVSPost2010PropOp42
 70
     1
102
RTVSPost2010Prop43
 90
        3
102
RTVSPost2010PropOp43
 70
     1
102
RTVSPost2010Prop44ColorIndex
 90
        5
102
RTVSPost2010Prop44ColorRGB
 90
      255
102
RTVSPost2010PropOp44
 70
     1
102
RTVSPost2010Prop45
280
     0
102
RTVSPost2010PropOp45
 70
     1
102
RTVSPost2010Prop46
 90
       50
102
RTVSPost2010PropOp46
 70
     1
102
RTVSPost2010Prop47
 90
       50
102
RTVSPost2010PropOp47
 70
     1
102
RTVSPost2010Prop48
 90
       50
102
RTVSPost2010PropOp48
 70
     1
102
RTVSPost2010Prop49
280
     0
102
RTVSPost2010PropOp49
 70
     1
102
RTVSPost2010Prop50
 90
       50
102
RTVSPost2010PropOp50
 70
     1
102
RTVSPost2010Prop51ColorIndex
 90
      256
102
RTVSPost2010Prop51ColorRGB
 90
-16777216
102
RTVSPost2010PropOp51
 70
     0
102
RTVSPost2010Prop52
140
1.0
102
RTVSPost2010PropOp52
 70
     0
102
RTVSPost2010Prop53
 90
        2
102
RTVSPost2010PropOp53
 70
     1
102
RTVSPost2010Prop54
  1
strokes_ogs.tif
102
RTVSPost2010PropOp54
 70
     1
102
RTVSPost2010Prop55
280
     0
102
RTVSPost2010PropOp55
 70
     1
102
RTVSPost2010Prop56
140
1.0
102
RTVSPost2010PropOp56
 70
     1
102
RTVSPost2010Prop57
140
1.0
102
RTVSPost2010PropOp57
 70
     1
  0
XRECORD
  5
39D
102
{ACAD_REACTORS
330
39C
102
}
330
39C
100
AcDbXrecord
280
     1
102
RTVSPost2010Prop28
280
     0
102
RTVSPost2010PropOp28
 70
     1
102
RTVSPost2010Prop29
280
     1
102
RTVSPost2010PropOp29
 70
     1
102
RTVSPost2010Prop30
280
     1
102
RTVSPost2010PropOp30
 70
     1
102
RTVSPost2010Prop31
280
     0
102
RTVSPost2010PropOp31
 70
     1
102
RTVSPost2010Prop32
280
     0
102
RTVSPost2010PropOp32
 70
     1
102
RTVSPost2010Prop33
280
     0
102
RTVSPost2010PropOp33
 70
     1
102
RTVSPost2010Prop34
280
     0
102
RTVSPost2010PropOp34
 70
     1
102
RTVSPost2010Prop35
280
     0
102
RTVSPost2010PropOp35
 70
     1
102
RTVSPost2010Prop36
280
     0
102
RTVSPost2010PropOp36
 70
     1
102
RTVSPost2010Prop37
 90
       50
102
RTVSPost2010PropOp37
 70
     1
102
RTVSPost2010Prop38
140
0.0
102
RTVSPost2010PropOp38
 70
     1
102
RTVSPost2010Prop39
140
1.0
102
RTVSPost2010PropOp39
 70
     1
102
RTVSPost2010Prop40
 90
        0
102
RTVSPost2010PropOp40
 70
     1
102
RTVSPost2010Prop41ColorIndex
 90
       18
102
RTVSPost2010Prop41ColorRGB
 90
        0
102
RTVSPost2010PropOp41
 70
     1
102
RTVSPost2010Prop42
 90
       50
102
RTVSPost2010PropOp42
 70
     1
102
RTVSPost2010Prop43
 90
        3
102
RTVSPost2010PropOp43
 70
     1
102
RTVSPost2010Prop44ColorIndex
 90
        5
102
RTVSPost2010Prop44ColorRGB
 90
      255
102
RTVSPost2010PropOp44
 70
     1
102
RTVSPost2010Prop45
280
     0
102
RTVSPost2010PropOp45
 70
     1
102
RTVSPost2010Prop46
 90
       50
102
RTVSPost2010PropOp46
 70
     1
102
RTVSPost2010Prop47
 90
       50
102
RTVSPost2010PropOp47
 70
     1
102
RTVSPost2010Prop48
 90
       50
102
RTVSPost2010PropOp48
 70
     1
102
RTVSPost2010Prop49
280
     0
102
RTVSPost2010PropOp49
 70
     1
102
RTVSPost2010Prop50
 90
       50
102
RTVSPost2010PropOp50
 70
     1
102
RTVSPost2010Prop51ColorIndex
 90
      256
102
RTVSPost2010Prop51ColorRGB
 90
-16777216
102
RTVSPost2010PropOp51
 70
     0
102
RTVSPost2010Prop52
140
1.0
102
RTVSPost2010PropOp52
 70
     0
102
RTVSPost2010Prop53
 90
        2
102
RTVSPost2010PropOp53
 70
     1
102
RTVSPost2010Prop54
  1
strokes_ogs.tif
102
RTVSPost2010PropOp54
 70
     1
102
RTVSPost2010Prop55
280
     0
102
RTVSPost2010PropOp55
 70
     1
102
RTVSPost2010Prop56
140
1.0
102
RTVSPost2010PropOp56
 70
     1
102
RTVSPost2010Prop57
140
1.0
102
RTVSPost2010PropOp57
 70
     1
  0
XRECORD
  5
38F
102
{ACAD_REACTORS
330
38E
102
}
330
38E
100
AcDbXrecord
280
     1
102
RTVSPost2010Prop28
280
     0
102
RTVSPost2010PropOp28
 70
     1
102
RTVSPost2010Prop29
280
     1
102
RTVSPost2010PropOp29
 70
     1
102
RTVSPost2010Prop30
280
     1
102
RTVSPost2010PropOp30
 70
     1
102
RTVSPost2010Prop31
280
     0
102
RTVSPost2010PropOp31
 70
     1
102
RTVSPost2010Prop32
280
     0
102
RTVSPost2010PropOp32
 70
     1
102
RTVSPost2010Prop33
280
     0
102
RTVSPost2010PropOp33
 70
     1
102
RTVSPost2010Prop34
280
     0
102
RTVSPost2010PropOp34
 70
     1
102
RTVSPost2010Prop35
280
     0
102
RTVSPost2010PropOp35
 70
     1
102
RTVSPost2010Prop36
280
     0
102
RTVSPost2010PropOp36
 70
     1
102
RTVSPost2010Prop37
 90
       50
102
RTVSPost2010PropOp37
 70
     1
102
RTVSPost2010Prop38
140
0.0
102
RTVSPost2010PropOp38
 70
     1
102
RTVSPost2010Prop39
140
1.0
102
RTVSPost2010PropOp39
 70
     1
102
RTVSPost2010Prop40
 90
        0
102
RTVSPost2010PropOp40
 70
     1
102
RTVSPost2010Prop41ColorIndex
 90
       18
102
RTVSPost2010Prop41ColorRGB
 90
        0
102
RTVSPost2010PropOp41
 70
     1
102
RTVSPost2010Prop42
 90
       50
102
RTVSPost2010PropOp42
 70
     1
102
RTVSPost2010Prop43
 90
        3
102
RTVSPost2010PropOp43
 70
     1
102
RTVSPost2010Prop44ColorIndex
 90
        5
102
RTVSPost2010Prop44ColorRGB
 90
      255
102
RTVSPost2010PropOp44
 70
     1
102
RTVSPost2010Prop45
280
     0
102
RTVSPost2010PropOp45
 70
     1
102
RTVSPost2010Prop46
 90
       50
102
RTVSPost2010PropOp46
 70
     1
102
RTVSPost2010Prop47
 90
       50
102
RTVSPost2010PropOp47
 70
     1
102
RTVSPost2010Prop48
 90
       50
102
RTVSPost2010PropOp48
 70
     1
102
RTVSPost2010Prop49
280
     0
102
RTVSPost2010PropOp49
 70
     1
102
RTVSPost2010Prop50
 90
       50
102
RTVSPost2010PropOp50
 70
     1
102
RTVSPost2010Prop51ColorIndex
 90
      256
102
RTVSPost2010Prop51ColorRGB
 90
-16777216
102
RTVSPost2010PropOp51
 70
     0
102
RTVSPost2010Prop52
140
1.0
102
RTVSPost2010PropOp52
 70
     0
102
RTVSPost2010Prop53
 90
        2
102
RTVSPost2010PropOp53
 70
     1
102
RTVSPost2010Prop54
  1
strokes_ogs.tif
102
RTVSPost2010PropOp54
 70
     1
102
RTVSPost2010Prop55
280
     0
102
RTVSPost2010PropOp55
 70
     1
102
RTVSPost2010Prop56
140
1.0
102
RTVSPost2010PropOp56
 70
     1
102
RTVSPost2010Prop57
140
1.0
102
RTVSPost2010PropOp57
 70
     1
  0
XRECORD
  5
3AF
102
{ACAD_REACTORS
330
3AE
102
}
330
3AE
100
AcDbXrecord
280
     1
102
RTVSPost2010Prop28
280
     0
102
RTVSPost2010PropOp28
 70
     1
102
RTVSPost2010Prop29
280
     1
102
RTVSPost2010PropOp29
 70
     1
102
RTVSPost2010Prop30
280
     1
102
RTVSPost2010PropOp30
 70
     1
102
RTVSPost2010Prop31
280
     0
102
RTVSPost2010PropOp31
 70
     1
102
RTVSPost2010Prop32
280
     0
102
RTVSPost2010PropOp32
 70
     1
102
RTVSPost2010Prop33
280
     0
102
RTVSPost2010PropOp33
 70
     1
102
RTVSPost2010Prop34
280
     0
102
RTVSPost2010PropOp34
 70
     1
102
RTVSPost2010Prop35
280
     0
102
RTVSPost2010PropOp35
 70
     1
102
RTVSPost2010Prop36
280
     0
102
RTVSPost2010PropOp36
 70
     1
102
RTVSPost2010Prop37
 90
       50
102
RTVSPost2010PropOp37
 70
     1
102
RTVSPost2010Prop38
140
0.0
102
RTVSPost2010PropOp38
 70
     1
102
RTVSPost2010Prop39
140
1.0
102
RTVSPost2010PropOp39
 70
     1
102
RTVSPost2010Prop40
 90
        0
102
RTVSPost2010PropOp40
 70
     1
102
RTVSPost2010Prop41ColorIndex
 90
       18
102
RTVSPost2010Prop41ColorRGB
 90
        0
102
RTVSPost2010PropOp41
 70
     1
102
RTVSPost2010Prop42
 90
       50
102
RTVSPost2010PropOp42
 70
     1
102
RTVSPost2010Prop43
 90
        3
102
RTVSPost2010PropOp43
 70
     1
102
RTVSPost2010Prop44ColorIndex
 90
        5
102
RTVSPost2010Prop44ColorRGB
 90
      255
102
RTVSPost2010PropOp44
 70
     1
102
RTVSPost2010Prop45
280
     0
102
RTVSPost2010PropOp45
 70
     1
102
RTVSPost2010Prop46
 90
       50
102
RTVSPost2010PropOp46
 70
     1
102
RTVSPost2010Prop47
 90
       50
102
RTVSPost2010PropOp47
 70
     1
102
RTVSPost2010Prop48
 90
       50
102
RTVSPost2010PropOp48
 70
     1
102
RTVSPost2010Prop49
280
     0
102
RTVSPost2010PropOp49
 70
     1
102
RTVSPost2010Prop50
 90
       50
102
RTVSPost2010PropOp50
 70
     1
102
RTVSPost2010Prop51ColorIndex
 90
      256
102
RTVSPost2010Prop51ColorRGB
 90
-16777216
102
RTVSPost2010PropOp51
 70
     0
102
RTVSPost2010Prop52
140
1.0
102
RTVSPost2010PropOp52
 70
     0
102
RTVSPost2010Prop53
 90
        2
102
RTVSPost2010PropOp53
 70
     1
102
RTVSPost2010Prop54
  1
strokes_ogs.tif
102
RTVSPost2010PropOp54
 70
     1
102
RTVSPost2010Prop55
280
     0
102
RTVSPost2010PropOp55
 70
     1
102
RTVSPost2010Prop56
140
1.0
102
RTVSPost2010PropOp56
 70
     1
102
RTVSPost2010Prop57
140
1.0
102
RTVSPost2010PropOp57
 70
     1
  0
ENDSEC
  0
EOF
