  0
SECTION
  2
HEADER
  9
$ACADVER
  1
AC1024
  9
$ACADMAINTVER
 70
     6
  9
$DWGCODEPAGE
  3
ANSI_1252
  9
$INSBASE
 10
0.0
 20
0.0
 30
0.0
  9
$EXTMIN
 10
1.000000E+20
 20
1.000000E+20
 30
1.000000E+20
  9
$EXTMAX
 10
-1.000000E+20
 20
-1.000000E+20
 30
-1.000000E+20
  9
$LIMMIN
 10
0.0
 20
0.0
  9
$LIMMAX
 10
420.0
 20
297.0
  9
$ORTHOMODE
 70
     0
  9
$REGENMODE
 70
     1
  9
$FILLMODE
 70
     1
  9
$QTEXTMODE
 70
     0
  9
$MIRRTEXT
 70
     1
  9
$LTSCALE
 40
1.0
  9
$ATTMODE
 70
     1
  9
$TEXTSIZE
 40
2.5
  9
$TRACEWID
 40
1.0
  9
$TEXTSTYLE
  7
Standard
  9
$CLAYER
  8
0
  9
$CELTYPE
  6
ByLayer
  9
$CECOLOR
 62
   256
  9
$CELTSCALE
 40
1.0
  9
$DISPSILH
 70
     0
  9
$DIMSCALE
 40
1.0
  9
$DIMASZ
 40
2.5
  9
$DIMEXO
 40
0.625
  9
$DIMDLI
 40
3.75
  9
$DIMRND
 40
0.0
  9
$DIMDLE
 40
0.0
  9
$DIMEXE
 40
1.25
  9
$DIMTP
 40
0.0
  9
$DIMTM
 40
0.0
  9
$DIMTXT
 40
2.5
  9
$DIMCEN
 40
2.5
  9
$DIMTSZ
 40
0.0
  9
$DIMTOL
 70
     0
  9
$DIMLIM
 70
     0
  9
$DIMTIH
 70
     0
  9
$DIMTOH
 70
     0
  9
$DIMSE1
 70
     0
  9
$DIMSE2
 70
     0
  9
$DIMTAD
 70
     1
  9
$DIMZIN
 70
     8
  9
$DIMBLK
  1

  9
$DIMASO
 70
     1
  9
$DIMSHO
 70
     1
  9
$DIMPOST
  1

  9
$DIMAPOST
  1

  9
$DIMALT
 70
     0
  9
$DIMALTD
 70
     3
  9
$DIMALTF
 40
0.03937
  9
$DIMLFAC
 40
1.0
  9
$DIMTOFL
 70
     1
  9
$DIMTVP
 40
0.0
  9
$DIMTIX
 70
     0
  9
$DIMSOXD
 70
     0
  9
$DIMSAH
 70
     0
  9
$DIMBLK1
  1

  9
$DIMBLK2
  1

  9
$DIMSTYLE
  2
ISO-25
  9
$DIMCLRD
 70
     0
  9
$DIMCLRE
 70
     0
  9
$DIMCLRT
 70
     0
  9
$DIMTFAC
 40
1.0
  9
$DIMGAP
 40
0.625
  9
$DIMJUST
 70
     0
  9
$DIMSD1
 70
     0
  9
$DIMSD2
 70
     0
  9
$DIMTOLJ
 70
     0
  9
$DIMTZIN
 70
     8
  9
$DIMALTZ
 70
     0
  9
$DIMALTTZ
 70
     0
  9
$DIMUPT
 70
     0
  9
$DIMDEC
 70
     2
  9
$DIMTDEC
 70
     2
  9
$DIMALTU
 70
     2
  9
$DIMALTTD
 70
     3
  9
$DIMTXSTY
  7
Standard
  9
$DIMAUNIT
 70
     0
  9
$DIMADEC
 70
     0
  9
$DIMALTRND
 40
0.0
  9
$DIMAZIN
 70
     0
  9
$DIMDSEP
 70
    44
  9
$DIMATFIT
 70
     3
  9
$DIMFRAC
 70
     0
  9
$DIMLDRBLK
  1

  9
$DIMLUNIT
 70
     2
  9
$DIMLWD
 70
    -2
  9
$DIMLWE
 70
    -2
  9
$DIMTMOVE
 70
     0
  9
$DIMFXL
 40
1.0
  9
$DIMFXLON
 70
     0
  9
$DIMJOGANG
 40
0.785398
  9
$DIMTFILL
 70
     0
  9
$DIMTFILLCLR
 70
     0
  9
$DIMARCSYM
 70
     0
  9
$DIMLTYPE
  6

  9
$DIMLTEX1
  6

  9
$DIMLTEX2
  6

  9
$DIMTXTDIRECTION
 70
     0
  9
$LUNITS
 70
     2
  9
$LUPREC
 70
     4
  9
$SKETCHINC
 40
1.0
  9
$FILLETRAD
 40
10.0
  9
$AUNITS
 70
     0
  9
$AUPREC
 70
     0
  9
$MENU
  1
.
  9
$ELEVATION
 40
0.0
  9
$PELEVATION
 40
0.0
  9
$THICKNESS
 40
0.0
  9
$LIMCHECK
 70
     0
  9
$CHAMFERA
 40
0.0
  9
$CHAMFERB
 40
0.0
  9
$CHAMFERC
 40
0.0
  9
$CHAMFERD
 40
0.0
  9
$SKPOLY
 70
     0
  9
$TDCREATE
 40
2458638.491066053
  9
$TDUCREATE
 40
2458638.40773272
  9
$TDUPDATE
 40
2458638.491066759
  9
$TDUUPDATE
 40
2458638.407733426
  9
$TDINDWG
 40
0.0000000116
  9
$TDUSRTIMER
 40
0.0000000116
  9
$USRTIMER
 70
     1
  9
$ANGBASE
 50
0.0
  9
$ANGDIR
 70
     0
  9
$PDMODE
 70
     0
  9
$PDSIZE
 40
0.0
  9
$PLINEWID
 40
0.0
  9
$SPLFRAME
 70
     0
  9
$SPLINETYPE
 70
     6
  9
$SPLINESEGS
 70
     8
  9
$HANDSEED
  5
39B
  9
$SURFTAB1
 70
     6
  9
$SURFTAB2
 70
     6
  9
$SURFTYPE
 70
     6
  9
$SURFU
 70
     6
  9
$SURFV
 70
     6
  9
$UCSBASE
  2

  9
$UCSNAME
  2

  9
$UCSORG
 10
0.0
 20
0.0
 30
0.0
  9
$UCSXDIR
 10
1.0
 20
0.0
 30
0.0
  9
$UCSYDIR
 10
0.0
 20
1.0
 30
0.0
  9
$UCSORTHOREF
  2

  9
$UCSORTHOVIEW
 70
     0
  9
$UCSORGTOP
 10
0.0
 20
0.0
 30
0.0
  9
$UCSORGBOTTOM
 10
0.0
 20
0.0
 30
0.0
  9
$UCSORGLEFT
 10
0.0
 20
0.0
 30
0.0
  9
$UCSORGRIGHT
 10
0.0
 20
0.0
 30
0.0
  9
$UCSORGFRONT
 10
0.0
 20
0.0
 30
0.0
  9
$UCSORGBACK
 10
0.0
 20
0.0
 30
0.0
  9
$PUCSBASE
  2

  9
$PUCSNAME
  2

  9
$PUCSORG
 10
0.0
 20
0.0
 30
0.0
  9
$PUCSXDIR
 10
1.0
 20
0.0
 30
0.0
  9
$PUCSYDIR
 10
0.0
 20
1.0
 30
0.0
  9
$PUCSORTHOREF
  2

  9
$PUCSORTHOVIEW
 70
     0
  9
$PUCSORGTOP
 10
0.0
 20
0.0
 30
0.0
  9
$PUCSORGBOTTOM
 10
0.0
 20
0.0
 30
0.0
  9
$PUCSORGLEFT
 10
0.0
 20
0.0
 30
0.0
  9
$PUCSORGRIGHT
 10
0.0
 20
0.0
 30
0.0
  9
$PUCSORGFRONT
 10
0.0
 20
0.0
 30
0.0
  9
$PUCSORGBACK
 10
0.0
 20
0.0
 30
0.0
  9
$USERI1
 70
     0
  9
$USERI2
 70
     0
  9
$USERI3
 70
     0
  9
$USERI4
 70
     0
  9
$USERI5
 70
     0
  9
$USERR1
 40
0.0
  9
$USERR2
 40
0.0
  9
$USERR3
 40
0.0
  9
$USERR4
 40
0.0
  9
$USERR5
 40
0.0
  9
$WORLDVIEW
 70
     1
  9
$SHADEDGE
 70
     3
  9
$SHADEDIF
 70
    70
  9
$TILEMODE
 70
     1
  9
$MAXACTVP
 70
    64
  9
$PINSBASE
 10
0.0
 20
0.0
 30
0.0
  9
$PLIMCHECK
 70
     0
  9
$PEXTMIN
 10
1.000000E+20
 20
1.000000E+20
 30
1.000000E+20
  9
$PEXTMAX
 10
-1.000000E+20
 20
-1.000000E+20
 30
-1.000000E+20
  9
$PLIMMIN
 10
0.0
 20
0.0
  9
$PLIMMAX
 10
420.0
 20
297.0
  9
$UNITMODE
 70
     0
  9
$VISRETAIN
 70
     1
  9
$PLINEGEN
 70
     0
  9
$PSLTSCALE
 70
     1
  9
$TREEDEPTH
 70
  3020
  9
$CMLSTYLE
  2
Standard
  9
$CMLJUST
 70
     0
  9
$CMLSCALE
 40
20.0
  9
$PROXYGRAPHICS
 70
     1
  9
$MEASUREMENT
 70
     1
  9
$CELWEIGHT
370
    -1
  9
$ENDCAPS
280
     0
  9
$JOINSTYLE
280
     0
  9
$LWDISPLAY
290
     0
  9
$INSUNITS
 70
     4
  9
$HYPERLINKBASE
  1

  9
$STYLESHEET
  1

  9
$XEDIT
290
     1
  9
$CEPSNTYPE
380
     0
  9
$PSTYLEMODE
290
     1
  9
$FINGERPRINTGUID
  2
{8418ECD5-C455-4508-B84C-C741D331E9C1}
  9
$VERSIONGUID
  2
{FAEB1C32-E019-11D5-929B-00C0DF256EC4}
  9
$EXTNAMES
290
     1
  9
$PSVPSCALE
 40
0.0
  9
$OLESTARTUP
290
     0
  9
$SORTENTS
280
   127
  9
$INDEXCTL
280
     0
  9
$HIDETEXT
280
     1
  9
$XCLIPFRAME
280
     2
  9
$HALOGAP
280
     0
  9
$OBSCOLOR
 70
   257
  9
$OBSLTYPE
280
     0
  9
$INTERSECTIONDISPLAY
280
     0
  9
$INTERSECTIONCOLOR
 70
   257
  9
$DIMASSOC
280
     2
  9
$PROJECTNAME
  1

  9
$CAMERADISPLAY
290
     0
  9
$LENSLENGTH
 40
50.0
  9
$CAMERAHEIGHT
 40
0.0
  9
$STEPSPERSEC
 40
2.0
  9
$STEPSIZE
 40
6.0
  9
$3DDWFPREC
 40
2.0
  9
$PSOLWIDTH
 40
5.0
  9
$PSOLHEIGHT
 40
80.0
  9
$LOFTANG1
 40
1.570796
  9
$LOFTANG2
 40
1.570796
  9
$LOFTMAG1
 40
0.0
  9
$LOFTMAG2
 40
0.0
  9
$LOFTPARAM
 70
     7
  9
$LOFTNORMALS
280
     1
  9
$LATITUDE
 40
37.795
  9
$LONGITUDE
 40
-122.394
  9
$NORTHDIRECTION
 40
0.0
  9
$TIMEZONE
 70
 -8000
  9
$LIGHTGLYPHDISPLAY
280
     1
  9
$TILEMODELIGHTSYNCH
280
     1
  9
$CMATERIAL
347
44
  9
$SOLIDHIST
280
     0
  9
$SHOWHIST
280
     1
  9
$DWFFRAME
280
     2
  9
$DGNFRAME
280
     2
  9
$REALWORLDSCALE
290
     1
  9
$INTERFERECOLOR
 62
   256
  9
$CSHADOW
280
     0
  9
$SHADOWPLANELOCATION
 40
0.0
  0
ENDSEC
  0
SECTION
  2
CLASSES
  0
CLASS
  1
ACDBDICTIONARYWDFLT
  2
AcDbDictionaryWithDefault
  3
ObjectDBX Classes
 90
        0
 91
        4
280
     0
281
     0
  0
CLASS
  1
VISUALSTYLE
  2
AcDbVisualStyle
  3
ObjectDBX Classes
 90
     4095
 91
        4
280
     0
281
     0
  0
CLASS
  1
MATERIAL
  2
AcDbMaterial
  3
ObjectDBX Classes
 90
     1153
 91
        4
280
     0
281
     0
  0
CLASS
  1
SCALE
  2
AcDbScale
  3
ObjectDBX Classes
 90
     1153
 91
        4
280
     0
281
     0
  0
CLASS
  1
TABLESTYLE
  2
AcDbTableStyle
  3
ObjectDBX Classes
 90
     4095
 91
        4
280
     0
281
     0
  0
CLASS
  1
MLEADERSTYLE
  2
AcDbMLeaderStyle
  3
ACDB_MLEADERSTYLE_CLASS
 90
     4095
 91
        4
280
     0
281
     0
  0
CLASS
  1
SUN
  2
AcDbSun
  3
SCENEOE
 90
     1153
 91
        4
280
     0
281
     0
  0
CLASS
  1
DICTIONARYVAR
  2
AcDbDictionaryVar
  3
ObjectDBX Classes
 90
        0
 91
        4
280
     0
281
     0
  0
CLASS
  1
CELLSTYLEMAP
  2
AcDbCellStyleMap
  3
ObjectDBX Classes
 90
     1152
 91
        4
280
     0
281
     0
  0
ENDSEC
  0
SECTION
  2
TABLES
  0
TABLE
  2
VPORT
  5
8
330
0
100
AcDbSymbolTable
 70
     1
  0
VPORT
  5
29
330
8
100
AcDbSymbolTableRecord
100
AcDbViewportTableRecord
  2
*Active
 70
     0
 10
0.0
 20
0.0
 11
1.0
 21
1.0
 12
344.186916
 22
148.5
 13
0.0
 23
0.0
 14
10.0
 24
10.0
 15
10.0
 25
10.0
 16
0.0
 26
0.0
 36
1.0
 17
0.0
 27
0.0
 37
0.0
 40
297.0
 41
1.972973
 42
50.0
 43
0.0
 44
0.0
 50
0.0
 51
0.0
 71
     0
 72
   100
 73
     1
 74
     3
 75
     0
 76
     0
 77
     0
 78
     0
281
     0
 65
     1
110
0.0
120
0.0
130
0.0
111
1.0
121
0.0
131
0.0
112
0.0
122
1.0
132
0.0
 79
     0
146
0.0
348
2F
 60
     3
 61
     5
292
     1
282
     1
141
0.0
142
0.0
 63
   250
361
6D
  0
ENDTAB
  0
TABLE
  2
LTYPE
  5
5
330
0
100
AcDbSymbolTable
 70
     1
  0
LTYPE
  5
14
330
5
100
AcDbSymbolTableRecord
100
AcDbLinetypeTableRecord
  2
ByBlock
 70
     0
  3

 72
    65
 73
     0
 40
0.0
  0
LTYPE
  5
15
330
5
100
AcDbSymbolTableRecord
100
AcDbLinetypeTableRecord
  2
ByLayer
 70
     0
  3

 72
    65
 73
     0
 40
0.0
  0
LTYPE
  5
16
330
5
100
AcDbSymbolTableRecord
100
AcDbLinetypeTableRecord
  2
Continuous
 70
     0
  3
Solid line
 72
    65
 73
     0
 40
0.0
  0
ENDTAB
  0
TABLE
  2
LAYER
  5
2
330
0
100
AcDbSymbolTable
 70
     1
  0
LAYER
  5
10
330
2
100
AcDbSymbolTableRecord
100
AcDbLayerTableRecord
  2
0
 70
     0
 62
   106
  6
Continuous
370
     0
390
F
347
46
  0
ENDTAB
  0
TABLE
  2
STYLE
  5
3
330
0
100
AcDbSymbolTable
 70
     4
  0
STYLE
  5
11
330
3
100
AcDbSymbolTableRecord
100
AcDbTextStyleTableRecord
  2
Standard
 70
     0
 40
0.0
 41
1.0
 50
0.0
 71
     0
 42
2.5
  3
txt
  4

  0
STYLE
  5
6E
330
3
100
AcDbSymbolTableRecord
100
AcDbTextStyleTableRecord
  2
Default
 70
     0
 40
0.0
 41
1.0
 50
0.0
 71
     0
 42
2.5
  3

  4

1001
ACAD
1000
txt
1071
        0
  0
STYLE
  5
6F
330
3
100
AcDbSymbolTableRecord
100
AcDbTextStyleTableRecord
  2
ISO
 70
     0
 40
0.0
 41
1.0
 50
0.0
 71
     0
 42
2.5
  3

  4

1001
ACAD
1000
txt
1071
        0
  0
STYLE
  5
70
330
3
100
AcDbSymbolTableRecord
100
AcDbTextStyleTableRecord
  2
zucchetti
 70
     0
 40
0.0
 41
1.0
 50
0.0
 71
     0
 42
2.5
  3

  4

1001
ACAD
1000
Arial
1071
        0
  0
ENDTAB
  0
TABLE
  2
VIEW
  5
6
330
0
100
AcDbSymbolTable
 70
     0
  0
ENDTAB
  0
TABLE
  2
UCS
  5
7
330
0
100
AcDbSymbolTable
 70
     0
  0
ENDTAB
  0
TABLE
  2
APPID
  5
9
330
0
100
AcDbSymbolTable
 70
     1
  0
APPID
  5
12
330
9
100
AcDbSymbolTableRecord
100
AcDbRegAppTableRecord
  2
ACAD
 70
     0
  0
ENDTAB
  0
TABLE
  2
DIMSTYLE
  5
A
330
0
100
AcDbSymbolTable
 70
     4
100
AcDbDimStyleTable
  0
DIMSTYLE
105
27
330
A
100
AcDbSymbolTableRecord
100
AcDbDimStyleTableRecord
  2
ISO-25
 70
     0
 41
2.5
 42
0.625
 43
3.75
 44
1.25
 73
     0
 74
     0
 77
     1
 78
     8
140
2.5
141
2.5
143
0.03937
147
0.625
171
     3
172
     1
178
     0
271
     2
272
     2
274
     3
278
    44
283
     0
284
     8
340
11
  0
DIMSTYLE
105
71
330
A
100
AcDbSymbolTableRecord
100
AcDbDimStyleTableRecord
  2
Default
 70
     0
  3
<>
 41
4.375
 42
1.05
 44
2.1
 49
10.01
 73
     0
 74
     0
 77
     1
 78
     8
140
3.5
146
0.4
147
1.75
172
     1
271
     2
178
     3
271
     2
272
     3
284
     8
340
6E
341
72
342
72
  0
DIMSTYLE
105
79
330
A
100
AcDbSymbolTableRecord
100
AcDbDimStyleTableRecord
  2
ISO
 70
     0
  3
<>
 41
4.375
 42
1.05
 44
2.1
 49
10.01
 73
     0
 74
     0
 77
     1
 78
     8
140
3.5
146
0.4
147
1.75
172
     1
271
     2
178
     3
271
     2
272
     3
284
     8
340
6F
341
72
342
72
  0
DIMSTYLE
105
7A
330
A
100
AcDbSymbolTableRecord
100
AcDbDimStyleTableRecord
  2
zucchetti
 70
     0
  3
<>
 41
3.0
 42
0.9
 44
1.8
 49
8.58
 73
     0
 74
     0
 77
     1
 78
     8
140
3.0
146
0.6
147
1.5
172
     1
176
     3
177
     3
271
     2
178
     3
271
     2
272
     2
284
     8
340
70
  0
ENDTAB
  0
TABLE
  2
BLOCK_RECORD
  5
1
330
0
100
AcDbSymbolTable
 70
     6
  0
BLOCK_RECORD
  5
1F
330
1
100
AcDbSymbolTableRecord
100
AcDbBlockTableRecord
  2
*Model_Space
340
22
 70
     0
280
     1
281
     0
  0
BLOCK_RECORD
  5
1B
330
1
100
AcDbSymbolTableRecord
100
AcDbBlockTableRecord
  2
*Paper_Space
340
1E
 70
     0
280
     1
281
     0
  0
BLOCK_RECORD
  5
23
330
1
100
AcDbSymbolTableRecord
100
AcDbBlockTableRecord
  2
*Paper_Space0
340
26
 70
     0
280
     1
281
     0
  0
BLOCK_RECORD
  5
72
330
1
100
AcDbSymbolTableRecord
100
AcDbBlockTableRecord
  2
_CLOSED
340
0
 70
     0
280
     1
281
     0
  0
BLOCK_RECORD
  5
7B
330
1
100
AcDbSymbolTableRecord
100
AcDbBlockTableRecord
  2
a
340
0
102
{BLKREFS
331
1A2
102
}
 70
     0
280
     1
281
     0
  0
BLOCK_RECORD
  5
1A3
330
1
100
AcDbSymbolTableRecord
100
AcDbBlockTableRecord
  2
b
340
0
102
{BLKREFS
331
201
102
}
 70
     0
280
     1
281
     0
  0
BLOCK_RECORD
  5
202
330
1
100
AcDbSymbolTableRecord
100
AcDbBlockTableRecord
  2
c
340
0
102
{BLKREFS
331
2B0
102
}
 70
     0
280
     1
281
     0
  0
BLOCK_RECORD
  5
2B1
330
1
100
AcDbSymbolTableRecord
100
AcDbBlockTableRecord
  2
d
340
0
102
{BLKREFS
331
361
102
}
 70
     0
280
     1
281
     0
  0
ENDTAB
  0
ENDSEC
  0
SECTION
  2
BLOCKS
  0
BLOCK
  5
20
330
1F
100
AcDbEntity
  8
0
100
AcDbBlockBegin
  2
*Model_Space
 70
     0
 10
0.0
 20
0.0
 30
0.0
  3
*Model_Space
  1

  0
ENDBLK
  5
21
330
1F
100
AcDbEntity
  8
0
100
AcDbBlockEnd
  0
BLOCK
  5
1C
330
1B
100
AcDbEntity
 67
     1
  8
0
100
AcDbBlockBegin
  2
*Paper_Space
 70
     0
 10
0.0
 20
0.0
 30
0.0
  3
*Paper_Space
  1

  0
ENDBLK
  5
1D
330
1B
100
AcDbEntity
 67
     1
  8
0
100
AcDbBlockEnd
  0
BLOCK
  5
24
330
23
100
AcDbEntity
  8
0
100
AcDbBlockBegin
  2
*Paper_Space0
 70
     0
 10
0.0
 20
0.0
 30
0.0
  3
*Paper_Space0
  1

  0
ENDBLK
  5
25
330
23
100
AcDbEntity
  8
0
100
AcDbBlockEnd
  0
BLOCK
  5
73
330
72
100
AcDbEntity
  8
0
100
AcDbBlockBegin
  2
_CLOSED
 70
     0
 10
0.0
 20
0.0
 30
0.0
  3
_CLOSED
  1

  0
LINE
  5
75
330
72
100
AcDbEntity
  8
0
  6
ByBlock
 62
     0
370
    -2
100
AcDbLine
 10
-1.0
 20
0.166667
 30
0.0
 11
0.0
 21
0.0
 31
0.0
  0
LINE
  5
76
330
72
100
AcDbEntity
  8
0
  6
ByBlock
 62
     0
370
    -2
100
AcDbLine
 10
0.0
 20
0.0
 30
0.0
 11
-1.0
 21
-0.166667
 31
0.0
  0
LINE
  5
77
330
72
100
AcDbEntity
  8
0
  6
ByBlock
 62
     0
370
    -2
100
AcDbLine
 10
-1.0
 20
0.166667
 30
0.0
 11
-1.0
 21
-0.166667
 31
0.0
  0
LINE
  5
78
330
72
100
AcDbEntity
  8
0
  6
ByBlock
 62
     0
370
    -2
100
AcDbLine
 10
0.0
 20
0.0
 30
0.0
 11
-1.0
 21
0.0
 31
0.0
  0
ENDBLK
  5
74
330
72
100
AcDbEntity
  8
0
100
AcDbBlockEnd
  0
BLOCK
  5
1A0
330
7B
100
AcDbEntity
  8
0
100
AcDbBlockBegin
  2
a
 70
     0
 10
438.321442
 20
115.714348
 30
0.0
  3
a
  1

  0
ARC
  5
7C
330
7B
100
AcDbEntity
  8
0
  6
Continuous
 62
     0
370
     0
100
AcDbCircle
 10
567.194638
 20
477.364188
 30
0.0
 40
0.7000135584183457
100
AcDbArc
 50
270.001896
 51
359.998104
  0
LINE
  5
7D
330
7B
100
AcDbEntity
  8
0
  6
Continuous
 62
     0
370
     0
100
AcDbLine
 10
567.194661
 20
476.664174
 30
0.0
 11
567.248088
 21
476.610747
 31
0.0
  0
ARC
  5
7E
330
7B
100
AcDbEntity
  8
0
  6
Continuous
 62
     0
370
    30
100
AcDbCircle
 10
567.248685
 20
477.310141
 30
0.0
 40
0.6993937001774351
100
AcDbArc
 50
269.951097
 51
0.048903
  0
LINE
  5
7F
330
7B
100
AcDbEntity
  8
0
  6
Continuous
 62
     0
370
     0
100
AcDbLine
 10
567.948078
 20
477.310738
 30
0.0
 11
567.894652
 21
477.364165
 31
0.0
  0
LINE
  5
80
330
7B
100
AcDbEntity
  8
0
  6
Continuous
 62
     0
370
     0
100
AcDbLine
 10
467.08735
 20
477.364165
 30
0.0
 11
467.08735
 21
476.664174
 31
0.0
  0
LINE
  5
81
330
7B
100
AcDbEntity
  8
0
  6
Continuous
 62
     0
370
     0
100
AcDbLine
 10
467.08735
 20
476.664174
 30
0.0
 11
567.194661
 21
476.664174
 31
0.0
  0
LINE
  5
82
330
7B
100
AcDbEntity
  8
0
  6
Continuous
 62
     0
370
     0
100
AcDbLine
 10
567.194661
 20
476.664174
 30
0.0
 11
567.194661
 21
477.364165
 31
0.0
  0
LINE
  5
83
330
7B
100
AcDbEntity
  8
0
  6
Continuous
 62
     0
370
     0
100
AcDbLine
 10
567.194661
 20
477.364165
 30
0.0
 11
467.08735
 21
477.364165
 31
0.0
  0
LINE
  5
84
330
7B
100
AcDbEntity
  8
0
  6
Continuous
 62
     0
370
     0
100
AcDbLine
 10
567.194661
 20
594.471476
 30
0.0
 11
567.194661
 21
477.364165
 31
0.0
  0
LINE
  5
85
330
7B
100
AcDbEntity
  8
0
  6
Continuous
 62
     0
370
     0
100
AcDbLine
 10
567.194661
 20
477.364165
 30
0.0
 11
567.894652
 21
477.364165
 31
0.0
  0
LINE
  5
86
330
7B
100
AcDbEntity
  8
0
  6
Continuous
 62
     0
370
     0
100
AcDbLine
 10
567.894652
 20
477.364165
 30
0.0
 11
567.894652
 21
594.471476
 31
0.0
  0
LINE
  5
87
330
7B
100
AcDbEntity
  8
0
  6
Continuous
 62
     0
370
     0
100
AcDbLine
 10
567.894652
 20
594.471476
 30
0.0
 11
567.194661
 21
594.471476
 31
0.0
  0
LINE
  5
88
330
7B
100
AcDbEntity
  8
0
  6
Continuous
 62
     0
370
     0
100
AcDbLine
 10
567.894652
 20
594.471476
 30
0.0
 11
567.948078
 21
594.524903
 31
0.0
  0
ARC
  5
89
330
7B
100
AcDbEntity
  8
0
  6
Continuous
 62
     0
370
    30
100
AcDbCircle
 10
567.248685
 20
594.5255
 30
0.0
 40
0.699393700095118
100
AcDbArc
 50
359.951097
 51
90.048903
  0
LINE
  5
8A
330
7B
100
AcDbEntity
  8
0
  6
Continuous
 62
     0
370
     0
100
AcDbLine
 10
567.248088
 20
595.224893
 30
0.0
 11
567.194661
 21
595.171466
 31
0.0
  0
ARC
  5
8B
330
7B
100
AcDbEntity
  8
0
  6
Continuous
 62
     0
370
     0
100
AcDbCircle
 10
567.194638
 20
594.471453
 30
0.0
 40
0.7000135584171484
100
AcDbArc
 50
0.001896
 51
89.998104
  0
LINE
  5
8C
330
7B
100
AcDbEntity
  8
0
  6
Continuous
 62
     0
370
     0
100
AcDbLine
 10
467.08735
 20
594.471476
 30
0.0
 11
567.194661
 21
594.471476
 31
0.0
  0
LINE
  5
8D
330
7B
100
AcDbEntity
  8
0
  6
Continuous
 62
     0
370
     0
100
AcDbLine
 10
567.194661
 20
594.471476
 30
0.0
 11
567.194661
 21
595.171466
 31
0.0
  0
LINE
  5
8E
330
7B
100
AcDbEntity
  8
0
  6
Continuous
 62
     0
370
     0
100
AcDbLine
 10
567.194661
 20
595.171466
 30
0.0
 11
467.08735
 21
595.171466
 31
0.0
  0
LINE
  5
8F
330
7B
100
AcDbEntity
  8
0
  6
Continuous
 62
     0
370
     0
100
AcDbLine
 10
467.08735
 20
595.171466
 30
0.0
 11
467.08735
 21
594.471476
 31
0.0
  0
LINE
  5
90
330
7B
100
AcDbEntity
  8
0
  6
Continuous
 62
     0
370
     0
100
AcDbLine
 10
466.38736
 20
477.364165
 30
0.0
 11
466.333933
 21
477.310738
 31
0.0
  0
ARC
  5
91
330
7B
100
AcDbEntity
  8
0
  6
Continuous
 62
     0
370
    30
100
AcDbCircle
 10
467.033326
 20
477.310141
 30
0.0
 40
0.6993937000954127
100
AcDbArc
 50
179.951097
 51
270.048903
  0
LINE
  5
92
330
7B
100
AcDbEntity
  8
0
  6
Continuous
 62
     0
370
     0
100
AcDbLine
 10
467.033923
 20
476.610747
 30
0.0
 11
467.08735
 21
476.664174
 31
0.0
  0
ARC
  5
93
330
7B
100
AcDbEntity
  8
0
  6
Continuous
 62
     0
370
     0
100
AcDbCircle
 10
467.087373
 20
477.364188
 30
0.0
 40
0.7000135584181183
100
AcDbArc
 50
180.001896
 51
269.998104
  0
LINE
  5
94
330
7B
100
AcDbEntity
  8
0
  6
Continuous
 62
     0
370
     0
100
AcDbLine
 10
467.08735
 20
594.471476
 30
0.0
 11
466.38736
 21
594.471476
 31
0.0
  0
LINE
  5
95
330
7B
100
AcDbEntity
  8
0
  6
Continuous
 62
     0
370
     0
100
AcDbLine
 10
466.38736
 20
594.471476
 30
0.0
 11
466.38736
 21
477.364165
 31
0.0
  0
LINE
  5
96
330
7B
100
AcDbEntity
  8
0
  6
Continuous
 62
     0
370
     0
100
AcDbLine
 10
466.38736
 20
477.364165
 30
0.0
 11
467.08735
 21
477.364165
 31
0.0
  0
LINE
  5
97
330
7B
100
AcDbEntity
  8
0
  6
Continuous
 62
     0
370
     0
100
AcDbLine
 10
467.08735
 20
477.364165
 30
0.0
 11
467.08735
 21
594.471476
 31
0.0
  0
ARC
  5
98
330
7B
100
AcDbEntity
  8
0
  6
Continuous
 62
     0
370
     0
100
AcDbCircle
 10
467.087373
 20
594.471453
 30
0.0
 40
0.7000135584175284
100
AcDbArc
 50
90.001896
 51
179.998104
  0
LINE
  5
99
330
7B
100
AcDbEntity
  8
0
  6
Continuous
 62
     0
370
     0
100
AcDbLine
 10
467.08735
 20
595.171466
 30
0.0
 11
467.033923
 21
595.224893
 31
0.0
  0
ARC
  5
9A
330
7B
100
AcDbEntity
  8
0
  6
Continuous
 62
     0
370
    30
100
AcDbCircle
 10
467.033326
 20
594.5255
 30
0.0
 40
0.6993937001768105
100
AcDbArc
 50
89.951097
 51
180.048903
  0
LINE
  5
9B
330
7B
100
AcDbEntity
  8
0
  6
Continuous
 62
     0
370
     0
100
AcDbLine
 10
466.333933
 20
594.524903
 30
0.0
 11
466.38736
 21
594.471476
 31
0.0
  0
LINE
  5
9C
330
7B
100
AcDbEntity
  8
0
  6
Continuous
 62
     0
370
    30
100
AcDbLine
 10
567.948078
 20
477.310738
 30
0.0
 11
567.948078
 21
594.524903
 31
0.0
  0
LINE
  5
9D
330
7B
100
AcDbEntity
  8
0
  6
Continuous
 62
     0
370
    30
100
AcDbLine
 10
567.248088
 20
595.224893
 30
0.0
 11
467.033923
 21
595.224893
 31
0.0
  0
LINE
  5
9E
330
7B
100
AcDbEntity
  8
0
  6
Continuous
 62
     0
370
    30
100
AcDbLine
 10
467.033923
 20
476.610747
 30
0.0
 11
567.248088
 21
476.610747
 31
0.0
  0
LWPOLYLINE
  5
9F
330
7B
100
AcDbEntity
  8
0
  6
Continuous
 62
     0
370
     0
100
AcDbPolyline
 90
       55
 70
     0
 43
0.0
 10
517.140991
 20
476.650665
 10
517.625916
 20
476.650391
 10
517.876526
 20
476.649994
 10
518.059814
 20
476.649567
 10
518.208252
 20
476.64917
 10
518.333923
 20
476.648743
 10
518.443115
 20
476.648346
 10
518.539551
 20
476.647919
 10
518.625671
 20
476.647491
 10
518.703125
 20
476.647095
 10
518.773071
 20
476.646667
 10
518.836426
 20
476.64624
 10
518.893982
 20
476.645844
 10
518.946106
 20
476.645416
 10
518.993408
 20
476.644989
 10
519.036133
 20
476.644592
 10
519.074646
 20
476.644165
 10
519.109131
 20
476.643738
 10
519.139893
 20
476.643311
 10
519.166992
 20
476.642914
 10
519.190613
 20
476.642487
 10
519.210876
 20
476.642059
 10
519.227844
 20
476.641632
 10
519.241638
 20
476.641235
 10
519.252319
 20
476.640808
 10
519.259949
 20
476.640381
 10
519.264465
 20
476.639954
 10
519.265991
 20
476.639557
 10
519.264526
 20
476.63913
 10
519.259949
 20
476.638702
 10
519.25238
 20
476.638275
 10
519.24176
 20
476.637878
 10
519.227966
 20
476.637451
 10
519.210999
 20
476.637024
 10
519.190735
 20
476.636597
 10
519.167175
 20
476.6362
 10
519.140076
 20
476.635773
 10
519.109375
 20
476.635345
 10
519.07489
 20
476.634949
 10
519.036438
 20
476.634521
 10
518.993713
 20
476.634094
 10
518.946472
 20
476.633667
 10
518.894348
 20
476.63327
 10
518.836914
 20
476.632843
 10
518.77356
 20
476.632416
 10
518.703674
 20
476.632019
 10
518.626282
 20
476.631592
 10
518.540222
 20
476.631165
 10
518.443848
 20
476.630768
 10
518.334778
 20
476.630341
 10
518.209229
 20
476.629913
 10
518.061035
 20
476.629517
 10
517.878052
 20
476.62912
 10
517.628235
 20
476.628723
 10
517.140991
 20
476.628418
  0
LWPOLYLINE
  5
A0
330
7B
100
AcDbEntity
  8
0
  6
Continuous
 62
     0
370
     0
100
AcDbPolyline
 90
       55
 70
     0
 43
0.0
 10
517.140991
 20
476.628418
 10
516.656067
 20
476.628723
 10
516.405518
 20
476.62912
 10
516.222229
 20
476.629517
 10
516.073792
 20
476.629913
 10
515.94812
 20
476.630341
 10
515.838928
 20
476.630737
 10
515.742493
 20
476.631165
 10
515.656372
 20
476.631592
 10
515.578918
 20
476.631989
 10
515.508972
 20
476.632416
 10
515.445557
 20
476.632843
 10
515.388062
 20
476.63327
 10
515.335876
 20
476.633667
 10
515.288635
 20
476.634094
 10
515.24585
 20
476.634521
 10
515.207397
 20
476.634918
 10
515.172852
 20
476.635345
 10
515.142151
 20
476.635773
 10
515.115051
 20
476.6362
 10
515.091431
 20
476.636597
 10
515.071167
 20
476.637024
 10
515.054138
 20
476.637451
 10
515.040344
 20
476.637878
 10
515.029663
 20
476.638275
 10
515.022095
 20
476.638702
 10
515.017517
 20
476.63913
 10
515.015991
 20
476.639557
 10
515.017517
 20
476.639954
 10
515.022034
 20
476.640381
 10
515.029602
 20
476.640808
 10
515.040283
 20
476.641235
 10
515.054016
 20
476.641632
 10
515.070984
 20
476.642059
 10
515.091248
 20
476.642487
 10
515.114868
 20
476.642914
 10
515.141907
 20
476.643311
 10
515.172607
 20
476.643738
 10
515.207092
 20
476.644165
 10
515.245544
 20
476.644562
 10
515.288269
 20
476.644989
 10
515.33551
 20
476.645416
 10
515.387634
 20
476.645844
 10
515.445129
 20
476.64624
 10
515.508423
 20
476.646667
 10
515.578369
 20
476.647095
 10
515.655762
 20
476.647491
 10
515.74176
 20
476.647919
 10
515.838135
 20
476.648346
 10
515.947266
 20
476.648743
 10
516.072754
 20
476.64917
 10
516.220947
 20
476.649567
 10
516.403931
 20
476.649994
 10
516.653748
 20
476.650391
 10
517.140991
 20
476.650665
  0
LINE
  5
A1
330
7B
100
AcDbEntity
  8
0
  6
Continuous
 62
     0
370
    30
100
AcDbLine
 10
466.333933
 20
594.524903
 30
0.0
 11
466.333933
 21
477.310738
 31
0.0
  0
LINE
  5
A2
330
7B
100
AcDbEntity
  8
0
  6
Continuous
 62
     0
370
    30
100
AcDbLine
 10
517.141025
 20
565.247824
 30
0.0
 11
513.191026
 21
565.247824
 31
0.0
  0
LINE
  5
A3
330
7B
100
AcDbEntity
  8
0
  6
Continuous
 62
     0
370
    30
100
AcDbLine
 10
521.091026
 20
565.247824
 30
0.0
 11
517.141025
 21
565.247824
 31
0.0
  0
LWPOLYLINE
  5
A4
330
7B
100
AcDbEntity
  8
0
  6
Continuous
 62
     0
370
    30
100
AcDbPolyline
 90
        7
 70
     0
 43
0.0
 10
519.862244
 20
557.748901
 10
520.21936
 20
557.702576
 10
520.521484
 20
557.658142
 10
520.763733
 20
557.618652
 10
520.941772
 20
557.587158
 10
521.051453
 20
557.566895
 10
521.090698
 20
557.559448
  0
LWPOLYLINE
  5
A5
330
7B
100
AcDbEntity
  8
0
  6
Continuous
 62
     0
370
    30
100
AcDbPolyline
 90
        3
 70
     0
 43
0.0
 10
517.141052
 20
557.917847
 10
517.254211
 20
557.918335
 10
518.266479
 20
557.888916
  0
LWPOLYLINE
  5
A6
330
7B
100
AcDbEntity
  8
0
  6
Continuous
 62
     0
370
    30
100
AcDbPolyline
 90
        3
 70
     0
 43
0.0
 10
515.994629
 20
557.887878
 10
516.134521
 20
557.895203
 10
517.141052
 20
557.917847
  0
LWPOLYLINE
  5
A7
330
7B
100
AcDbEntity
  8
0
  6
Continuous
 62
     0
370
    30
100
AcDbPolyline
 90
        8
 70
     0
 43
0.0
 10
513.191345
 20
557.559448
 10
513.230225
 20
557.566895
 10
513.346924
 20
557.588379
 10
513.539001
 20
557.622131
 10
513.801453
 20
557.664429
 10
514.129333
 20
557.71167
 10
514.516663
 20
557.760376
 10
514.958374
 20
557.807861
  0
LINE
  5
A8
330
7B
100
AcDbEntity
  8
0
  6
Continuous
 62
     0
370
    30
100
AcDbLine
 10
517.141026
 20
565.747824
 30
0.0
 11
520.591072
 21
565.747824
 31
0.0
  0
LINE
  5
A9
330
7B
100
AcDbEntity
  8
0
  6
Continuous
 62
     0
370
    30
100
AcDbLine
 10
513.690979
 20
565.747824
 30
0.0
 11
517.141026
 21
565.747824
 31
0.0
  0
ARC
  5
AA
330
7B
100
AcDbEntity
  8
0
  6
Continuous
 62
     0
370
    30
100
AcDbCircle
 10
517.141322
 20
535.917824
 30
0.0
 40
21.50000000203893
100
AcDbArc
 50
269.999211
 51
90.000789
  0
ARC
  5
AB
330
7B
100
AcDbEntity
  8
0
  6
Continuous
 62
     0
370
    30
100
AcDbCircle
 10
517.140733
 20
535.917824
 30
0.0
 40
21.50000000199058
100
AcDbArc
 50
89.99922
 51
270.00078
  0
LWPOLYLINE
  5
AC
330
7B
100
AcDbEntity
  8
0
  6
Continuous
 62
     0
370
    30
100
AcDbPolyline
 90
       54
 70
     0
 43
0.0
 10
517.141052
 20
513.917847
 10
518.441895
 20
513.957336
 10
519.740051
 20
514.074707
 10
521.030762
 20
514.268555
 10
522.307983
 20
514.537659
 10
523.566345
 20
514.880859
 10
524.801636
 20
515.297302
 10
526.009949
 20
515.786011
 10
527.187134
 20
516.346008
 10
528.329224
 20
516.975586
 10
529.431946
 20
517.671814
 10
530.49115
 20
518.43158
 10
531.502625
 20
519.252136
 10
532.462891
 20
520.130676
 10
533.368958
 20
521.06488
 10
534.218323
 20
522.051575
 10
535.008667
 20
523.087402
 10
535.737366
 20
524.168518
 10
536.401367
 20
525.290955
 10
536.99762
 20
526.450745
 10
537.52356
 20
527.64386
 10
537.977722
 20
528.865967
 10
538.358826
 20
530.112732
 10
538.665649
 20
531.379944
 10
538.897156
 20
532.663086
 10
539.052429
 20
533.957642
 10
539.130676
 20
535.259033
 10
539.131042
 20
536.562744
 10
539.053589
 20
537.864197
 10
538.899048
 20
539.158813
 10
538.668335
 20
540.442139
 10
538.362305
 20
541.709473
 10
537.982056
 20
542.956543
 10
537.528809
 20
544.178955
 10
537.003723
 20
545.372437
 10
536.408325
 20
546.532715
 10
535.745178
 20
547.65564
 10
535.017212
 20
548.737244
 10
534.227417
 20
549.77356
 10
533.37854
 20
550.760681
 10
532.472839
 20
551.695129
 10
531.512817
 20
552.573975
 10
530.501587
 20
553.394775
 10
529.442749
 20
554.155029
 10
528.340454
 20
554.851929
 10
527.198914
 20
555.482422
 10
526.022278
 20
556.043762
 10
524.814575
 20
556.533997
 10
523.579773
 20
556.951904
 10
522.321838
 20
557.296326
 10
521.044739
 20
557.566101
 10
519.754089
 20
557.760254
 10
518.455872
 20
557.877808
 10
517.141052
 20
557.917847
  0
LWPOLYLINE
  5
AD
330
7B
100
AcDbEntity
  8
0
  6
Continuous
 62
     0
370
    30
100
AcDbPolyline
 90
       54
 70
     0
 43
0.0
 10
517.141052
 20
557.917847
 10
515.840149
 20
557.878662
 10
514.54187
 20
557.761963
 10
513.251099
 20
557.568604
 10
511.973877
 20
557.299622
 10
510.715668
 20
556.955994
 10
509.480591
 20
556.538879
 10
508.272583
 20
556.049438
 10
507.095581
 20
555.488831
 10
505.953644
 20
554.859009
 10
504.850922
 20
554.162903
 10
503.791626
 20
553.403259
 10
502.779846
 20
552.58313
 10
501.819244
 20
551.704895
 10
500.912933
 20
550.770996
 10
500.063416
 20
549.784424
 10
499.27298
 20
548.748657
 10
498.544342
 20
547.66748
 10
497.880463
 20
546.544983
 10
497.284332
 20
545.385132
 10
496.758514
 20
544.191956
 10
496.304474
 20
542.969849
 10
495.923401
 20
541.723022
 10
495.616577
 20
540.455811
 10
495.385071
 20
539.172668
 10
495.229736
 20
537.878174
 10
495.151428
 20
536.576721
 10
495.15094
 20
535.27301
 10
495.228363
 20
533.971558
 10
495.382812
 20
532.676941
 10
495.613495
 20
531.393616
 10
495.919525
 20
530.126282
 10
496.299866
 20
528.879211
 10
496.753204
 20
527.65686
 10
497.278412
 20
526.46344
 10
497.873932
 20
525.303223
 10
498.537201
 20
524.180359
 10
499.265198
 20
523.098816
 10
500.054932
 20
522.062439
 10
500.903656
 20
521.075195
 10
501.809113
 20
520.140442
 10
502.768829
 20
519.261292
 10
503.779785
 20
518.440125
 10
504.838501
 20
517.679626
 10
505.940765
 20
516.982727
 10
507.082428
 20
516.352417
 10
508.259308
 20
515.791626
 10
509.467255
 20
515.302185
 10
510.702301
 20
514.884949
 10
511.960449
 20
514.540955
 10
513.237488
 20
514.271057
 10
514.528076
 20
514.076355
 10
515.826233
 20
513.958191
 10
517.141052
 20
513.917847
  0
ARC
  5
AE
330
7B
100
AcDbEntity
  8
0
  6
Continuous
 62
     0
370
    30
100
AcDbCircle
 10
517.141026
 20
535.917824
 30
0.0
 40
22.00000000000004
100
AcDbArc
 50
45.723999
 51
79.26029
  0
ARC
  5
AF
330
7B
100
AcDbEntity
  8
0
  6
Continuous
 62
     0
370
    30
100
AcDbCircle
 10
517.141026
 20
535.917824
 30
0.0
 40
22.00000000000004
100
AcDbArc
 50
100.739738
 51
134.27604
  0
LWPOLYLINE
  5
B0
330
7B
100
AcDbEntity
  8
0
  6
Continuous
 62
     0
370
    30
100
AcDbPolyline
 90
       14
 70
     0
 43
0.0
 10
512.391296
 20
514.436646
 10
512.426331
 20
514.428955
 10
512.529907
 20
514.406433
 10
512.699463
 20
514.370667
 10
512.932434
 20
514.324097
 10
513.225891
 20
514.269043
 10
513.575134
 20
514.20874
 10
513.974609
 20
514.146851
 10
514.421021
 20
514.086609
 10
514.908325
 20
514.031433
 10
515.426575
 20
513.984741
 10
515.973145
 20
513.948975
 10
516.537781
 20
513.926147
 10
517.141052
 20
513.917847
  0
LWPOLYLINE
  5
B1
330
7B
100
AcDbEntity
  8
0
  6
Continuous
 62
     0
370
    30
100
AcDbPolyline
 90
       14
 70
     0
 43
0.0
 10
517.141052
 20
513.917847
 10
517.711731
 20
513.925232
 10
518.277039
 20
513.947327
 10
518.825012
 20
513.982361
 10
519.344971
 20
514.028503
 10
519.834229
 20
514.083313
 10
520.283203
 20
514.143372
 10
520.685425
 20
514.2052
 10
521.037659
 20
514.265686
 10
521.334473
 20
514.321167
 10
521.570984
 20
514.368286
 10
521.744202
 20
514.404724
 10
521.851624
 20
514.42804
 10
521.890747
 20
514.436646
  0
LWPOLYLINE
  5
B2
330
7B
100
AcDbEntity
  8
0
  6
Continuous
 62
     0
370
    30
100
AcDbPolyline
 90
       13
 70
     0
 43
0.0
 10
521.240662
 20
557.532471
 10
521.205261
 20
557.539124
 10
521.100769
 20
557.558594
 10
520.92981
 20
557.589233
 10
520.695251
 20
557.628845
 10
520.400635
 20
557.674988
 10
520.051941
 20
557.724426
 10
519.654114
 20
557.773804
 10
519.211548
 20
557.82019
 10
518.734985
 20
557.860046
 10
518.229187
 20
557.890808
 10
517.703064
 20
557.910583
 10
517.141052
 20
557.917847
  0
LWPOLYLINE
  5
B3
330
7B
100
AcDbEntity
  8
0
  6
Continuous
 62
     0
370
    30
100
AcDbPolyline
 90
       13
 70
     0
 43
0.0
 10
517.141052
 20
557.917847
 10
516.607971
 20
557.911316
 10
516.081116
 20
557.892212
 10
515.573914
 20
557.861938
 10
515.095764
 20
557.82251
 10
514.651001
 20
557.776489
 10
514.250549
 20
557.727112
 10
513.899048
 20
557.677612
 10
513.601318
 20
557.631165
 10
513.363464
 20
557.591187
 10
513.189026
 20
557.560059
 10
513.08075
 20
557.539917
 10
513.041382
 20
557.532471
  0
LINE
  5
B4
330
7B
100
AcDbEntity
  8
0
  6
Continuous
 62
     0
370
    30
100
AcDbLine
 10
520.590942
 20
565.747926
 30
0.0
 11
521.091084
 21
565.247787
 31
0.0
  0
LINE
  5
B5
330
7B
100
AcDbEntity
  8
0
  6
Continuous
 62
     0
370
    30
100
AcDbLine
 10
513.190967
 20
565.247787
 30
0.0
 11
513.691109
 21
565.747926
 31
0.0
  0
LINE
  5
B6
330
7B
100
AcDbEntity
  8
0
  6
Continuous
 62
     0
370
    30
100
AcDbLine
 10
513.191026
 20
565.247824
 30
0.0
 11
513.191026
 21
557.559307
 31
0.0
  0
LINE
  5
B7
330
7B
100
AcDbEntity
  8
0
  6
Continuous
 62
     0
370
    30
100
AcDbLine
 10
521.091026
 20
565.247824
 30
0.0
 11
521.091026
 21
557.559288
 31
0.0
  0
ARC
  5
B8
330
7B
100
AcDbEntity
  8
0
  6
Continuous
 62
     0
370
    30
100
AcDbCircle
 10
489.140759
 20
683.918556
 30
0.0
 40
0.5000000000013998
100
AcDbArc
 50
90.0
 51
180.0
  0
LINE
  5
B9
330
7B
100
AcDbEntity
  8
0
  6
Continuous
 62
     0
370
     0
100
AcDbLine
 10
545.140759
 20
683.918556
 30
0.0
 11
489.140759
 21
683.918556
 31
0.0
  0
LINE
  5
BA
330
7B
100
AcDbEntity
  8
0
  6
Continuous
 62
     0
370
     0
100
AcDbLine
 10
489.140759
 20
683.918556
 30
0.0
 11
489.140759
 21
627.918556
 31
0.0
  0
LINE
  5
BB
330
7B
100
AcDbEntity
  8
0
  6
Continuous
 62
     0
370
     0
100
AcDbLine
 10
489.140759
 20
627.918556
 30
0.0
 11
545.140759
 21
627.918556
 31
0.0
  0
LINE
  5
BC
330
7B
100
AcDbEntity
  8
0
  6
Continuous
 62
     0
370
     0
100
AcDbLine
 10
545.140759
 20
627.918556
 30
0.0
 11
545.140759
 21
683.918556
 31
0.0
  0
ARC
  5
BD
330
7B
100
AcDbEntity
  8
0
  6
Continuous
 62
     0
370
     0
100
AcDbCircle
 10
517.140759
 20
655.918888
 30
0.0
 40
24.40000000225906
100
AcDbArc
 50
359.99922
 51
180.00078
  0
ARC
  5
BE
330
7B
100
AcDbEntity
  8
0
  6
Continuous
 62
     0
370
     0
100
AcDbCircle
 10
517.140759
 20
655.918224
 30
0.0
 40
24.40000000225906
100
AcDbArc
 50
179.99922
 51
0.00078
  0
LINE
  5
BF
330
7B
100
AcDbEntity
  8
0
  6
Continuous
 62
     0
370
    30
100
AcDbLine
 10
488.640759
 20
627.918556
 30
0.0
 11
488.640759
 21
683.918556
 31
0.0
  0
ARC
  5
C0
330
7B
100
AcDbEntity
  8
0
  6
Continuous
 62
     0
370
    30
100
AcDbCircle
 10
489.140759
 20
627.918556
 30
0.0
 40
0.5000000000002611
100
AcDbArc
 50
180.0
 51
270.0
  0
LINE
  5
C1
330
7B
100
AcDbEntity
  8
0
  6
Continuous
 62
     0
370
    30
100
AcDbLine
 10
545.140759
 20
627.418556
 30
0.0
 11
489.140759
 21
627.418556
 31
0.0
  0
ARC
  5
C2
330
7B
100
AcDbEntity
  8
0
  6
Continuous
 62
     0
370
    30
100
AcDbCircle
 10
545.140759
 20
627.918556
 30
0.0
 40
0.5000000000015028
100
AcDbArc
 50
270.0
 51
360.0
  0
LINE
  5
C3
330
7B
100
AcDbEntity
  8
0
  6
Continuous
 62
     0
370
    30
100
AcDbLine
 10
545.640759
 20
683.918556
 30
0.0
 11
545.640759
 21
627.918556
 31
0.0
  0
ARC
  5
C4
330
7B
100
AcDbEntity
  8
0
  6
Continuous
 62
     0
370
    30
100
AcDbCircle
 10
545.140759
 20
683.918556
 30
0.0
 40
0.4999999999934328
100
AcDbArc
 50
360.0
 51
90.0
  0
LINE
  5
C5
330
7B
100
AcDbEntity
  8
0
  6
Continuous
 62
     0
370
    30
100
AcDbLine
 10
489.140759
 20
684.418556
 30
0.0
 11
545.140759
 21
684.418556
 31
0.0
  0
LINE
  5
C6
330
7B
100
AcDbEntity
  8
0
  6
Continuous
 62
     0
370
     0
100
AcDbLine
 10
489.140759
 20
684.418556
 30
0.0
 11
489.140759
 21
683.918556
 31
0.0
  0
LINE
  5
C7
330
7B
100
AcDbEntity
  8
0
  6
Continuous
 62
     0
370
     0
100
AcDbLine
 10
545.140759
 20
683.918556
 30
0.0
 11
545.140759
 21
684.418556
 31
0.0
  0
LINE
  5
C8
330
7B
100
AcDbEntity
  8
0
  6
Continuous
 62
     0
370
     0
100
AcDbLine
 10
545.140759
 20
683.918556
 30
0.0
 11
545.640759
 21
683.918556
 31
0.0
  0
LINE
  5
C9
330
7B
100
AcDbEntity
  8
0
  6
Continuous
 62
     0
370
     0
100
AcDbLine
 10
545.140759
 20
627.918556
 30
0.0
 11
545.640759
 21
627.918556
 31
0.0
  0
LINE
  5
CA
330
7B
100
AcDbEntity
  8
0
  6
Continuous
 62
     0
370
     0
100
AcDbLine
 10
545.140759
 20
627.918556
 30
0.0
 11
545.140759
 21
627.418556
 31
0.0
  0
LINE
  5
CB
330
7B
100
AcDbEntity
  8
0
  6
Continuous
 62
     0
370
     0
100
AcDbLine
 10
489.140759
 20
627.918556
 30
0.0
 11
489.140759
 21
627.418556
 31
0.0
  0
LINE
  5
CC
330
7B
100
AcDbEntity
  8
0
  6
Continuous
 62
     0
370
     0
100
AcDbLine
 10
489.140759
 20
627.918556
 30
0.0
 11
488.640759
 21
627.918556
 31
0.0
  0
LINE
  5
CD
330
7B
100
AcDbEntity
  8
0
  6
Continuous
 62
     0
370
     0
100
AcDbLine
 10
489.140759
 20
683.918556
 30
0.0
 11
488.640759
 21
683.918556
 31
0.0
  0
LWPOLYLINE
  5
CE
330
7B
100
AcDbEntity
  8
0
  6
Continuous
 62
     0
370
     0
100
AcDbPolyline
 90
        4
 70
     0
 43
0.0
 10
536.81842
 20
650.238831
 10
530.607483
 20
650.240479
 10
524.38739
 20
650.240906
 10
517.140747
 20
650.241211
  0
LINE
  5
CF
330
7B
100
AcDbEntity
  8
0
  6
Continuous
 62
     0
370
     0
100
AcDbLine
 10
517.140755
 20
650.2412
 30
0.0
 11
517.140755
 21
642.872378
 31
0.0
  0
LWPOLYLINE
  5
D0
330
7B
100
AcDbEntity
  8
0
  6
Continuous
 62
     0
370
     0
100
AcDbPolyline
 90
        3
 70
     0
 43
0.0
 10
517.140747
 20
642.872375
 10
525.742676
 20
642.850403
 10
536.291626
 20
642.813904
  0
LINE
  5
D1
330
7B
100
AcDbEntity
  8
0
  6
Continuous
 62
     0
370
     0
100
AcDbLine
 10
536.291637
 20
642.813879
 30
0.0
 11
536.909975
 21
642.812189
 31
0.0
  0
LWPOLYLINE
  5
D2
330
7B
100
AcDbEntity
  8
0
  6
Continuous
 62
     0
370
     0
100
AcDbPolyline
 90
       17
 70
     0
 43
0.0
 10
536.909973
 20
642.812195
 10
536.908142
 20
643.534546
 10
536.905884
 20
644.250977
 10
536.903198
 20
644.953247
 10
536.900024
 20
645.634399
 10
536.896362
 20
646.28833
 10
536.892151
 20
646.90918
 10
536.887329
 20
647.491089
 10
536.881897
 20
648.028625
 10
536.875732
 20
648.516907
 10
536.868835
 20
648.951416
 10
536.861267
 20
649.327881
 10
536.853088
 20
649.642517
 10
536.844666
 20
649.892456
 10
536.836731
 20
650.076172
 10
536.829102
 20
650.191956
 10
536.81842
 20
650.238831
  0
LWPOLYLINE
  5
D3
330
7B
100
AcDbEntity
  8
0
  6
Continuous
 62
     0
370
     0
100
AcDbPolyline
 90
       17
 70
     0
 43
0.0
 10
536.81842
 20
661.598328
 10
536.828552
 20
661.640076
 10
536.836243
 20
661.751404
 10
536.844116
 20
661.930786
 10
536.852539
 20
662.176514
 10
536.860779
 20
662.487061
 10
536.868347
 20
662.85968
 10
536.875305
 20
663.290527
 10
536.88147
 20
663.775513
 10
536.887024
 20
664.309998
 10
536.891846
 20
664.889221
 10
536.896118
 20
665.50769
 10
536.89978
 20
666.159668
 10
536.903015
 20
666.839233
 10
536.905701
 20
667.540344
 10
536.90802
 20
668.256165
 10
536.909973
 20
669.024902
  0
LINE
  5
D4
330
7B
100
AcDbEntity
  8
0
  6
Continuous
 62
     0
370
     0
100
AcDbLine
 10
536.909975
 20
669.024924
 30
0.0
 11
536.291637
 21
669.023233
 31
0.0
  0
LWPOLYLINE
  5
D5
330
7B
100
AcDbEntity
  8
0
  6
Continuous
 62
     0
370
     0
100
AcDbPolyline
 90
        3
 70
     0
 43
0.0
 10
536.291626
 20
669.023254
 10
527.690369
 20
668.994324
 10
517.140747
 20
668.964722
  0
LINE
  5
D6
330
7B
100
AcDbEntity
  8
0
  6
Continuous
 62
     0
370
     0
100
AcDbLine
 10
517.140755
 20
668.964734
 30
0.0
 11
517.140755
 21
661.595913
 31
0.0
  0
LWPOLYLINE
  5
D7
330
7B
100
AcDbEntity
  8
0
  6
Continuous
 62
     0
370
     0
100
AcDbPolyline
 90
        4
 70
     0
 43
0.0
 10
517.140747
 20
661.595886
 10
523.376343
 20
661.59613
 10
529.598511
 20
661.596497
 10
536.81842
 20
661.598328
  0
LINE
  5
D8
330
7B
100
AcDbEntity
  8
0
  6
Continuous
 62
     0
370
     0
100
AcDbLine
 10
536.818426
 20
661.597513
 30
0.0
 11
536.649444
 21
661.427207
 31
0.0
  0
ARC
  5
D9
330
7B
100
AcDbEntity
  8
0
  6
Continuous
 62
     0
370
     0
100
AcDbCircle
 10
536.649352
 20
660.427153
 30
0.0
 40
1.000053852843429
100
AcDbArc
 50
0.005267
 51
89.994733
  0
LINE
  5
DA
330
7B
100
AcDbEntity
  8
0
  6
Continuous
 62
     0
370
     0
100
AcDbLine
 10
537.649406
 20
660.427245
 30
0.0
 11
537.819714
 21
660.597886
 31
0.0
  0
ARC
  5
DB
330
7B
100
AcDbEntity
  8
0
  6
Continuous
 62
     0
370
     0
100
AcDbCircle
 10
536.81999
 20
660.597791
 30
0.0
 40
0.9997233858642925
100
AcDbArc
 50
0.005446
 51
90.089649
  0
LINE
  5
DC
330
7B
100
AcDbEntity
  8
0
  6
Continuous
 62
     0
370
     0
100
AcDbLine
 10
536.649444
 20
660.427245
 30
0.0
 11
537.649406
 21
660.427245
 31
0.0
  0
LINE
  5
DD
330
7B
100
AcDbEntity
  8
0
  6
Continuous
 62
     0
370
     0
100
AcDbLine
 10
536.649444
 20
661.427207
 30
0.0
 11
536.649444
 21
660.427245
 31
0.0
  0
LINE
  5
DE
330
7B
100
AcDbEntity
  8
0
  6
Continuous
 62
     0
370
     0
100
AcDbLine
 10
536.649444
 20
660.427245
 30
0.0
 11
536.649444
 21
651.409867
 31
0.0
  0
LINE
  5
DF
330
7B
100
AcDbEntity
  8
0
  6
Continuous
 62
     0
370
     0
100
AcDbLine
 10
536.649444
 20
651.409867
 30
0.0
 11
537.649406
 21
651.409867
 31
0.0
  0
LINE
  5
E0
330
7B
100
AcDbEntity
  8
0
  6
Continuous
 62
     0
370
     0
100
AcDbLine
 10
537.649406
 20
651.409867
 30
0.0
 11
537.649406
 21
660.427245
 31
0.0
  0
ARC
  5
E1
330
7B
100
AcDbEntity
  8
0
  6
Continuous
 62
     0
370
     0
100
AcDbCircle
 10
536.649352
 20
651.409959
 30
0.0
 40
1.000053852845659
100
AcDbArc
 50
270.005267
 51
359.994733
  0
LINE
  5
E2
330
7B
100
AcDbEntity
  8
0
  6
Continuous
 62
     0
370
     0
100
AcDbLine
 10
536.649444
 20
651.409867
 30
0.0
 11
536.649444
 21
650.409906
 31
0.0
  0
LINE
  5
E3
330
7B
100
AcDbEntity
  8
0
  6
Continuous
 62
     0
370
     0
100
AcDbLine
 10
536.649444
 20
650.409906
 30
0.0
 11
536.818426
 21
650.2396
 31
0.0
  0
ARC
  5
E4
330
7B
100
AcDbEntity
  8
0
  6
Continuous
 62
     0
370
     0
100
AcDbCircle
 10
536.81999
 20
651.239322
 30
0.0
 40
0.999723376077209
100
AcDbArc
 50
269.910348
 51
359.994554
  0
LINE
  5
E5
330
7B
100
AcDbEntity
  8
0
  6
Continuous
 62
     0
370
     0
100
AcDbLine
 10
537.819714
 20
651.239227
 30
0.0
 11
537.649406
 21
651.409867
 31
0.0
  0
LWPOLYLINE
  5
E6
330
7B
100
AcDbEntity
  8
0
  6
Continuous
 62
     0
370
     0
100
AcDbPolyline
 90
        9
 70
     0
 43
0.0
 10
536.909973
 20
642.812195
 10
537.070007
 20
643.483582
 10
537.227539
 20
644.154114
 10
537.379639
 20
644.82251
 10
537.522461
 20
645.488159
 10
537.651062
 20
646.151611
 10
537.76001
 20
646.813477
 10
537.839417
 20
647.474304
 10
537.87561
 20
648.209045
  0
LWPOLYLINE
  5
E7
330
7B
100
AcDbEntity
  8
0
  6
Continuous
 62
     0
370
     0
100
AcDbPolyline
 90
       10
 70
     0
 43
0.0
 10
537.87561
 20
648.209045
 10
537.871033
 20
648.804382
 10
537.865845
 20
649.345703
 10
537.860107
 20
649.827209
 10
537.853943
 20
650.243469
 10
537.847473
 20
650.591003
 10
537.840759
 20
650.866638
 10
537.833862
 20
651.067566
 10
537.826843
 20
651.191895
 10
537.819702
 20
651.239197
  0
LINE
  5
E8
330
7B
100
AcDbEntity
  8
0
  6
Continuous
 62
     0
370
     0
100
AcDbLine
 10
537.875856
 20
648.20902
 30
0.0
 11
537.875767
 21
650.170687
 31
0.0
  0
LINE
  5
E9
330
7B
100
AcDbEntity
  8
0
  6
Continuous
 62
     0
370
     0
100
AcDbLine
 10
537.875767
 20
650.170687
 30
0.0
 11
537.875653
 21
655.918556
 31
0.0
  0
LINE
  5
EA
330
7B
100
AcDbEntity
  8
0
  6
Continuous
 62
     0
370
     0
100
AcDbLine
 10
537.875653
 20
655.918556
 30
0.0
 11
537.875767
 21
661.666425
 31
0.0
  0
LINE
  5
EB
330
7B
100
AcDbEntity
  8
0
  6
Continuous
 62
     0
370
     0
100
AcDbLine
 10
537.875767
 20
661.666425
 30
0.0
 11
537.875856
 21
663.628093
 31
0.0
  0
LWPOLYLINE
  5
EC
330
7B
100
AcDbEntity
  8
0
  6
Continuous
 62
     0
370
     0
100
AcDbPolyline
 90
       12
 70
     0
 43
0.0
 10
537.875854
 20
663.628113
 10
537.872681
 20
663.219788
 10
537.869141
 20
662.824463
 10
537.865234
 20
662.444824
 10
537.860962
 20
662.084412
 10
537.856323
 20
661.747498
 10
537.851257
 20
661.439575
 10
537.845764
 20
661.167297
 10
537.839844
 20
660.938599
 10
537.833557
 20
660.762207
 10
537.827026
 20
660.646729
 10
537.819702
 20
660.5979
  0
LWPOLYLINE
  5
ED
330
7B
100
AcDbEntity
  8
0
  6
Continuous
 62
     0
370
     0
100
AcDbPolyline
 90
        9
 70
     0
 43
0.0
 10
537.87561
 20
663.628113
 10
537.846069
 20
664.287659
 10
537.770752
 20
664.948425
 10
537.664551
 20
665.610168
 10
537.537903
 20
666.273376
 10
537.396484
 20
666.938721
 10
537.245178
 20
667.606812
 10
537.088074
 20
668.277161
 10
536.909973
 20
669.024902
  0
LINE
  5
EE
330
7B
100
AcDbEntity
  8
0
  6
Continuous
 62
     0
370
     0
100
AcDbLine
 10
537.875653
 20
655.918556
 30
0.0
 11
538.858163
 21
655.918556
 31
0.0
  0
LINE
  5
EF
330
7B
100
AcDbEntity
  8
0
  6
Continuous
 62
     0
370
     0
100
AcDbLine
 10
538.858163
 20
655.918556
 30
0.0
 11
538.858805
 21
661.424965
 31
0.0
  0
LINE
  5
F0
330
7B
100
AcDbEntity
  8
0
  6
Continuous
 62
     0
370
     0
100
AcDbLine
 10
538.858805
 20
661.424965
 30
0.0
 11
538.858857
 21
661.661963
 31
0.0
  0
ARC
  5
F1
330
7B
100
AcDbEntity
  8
0
  6
Continuous
 62
     0
370
     0
100
AcDbCircle
 10
538.620809
 20
717.516625
 30
0.0
 40
55.85516932763861
100
AcDbArc
 50
269.235719
 51
270.244188
  0
LINE
  5
F2
330
7B
100
AcDbEntity
  8
0
  6
Continuous
 62
     0
370
     0
100
AcDbLine
 10
538.858857
 20
661.661963
 30
0.0
 11
538.859369
 21
663.622259
 31
0.0
  0
ARC
  5
F3
330
7B
100
AcDbEntity
  8
0
  6
Continuous
 62
     0
370
     0
100
AcDbCircle
 10
538.62116
 20
706.366753
 30
0.0
 40
42.74515844397621
100
AcDbArc
 50
269.000941
 51
270.319298
  0
LWPOLYLINE
  5
F4
330
7B
100
AcDbEntity
  8
0
  6
Continuous
 62
     0
370
     0
100
AcDbPolyline
 90
       10
 70
     0
 43
0.0
 10
538.859375
 20
663.622253
 10
538.819763
 20
664.264771
 10
538.71106
 20
664.899536
 10
538.546082
 20
665.521667
 10
538.33606
 20
666.130127
 10
538.091248
 20
666.725403
 10
537.82019
 20
667.309143
 10
537.529663
 20
667.883484
 10
537.226196
 20
668.450989
 10
536.909973
 20
669.024902
  0
ARC
  5
F5
330
7B
100
AcDbEntity
  8
0
  6
Continuous
 62
     0
370
     0
100
AcDbCircle
 10
538.620809
 20
594.320487
 30
0.0
 40
55.85516932360131
100
AcDbArc
 50
89.755812
 51
90.764281
  0
LINE
  5
F6
330
7B
100
AcDbEntity
  8
0
  6
Continuous
 62
     0
370
     0
100
AcDbLine
 10
538.858857
 20
650.175149
 30
0.0
 11
538.858805
 21
650.412148
 31
0.0
  0
LINE
  5
F7
330
7B
100
AcDbEntity
  8
0
  6
Continuous
 62
     0
370
     0
100
AcDbLine
 10
538.858805
 20
650.412148
 30
0.0
 11
538.858163
 21
655.918556
 31
0.0
  0
ARC
  5
F8
330
7B
100
AcDbEntity
  8
0
  6
Continuous
 62
     0
370
     0
100
AcDbCircle
 10
538.62116
 20
605.470359
 30
0.0
 40
42.74515866867709
100
AcDbArc
 50
89.680702
 51
90.999059
  0
LINE
  5
F9
330
7B
100
AcDbEntity
  8
0
  6
Continuous
 62
     0
370
     0
100
AcDbLine
 10
538.859369
 20
648.214854
 30
0.0
 11
538.858857
 21
650.175149
 31
0.0
  0
LWPOLYLINE
  5
FA
330
7B
100
AcDbEntity
  8
0
  6
Continuous
 62
     0
370
     0
100
AcDbPolyline
 90
       10
 70
     0
 43
0.0
 10
536.909973
 20
642.812195
 10
537.220581
 20
643.375854
 10
537.524292
 20
643.943298
 10
537.815063
 20
644.517456
 10
538.086548
 20
645.101013
 10
538.331848
 20
645.696045
 10
538.542603
 20
646.30426
 10
538.708496
 20
646.926147
 10
538.818359
 20
647.56073
 10
538.859375
 20
648.214844
  0
LWPOLYLINE
  5
FB
330
7B
100
AcDbEntity
  8
0
  6
Continuous
 62
     0
370
     0
100
AcDbPolyline
 90
       17
 70
     0
 43
0.0
 10
497.463104
 20
650.238831
 10
497.452972
 20
650.197083
 10
497.445251
 20
650.085693
 10
497.437378
 20
649.906311
 10
497.428986
 20
649.660583
 10
497.420746
 20
649.350098
 10
497.413147
 20
648.977478
 10
497.406219
 20
648.54657
 10
497.400024
 20
648.061584
 10
497.394501
 20
647.5271
 10
497.389648
 20
646.947876
 10
497.385406
 20
646.329407
 10
497.381714
 20
645.677429
 10
497.37851
 20
644.997864
 10
497.375793
 20
644.296753
 10
497.373505
 20
643.580933
 10
497.371521
 20
642.812195
  0
LINE
  5
FC
330
7B
100
AcDbEntity
  8
0
  6
Continuous
 62
     0
370
     0
100
AcDbLine
 10
497.371535
 20
642.812189
 30
0.0
 11
497.989874
 21
642.813879
 31
0.0
  0
LWPOLYLINE
  5
FD
330
7B
100
AcDbEntity
  8
0
  6
Continuous
 62
     0
370
     0
100
AcDbPolyline
 90
        3
 70
     0
 43
0.0
 10
497.989868
 20
642.813904
 10
506.591125
 20
642.842773
 10
517.140747
 20
642.872375
  0
LWPOLYLINE
  5
FE
330
7B
100
AcDbEntity
  8
0
  6
Continuous
 62
     0
370
     0
100
AcDbPolyline
 90
        4
 70
     0
 43
0.0
 10
517.140747
 20
650.241211
 10
510.90509
 20
650.240967
 10
504.682831
 20
650.240601
 10
497.463104
 20
650.238831
  0
LWPOLYLINE
  5
FF
330
7B
100
AcDbEntity
  8
0
  6
Continuous
 62
     0
370
     0
100
AcDbPolyline
 90
        4
 70
     0
 43
0.0
 10
497.463104
 20
661.598328
 10
503.673981
 20
661.596619
 10
509.893982
 20
661.596252
 10
517.140747
 20
661.595886
  0
LWPOLYLINE
  5
100
330
7B
100
AcDbEntity
  8
0
  6
Continuous
 62
     0
370
     0
100
AcDbPolyline
 90
        3
 70
     0
 43
0.0
 10
517.140747
 20
668.964722
 10
508.538849
 20
668.986694
 10
497.989868
 20
669.023254
  0
LINE
  5
101
330
7B
100
AcDbEntity
  8
0
  6
Continuous
 62
     0
370
     0
100
AcDbLine
 10
497.989874
 20
669.023233
 30
0.0
 11
497.371535
 21
669.024924
 31
0.0
  0
LWPOLYLINE
  5
102
330
7B
100
AcDbEntity
  8
0
  6
Continuous
 62
     0
370
     0
100
AcDbPolyline
 90
       17
 70
     0
 43
0.0
 10
497.371521
 20
669.024902
 10
497.373352
 20
668.302612
 10
497.375641
 20
667.586121
 10
497.378326
 20
666.88385
 10
497.3815
 20
666.202698
 10
497.385162
 20
665.548767
 10
497.389374
 20
664.927917
 10
497.394165
 20
664.346008
 10
497.399628
 20
663.808472
 10
497.405792
 20
663.32019
 10
497.412659
 20
662.885681
 10
497.420258
 20
662.509216
 10
497.428436
 20
662.19458
 10
497.436859
 20
661.944641
 10
497.444763
 20
661.760986
 10
497.452423
 20
661.645142
 10
497.463104
 20
661.598328
  0
ARC
  5
103
330
7B
100
AcDbEntity
  8
0
  6
Continuous
 62
     0
370
     0
100
AcDbCircle
 10
497.46152
 20
660.597791
 30
0.0
 40
0.9997233858667534
100
AcDbArc
 50
89.910351
 51
179.994554
  0
LINE
  5
104
330
7B
100
AcDbEntity
  8
0
  6
Continuous
 62
     0
370
     0
100
AcDbLine
 10
496.461797
 20
660.597886
 30
0.0
 11
496.632105
 21
660.427245
 31
0.0
  0
ARC
  5
105
330
7B
100
AcDbEntity
  8
0
  6
Continuous
 62
     0
370
     0
100
AcDbCircle
 10
497.632158
 20
660.427153
 30
0.0
 40
1.000053852843294
100
AcDbArc
 50
90.005267
 51
179.994733
  0
LINE
  5
106
330
7B
100
AcDbEntity
  8
0
  6
Continuous
 62
     0
370
     0
100
AcDbLine
 10
497.632066
 20
661.427207
 30
0.0
 11
497.463084
 21
661.597513
 31
0.0
  0
LINE
  5
107
330
7B
100
AcDbEntity
  8
0
  6
Continuous
 62
     0
370
     0
100
AcDbLine
 10
497.632066
 20
660.427245
 30
0.0
 11
497.632066
 21
661.427207
 31
0.0
  0
LINE
  5
108
330
7B
100
AcDbEntity
  8
0
  6
Continuous
 62
     0
370
     0
100
AcDbLine
 10
496.632105
 20
660.427245
 30
0.0
 11
497.632066
 21
660.427245
 31
0.0
  0
LINE
  5
109
330
7B
100
AcDbEntity
  8
0
  6
Continuous
 62
     0
370
     0
100
AcDbLine
 10
496.632105
 20
660.427245
 30
0.0
 11
496.632105
 21
651.409867
 31
0.0
  0
LINE
  5
10A
330
7B
100
AcDbEntity
  8
0
  6
Continuous
 62
     0
370
     0
100
AcDbLine
 10
496.632105
 20
651.409867
 30
0.0
 11
497.632066
 21
651.409867
 31
0.0
  0
LINE
  5
10B
330
7B
100
AcDbEntity
  8
0
  6
Continuous
 62
     0
370
     0
100
AcDbLine
 10
497.632066
 20
651.409867
 30
0.0
 11
497.632066
 21
660.427245
 31
0.0
  0
LINE
  5
10C
330
7B
100
AcDbEntity
  8
0
  6
Continuous
 62
     0
370
     0
100
AcDbLine
 10
497.632066
 20
650.409906
 30
0.0
 11
497.632066
 21
651.409867
 31
0.0
  0
ARC
  5
10D
330
7B
100
AcDbEntity
  8
0
  6
Continuous
 62
     0
370
     0
100
AcDbCircle
 10
497.632158
 20
651.409959
 30
0.0
 40
1.000053852845326
100
AcDbArc
 50
180.005267
 51
269.994733
  0
LINE
  5
10E
330
7B
100
AcDbEntity
  8
0
  6
Continuous
 62
     0
370
     0
100
AcDbLine
 10
496.632105
 20
651.409867
 30
0.0
 11
496.461797
 21
651.239227
 31
0.0
  0
ARC
  5
10F
330
7B
100
AcDbEntity
  8
0
  6
Continuous
 62
     0
370
     0
100
AcDbCircle
 10
497.46152
 20
651.239322
 30
0.0
 40
0.9997233760785713
100
AcDbArc
 50
180.005446
 51
270.089652
  0
LINE
  5
110
330
7B
100
AcDbEntity
  8
0
  6
Continuous
 62
     0
370
     0
100
AcDbLine
 10
497.463085
 20
650.2396
 30
0.0
 11
497.632066
 21
650.409906
 31
0.0
  0
LWPOLYLINE
  5
111
330
7B
100
AcDbEntity
  8
0
  6
Continuous
 62
     0
370
     0
100
AcDbPolyline
 90
       10
 70
     0
 43
0.0
 10
496.461792
 20
651.239197
 10
496.454742
 20
651.192932
 10
496.447723
 20
651.06958
 10
496.440826
 20
650.869568
 10
496.434082
 20
650.594788
 10
496.427612
 20
650.248169
 10
496.421478
 20
649.832764
 10
496.41571
 20
649.35199
 10
496.410522
 20
648.811401
 10
496.405914
 20
648.209045
  0
LWPOLYLINE
  5
112
330
7B
100
AcDbEntity
  8
0
  6
Continuous
 62
     0
370
     0
100
AcDbPolyline
 90
        9
 70
     0
 43
0.0
 10
496.405914
 20
648.209045
 10
496.435455
 20
647.549438
 10
496.510742
 20
646.888733
 10
496.616943
 20
646.22699
 10
496.743591
 20
645.563721
 10
496.88504
 20
644.898376
 10
497.036346
 20
644.230286
 10
497.19342
 20
643.559937
 10
497.371521
 20
642.812195
  0
LWPOLYLINE
  5
113
330
7B
100
AcDbEntity
  8
0
  6
Continuous
 62
     0
370
     0
100
AcDbPolyline
 90
       12
 70
     0
 43
0.0
 10
496.461792
 20
660.5979
 10
496.455048
 20
660.640442
 10
496.448456
 20
660.750793
 10
496.442139
 20
660.922668
 10
496.436188
 20
661.147583
 10
496.430664
 20
661.416687
 10
496.425568
 20
661.722107
 10
496.420868
 20
662.056946
 10
496.416595
 20
662.415649
 10
496.412689
 20
662.793884
 10
496.409119
 20
663.18811
 10
496.40564
 20
663.628113
  0
LINE
  5
114
330
7B
100
AcDbEntity
  8
0
  6
Continuous
 62
     0
370
     0
100
AcDbLine
 10
496.405655
 20
663.628093
 30
0.0
 11
496.405743
 21
661.666425
 31
0.0
  0
LINE
  5
115
330
7B
100
AcDbEntity
  8
0
  6
Continuous
 62
     0
370
     0
100
AcDbLine
 10
496.405743
 20
661.666425
 30
0.0
 11
496.405857
 21
655.918556
 31
0.0
  0
LINE
  5
116
330
7B
100
AcDbEntity
  8
0
  6
Continuous
 62
     0
370
     0
100
AcDbLine
 10
496.405857
 20
655.918556
 30
0.0
 11
496.405743
 21
650.170687
 31
0.0
  0
LINE
  5
117
330
7B
100
AcDbEntity
  8
0
  6
Continuous
 62
     0
370
     0
100
AcDbLine
 10
496.405743
 20
650.170687
 30
0.0
 11
496.405655
 21
648.20902
 31
0.0
  0
LWPOLYLINE
  5
118
330
7B
100
AcDbEntity
  8
0
  6
Continuous
 62
     0
370
     0
100
AcDbPolyline
 90
        9
 70
     0
 43
0.0
 10
497.371521
 20
669.024902
 10
497.211517
 20
668.353577
 10
497.053986
 20
667.682983
 10
496.901855
 20
667.014587
 10
496.759033
 20
666.348999
 10
496.630463
 20
665.685547
 10
496.521515
 20
665.023621
 10
496.442078
 20
664.362854
 10
496.405914
 20
663.628113
  0
ARC
  5
119
330
7B
100
AcDbEntity
  8
0
  6
Continuous
 62
     0
370
     0
100
AcDbCircle
 10
495.660701
 20
717.516625
 30
0.0
 40
55.85516933009853
100
AcDbArc
 50
269.755812
 51
270.764281
  0
LINE
  5
11A
330
7B
100
AcDbEntity
  8
0
  6
Continuous
 62
     0
370
     0
100
AcDbLine
 10
495.422654
 20
661.661963
 30
0.0
 11
495.422705
 21
661.424965
 31
0.0
  0
LINE
  5
11B
330
7B
100
AcDbEntity
  8
0
  6
Continuous
 62
     0
370
     0
100
AcDbLine
 10
495.422705
 20
661.424965
 30
0.0
 11
495.423348
 21
655.918556
 31
0.0
  0
LINE
  5
11C
330
7B
100
AcDbEntity
  8
0
  6
Continuous
 62
     0
370
     0
100
AcDbLine
 10
495.423348
 20
655.918556
 30
0.0
 11
496.405857
 21
655.918556
 31
0.0
  0
ARC
  5
11D
330
7B
100
AcDbEntity
  8
0
  6
Continuous
 62
     0
370
     0
100
AcDbCircle
 10
495.660351
 20
706.366753
 30
0.0
 40
42.74515844422113
100
AcDbArc
 50
269.680702
 51
270.999059
  0
LINE
  5
11E
330
7B
100
AcDbEntity
  8
0
  6
Continuous
 62
     0
370
     0
100
AcDbLine
 10
495.422141
 20
663.622259
 30
0.0
 11
495.422654
 21
661.661963
 31
0.0
  0
LWPOLYLINE
  5
11F
330
7B
100
AcDbEntity
  8
0
  6
Continuous
 62
     0
370
     0
100
AcDbPolyline
 90
       10
 70
     0
 43
0.0
 10
497.371521
 20
669.024902
 10
497.060913
 20
668.461243
 10
496.757233
 20
667.893799
 10
496.466431
 20
667.319641
 10
496.194946
 20
666.736145
 10
495.949646
 20
666.141052
 10
495.738892
 20
665.532837
 10
495.572998
 20
664.911011
 10
495.463135
 20
664.276367
 10
495.42215
 20
663.622253
  0
ARC
  5
120
330
7B
100
AcDbEntity
  8
0
  6
Continuous
 62
     0
370
     0
100
AcDbCircle
 10
495.660701
 20
594.320487
 30
0.0
 40
55.85516932691448
100
AcDbArc
 50
89.235719
 51
90.244188
  0
LINE
  5
121
330
7B
100
AcDbEntity
  8
0
  6
Continuous
 62
     0
370
     0
100
AcDbLine
 10
495.423348
 20
655.918556
 30
0.0
 11
495.422705
 21
650.412148
 31
0.0
  0
LINE
  5
122
330
7B
100
AcDbEntity
  8
0
  6
Continuous
 62
     0
370
     0
100
AcDbLine
 10
495.422705
 20
650.412148
 30
0.0
 11
495.422654
 21
650.175149
 31
0.0
  0
LINE
  5
123
330
7B
100
AcDbEntity
  8
0
  6
Continuous
 62
     0
370
     0
100
AcDbLine
 10
495.422654
 20
650.175149
 30
0.0
 11
495.422141
 21
648.214854
 31
0.0
  0
ARC
  5
124
330
7B
100
AcDbEntity
  8
0
  6
Continuous
 62
     0
370
     0
100
AcDbCircle
 10
495.660351
 20
605.470359
 30
0.0
 40
42.74515866740232
100
AcDbArc
 50
89.000941
 51
90.319298
  0
LWPOLYLINE
  5
125
330
7B
100
AcDbEntity
  8
0
  6
Continuous
 62
     0
370
     0
100
AcDbPolyline
 90
       10
 70
     0
 43
0.0
 10
495.42215
 20
648.214844
 10
495.461731
 20
647.572327
 10
495.570465
 20
646.937561
 10
495.735443
 20
646.31543
 10
495.945465
 20
645.70697
 10
496.190247
 20
645.111694
 10
496.461304
 20
644.527954
 10
496.751831
 20
643.953674
 10
497.055328
 20
643.386108
 10
497.371521
 20
642.812195
  0
LINE
  5
126
330
7B
100
AcDbEntity
  8
0
  6
Continuous
 62
     0
370
     0
100
AcDbLine
 10
536.649444
 20
650.409906
 30
0.0
 11
497.632066
 21
650.409906
 31
0.0
  0
LINE
  5
127
330
7B
100
AcDbEntity
  8
0
  6
Continuous
 62
     0
370
     0
100
AcDbLine
 10
536.649444
 20
651.409867
 30
0.0
 11
497.632066
 21
651.409867
 31
0.0
  0
LINE
  5
128
330
7B
100
AcDbEntity
  8
0
  6
Continuous
 62
     0
370
     0
100
AcDbLine
 10
536.649444
 20
660.427245
 30
0.0
 11
497.632066
 21
660.427245
 31
0.0
  0
LINE
  5
129
330
7B
100
AcDbEntity
  8
0
  6
Continuous
 62
     0
370
     0
100
AcDbLine
 10
536.649444
 20
661.427207
 30
0.0
 11
497.632066
 21
661.427207
 31
0.0
  0
ARC
  5
12A
330
7B
100
AcDbEntity
  8
0
  6
Continuous
 62
     0
370
    30
100
AcDbCircle
 10
517.140742
 20
655.91857
 30
0.0
 40
24.00001348890063
100
AcDbArc
 50
269.999954
 51
359.999968
  0
ARC
  5
12B
330
7B
100
AcDbEntity
  8
0
  6
Continuous
 62
     0
370
    30
100
AcDbCircle
 10
517.140755
 20
655.918556
 30
0.0
 40
24.00000000003322
100
AcDbArc
 50
0.0
 51
269.999922
  0
ARC
  5
12C
330
7B
100
AcDbEntity
  8
0
  6
Continuous
 62
     0
370
    30
100
AcDbCircle
 10
489.140759
 20
783.918556
 30
0.0
 40
0.4999999999860378
100
AcDbArc
 50
90.0
 51
180.0
  0
LINE
  5
12D
330
7B
100
AcDbEntity
  8
0
  6
Continuous
 62
     0
370
     0
100
AcDbLine
 10
545.140759
 20
783.918556
 30
0.0
 11
489.140759
 21
783.918556
 31
0.0
  0
LINE
  5
12E
330
7B
100
AcDbEntity
  8
0
  6
Continuous
 62
     0
370
     0
100
AcDbLine
 10
489.140759
 20
783.918556
 30
0.0
 11
489.140759
 21
727.918556
 31
0.0
  0
LINE
  5
12F
330
7B
100
AcDbEntity
  8
0
  6
Continuous
 62
     0
370
     0
100
AcDbLine
 10
489.140759
 20
727.918556
 30
0.0
 11
545.140759
 21
727.918556
 31
0.0
  0
LINE
  5
130
330
7B
100
AcDbEntity
  8
0
  6
Continuous
 62
     0
370
     0
100
AcDbLine
 10
545.140759
 20
727.918556
 30
0.0
 11
545.140759
 21
783.918556
 31
0.0
  0
ARC
  5
131
330
7B
100
AcDbEntity
  8
0
  6
Continuous
 62
     0
370
     0
100
AcDbCircle
 10
517.140759
 20
755.918888
 30
0.0
 40
24.40000000225906
100
AcDbArc
 50
359.99922
 51
180.00078
  0
ARC
  5
132
330
7B
100
AcDbEntity
  8
0
  6
Continuous
 62
     0
370
     0
100
AcDbCircle
 10
517.140759
 20
755.918224
 30
0.0
 40
24.40000000225906
100
AcDbArc
 50
179.99922
 51
0.00078
  0
LINE
  5
133
330
7B
100
AcDbEntity
  8
0
  6
Continuous
 62
     0
370
    30
100
AcDbLine
 10
488.640759
 20
727.918556
 30
0.0
 11
488.640759
 21
783.918556
 31
0.0
  0
ARC
  5
134
330
7B
100
AcDbEntity
  8
0
  6
Continuous
 62
     0
370
    30
100
AcDbCircle
 10
489.140759
 20
727.918556
 30
0.0
 40
0.5000000000087947
100
AcDbArc
 50
180.0
 51
270.0
  0
LINE
  5
135
330
7B
100
AcDbEntity
  8
0
  6
Continuous
 62
     0
370
    30
100
AcDbLine
 10
545.140759
 20
727.418556
 30
0.0
 11
489.140759
 21
727.418556
 31
0.0
  0
ARC
  5
136
330
7B
100
AcDbEntity
  8
0
  6
Continuous
 62
     0
370
    30
100
AcDbCircle
 10
545.140759
 20
727.918556
 30
0.0
 40
0.4999999999897149
100
AcDbArc
 50
270.0
 51
0.0
  0
LINE
  5
137
330
7B
100
AcDbEntity
  8
0
  6
Continuous
 62
     0
370
    30
100
AcDbLine
 10
545.640759
 20
783.918556
 30
0.0
 11
545.640759
 21
727.918556
 31
0.0
  0
ARC
  5
138
330
7B
100
AcDbEntity
  8
0
  6
Continuous
 62
     0
370
    30
100
AcDbCircle
 10
545.140759
 20
783.918556
 30
0.0
 40
0.4999999999917843
100
AcDbArc
 50
360.0
 51
90.0
  0
LINE
  5
139
330
7B
100
AcDbEntity
  8
0
  6
Continuous
 62
     0
370
    30
100
AcDbLine
 10
489.140759
 20
784.418556
 30
0.0
 11
545.140759
 21
784.418556
 31
0.0
  0
LINE
  5
13A
330
7B
100
AcDbEntity
  8
0
  6
Continuous
 62
     0
370
     0
100
AcDbLine
 10
489.140759
 20
784.418556
 30
0.0
 11
489.140759
 21
783.918556
 31
0.0
  0
LINE
  5
13B
330
7B
100
AcDbEntity
  8
0
  6
Continuous
 62
     0
370
     0
100
AcDbLine
 10
545.140759
 20
783.918556
 30
0.0
 11
545.140759
 21
784.418556
 31
0.0
  0
LINE
  5
13C
330
7B
100
AcDbEntity
  8
0
  6
Continuous
 62
     0
370
     0
100
AcDbLine
 10
545.140759
 20
783.918556
 30
0.0
 11
545.640759
 21
783.918556
 31
0.0
  0
LINE
  5
13D
330
7B
100
AcDbEntity
  8
0
  6
Continuous
 62
     0
370
     0
100
AcDbLine
 10
545.140759
 20
727.918556
 30
0.0
 11
545.640759
 21
727.918556
 31
0.0
  0
LINE
  5
13E
330
7B
100
AcDbEntity
  8
0
  6
Continuous
 62
     0
370
     0
100
AcDbLine
 10
545.140759
 20
727.918556
 30
0.0
 11
545.140759
 21
727.418556
 31
0.0
  0
LINE
  5
13F
330
7B
100
AcDbEntity
  8
0
  6
Continuous
 62
     0
370
     0
100
AcDbLine
 10
489.140759
 20
727.918556
 30
0.0
 11
489.140759
 21
727.418556
 31
0.0
  0
LINE
  5
140
330
7B
100
AcDbEntity
  8
0
  6
Continuous
 62
     0
370
     0
100
AcDbLine
 10
489.140759
 20
727.918556
 30
0.0
 11
488.640759
 21
727.918556
 31
0.0
  0
LINE
  5
141
330
7B
100
AcDbEntity
  8
0
  6
Continuous
 62
     0
370
     0
100
AcDbLine
 10
489.140759
 20
783.918556
 30
0.0
 11
488.640759
 21
783.918556
 31
0.0
  0
LWPOLYLINE
  5
142
330
7B
100
AcDbEntity
  8
0
  6
Continuous
 62
     0
370
     0
100
AcDbPolyline
 90
        4
 70
     0
 43
0.0
 10
536.81842
 20
750.238831
 10
530.607483
 20
750.240479
 10
524.38739
 20
750.240906
 10
517.140747
 20
750.241211
  0
LINE
  5
143
330
7B
100
AcDbEntity
  8
0
  6
Continuous
 62
     0
370
     0
100
AcDbLine
 10
517.140755
 20
750.2412
 30
0.0
 11
517.140755
 21
742.872378
 31
0.0
  0
LWPOLYLINE
  5
144
330
7B
100
AcDbEntity
  8
0
  6
Continuous
 62
     0
370
     0
100
AcDbPolyline
 90
        3
 70
     0
 43
0.0
 10
517.140747
 20
742.872375
 10
525.742676
 20
742.850403
 10
536.291626
 20
742.813904
  0
LINE
  5
145
330
7B
100
AcDbEntity
  8
0
  6
Continuous
 62
     0
370
     0
100
AcDbLine
 10
536.291637
 20
742.813879
 30
0.0
 11
536.909975
 21
742.812189
 31
0.0
  0
LWPOLYLINE
  5
146
330
7B
100
AcDbEntity
  8
0
  6
Continuous
 62
     0
370
     0
100
AcDbPolyline
 90
       17
 70
     0
 43
0.0
 10
536.909973
 20
742.812195
 10
536.908142
 20
743.534546
 10
536.905884
 20
744.250977
 10
536.903198
 20
744.953247
 10
536.900024
 20
745.634399
 10
536.896362
 20
746.28833
 10
536.892151
 20
746.90918
 10
536.887329
 20
747.491089
 10
536.881897
 20
748.028625
 10
536.875732
 20
748.516907
 10
536.868835
 20
748.951416
 10
536.861267
 20
749.327881
 10
536.853088
 20
749.642517
 10
536.844666
 20
749.892456
 10
536.836731
 20
750.076172
 10
536.829102
 20
750.191956
 10
536.81842
 20
750.238831
  0
LWPOLYLINE
  5
147
330
7B
100
AcDbEntity
  8
0
  6
Continuous
 62
     0
370
     0
100
AcDbPolyline
 90
       17
 70
     0
 43
0.0
 10
536.81842
 20
761.598328
 10
536.828552
 20
761.640076
 10
536.836243
 20
761.751404
 10
536.844116
 20
761.930786
 10
536.852539
 20
762.176514
 10
536.860779
 20
762.487061
 10
536.868347
 20
762.85968
 10
536.875305
 20
763.290527
 10
536.88147
 20
763.775513
 10
536.887024
 20
764.309998
 10
536.891846
 20
764.889221
 10
536.896118
 20
765.50769
 10
536.89978
 20
766.159668
 10
536.903015
 20
766.839233
 10
536.905701
 20
767.540344
 10
536.90802
 20
768.256165
 10
536.909973
 20
769.024902
  0
LINE
  5
148
330
7B
100
AcDbEntity
  8
0
  6
Continuous
 62
     0
370
     0
100
AcDbLine
 10
536.909975
 20
769.024924
 30
0.0
 11
536.291637
 21
769.023233
 31
0.0
  0
LWPOLYLINE
  5
149
330
7B
100
AcDbEntity
  8
0
  6
Continuous
 62
     0
370
     0
100
AcDbPolyline
 90
        3
 70
     0
 43
0.0
 10
536.291626
 20
769.023254
 10
527.690369
 20
768.994324
 10
517.140747
 20
768.964722
  0
LINE
  5
14A
330
7B
100
AcDbEntity
  8
0
  6
Continuous
 62
     0
370
     0
100
AcDbLine
 10
517.140755
 20
768.964734
 30
0.0
 11
517.140755
 21
761.595913
 31
0.0
  0
LWPOLYLINE
  5
14B
330
7B
100
AcDbEntity
  8
0
  6
Continuous
 62
     0
370
     0
100
AcDbPolyline
 90
        4
 70
     0
 43
0.0
 10
517.140747
 20
761.595886
 10
523.376343
 20
761.59613
 10
529.598511
 20
761.596497
 10
536.81842
 20
761.598328
  0
LINE
  5
14C
330
7B
100
AcDbEntity
  8
0
  6
Continuous
 62
     0
370
     0
100
AcDbLine
 10
536.818426
 20
761.597513
 30
0.0
 11
536.649444
 21
761.427207
 31
0.0
  0
ARC
  5
14D
330
7B
100
AcDbEntity
  8
0
  6
Continuous
 62
     0
370
     0
100
AcDbCircle
 10
536.649352
 20
760.427153
 30
0.0
 40
1.000053852841404
100
AcDbArc
 50
0.005267
 51
89.994733
  0
LINE
  5
14E
330
7B
100
AcDbEntity
  8
0
  6
Continuous
 62
     0
370
     0
100
AcDbLine
 10
537.649406
 20
760.427245
 30
0.0
 11
537.819714
 21
760.597886
 31
0.0
  0
ARC
  5
14F
330
7B
100
AcDbEntity
  8
0
  6
Continuous
 62
     0
370
     0
100
AcDbCircle
 10
536.81999
 20
760.597791
 30
0.0
 40
0.9997233858709316
100
AcDbArc
 50
0.005446
 51
90.089649
  0
LINE
  5
150
330
7B
100
AcDbEntity
  8
0
  6
Continuous
 62
     0
370
     0
100
AcDbLine
 10
536.649444
 20
761.427207
 30
0.0
 11
536.649444
 21
760.427245
 31
0.0
  0
LINE
  5
151
330
7B
100
AcDbEntity
  8
0
  6
Continuous
 62
     0
370
     0
100
AcDbLine
 10
536.649444
 20
760.427245
 30
0.0
 11
537.649406
 21
760.427245
 31
0.0
  0
LINE
  5
152
330
7B
100
AcDbEntity
  8
0
  6
Continuous
 62
     0
370
     0
100
AcDbLine
 10
536.649444
 20
760.427245
 30
0.0
 11
536.649444
 21
751.409867
 31
0.0
  0
LINE
  5
153
330
7B
100
AcDbEntity
  8
0
  6
Continuous
 62
     0
370
     0
100
AcDbLine
 10
536.649444
 20
751.409867
 30
0.0
 11
537.649406
 21
751.409867
 31
0.0
  0
LINE
  5
154
330
7B
100
AcDbEntity
  8
0
  6
Continuous
 62
     0
370
     0
100
AcDbLine
 10
537.649406
 20
751.409867
 30
0.0
 11
537.649406
 21
760.427245
 31
0.0
  0
LINE
  5
155
330
7B
100
AcDbEntity
  8
0
  6
Continuous
 62
     0
370
     0
100
AcDbLine
 10
536.649444
 20
751.409867
 30
0.0
 11
536.649444
 21
750.409906
 31
0.0
  0
ARC
  5
156
330
7B
100
AcDbEntity
  8
0
  6
Continuous
 62
     0
370
     0
100
AcDbCircle
 10
536.649352
 20
751.409959
 30
0.0
 40
1.000053852847997
100
AcDbArc
 50
270.005267
 51
359.994733
  0
LINE
  5
157
330
7B
100
AcDbEntity
  8
0
  6
Continuous
 62
     0
370
     0
100
AcDbLine
 10
536.649444
 20
750.409906
 30
0.0
 11
536.818426
 21
750.2396
 31
0.0
  0
ARC
  5
158
330
7B
100
AcDbEntity
  8
0
  6
Continuous
 62
     0
370
     0
100
AcDbCircle
 10
536.81999
 20
751.239322
 30
0.0
 40
0.9997233760775921
100
AcDbArc
 50
269.910348
 51
359.994554
  0
LINE
  5
159
330
7B
100
AcDbEntity
  8
0
  6
Continuous
 62
     0
370
     0
100
AcDbLine
 10
537.819714
 20
751.239227
 30
0.0
 11
537.649406
 21
751.409867
 31
0.0
  0
LWPOLYLINE
  5
15A
330
7B
100
AcDbEntity
  8
0
  6
Continuous
 62
     0
370
     0
100
AcDbPolyline
 90
        9
 70
     0
 43
0.0
 10
536.909973
 20
742.812195
 10
537.070007
 20
743.483582
 10
537.227539
 20
744.154114
 10
537.379639
 20
744.82251
 10
537.522461
 20
745.488159
 10
537.651062
 20
746.151611
 10
537.76001
 20
746.813477
 10
537.839417
 20
747.474304
 10
537.87561
 20
748.209045
  0
LWPOLYLINE
  5
15B
330
7B
100
AcDbEntity
  8
0
  6
Continuous
 62
     0
370
     0
100
AcDbPolyline
 90
       10
 70
     0
 43
0.0
 10
537.87561
 20
748.209045
 10
537.871033
 20
748.804382
 10
537.865845
 20
749.345703
 10
537.860107
 20
749.827209
 10
537.853943
 20
750.243469
 10
537.847473
 20
750.591003
 10
537.840759
 20
750.866638
 10
537.833862
 20
751.067566
 10
537.826843
 20
751.191895
 10
537.819702
 20
751.239197
  0
LINE
  5
15C
330
7B
100
AcDbEntity
  8
0
  6
Continuous
 62
     0
370
     0
100
AcDbLine
 10
537.875856
 20
748.20902
 30
0.0
 11
537.875767
 21
750.170687
 31
0.0
  0
LINE
  5
15D
330
7B
100
AcDbEntity
  8
0
  6
Continuous
 62
     0
370
     0
100
AcDbLine
 10
537.875767
 20
750.170687
 30
0.0
 11
537.875653
 21
755.918556
 31
0.0
  0
LINE
  5
15E
330
7B
100
AcDbEntity
  8
0
  6
Continuous
 62
     0
370
     0
100
AcDbLine
 10
537.875653
 20
755.918556
 30
0.0
 11
537.875767
 21
761.666425
 31
0.0
  0
LINE
  5
15F
330
7B
100
AcDbEntity
  8
0
  6
Continuous
 62
     0
370
     0
100
AcDbLine
 10
537.875767
 20
761.666425
 30
0.0
 11
537.875856
 21
763.628093
 31
0.0
  0
LWPOLYLINE
  5
160
330
7B
100
AcDbEntity
  8
0
  6
Continuous
 62
     0
370
     0
100
AcDbPolyline
 90
       12
 70
     0
 43
0.0
 10
537.875854
 20
763.628113
 10
537.872681
 20
763.219788
 10
537.869141
 20
762.824463
 10
537.865234
 20
762.444824
 10
537.860962
 20
762.084412
 10
537.856323
 20
761.747498
 10
537.851257
 20
761.439575
 10
537.845764
 20
761.167297
 10
537.839844
 20
760.938599
 10
537.833557
 20
760.762207
 10
537.827026
 20
760.646729
 10
537.819702
 20
760.5979
  0
LWPOLYLINE
  5
161
330
7B
100
AcDbEntity
  8
0
  6
Continuous
 62
     0
370
     0
100
AcDbPolyline
 90
        9
 70
     0
 43
0.0
 10
537.87561
 20
763.628113
 10
537.846069
 20
764.287659
 10
537.770752
 20
764.948425
 10
537.664551
 20
765.610168
 10
537.537903
 20
766.273376
 10
537.396484
 20
766.938721
 10
537.245178
 20
767.606812
 10
537.088074
 20
768.277161
 10
536.909973
 20
769.024902
  0
LINE
  5
162
330
7B
100
AcDbEntity
  8
0
  6
Continuous
 62
     0
370
     0
100
AcDbLine
 10
537.875653
 20
755.918556
 30
0.0
 11
538.858163
 21
755.918556
 31
0.0
  0
LINE
  5
163
330
7B
100
AcDbEntity
  8
0
  6
Continuous
 62
     0
370
     0
100
AcDbLine
 10
538.858163
 20
755.918556
 30
0.0
 11
538.858805
 21
761.424965
 31
0.0
  0
LINE
  5
164
330
7B
100
AcDbEntity
  8
0
  6
Continuous
 62
     0
370
     0
100
AcDbLine
 10
538.858805
 20
761.424965
 30
0.0
 11
538.858857
 21
761.661963
 31
0.0
  0
ARC
  5
165
330
7B
100
AcDbEntity
  8
0
  6
Continuous
 62
     0
370
     0
100
AcDbCircle
 10
538.620809
 20
817.516625
 30
0.0
 40
55.85516932624858
100
AcDbArc
 50
269.235719
 51
270.244188
  0
LINE
  5
166
330
7B
100
AcDbEntity
  8
0
  6
Continuous
 62
     0
370
     0
100
AcDbLine
 10
538.858857
 20
761.661963
 30
0.0
 11
538.859369
 21
763.622259
 31
0.0
  0
ARC
  5
167
330
7B
100
AcDbEntity
  8
0
  6
Continuous
 62
     0
370
     0
100
AcDbCircle
 10
538.62116
 20
806.366753
 30
0.0
 40
42.74515844565836
100
AcDbArc
 50
269.000941
 51
270.319298
  0
LWPOLYLINE
  5
168
330
7B
100
AcDbEntity
  8
0
  6
Continuous
 62
     0
370
     0
100
AcDbPolyline
 90
       10
 70
     0
 43
0.0
 10
538.859375
 20
763.622253
 10
538.819763
 20
764.264771
 10
538.71106
 20
764.899536
 10
538.546082
 20
765.521667
 10
538.33606
 20
766.130127
 10
538.091248
 20
766.725403
 10
537.82019
 20
767.309143
 10
537.529663
 20
767.883484
 10
537.226196
 20
768.450989
 10
536.909973
 20
769.024902
  0
ARC
  5
169
330
7B
100
AcDbEntity
  8
0
  6
Continuous
 62
     0
370
     0
100
AcDbCircle
 10
538.620809
 20
694.320487
 30
0.0
 40
55.85516932340191
100
AcDbArc
 50
89.755812
 51
90.764281
  0
LINE
  5
16A
330
7B
100
AcDbEntity
  8
0
  6
Continuous
 62
     0
370
     0
100
AcDbLine
 10
538.858857
 20
750.175149
 30
0.0
 11
538.858805
 21
750.412148
 31
0.0
  0
LINE
  5
16B
330
7B
100
AcDbEntity
  8
0
  6
Continuous
 62
     0
370
     0
100
AcDbLine
 10
538.858805
 20
750.412148
 30
0.0
 11
538.858163
 21
755.918556
 31
0.0
  0
ARC
  5
16C
330
7B
100
AcDbEntity
  8
0
  6
Continuous
 62
     0
370
     0
100
AcDbCircle
 10
538.62116
 20
705.470359
 30
0.0
 40
42.74515866947081
100
AcDbArc
 50
89.680702
 51
90.999059
  0
LINE
  5
16D
330
7B
100
AcDbEntity
  8
0
  6
Continuous
 62
     0
370
     0
100
AcDbLine
 10
538.859369
 20
748.214854
 30
0.0
 11
538.858857
 21
750.175149
 31
0.0
  0
LWPOLYLINE
  5
16E
330
7B
100
AcDbEntity
  8
0
  6
Continuous
 62
     0
370
     0
100
AcDbPolyline
 90
       10
 70
     0
 43
0.0
 10
536.909973
 20
742.812195
 10
537.220581
 20
743.375854
 10
537.524292
 20
743.943298
 10
537.815063
 20
744.517456
 10
538.086548
 20
745.101013
 10
538.331848
 20
745.696045
 10
538.542603
 20
746.30426
 10
538.708496
 20
746.926147
 10
538.818359
 20
747.56073
 10
538.859375
 20
748.214844
  0
LWPOLYLINE
  5
16F
330
7B
100
AcDbEntity
  8
0
  6
Continuous
 62
     0
370
     0
100
AcDbPolyline
 90
       17
 70
     0
 43
0.0
 10
497.463104
 20
750.238831
 10
497.452972
 20
750.197083
 10
497.445251
 20
750.085693
 10
497.437378
 20
749.906311
 10
497.428986
 20
749.660583
 10
497.420746
 20
749.350098
 10
497.413147
 20
748.977478
 10
497.406219
 20
748.54657
 10
497.400024
 20
748.061584
 10
497.394501
 20
747.5271
 10
497.389648
 20
746.947876
 10
497.385406
 20
746.329407
 10
497.381714
 20
745.677429
 10
497.37851
 20
744.997864
 10
497.375793
 20
744.296753
 10
497.373505
 20
743.580933
 10
497.371521
 20
742.812195
  0
LINE
  5
170
330
7B
100
AcDbEntity
  8
0
  6
Continuous
 62
     0
370
     0
100
AcDbLine
 10
497.371535
 20
742.812189
 30
0.0
 11
497.989874
 21
742.813879
 31
0.0
  0
LWPOLYLINE
  5
171
330
7B
100
AcDbEntity
  8
0
  6
Continuous
 62
     0
370
     0
100
AcDbPolyline
 90
        3
 70
     0
 43
0.0
 10
497.989868
 20
742.813904
 10
506.591125
 20
742.842773
 10
517.140747
 20
742.872375
  0
LWPOLYLINE
  5
172
330
7B
100
AcDbEntity
  8
0
  6
Continuous
 62
     0
370
     0
100
AcDbPolyline
 90
        4
 70
     0
 43
0.0
 10
517.140747
 20
750.241211
 10
510.90509
 20
750.240967
 10
504.682831
 20
750.240601
 10
497.463104
 20
750.238831
  0
LWPOLYLINE
  5
173
330
7B
100
AcDbEntity
  8
0
  6
Continuous
 62
     0
370
     0
100
AcDbPolyline
 90
        4
 70
     0
 43
0.0
 10
497.463104
 20
761.598328
 10
503.673981
 20
761.596619
 10
509.893982
 20
761.596252
 10
517.140747
 20
761.595886
  0
LWPOLYLINE
  5
174
330
7B
100
AcDbEntity
  8
0
  6
Continuous
 62
     0
370
     0
100
AcDbPolyline
 90
        3
 70
     0
 43
0.0
 10
517.140747
 20
768.964722
 10
508.538849
 20
768.986694
 10
497.989868
 20
769.023254
  0
LINE
  5
175
330
7B
100
AcDbEntity
  8
0
  6
Continuous
 62
     0
370
     0
100
AcDbLine
 10
497.989874
 20
769.023233
 30
0.0
 11
497.371535
 21
769.024924
 31
0.0
  0
LWPOLYLINE
  5
176
330
7B
100
AcDbEntity
  8
0
  6
Continuous
 62
     0
370
     0
100
AcDbPolyline
 90
       17
 70
     0
 43
0.0
 10
497.371521
 20
769.024902
 10
497.373352
 20
768.302612
 10
497.375641
 20
767.586121
 10
497.378326
 20
766.88385
 10
497.3815
 20
766.202698
 10
497.385162
 20
765.548767
 10
497.389374
 20
764.927917
 10
497.394165
 20
764.346008
 10
497.399628
 20
763.808472
 10
497.405792
 20
763.32019
 10
497.412659
 20
762.885681
 10
497.420258
 20
762.509216
 10
497.428436
 20
762.19458
 10
497.436859
 20
761.944641
 10
497.444763
 20
761.760986
 10
497.452423
 20
761.645142
 10
497.463104
 20
761.598328
  0
ARC
  5
177
330
7B
100
AcDbEntity
  8
0
  6
Continuous
 62
     0
370
     0
100
AcDbCircle
 10
497.46152
 20
760.597791
 30
0.0
 40
0.9997233858658153
100
AcDbArc
 50
89.910351
 51
179.994554
  0
LINE
  5
178
330
7B
100
AcDbEntity
  8
0
  6
Continuous
 62
     0
370
     0
100
AcDbLine
 10
496.461797
 20
760.597886
 30
0.0
 11
496.632105
 21
760.427245
 31
0.0
  0
ARC
  5
179
330
7B
100
AcDbEntity
  8
0
  6
Continuous
 62
     0
370
     0
100
AcDbCircle
 10
497.632158
 20
760.427153
 30
0.0
 40
1.000053852841141
100
AcDbArc
 50
90.005267
 51
179.994733
  0
LINE
  5
17A
330
7B
100
AcDbEntity
  8
0
  6
Continuous
 62
     0
370
     0
100
AcDbLine
 10
497.632066
 20
761.427207
 30
0.0
 11
497.463084
 21
761.597513
 31
0.0
  0
LINE
  5
17B
330
7B
100
AcDbEntity
  8
0
  6
Continuous
 62
     0
370
     0
100
AcDbLine
 10
496.632105
 20
760.427245
 30
0.0
 11
497.632066
 21
760.427245
 31
0.0
  0
LINE
  5
17C
330
7B
100
AcDbEntity
  8
0
  6
Continuous
 62
     0
370
     0
100
AcDbLine
 10
497.632066
 20
760.427245
 30
0.0
 11
497.632066
 21
761.427207
 31
0.0
  0
LINE
  5
17D
330
7B
100
AcDbEntity
  8
0
  6
Continuous
 62
     0
370
     0
100
AcDbLine
 10
496.632105
 20
760.427245
 30
0.0
 11
496.632105
 21
751.409867
 31
0.0
  0
LINE
  5
17E
330
7B
100
AcDbEntity
  8
0
  6
Continuous
 62
     0
370
     0
100
AcDbLine
 10
496.632105
 20
751.409867
 30
0.0
 11
497.632066
 21
751.409867
 31
0.0
  0
LINE
  5
17F
330
7B
100
AcDbEntity
  8
0
  6
Continuous
 62
     0
370
     0
100
AcDbLine
 10
497.632066
 20
751.409867
 30
0.0
 11
497.632066
 21
760.427245
 31
0.0
  0
ARC
  5
180
330
7B
100
AcDbEntity
  8
0
  6
Continuous
 62
     0
370
     0
100
AcDbCircle
 10
497.632158
 20
751.409959
 30
0.0
 40
1.000053852845845
100
AcDbArc
 50
180.005267
 51
269.994733
  0
LINE
  5
181
330
7B
100
AcDbEntity
  8
0
  6
Continuous
 62
     0
370
     0
100
AcDbLine
 10
497.632066
 20
750.409906
 30
0.0
 11
497.632066
 21
751.409867
 31
0.0
  0
LINE
  5
182
330
7B
100
AcDbEntity
  8
0
  6
Continuous
 62
     0
370
     0
100
AcDbLine
 10
496.632105
 20
751.409867
 30
0.0
 11
496.461797
 21
751.239227
 31
0.0
  0
ARC
  5
183
330
7B
100
AcDbEntity
  8
0
  6
Continuous
 62
     0
370
     0
100
AcDbCircle
 10
497.46152
 20
751.239322
 30
0.0
 40
0.9997233760835272
100
AcDbArc
 50
180.005446
 51
270.089652
  0
LINE
  5
184
330
7B
100
AcDbEntity
  8
0
  6
Continuous
 62
     0
370
     0
100
AcDbLine
 10
497.463085
 20
750.2396
 30
0.0
 11
497.632066
 21
750.409906
 31
0.0
  0
LWPOLYLINE
  5
185
330
7B
100
AcDbEntity
  8
0
  6
Continuous
 62
     0
370
     0
100
AcDbPolyline
 90
       10
 70
     0
 43
0.0
 10
496.461792
 20
751.239197
 10
496.454742
 20
751.192932
 10
496.447723
 20
751.06958
 10
496.440826
 20
750.869568
 10
496.434082
 20
750.594788
 10
496.427612
 20
750.248169
 10
496.421478
 20
749.832764
 10
496.41571
 20
749.35199
 10
496.410522
 20
748.811401
 10
496.405914
 20
748.209045
  0
LWPOLYLINE
  5
186
330
7B
100
AcDbEntity
  8
0
  6
Continuous
 62
     0
370
     0
100
AcDbPolyline
 90
        9
 70
     0
 43
0.0
 10
496.405914
 20
748.209045
 10
496.435455
 20
747.549438
 10
496.510742
 20
746.888733
 10
496.616943
 20
746.22699
 10
496.743591
 20
745.563721
 10
496.88504
 20
744.898376
 10
497.036346
 20
744.230286
 10
497.19342
 20
743.559937
 10
497.371521
 20
742.812195
  0
LWPOLYLINE
  5
187
330
7B
100
AcDbEntity
  8
0
  6
Continuous
 62
     0
370
     0
100
AcDbPolyline
 90
       12
 70
     0
 43
0.0
 10
496.461792
 20
760.5979
 10
496.455048
 20
760.640442
 10
496.448456
 20
760.750793
 10
496.442139
 20
760.922668
 10
496.436188
 20
761.147583
 10
496.430664
 20
761.416687
 10
496.425568
 20
761.722107
 10
496.420868
 20
762.056946
 10
496.416595
 20
762.415649
 10
496.412689
 20
762.793884
 10
496.409119
 20
763.18811
 10
496.40564
 20
763.628113
  0
LINE
  5
188
330
7B
100
AcDbEntity
  8
0
  6
Continuous
 62
     0
370
     0
100
AcDbLine
 10
496.405655
 20
763.628093
 30
0.0
 11
496.405743
 21
761.666425
 31
0.0
  0
LINE
  5
189
330
7B
100
AcDbEntity
  8
0
  6
Continuous
 62
     0
370
     0
100
AcDbLine
 10
496.405743
 20
761.666425
 30
0.0
 11
496.405857
 21
755.918556
 31
0.0
  0
LINE
  5
18A
330
7B
100
AcDbEntity
  8
0
  6
Continuous
 62
     0
370
     0
100
AcDbLine
 10
496.405857
 20
755.918556
 30
0.0
 11
496.405743
 21
750.170687
 31
0.0
  0
LINE
  5
18B
330
7B
100
AcDbEntity
  8
0
  6
Continuous
 62
     0
370
     0
100
AcDbLine
 10
496.405743
 20
750.170687
 30
0.0
 11
496.405655
 21
748.20902
 31
0.0
  0
LWPOLYLINE
  5
18C
330
7B
100
AcDbEntity
  8
0
  6
Continuous
 62
     0
370
     0
100
AcDbPolyline
 90
        9
 70
     0
 43
0.0
 10
497.371521
 20
769.024902
 10
497.211517
 20
768.353577
 10
497.053986
 20
767.682983
 10
496.901855
 20
767.014587
 10
496.759033
 20
766.348999
 10
496.630463
 20
765.685547
 10
496.521515
 20
765.023621
 10
496.442078
 20
764.362854
 10
496.405914
 20
763.628113
  0
ARC
  5
18D
330
7B
100
AcDbEntity
  8
0
  6
Continuous
 62
     0
370
     0
100
AcDbCircle
 10
495.660701
 20
817.516625
 30
0.0
 40
55.85516932991346
100
AcDbArc
 50
269.755812
 51
270.764281
  0
LINE
  5
18E
330
7B
100
AcDbEntity
  8
0
  6
Continuous
 62
     0
370
     0
100
AcDbLine
 10
495.422654
 20
761.661963
 30
0.0
 11
495.422705
 21
761.424965
 31
0.0
  0
LINE
  5
18F
330
7B
100
AcDbEntity
  8
0
  6
Continuous
 62
     0
370
     0
100
AcDbLine
 10
495.422705
 20
761.424965
 30
0.0
 11
495.423348
 21
755.918556
 31
0.0
  0
LINE
  5
190
330
7B
100
AcDbEntity
  8
0
  6
Continuous
 62
     0
370
     0
100
AcDbLine
 10
495.423348
 20
755.918556
 30
0.0
 11
496.405857
 21
755.918556
 31
0.0
  0
ARC
  5
191
330
7B
100
AcDbEntity
  8
0
  6
Continuous
 62
     0
370
     0
100
AcDbCircle
 10
495.660351
 20
806.366753
 30
0.0
 40
42.7451584430996
100
AcDbArc
 50
269.680702
 51
270.999059
  0
LINE
  5
192
330
7B
100
AcDbEntity
  8
0
  6
Continuous
 62
     0
370
     0
100
AcDbLine
 10
495.422141
 20
763.622259
 30
0.0
 11
495.422654
 21
761.661963
 31
0.0
  0
LWPOLYLINE
  5
193
330
7B
100
AcDbEntity
  8
0
  6
Continuous
 62
     0
370
     0
100
AcDbPolyline
 90
       10
 70
     0
 43
0.0
 10
497.371521
 20
769.024902
 10
497.060913
 20
768.461243
 10
496.757233
 20
767.893799
 10
496.466431
 20
767.319641
 10
496.194946
 20
766.736145
 10
495.949646
 20
766.141052
 10
495.738892
 20
765.532837
 10
495.572998
 20
764.911011
 10
495.463135
 20
764.276367
 10
495.42215
 20
763.622253
  0
ARC
  5
194
330
7B
100
AcDbEntity
  8
0
  6
Continuous
 62
     0
370
     0
100
AcDbCircle
 10
495.660701
 20
694.320487
 30
0.0
 40
55.85516932563736
100
AcDbArc
 50
89.235719
 51
90.244188
  0
LINE
  5
195
330
7B
100
AcDbEntity
  8
0
  6
Continuous
 62
     0
370
     0
100
AcDbLine
 10
495.423348
 20
755.918556
 30
0.0
 11
495.422705
 21
750.412148
 31
0.0
  0
LINE
  5
196
330
7B
100
AcDbEntity
  8
0
  6
Continuous
 62
     0
370
     0
100
AcDbLine
 10
495.422705
 20
750.412148
 30
0.0
 11
495.422654
 21
750.175149
 31
0.0
  0
LINE
  5
197
330
7B
100
AcDbEntity
  8
0
  6
Continuous
 62
     0
370
     0
100
AcDbLine
 10
495.422654
 20
750.175149
 30
0.0
 11
495.422141
 21
748.214854
 31
0.0
  0
ARC
  5
198
330
7B
100
AcDbEntity
  8
0
  6
Continuous
 62
     0
370
     0
100
AcDbCircle
 10
495.660351
 20
705.470359
 30
0.0
 40
42.74515866684786
100
AcDbArc
 50
89.000941
 51
90.319298
  0
LWPOLYLINE
  5
199
330
7B
100
AcDbEntity
  8
0
  6
Continuous
 62
     0
370
     0
100
AcDbPolyline
 90
       10
 70
     0
 43
0.0
 10
495.42215
 20
748.214844
 10
495.461731
 20
747.572327
 10
495.570465
 20
746.937561
 10
495.735443
 20
746.31543
 10
495.945465
 20
745.70697
 10
496.190247
 20
745.111694
 10
496.461304
 20
744.527954
 10
496.751831
 20
743.953674
 10
497.055328
 20
743.386108
 10
497.371521
 20
742.812195
  0
LINE
  5
19A
330
7B
100
AcDbEntity
  8
0
  6
Continuous
 62
     0
370
     0
100
AcDbLine
 10
536.649444
 20
750.409906
 30
0.0
 11
497.632066
 21
750.409906
 31
0.0
  0
LINE
  5
19B
330
7B
100
AcDbEntity
  8
0
  6
Continuous
 62
     0
370
     0
100
AcDbLine
 10
536.649444
 20
751.409867
 30
0.0
 11
497.632066
 21
751.409867
 31
0.0
  0
LINE
  5
19C
330
7B
100
AcDbEntity
  8
0
  6
Continuous
 62
     0
370
     0
100
AcDbLine
 10
536.649444
 20
760.427245
 30
0.0
 11
497.632066
 21
760.427245
 31
0.0
  0
LINE
  5
19D
330
7B
100
AcDbEntity
  8
0
  6
Continuous
 62
     0
370
     0
100
AcDbLine
 10
536.649444
 20
761.427207
 30
0.0
 11
497.632066
 21
761.427207
 31
0.0
  0
ARC
  5
19E
330
7B
100
AcDbEntity
  8
0
  6
Continuous
 62
     0
370
    30
100
AcDbCircle
 10
517.140742
 20
755.91857
 30
0.0
 40
24.00001348890064
100
AcDbArc
 50
269.999954
 51
359.999968
  0
ARC
  5
19F
330
7B
100
AcDbEntity
  8
0
  6
Continuous
 62
     0
370
    30
100
AcDbCircle
 10
517.140755
 20
755.918556
 30
0.0
 40
24.00000000003319
100
AcDbArc
 50
0.0
 51
269.999922
  0
ENDBLK
  5
1A1
330
7B
100
AcDbEntity
  8
0
100
AcDbBlockEnd
  0
BLOCK
  5
1FF
330
1A3
100
AcDbEntity
  8
0
100
AcDbBlockBegin
  2
b
 70
     0
 10
438.321442
 20
307.137825
 30
0.0
  3
b
  1

  0
ARC
  5
1A4
330
1A3
100
AcDbEntity
  8
0
  6
Continuous
 62
     0
370
    30
100
AcDbCircle
 10
567.194661
 20
353.924927
 30
0.0
 40
0.6999999880795758
100
AcDbArc
 50
270.0
 51
359.7
  0
LINE
  5
1A5
330
1A3
100
AcDbEntity
  8
0
  6
Continuous
 62
     0
370
    30
100
AcDbLine
 10
567.894652
 20
353.921262
 30
0.0
 11
567.948078
 21
364.124927
 31
0.0
  0
LWPOLYLINE
  5
1A6
330
1A3
100
AcDbEntity
  8
0
  6
Continuous
 62
     0
370
    30
100
AcDbPolyline
 90
        6
 70
     0
 43
0.0
 10
567.948059
 20
364.124939
 10
567.915039
 20
364.124939
 10
567.819031
 20
364.124939
 10
567.669556
 20
364.124939
 10
567.478821
 20
364.124939
 10
567.248108
 20
364.124939
  0
LINE
  5
1A7
330
1A3
100
AcDbEntity
  8
0
  6
Continuous
 62
     0
370
     0
100
AcDbLine
 10
567.248088
 20
364.124927
 30
0.0
 11
567.194661
 21
353.921262
 31
0.0
  0
ARC
  5
1A8
330
1A3
100
AcDbEntity
  8
0
  6
Continuous
 62
     0
370
     0
100
AcDbCircle
 10
567.544655
 20
387.34421
 30
0.0
 40
33.42478041267238
100
AcDbArc
 50
269.40004
 51
270.599965
  0
LINE
  5
1A9
330
1A3
100
AcDbEntity
  8
0
  6
Continuous
 62
     0
370
    30
100
AcDbLine
 10
537.955684
 20
353.224927
 30
0.0
 11
567.194661
 21
353.224927
 31
0.0
  0
LINE
  5
1AA
330
1A3
100
AcDbEntity
  8
0
  6
Continuous
 62
     0
370
    30
100
AcDbLine
 10
467.08735
 20
353.224927
 30
0.0
 11
496.325826
 21
353.224927
 31
0.0
  0
LWPOLYLINE
  5
1AB
330
1A3
100
AcDbEntity
  8
0
  6
Continuous
 62
     0
370
     0
100
AcDbPolyline
 90
        6
 70
     0
 43
0.0
 10
567.194641
 20
353.224915
 10
567.194641
 20
353.261627
 10
567.194641
 20
353.360962
 10
567.194641
 20
353.501984
 10
567.194641
 20
353.690979
 10
567.194641
 20
353.921265
  0
LINE
  5
1AC
330
1A3
100
AcDbEntity
  8
0
  6
Continuous
 62
     0
370
     0
100
AcDbLine
 10
493.140755
 20
353.921262
 30
0.0
 11
467.08735
 21
353.921262
 31
0.0
  0
LINE
  5
1AD
330
1A3
100
AcDbEntity
  8
0
  6
Continuous
 62
     0
370
     0
100
AcDbLine
 10
567.194661
 20
353.921262
 30
0.0
 11
541.140755
 21
353.921262
 31
0.0
  0
LINE
  5
1AE
330
1A3
100
AcDbEntity
  8
0
  6
Continuous
 62
     0
370
     0
100
AcDbLine
 10
467.08735
 20
353.921262
 30
0.0
 11
467.08735
 21
353.224927
 31
0.0
  0
ARC
  5
1AF
330
1A3
100
AcDbEntity
  8
0
  6
Continuous
 62
     0
370
    30
100
AcDbCircle
 10
467.08735
 20
353.924927
 30
0.0
 40
0.6999999880786458
100
AcDbArc
 50
180.3
 51
270.0
  0
ARC
  5
1B0
330
1A3
100
AcDbEntity
  8
0
  6
Continuous
 62
     0
370
     0
100
AcDbCircle
 10
466.737356
 20
387.34421
 30
0.0
 40
33.42478041273749
100
AcDbArc
 50
269.400035
 51
270.59996
  0
LINE
  5
1B1
330
1A3
100
AcDbEntity
  8
0
  6
Continuous
 62
     0
370
     0
100
AcDbLine
 10
467.08735
 20
353.921262
 30
0.0
 11
467.033923
 21
364.124927
 31
0.0
  0
LINE
  5
1B2
330
1A3
100
AcDbEntity
  8
0
  6
Continuous
 62
     0
370
    30
100
AcDbLine
 10
467.033923
 20
364.124927
 30
0.0
 11
466.333933
 21
364.124927
 31
0.0
  0
LINE
  5
1B3
330
1A3
100
AcDbEntity
  8
0
  6
Continuous
 62
     0
370
    30
100
AcDbLine
 10
466.333933
 20
364.124927
 30
0.0
 11
466.38736
 21
353.921262
 31
0.0
  0
LINE
  5
1B4
330
1A3
100
AcDbEntity
  8
0
  6
Continuous
 62
     0
370
    30
100
AcDbLine
 10
488.640759
 20
364.124927
 30
0.0
 11
467.033923
 21
364.124927
 31
0.0
  0
LINE
  5
1B5
330
1A3
100
AcDbEntity
  8
0
  6
Continuous
 62
     0
370
    30
100
AcDbLine
 10
567.248088
 20
364.124927
 30
0.0
 11
545.640759
 21
364.124927
 31
0.0
  0
ARC
  5
1B6
330
1A3
100
AcDbEntity
  8
0
  6
Continuous
 62
     0
370
    30
100
AcDbCircle
 10
517.141026
 20
309.004927
 30
0.0
 40
3.950000000000013
100
AcDbArc
 50
90.0
 51
269.999997
  0
ARC
  5
1B7
330
1A3
100
AcDbEntity
  8
0
  6
Continuous
 62
     0
370
    30
100
AcDbCircle
 10
517.141026
 20
309.004927
 30
0.0
 40
3.949999999999978
100
AcDbArc
 50
269.999997
 51
90.0
  0
ARC
  5
1B8
330
1A3
100
AcDbEntity
  8
0
  6
Continuous
 62
     0
370
    30
100
AcDbCircle
 10
517.141072
 20
309.004927
 30
0.0
 40
3.450000000319434
100
AcDbArc
 50
269.99922
 51
90.00078
  0
ARC
  5
1B9
330
1A3
100
AcDbEntity
  8
0
  6
Continuous
 62
     0
370
    30
100
AcDbCircle
 10
517.140979
 20
309.004927
 30
0.0
 40
3.450000000319427
100
AcDbArc
 50
89.99922
 51
270.00078
  0
LINE
  5
1BA
330
1A3
100
AcDbEntity
  8
0
  6
Continuous
 62
     0
370
    30
100
AcDbLine
 10
538.641322
 20
300.004929
 30
0.0
 11
517.141026
 21
300.004928
 31
0.0
  0
LINE
  5
1BB
330
1A3
100
AcDbEntity
  8
0
  6
Continuous
 62
     0
370
    30
100
AcDbLine
 10
517.141026
 20
300.004928
 30
0.0
 11
495.640733
 21
300.004929
 31
0.0
  0
LWPOLYLINE
  5
1BC
330
1A3
100
AcDbEntity
  8
0
  6
Continuous
 62
     0
370
    30
100
AcDbPolyline
 90
       28
 70
     0
 43
0.0
 10
539.140625
 20
300.504547
 10
539.103088
 20
300.504486
 10
538.991089
 20
300.504303
 10
538.80542
 20
300.504059
 10
538.546875
 20
300.503815
 10
538.21637
 20
300.503632
 10
537.814941
 20
300.503479
 10
537.343811
 20
300.503387
 10
536.804138
 20
300.503387
 10
536.197571
 20
300.50351
 10
535.526855
 20
300.503662
 10
534.794739
 20
300.503906
 10
534.003967
 20
300.504211
 10
533.157043
 20
300.504486
 10
532.255981
 20
300.504761
 10
531.303406
 20
300.504913
 10
530.302307
 20
300.504852
 10
529.256165
 20
300.504608
 10
528.169006
 20
300.504272
 10
527.044678
 20
300.503906
 10
525.887146
 20
300.503632
 10
524.700256
 20
300.503418
 10
523.48761
 20
300.503387
 10
522.25293
 20
300.50351
 10
521.000244
 20
300.503815
 10
519.734558
 20
300.504242
 10
518.461792
 20
300.504639
 10
517.141052
 20
300.504913
  0
LWPOLYLINE
  5
1BD
330
1A3
100
AcDbEntity
  8
0
  6
Continuous
 62
     0
370
    30
100
AcDbPolyline
 90
       28
 70
     0
 43
0.0
 10
517.141052
 20
300.504913
 10
515.865662
 20
300.504669
 10
514.592712
 20
300.504272
 10
513.326721
 20
300.503845
 10
512.073425
 20
300.50351
 10
510.838074
 20
300.503387
 10
509.624603
 20
300.503418
 10
508.436676
 20
300.503601
 10
507.278046
 20
300.503906
 10
506.152496
 20
300.504272
 10
505.063934
 20
300.504608
 10
504.016296
 20
300.504852
 10
503.013489
 20
300.504913
 10
502.059113
 20
300.504761
 10
501.156219
 20
300.504517
 10
500.307312
 20
300.504211
 10
499.514496
 20
300.503937
 10
498.780243
 20
300.503693
 10
498.107269
 20
300.50351
 10
497.498383
 20
300.503387
 10
496.956268
 20
300.503387
 10
496.482697
 20
300.503479
 10
496.078796
 20
300.503632
 10
495.745728
 20
300.503815
 10
495.484619
 20
300.504059
 10
495.296326
 20
300.504303
 10
495.181671
 20
300.504486
 10
495.141418
 20
300.504547
  0
LINE
  5
1BE
330
1A3
100
AcDbEntity
  8
0
  6
Continuous
 62
     0
370
    30
100
AcDbLine
 10
539.141026
 20
350.004929
 30
0.0
 11
537.850899
 21
350.004929
 31
0.0
  0
LINE
  5
1BF
330
1A3
100
AcDbEntity
  8
0
  6
Continuous
 62
     0
370
    30
100
AcDbLine
 10
496.430612
 20
350.004929
 30
0.0
 11
495.141026
 21
350.004929
 31
0.0
  0
LWPOLYLINE
  5
1C0
330
1A3
100
AcDbEntity
  8
0
  6
Continuous
 62
     0
370
     0
100
AcDbPolyline
 90
       25
 70
     0
 43
0.0
 10
517.141052
 20
313.104919
 10
517.67572
 20
313.069366
 10
518.204041
 20
312.963104
 10
518.712585
 20
312.789948
 10
519.191895
 20
312.555328
 10
519.637512
 20
312.262024
 10
520.038391
 20
311.909485
 10
520.389954
 20
311.507721
 10
520.687256
 20
311.064423
 10
520.924316
 20
310.583862
 10
521.097351
 20
310.075134
 10
521.203735
 20
309.548889
 10
521.240662
 20
309.014771
 10
521.20636
 20
308.480499
 10
521.102417
 20
307.953857
 10
520.931641
 20
307.444305
 10
520.696899
 20
306.962555
 10
520.401611
 20
306.517822
 10
520.052002
 20
306.11441
 10
519.652893
 20
305.759827
 10
519.208801
 20
305.464264
 10
518.730591
 20
305.227448
 10
518.223022
 20
305.051941
 10
517.695129
 20
304.943237
 10
517.141052
 20
304.905334
  0
LWPOLYLINE
  5
1C1
330
1A3
100
AcDbEntity
  8
0
  6
Continuous
 62
     0
370
     0
100
AcDbPolyline
 90
       25
 70
     0
 43
0.0
 10
517.141052
 20
304.905334
 10
516.606323
 20
304.940643
 10
516.078003
 20
305.046814
 10
515.569397
 20
305.219971
 10
515.090088
 20
305.454651
 10
514.644531
 20
305.747986
 10
514.243713
 20
306.100555
 10
513.892151
 20
306.50238
 10
513.594788
 20
306.945679
 10
513.357788
 20
307.42627
 10
513.184753
 20
307.934998
 10
513.078308
 20
308.461243
 10
513.041382
 20
308.995361
 10
513.075684
 20
309.529633
 10
513.179626
 20
310.056274
 10
513.350525
 20
310.565796
 10
513.585327
 20
311.047546
 10
513.880554
 20
311.49231
 10
514.230225
 20
311.895752
 10
514.629333
 20
312.250336
 10
515.073425
 20
312.545868
 10
515.551697
 20
312.782593
 10
516.059265
 20
312.958038
 10
516.587158
 20
313.066772
 10
517.141052
 20
313.104919
  0
LINE
  5
1C2
330
1A3
100
AcDbEntity
  8
0
  6
Continuous
 62
     0
370
    30
100
AcDbLine
 10
539.141026
 20
350.004929
 30
0.0
 11
539.141026
 21
300.504928
 31
0.0
  0
LINE
  5
1C3
330
1A3
100
AcDbEntity
  8
0
  6
Continuous
 62
     0
370
    30
100
AcDbLine
 10
495.141026
 20
350.004929
 30
0.0
 11
495.141026
 21
300.504928
 31
0.0
  0
LINE
  5
1C4
330
1A3
100
AcDbEntity
  8
0
  6
Continuous
 62
     0
370
    30
100
AcDbLine
 10
495.640639
 20
300.005315
 30
0.0
 11
495.141324
 21
300.50463
 31
0.0
  0
LINE
  5
1C5
330
1A3
100
AcDbEntity
  8
0
  6
Continuous
 62
     0
370
    30
100
AcDbLine
 10
538.641414
 20
300.005317
 30
0.0
 11
539.140727
 21
300.50463
 31
0.0
  0
LINE
  5
1C6
330
1A3
100
AcDbEntity
  8
0
  6
Continuous
 62
     0
370
    30
100
AcDbLine
 10
488.640759
 20
364.244884
 30
0.0
 11
488.640759
 21
354.524884
 31
0.0
  0
LINE
  5
1C7
330
1A3
100
AcDbEntity
  8
0
  6
Continuous
 62
     0
370
     0
100
AcDbLine
 10
488.640759
 20
354.524884
 30
0.0
 11
489.140759
 21
354.524884
 31
0.0
  0
LINE
  5
1C8
330
1A3
100
AcDbEntity
  8
0
  6
Continuous
 62
     0
370
     0
100
AcDbLine
 10
489.140759
 20
354.524884
 30
0.0
 11
489.140759
 21
364.244884
 31
0.0
  0
LINE
  5
1C9
330
1A3
100
AcDbEntity
  8
0
  6
Continuous
 62
     0
370
    30
100
AcDbLine
 10
489.140759
 20
364.244884
 30
0.0
 11
488.640759
 21
364.244884
 31
0.0
  0
LINE
  5
1CA
330
1A3
100
AcDbEntity
  8
0
  6
Continuous
 62
     0
370
    30
100
AcDbLine
 10
545.140759
 20
354.024884
 30
0.0
 11
489.140759
 21
354.024884
 31
0.0
  0
LINE
  5
1CB
330
1A3
100
AcDbEntity
  8
0
  6
Continuous
 62
     0
370
    30
100
AcDbLine
 10
545.640759
 20
364.244884
 30
0.0
 11
545.640759
 21
354.524884
 31
0.0
  0
LINE
  5
1CC
330
1A3
100
AcDbEntity
  8
0
  6
Continuous
 62
     0
370
     0
100
AcDbLine
 10
545.140759
 20
364.244884
 30
0.0
 11
545.140759
 21
354.524884
 31
0.0
  0
LINE
  5
1CD
330
1A3
100
AcDbEntity
  8
0
  6
Continuous
 62
     0
370
     0
100
AcDbLine
 10
545.140759
 20
354.524884
 30
0.0
 11
545.640759
 21
354.524884
 31
0.0
  0
LINE
  5
1CE
330
1A3
100
AcDbEntity
  8
0
  6
Continuous
 62
     0
370
    30
100
AcDbLine
 10
545.640759
 20
364.244884
 30
0.0
 11
545.140759
 21
364.244884
 31
0.0
  0
LINE
  5
1CF
330
1A3
100
AcDbEntity
  8
0
  6
Continuous
 62
     0
370
    30
100
AcDbLine
 10
545.140759
 20
364.244884
 30
0.0
 11
489.140759
 21
364.244884
 31
0.0
  0
LINE
  5
1D0
330
1A3
100
AcDbEntity
  8
0
  6
Continuous
 62
     0
370
     0
100
AcDbLine
 10
489.140759
 20
354.524884
 30
0.0
 11
545.140759
 21
354.524884
 31
0.0
  0
LINE
  5
1D1
330
1A3
100
AcDbEntity
  8
0
  6
Continuous
 62
     0
370
     0
100
AcDbLine
 10
489.140759
 20
354.524884
 30
0.0
 11
489.140759
 21
354.024884
 31
0.0
  0
LWPOLYLINE
  5
1D2
330
1A3
100
AcDbEntity
  8
0
  6
Continuous
 62
     0
370
     0
100
AcDbPolyline
 90
        6
 70
     0
 43
0.0
 10
545.140747
 20
354.024872
 10
545.140747
 20
354.04895
 10
545.140747
 20
354.114624
 10
545.140747
 20
354.207947
 10
545.140747
 20
354.332214
 10
545.140747
 20
354.524872
  0
ARC
  5
1D3
330
1A3
100
AcDbEntity
  8
0
  6
Continuous
 62
     0
370
    30
100
AcDbCircle
 10
545.140759
 20
354.524884
 30
0.0
 40
0.500000000000707
100
AcDbArc
 50
270.0
 51
360.0
  0
ARC
  5
1D4
330
1A3
100
AcDbEntity
  8
0
  6
Continuous
 62
     0
370
    30
100
AcDbCircle
 10
489.140759
 20
354.524884
 30
0.0
 40
0.4999999999995666
100
AcDbArc
 50
180.0
 51
270.0
  0
LWPOLYLINE
  5
1D5
330
1A3
100
AcDbEntity
  8
0
  6
Continuous
 62
     0
370
     0
100
AcDbPolyline
 90
       17
 70
     0
 43
0.0
 10
536.81842
 20
346.431732
 10
536.828552
 20
347.153992
 10
536.836243
 20
347.870483
 10
536.844116
 20
348.572937
 10
536.852539
 20
349.254303
 10
536.860779
 20
349.908569
 10
536.868347
 20
350.529846
 10
536.875305
 20
351.112366
 10
536.88147
 20
351.650574
 10
536.887024
 20
352.139648
 10
536.891846
 20
352.574982
 10
536.896118
 20
352.952362
 10
536.89978
 20
353.267853
 10
536.903015
 20
353.518677
 10
536.905701
 20
353.703247
 10
536.90802
 20
353.819885
 10
536.909973
 20
353.867615
  0
LINE
  5
1D6
330
1A3
100
AcDbEntity
  8
0
  6
Continuous
 62
     0
370
     0
100
AcDbLine
 10
536.909975
 20
353.867619
 30
0.0
 11
536.291637
 21
353.858666
 31
0.0
  0
LWPOLYLINE
  5
1D7
330
1A3
100
AcDbEntity
  8
0
  6
Continuous
 62
     0
370
     0
100
AcDbPolyline
 90
        4
 70
     0
 43
0.0
 10
536.291626
 20
353.858673
 10
530.614075
 20
353.781281
 10
524.93634
 20
353.719177
 10
517.140747
 20
353.681335
  0
LINE
  5
1D8
330
1A3
100
AcDbEntity
  8
0
  6
Continuous
 62
     0
370
     0
100
AcDbLine
 10
517.140755
 20
353.681321
 30
0.0
 11
517.140755
 21
346.24792
 31
0.0
  0
LWPOLYLINE
  5
1D9
330
1A3
100
AcDbEntity
  8
0
  6
Continuous
 62
     0
370
     0
100
AcDbPolyline
 90
        4
 70
     0
 43
0.0
 10
517.140747
 20
346.247925
 10
523.134155
 20
346.270599
 10
529.115234
 20
346.328613
 10
536.81842
 20
346.431732
  0
LINE
  5
1DA
330
1A3
100
AcDbEntity
  8
0
  6
Continuous
 62
     0
370
     0
100
AcDbLine
 10
536.818426
 20
346.431293
 30
0.0
 11
536.649444
 21
326.91616
 31
0.0
  0
LWPOLYLINE
  5
1DB
330
1A3
100
AcDbEntity
  8
0
  6
Continuous
 62
     0
370
     0
100
AcDbPolyline
 90
        7
 70
     0
 43
0.0
 10
536.649414
 20
326.916168
 10
536.903931
 20
326.914215
 10
537.142334
 20
326.912994
 10
537.347717
 20
326.912537
 10
537.506958
 20
326.912903
 10
537.609741
 20
326.914062
 10
537.649414
 20
326.916168
  0
LINE
  5
1DC
330
1A3
100
AcDbEntity
  8
0
  6
Continuous
 62
     0
370
    30
100
AcDbLine
 10
537.649406
 20
326.91616
 30
0.0
 11
537.819714
 21
346.431489
 31
0.0
  0
LWPOLYLINE
  5
1DD
330
1A3
100
AcDbEntity
  8
0
  6
Continuous
 62
     0
370
     0
100
AcDbPolyline
 90
        7
 70
     0
 43
0.0
 10
537.819702
 20
346.431488
 10
537.78656
 20
346.429504
 10
537.689514
 20
346.428223
 10
537.534912
 20
346.427734
 10
537.333069
 20
346.42807
 10
537.096863
 20
346.429199
 10
536.81842
 20
346.431305
  0
LINE
  5
1DE
330
1A3
100
AcDbEntity
  8
0
  6
Continuous
 62
     0
370
     0
100
AcDbLine
 10
536.649444
 20
326.91616
 30
0.0
 11
536.649444
 21
325.924886
 31
0.0
  0
ARC
  5
1DF
330
1A3
100
AcDbEntity
  8
0
  6
Continuous
 62
     0
370
    30
100
AcDbCircle
 10
536.649444
 20
326.924886
 30
0.0
 40
1.000000000000595
100
AcDbArc
 50
270.0
 51
359.5
  0
LINE
  5
1E0
330
1A3
100
AcDbEntity
  8
0
  6
Continuous
 62
     0
370
    30
100
AcDbLine
 10
537.875856
 20
352.86472
 30
0.0
 11
537.819714
 21
346.431489
 31
0.0
  0
LWPOLYLINE
  5
1E1
330
1A3
100
AcDbEntity
  8
0
  6
Continuous
 62
     0
370
     0
100
AcDbPolyline
 90
        9
 70
     0
 43
0.0
 10
537.87561
 20
352.864716
 10
537.846008
 20
353.067383
 10
537.770569
 20
353.256958
 10
537.664185
 20
353.427612
 10
537.537354
 20
353.573975
 10
537.395752
 20
353.693298
 10
537.244263
 20
353.783325
 10
537.086975
 20
353.841858
 10
536.909973
 20
353.867615
  0
ARC
  5
1E2
330
1A3
100
AcDbEntity
  8
0
  6
Continuous
 62
     0
370
    30
100
AcDbCircle
 10
538.875612
 20
352.83284
 30
0.0
 40
0.9999907688790464
100
AcDbArc
 50
90.999833
 51
178.173569
  0
ARC
  5
1E3
330
1A3
100
AcDbEntity
  8
0
  6
Continuous
 62
     0
370
    30
100
AcDbCircle
 10
538.875723
 20
352.845872
 30
0.0
 40
0.9999929687385862
100
AcDbArc
 50
90.966432
 51
178.92004
  0
LINE
  5
1E4
330
1A3
100
AcDbEntity
  8
0
  6
Continuous
 62
     0
370
     0
100
AcDbLine
 10
538.858857
 20
353.845722
 30
0.0
 11
538.859369
 21
353.855841
 31
0.0
  0
ARC
  5
1E5
330
1A3
100
AcDbEntity
  8
0
  6
Continuous
 62
     0
370
    30
100
AcDbCircle
 10
538.875808
 20
352.855986
 30
0.0
 40
0.9999909637123879
100
AcDbArc
 50
90.941949
 51
179.499529
  0
LWPOLYLINE
  5
1E6
330
1A3
100
AcDbEntity
  8
0
  6
Continuous
 62
     0
370
     0
100
AcDbPolyline
 90
       10
 70
     0
 43
0.0
 10
538.859375
 20
353.855835
 10
538.819763
 20
353.85907
 10
538.71106
 20
353.86145
 10
538.546082
 20
353.863098
 10
538.33606
 20
353.864258
 10
538.091309
 20
353.865082
 10
537.82019
 20
353.865692
 10
537.529724
 20
353.866241
 10
537.226196
 20
353.866852
 10
536.909973
 20
353.867615
  0
LWPOLYLINE
  5
1E7
330
1A3
100
AcDbEntity
  8
0
  6
Continuous
 62
     0
370
     0
100
AcDbPolyline
 90
        4
 70
     0
 43
0.0
 10
497.463104
 20
346.431732
 10
503.432404
 20
346.349731
 10
509.409882
 20
346.284607
 10
517.140747
 20
346.247925
  0
LWPOLYLINE
  5
1E8
330
1A3
100
AcDbEntity
  8
0
  6
Continuous
 62
     0
370
     0
100
AcDbPolyline
 90
        4
 70
     0
 43
0.0
 10
517.140747
 20
353.681335
 10
511.462677
 20
353.702087
 10
505.784821
 20
353.755829
 10
497.989868
 20
353.858673
  0
LINE
  5
1E9
330
1A3
100
AcDbEntity
  8
0
  6
Continuous
 62
     0
370
     0
100
AcDbLine
 10
497.989874
 20
353.858666
 30
0.0
 11
497.371535
 21
353.867619
 31
0.0
  0
LWPOLYLINE
  5
1EA
330
1A3
100
AcDbEntity
  8
0
  6
Continuous
 62
     0
370
     0
100
AcDbPolyline
 90
       17
 70
     0
 43
0.0
 10
497.371521
 20
353.867615
 10
497.373352
 20
353.825104
 10
497.375641
 20
353.712921
 10
497.378326
 20
353.532776
 10
497.3815
 20
353.286194
 10
497.385162
 20
352.974884
 10
497.389374
 20
352.60141
 10
497.394165
 20
352.169739
 10
497.399628
 20
351.684052
 10
497.405792
 20
351.148895
 10
497.412659
 20
350.569122
 10
497.420227
 20
349.950195
 10
497.428436
 20
349.297882
 10
497.436859
 20
348.618103
 10
497.444763
 20
347.91687
 10
497.452423
 20
347.201019
 10
497.463104
 20
346.431732
  0
LWPOLYLINE
  5
1EB
330
1A3
100
AcDbEntity
  8
0
  6
Continuous
 62
     0
370
     0
100
AcDbPolyline
 90
        7
 70
     0
 43
0.0
 10
497.463074
 20
346.431305
 10
497.208282
 20
346.429352
 10
496.969604
 20
346.428131
 10
496.763916
 20
346.427734
 10
496.60437
 20
346.428131
 10
496.501465
 20
346.429352
 10
496.461792
 20
346.431488
  0
LINE
  5
1EC
330
1A3
100
AcDbEntity
  8
0
  6
Continuous
 62
     0
370
    30
100
AcDbLine
 10
496.461797
 20
346.431489
 30
0.0
 11
496.632105
 21
326.91616
 31
0.0
  0
LWPOLYLINE
  5
1ED
330
1A3
100
AcDbEntity
  8
0
  6
Continuous
 62
     0
370
     0
100
AcDbPolyline
 90
        7
 70
     0
 43
0.0
 10
496.632111
 20
326.916168
 10
496.665192
 20
326.914215
 10
496.762054
 20
326.912994
 10
496.916321
 20
326.912537
 10
497.117798
 20
326.912903
 10
497.353638
 20
326.914062
 10
497.63208
 20
326.916168
  0
LINE
  5
1EE
330
1A3
100
AcDbEntity
  8
0
  6
Continuous
 62
     0
370
     0
100
AcDbLine
 10
497.632066
 20
326.91616
 30
0.0
 11
497.463084
 21
346.431293
 31
0.0
  0
ARC
  5
1EF
330
1A3
100
AcDbEntity
  8
0
  6
Continuous
 62
     0
370
    30
100
AcDbCircle
 10
497.632066
 20
326.924886
 30
0.0
 40
1.000000000000122
100
AcDbArc
 50
180.5
 51
270.0
  0
LWPOLYLINE
  5
1F0
330
1A3
100
AcDbEntity
  8
0
  6
Continuous
 62
     0
370
     0
100
AcDbPolyline
 90
        7
 70
     0
 43
0.0
 10
497.63208
 20
325.924896
 10
497.63208
 20
325.957245
 10
497.63208
 20
326.052612
 10
497.63208
 20
326.2052
 10
497.63208
 20
326.404999
 10
497.63208
 20
326.637756
 10
497.63208
 20
326.916168
  0
LINE
  5
1F1
330
1A3
100
AcDbEntity
  8
0
  6
Continuous
 62
     0
370
    30
100
AcDbLine
 10
496.461797
 20
346.431489
 30
0.0
 11
496.405655
 21
352.86472
 31
0.0
  0
LWPOLYLINE
  5
1F2
330
1A3
100
AcDbEntity
  8
0
  6
Continuous
 62
     0
370
     0
100
AcDbPolyline
 90
        9
 70
     0
 43
0.0
 10
497.371521
 20
353.867615
 10
497.211365
 20
353.8461
 10
497.05368
 20
353.791016
 10
496.901398
 20
353.704254
 10
496.758484
 20
353.587891
 10
496.629852
 20
353.444275
 10
496.520935
 20
353.276001
 10
496.44165
 20
353.088135
 10
496.405914
 20
352.864716
  0
ARC
  5
1F3
330
1A3
100
AcDbEntity
  8
0
  6
Continuous
 62
     0
370
    30
100
AcDbCircle
 10
495.405787
 20
352.845872
 30
0.0
 40
0.9999929687389861
100
AcDbArc
 50
1.07996
 51
89.033568
  0
ARC
  5
1F4
330
1A3
100
AcDbEntity
  8
0
  6
Continuous
 62
     0
370
    30
100
AcDbCircle
 10
495.405898
 20
352.83284
 30
0.0
 40
0.9999907688782609
100
AcDbArc
 50
1.826431
 51
89.000167
  0
ARC
  5
1F5
330
1A3
100
AcDbEntity
  8
0
  6
Continuous
 62
     0
370
    30
100
AcDbCircle
 10
495.405702
 20
352.855986
 30
0.0
 40
0.9999909637116768
100
AcDbArc
 50
0.500471
 51
89.058051
  0
LINE
  5
1F6
330
1A3
100
AcDbEntity
  8
0
  6
Continuous
 62
     0
370
     0
100
AcDbLine
 10
495.422141
 20
353.855841
 30
0.0
 11
495.422654
 21
353.845722
 31
0.0
  0
LWPOLYLINE
  5
1F7
330
1A3
100
AcDbEntity
  8
0
  6
Continuous
 62
     0
370
     0
100
AcDbPolyline
 90
       10
 70
     0
 43
0.0
 10
497.371521
 20
353.867615
 10
497.060913
 20
353.866852
 10
496.757233
 20
353.866241
 10
496.466461
 20
353.865692
 10
496.194977
 20
353.865082
 10
495.949646
 20
353.864288
 10
495.738922
 20
353.863129
 10
495.573029
 20
353.861481
 10
495.463135
 20
353.859131
 10
495.42215
 20
353.855835
  0
LINE
  5
1F8
330
1A3
100
AcDbEntity
  8
0
  6
Continuous
 62
     0
370
    30
100
AcDbLine
 10
536.649444
 20
325.924886
 30
0.0
 11
497.632066
 21
325.924886
 31
0.0
  0
LINE
  5
1F9
330
1A3
100
AcDbEntity
  8
0
  6
Continuous
 62
     0
370
     0
100
AcDbLine
 10
536.649444
 20
326.91616
 30
0.0
 11
497.632066
 21
326.91616
 31
0.0
  0
LINE
  5
1FA
330
1A3
100
AcDbEntity
  8
0
  6
Continuous
 62
     0
370
    30
100
AcDbLine
 10
541.140755
 20
353.872521
 30
0.0
 11
493.140755
 21
353.872521
 31
0.0
  0
LINE
  5
1FB
330
1A3
100
AcDbEntity
  8
0
  6
Continuous
 62
     0
370
    30
100
AcDbLine
 10
541.140755
 20
353.872521
 30
0.0
 11
541.140755
 21
354.024885
 31
0.0
  0
LINE
  5
1FC
330
1A3
100
AcDbEntity
  8
0
  6
Continuous
 62
     0
370
    30
100
AcDbLine
 10
493.140755
 20
353.872521
 30
0.0
 11
493.140755
 21
354.024885
 31
0.0
  0
LINE
  5
1FD
330
1A3
100
AcDbEntity
  8
0
  6
Continuous
 62
     0
370
    30
100
AcDbLine
 10
538.858163
 20
353.832679
 30
0.0
 11
541.140755
 21
353.872521
 31
0.0
  0
LINE
  5
1FE
330
1A3
100
AcDbEntity
  8
0
  6
Continuous
 62
     0
370
    30
100
AcDbLine
 10
493.140755
 20
353.872521
 30
0.0
 11
495.423348
 21
353.832679
 31
0.0
  0
ENDBLK
  5
200
330
1A3
100
AcDbEntity
  8
0
100
AcDbBlockEnd
  0
BLOCK
  5
2AE
330
202
100
AcDbEntity
  8
0
100
AcDbBlockBegin
  2
c
 70
     0
 10
473.589386
 20
115.714348
 30
0.0
  3
c
  1

  0
ARC
  5
203
330
202
100
AcDbEntity
  8
0
  6
Continuous
 62
     0
370
    30
100
AcDbCircle
 10
695.289004
 20
477.364134
 30
0.0
 40
0.6999999880787424
100
AcDbArc
 50
270.3
 51
0.0
  0
ARC
  5
204
330
202
100
AcDbEntity
  8
0
  6
Continuous
 62
     0
370
    30
100
AcDbCircle
 10
695.289004
 20
594.471445
 30
0.0
 40
0.6999999880784751
100
AcDbArc
 50
0.0
 51
89.7
  0
LINE
  5
205
330
202
100
AcDbEntity
  8
0
  6
Continuous
 62
     0
370
     0
100
AcDbLine
 10
695.29267
 20
477.364134
 30
0.0
 11
685.089004
 21
477.310707
 31
0.0
  0
LINE
  5
206
330
202
100
AcDbEntity
  8
0
  6
Continuous
 62
     0
370
    30
100
AcDbLine
 10
685.089004
 20
477.310707
 30
0.0
 11
685.089004
 21
476.610717
 31
0.0
  0
LINE
  5
207
330
202
100
AcDbEntity
  8
0
  6
Continuous
 62
     0
370
    30
100
AcDbLine
 10
685.089004
 20
476.610717
 30
0.0
 11
695.29267
 21
476.664144
 31
0.0
  0
ARC
  5
208
330
202
100
AcDbEntity
  8
0
  6
Continuous
 62
     0
370
     0
100
AcDbCircle
 10
661.869722
 20
477.01414
 30
0.0
 40
33.42478041334619
100
AcDbArc
 50
359.400035
 51
0.59996
  0
LWPOLYLINE
  5
209
330
202
100
AcDbEntity
  8
0
  6
Continuous
 62
     0
370
     0
100
AcDbPolyline
 90
        6
 70
     0
 43
0.0
 10
695.989014
 20
594.471436
 10
695.952332
 20
594.471436
 10
695.852966
 20
594.471436
 10
695.711914
 20
594.471436
 10
695.522949
 20
594.471436
 10
695.292664
 20
594.471436
  0
LINE
  5
20A
330
202
100
AcDbEntity
  8
0
  6
Continuous
 62
     0
370
     0
100
AcDbLine
 10
695.29267
 20
594.471445
 30
0.0
 11
695.29267
 21
477.364134
 31
0.0
  0
LINE
  5
20B
330
202
100
AcDbEntity
  8
0
  6
Continuous
 62
     0
370
     0
100
AcDbLine
 10
695.29267
 20
477.364134
 30
0.0
 11
695.989004
 21
477.364134
 31
0.0
  0
LINE
  5
20C
330
202
100
AcDbEntity
  8
0
  6
Continuous
 62
     0
370
    30
100
AcDbLine
 10
695.989004
 20
477.364134
 30
0.0
 11
695.989004
 21
594.471445
 31
0.0
  0
ARC
  5
20D
330
202
100
AcDbEntity
  8
0
  6
Continuous
 62
     0
370
     0
100
AcDbCircle
 10
661.869722
 20
594.821439
 30
0.0
 40
33.42478041298378
100
AcDbArc
 50
359.40004
 51
0.599965
  0
LINE
  5
20E
330
202
100
AcDbEntity
  8
0
  6
Continuous
 62
     0
370
    30
100
AcDbLine
 10
695.29267
 20
595.171436
 30
0.0
 11
685.089004
 21
595.224863
 31
0.0
  0
LWPOLYLINE
  5
20F
330
202
100
AcDbEntity
  8
0
  6
Continuous
 62
     0
370
    30
100
AcDbPolyline
 90
        6
 70
     0
 43
0.0
 10
685.088989
 20
595.224854
 10
685.088989
 20
595.191833
 10
685.088989
 20
595.095825
 10
685.088989
 20
594.94635
 10
685.088989
 20
594.755615
 10
685.088989
 20
594.524902
  0
LINE
  5
210
330
202
100
AcDbEntity
  8
0
  6
Continuous
 62
     0
370
     0
100
AcDbLine
 10
685.089004
 20
594.524872
 30
0.0
 11
695.29267
 21
594.471445
 31
0.0
  0
LINE
  5
211
330
202
100
AcDbEntity
  8
0
  6
Continuous
 62
     0
370
    30
100
AcDbLine
 10
685.089004
 20
594.524872
 30
0.0
 11
685.089004
 21
477.310707
 31
0.0
  0
LINE
  5
212
330
202
100
AcDbEntity
  8
0
  6
Continuous
 62
     0
370
    30
100
AcDbLine
 10
695.989002
 20
554.918022
 30
0.0
 11
699.209003
 21
554.918022
 31
0.0
  0
LINE
  5
213
330
202
100
AcDbEntity
  8
0
  6
Continuous
 62
     0
370
    30
100
AcDbLine
 10
695.989002
 20
516.918022
 30
0.0
 11
699.209003
 21
516.918022
 31
0.0
  0
LINE
  5
214
330
202
100
AcDbEntity
  8
0
  6
Continuous
 62
     0
370
    30
100
AcDbLine
 10
744.159003
 20
565.247793
 30
0.0
 11
736.259003
 21
565.247793
 31
0.0
  0
LINE
  5
215
330
202
100
AcDbEntity
  8
0
  6
Continuous
 62
     0
370
    30
100
AcDbLine
 10
744.159003
 20
565.247793
 30
0.0
 11
744.159003
 21
557.917793
 31
0.0
  0
LWPOLYLINE
  5
216
330
202
100
AcDbEntity
  8
0
  6
Continuous
 62
     0
370
    30
100
AcDbPolyline
 90
       24
 70
     0
 43
0.0
 10
736.259033
 20
557.920288
 10
736.296082
 20
557.912537
 10
736.405701
 20
557.891113
 10
736.585632
 20
557.859253
 10
736.833252
 20
557.819946
 10
737.143372
 20
557.775696
 10
737.509888
 20
557.729065
 10
737.926575
 20
557.682434
 10
738.386047
 20
557.638672
 10
738.879395
 20
557.601562
 10
739.397583
 20
557.574707
 10
739.931274
 20
557.561096
 10
740.470398
 20
557.561157
 10
741.004456
 20
557.574585
 10
741.523315
 20
557.600891
 10
742.017639
 20
557.637268
 10
742.47821
 20
557.680481
 10
742.896179
 20
557.727051
 10
743.264099
 20
557.774109
 10
743.575989
 20
557.819031
 10
743.825867
 20
557.859131
 10
744.008484
 20
557.891541
 10
744.1203
 20
557.912476
 10
744.158997
 20
557.917786
  0
LWPOLYLINE
  5
217
330
202
100
AcDbEntity
  8
0
  6
Continuous
 62
     0
370
    30
100
AcDbPolyline
 90
       22
 70
     0
 43
0.0
 10
736.759033
 20
565.747803
 10
736.797485
 20
565.747803
 10
736.911926
 20
565.747803
 10
737.099976
 20
565.747803
 10
737.357239
 20
565.747803
 10
737.678162
 20
565.747803
 10
738.05542
 20
565.747803
 10
738.480774
 20
565.747803
 10
738.94458
 20
565.747803
 10
739.436584
 20
565.747803
 10
739.945862
 20
565.747803
 10
740.460938
 20
565.747803
 10
740.970459
 20
565.747803
 10
741.462952
 20
565.747803
 10
741.92749
 20
565.747803
 10
742.35376
 20
565.747803
 10
742.732178
 20
565.747803
 10
743.054443
 20
565.747803
 10
743.31311
 20
565.747803
 10
743.502747
 20
565.747803
 10
743.618835
 20
565.747803
 10
743.658997
 20
565.747803
  0
LINE
  5
218
330
202
100
AcDbEntity
  8
0
  6
Continuous
 62
     0
370
    30
100
AcDbLine
 10
743.659003
 20
565.747793
 30
0.0
 11
744.159003
 21
565.247793
 31
0.0
  0
LWPOLYLINE
  5
219
330
202
100
AcDbEntity
  8
0
  6
Continuous
 62
     0
370
    30
100
AcDbPolyline
 90
       53
 70
     0
 43
0.0
 10
749.208984
 20
557.417786
 10
749.208984
 20
557.378662
 10
749.208984
 20
557.261047
 10
749.208984
 20
557.065674
 10
749.208984
 20
556.793396
 10
749.208984
 20
556.445007
 10
749.208984
 20
556.021423
 10
749.208984
 20
555.524353
 10
749.208984
 20
554.955994
 10
749.208984
 20
554.318481
 10
749.208984
 20
553.613953
 10
749.208984
 20
552.844604
 10
749.208984
 20
552.013306
 10
749.208984
 20
551.123352
 10
749.208984
 20
550.178162
 10
749.208984
 20
549.181091
 10
749.208984
 20
548.135498
 10
749.208984
 20
547.045166
 10
749.208984
 20
545.914246
 10
749.208984
 20
544.747009
 10
749.208984
 20
543.547729
 10
749.208984
 20
542.320557
 10
749.208984
 20
541.069885
 10
749.208984
 20
539.800415
 10
749.208984
 20
538.516846
 10
749.208984
 20
537.223816
 10
749.208984
 20
535.926025
 10
749.208984
 20
534.628235
 10
749.208984
 20
533.335144
 10
749.208984
 20
532.051392
 10
749.208984
 20
530.781677
 10
749.208984
 20
529.530762
 10
749.208984
 20
528.303284
 10
749.208984
 20
527.103577
 10
749.208984
 20
525.935913
 10
749.208984
 20
524.804565
 10
749.208984
 20
523.713684
 10
749.208984
 20
522.66748
 10
749.208984
 20
521.6698
 10
749.208984
 20
520.723938
 10
749.208984
 20
519.833252
 10
749.208984
 20
519.00116
 10
749.208984
 20
518.231018
 10
749.208984
 20
517.525635
 10
749.208984
 20
516.887268
 10
749.208984
 20
516.317993
 10
749.208984
 20
515.820007
 10
749.208984
 20
515.395447
 10
749.208984
 20
515.046143
 10
749.208984
 20
514.772888
 10
749.208984
 20
514.576538
 10
749.208984
 20
514.457947
 10
749.208984
 20
514.417786
  0
LINE
  5
21A
330
202
100
AcDbEntity
  8
0
  6
Continuous
 62
     0
370
    30
100
AcDbLine
 10
749.209003
 20
514.417793
 30
0.0
 11
748.709003
 21
513.917793
 31
0.0
  0
LWPOLYLINE
  5
21B
330
202
100
AcDbEntity
  8
0
  6
Continuous
 62
     0
370
    30
100
AcDbPolyline
 90
       54
 70
     0
 43
0.0
 10
748.708984
 20
557.917786
 10
748.70929
 20
557.878601
 10
748.709717
 20
557.761963
 10
748.710144
 20
557.568665
 10
748.710449
 20
557.299744
 10
748.710571
 20
556.956238
 10
748.71051
 20
556.539307
 10
748.710266
 20
556.049988
 10
748.709961
 20
555.489624
 10
748.709595
 20
554.859985
 10
748.70929
 20
554.164062
 10
748.709045
 20
553.404724
 10
748.709045
 20
552.584778
 10
748.709229
 20
551.706848
 10
748.709473
 20
550.773193
 10
748.709839
 20
549.786926
 10
748.710083
 20
548.751404
 10
748.710327
 20
547.670532
 10
748.710449
 20
546.54834
 10
748.710571
 20
545.388794
 10
748.71051
 20
544.195923
 10
748.710388
 20
542.974121
 10
748.710205
 20
541.727539
 10
748.710022
 20
540.460693
 10
748.709778
 20
539.177795
 10
748.709534
 20
537.883484
 10
748.709412
 20
536.582336
 10
748.709412
 20
535.27887
 10
748.709534
 20
533.9776
 10
748.709778
 20
532.683105
 10
748.710022
 20
531.399963
 10
748.710266
 20
530.132751
 10
748.710449
 20
528.885742
 10
748.710571
 20
527.663452
 10
748.710571
 20
526.470032
 10
748.71051
 20
525.309875
 10
748.710327
 20
524.186951
 10
748.710083
 20
523.105286
 10
748.709839
 20
522.068848
 10
748.709534
 20
521.081421
 10
748.709229
 20
520.146423
 10
748.709045
 20
519.267029
 10
748.709045
 20
518.445618
 10
748.709229
 20
517.684814
 10
748.709534
 20
516.987549
 10
748.7099
 20
516.356873
 10
748.710205
 20
515.795593
 10
748.710388
 20
515.305664
 10
748.710449
 20
514.888
 10
748.710327
 20
514.543396
 10
748.710083
 20
514.272949
 10
748.709656
 20
514.077698
 10
748.70929
 20
513.958862
 10
748.708984
 20
513.917786
  0
LINE
  5
21C
330
202
100
AcDbEntity
  8
0
  6
Continuous
 62
     0
370
    30
100
AcDbLine
 10
735.459003
 20
513.917793
 30
0.0
 11
699.209003
 21
513.917793
 31
0.0
  0
LINE
  5
21D
330
202
100
AcDbEntity
  8
0
  6
Continuous
 62
     0
370
    30
100
AcDbLine
 10
699.209003
 20
557.917793
 30
0.0
 11
699.209003
 21
513.917793
 31
0.0
  0
LWPOLYLINE
  5
21E
330
202
100
AcDbEntity
  8
0
  6
Continuous
 62
     0
370
     0
100
AcDbPolyline
 90
       26
 70
     0
 43
0.0
 10
735.458984
 20
513.917786
 10
735.49707
 20
513.925903
 10
735.611084
 20
513.94989
 10
735.797119
 20
513.987854
 10
736.049561
 20
514.037598
 10
736.364258
 20
514.096252
 10
736.743225
 20
514.159668
 10
737.177673
 20
514.224182
 10
737.657898
 20
514.286011
 10
738.179932
 20
514.341003
 10
738.736206
 20
514.385803
 10
739.315918
 20
514.417786
 10
739.908264
 20
514.434509
 10
740.504639
 20
514.43457
 10
741.097046
 20
514.41803
 10
741.67688
 20
514.386169
 10
742.233459
 20
514.341431
 10
742.755859
 20
514.28656
 10
743.23645
 20
514.224731
 10
743.671326
 20
514.160217
 10
744.050781
 20
514.096741
 10
744.366028
 20
514.038086
 10
744.618958
 20
513.98822
 10
744.805603
 20
513.950134
 10
744.920288
 20
513.926025
 10
744.958984
 20
513.917786
  0
LINE
  5
21F
330
202
100
AcDbEntity
  8
0
  6
Continuous
 62
     0
370
    30
100
AcDbLine
 10
744.959003
 20
513.917793
 30
0.0
 11
748.709003
 21
513.917793
 31
0.0
  0
LWPOLYLINE
  5
220
330
202
100
AcDbEntity
  8
0
  6
Continuous
 62
     0
370
     0
100
AcDbPolyline
 90
       24
 70
     0
 43
0.0
 10
744.308594
 20
557.917786
 10
744.27002
 20
557.910645
 10
744.154236
 20
557.889709
 10
743.965759
 20
557.85675
 10
743.710938
 20
557.814026
 10
743.391602
 20
557.764709
 10
743.009338
 20
557.712708
 10
742.576355
 20
557.661438
 10
742.099304
 20
557.614807
 10
741.584595
 20
557.576416
 10
741.043884
 20
557.548828
 10
740.489014
 20
557.534302
 10
739.929871
 20
557.534302
 10
739.375
 20
557.548767
 10
738.834229
 20
557.576355
 10
738.319519
 20
557.614807
 10
737.842407
 20
557.661377
 10
737.409241
 20
557.712585
 10
737.026917
 20
557.764648
 10
736.707397
 20
557.813965
 10
736.452515
 20
557.856689
 10
736.263977
 20
557.889648
 10
736.147949
 20
557.910645
 10
736.109009
 20
557.917786
  0
LINE
  5
221
330
202
100
AcDbEntity
  8
0
  6
Continuous
 62
     0
370
    30
100
AcDbLine
 10
735.459003
 20
513.917793
 30
0.0
 11
744.959003
 21
513.917793
 31
0.0
  0
LINE
  5
222
330
202
100
AcDbEntity
  8
0
  6
Continuous
 62
     0
370
    30
100
AcDbLine
 10
744.159003
 20
557.917793
 30
0.0
 11
744.308606
 21
557.917793
 31
0.0
  0
LINE
  5
223
330
202
100
AcDbEntity
  8
0
  6
Continuous
 62
     0
370
    30
100
AcDbLine
 10
699.209003
 20
557.917793
 30
0.0
 11
736.109003
 21
557.917793
 31
0.0
  0
LINE
  5
224
330
202
100
AcDbEntity
  8
0
  6
Continuous
 62
     0
370
    30
100
AcDbLine
 10
748.709004
 20
557.917793
 30
0.0
 11
744.308606
 21
557.917793
 31
0.0
  0
LINE
  5
225
330
202
100
AcDbEntity
  8
0
  6
Continuous
 62
     0
370
    30
100
AcDbLine
 10
749.209003
 20
557.417793
 30
0.0
 11
748.709003
 21
557.917793
 31
0.0
  0
LINE
  5
226
330
202
100
AcDbEntity
  8
0
  6
Continuous
 62
     0
370
    30
100
AcDbLine
 10
736.259004
 20
565.247793
 30
0.0
 11
736.759003
 21
565.747793
 31
0.0
  0
LINE
  5
227
330
202
100
AcDbEntity
  8
0
  6
Continuous
 62
     0
370
    30
100
AcDbLine
 10
736.259003
 20
565.247793
 30
0.0
 11
736.259003
 21
557.920313
 31
0.0
  0
LINE
  5
228
330
202
100
AcDbEntity
  8
0
  6
Continuous
 62
     0
370
     0
100
AcDbLine
 10
684.969039
 20
683.918526
 30
0.0
 11
694.689039
 21
683.918526
 31
0.0
  0
LINE
  5
229
330
202
100
AcDbEntity
  8
0
  6
Continuous
 62
     0
370
     0
100
AcDbLine
 10
694.689039
 20
683.918526
 30
0.0
 11
694.689039
 21
684.418526
 31
0.0
  0
LINE
  5
22A
330
202
100
AcDbEntity
  8
0
  6
Continuous
 62
     0
370
    30
100
AcDbLine
 10
694.689039
 20
684.418526
 30
0.0
 11
684.969039
 21
684.418526
 31
0.0
  0
LINE
  5
22B
330
202
100
AcDbEntity
  8
0
  6
Continuous
 62
     0
370
    30
100
AcDbLine
 10
684.969039
 20
684.418526
 30
0.0
 11
684.969039
 21
683.918526
 31
0.0
  0
LINE
  5
22C
330
202
100
AcDbEntity
  8
0
  6
Continuous
 62
     0
370
    30
100
AcDbLine
 10
695.189039
 20
683.918526
 30
0.0
 11
695.189039
 21
627.918526
 31
0.0
  0
LINE
  5
22D
330
202
100
AcDbEntity
  8
0
  6
Continuous
 62
     0
370
    30
100
AcDbLine
 10
684.969039
 20
683.918526
 30
0.0
 11
684.969039
 21
627.918526
 31
0.0
  0
LINE
  5
22E
330
202
100
AcDbEntity
  8
0
  6
Continuous
 62
     0
370
     0
100
AcDbLine
 10
684.969039
 20
627.918526
 30
0.0
 11
694.689039
 21
627.918526
 31
0.0
  0
LINE
  5
22F
330
202
100
AcDbEntity
  8
0
  6
Continuous
 62
     0
370
     0
100
AcDbLine
 10
694.689039
 20
627.918526
 30
0.0
 11
694.689039
 21
683.918526
 31
0.0
  0
LINE
  5
230
330
202
100
AcDbEntity
  8
0
  6
Continuous
 62
     0
370
    30
100
AcDbLine
 10
684.969039
 20
627.418526
 30
0.0
 11
694.689039
 21
627.418526
 31
0.0
  0
LINE
  5
231
330
202
100
AcDbEntity
  8
0
  6
Continuous
 62
     0
370
     0
100
AcDbLine
 10
694.689039
 20
627.418526
 30
0.0
 11
694.689039
 21
627.918526
 31
0.0
  0
LINE
  5
232
330
202
100
AcDbEntity
  8
0
  6
Continuous
 62
     0
370
    30
100
AcDbLine
 10
684.969039
 20
627.918526
 30
0.0
 11
684.969039
 21
627.418526
 31
0.0
  0
ARC
  5
233
330
202
100
AcDbEntity
  8
0
  6
Continuous
 62
     0
370
    30
100
AcDbCircle
 10
694.689039
 20
683.918526
 30
0.0
 40
0.5000000000012221
100
AcDbArc
 50
0.0
 51
90.0
  0
ARC
  5
234
330
202
100
AcDbEntity
  8
0
  6
Continuous
 62
     0
370
    30
100
AcDbCircle
 10
694.689039
 20
627.918526
 30
0.0
 40
0.5000000000001421
100
AcDbArc
 50
270.0
 51
0.0
  0
LWPOLYLINE
  5
235
330
202
100
AcDbEntity
  8
0
  6
Continuous
 62
     0
370
     0
100
AcDbPolyline
 90
        5
 70
     0
 43
0.0
 10
695.189026
 20
627.918518
 10
695.151428
 20
627.918518
 10
695.044189
 20
627.918518
 10
694.883484
 20
627.918518
 10
694.689026
 20
627.918518
  0
LWPOLYLINE
  5
236
330
202
100
AcDbEntity
  8
0
  6
Continuous
 62
     0
370
     0
100
AcDbPolyline
 90
        6
 70
     0
 43
0.0
 10
695.189026
 20
683.918518
 10
695.164978
 20
683.918518
 10
695.099304
 20
683.918518
 10
695.005981
 20
683.918518
 10
694.881714
 20
683.918518
 10
694.689026
 20
683.918518
  0
ARC
  5
237
330
202
100
AcDbEntity
  8
0
  6
Continuous
 62
     0
370
    30
100
AcDbCircle
 10
703.031434
 20
642.741466
 30
0.0
 40
7.499975632288365
100
AcDbArc
 50
91.210815
 51
179.00008
  0
ARC
  5
238
330
202
100
AcDbEntity
  8
0
  6
Continuous
 62
     0
370
    30
100
AcDbCircle
 10
703.031434
 20
669.095586
 30
0.0
 40
7.499975597602257
100
AcDbArc
 50
180.99992
 51
268.788577
  0
ARC
  5
239
330
202
100
AcDbEntity
  8
0
  6
Continuous
 62
     0
370
     0
100
AcDbCircle
 10
702.848
 20
642.736989
 30
0.0
 40
7.502072584505288
100
AcDbArc
 50
90.502514
 51
179.425895
  0
LINE
  5
23A
330
202
100
AcDbEntity
  8
0
  6
Continuous
 62
     0
370
     0
100
AcDbLine
 10
695.346304
 20
642.812158
 30
0.0
 11
695.355256
 21
642.813849
 31
0.0
  0
ARC
  5
23B
330
202
100
AcDbEntity
  8
0
  6
Continuous
 62
     0
370
     0
100
AcDbCircle
 10
695.275879
 20
643.352922
 30
0.0
 40
0.5448863562653132
100
AcDbArc
 50
278.376499
 51
297.90689
  0
ARC
  5
23C
330
202
100
AcDbEntity
  8
0
  6
Continuous
 62
     0
370
     0
100
AcDbCircle
 10
695.275879
 20
668.484129
 30
0.0
 40
0.5448863437074287
100
AcDbArc
 50
62.09311
 51
81.623501
  0
LINE
  5
23D
330
202
100
AcDbEntity
  8
0
  6
Continuous
 62
     0
370
     0
100
AcDbLine
 10
695.355256
 20
669.023203
 30
0.0
 11
695.346304
 21
669.024893
 31
0.0
  0
ARC
  5
23E
330
202
100
AcDbEntity
  8
0
  6
Continuous
 62
     0
370
     0
100
AcDbCircle
 10
702.848
 20
669.100063
 30
0.0
 40
7.502072687834501
100
AcDbArc
 50
180.574105
 51
269.497486
  0
LWPOLYLINE
  5
23F
330
202
100
AcDbEntity
  8
0
  6
Continuous
 62
     0
370
     0
100
AcDbPolyline
 90
        7
 70
     0
 43
0.0
 10
702.782654
 20
661.597473
 10
702.784546
 20
661.564758
 10
702.785767
 20
661.468079
 10
702.786194
 20
661.313843
 10
702.785767
 20
661.112244
 10
702.784546
 20
660.876221
 10
702.78241
 20
660.597839
  0
LINE
  5
240
330
202
100
AcDbEntity
  8
0
  6
Continuous
 62
     0
370
     0
100
AcDbLine
 10
702.782434
 20
660.597855
 30
0.0
 11
722.297763
 21
660.427214
 31
0.0
  0
LWPOLYLINE
  5
241
330
202
100
AcDbEntity
  8
0
  6
Continuous
 62
     0
370
     0
100
AcDbPolyline
 90
        7
 70
     0
 43
0.0
 10
722.297791
 20
660.427185
 10
722.299683
 20
660.681702
 10
722.300903
 20
660.920105
 10
722.301392
 20
661.125488
 10
722.301025
 20
661.284729
 10
722.299866
 20
661.387512
 10
722.297791
 20
661.427185
  0
LINE
  5
242
330
202
100
AcDbEntity
  8
0
  6
Continuous
 62
     0
370
    30
100
AcDbLine
 10
722.297763
 20
661.427176
 30
0.0
 11
710.186863
 21
661.532867
 31
0.0
  0
ARC
  5
243
330
202
100
AcDbEntity
  8
0
  6
Continuous
 62
     0
370
    30
100
AcDbCircle
 10
722.289037
 20
660.427214
 30
0.0
 40
1.000000000827508
100
AcDbArc
 50
0.0
 51
89.5
  0
LINE
  5
244
330
202
100
AcDbEntity
  8
0
  6
Continuous
 62
     0
370
     0
100
AcDbLine
 10
722.297763
 20
660.427214
 30
0.0
 11
723.289037
 21
660.427214
 31
0.0
  0
LINE
  5
245
330
202
100
AcDbEntity
  8
0
  6
Continuous
 62
     0
370
     0
100
AcDbLine
 10
722.297763
 20
660.427214
 30
0.0
 11
722.297763
 21
651.409837
 31
0.0
  0
LINE
  5
246
330
202
100
AcDbEntity
  8
0
  6
Continuous
 62
     0
370
     0
100
AcDbLine
 10
722.297763
 20
651.409837
 30
0.0
 11
723.289037
 21
651.409837
 31
0.0
  0
LINE
  5
247
330
202
100
AcDbEntity
  8
0
  6
Continuous
 62
     0
370
    30
100
AcDbLine
 10
723.289037
 20
651.409837
 30
0.0
 11
723.289037
 21
660.427214
 31
0.0
  0
ARC
  5
248
330
202
100
AcDbEntity
  8
0
  6
Continuous
 62
     0
370
    30
100
AcDbCircle
 10
722.289037
 20
651.409837
 30
0.0
 40
1.00000000082495
100
AcDbArc
 50
270.5
 51
360.0
  0
LWPOLYLINE
  5
249
330
202
100
AcDbEntity
  8
0
  6
Continuous
 62
     0
370
     0
100
AcDbPolyline
 90
        7
 70
     0
 43
0.0
 10
722.297791
 20
651.409851
 10
722.299683
 20
651.155334
 10
722.300903
 20
650.916992
 10
722.301392
 20
650.711609
 10
722.301025
 20
650.552307
 10
722.299866
 20
650.449524
 10
722.297791
 20
650.409851
  0
LINE
  5
24A
330
202
100
AcDbEntity
  8
0
  6
Continuous
 62
     0
370
     0
100
AcDbLine
 10
722.297763
 20
651.409837
 30
0.0
 11
702.782434
 21
651.239196
 31
0.0
  0
LWPOLYLINE
  5
24B
330
202
100
AcDbEntity
  8
0
  6
Continuous
 62
     0
370
     0
100
AcDbPolyline
 90
        7
 70
     0
 43
0.0
 10
702.78241
 20
651.239197
 10
702.784424
 20
650.984436
 10
702.785706
 20
650.745911
 10
702.786194
 20
650.540466
 10
702.785828
 20
650.381287
 10
702.784729
 20
650.278809
 10
702.782654
 20
650.239563
  0
LINE
  5
24C
330
202
100
AcDbEntity
  8
0
  6
Continuous
 62
     0
370
    30
100
AcDbLine
 10
710.186863
 20
650.304185
 30
0.0
 11
722.297763
 21
650.409875
 31
0.0
  0
ARC
  5
24D
330
202
100
AcDbEntity
  8
0
  6
Continuous
 62
     0
370
     0
100
AcDbCircle
 10
702.861894
 20
642.726408
 30
0.0
 40
8.513159052408
100
AcDbArc
 50
90.534798
 51
139.908316
  0
LWPOLYLINE
  5
24E
330
202
100
AcDbEntity
  8
0
  6
Continuous
 62
     0
370
     0
100
AcDbPolyline
 90
        7
 70
     0
 43
0.0
 10
696.349182
 20
648.208984
 10
696.084717
 20
647.338928
 10
695.846069
 20
646.467102
 10
695.646362
 20
645.592957
 10
695.493408
 20
644.71521
 10
695.392334
 20
643.832825
 10
695.346313
 20
642.812134
  0
ARC
  5
24F
330
202
100
AcDbEntity
  8
0
  6
Continuous
 62
     0
370
     0
100
AcDbCircle
 10
702.858057
 20
669.102491
 30
0.0
 40
8.50497223896169
100
AcDbArc
 50
220.066322
 51
269.490541
  0
LINE
  5
250
330
202
100
AcDbEntity
  8
0
  6
Continuous
 62
     0
370
     0
100
AcDbLine
 10
696.349203
 20
663.628063
 30
0.0
 11
696.359322
 21
661.666395
 31
0.0
  0
ARC
  5
251
330
202
100
AcDbEntity
  8
0
  6
Continuous
 62
     0
370
     0
100
AcDbCircle
 10
-586.448574
 20
655.881288
 30
0.0
 40
1282.820940124722
100
AcDbArc
 50
0.001663
 51
0.258386
  0
ARC
  5
252
330
202
100
AcDbEntity
  8
0
  6
Continuous
 62
     0
370
     0
100
AcDbCircle
 10
-586.448574
 20
655.955763
 30
0.0
 40
1282.82094012924
100
AcDbArc
 50
359.741614
 51
359.998337
  0
LINE
  5
253
330
202
100
AcDbEntity
  8
0
  6
Continuous
 62
     0
370
     0
100
AcDbLine
 10
696.359322
 20
650.170657
 30
0.0
 11
696.349203
 21
648.20899
 31
0.0
  0
LWPOLYLINE
  5
254
330
202
100
AcDbEntity
  8
0
  6
Continuous
 62
     0
370
     0
100
AcDbPolyline
 90
        7
 70
     0
 43
0.0
 10
695.346313
 20
669.024902
 10
695.381714
 20
668.139709
 10
695.474426
 20
667.256653
 10
695.619812
 20
666.378235
 10
695.812683
 20
665.503662
 10
696.046143
 20
664.631531
 10
696.349182
 20
663.628052
  0
LINE
  5
255
330
202
100
AcDbEntity
  8
0
  6
Continuous
 62
     0
370
     0
100
AcDbLine
 10
696.359322
 20
661.666395
 30
0.0
 11
695.368201
 21
661.661933
 31
0.0
  0
LINE
  5
256
330
202
100
AcDbEntity
  8
0
  6
Continuous
 62
     0
370
     0
100
AcDbLine
 10
695.368201
 20
661.661933
 30
0.0
 11
695.369187
 21
661.424934
 31
0.0
  0
ARC
  5
257
330
202
100
AcDbEntity
  8
0
  6
Continuous
 62
     0
370
     0
100
AcDbCircle
 10
-571.006579
 20
655.898688
 30
0.0
 40
1266.38782389515
100
AcDbArc
 50
0.000898
 51
0.250027
  0
LINE
  5
258
330
202
100
AcDbEntity
  8
0
  6
Continuous
 62
     0
370
     0
100
AcDbLine
 10
695.381245
 20
655.918526
 30
0.0
 11
696.372366
 21
655.918526
 31
0.0
  0
LINE
  5
259
330
202
100
AcDbEntity
  8
0
  6
Continuous
 62
     0
370
     0
100
AcDbLine
 10
696.349203
 20
663.628063
 30
0.0
 11
695.358082
 21
663.622228
 31
0.0
  0
LINE
  5
25A
330
202
100
AcDbEntity
  8
0
  6
Continuous
 62
     0
370
     0
100
AcDbLine
 10
695.358082
 20
663.622228
 30
0.0
 11
695.368201
 21
661.661933
 31
0.0
  0
LWPOLYLINE
  5
25B
330
202
100
AcDbEntity
  8
0
  6
Continuous
 62
     0
370
     0
100
AcDbPolyline
 90
        5
 70
     0
 43
0.0
 10
695.346313
 20
669.024902
 10
695.347778
 20
667.776672
 10
695.349121
 20
666.493469
 10
695.351746
 20
665.151794
 10
695.358093
 20
663.622253
  0
LINE
  5
25C
330
202
100
AcDbEntity
  8
0
  6
Continuous
 62
     0
370
     0
100
AcDbLine
 10
695.368201
 20
650.175119
 30
0.0
 11
696.359322
 21
650.170657
 31
0.0
  0
ARC
  5
25D
330
202
100
AcDbEntity
  8
0
  6
Continuous
 62
     0
370
     0
100
AcDbCircle
 10
-571.006579
 20
655.938363
 30
0.0
 40
1266.387823831361
100
AcDbArc
 50
359.749973
 51
359.999102
  0
LINE
  5
25E
330
202
100
AcDbEntity
  8
0
  6
Continuous
 62
     0
370
     0
100
AcDbLine
 10
695.369187
 20
650.412117
 30
0.0
 11
695.368201
 21
650.175119
 31
0.0
  0
LINE
  5
25F
330
202
100
AcDbEntity
  8
0
  6
Continuous
 62
     0
370
     0
100
AcDbLine
 10
695.368201
 20
650.175119
 30
0.0
 11
695.358082
 21
648.214823
 31
0.0
  0
LINE
  5
260
330
202
100
AcDbEntity
  8
0
  6
Continuous
 62
     0
370
     0
100
AcDbLine
 10
695.358082
 20
648.214823
 30
0.0
 11
696.349203
 21
648.208989
 31
0.0
  0
LWPOLYLINE
  5
261
330
202
100
AcDbEntity
  8
0
  6
Continuous
 62
     0
370
     0
100
AcDbPolyline
 90
        5
 70
     0
 43
0.0
 10
695.358093
 20
648.214844
 10
695.352112
 20
646.808838
 10
695.349304
 20
645.461243
 10
695.3479
 20
644.173584
 10
695.346313
 20
642.812134
  0
LINE
  5
262
330
202
100
AcDbEntity
  8
0
  6
Continuous
 62
     0
370
    30
100
AcDbLine
 10
695.532601
 20
642.872348
 30
0.0
 11
695.341401
 21
631.918526
 31
0.0
  0
LWPOLYLINE
  5
263
330
202
100
AcDbEntity
  8
0
  6
Continuous
 62
     0
370
    30
100
AcDbPolyline
 90
       57
 70
     0
 43
0.0
 10
695.341431
 20
679.918518
 10
695.341431
 20
679.887329
 10
695.341431
 20
679.791199
 10
695.341431
 20
679.626831
 10
695.341431
 20
679.391174
 10
695.341431
 20
679.081726
 10
695.341431
 20
678.696594
 10
695.341431
 20
678.234375
 10
695.341431
 20
677.694519
 10
695.341431
 20
677.077271
 10
695.341431
 20
676.383545
 10
695.341431
 20
675.615173
 10
695.341431
 20
674.774841
 10
695.341431
 20
673.865967
 10
695.341431
 20
672.892822
 10
695.341431
 20
671.860291
 10
695.341431
 20
670.773926
 10
695.341431
 20
669.639893
 10
695.341431
 20
668.4646
 10
695.341431
 20
667.254883
 10
695.341431
 20
666.017578
 10
695.341431
 20
664.759827
 10
695.341431
 20
663.488403
 10
695.341431
 20
662.210144
 10
695.341431
 20
660.931458
 10
695.341431
 20
659.658447
 10
695.341431
 20
658.396729
 10
695.341431
 20
657.15155
 10
695.341431
 20
655.92749
 10
695.341431
 20
654.703796
 10
695.341431
 20
653.458862
 10
695.341431
 20
652.197388
 10
695.341431
 20
650.9245
 10
695.341431
 20
649.645813
 10
695.341431
 20
648.367493
 10
695.341431
 20
647.095947
 10
695.341431
 20
645.837891
 10
695.341431
 20
644.600281
 10
695.341431
 20
643.390076
 10
695.341431
 20
642.214233
 10
695.341431
 20
641.079529
 10
695.341431
 20
639.992432
 10
695.341431
 20
638.959106
 10
695.341431
 20
637.985046
 10
695.341431
 20
637.075134
 10
695.341431
 20
636.233765
 10
695.341431
 20
635.464355
 10
695.341431
 20
634.76947
 10
695.341431
 20
634.151062
 10
695.341431
 20
633.610107
 10
695.341431
 20
633.146729
 10
695.341431
 20
632.760437
 10
695.341431
 20
632.44989
 10
695.341431
 20
632.213196
 10
695.341431
 20
632.047791
 10
695.341431
 20
631.950684
 10
695.341431
 20
631.918518
  0
LINE
  5
264
330
202
100
AcDbEntity
  8
0
  6
Continuous
 62
     0
370
    30
100
AcDbLine
 10
695.341401
 20
679.918526
 30
0.0
 11
695.189037
 21
679.918526
 31
0.0
  0
LINE
  5
265
330
202
100
AcDbEntity
  8
0
  6
Continuous
 62
     0
370
    30
100
AcDbLine
 10
695.189037
 20
631.918526
 30
0.0
 11
695.341401
 21
631.918526
 31
0.0
  0
LINE
  5
266
330
202
100
AcDbEntity
  8
0
  6
Continuous
 62
     0
370
    30
100
AcDbLine
 10
695.341401
 20
679.918526
 30
0.0
 11
695.532601
 21
668.96471
 31
0.0
  0
ARC
  5
267
330
202
100
AcDbEntity
  8
0
  6
Continuous
 62
     0
370
    30
100
AcDbCircle
 10
702.848467
 20
669.099804
 30
0.0
 40
7.50194320125129
100
AcDbArc
 50
267.493924
 51
269.494525
  0
ARC
  5
268
330
202
100
AcDbEntity
  8
0
  6
Continuous
 62
     0
370
    30
100
AcDbCircle
 10
702.848467
 20
642.737247
 30
0.0
 40
7.501943358146537
100
AcDbArc
 50
90.505476
 51
92.506092
  0
LINE
  5
269
330
202
100
AcDbEntity
  8
0
  6
Continuous
 62
     0
370
    30
100
AcDbLine
 10
702.782644
 20
650.239568
 30
0.0
 11
710.186863
 21
650.304184
 31
0.0
  0
LINE
  5
26A
330
202
100
AcDbEntity
  8
0
  6
Continuous
 62
     0
370
    30
100
AcDbLine
 10
702.782644
 20
661.597484
 30
0.0
 11
710.186863
 21
661.532867
 31
0.0
  0
LINE
  5
26B
330
202
100
AcDbEntity
  8
0
  6
Continuous
 62
     0
370
     0
100
AcDbLine
 10
684.969039
 20
783.918526
 30
0.0
 11
694.689039
 21
783.918526
 31
0.0
  0
LINE
  5
26C
330
202
100
AcDbEntity
  8
0
  6
Continuous
 62
     0
370
     0
100
AcDbLine
 10
694.689039
 20
783.918526
 30
0.0
 11
694.689039
 21
784.418526
 31
0.0
  0
LINE
  5
26D
330
202
100
AcDbEntity
  8
0
  6
Continuous
 62
     0
370
    30
100
AcDbLine
 10
694.689039
 20
784.418526
 30
0.0
 11
684.969039
 21
784.418526
 31
0.0
  0
LINE
  5
26E
330
202
100
AcDbEntity
  8
0
  6
Continuous
 62
     0
370
    30
100
AcDbLine
 10
684.969039
 20
784.418526
 30
0.0
 11
684.969039
 21
783.918526
 31
0.0
  0
LINE
  5
26F
330
202
100
AcDbEntity
  8
0
  6
Continuous
 62
     0
370
    30
100
AcDbLine
 10
695.189039
 20
783.918526
 30
0.0
 11
695.189039
 21
727.918526
 31
0.0
  0
LINE
  5
270
330
202
100
AcDbEntity
  8
0
  6
Continuous
 62
     0
370
    30
100
AcDbLine
 10
684.969039
 20
783.918526
 30
0.0
 11
684.969039
 21
727.918526
 31
0.0
  0
LINE
  5
271
330
202
100
AcDbEntity
  8
0
  6
Continuous
 62
     0
370
     0
100
AcDbLine
 10
684.969039
 20
727.918526
 30
0.0
 11
694.689039
 21
727.918526
 31
0.0
  0
LINE
  5
272
330
202
100
AcDbEntity
  8
0
  6
Continuous
 62
     0
370
     0
100
AcDbLine
 10
694.689039
 20
727.918526
 30
0.0
 11
694.689039
 21
783.918526
 31
0.0
  0
LINE
  5
273
330
202
100
AcDbEntity
  8
0
  6
Continuous
 62
     0
370
    30
100
AcDbLine
 10
684.969039
 20
727.418526
 30
0.0
 11
694.689039
 21
727.418526
 31
0.0
  0
LINE
  5
274
330
202
100
AcDbEntity
  8
0
  6
Continuous
 62
     0
370
     0
100
AcDbLine
 10
694.689039
 20
727.418526
 30
0.0
 11
694.689039
 21
727.918526
 31
0.0
  0
LINE
  5
275
330
202
100
AcDbEntity
  8
0
  6
Continuous
 62
     0
370
    30
100
AcDbLine
 10
684.969039
 20
727.918526
 30
0.0
 11
684.969039
 21
727.418526
 31
0.0
  0
ARC
  5
276
330
202
100
AcDbEntity
  8
0
  6
Continuous
 62
     0
370
    30
100
AcDbCircle
 10
694.689039
 20
783.918526
 30
0.0
 40
0.4999999999905285
100
AcDbArc
 50
360.0
 51
90.0
  0
ARC
  5
277
330
202
100
AcDbEntity
  8
0
  6
Continuous
 62
     0
370
    30
100
AcDbCircle
 10
694.689039
 20
727.918526
 30
0.0
 40
0.5000000000056204
100
AcDbArc
 50
270.0
 51
360.0
  0
LWPOLYLINE
  5
278
330
202
100
AcDbEntity
  8
0
  6
Continuous
 62
     0
370
     0
100
AcDbPolyline
 90
        5
 70
     0
 43
0.0
 10
695.189026
 20
727.918518
 10
695.151428
 20
727.918518
 10
695.044189
 20
727.918518
 10
694.883484
 20
727.918518
 10
694.689026
 20
727.918518
  0
LWPOLYLINE
  5
279
330
202
100
AcDbEntity
  8
0
  6
Continuous
 62
     0
370
     0
100
AcDbPolyline
 90
        6
 70
     0
 43
0.0
 10
695.189026
 20
783.918518
 10
695.164978
 20
783.918518
 10
695.099304
 20
783.918518
 10
695.005981
 20
783.918518
 10
694.881714
 20
783.918518
 10
694.689026
 20
783.918518
  0
ARC
  5
27A
330
202
100
AcDbEntity
  8
0
  6
Continuous
 62
     0
370
    30
100
AcDbCircle
 10
703.031434
 20
742.741466
 30
0.0
 40
7.499975632288479
100
AcDbArc
 50
91.210815
 51
179.00008
  0
ARC
  5
27B
330
202
100
AcDbEntity
  8
0
  6
Continuous
 62
     0
370
    30
100
AcDbCircle
 10
703.031434
 20
769.095586
 30
0.0
 40
7.499975597602546
100
AcDbArc
 50
180.99992
 51
268.788577
  0
ARC
  5
27C
330
202
100
AcDbEntity
  8
0
  6
Continuous
 62
     0
370
     0
100
AcDbCircle
 10
702.848
 20
742.736989
 30
0.0
 40
7.502072584505409
100
AcDbArc
 50
90.502514
 51
179.425895
  0
LINE
  5
27D
330
202
100
AcDbEntity
  8
0
  6
Continuous
 62
     0
370
     0
100
AcDbLine
 10
695.346304
 20
742.812158
 30
0.0
 11
695.355256
 21
742.813849
 31
0.0
  0
ARC
  5
27E
330
202
100
AcDbEntity
  8
0
  6
Continuous
 62
     0
370
     0
100
AcDbCircle
 10
695.275879
 20
743.352922
 30
0.0
 40
0.5448863561294048
100
AcDbArc
 50
278.376499
 51
297.90689
  0
ARC
  5
27F
330
202
100
AcDbEntity
  8
0
  6
Continuous
 62
     0
370
     0
100
AcDbCircle
 10
695.275879
 20
768.484129
 30
0.0
 40
0.544886343919847
100
AcDbArc
 50
62.09311
 51
81.623501
  0
LINE
  5
280
330
202
100
AcDbEntity
  8
0
  6
Continuous
 62
     0
370
     0
100
AcDbLine
 10
695.355256
 20
769.023203
 30
0.0
 11
695.346304
 21
769.024893
 31
0.0
  0
ARC
  5
281
330
202
100
AcDbEntity
  8
0
  6
Continuous
 62
     0
370
     0
100
AcDbCircle
 10
702.848
 20
769.100063
 30
0.0
 40
7.502072687833934
100
AcDbArc
 50
180.574105
 51
269.497486
  0
LWPOLYLINE
  5
282
330
202
100
AcDbEntity
  8
0
  6
Continuous
 62
     0
370
     0
100
AcDbPolyline
 90
        7
 70
     0
 43
0.0
 10
702.782654
 20
761.597473
 10
702.784546
 20
761.564758
 10
702.785767
 20
761.468079
 10
702.786194
 20
761.313843
 10
702.785767
 20
761.112244
 10
702.784546
 20
760.876221
 10
702.78241
 20
760.597839
  0
LINE
  5
283
330
202
100
AcDbEntity
  8
0
  6
Continuous
 62
     0
370
     0
100
AcDbLine
 10
702.782434
 20
760.597855
 30
0.0
 11
722.297763
 21
760.427214
 31
0.0
  0
LWPOLYLINE
  5
284
330
202
100
AcDbEntity
  8
0
  6
Continuous
 62
     0
370
     0
100
AcDbPolyline
 90
        7
 70
     0
 43
0.0
 10
722.297791
 20
760.427185
 10
722.299683
 20
760.681702
 10
722.300903
 20
760.920105
 10
722.301392
 20
761.125488
 10
722.301025
 20
761.284729
 10
722.299866
 20
761.387512
 10
722.297791
 20
761.427185
  0
LINE
  5
285
330
202
100
AcDbEntity
  8
0
  6
Continuous
 62
     0
370
    30
100
AcDbLine
 10
722.297763
 20
761.427176
 30
0.0
 11
710.186863
 21
761.532867
 31
0.0
  0
LINE
  5
286
330
202
100
AcDbEntity
  8
0
  6
Continuous
 62
     0
370
     0
100
AcDbLine
 10
722.297763
 20
760.427214
 30
0.0
 11
723.289037
 21
760.427214
 31
0.0
  0
ARC
  5
287
330
202
100
AcDbEntity
  8
0
  6
Continuous
 62
     0
370
    30
100
AcDbCircle
 10
722.289037
 20
760.427214
 30
0.0
 40
1.000000000830302
100
AcDbArc
 50
0.0
 51
89.5
  0
LINE
  5
288
330
202
100
AcDbEntity
  8
0
  6
Continuous
 62
     0
370
     0
100
AcDbLine
 10
722.297763
 20
760.427214
 30
0.0
 11
722.297763
 21
751.409837
 31
0.0
  0
LINE
  5
289
330
202
100
AcDbEntity
  8
0
  6
Continuous
 62
     0
370
     0
100
AcDbLine
 10
722.297763
 20
751.409837
 30
0.0
 11
723.289037
 21
751.409837
 31
0.0
  0
LINE
  5
28A
330
202
100
AcDbEntity
  8
0
  6
Continuous
 62
     0
370
    30
100
AcDbLine
 10
723.289037
 20
751.409837
 30
0.0
 11
723.289037
 21
760.427214
 31
0.0
  0
LWPOLYLINE
  5
28B
330
202
100
AcDbEntity
  8
0
  6
Continuous
 62
     0
370
     0
100
AcDbPolyline
 90
        7
 70
     0
 43
0.0
 10
722.297791
 20
751.409851
 10
722.299683
 20
751.155334
 10
722.300903
 20
750.916992
 10
722.301392
 20
750.711609
 10
722.301025
 20
750.552307
 10
722.299866
 20
750.449524
 10
722.297791
 20
750.409851
  0
ARC
  5
28C
330
202
100
AcDbEntity
  8
0
  6
Continuous
 62
     0
370
    30
100
AcDbCircle
 10
722.289037
 20
751.409837
 30
0.0
 40
1.000000000820227
100
AcDbArc
 50
270.5
 51
360.0
  0
LINE
  5
28D
330
202
100
AcDbEntity
  8
0
  6
Continuous
 62
     0
370
     0
100
AcDbLine
 10
722.297763
 20
751.409837
 30
0.0
 11
702.782434
 21
751.239196
 31
0.0
  0
LWPOLYLINE
  5
28E
330
202
100
AcDbEntity
  8
0
  6
Continuous
 62
     0
370
     0
100
AcDbPolyline
 90
        7
 70
     0
 43
0.0
 10
702.78241
 20
751.239197
 10
702.784424
 20
750.984436
 10
702.785706
 20
750.745911
 10
702.786194
 20
750.540466
 10
702.785828
 20
750.381287
 10
702.784729
 20
750.278809
 10
702.782654
 20
750.239563
  0
LINE
  5
28F
330
202
100
AcDbEntity
  8
0
  6
Continuous
 62
     0
370
    30
100
AcDbLine
 10
710.186863
 20
750.304185
 30
0.0
 11
722.297763
 21
750.409875
 31
0.0
  0
ARC
  5
290
330
202
100
AcDbEntity
  8
0
  6
Continuous
 62
     0
370
     0
100
AcDbCircle
 10
702.861894
 20
742.726408
 30
0.0
 40
8.513159052412291
100
AcDbArc
 50
90.534798
 51
139.908316
  0
LWPOLYLINE
  5
291
330
202
100
AcDbEntity
  8
0
  6
Continuous
 62
     0
370
     0
100
AcDbPolyline
 90
        7
 70
     0
 43
0.0
 10
696.349182
 20
748.208984
 10
696.084717
 20
747.338928
 10
695.846069
 20
746.467102
 10
695.646362
 20
745.592957
 10
695.493408
 20
744.71521
 10
695.392334
 20
743.832825
 10
695.346313
 20
742.812134
  0
ARC
  5
292
330
202
100
AcDbEntity
  8
0
  6
Continuous
 62
     0
370
     0
100
AcDbCircle
 10
702.858057
 20
769.102491
 30
0.0
 40
8.504972238964317
100
AcDbArc
 50
220.066322
 51
269.490541
  0
LINE
  5
293
330
202
100
AcDbEntity
  8
0
  6
Continuous
 62
     0
370
     0
100
AcDbLine
 10
696.349203
 20
763.628063
 30
0.0
 11
696.359322
 21
761.666395
 31
0.0
  0
ARC
  5
294
330
202
100
AcDbEntity
  8
0
  6
Continuous
 62
     0
370
     0
100
AcDbCircle
 10
-586.448574
 20
755.881288
 30
0.0
 40
1282.820940125551
100
AcDbArc
 50
0.001663
 51
0.258386
  0
ARC
  5
295
330
202
100
AcDbEntity
  8
0
  6
Continuous
 62
     0
370
     0
100
AcDbCircle
 10
-586.448574
 20
755.955763
 30
0.0
 40
1282.820940129466
100
AcDbArc
 50
359.741614
 51
359.998337
  0
LINE
  5
296
330
202
100
AcDbEntity
  8
0
  6
Continuous
 62
     0
370
     0
100
AcDbLine
 10
696.359322
 20
750.170657
 30
0.0
 11
696.349203
 21
748.20899
 31
0.0
  0
LWPOLYLINE
  5
297
330
202
100
AcDbEntity
  8
0
  6
Continuous
 62
     0
370
     0
100
AcDbPolyline
 90
        7
 70
     0
 43
0.0
 10
695.346313
 20
769.024902
 10
695.381714
 20
768.139709
 10
695.474426
 20
767.256653
 10
695.619812
 20
766.378235
 10
695.812683
 20
765.503662
 10
696.046143
 20
764.631531
 10
696.349182
 20
763.628052
  0
LINE
  5
298
330
202
100
AcDbEntity
  8
0
  6
Continuous
 62
     0
370
     0
100
AcDbLine
 10
696.359322
 20
761.666395
 30
0.0
 11
695.368201
 21
761.661933
 31
0.0
  0
LINE
  5
299
330
202
100
AcDbEntity
  8
0
  6
Continuous
 62
     0
370
     0
100
AcDbLine
 10
695.368201
 20
761.661933
 30
0.0
 11
695.369187
 21
761.424934
 31
0.0
  0
ARC
  5
29A
330
202
100
AcDbEntity
  8
0
  6
Continuous
 62
     0
370
     0
100
AcDbCircle
 10
-571.006579
 20
755.898688
 30
0.0
 40
1266.387823895819
100
AcDbArc
 50
0.000898
 51
0.250027
  0
LINE
  5
29B
330
202
100
AcDbEntity
  8
0
  6
Continuous
 62
     0
370
     0
100
AcDbLine
 10
695.381245
 20
755.918526
 30
0.0
 11
696.372366
 21
755.918526
 31
0.0
  0
LINE
  5
29C
330
202
100
AcDbEntity
  8
0
  6
Continuous
 62
     0
370
     0
100
AcDbLine
 10
696.349203
 20
763.628063
 30
0.0
 11
695.358082
 21
763.622228
 31
0.0
  0
LINE
  5
29D
330
202
100
AcDbEntity
  8
0
  6
Continuous
 62
     0
370
     0
100
AcDbLine
 10
695.358082
 20
763.622228
 30
0.0
 11
695.368201
 21
761.661933
 31
0.0
  0
LWPOLYLINE
  5
29E
330
202
100
AcDbEntity
  8
0
  6
Continuous
 62
     0
370
     0
100
AcDbPolyline
 90
        5
 70
     0
 43
0.0
 10
695.346313
 20
769.024902
 10
695.347778
 20
767.776672
 10
695.349121
 20
766.493469
 10
695.351746
 20
765.151794
 10
695.358093
 20
763.622253
  0
LINE
  5
29F
330
202
100
AcDbEntity
  8
0
  6
Continuous
 62
     0
370
     0
100
AcDbLine
 10
695.368201
 20
750.175119
 30
0.0
 11
696.359322
 21
750.170657
 31
0.0
  0
ARC
  5
2A0
330
202
100
AcDbEntity
  8
0
  6
Continuous
 62
     0
370
     0
100
AcDbCircle
 10
-571.006579
 20
755.938363
 30
0.0
 40
1266.387823831893
100
AcDbArc
 50
359.749973
 51
359.999102
  0
LINE
  5
2A1
330
202
100
AcDbEntity
  8
0
  6
Continuous
 62
     0
370
     0
100
AcDbLine
 10
695.369187
 20
750.412117
 30
0.0
 11
695.368201
 21
750.175119
 31
0.0
  0
LINE
  5
2A2
330
202
100
AcDbEntity
  8
0
  6
Continuous
 62
     0
370
     0
100
AcDbLine
 10
695.368201
 20
750.175119
 30
0.0
 11
695.358082
 21
748.214823
 31
0.0
  0
LINE
  5
2A3
330
202
100
AcDbEntity
  8
0
  6
Continuous
 62
     0
370
     0
100
AcDbLine
 10
695.358082
 20
748.214823
 30
0.0
 11
696.349203
 21
748.208989
 31
0.0
  0
LWPOLYLINE
  5
2A4
330
202
100
AcDbEntity
  8
0
  6
Continuous
 62
     0
370
     0
100
AcDbPolyline
 90
        5
 70
     0
 43
0.0
 10
695.358093
 20
748.214844
 10
695.352112
 20
746.808838
 10
695.349304
 20
745.461243
 10
695.3479
 20
744.173584
 10
695.346313
 20
742.812134
  0
LINE
  5
2A5
330
202
100
AcDbEntity
  8
0
  6
Continuous
 62
     0
370
    30
100
AcDbLine
 10
695.532601
 20
742.872348
 30
0.0
 11
695.341401
 21
731.918526
 31
0.0
  0
LWPOLYLINE
  5
2A6
330
202
100
AcDbEntity
  8
0
  6
Continuous
 62
     0
370
    30
100
AcDbPolyline
 90
       57
 70
     0
 43
0.0
 10
695.341431
 20
779.918518
 10
695.341431
 20
779.887329
 10
695.341431
 20
779.791199
 10
695.341431
 20
779.626831
 10
695.341431
 20
779.391174
 10
695.341431
 20
779.081726
 10
695.341431
 20
778.696594
 10
695.341431
 20
778.234375
 10
695.341431
 20
777.694519
 10
695.341431
 20
777.077271
 10
695.341431
 20
776.383545
 10
695.341431
 20
775.615173
 10
695.341431
 20
774.774841
 10
695.341431
 20
773.865967
 10
695.341431
 20
772.892822
 10
695.341431
 20
771.860291
 10
695.341431
 20
770.773926
 10
695.341431
 20
769.639893
 10
695.341431
 20
768.4646
 10
695.341431
 20
767.254883
 10
695.341431
 20
766.017578
 10
695.341431
 20
764.759827
 10
695.341431
 20
763.488403
 10
695.341431
 20
762.210144
 10
695.341431
 20
760.931458
 10
695.341431
 20
759.658447
 10
695.341431
 20
758.396729
 10
695.341431
 20
757.15155
 10
695.341431
 20
755.92749
 10
695.341431
 20
754.703796
 10
695.341431
 20
753.458862
 10
695.341431
 20
752.197388
 10
695.341431
 20
750.9245
 10
695.341431
 20
749.645813
 10
695.341431
 20
748.367493
 10
695.341431
 20
747.095947
 10
695.341431
 20
745.837891
 10
695.341431
 20
744.600281
 10
695.341431
 20
743.390076
 10
695.341431
 20
742.214233
 10
695.341431
 20
741.079529
 10
695.341431
 20
739.992432
 10
695.341431
 20
738.959106
 10
695.341431
 20
737.985046
 10
695.341431
 20
737.075134
 10
695.341431
 20
736.233765
 10
695.341431
 20
735.464355
 10
695.341431
 20
734.76947
 10
695.341431
 20
734.151062
 10
695.341431
 20
733.610107
 10
695.341431
 20
733.146729
 10
695.341431
 20
732.760437
 10
695.341431
 20
732.44989
 10
695.341431
 20
732.213196
 10
695.341431
 20
732.047791
 10
695.341431
 20
731.950684
 10
695.341431
 20
731.918518
  0
LINE
  5
2A7
330
202
100
AcDbEntity
  8
0
  6
Continuous
 62
     0
370
    30
100
AcDbLine
 10
695.341401
 20
779.918526
 30
0.0
 11
695.189037
 21
779.918526
 31
0.0
  0
LINE
  5
2A8
330
202
100
AcDbEntity
  8
0
  6
Continuous
 62
     0
370
    30
100
AcDbLine
 10
695.189037
 20
731.918526
 30
0.0
 11
695.341401
 21
731.918526
 31
0.0
  0
LINE
  5
2A9
330
202
100
AcDbEntity
  8
0
  6
Continuous
 62
     0
370
    30
100
AcDbLine
 10
695.341401
 20
779.918526
 30
0.0
 11
695.532601
 21
768.96471
 31
0.0
  0
ARC
  5
2AA
330
202
100
AcDbEntity
  8
0
  6
Continuous
 62
     0
370
    30
100
AcDbCircle
 10
702.848467
 20
769.099804
 30
0.0
 40
7.501943200466815
100
AcDbArc
 50
267.493924
 51
269.494525
  0
ARC
  5
2AB
330
202
100
AcDbEntity
  8
0
  6
Continuous
 62
     0
370
    30
100
AcDbCircle
 10
702.848467
 20
742.737247
 30
0.0
 40
7.501943359980635
100
AcDbArc
 50
90.505476
 51
92.506092
  0
LINE
  5
2AC
330
202
100
AcDbEntity
  8
0
  6
Continuous
 62
     0
370
    30
100
AcDbLine
 10
702.782644
 20
750.239568
 30
0.0
 11
710.186863
 21
750.304184
 31
0.0
  0
LINE
  5
2AD
330
202
100
AcDbEntity
  8
0
  6
Continuous
 62
     0
370
    30
100
AcDbLine
 10
702.782644
 20
761.597484
 30
0.0
 11
710.186863
 21
761.532867
 31
0.0
  0
ENDBLK
  5
2AF
330
202
100
AcDbEntity
  8
0
100
AcDbBlockEnd
  0
BLOCK
  5
35F
330
2B1
100
AcDbEntity
  8
0
100
AcDbBlockBegin
  2
d
 70
     0
 10
392.492798
 20
0.0
 30
0.0
  3
d
  1

  0
ARC
  5
2B2
330
2B1
100
AcDbEntity
  8
0
  6
Continuous
 62
     0
370
     0
100
AcDbCircle
 10
370.656077
 20
477.014179
 30
0.0
 40
33.42478041239015
100
AcDbArc
 50
179.40004
 51
180.599965
  0
LINE
  5
2B3
330
2B1
100
AcDbEntity
  8
0
  6
Continuous
 62
     0
370
    30
100
AcDbLine
 10
337.233129
 20
476.664182
 30
0.0
 11
347.436794
 21
476.610755
 31
0.0
  0
LWPOLYLINE
  5
2B4
330
2B1
100
AcDbEntity
  8
0
  6
Continuous
 62
     0
370
    30
100
AcDbPolyline
 90
        6
 70
     0
 43
0.0
 10
347.436798
 20
476.610748
 10
347.436798
 20
476.643768
 10
347.436798
 20
476.739807
 10
347.436798
 20
476.889252
 10
347.436798
 20
477.079987
 10
347.436798
 20
477.31076
  0
LINE
  5
2B5
330
2B1
100
AcDbEntity
  8
0
  6
Continuous
 62
     0
370
     0
100
AcDbLine
 10
347.436794
 20
477.310745
 30
0.0
 11
337.233129
 21
477.364172
 31
0.0
  0
ARC
  5
2B6
330
2B1
100
AcDbEntity
  8
0
  6
Continuous
 62
     0
370
    30
100
AcDbCircle
 10
337.236794
 20
477.364172
 30
0.0
 40
0.6999999880789235
100
AcDbArc
 50
180.0
 51
269.7
  0
LINE
  5
2B7
330
2B1
100
AcDbEntity
  8
0
  6
Continuous
 62
     0
370
    30
100
AcDbLine
 10
336.536794
 20
594.471484
 30
0.0
 11
336.536794
 21
477.364172
 31
0.0
  0
LWPOLYLINE
  5
2B8
330
2B1
100
AcDbEntity
  8
0
  6
Continuous
 62
     0
370
     0
100
AcDbPolyline
 90
        6
 70
     0
 43
0.0
 10
336.536804
 20
477.364166
 10
336.573486
 20
477.364166
 10
336.672821
 20
477.364166
 10
336.813843
 20
477.364166
 10
337.002869
 20
477.364166
 10
337.233124
 20
477.364166
  0
LINE
  5
2B9
330
2B1
100
AcDbEntity
  8
0
  6
Continuous
 62
     0
370
     0
100
AcDbLine
 10
337.233129
 20
477.364172
 30
0.0
 11
337.233129
 21
594.471484
 31
0.0
  0
LINE
  5
2BA
330
2B1
100
AcDbEntity
  8
0
  6
Continuous
 62
     0
370
     0
100
AcDbLine
 10
337.233129
 20
594.471484
 30
0.0
 11
336.536794
 21
594.471484
 31
0.0
  0
LINE
  5
2BB
330
2B1
100
AcDbEntity
  8
0
  6
Continuous
 62
     0
370
     0
100
AcDbLine
 10
337.233129
 20
594.471484
 30
0.0
 11
347.436794
 21
594.52491
 31
0.0
  0
LINE
  5
2BC
330
2B1
100
AcDbEntity
  8
0
  6
Continuous
 62
     0
370
    30
100
AcDbLine
 10
347.436794
 20
594.52491
 30
0.0
 11
347.436794
 21
595.224901
 31
0.0
  0
LINE
  5
2BD
330
2B1
100
AcDbEntity
  8
0
  6
Continuous
 62
     0
370
    30
100
AcDbLine
 10
347.436794
 20
595.224901
 30
0.0
 11
337.233129
 21
595.171474
 31
0.0
  0
ARC
  5
2BE
330
2B1
100
AcDbEntity
  8
0
  6
Continuous
 62
     0
370
     0
100
AcDbCircle
 10
370.656077
 20
594.821477
 30
0.0
 40
33.42478041252156
100
AcDbArc
 50
179.400035
 51
180.59996
  0
ARC
  5
2BF
330
2B1
100
AcDbEntity
  8
0
  6
Continuous
 62
     0
370
    30
100
AcDbCircle
 10
337.236794
 20
594.471484
 30
0.0
 40
0.6999999880791743
100
AcDbArc
 50
90.3
 51
180.0
  0
LINE
  5
2C0
330
2B1
100
AcDbEntity
  8
0
  6
Continuous
 62
     0
370
    30
100
AcDbLine
 10
347.436794
 20
477.310745
 30
0.0
 11
347.436794
 21
594.52491
 31
0.0
  0
LINE
  5
2C1
330
2B1
100
AcDbEntity
  8
0
  6
Continuous
 62
     0
370
    30
100
AcDbLine
 10
336.536797
 20
554.91806
 30
0.0
 11
333.316795
 21
554.91806
 31
0.0
  0
LINE
  5
2C2
330
2B1
100
AcDbEntity
  8
0
  6
Continuous
 62
     0
370
    30
100
AcDbLine
 10
336.536797
 20
516.91806
 30
0.0
 11
333.316795
 21
516.91806
 31
0.0
  0
LINE
  5
2C3
330
2B1
100
AcDbEntity
  8
0
  6
Continuous
 62
     0
370
    30
100
AcDbLine
 10
296.266795
 20
565.247831
 30
0.0
 11
288.366795
 21
565.247831
 31
0.0
  0
LINE
  5
2C4
330
2B1
100
AcDbEntity
  8
0
  6
Continuous
 62
     0
370
    30
100
AcDbLine
 10
288.366795
 20
565.247831
 30
0.0
 11
288.366795
 21
557.917831
 31
0.0
  0
LWPOLYLINE
  5
2C5
330
2B1
100
AcDbEntity
  8
0
  6
Continuous
 62
     0
370
    30
100
AcDbPolyline
 90
       24
 70
     0
 43
0.0
 10
288.366791
 20
557.917847
 10
288.403259
 20
557.912903
 10
288.512909
 20
557.892273
 10
288.69342
 20
557.860229
 10
288.941315
 20
557.820374
 10
289.251434
 20
557.775574
 10
289.617767
 20
557.728577
 10
290.034302
 20
557.681885
 10
290.493744
 20
557.63855
 10
290.987152
 20
557.601868
 10
291.505402
 20
557.575256
 10
292.039185
 20
557.56134
 10
292.578278
 20
557.560913
 10
293.112305
 20
557.574158
 10
293.631073
 20
557.600647
 10
294.125305
 20
557.637512
 10
294.585907
 20
557.681091
 10
295.003998
 20
557.727661
 10
295.372131
 20
557.774353
 10
295.684052
 20
557.818665
 10
295.933624
 20
557.858215
 10
296.115662
 20
557.89032
 10
296.227478
 20
557.912048
 10
296.266785
 20
557.920349
  0
LWPOLYLINE
  5
2C6
330
2B1
100
AcDbEntity
  8
0
  6
Continuous
 62
     0
370
    30
100
AcDbPolyline
 90
       22
 70
     0
 43
0.0
 10
288.866791
 20
565.747803
 10
288.905273
 20
565.747803
 10
289.019714
 20
565.747803
 10
289.207794
 20
565.747803
 10
289.465027
 20
565.747803
 10
289.78595
 20
565.747803
 10
290.163239
 20
565.747803
 10
290.588562
 20
565.747803
 10
291.052399
 20
565.747803
 10
291.544403
 20
565.747803
 10
292.05365
 20
565.747803
 10
292.568756
 20
565.747803
 10
293.078247
 20
565.747803
 10
293.57074
 20
565.747803
 10
294.035309
 20
565.747803
 10
294.461578
 20
565.747803
 10
294.839996
 20
565.747803
 10
295.162231
 20
565.747803
 10
295.420898
 20
565.747803
 10
295.610565
 20
565.747803
 10
295.726624
 20
565.747803
 10
295.766785
 20
565.747803
  0
LINE
  5
2C7
330
2B1
100
AcDbEntity
  8
0
  6
Continuous
 62
     0
370
    30
100
AcDbLine
 10
288.866795
 20
565.747831
 30
0.0
 11
288.366795
 21
565.247831
 31
0.0
  0
LWPOLYLINE
  5
2C8
330
2B1
100
AcDbEntity
  8
0
  6
Continuous
 62
     0
370
    30
100
AcDbPolyline
 90
       53
 70
     0
 43
0.0
 10
283.316803
 20
514.417847
 10
283.316803
 20
514.45697
 10
283.316803
 20
514.574585
 10
283.316803
 20
514.769958
 10
283.316803
 20
515.042236
 10
283.316803
 20
515.390625
 10
283.316803
 20
515.814209
 10
283.316803
 20
516.311279
 10
283.316803
 20
516.879639
 10
283.316803
 20
517.517151
 10
283.316803
 20
518.22168
 10
283.316803
 20
518.991028
 10
283.316803
 20
519.822327
 10
283.316803
 20
520.71228
 10
283.316803
 20
521.657471
 10
283.316803
 20
522.654541
 10
283.316803
 20
523.700134
 10
283.316803
 20
524.790466
 10
283.316803
 20
525.921326
 10
283.316803
 20
527.088562
 10
283.316803
 20
528.287903
 10
283.316803
 20
529.515015
 10
283.316803
 20
530.765686
 10
283.316803
 20
532.035156
 10
283.316803
 20
533.318787
 10
283.316803
 20
534.611816
 10
283.316803
 20
535.909607
 10
283.316803
 20
537.207397
 10
283.316803
 20
538.500488
 10
283.316803
 20
539.784241
 10
283.316803
 20
541.053955
 10
283.316803
 20
542.304871
 10
283.316803
 20
543.532349
 10
283.316803
 20
544.732056
 10
283.316803
 20
545.899719
 10
283.316803
 20
547.031067
 10
283.316803
 20
548.121948
 10
283.316803
 20
549.168152
 10
283.316803
 20
550.165833
 10
283.316803
 20
551.111694
 10
283.316803
 20
552.00238
 10
283.316803
 20
552.834473
 10
283.316803
 20
553.604614
 10
283.316803
 20
554.309998
 10
283.316803
 20
554.948364
 10
283.316803
 20
555.517639
 10
283.316803
 20
556.015625
 10
283.316803
 20
556.440125
 10
283.316803
 20
556.78949
 10
283.316803
 20
557.062744
 10
283.316803
 20
557.259033
 10
283.316803
 20
557.377686
 10
283.316803
 20
557.417847
  0
LINE
  5
2C9
330
2B1
100
AcDbEntity
  8
0
  6
Continuous
 62
     0
370
    30
100
AcDbLine
 10
283.316795
 20
514.417831
 30
0.0
 11
283.816795
 21
513.917831
 31
0.0
  0
LWPOLYLINE
  5
2CA
330
2B1
100
AcDbEntity
  8
0
  6
Continuous
 62
     0
370
    30
100
AcDbPolyline
 90
       54
 70
     0
 43
0.0
 10
283.816803
 20
513.917847
 10
283.816528
 20
513.957336
 10
283.816132
 20
514.074646
 10
283.815735
 20
514.268433
 10
283.81546
 20
514.537476
 10
283.815369
 20
514.880554
 10
283.81543
 20
515.296875
 10
283.815613
 20
515.7854
 10
283.815918
 20
516.345276
 10
283.816254
 20
516.974609
 10
283.816559
 20
517.670593
 10
283.816772
 20
518.430176
 10
283.816742
 20
519.250427
 10
283.816559
 20
520.128784
 10
283.816284
 20
521.062683
 10
283.815979
 20
522.049072
 10
283.815704
 20
523.084595
 10
283.81546
 20
524.165405
 10
283.815308
 20
525.287598
 10
283.815216
 20
526.447083
 10
283.815247
 20
527.639832
 10
283.815369
 20
528.861633
 10
283.815521
 20
530.108154
 10
283.815765
 20
531.375061
 10
283.81601
 20
532.657959
 10
283.816254
 20
533.952209
 10
283.816376
 20
535.253418
 10
283.816406
 20
536.556885
 10
283.816254
 20
537.858154
 10
283.81604
 20
539.152649
 10
283.815796
 20
540.435791
 10
283.815582
 20
541.703003
 10
283.815399
 20
542.950012
 10
283.815277
 20
544.172363
 10
283.815247
 20
545.365784
 10
283.815308
 20
546.526062
 10
283.815491
 20
547.649048
 10
283.815704
 20
548.730774
 10
283.815979
 20
549.767151
 10
283.816284
 20
550.754456
 10
283.816559
 20
551.689148
 10
283.816742
 20
552.568176
 10
283.816742
 20
553.389282
 10
283.816528
 20
554.149841
 10
283.816193
 20
554.847046
 10
283.815826
 20
555.477966
 10
283.815521
 20
556.039734
 10
283.815308
 20
556.530457
 10
283.815247
 20
556.948853
 10
283.815369
 20
557.293823
 10
283.815674
 20
557.564209
 10
283.816101
 20
557.758972
 10
283.816498
 20
557.877136
 10
283.816803
 20
557.917847
  0
LINE
  5
2CB
330
2B1
100
AcDbEntity
  8
0
  6
Continuous
 62
     0
370
    30
100
AcDbLine
 10
297.066795
 20
513.917831
 30
0.0
 11
333.316796
 21
513.917831
 31
0.0
  0
LWPOLYLINE
  5
2CC
330
2B1
100
AcDbEntity
  8
0
  6
Continuous
 62
     0
370
    30
100
AcDbPolyline
 90
       54
 70
     0
 43
0.0
 10
333.316803
 20
513.917847
 10
333.316803
 20
513.949829
 10
333.316803
 20
514.048462
 10
333.316803
 20
514.217346
 10
333.316803
 20
514.459717
 10
333.316803
 20
514.778076
 10
333.316803
 20
515.174438
 10
333.316803
 20
515.649963
 10
333.316803
 20
516.204956
 10
333.316803
 20
516.838867
 10
333.316803
 20
517.550232
 10
333.316803
 20
518.336548
 10
333.316803
 20
519.194397
 10
333.316803
 20
520.119568
 10
333.316803
 20
521.106873
 10
333.316803
 20
522.150452
 10
333.316803
 20
523.243835
 10
333.316803
 20
524.380066
 10
333.316803
 20
525.551819
 10
333.316803
 20
526.751587
 10
333.316803
 20
527.971802
 10
333.316803
 20
529.204956
 10
333.316803
 20
530.443909
 10
333.316803
 20
531.681641
 10
333.316803
 20
532.911804
 10
333.316803
 20
534.128357
 10
333.316803
 20
535.325989
 10
333.316803
 20
536.506287
 10
333.316803
 20
537.703796
 10
333.316803
 20
538.920349
 10
333.316803
 20
540.150452
 10
333.316803
 20
541.388184
 10
333.316803
 20
542.627075
 10
333.316803
 20
543.860291
 10
333.316803
 20
545.080566
 10
333.316803
 20
546.280396
 10
333.316803
 20
547.452209
 10
333.316803
 20
548.588562
 10
333.316803
 20
549.682129
 10
333.316803
 20
550.72583
 10
333.316803
 20
551.713318
 10
333.316803
 20
552.638672
 10
333.316803
 20
553.496765
 10
333.316803
 20
554.283264
 10
333.316803
 20
554.994873
 10
333.316803
 20
555.629028
 10
333.316803
 20
556.184204
 10
333.316803
 20
556.659973
 10
333.316803
 20
557.05658
 10
333.316803
 20
557.375122
 10
333.316803
 20
557.617676
 10
333.316803
 20
557.786804
 10
333.316803
 20
557.88562
 10
333.316803
 20
557.917847
  0
LINE
  5
2CD
330
2B1
100
AcDbEntity
  8
0
  6
Continuous
 62
     0
370
    30
100
AcDbLine
 10
287.566795
 20
513.917831
 30
0.0
 11
283.816795
 21
513.917831
 31
0.0
  0
LWPOLYLINE
  5
2CE
330
2B1
100
AcDbEntity
  8
0
  6
Continuous
 62
     0
370
     0
100
AcDbPolyline
 90
       26
 70
     0
 43
0.0
 10
287.566803
 20
513.917847
 10
287.604858
 20
513.925964
 10
287.718903
 20
513.94989
 10
287.904938
 20
513.987915
 10
288.157318
 20
514.037659
 10
288.472046
 20
514.096252
 10
288.851013
 20
514.159729
 10
289.285431
 20
514.224243
 10
289.765686
 20
514.286072
 10
290.28772
 20
514.341064
 10
290.844025
 20
514.385864
 10
291.423706
 20
514.417847
 10
292.016083
 20
514.434509
 10
292.612427
 20
514.43457
 10
293.204865
 20
514.41803
 10
293.784698
 20
514.386169
 10
294.341248
 20
514.341492
 10
294.863617
 20
514.28656
 10
295.344238
 20
514.224792
 10
295.779083
 20
514.160278
 10
296.158569
 20
514.096802
 10
296.473846
 20
514.038086
 10
296.726776
 20
513.988281
 10
296.913422
 20
513.950195
 10
297.028076
 20
513.926086
 10
297.066803
 20
513.917847
  0
LWPOLYLINE
  5
2CF
330
2B1
100
AcDbEntity
  8
0
  6
Continuous
 62
     0
370
     0
100
AcDbPolyline
 90
       24
 70
     0
 43
0.0
 10
296.416809
 20
557.917847
 10
296.37796
 20
557.910706
 10
296.262054
 20
557.889771
 10
296.073608
 20
557.856812
 10
295.818848
 20
557.814087
 10
295.499481
 20
557.764771
 10
295.11731
 20
557.712708
 10
294.684296
 20
557.661438
 10
294.207245
 20
557.614868
 10
293.692535
 20
557.576477
 10
293.151794
 20
557.548828
 10
292.596954
 20
557.534363
 10
292.037781
 20
557.534302
 10
291.48291
 20
557.548767
 10
290.942139
 20
557.576416
 10
290.427399
 20
557.614807
 10
289.950287
 20
557.661377
 10
289.517181
 20
557.712646
 10
289.134857
 20
557.764709
 10
288.815338
 20
557.814026
 10
288.560394
 20
557.85675
 10
288.371796
 20
557.889709
 10
288.25589
 20
557.910645
 10
288.217194
 20
557.917847
  0
LINE
  5
2D0
330
2B1
100
AcDbEntity
  8
0
  6
Continuous
 62
     0
370
    30
100
AcDbLine
 10
297.066795
 20
513.917831
 30
0.0
 11
287.566795
 21
513.917831
 31
0.0
  0
LINE
  5
2D1
330
2B1
100
AcDbEntity
  8
0
  6
Continuous
 62
     0
370
    30
100
AcDbLine
 10
288.366795
 20
557.917831
 30
0.0
 11
288.217192
 21
557.917831
 31
0.0
  0
LINE
  5
2D2
330
2B1
100
AcDbEntity
  8
0
  6
Continuous
 62
     0
370
    30
100
AcDbLine
 10
333.316796
 20
557.917831
 30
0.0
 11
296.416795
 21
557.917831
 31
0.0
  0
LINE
  5
2D3
330
2B1
100
AcDbEntity
  8
0
  6
Continuous
 62
     0
370
    30
100
AcDbLine
 10
283.816795
 20
557.917831
 30
0.0
 11
288.217193
 21
557.917831
 31
0.0
  0
LINE
  5
2D4
330
2B1
100
AcDbEntity
  8
0
  6
Continuous
 62
     0
370
    30
100
AcDbLine
 10
283.316795
 20
557.417831
 30
0.0
 11
283.816795
 21
557.917831
 31
0.0
  0
LINE
  5
2D5
330
2B1
100
AcDbEntity
  8
0
  6
Continuous
 62
     0
370
    30
100
AcDbLine
 10
296.266795
 20
565.247831
 30
0.0
 11
295.766795
 21
565.747831
 31
0.0
  0
LINE
  5
2D6
330
2B1
100
AcDbEntity
  8
0
  6
Continuous
 62
     0
370
    30
100
AcDbLine
 10
296.266795
 20
565.247832
 30
0.0
 11
296.266795
 21
557.920351
 31
0.0
  0
LINE
  5
2D7
330
2B1
100
AcDbEntity
  8
0
  6
Continuous
 62
     0
370
    30
100
AcDbLine
 10
337.33676
 20
627.918564
 30
0.0
 11
337.33676
 21
683.918564
 31
0.0
  0
LINE
  5
2D8
330
2B1
100
AcDbEntity
  8
0
  6
Continuous
 62
     0
370
    30
100
AcDbLine
 10
347.55676
 20
627.418564
 30
0.0
 11
337.83676
 21
627.418564
 31
0.0
  0
LINE
  5
2D9
330
2B1
100
AcDbEntity
  8
0
  6
Continuous
 62
     0
370
     0
100
AcDbLine
 10
347.55676
 20
627.918564
 30
0.0
 11
337.83676
 21
627.918564
 31
0.0
  0
LINE
  5
2DA
330
2B1
100
AcDbEntity
  8
0
  6
Continuous
 62
     0
370
     0
100
AcDbLine
 10
337.83676
 20
627.918564
 30
0.0
 11
337.83676
 21
627.418564
 31
0.0
  0
LINE
  5
2DB
330
2B1
100
AcDbEntity
  8
0
  6
Continuous
 62
     0
370
    30
100
AcDbLine
 10
347.55676
 20
627.418564
 30
0.0
 11
347.55676
 21
627.918564
 31
0.0
  0
LINE
  5
2DC
330
2B1
100
AcDbEntity
  8
0
  6
Continuous
 62
     0
370
    30
100
AcDbLine
 10
347.55676
 20
627.918564
 30
0.0
 11
347.55676
 21
683.918564
 31
0.0
  0
LINE
  5
2DD
330
2B1
100
AcDbEntity
  8
0
  6
Continuous
 62
     0
370
     0
100
AcDbLine
 10
347.55676
 20
683.918564
 30
0.0
 11
337.83676
 21
683.918564
 31
0.0
  0
LINE
  5
2DE
330
2B1
100
AcDbEntity
  8
0
  6
Continuous
 62
     0
370
     0
100
AcDbLine
 10
337.83676
 20
683.918564
 30
0.0
 11
337.83676
 21
627.918564
 31
0.0
  0
LINE
  5
2DF
330
2B1
100
AcDbEntity
  8
0
  6
Continuous
 62
     0
370
    30
100
AcDbLine
 10
347.55676
 20
684.418564
 30
0.0
 11
337.83676
 21
684.418564
 31
0.0
  0
LINE
  5
2E0
330
2B1
100
AcDbEntity
  8
0
  6
Continuous
 62
     0
370
     0
100
AcDbLine
 10
337.83676
 20
684.418564
 30
0.0
 11
337.83676
 21
683.918564
 31
0.0
  0
LINE
  5
2E1
330
2B1
100
AcDbEntity
  8
0
  6
Continuous
 62
     0
370
    30
100
AcDbLine
 10
347.55676
 20
683.918564
 30
0.0
 11
347.55676
 21
684.418564
 31
0.0
  0
ARC
  5
2E2
330
2B1
100
AcDbEntity
  8
0
  6
Continuous
 62
     0
370
    30
100
AcDbCircle
 10
337.83676
 20
683.918564
 30
0.0
 40
0.4999999999917399
100
AcDbArc
 50
90.0
 51
180.0
  0
LWPOLYLINE
  5
2E3
330
2B1
100
AcDbEntity
  8
0
  6
Continuous
 62
     0
370
     0
100
AcDbPolyline
 90
        5
 70
     0
 43
0.0
 10
337.336761
 20
683.918579
 10
337.37439
 20
683.918579
 10
337.481628
 20
683.918579
 10
337.642303
 20
683.918579
 10
337.836761
 20
683.918579
  0
LWPOLYLINE
  5
2E4
330
2B1
100
AcDbEntity
  8
0
  6
Continuous
 62
     0
370
     0
100
AcDbPolyline
 90
        6
 70
     0
 43
0.0
 10
337.336761
 20
627.918579
 10
337.360809
 20
627.918579
 10
337.426514
 20
627.918579
 10
337.519836
 20
627.918579
 10
337.644104
 20
627.918579
 10
337.836761
 20
627.918579
  0
ARC
  5
2E5
330
2B1
100
AcDbEntity
  8
0
  6
Continuous
 62
     0
370
    30
100
AcDbCircle
 10
337.83676
 20
627.918564
 30
0.0
 40
0.4999999999978044
100
AcDbArc
 50
180.0
 51
270.0
  0
ARC
  5
2E6
330
2B1
100
AcDbEntity
  8
0
  6
Continuous
 62
     0
370
    30
100
AcDbCircle
 10
329.494365
 20
642.741504
 30
0.0
 40
7.499975597599741
100
AcDbArc
 50
0.99992
 51
88.788577
  0
ARC
  5
2E7
330
2B1
100
AcDbEntity
  8
0
  6
Continuous
 62
     0
370
     0
100
AcDbCircle
 10
337.24992
 20
643.35296
 30
0.0
 40
0.5448863600596472
100
AcDbArc
 50
242.09311
 51
261.623501
  0
LINE
  5
2E8
330
2B1
100
AcDbEntity
  8
0
  6
Continuous
 62
     0
370
     0
100
AcDbLine
 10
337.170542
 20
642.813887
 30
0.0
 11
337.179495
 21
642.812196
 31
0.0
  0
ARC
  5
2E9
330
2B1
100
AcDbEntity
  8
0
  6
Continuous
 62
     0
370
     0
100
AcDbCircle
 10
329.677799
 20
642.737027
 30
0.0
 40
7.502072584505052
100
AcDbArc
 50
0.574105
 51
89.497486
  0
ARC
  5
2EA
330
2B1
100
AcDbEntity
  8
0
  6
Continuous
 62
     0
370
     0
100
AcDbCircle
 10
329.677799
 20
669.100101
 30
0.0
 40
7.502072687835591
100
AcDbArc
 50
270.502514
 51
359.425895
  0
LINE
  5
2EB
330
2B1
100
AcDbEntity
  8
0
  6
Continuous
 62
     0
370
     0
100
AcDbLine
 10
337.179495
 20
669.024931
 30
0.0
 11
337.170542
 21
669.023241
 31
0.0
  0
ARC
  5
2EC
330
2B1
100
AcDbEntity
  8
0
  6
Continuous
 62
     0
370
     0
100
AcDbCircle
 10
337.24992
 20
668.484167
 30
0.0
 40
0.5448863422932875
100
AcDbArc
 50
98.376499
 51
117.90689
  0
ARC
  5
2ED
330
2B1
100
AcDbEntity
  8
0
  6
Continuous
 62
     0
370
    30
100
AcDbCircle
 10
329.494365
 20
669.095624
 30
0.0
 40
7.499975632285288
100
AcDbArc
 50
271.210815
 51
359.00008
  0
LINE
  5
2EE
330
2B1
100
AcDbEntity
  8
0
  6
Continuous
 62
     0
370
    30
100
AcDbLine
 10
322.338936
 20
661.532905
 30
0.0
 11
310.228036
 21
661.427215
 31
0.0
  0
LWPOLYLINE
  5
2EF
330
2B1
100
AcDbEntity
  8
0
  6
Continuous
 62
     0
370
     0
100
AcDbPolyline
 90
        7
 70
     0
 43
0.0
 10
310.228027
 20
661.427185
 10
310.226105
 20
661.394165
 10
310.224854
 20
661.297241
 10
310.224426
 20
661.143005
 10
310.224792
 20
660.941528
 10
310.225952
 20
660.705688
 10
310.228027
 20
660.427246
  0
LINE
  5
2F0
330
2B1
100
AcDbEntity
  8
0
  6
Continuous
 62
     0
370
     0
100
AcDbLine
 10
310.228036
 20
660.427253
 30
0.0
 11
329.743365
 21
660.597893
 31
0.0
  0
LWPOLYLINE
  5
2F1
330
2B1
100
AcDbEntity
  8
0
  6
Continuous
 62
     0
370
     0
100
AcDbPolyline
 90
        7
 70
     0
 43
0.0
 10
329.743378
 20
660.5979
 10
329.741364
 20
660.8526
 10
329.740082
 20
661.091187
 10
329.739594
 20
661.29657
 10
329.739929
 20
661.455811
 10
329.741089
 20
661.558289
 10
329.743164
 20
661.597534
  0
LWPOLYLINE
  5
2F2
330
2B1
100
AcDbEntity
  8
0
  6
Continuous
 62
     0
370
     0
100
AcDbPolyline
 90
        7
 70
     0
 43
0.0
 10
309.236755
 20
660.427246
 10
309.269379
 20
660.427246
 10
309.36499
 20
660.427246
 10
309.517303
 20
660.427246
 10
309.716492
 20
660.427246
 10
309.949921
 20
660.427246
 10
310.228027
 20
660.427246
  0
ARC
  5
2F3
330
2B1
100
AcDbEntity
  8
0
  6
Continuous
 62
     0
370
    30
100
AcDbCircle
 10
310.236762
 20
660.427253
 30
0.0
 40
1.000000000829299
100
AcDbArc
 50
90.5
 51
180.0
  0
LINE
  5
2F4
330
2B1
100
AcDbEntity
  8
0
  6
Continuous
 62
     0
370
    30
100
AcDbLine
 10
309.236762
 20
660.427253
 30
0.0
 11
309.236762
 21
651.409875
 31
0.0
  0
LWPOLYLINE
  5
2F5
330
2B1
100
AcDbEntity
  8
0
  6
Continuous
 62
     0
370
     0
100
AcDbPolyline
 90
        7
 70
     0
 43
0.0
 10
309.236755
 20
651.409851
 10
309.273315
 20
651.409851
 10
309.375275
 20
651.409851
 10
309.523407
 20
651.409851
 10
309.713165
 20
651.409851
 10
309.950592
 20
651.409851
 10
310.228027
 20
651.409851
  0
LINE
  5
2F6
330
2B1
100
AcDbEntity
  8
0
  6
Continuous
 62
     0
370
     0
100
AcDbLine
 10
310.228036
 20
651.409875
 30
0.0
 11
310.228036
 21
660.427253
 31
0.0
  0
LWPOLYLINE
  5
2F7
330
2B1
100
AcDbEntity
  8
0
  6
Continuous
 62
     0
370
     0
100
AcDbPolyline
 90
        7
 70
     0
 43
0.0
 10
310.228027
 20
650.409912
 10
310.226105
 20
650.442993
 10
310.224854
 20
650.539856
 10
310.224426
 20
650.694153
 10
310.224792
 20
650.89563
 10
310.225952
 20
651.131409
 10
310.228027
 20
651.409851
  0
ARC
  5
2F8
330
2B1
100
AcDbEntity
  8
0
  6
Continuous
 62
     0
370
    30
100
AcDbCircle
 10
310.236762
 20
651.409875
 30
0.0
 40
1.000000000829445
100
AcDbArc
 50
180.0
 51
269.5
  0
LINE
  5
2F9
330
2B1
100
AcDbEntity
  8
0
  6
Continuous
 62
     0
370
    30
100
AcDbLine
 10
310.228036
 20
650.409913
 30
0.0
 11
322.338936
 21
650.304223
 31
0.0
  0
LWPOLYLINE
  5
2FA
330
2B1
100
AcDbEntity
  8
0
  6
Continuous
 62
     0
370
     0
100
AcDbPolyline
 90
        7
 70
     0
 43
0.0
 10
329.743164
 20
650.239624
 10
329.741241
 20
650.272339
 10
329.740021
 20
650.369019
 10
329.739594
 20
650.523254
 10
329.740021
 20
650.724792
 10
329.741211
 20
650.960815
 10
329.743378
 20
651.239258
  0
LINE
  5
2FB
330
2B1
100
AcDbEntity
  8
0
  6
Continuous
 62
     0
370
     0
100
AcDbLine
 10
329.743365
 20
651.239234
 30
0.0
 11
310.228036
 21
651.409875
 31
0.0
  0
LWPOLYLINE
  5
2FC
330
2B1
100
AcDbEntity
  8
0
  6
Continuous
 62
     0
370
     0
100
AcDbPolyline
 90
        7
 70
     0
 43
0.0
 10
337.179504
 20
642.812195
 10
337.144043
 20
643.697388
 10
337.051392
 20
644.580383
 10
336.906006
 20
645.458862
 10
336.713135
 20
646.333435
 10
336.479645
 20
647.205566
 10
336.176605
 20
648.209045
  0
ARC
  5
2FD
330
2B1
100
AcDbEntity
  8
0
  6
Continuous
 62
     0
370
     0
100
AcDbCircle
 10
329.663904
 20
642.726446
 30
0.0
 40
8.513159052811709
100
AcDbArc
 50
40.091684
 51
89.465202
  0
LINE
  5
2FE
330
2B1
100
AcDbEntity
  8
0
  6
Continuous
 62
     0
370
     0
100
AcDbLine
 10
336.176596
 20
648.209028
 30
0.0
 11
336.166477
 21
650.170695
 31
0.0
  0
ARC
  5
2FF
330
2B1
100
AcDbEntity
  8
0
  6
Continuous
 62
     0
370
     0
100
AcDbCircle
 10
1618.974373
 20
655.955801
 30
0.0
 40
1282.820940123898
100
AcDbArc
 50
180.001663
 51
180.258386
  0
ARC
  5
300
330
2B1
100
AcDbEntity
  8
0
  6
Continuous
 62
     0
370
     0
100
AcDbCircle
 10
1618.974373
 20
655.881327
 30
0.0
 40
1282.820940131691
100
AcDbArc
 50
179.741614
 51
179.998337
  0
LINE
  5
301
330
2B1
100
AcDbEntity
  8
0
  6
Continuous
 62
     0
370
     0
100
AcDbLine
 10
336.166477
 20
661.666433
 30
0.0
 11
336.176596
 21
663.628101
 31
0.0
  0
ARC
  5
302
330
2B1
100
AcDbEntity
  8
0
  6
Continuous
 62
     0
370
     0
100
AcDbCircle
 10
329.667742
 20
669.102529
 30
0.0
 40
8.50497223895918
100
AcDbArc
 50
270.509459
 51
319.933678
  0
LWPOLYLINE
  5
303
330
2B1
100
AcDbEntity
  8
0
  6
Continuous
 62
     0
370
     0
100
AcDbPolyline
 90
        7
 70
     0
 43
0.0
 10
336.176605
 20
663.628113
 10
336.441071
 20
664.498108
 10
336.679749
 20
665.369995
 10
336.879395
 20
666.244141
 10
337.03241
 20
667.121887
 10
337.133484
 20
668.004272
 10
337.179504
 20
669.024902
  0
LINE
  5
304
330
2B1
100
AcDbEntity
  8
0
  6
Continuous
 62
     0
370
     0
100
AcDbLine
 10
336.153433
 20
655.918564
 30
0.0
 11
337.144554
 21
655.918564
 31
0.0
  0
ARC
  5
305
330
2B1
100
AcDbEntity
  8
0
  6
Continuous
 62
     0
370
     0
100
AcDbCircle
 10
1603.532378
 20
655.898726
 30
0.0
 40
1266.387823859874
100
AcDbArc
 50
179.749973
 51
179.999102
  0
LINE
  5
306
330
2B1
100
AcDbEntity
  8
0
  6
Continuous
 62
     0
370
     0
100
AcDbLine
 10
337.156612
 20
661.424972
 30
0.0
 11
337.157598
 21
661.661971
 31
0.0
  0
LINE
  5
307
330
2B1
100
AcDbEntity
  8
0
  6
Continuous
 62
     0
370
     0
100
AcDbLine
 10
337.157598
 20
661.661971
 30
0.0
 11
336.166477
 21
661.666433
 31
0.0
  0
LINE
  5
308
330
2B1
100
AcDbEntity
  8
0
  6
Continuous
 62
     0
370
     0
100
AcDbLine
 10
337.157598
 20
661.661971
 30
0.0
 11
337.167717
 21
663.622266
 31
0.0
  0
LINE
  5
309
330
2B1
100
AcDbEntity
  8
0
  6
Continuous
 62
     0
370
     0
100
AcDbLine
 10
337.167717
 20
663.622266
 30
0.0
 11
336.176596
 21
663.628101
 31
0.0
  0
LWPOLYLINE
  5
30A
330
2B1
100
AcDbEntity
  8
0
  6
Continuous
 62
     0
370
     0
100
AcDbPolyline
 90
        5
 70
     0
 43
0.0
 10
337.167725
 20
663.622253
 10
337.173706
 20
665.028259
 10
337.176514
 20
666.375854
 10
337.177917
 20
667.663513
 10
337.179504
 20
669.024902
  0
LINE
  5
30B
330
2B1
100
AcDbEntity
  8
0
  6
Continuous
 62
     0
370
     0
100
AcDbLine
 10
336.166477
 20
650.170695
 30
0.0
 11
337.157598
 21
650.175157
 31
0.0
  0
LINE
  5
30C
330
2B1
100
AcDbEntity
  8
0
  6
Continuous
 62
     0
370
     0
100
AcDbLine
 10
337.157598
 20
650.175157
 30
0.0
 11
337.156612
 21
650.412155
 31
0.0
  0
ARC
  5
30D
330
2B1
100
AcDbEntity
  8
0
  6
Continuous
 62
     0
370
     0
100
AcDbCircle
 10
1603.532378
 20
655.938401
 30
0.0
 40
1266.38782384629
100
AcDbArc
 50
180.000898
 51
180.250027
  0
LINE
  5
30E
330
2B1
100
AcDbEntity
  8
0
  6
Continuous
 62
     0
370
     0
100
AcDbLine
 10
336.176596
 20
648.209027
 30
0.0
 11
337.167717
 21
648.214861
 31
0.0
  0
LINE
  5
30F
330
2B1
100
AcDbEntity
  8
0
  6
Continuous
 62
     0
370
     0
100
AcDbLine
 10
337.167717
 20
648.214861
 30
0.0
 11
337.157598
 21
650.175157
 31
0.0
  0
LWPOLYLINE
  5
310
330
2B1
100
AcDbEntity
  8
0
  6
Continuous
 62
     0
370
     0
100
AcDbPolyline
 90
        5
 70
     0
 43
0.0
 10
337.179504
 20
642.812195
 10
337.178009
 20
644.060425
 10
337.176666
 20
645.343628
 10
337.174072
 20
646.685303
 10
337.167725
 20
648.214844
  0
LINE
  5
311
330
2B1
100
AcDbEntity
  8
0
  6
Continuous
 62
     0
370
    30
100
AcDbLine
 10
336.993198
 20
642.872386
 30
0.0
 11
337.184398
 21
631.918564
 31
0.0
  0
LWPOLYLINE
  5
312
330
2B1
100
AcDbEntity
  8
0
  6
Continuous
 62
     0
370
    30
100
AcDbPolyline
 90
       29
 70
     0
 43
0.0
 10
337.184387
 20
631.918579
 10
337.184387
 20
631.949768
 10
337.184387
 20
632.045837
 10
337.184387
 20
632.210083
 10
337.184387
 20
632.445618
 10
337.184387
 20
632.754883
 10
337.184387
 20
633.139832
 10
337.184387
 20
633.601746
 10
337.184387
 20
634.141296
 10
337.184387
 20
634.758179
 10
337.184387
 20
635.451538
 10
337.184387
 20
636.219482
 10
337.184387
 20
637.059387
 10
337.184387
 20
637.967773
 10
337.184387
 20
638.94043
 10
337.184387
 20
639.972473
 10
337.184387
 20
641.058289
 10
337.184387
 20
642.191833
 10
337.184387
 20
643.366577
 10
337.184387
 20
644.575867
 10
337.184387
 20
645.812683
 10
337.184387
 20
647.070007
 10
337.184387
 20
648.341003
 10
337.184387
 20
649.618896
 10
337.184387
 20
650.897278
 10
337.184387
 20
652.169983
 10
337.184387
 20
653.431458
 10
337.184387
 20
654.676453
 10
337.184387
 20
655.918579
  0
LINE
  5
313
330
2B1
100
AcDbEntity
  8
0
  6
Continuous
 62
     0
370
    30
100
AcDbLine
 10
337.184397
 20
655.918564
 30
0.0
 11
337.184398
 21
679.918564
 31
0.0
  0
LINE
  5
314
330
2B1
100
AcDbEntity
  8
0
  6
Continuous
 62
     0
370
    30
100
AcDbLine
 10
337.184398
 20
679.918564
 30
0.0
 11
337.336762
 21
679.918564
 31
0.0
  0
LINE
  5
315
330
2B1
100
AcDbEntity
  8
0
  6
Continuous
 62
     0
370
    30
100
AcDbLine
 10
337.336762
 20
631.918564
 30
0.0
 11
337.184398
 21
631.918564
 31
0.0
  0
LINE
  5
316
330
2B1
100
AcDbEntity
  8
0
  6
Continuous
 62
     0
370
    30
100
AcDbLine
 10
337.184398
 20
679.918564
 30
0.0
 11
336.993198
 21
668.964748
 31
0.0
  0
ARC
  5
317
330
2B1
100
AcDbEntity
  8
0
  6
Continuous
 62
     0
370
    30
100
AcDbCircle
 10
329.677332
 20
669.099842
 30
0.0
 40
7.501943202092864
100
AcDbArc
 50
270.505475
 51
272.506076
  0
ARC
  5
318
330
2B1
100
AcDbEntity
  8
0
  6
Continuous
 62
     0
370
    30
100
AcDbCircle
 10
329.677332
 20
642.737285
 30
0.0
 40
7.501943357554316
100
AcDbArc
 50
87.493908
 51
89.494524
  0
LINE
  5
319
330
2B1
100
AcDbEntity
  8
0
  6
Continuous
 62
     0
370
    30
100
AcDbLine
 10
329.743155
 20
650.239606
 30
0.0
 11
322.338936
 21
650.304222
 31
0.0
  0
LINE
  5
31A
330
2B1
100
AcDbEntity
  8
0
  6
Continuous
 62
     0
370
    30
100
AcDbLine
 10
329.743155
 20
661.597522
 30
0.0
 11
322.338936
 21
661.532905
 31
0.0
  0
LINE
  5
31B
330
2B1
100
AcDbEntity
  8
0
  6
Continuous
 62
     0
370
    30
100
AcDbLine
 10
337.33676
 20
727.918564
 30
0.0
 11
337.33676
 21
783.918564
 31
0.0
  0
LINE
  5
31C
330
2B1
100
AcDbEntity
  8
0
  6
Continuous
 62
     0
370
    30
100
AcDbLine
 10
347.55676
 20
727.418564
 30
0.0
 11
337.83676
 21
727.418564
 31
0.0
  0
LINE
  5
31D
330
2B1
100
AcDbEntity
  8
0
  6
Continuous
 62
     0
370
     0
100
AcDbLine
 10
347.55676
 20
727.918564
 30
0.0
 11
337.83676
 21
727.918564
 31
0.0
  0
LINE
  5
31E
330
2B1
100
AcDbEntity
  8
0
  6
Continuous
 62
     0
370
     0
100
AcDbLine
 10
337.83676
 20
727.918564
 30
0.0
 11
337.83676
 21
727.418564
 31
0.0
  0
LINE
  5
31F
330
2B1
100
AcDbEntity
  8
0
  6
Continuous
 62
     0
370
    30
100
AcDbLine
 10
347.55676
 20
727.418564
 30
0.0
 11
347.55676
 21
727.918564
 31
0.0
  0
LINE
  5
320
330
2B1
100
AcDbEntity
  8
0
  6
Continuous
 62
     0
370
    30
100
AcDbLine
 10
347.55676
 20
727.918564
 30
0.0
 11
347.55676
 21
783.918564
 31
0.0
  0
LINE
  5
321
330
2B1
100
AcDbEntity
  8
0
  6
Continuous
 62
     0
370
     0
100
AcDbLine
 10
347.55676
 20
783.918564
 30
0.0
 11
337.83676
 21
783.918564
 31
0.0
  0
LINE
  5
322
330
2B1
100
AcDbEntity
  8
0
  6
Continuous
 62
     0
370
     0
100
AcDbLine
 10
337.83676
 20
783.918564
 30
0.0
 11
337.83676
 21
727.918564
 31
0.0
  0
LINE
  5
323
330
2B1
100
AcDbEntity
  8
0
  6
Continuous
 62
     0
370
    30
100
AcDbLine
 10
347.55676
 20
784.418564
 30
0.0
 11
337.83676
 21
784.418564
 31
0.0
  0
LINE
  5
324
330
2B1
100
AcDbEntity
  8
0
  6
Continuous
 62
     0
370
     0
100
AcDbLine
 10
337.83676
 20
784.418564
 30
0.0
 11
337.83676
 21
783.918564
 31
0.0
  0
LINE
  5
325
330
2B1
100
AcDbEntity
  8
0
  6
Continuous
 62
     0
370
    30
100
AcDbLine
 10
347.55676
 20
783.918564
 30
0.0
 11
347.55676
 21
784.418564
 31
0.0
  0
ARC
  5
326
330
2B1
100
AcDbEntity
  8
0
  6
Continuous
 62
     0
370
    30
100
AcDbCircle
 10
337.83676
 20
783.918564
 30
0.0
 40
0.4999999999790852
100
AcDbArc
 50
90.0
 51
180.0
  0
LWPOLYLINE
  5
327
330
2B1
100
AcDbEntity
  8
0
  6
Continuous
 62
     0
370
     0
100
AcDbPolyline
 90
        5
 70
     0
 43
0.0
 10
337.336761
 20
783.918579
 10
337.37439
 20
783.918579
 10
337.481628
 20
783.918579
 10
337.642303
 20
783.918579
 10
337.836761
 20
783.918579
  0
LWPOLYLINE
  5
328
330
2B1
100
AcDbEntity
  8
0
  6
Continuous
 62
     0
370
     0
100
AcDbPolyline
 90
        6
 70
     0
 43
0.0
 10
337.336761
 20
727.918579
 10
337.360809
 20
727.918579
 10
337.426514
 20
727.918579
 10
337.519836
 20
727.918579
 10
337.644104
 20
727.918579
 10
337.836761
 20
727.918579
  0
ARC
  5
329
330
2B1
100
AcDbEntity
  8
0
  6
Continuous
 62
     0
370
    30
100
AcDbCircle
 10
337.83676
 20
727.918564
 30
0.0
 40
0.5000000000079368
100
AcDbArc
 50
180.0
 51
270.0
  0
ARC
  5
32A
330
2B1
100
AcDbEntity
  8
0
  6
Continuous
 62
     0
370
    30
100
AcDbCircle
 10
329.494365
 20
742.741504
 30
0.0
 40
7.499975597600653
100
AcDbArc
 50
0.99992
 51
88.788577
  0
ARC
  5
32B
330
2B1
100
AcDbEntity
  8
0
  6
Continuous
 62
     0
370
     0
100
AcDbCircle
 10
337.24992
 20
743.35296
 30
0.0
 40
0.5448863597304356
100
AcDbArc
 50
242.09311
 51
261.623501
  0
LINE
  5
32C
330
2B1
100
AcDbEntity
  8
0
  6
Continuous
 62
     0
370
     0
100
AcDbLine
 10
337.170542
 20
742.813887
 30
0.0
 11
337.179495
 21
742.812196
 31
0.0
  0
ARC
  5
32D
330
2B1
100
AcDbEntity
  8
0
  6
Continuous
 62
     0
370
     0
100
AcDbCircle
 10
329.677799
 20
742.737027
 30
0.0
 40
7.502072584505238
100
AcDbArc
 50
0.574105
 51
89.497486
  0
ARC
  5
32E
330
2B1
100
AcDbEntity
  8
0
  6
Continuous
 62
     0
370
     0
100
AcDbCircle
 10
329.677799
 20
769.100101
 30
0.0
 40
7.502072687836236
100
AcDbArc
 50
270.502514
 51
359.425895
  0
LINE
  5
32F
330
2B1
100
AcDbEntity
  8
0
  6
Continuous
 62
     0
370
     0
100
AcDbLine
 10
337.179495
 20
769.024931
 30
0.0
 11
337.170542
 21
769.023241
 31
0.0
  0
ARC
  5
330
330
2B1
100
AcDbEntity
  8
0
  6
Continuous
 62
     0
370
     0
100
AcDbCircle
 10
337.24992
 20
768.484167
 30
0.0
 40
0.5448863422294061
100
AcDbArc
 50
98.376499
 51
117.90689
  0
ARC
  5
331
330
2B1
100
AcDbEntity
  8
0
  6
Continuous
 62
     0
370
    30
100
AcDbCircle
 10
329.494365
 20
769.095624
 30
0.0
 40
7.49997563228613
100
AcDbArc
 50
271.210815
 51
359.00008
  0
LINE
  5
332
330
2B1
100
AcDbEntity
  8
0
  6
Continuous
 62
     0
370
    30
100
AcDbLine
 10
322.338936
 20
761.532905
 30
0.0
 11
310.228036
 21
761.427215
 31
0.0
  0
LWPOLYLINE
  5
333
330
2B1
100
AcDbEntity
  8
0
  6
Continuous
 62
     0
370
     0
100
AcDbPolyline
 90
        7
 70
     0
 43
0.0
 10
310.228027
 20
761.427185
 10
310.226105
 20
761.394165
 10
310.224854
 20
761.297241
 10
310.224426
 20
761.143005
 10
310.224792
 20
760.941528
 10
310.225952
 20
760.705688
 10
310.228027
 20
760.427246
  0
LINE
  5
334
330
2B1
100
AcDbEntity
  8
0
  6
Continuous
 62
     0
370
     0
100
AcDbLine
 10
310.228036
 20
760.427253
 30
0.0
 11
329.743365
 21
760.597893
 31
0.0
  0
LWPOLYLINE
  5
335
330
2B1
100
AcDbEntity
  8
0
  6
Continuous
 62
     0
370
     0
100
AcDbPolyline
 90
        7
 70
     0
 43
0.0
 10
329.743378
 20
760.5979
 10
329.741364
 20
760.8526
 10
329.740082
 20
761.091187
 10
329.739594
 20
761.29657
 10
329.739929
 20
761.455811
 10
329.741089
 20
761.558289
 10
329.743164
 20
761.597534
  0
ARC
  5
336
330
2B1
100
AcDbEntity
  8
0
  6
Continuous
 62
     0
370
    30
100
AcDbCircle
 10
310.236762
 20
760.427253
 30
0.0
 40
1.000000000831497
100
AcDbArc
 50
90.5
 51
180.0
  0
LWPOLYLINE
  5
337
330
2B1
100
AcDbEntity
  8
0
  6
Continuous
 62
     0
370
     0
100
AcDbPolyline
 90
        7
 70
     0
 43
0.0
 10
309.236755
 20
760.427246
 10
309.269379
 20
760.427246
 10
309.36499
 20
760.427246
 10
309.517303
 20
760.427246
 10
309.716492
 20
760.427246
 10
309.949921
 20
760.427246
 10
310.228027
 20
760.427246
  0
LINE
  5
338
330
2B1
100
AcDbEntity
  8
0
  6
Continuous
 62
     0
370
    30
100
AcDbLine
 10
309.236762
 20
760.427253
 30
0.0
 11
309.236762
 21
751.409875
 31
0.0
  0
LWPOLYLINE
  5
339
330
2B1
100
AcDbEntity
  8
0
  6
Continuous
 62
     0
370
     0
100
AcDbPolyline
 90
        7
 70
     0
 43
0.0
 10
309.236755
 20
751.409851
 10
309.273315
 20
751.409851
 10
309.375275
 20
751.409851
 10
309.523407
 20
751.409851
 10
309.713165
 20
751.409851
 10
309.950592
 20
751.409851
 10
310.228027
 20
751.409851
  0
LINE
  5
33A
330
2B1
100
AcDbEntity
  8
0
  6
Continuous
 62
     0
370
     0
100
AcDbLine
 10
310.228036
 20
751.409875
 30
0.0
 11
310.228036
 21
760.427253
 31
0.0
  0
ARC
  5
33B
330
2B1
100
AcDbEntity
  8
0
  6
Continuous
 62
     0
370
    30
100
AcDbCircle
 10
310.236762
 20
751.409875
 30
0.0
 40
1.000000000828394
100
AcDbArc
 50
180.0
 51
269.5
  0
LWPOLYLINE
  5
33C
330
2B1
100
AcDbEntity
  8
0
  6
Continuous
 62
     0
370
     0
100
AcDbPolyline
 90
        7
 70
     0
 43
0.0
 10
310.228027
 20
750.409912
 10
310.226105
 20
750.442993
 10
310.224854
 20
750.539856
 10
310.224426
 20
750.694153
 10
310.224792
 20
750.89563
 10
310.225952
 20
751.131409
 10
310.228027
 20
751.409851
  0
LINE
  5
33D
330
2B1
100
AcDbEntity
  8
0
  6
Continuous
 62
     0
370
    30
100
AcDbLine
 10
310.228036
 20
750.409913
 30
0.0
 11
322.338936
 21
750.304223
 31
0.0
  0
LWPOLYLINE
  5
33E
330
2B1
100
AcDbEntity
  8
0
  6
Continuous
 62
     0
370
     0
100
AcDbPolyline
 90
        7
 70
     0
 43
0.0
 10
329.743164
 20
750.239624
 10
329.741241
 20
750.272339
 10
329.740021
 20
750.369019
 10
329.739594
 20
750.523254
 10
329.740021
 20
750.724792
 10
329.741211
 20
750.960815
 10
329.743378
 20
751.239258
  0
LINE
  5
33F
330
2B1
100
AcDbEntity
  8
0
  6
Continuous
 62
     0
370
     0
100
AcDbLine
 10
329.743365
 20
751.239234
 30
0.0
 11
310.228036
 21
751.409875
 31
0.0
  0
LWPOLYLINE
  5
340
330
2B1
100
AcDbEntity
  8
0
  6
Continuous
 62
     0
370
     0
100
AcDbPolyline
 90
        7
 70
     0
 43
0.0
 10
337.179504
 20
742.812195
 10
337.144043
 20
743.697388
 10
337.051392
 20
744.580383
 10
336.906006
 20
745.458862
 10
336.713135
 20
746.333435
 10
336.479645
 20
747.205566
 10
336.176605
 20
748.209045
  0
ARC
  5
341
330
2B1
100
AcDbEntity
  8
0
  6
Continuous
 62
     0
370
     0
100
AcDbCircle
 10
329.663904
 20
742.726446
 30
0.0
 40
8.513159052807277
100
AcDbArc
 50
40.091684
 51
89.465202
  0
LINE
  5
342
330
2B1
100
AcDbEntity
  8
0
  6
Continuous
 62
     0
370
     0
100
AcDbLine
 10
336.176596
 20
748.209028
 30
0.0
 11
336.166477
 21
750.170695
 31
0.0
  0
ARC
  5
343
330
2B1
100
AcDbEntity
  8
0
  6
Continuous
 62
     0
370
     0
100
AcDbCircle
 10
1618.974373
 20
755.955801
 30
0.0
 40
1282.820940123083
100
AcDbArc
 50
180.001663
 51
180.258386
  0
ARC
  5
344
330
2B1
100
AcDbEntity
  8
0
  6
Continuous
 62
     0
370
     0
100
AcDbCircle
 10
1618.974373
 20
755.881327
 30
0.0
 40
1282.820940132338
100
AcDbArc
 50
179.741614
 51
179.998337
  0
LINE
  5
345
330
2B1
100
AcDbEntity
  8
0
  6
Continuous
 62
     0
370
     0
100
AcDbLine
 10
336.166477
 20
761.666433
 30
0.0
 11
336.176596
 21
763.628101
 31
0.0
  0
ARC
  5
346
330
2B1
100
AcDbEntity
  8
0
  6
Continuous
 62
     0
370
     0
100
AcDbCircle
 10
329.667742
 20
769.102529
 30
0.0
 40
8.504972238964617
100
AcDbArc
 50
270.509459
 51
319.933678
  0
LWPOLYLINE
  5
347
330
2B1
100
AcDbEntity
  8
0
  6
Continuous
 62
     0
370
     0
100
AcDbPolyline
 90
        7
 70
     0
 43
0.0
 10
336.176605
 20
763.628113
 10
336.441071
 20
764.498108
 10
336.679749
 20
765.369995
 10
336.879395
 20
766.244141
 10
337.03241
 20
767.121887
 10
337.133484
 20
768.004272
 10
337.179504
 20
769.024902
  0
LINE
  5
348
330
2B1
100
AcDbEntity
  8
0
  6
Continuous
 62
     0
370
     0
100
AcDbLine
 10
336.153433
 20
755.918564
 30
0.0
 11
337.144554
 21
755.918564
 31
0.0
  0
ARC
  5
349
330
2B1
100
AcDbEntity
  8
0
  6
Continuous
 62
     0
370
     0
100
AcDbCircle
 10
1603.532378
 20
755.898726
 30
0.0
 40
1266.38782385895
100
AcDbArc
 50
179.749973
 51
179.999102
  0
LINE
  5
34A
330
2B1
100
AcDbEntity
  8
0
  6
Continuous
 62
     0
370
     0
100
AcDbLine
 10
337.156612
 20
761.424972
 30
0.0
 11
337.157598
 21
761.661971
 31
0.0
  0
LINE
  5
34B
330
2B1
100
AcDbEntity
  8
0
  6
Continuous
 62
     0
370
     0
100
AcDbLine
 10
337.157598
 20
761.661971
 30
0.0
 11
336.166477
 21
761.666433
 31
0.0
  0
LINE
  5
34C
330
2B1
100
AcDbEntity
  8
0
  6
Continuous
 62
     0
370
     0
100
AcDbLine
 10
337.157598
 20
761.661971
 30
0.0
 11
337.167717
 21
763.622266
 31
0.0
  0
LINE
  5
34D
330
2B1
100
AcDbEntity
  8
0
  6
Continuous
 62
     0
370
     0
100
AcDbLine
 10
337.167717
 20
763.622266
 30
0.0
 11
336.176596
 21
763.628101
 31
0.0
  0
LWPOLYLINE
  5
34E
330
2B1
100
AcDbEntity
  8
0
  6
Continuous
 62
     0
370
     0
100
AcDbPolyline
 90
        5
 70
     0
 43
0.0
 10
337.167725
 20
763.622253
 10
337.173706
 20
765.028259
 10
337.176514
 20
766.375854
 10
337.177917
 20
767.663513
 10
337.179504
 20
769.024902
  0
LINE
  5
34F
330
2B1
100
AcDbEntity
  8
0
  6
Continuous
 62
     0
370
     0
100
AcDbLine
 10
336.166477
 20
750.170695
 30
0.0
 11
337.157598
 21
750.175157
 31
0.0
  0
LINE
  5
350
330
2B1
100
AcDbEntity
  8
0
  6
Continuous
 62
     0
370
     0
100
AcDbLine
 10
337.157598
 20
750.175157
 30
0.0
 11
337.156612
 21
750.412155
 31
0.0
  0
ARC
  5
351
330
2B1
100
AcDbEntity
  8
0
  6
Continuous
 62
     0
370
     0
100
AcDbCircle
 10
1603.532378
 20
755.938401
 30
0.0
 40
1266.38782384514
100
AcDbArc
 50
180.000898
 51
180.250027
  0
LINE
  5
352
330
2B1
100
AcDbEntity
  8
0
  6
Continuous
 62
     0
370
     0
100
AcDbLine
 10
336.176596
 20
748.209027
 30
0.0
 11
337.167717
 21
748.214861
 31
0.0
  0
LINE
  5
353
330
2B1
100
AcDbEntity
  8
0
  6
Continuous
 62
     0
370
     0
100
AcDbLine
 10
337.167717
 20
748.214861
 30
0.0
 11
337.157598
 21
750.175157
 31
0.0
  0
LWPOLYLINE
  5
354
330
2B1
100
AcDbEntity
  8
0
  6
Continuous
 62
     0
370
     0
100
AcDbPolyline
 90
        5
 70
     0
 43
0.0
 10
337.179504
 20
742.812195
 10
337.178009
 20
744.060425
 10
337.176666
 20
745.343628
 10
337.174072
 20
746.685303
 10
337.167725
 20
748.214844
  0
LINE
  5
355
330
2B1
100
AcDbEntity
  8
0
  6
Continuous
 62
     0
370
    30
100
AcDbLine
 10
336.993198
 20
742.872386
 30
0.0
 11
337.184398
 21
731.918564
 31
0.0
  0
LWPOLYLINE
  5
356
330
2B1
100
AcDbEntity
  8
0
  6
Continuous
 62
     0
370
    30
100
AcDbPolyline
 90
       29
 70
     0
 43
0.0
 10
337.184387
 20
731.918579
 10
337.184387
 20
731.949768
 10
337.184387
 20
732.045837
 10
337.184387
 20
732.210083
 10
337.184387
 20
732.445618
 10
337.184387
 20
732.754883
 10
337.184387
 20
733.139832
 10
337.184387
 20
733.601746
 10
337.184387
 20
734.141296
 10
337.184387
 20
734.758179
 10
337.184387
 20
735.451538
 10
337.184387
 20
736.219482
 10
337.184387
 20
737.059387
 10
337.184387
 20
737.967773
 10
337.184387
 20
738.94043
 10
337.184387
 20
739.972473
 10
337.184387
 20
741.058289
 10
337.184387
 20
742.191833
 10
337.184387
 20
743.366577
 10
337.184387
 20
744.575867
 10
337.184387
 20
745.812683
 10
337.184387
 20
747.070007
 10
337.184387
 20
748.341003
 10
337.184387
 20
749.618896
 10
337.184387
 20
750.897278
 10
337.184387
 20
752.169983
 10
337.184387
 20
753.431458
 10
337.184387
 20
754.676453
 10
337.184387
 20
755.918579
  0
LINE
  5
357
330
2B1
100
AcDbEntity
  8
0
  6
Continuous
 62
     0
370
    30
100
AcDbLine
 10
337.184397
 20
755.918564
 30
0.0
 11
337.184398
 21
779.918564
 31
0.0
  0
LINE
  5
358
330
2B1
100
AcDbEntity
  8
0
  6
Continuous
 62
     0
370
    30
100
AcDbLine
 10
337.184398
 20
779.918564
 30
0.0
 11
337.336762
 21
779.918564
 31
0.0
  0
LINE
  5
359
330
2B1
100
AcDbEntity
  8
0
  6
Continuous
 62
     0
370
    30
100
AcDbLine
 10
337.336762
 20
731.918564
 30
0.0
 11
337.184398
 21
731.918564
 31
0.0
  0
LINE
  5
35A
330
2B1
100
AcDbEntity
  8
0
  6
Continuous
 62
     0
370
    30
100
AcDbLine
 10
337.184398
 20
779.918564
 30
0.0
 11
336.993198
 21
768.964748
 31
0.0
  0
ARC
  5
35B
330
2B1
100
AcDbEntity
  8
0
  6
Continuous
 62
     0
370
    30
100
AcDbCircle
 10
329.677332
 20
769.099842
 30
0.0
 40
7.50194319989817
100
AcDbArc
 50
270.505475
 51
272.506076
  0
ARC
  5
35C
330
2B1
100
AcDbEntity
  8
0
  6
Continuous
 62
     0
370
    30
100
AcDbCircle
 10
329.677332
 20
742.737285
 30
0.0
 40
7.501943356056915
100
AcDbArc
 50
87.493908
 51
89.494524
  0
LINE
  5
35D
330
2B1
100
AcDbEntity
  8
0
  6
Continuous
 62
     0
370
    30
100
AcDbLine
 10
329.743155
 20
750.239606
 30
0.0
 11
322.338936
 21
750.304222
 31
0.0
  0
LINE
  5
35E
330
2B1
100
AcDbEntity
  8
0
  6
Continuous
 62
     0
370
    30
100
AcDbLine
 10
329.743155
 20
761.597522
 30
0.0
 11
322.338936
 21
761.532905
 31
0.0
  0
ENDBLK
  5
360
330
2B1
100
AcDbEntity
  8
0
100
AcDbBlockEnd
  0
ENDSEC
  0
SECTION
  2
ENTITIES
  0
INSERT
  5
1A2
330
1F
100
AcDbEntity
  8
0
  6
Continuous
 62
     7
420
 16250871
370
     0
100
AcDbBlockReference
  2
a
 10
438.321442
 20
115.714348
 30
0.0
  0
INSERT
  5
201
330
1F
100
AcDbEntity
  8
0
  6
Continuous
 62
     7
420
 16250871
370
     0
100
AcDbBlockReference
  2
b
 10
438.321442
 20
307.137825
 30
0.0
  0
INSERT
  5
2B0
330
1F
100
AcDbEntity
  8
0
  6
Continuous
 62
     7
420
 16250871
370
     0
100
AcDbBlockReference
  2
c
 10
473.589386
 20
115.714348
 30
0.0
  0
INSERT
  5
361
330
1F
100
AcDbEntity
  8
0
  6
Continuous
 62
     7
420
 16250871
370
     0
100
AcDbBlockReference
  2
d
 10
392.492798
 20
0.0
 30
0.0
  0
ENDSEC
  0
SECTION
  2
OBJECTS
  0
DICTIONARY
  5
C
330
0
100
AcDbDictionary
281
     1
  3
ACAD_DETAILVIEWSTYLE
350
399
  3
ACAD_GROUP
350
D
  3
ACAD_LAYOUT
350
1A
  3
ACAD_MATERIAL
350
43
  3
ACAD_MLEADERSTYLE
350
6B
  3
ACAD_MLINESTYLE
350
17
  3
ACAD_PLOTSETTINGS
350
19
  3
ACAD_PLOTSTYLENAME
350
E
  3
ACAD_SCALELIST
350
47
  3
ACAD_SECTIONVIEWSTYLE
350
39A
  3
ACAD_TABLESTYLE
350
69
  3
ACAD_VISUALSTYLE
350
2A
  3
ACDB_RECOMPOSE_DATA
350
396
  3
AcDbVariableDictionary
350
362
  0
SUN
  5
6D
330
29
100
AcDbSun
 90
        1
290
     0
 63
     7
421
 16777215
 40
1.0
291
     1
 91
  2455826
 92
 54000000
292
     0
 70
     2
 71
   256
280
     1
  0
DICTIONARY
  5
399
102
{ACAD_REACTORS
330
C
102
}
330
C
100
AcDbDictionary
281
     1
  0
DICTIONARY
  5
D
102
{ACAD_REACTORS
330
C
102
}
330
C
100
AcDbDictionary
281
     1
  0
DICTIONARY
  5
1A
102
{ACAD_REACTORS
330
C
102
}
330
C
100
AcDbDictionary
281
     1
  3
Layout1
350
1E
  3
Layout2
350
26
  3
Model
350
22
  0
DICTIONARY
  5
43
102
{ACAD_REACTORS
330
C
102
}
330
C
100
AcDbDictionary
281
     1
  3
ByBlock
350
45
  3
ByLayer
350
44
  3
Global
350
46
  0
DICTIONARY
  5
6B
102
{ACAD_REACTORS
330
C
102
}
330
C
100
AcDbDictionary
281
     1
  3
Standard
350
6C
  0
DICTIONARY
  5
17
102
{ACAD_REACTORS
330
C
102
}
330
C
100
AcDbDictionary
281
     1
  3
Standard
350
18
  0
DICTIONARY
  5
19
102
{ACAD_REACTORS
330
C
102
}
330
C
100
AcDbDictionary
281
     1
  0
ACDBDICTIONARYWDFLT
  5
E
102
{ACAD_REACTORS
330
C
102
}
330
C
100
AcDbDictionary
281
     1
  3
Normal
350
F
100
AcDbDictionaryWithDefault
340
F
  0
DICTIONARY
  5
47
102
{ACAD_REACTORS
330
C
102
}
330
C
100
AcDbDictionary
281
     1
  3
A0
350
48
  3
A1
350
49
  3
A2
350
4A
  3
A3
350
4B
  3
A4
350
4C
  3
A5
350
4D
  3
A6
350
4E
  3
A7
350
4F
  3
A8
350
50
  3
A9
350
51
  3
B0
350
52
  3
B1
350
53
  3
B2
350
54
  3
B3
350
55
  3
B4
350
56
  3
B5
350
57
  3
B6
350
58
  3
B7
350
59
  3
B8
350
5A
  3
B9
350
5B
  3
C0
350
5C
  3
C1
350
5D
  3
C2
350
5E
  3
C3
350
5F
  3
C4
350
60
  3
C5
350
61
  3
C6
350
62
  3
C7
350
63
  3
C8
350
64
  3
C9
350
65
  3
D0
350
66
  3
D1
350
67
  3
D2
350
68
  0
DICTIONARY
  5
39A
102
{ACAD_REACTORS
330
C
102
}
330
C
100
AcDbDictionary
281
     1
  0
DICTIONARY
  5
69
102
{ACAD_REACTORS
330
C
102
}
330
C
100
AcDbDictionary
281
     1
  3
Standard
350
6A
  0
DICTIONARY
  5
2A
102
{ACAD_REACTORS
330
C
102
}
330
C
100
AcDbDictionary
281
     1
  3
2dWireframe
350
2F
  3
Basic
350
32
  3
Brighten
350
36
  3
ColorChange
350
3A
  3
Conceptual
350
34
  3
Dim
350
35
  3
EdgeColorOff
350
3D
  3
Facepattern
350
39
  3
Flat
350
2B
  3
FlatWithEdges
350
2C
  3
Gouraud
350
2D
  3
GouraudWithEdges
350
2E
  3
Hidden
350
31
  3
JitterOff
350
3B
  3
Linepattern
350
38
  3
OverhangOff
350
3C
  3
Realistic
350
33
  3
Shaded
350
42
  3
Shaded with edges
350
41
  3
Shades of Gray
350
3E
  3
Sketchy
350
3F
  3
Thicken
350
37
  3
Wireframe
350
30
  3
X-Ray
350
40
  0
XRECORD
  5
396
102
{ACAD_REACTORS
330
C
102
}
330
C
100
AcDbXrecord
280
     1
 90
        1
330
6A
  0
DICTIONARY
  5
362
102
{ACAD_REACTORS
330
C
102
}
330
C
100
AcDbDictionary
281
     1
  3
CANNOSCALE
350
363
  3
CMLEADERSTYLE
350
398
  3
CTABLESTYLE
350
397
  0
LAYOUT
  5
1E
102
{ACAD_REACTORS
330
1A
102
}
330
1A
100
AcDbPlotSettings
  1

  2
none_device
  4

  6

 40
0.0
 41
0.0
 42
0.0
 43
0.0
 44
0.0
 45
0.0
 46
0.0
 47
0.0
 48
0.0
 49
0.0
140
0.0
141
0.0
142
1.0
143
1.0
 70
   688
 72
     1
 73
     0
 74
     5
  7

 75
    16
 76
     0
 77
     2
 78
   300
147
1.0
148
0.0
149
0.0
100
AcDbLayout
  1
Layout1
 70
     1
 71
     1
 10
0.0
 20
0.0
 11
420.0
 21
297.0
 12
0.0
 22
0.0
 32
0.0
 14
1.000000E+20
 24
1.000000E+20
 34
1.000000E+20
 15
-1.000000E+20
 25
-1.000000E+20
 35
-1.000000E+20
146
0.0
 13
0.0
 23
0.0
 33
0.0
 16
1.0
 26
0.0
 36
0.0
 17
0.0
 27
1.0
 37
0.0
 76
     0
330
1B
  0
LAYOUT
  5
26
102
{ACAD_REACTORS
330
1A
102
}
330
1A
100
AcDbPlotSettings
  1

  2
none_device
  4

  6

 40
0.0
 41
0.0
 42
0.0
 43
0.0
 44
0.0
 45
0.0
 46
0.0
 47
0.0
 48
0.0
 49
0.0
140
0.0
141
0.0
142
1.0
143
1.0
 70
   688
 72
     1
 73
     0
 74
     5
  7

 75
    16
 76
     0
 77
     2
 78
   300
147
1.0
148
0.0
149
0.0
100
AcDbLayout
  1
Layout2
 70
     1
 71
     2
 10
0.0
 20
0.0
 11
0.0
 21
0.0
 12
0.0
 22
0.0
 32
0.0
 14
0.0
 24
0.0
 34
0.0
 15
0.0
 25
0.0
 35
0.0
146
0.0
 13
0.0
 23
0.0
 33
0.0
 16
1.0
 26
0.0
 36
0.0
 17
0.0
 27
1.0
 37
0.0
 76
     0
330
23
  0
LAYOUT
  5
22
102
{ACAD_REACTORS
330
1A
102
}
330
1A
100
AcDbPlotSettings
  1

  2
none_device
  4
Letter_(8.50_x_11.00_Inches)
  6

 40
6.35
 41
6.35
 42
6.350005
 43
6.350005
 44
215.9
 45
279.4
 46
0.0
 47
0.0
 48
0.0
 49
0.0
140
0.0
141
0.0
142
1.0
143
1.0
 70
  1712
 72
     1
 73
     0
 74
     0
  7

 75
     0
 76
     0
 77
     2
 78
   300
147
1.0
148
0.0
149
0.0
100
AcDbLayout
  1
Model
 70
     1
 71
     0
 10
0.0
 20
0.0
 11
420.0
 21
297.0
 12
0.0
 22
0.0
 32
0.0
 14
1.000000E+20
 24
1.000000E+20
 34
1.000000E+20
 15
-1.000000E+20
 25
-1.000000E+20
 35
-1.000000E+20
146
0.0
 13
0.0
 23
0.0
 33
0.0
 16
1.0
 26
0.0
 36
0.0
 17
0.0
 27
1.0
 37
0.0
 76
     0
330
1F
331
29
  0
MATERIAL
  5
45
102
{ACAD_REACTORS
330
43
102
}
330
43
100
AcDbMaterial
  1
ByBlock
 72
     1
 94
      127
  0
MATERIAL
  5
44
102
{ACAD_REACTORS
330
43
102
}
330
43
100
AcDbMaterial
  1
ByLayer
 72
     1
 94
      127
  0
MATERIAL
  5
46
102
{ACAD_REACTORS
330
43
102
}
330
43
100
AcDbMaterial
  1
Global
 72
     1
 94
      127
  0
MLEADERSTYLE
  5
6C
102
{ACAD_REACTORS
330
6B
102
}
330
6B
100
AcDbMLeaderStyle
179
     2
170
     2
171
     1
172
     0
 90
        2
 40
0.0
 41
0.0
173
     1
 91
-1056964608
340
14
 92
       -2
290
     1
 42
2.0
291
     1
 43
8.0
  3
Standard
341
0
 44
4.0
300

342
11
174
     1
178
     6
175
     1
176
     0
 93
-1056964608
 45
4.0
292
     0
297
     0
 46
4.0
343
0
 94
-1056964608
 47
1.0
 49
1.0
140
1.0
293
     1
141
0.0
294
     1
177
     0
142
1.0
295
     0
296
     0
143
3.75
271
     0
272
     9
273
     9
  0
MLINESTYLE
  5
18
102
{ACAD_REACTORS
330
17
102
}
330
17
100
AcDbMlineStyle
  2
Standard
 70
     0
  3

 62
   256
 51
90.0
 52
90.0
 71
     2
 49
0.5
 62
   256
  6
BYLAYER
 49
-0.5
 62
   256
  6
BYLAYER
  0
ACDBPLACEHOLDER
  5
F
102
{ACAD_REACTORS
330
E
102
}
330
E
  0
SCALE
  5
48
102
{ACAD_REACTORS
330
47
102
}
330
47
100
AcDbScale
 70
     0
300
1:1
140
1.0
141
1.0
290
     1
  0
SCALE
  5
49
102
{ACAD_REACTORS
330
47
102
}
330
47
100
AcDbScale
 70
     0
300
1:2
140
1.0
141
2.0
290
     0
  0
SCALE
  5
4A
102
{ACAD_REACTORS
330
47
102
}
330
47
100
AcDbScale
 70
     0
300
1:4
140
1.0
141
4.0
290
     0
  0
SCALE
  5
4B
102
{ACAD_REACTORS
330
47
102
}
330
47
100
AcDbScale
 70
     0
300
1:5
140
1.0
141
5.0
290
     0
  0
SCALE
  5
4C
102
{ACAD_REACTORS
330
47
102
}
330
47
100
AcDbScale
 70
     0
300
1:8
140
1.0
141
8.0
290
     0
  0
SCALE
  5
4D
102
{ACAD_REACTORS
330
47
102
}
330
47
100
AcDbScale
 70
     0
300
1:10
140
1.0
141
10.0
290
     0
  0
SCALE
  5
4E
102
{ACAD_REACTORS
330
47
102
}
330
47
100
AcDbScale
 70
     0
300
1:16
140
1.0
141
16.0
290
     0
  0
SCALE
  5
4F
102
{ACAD_REACTORS
330
47
102
}
330
47
100
AcDbScale
 70
     0
300
1:20
140
1.0
141
20.0
290
     0
  0
SCALE
  5
50
102
{ACAD_REACTORS
330
47
102
}
330
47
100
AcDbScale
 70
     0
300
1:30
140
1.0
141
30.0
290
     0
  0
SCALE
  5
51
102
{ACAD_REACTORS
330
47
102
}
330
47
100
AcDbScale
 70
     0
300
1:40
140
1.0
141
40.0
290
     0
  0
SCALE
  5
52
102
{ACAD_REACTORS
330
47
102
}
330
47
100
AcDbScale
 70
     0
300
1:50
140
1.0
141
50.0
290
     0
  0
SCALE
  5
53
102
{ACAD_REACTORS
330
47
102
}
330
47
100
AcDbScale
 70
     0
300
1:100
140
1.0
141
100.0
290
     0
  0
SCALE
  5
54
102
{ACAD_REACTORS
330
47
102
}
330
47
100
AcDbScale
 70
     0
300
2:1
140
2.0
141
1.0
290
     0
  0
SCALE
  5
55
102
{ACAD_REACTORS
330
47
102
}
330
47
100
AcDbScale
 70
     0
300
4:1
140
4.0
141
1.0
290
     0
  0
SCALE
  5
56
102
{ACAD_REACTORS
330
47
102
}
330
47
100
AcDbScale
 70
     0
300
8:1
140
8.0
141
1.0
290
     0
  0
SCALE
  5
57
102
{ACAD_REACTORS
330
47
102
}
330
47
100
AcDbScale
 70
     0
300
10:1
140
10.0
141
1.0
290
     0
  0
SCALE
  5
58
102
{ACAD_REACTORS
330
47
102
}
330
47
100
AcDbScale
 70
     0
300
100:1
140
100.0
141
1.0
290
     0
  0
SCALE
  5
59
102
{ACAD_REACTORS
330
47
102
}
330
47
100
AcDbScale
 70
     0
300
1/128" = 1'-0"
140
0.007812
141
12.0
290
     0
  0
SCALE
  5
5A
102
{ACAD_REACTORS
330
47
102
}
330
47
100
AcDbScale
 70
     0
300
1/64" = 1'-0"
140
0.015625
141
12.0
290
     0
  0
SCALE
  5
5B
102
{ACAD_REACTORS
330
47
102
}
330
47
100
AcDbScale
 70
     0
300
1/32" = 1'-0"
140
0.03125
141
12.0
290
     0
  0
SCALE
  5
5C
102
{ACAD_REACTORS
330
47
102
}
330
47
100
AcDbScale
 70
     0
300
1/16" = 1'-0"
140
0.0625
141
12.0
290
     0
  0
SCALE
  5
5D
102
{ACAD_REACTORS
330
47
102
}
330
47
100
AcDbScale
 70
     0
300
3/32" = 1'-0"
140
0.09375
141
12.0
290
     0
  0
SCALE
  5
5E
102
{ACAD_REACTORS
330
47
102
}
330
47
100
AcDbScale
 70
     0
300
1/8" = 1'-0"
140
0.125
141
12.0
290
     0
  0
SCALE
  5
5F
102
{ACAD_REACTORS
330
47
102
}
330
47
100
AcDbScale
 70
     0
300
3/16" = 1'-0"
140
0.1875
141
12.0
290
     0
  0
SCALE
  5
60
102
{ACAD_REACTORS
330
47
102
}
330
47
100
AcDbScale
 70
     0
300
1/4" = 1'-0"
140
0.25
141
12.0
290
     0
  0
SCALE
  5
61
102
{ACAD_REACTORS
330
47
102
}
330
47
100
AcDbScale
 70
     0
300
3/8" = 1'-0"
140
0.375
141
12.0
290
     0
  0
SCALE
  5
62
102
{ACAD_REACTORS
330
47
102
}
330
47
100
AcDbScale
 70
     0
300
1/2" = 1'-0"
140
0.5
141
12.0
290
     0
  0
SCALE
  5
63
102
{ACAD_REACTORS
330
47
102
}
330
47
100
AcDbScale
 70
     0
300
3/4" = 1'-0"
140
0.75
141
12.0
290
     0
  0
SCALE
  5
64
102
{ACAD_REACTORS
330
47
102
}
330
47
100
AcDbScale
 70
     0
300
1" = 1'-0"
140
1.0
141
12.0
290
     0
  0
SCALE
  5
65
102
{ACAD_REACTORS
330
47
102
}
330
47
100
AcDbScale
 70
     0
300
1-1/2" = 1'-0"
140
1.5
141
12.0
290
     0
  0
SCALE
  5
66
102
{ACAD_REACTORS
330
47
102
}
330
47
100
AcDbScale
 70
     0
300
3" = 1'-0"
140
3.0
141
12.0
290
     0
  0
SCALE
  5
67
102
{ACAD_REACTORS
330
47
102
}
330
47
100
AcDbScale
 70
     0
300
6" = 1'-0"
140
6.0
141
12.0
290
     0
  0
SCALE
  5
68
102
{ACAD_REACTORS
330
47
102
}
330
47
100
AcDbScale
 70
     0
300
1'-0" = 1'-0"
140
12.0
141
12.0
290
     0
  0
TABLESTYLE
  5
6A
102
{ACAD_REACTORS
330
69
102
}
102
{ACAD_XDICTIONARY
360
394
102
}
330
69
100
AcDbTableStyle
  3
Standard
 70
     0
 71
     0
 40
0.06
 41
0.06
280
     0
281
     0
  7
Standard
140
4.5
170
     2
 62
     0
 63
   257
283
     0
 90
        4
 91
        0
  1

274
    -2
284
     1
 64
     0
275
    -2
285
     1
 65
     0
276
    -2
286
     1
 66
     0
277
    -2
287
     1
 67
     0
278
    -2
288
     1
 68
     0
279
    -2
289
     1
 69
     0
  7
Standard
140
6.0
170
     5
 62
     0
 63
   257
283
     0
 90
        4
 91
        0
  1

274
    -2
284
     1
 64
     0
275
    -2
285
     1
 65
     0
276
    -2
286
     1
 66
     0
277
    -2
287
     1
 67
     0
278
    -2
288
     1
 68
     0
279
    -2
289
     1
 69
     0
  7
Standard
140
4.5
170
     5
 62
     0
 63
   257
283
     0
 90
        4
 91
        0
  1

274
    -2
284
     1
 64
     0
275
    -2
285
     1
 65
     0
276
    -2
286
     1
 66
     0
277
    -2
287
     1
 67
     0
278
    -2
288
     1
 68
     0
279
    -2
289
     1
 69
     0
  0
VISUALSTYLE
  5
2F
102
{ACAD_REACTORS
330
2A
102
}
102
{ACAD_XDICTIONARY
360
36C
102
}
330
2A
100
AcDbVisualStyle
  2
2dWireframe
 70
     4
177
     2
291
     0
 71
     0
176
     1
 72
     2
176
     1
 73
     0
176
     1
 90
        0
176
     1
 40
0.6
176
     1
 41
30.0
176
     1
 62
     5
 63
     7
421
 16777215
176
     1
 74
     1
176
     1
 91
        4
176
     1
 64
     7
176
     1
 65
   257
176
     1
 75
     1
176
     1
175
     1
176
     1
 42
1.0
176
     1
 92
        0
176
     1
 66
   257
176
     1
 43
1.0
176
     1
 76
     1
176
     1
 77
     6
176
     1
 78
     2
176
     1
 67
     7
176
     1
 79
     5
176
     1
170
     0
176
     1
171
     0
176
     1
290
     0
176
     1
 93
        1
176
     1
 44
0.0
176
     1
173
     0
176
     1
  0
VISUALSTYLE
  5
32
102
{ACAD_REACTORS
330
2A
102
}
102
{ACAD_XDICTIONARY
360
372
102
}
330
2A
100
AcDbVisualStyle
  2
Basic
 70
     7
177
     2
291
     1
 71
     1
176
     1
 72
     0
176
     1
 73
     1
176
     1
 90
        0
176
     1
 40
0.6
176
     1
 41
30.0
176
     1
 62
     5
 63
     7
421
 16777215
176
     1
 74
     0
176
     1
 91
        4
176
     1
 64
     7
176
     1
 65
   257
176
     1
 75
     1
176
     1
175
     1
176
     1
 42
1.0
176
     1
 92
        8
176
     1
 66
     7
176
     1
 43
1.0
176
     1
 76
     1
176
     1
 77
     6
176
     1
 78
     2
176
     1
 67
     7
176
     1
 79
     5
176
     1
170
     0
176
     1
171
     0
176
     1
290
     0
176
     1
 93
        1
176
     1
 44
0.0
176
     1
173
     0
176
     1
  0
VISUALSTYLE
  5
36
102
{ACAD_REACTORS
330
2A
102
}
102
{ACAD_XDICTIONARY
360
37A
102
}
330
2A
100
AcDbVisualStyle
  2
Brighten
 70
    12
177
     2
291
     1
 71
     2
176
     1
 72
     2
176
     1
 73
     0
176
     1
 90
        0
176
     1
 40
0.6
176
     1
 41
30.0
176
     1
 62
     5
 63
     7
421
 16777215
176
     1
 74
     1
176
     1
 91
        4
176
     1
 64
     7
176
     1
 65
   257
176
     1
 75
     1
176
     1
175
     1
176
     1
 42
1.0
176
     1
 92
        8
176
     1
 66
     7
176
     1
 43
1.0
176
     1
 76
     1
176
     1
 77
     6
176
     1
 78
     2
176
     1
 67
     7
176
     1
 79
     5
176
     1
170
     0
176
     1
171
     0
176
     1
290
     0
176
     1
 93
        1
176
     1
 44
50.0
176
     1
173
     0
176
     1
  0
VISUALSTYLE
  5
3A
102
{ACAD_REACTORS
330
2A
102
}
102
{ACAD_XDICTIONARY
360
382
102
}
330
2A
100
AcDbVisualStyle
  2
ColorChange
 70
    16
177
     2
291
     1
 71
     2
176
     1
 72
     2
176
     1
 73
     3
176
     1
 90
        0
176
     1
 40
0.6
176
     1
 41
30.0
176
     1
 62
     5
 63
     8
421
  8421504
176
     1
 74
     1
176
     1
 91
        4
176
     1
 64
     7
176
     1
 65
   257
176
     1
 75
     1
176
     1
175
     1
176
     1
 42
1.0
176
     1
 92
        8
176
     1
 66
     8
424
  8421504
176
     1
 43
1.0
176
     1
 76
     1
176
     1
 77
     6
176
     1
 78
     2
176
     1
 67
     7
176
     1
 79
     5
176
     1
170
     0
176
     1
171
     0
176
     1
290
     0
176
     1
 93
        1
176
     1
 44
0.0
176
     1
173
     0
176
     1
  0
VISUALSTYLE
  5
34
102
{ACAD_REACTORS
330
2A
102
}
102
{ACAD_XDICTIONARY
360
376
102
}
330
2A
100
AcDbVisualStyle
  2
Conceptual
 70
     9
177
     2
291
     0
 71
     3
176
     1
 72
     2
176
     1
 73
     0
176
     1
 90
        0
176
     1
 40
0.6
176
     1
 41
30.0
176
     1
 62
     5
 63
     7
421
 16777215
176
     1
 74
     2
176
     1
 91
        2
176
     1
 64
     7
176
     1
 65
   257
176
     1
 75
     1
176
     1
175
     1
176
     1
 42
179.0
176
     1
 92
        8
176
     1
 66
     7
176
     1
 43
1.0
176
     1
 76
     1
176
     1
 77
     6
176
     1
 78
     2
176
     1
 67
     7
176
     1
 79
     3
176
     1
170
     0
176
     1
171
     0
176
     1
290
     0
176
     1
 93
        1
176
     1
 44
0.0
176
     1
173
     0
176
     1
  0
VISUALSTYLE
  5
35
102
{ACAD_REACTORS
330
2A
102
}
102
{ACAD_XDICTIONARY
360
378
102
}
330
2A
100
AcDbVisualStyle
  2
Dim
 70
    11
177
     2
291
     1
 71
     2
176
     1
 72
     2
176
     1
 73
     0
176
     1
 90
        0
176
     1
 40
0.6
176
     1
 41
30.0
176
     1
 62
     5
 63
     7
421
 16777215
176
     1
 74
     1
176
     1
 91
        4
176
     1
 64
     7
176
     1
 65
   257
176
     1
 75
     1
176
     1
175
     1
176
     1
 42
1.0
176
     1
 92
        8
176
     1
 66
     7
176
     1
 43
1.0
176
     1
 76
     1
176
     1
 77
     6
176
     1
 78
     2
176
     1
 67
     7
176
     1
 79
     5
176
     1
170
     0
176
     1
171
     0
176
     1
290
     0
176
     1
 93
        1
176
     1
 44
-50.0
176
     1
173
     0
176
     1
  0
VISUALSTYLE
  5
3D
102
{ACAD_REACTORS
330
2A
102
}
102
{ACAD_XDICTIONARY
360
388
102
}
330
2A
100
AcDbVisualStyle
  2
EdgeColorOff
 70
    22
177
     2
291
     1
 71
     2
176
     0
 72
     2
176
     0
 73
     0
176
     0
 90
        0
176
     0
 40
0.6
176
     0
 41
30.0
176
     0
 62
     5
 63
     7
421
 16777215
176
     0
 74
     1
176
     0
 91
        4
176
     0
 64
     7
176
     0
 65
   257
176
     0
 75
     1
176
     0
175
     1
176
     0
 42
1.0
176
     0
 92
        8
176
     2
 66
     7
176
     0
 43
1.0
176
     0
 76
     1
176
     0
 77
     6
176
     0
 78
     2
176
     0
 67
     7
176
     0
 79
     5
176
     0
170
     0
176
     0
171
     0
176
     0
290
     0
176
     0
 93
        1
176
     0
 44
0.0
176
     0
173
     0
176
     0
  0
VISUALSTYLE
  5
39
102
{ACAD_REACTORS
330
2A
102
}
102
{ACAD_XDICTIONARY
360
380
102
}
330
2A
100
AcDbVisualStyle
  2
Facepattern
 70
    15
177
     2
291
     1
 71
     2
176
     1
 72
     2
176
     1
 73
     0
176
     1
 90
        0
176
     1
 40
0.6
176
     1
 41
30.0
176
     1
 62
     5
 63
     7
421
 16777215
176
     1
 74
     1
176
     1
 91
        4
176
     1
 64
     7
176
     1
 65
   257
176
     1
 75
     1
176
     1
175
     1
176
     1
 42
1.0
176
     1
 92
        8
176
     1
 66
     7
176
     1
 43
1.0
176
     1
 76
     1
176
     1
 77
     6
176
     1
 78
     2
176
     1
 67
     7
176
     1
 79
     5
176
     1
170
     0
176
     1
171
     0
176
     1
290
     0
176
     1
 93
        1
176
     1
 44
0.0
176
     1
173
     0
176
     1
  0
VISUALSTYLE
  5
2B
102
{ACAD_REACTORS
330
2A
102
}
102
{ACAD_XDICTIONARY
360
364
102
}
330
2A
100
AcDbVisualStyle
  2
Flat
 70
     0
177
     2
291
     1
 71
     2
176
     1
 72
     1
176
     1
 73
     1
176
     1
 90
        2
176
     1
 40
0.6
176
     1
 41
30.0
176
     1
 62
     5
 63
     7
421
 16777215
176
     1
 74
     0
176
     1
 91
        0
176
     1
 64
     7
176
     1
 65
   257
176
     1
 75
     1
176
     1
175
     1
176
     1
 42
1.0
176
     1
 92
        8
176
     1
 66
     7
176
     1
 43
1.0
176
     1
 76
     1
176
     1
 77
     6
176
     1
 78
     2
176
     1
 67
     7
176
     1
 79
     5
176
     1
170
     0
176
     1
171
     0
176
     1
290
     0
176
     1
 93
       13
176
     1
 44
0.0
176
     1
173
     0
176
     1
  0
VISUALSTYLE
  5
2C
102
{ACAD_REACTORS
330
2A
102
}
102
{ACAD_XDICTIONARY
360
366
102
}
330
2A
100
AcDbVisualStyle
  2
FlatWithEdges
 70
     1
177
     2
291
     1
 71
     2
176
     1
 72
     1
176
     1
 73
     1
176
     1
 90
        2
176
     1
 40
0.6
176
     1
 41
30.0
176
     1
 62
     5
 63
     7
421
 16777215
176
     1
 74
     1
176
     1
 91
        0
176
     1
 64
     7
176
     1
 65
   257
176
     1
 75
     1
176
     1
175
     1
176
     1
 42
1.0
176
     1
 92
        0
176
     1
 66
   257
176
     1
 43
1.0
176
     1
 76
     1
176
     1
 77
     6
176
     1
 78
     2
176
     1
 67
     7
176
     1
 79
     5
176
     1
170
     0
176
     1
171
     0
176
     1
290
     0
176
     1
 93
       13
176
     1
 44
0.0
176
     1
173
     0
176
     1
  0
VISUALSTYLE
  5
2D
102
{ACAD_REACTORS
330
2A
102
}
102
{ACAD_XDICTIONARY
360
368
102
}
330
2A
100
AcDbVisualStyle
  2
Gouraud
 70
     2
177
     2
291
     1
 71
     2
176
     1
 72
     2
176
     1
 73
     1
176
     1
 90
        2
176
     1
 40
0.6
176
     1
 41
30.0
176
     1
 62
     5
 63
     7
421
 16777215
176
     1
 74
     0
176
     1
 91
        0
176
     1
 64
     7
176
     1
 65
   257
176
     1
 75
     1
176
     1
175
     1
176
     1
 42
1.0
176
     1
 92
        0
176
     1
 66
     7
176
     1
 43
1.0
176
     1
 76
     1
176
     1
 77
     6
176
     1
 78
     2
176
     1
 67
     7
176
     1
 79
     5
176
     1
170
     0
176
     1
171
     0
176
     1
290
     0
176
     1
 93
       13
176
     1
 44
0.0
176
     1
173
     0
176
     1
  0
VISUALSTYLE
  5
2E
102
{ACAD_REACTORS
330
2A
102
}
102
{ACAD_XDICTIONARY
360
36A
102
}
330
2A
100
AcDbVisualStyle
  2
GouraudWithEdges
 70
     3
177
     2
291
     1
 71
     2
176
     1
 72
     2
176
     1
 73
     1
176
     1
 90
        2
176
     1
 40
0.6
176
     1
 41
30.0
176
     1
 62
     5
 63
     7
421
 16777215
176
     1
 74
     1
176
     1
 91
        0
176
     1
 64
     7
176
     1
 65
   257
176
     1
 75
     1
176
     1
175
     1
176
     1
 42
1.0
176
     1
 92
        0
176
     1
 66
   257
176
     1
 43
1.0
176
     1
 76
     1
176
     1
 77
     6
176
     1
 78
     2
176
     1
 67
     7
176
     1
 79
     5
176
     1
170
     0
176
     1
171
     0
176
     1
290
     0
176
     1
 93
       13
176
     1
 44
0.0
176
     1
173
     0
176
     1
  0
VISUALSTYLE
  5
31
102
{ACAD_REACTORS
330
2A
102
}
102
{ACAD_XDICTIONARY
360
370
102
}
330
2A
100
AcDbVisualStyle
  2
Hidden
 70
     6
177
     2
291
     0
 71
     1
176
     1
 72
     2
176
     1
 73
     2
176
     1
 90
        0
176
     1
 40
0.6
176
     1
 41
30.0
176
     1
 62
     5
 63
     7
421
 16777215
176
     1
 74
     2
176
     1
 91
        2
176
     1
 64
     7
176
     1
 65
   257
176
     1
 75
     2
176
     1
175
     1
176
     1
 42
40.0
176
     1
 92
        0
176
     1
 66
   257
176
     1
 43
1.0
176
     1
 76
     1
176
     1
 77
     6
176
     1
 78
     2
176
     1
 67
     7
176
     1
 79
     3
176
     1
170
     0
176
     1
171
     0
176
     1
290
     0
176
     1
 93
        1
176
     1
 44
0.0
176
     1
173
     0
176
     1
  0
VISUALSTYLE
  5
3B
102
{ACAD_REACTORS
330
2A
102
}
102
{ACAD_XDICTIONARY
360
384
102
}
330
2A
100
AcDbVisualStyle
  2
JitterOff
 70
    20
177
     2
291
     1
 71
     2
176
     0
 72
     2
176
     0
 73
     0
176
     0
 90
        0
176
     0
 40
0.6
176
     0
 41
30.0
176
     0
 62
     5
 63
     7
421
 16777215
176
     0
 74
     1
176
     0
 91
        4
176
     0
 64
     7
176
     0
 65
   257
176
     0
 75
     1
176
     0
175
     1
176
     0
 42
1.0
176
     0
 92
       10
176
     2
 66
     7
176
     0
 43
1.0
176
     0
 76
     1
176
     0
 77
     6
176
     0
 78
     2
176
     0
 67
     7
176
     0
 79
     5
176
     0
170
     0
176
     0
171
     0
176
     0
290
     0
176
     0
 93
        1
176
     0
 44
0.0
176
     0
173
     0
176
     0
  0
VISUALSTYLE
  5
38
102
{ACAD_REACTORS
330
2A
102
}
102
{ACAD_XDICTIONARY
360
37E
102
}
330
2A
100
AcDbVisualStyle
  2
Linepattern
 70
    14
177
     2
291
     1
 71
     2
176
     1
 72
     2
176
     1
 73
     0
176
     1
 90
        0
176
     1
 40
0.6
176
     1
 41
30.0
176
     1
 62
     5
 63
     7
421
 16777215
176
     1
 74
     1
176
     1
 91
        4
176
     1
 64
     7
176
     1
 65
   257
176
     1
 75
     7
176
     1
175
     7
176
     1
 42
1.0
176
     1
 92
        8
176
     1
 66
     7
176
     1
 43
1.0
176
     1
 76
     1
176
     1
 77
     6
176
     1
 78
     2
176
     1
 67
     7
176
     1
 79
     5
176
     1
170
     0
176
     1
171
     0
176
     1
290
     0
176
     1
 93
        1
176
     1
 44
0.0
176
     1
173
     0
176
     1
  0
VISUALSTYLE
  5
3C
102
{ACAD_REACTORS
330
2A
102
}
102
{ACAD_XDICTIONARY
360
386
102
}
330
2A
100
AcDbVisualStyle
  2
OverhangOff
 70
    21
177
     2
291
     1
 71
     2
176
     0
 72
     2
176
     0
 73
     0
176
     0
 90
        0
176
     0
 40
0.6
176
     0
 41
30.0
176
     0
 62
     5
 63
     7
421
 16777215
176
     0
 74
     1
176
     0
 91
        4
176
     0
 64
     7
176
     0
 65
   257
176
     0
 75
     1
176
     0
175
     1
176
     0
 42
1.0
176
     0
 92
        9
176
     2
 66
     7
176
     0
 43
1.0
176
     0
 76
     1
176
     0
 77
     6
176
     0
 78
     2
176
     0
 67
     7
176
     0
 79
     5
176
     0
170
     0
176
     0
171
     0
176
     0
290
     0
176
     0
 93
        1
176
     0
 44
0.0
176
     0
173
     0
176
     0
  0
VISUALSTYLE
  5
33
102
{ACAD_REACTORS
330
2A
102
}
102
{ACAD_XDICTIONARY
360
374
102
}
330
2A
100
AcDbVisualStyle
  2
Realistic
 70
     8
177
     2
291
     0
 71
     2
176
     1
 72
     3
176
     1
 73
     0
176
     1
 90
        2
176
     1
 40
0.6
176
     1
 41
30.0
176
     1
 62
     5
 63
     7
421
 16777215
176
     1
 74
     0
176
     1
 91
        0
176
     1
 64
     7
176
     1
 65
   257
176
     1
 75
     1
176
     1
175
     1
176
     1
 42
1.0
176
     1
 92
        8
176
     1
 66
   257
176
     1
 43
1.0
176
     1
 76
     1
176
     1
 77
     6
176
     1
 78
     2
176
     1
 67
     7
176
     1
 79
     3
176
     1
170
     0
176
     1
171
     0
176
     1
290
     0
176
     1
 93
       13
176
     1
 44
0.0
176
     1
173
     0
176
     1
  0
VISUALSTYLE
  5
42
102
{ACAD_REACTORS
330
2A
102
}
102
{ACAD_XDICTIONARY
360
392
102
}
330
2A
100
AcDbVisualStyle
  2
Shaded
 70
    27
177
     2
291
     0
 71
     2
176
     1
 72
     2
176
     1
 73
     1
176
     1
 90
        2
176
     1
 40
0.6
176
     1
 41
30.0
176
     1
 62
     5
 63
     7
421
 16777215
176
     1
 74
     0
176
     1
 91
        4
176
     1
 64
     7
176
     1
 65
   257
176
     1
 75
     1
176
     1
175
     1
176
     1
 42
1.0
176
     1
 92
        8
176
     1
 66
   257
176
     1
 43
1.0
176
     1
 76
     1
176
     1
 77
     6
176
     1
 78
     2
176
     1
 67
     8
425
  7895160
176
     1
 79
     3
176
     1
170
     0
176
     1
171
     0
176
     1
290
     0
176
     1
 93
        5
176
     1
 44
0.0
176
     1
173
     0
176
     1
  0
VISUALSTYLE
  5
41
102
{ACAD_REACTORS
330
2A
102
}
102
{ACAD_XDICTIONARY
360
390
102
}
330
2A
100
AcDbVisualStyle
  2
Shaded with edges
 70
    26
177
     2
291
     0
 71
     2
176
     1
 72
     2
176
     1
 73
     1
176
     1
 90
        2
176
     1
 40
0.6
176
     1
 41
30.0
176
     1
 62
     5
 63
     7
421
 16777215
176
     1
 74
     1
176
     1
 91
       10
176
     1
 64
     7
176
     1
 65
   257
176
     1
 75
     2
176
     1
175
     1
176
     1
 42
1.0
176
     1
 92
        8
176
     1
 66
   257
176
     1
 43
1.0
176
     1
 76
     1
176
     1
 77
     6
176
     1
 78
     2
176
     1
 67
     7
176
     1
 79
     3
176
     1
170
     0
176
     1
171
     0
176
     1
290
     0
176
     1
 93
        5
176
     1
 44
0.0
176
     1
173
     0
176
     1
  0
VISUALSTYLE
  5
3E
102
{ACAD_REACTORS
330
2A
102
}
102
{ACAD_XDICTIONARY
360
38A
102
}
330
2A
100
AcDbVisualStyle
  2
Shades of Gray
 70
    23
177
     2
291
     0
 71
     2
176
     1
 72
     2
176
     1
 73
     3
176
     1
 90
        0
176
     1
 40
0.6
176
     1
 41
30.0
176
     1
 62
     5
 63
     7
421
 16777215
176
     1
 74
     2
176
     1
 91
        2
176
     1
 64
     7
176
     1
 65
     7
176
     1
 75
     1
176
     1
175
     1
176
     1
 42
40.0
176
     1
 92
        8
176
     1
 66
     7
176
     1
 43
1.0
176
     1
 76
     1
176
     1
 77
     6
176
     1
 78
     2
176
     1
 67
     7
176
     1
 79
     3
176
     1
170
     0
176
     1
171
     0
176
     1
290
     0
176
     1
 93
        1
176
     1
 44
0.0
176
     1
173
     0
176
     1
  0
VISUALSTYLE
  5
3F
102
{ACAD_REACTORS
330
2A
102
}
102
{ACAD_XDICTIONARY
360
38C
102
}
330
2A
100
AcDbVisualStyle
  2
Sketchy
 70
    24
177
     2
291
     0
 71
     1
176
     1
 72
     2
176
     1
 73
     2
176
     1
 90
        0
176
     1
 40
0.6
176
     1
 41
30.0
176
     1
 62
     5
 63
     7
421
 16777215
176
     1
 74
     2
176
     1
 91
        2
176
     1
 64
     7
176
     1
 65
     7
176
     1
 75
     1
176
     1
175
     1
176
     1
 42
40.0
176
     1
 92
       11
176
     1
 66
     7
176
     1
 43
1.0
176
     1
 76
     1
176
     1
 77
     6
176
     1
 78
     2
176
     1
 67
     7
176
     1
 79
     6
176
     1
170
     0
176
     1
171
     0
176
     1
290
     0
176
     1
 93
        1
176
     1
 44
0.0
176
     1
173
     0
176
     1
  0
VISUALSTYLE
  5
37
102
{ACAD_REACTORS
330
2A
102
}
102
{ACAD_XDICTIONARY
360
37C
102
}
330
2A
100
AcDbVisualStyle
  2
Thicken
 70
    13
177
     2
291
     1
 71
     2
176
     1
 72
     2
176
     1
 73
     0
176
     1
 90
        0
176
     1
 40
0.6
176
     1
 41
30.0
176
     1
 62
     5
 63
     7
421
 16777215
176
     1
 74
     1
176
     1
 91
        4
176
     1
 64
     7
176
     1
 65
   257
176
     1
 75
     1
176
     1
175
     1
176
     1
 42
1.0
176
     1
 92
       12
176
     1
 66
     7
176
     1
 43
1.0
176
     1
 76
     1
176
     1
 77
     6
176
     1
 78
     2
176
     1
 67
     7
176
     1
 79
     5
176
     1
170
     0
176
     1
171
     0
176
     1
290
     0
176
     1
 93
        1
176
     1
 44
0.0
176
     1
173
     0
176
     1
  0
VISUALSTYLE
  5
30
102
{ACAD_REACTORS
330
2A
102
}
102
{ACAD_XDICTIONARY
360
36E
102
}
330
2A
100
AcDbVisualStyle
  2
Wireframe
 70
     5
177
     2
291
     0
 71
     0
176
     1
 72
     2
176
     1
 73
     0
176
     1
 90
        0
176
     1
 40
0.6
176
     1
 41
30.0
176
     1
 62
     5
 63
     7
421
 16777215
176
     1
 74
     1
176
     1
 91
        4
176
     1
 64
     7
176
     1
 65
   257
176
     1
 75
     1
176
     1
175
     1
176
     1
 42
1.0
176
     1
 92
        0
176
     1
 66
   257
176
     1
 43
1.0
176
     1
 76
     1
176
     1
 77
     6
176
     1
 78
     2
176
     1
 67
     7
176
     1
 79
     3
176
     1
170
     0
176
     1
171
     0
176
     1
290
     0
176
     1
 93
        1
176
     1
 44
0.0
176
     1
173
     0
176
     1
  0
VISUALSTYLE
  5
40
102
{ACAD_REACTORS
330
2A
102
}
102
{ACAD_XDICTIONARY
360
38E
102
}
330
2A
100
AcDbVisualStyle
  2
X-Ray
 70
    25
177
     2
291
     0
 71
     2
176
     1
 72
     2
176
     1
 73
     1
176
     1
 90
        1
176
     1
 40
0.5
176
     1
 41
30.0
176
     1
 62
     5
 63
     7
421
 16777215
176
     1
 74
     1
176
     1
 91
        0
176
     1
 64
     7
176
     1
 65
   257
176
     1
 75
     1
176
     1
175
     1
176
     1
 42
1.0
176
     1
 92
        8
176
     1
 66
     7
176
     1
 43
1.0
176
     1
 76
     1
176
     1
 77
     6
176
     1
 78
     2
176
     1
 67
     7
176
     1
 79
     3
176
     1
170
     0
176
     1
171
     0
176
     1
290
     0
176
     1
 93
       13
176
     1
 44
0.0
176
     1
173
     0
176
     1
  0
DICTIONARYVAR
  5
363
102
{ACAD_REACTORS
330
362
102
}
330
362
100
DictionaryVariables
280
     0
  1
1:1
  0
DICTIONARYVAR
  5
398
102
{ACAD_REACTORS
330
362
102
}
330
362
100
DictionaryVariables
280
     0
  1
Standard
  0
DICTIONARYVAR
  5
397
102
{ACAD_REACTORS
330
362
102
}
330
362
100
DictionaryVariables
280
     0
  1
Standard
  0
DICTIONARY
  5
394
330
6A
100
AcDbDictionary
280
     1
281
     1
  3
ACAD_ROUNDTRIP_2008_TABLESTYLE_CELLSTYLEMAP
360
395
  0
DICTIONARY
  5
36C
330
2F
100
AcDbDictionary
280
     1
281
     1
  3
ACAD_XREC_ROUNDTRIP
360
36D
  0
DICTIONARY
  5
372
330
32
100
AcDbDictionary
280
     1
281
     1
  3
ACAD_XREC_ROUNDTRIP
360
373
  0
DICTIONARY
  5
37A
330
36
100
AcDbDictionary
280
     1
281
     1
  3
ACAD_XREC_ROUNDTRIP
360
37B
  0
DICTIONARY
  5
382
330
3A
100
AcDbDictionary
280
     1
281
     1
  3
ACAD_XREC_ROUNDTRIP
360
383
  0
DICTIONARY
  5
376
330
34
100
AcDbDictionary
280
     1
281
     1
  3
ACAD_XREC_ROUNDTRIP
360
377
  0
DICTIONARY
  5
378
330
35
100
AcDbDictionary
280
     1
281
     1
  3
ACAD_XREC_ROUNDTRIP
360
379
  0
DICTIONARY
  5
388
330
3D
100
AcDbDictionary
280
     1
281
     1
  3
ACAD_XREC_ROUNDTRIP
360
389
  0
DICTIONARY
  5
380
330
39
100
AcDbDictionary
280
     1
281
     1
  3
ACAD_XREC_ROUNDTRIP
360
381
  0
DICTIONARY
  5
364
330
2B
100
AcDbDictionary
280
     1
281
     1
  3
ACAD_XREC_ROUNDTRIP
360
365
  0
DICTIONARY
  5
366
330
2C
100
AcDbDictionary
280
     1
281
     1
  3
ACAD_XREC_ROUNDTRIP
360
367
  0
DICTIONARY
  5
368
330
2D
100
AcDbDictionary
280
     1
281
     1
  3
ACAD_XREC_ROUNDTRIP
360
369
  0
DICTIONARY
  5
36A
330
2E
100
AcDbDictionary
280
     1
281
     1
  3
ACAD_XREC_ROUNDTRIP
360
36B
  0
DICTIONARY
  5
370
330
31
100
AcDbDictionary
280
     1
281
     1
  3
ACAD_XREC_ROUNDTRIP
360
371
  0
DICTIONARY
  5
384
330
3B
100
AcDbDictionary
280
     1
281
     1
  3
ACAD_XREC_ROUNDTRIP
360
385
  0
DICTIONARY
  5
37E
330
38
100
AcDbDictionary
280
     1
281
     1
  3
ACAD_XREC_ROUNDTRIP
360
37F
  0
DICTIONARY
  5
386
330
3C
100
AcDbDictionary
280
     1
281
     1
  3
ACAD_XREC_ROUNDTRIP
360
387
  0
DICTIONARY
  5
374
330
33
100
AcDbDictionary
280
     1
281
     1
  3
ACAD_XREC_ROUNDTRIP
360
375
  0
DICTIONARY
  5
392
330
42
100
AcDbDictionary
280
     1
281
     1
  3
ACAD_XREC_ROUNDTRIP
360
393
  0
DICTIONARY
  5
390
330
41
100
AcDbDictionary
280
     1
281
     1
  3
ACAD_XREC_ROUNDTRIP
360
391
  0
DICTIONARY
  5
38A
330
3E
100
AcDbDictionary
280
     1
281
     1
  3
ACAD_XREC_ROUNDTRIP
360
38B
  0
DICTIONARY
  5
38C
330
3F
100
AcDbDictionary
280
     1
281
     1
  3
ACAD_XREC_ROUNDTRIP
360
38D
  0
DICTIONARY
  5
37C
330
37
100
AcDbDictionary
280
     1
281
     1
  3
ACAD_XREC_ROUNDTRIP
360
37D
  0
DICTIONARY
  5
36E
330
30
100
AcDbDictionary
280
     1
281
     1
  3
ACAD_XREC_ROUNDTRIP
360
36F
  0
DICTIONARY
  5
38E
330
40
100
AcDbDictionary
280
     1
281
     1
  3
ACAD_XREC_ROUNDTRIP
360
38F
  0
CELLSTYLEMAP
  5
395
102
{ACAD_REACTORS
330
394
102
}
330
394
100
AcDbCellStyleMap
 90
        3
300
CELLSTYLE
  1
TABLEFORMAT_BEGIN
 90
        5
170
     1
 91
        0
 92
    32768
 62
   257
 93
        1
300
CONTENTFORMAT
  1
CONTENTFORMAT_BEGIN
 90
        0
 91
        0
 92
        4
 93
        0
300

 40
0.0
140
1.0
 94
        5
 62
     0
340
11
144
6.0
309
CONTENTFORMAT_END
171
     1
301
MARGIN
  1
CELLMARGIN_BEGIN
 40
1.5
 40
1.5
 40
1.5
 40
1.5
 40
1.5
 40
1.5
309
CELLMARGIN_END
 94
        6
 95
        1
302
GRIDFORMAT
  1
GRIDFORMAT_BEGIN
 90
        0
 91
        1
 62
     0
 92
       -2
340
14
 93
        0
 40
0.045
309
GRIDFORMAT_END
 95
        2
302
GRIDFORMAT
  1
GRIDFORMAT_BEGIN
 90
        0
 91
        1
 62
     0
 92
       -2
340
14
 93
        0
 40
0.045
309
GRIDFORMAT_END
 95
        4
302
GRIDFORMAT
  1
GRIDFORMAT_BEGIN
 90
        0
 91
        1
 62
     0
 92
       -2
340
14
 93
        0
 40
0.045
309
GRIDFORMAT_END
 95
        8
302
GRIDFORMAT
  1
GRIDFORMAT_BEGIN
 90
        0
 91
        1
 62
     0
 92
       -2
340
14
 93
        0
 40
0.045
309
GRIDFORMAT_END
 95
       16
302
GRIDFORMAT
  1
GRIDFORMAT_BEGIN
 90
        0
 91
        1
 62
     0
 92
       -2
340
14
 93
        0
 40
0.045
309
GRIDFORMAT_END
 95
       32
302
GRIDFORMAT
  1
GRIDFORMAT_BEGIN
 90
        0
 91
        1
 62
     0
 92
       -2
340
14
 93
        0
 40
0.045
309
GRIDFORMAT_END
309
TABLEFORMAT_END
  1
CELLSTYLE_BEGIN
 90
        1
 91
        1
300
_TITLE
309
CELLSTYLE_END
300
CELLSTYLE
  1
TABLEFORMAT_BEGIN
 90
        5
170
     1
 91
        0
 92
        0
 62
   257
 93
        1
300
CONTENTFORMAT
  1
CONTENTFORMAT_BEGIN
 90
        0
 91
        0
 92
        4
 93
        0
300

 40
0.0
140
1.0
 94
        5
 62
     0
340
11
144
4.5
309
CONTENTFORMAT_END
171
     1
301
MARGIN
  1
CELLMARGIN_BEGIN
 40
1.5
 40
1.5
 40
1.5
 40
1.5
 40
1.5
 40
1.5
309
CELLMARGIN_END
 94
        6
 95
        1
302
GRIDFORMAT
  1
GRIDFORMAT_BEGIN
 90
        0
 91
        1
 62
     0
 92
       -2
340
14
 93
        0
 40
0.045
309
GRIDFORMAT_END
 95
        2
302
GRIDFORMAT
  1
GRIDFORMAT_BEGIN
 90
        0
 91
        1
 62
     0
 92
       -2
340
14
 93
        0
 40
0.045
309
GRIDFORMAT_END
 95
        4
302
GRIDFORMAT
  1
GRIDFORMAT_BEGIN
 90
        0
 91
        1
 62
     0
 92
       -2
340
14
 93
        0
 40
0.045
309
GRIDFORMAT_END
 95
        8
302
GRIDFORMAT
  1
GRIDFORMAT_BEGIN
 90
        0
 91
        1
 62
     0
 92
       -2
340
14
 93
        0
 40
0.045
309
GRIDFORMAT_END
 95
       16
302
GRIDFORMAT
  1
GRIDFORMAT_BEGIN
 90
        0
 91
        1
 62
     0
 92
       -2
340
14
 93
        0
 40
0.045
309
GRIDFORMAT_END
 95
       32
302
GRIDFORMAT
  1
GRIDFORMAT_BEGIN
 90
        0
 91
        1
 62
     0
 92
       -2
340
14
 93
        0
 40
0.045
309
GRIDFORMAT_END
309
TABLEFORMAT_END
  1
CELLSTYLE_BEGIN
 90
        2
 91
        1
300
_HEADER
309
CELLSTYLE_END
300
CELLSTYLE
  1
TABLEFORMAT_BEGIN
 90
        5
170
     1
 91
        0
 92
        0
 62
   257
 93
        1
300
CONTENTFORMAT
  1
CONTENTFORMAT_BEGIN
 90
        0
 91
        0
 92
        4
 93
        0
300

 40
0.0
140
1.0
 94
        2
 62
     0
340
11
144
4.5
309
CONTENTFORMAT_END
171
     1
301
MARGIN
  1
CELLMARGIN_BEGIN
 40
1.5
 40
1.5
 40
1.5
 40
1.5
 40
1.5
 40
1.5
309
CELLMARGIN_END
 94
        6
 95
        1
302
GRIDFORMAT
  1
GRIDFORMAT_BEGIN
 90
        0
 91
        1
 62
     0
 92
       -2
340
14
 93
        0
 40
0.045
309
GRIDFORMAT_END
 95
        2
302
GRIDFORMAT
  1
GRIDFORMAT_BEGIN
 90
        0
 91
        1
 62
     0
 92
       -2
340
14
 93
        0
 40
0.045
309
GRIDFORMAT_END
 95
        4
302
GRIDFORMAT
  1
GRIDFORMAT_BEGIN
 90
        0
 91
        1
 62
     0
 92
       -2
340
14
 93
        0
 40
0.045
309
GRIDFORMAT_END
 95
        8
302
GRIDFORMAT
  1
GRIDFORMAT_BEGIN
 90
        0
 91
        1
 62
     0
 92
       -2
340
14
 93
        0
 40
0.045
309
GRIDFORMAT_END
 95
       16
302
GRIDFORMAT
  1
GRIDFORMAT_BEGIN
 90
        0
 91
        1
 62
     0
 92
       -2
340
14
 93
        0
 40
0.045
309
GRIDFORMAT_END
 95
       32
302
GRIDFORMAT
  1
GRIDFORMAT_BEGIN
 90
        0
 91
        1
 62
     0
 92
       -2
340
14
 93
        0
 40
0.045
309
GRIDFORMAT_END
309
TABLEFORMAT_END
  1
CELLSTYLE_BEGIN
 90
        3
 91
        2
300
_DATA
309
CELLSTYLE_END
  0
XRECORD
  5
36D
102
{ACAD_REACTORS
330
36C
102
}
330
36C
100
AcDbXrecord
280
     1
102
RTVSPost2010Prop28
280
     1
102
RTVSPost2010PropOp28
 70
     1
102
RTVSPost2010Prop29
280
     1
102
RTVSPost2010PropOp29
 70
     1
102
RTVSPost2010Prop30
280
     0
102
RTVSPost2010PropOp30
 70
     1
102
RTVSPost2010Prop31
280
     0
102
RTVSPost2010PropOp31
 70
     1
102
RTVSPost2010Prop32
280
     0
102
RTVSPost2010PropOp32
 70
     1
102
RTVSPost2010Prop33
280
     0
102
RTVSPost2010PropOp33
 70
     1
102
RTVSPost2010Prop34
280
     0
102
RTVSPost2010PropOp34
 70
     1
102
RTVSPost2010Prop35
280
     0
102
RTVSPost2010PropOp35
 70
     1
102
RTVSPost2010Prop36
280
     0
102
RTVSPost2010PropOp36
 70
     1
102
RTVSPost2010Prop37
 90
       50
102
RTVSPost2010PropOp37
 70
     1
102
RTVSPost2010Prop38
140
0.0
102
RTVSPost2010PropOp38
 70
     1
102
RTVSPost2010Prop39
140
1.0
102
RTVSPost2010PropOp39
 70
     1
102
RTVSPost2010Prop40
 90
        0
102
RTVSPost2010PropOp40
 70
     1
102
RTVSPost2010Prop41ColorIndex
 90
       18
102
RTVSPost2010Prop41ColorRGB
 90
        0
102
RTVSPost2010PropOp41
 70
     1
102
RTVSPost2010Prop42
 90
       50
102
RTVSPost2010PropOp42
 70
     1
102
RTVSPost2010Prop43
 90
        3
102
RTVSPost2010PropOp43
 70
     1
102
RTVSPost2010Prop44ColorIndex
 90
        5
102
RTVSPost2010Prop44ColorRGB
 90
      255
102
RTVSPost2010PropOp44
 70
     1
102
RTVSPost2010Prop45
280
     0
102
RTVSPost2010PropOp45
 70
     1
102
RTVSPost2010Prop46
 90
       50
102
RTVSPost2010PropOp46
 70
     1
102
RTVSPost2010Prop47
 90
       50
102
RTVSPost2010PropOp47
 70
     1
102
RTVSPost2010Prop48
 90
       50
102
RTVSPost2010PropOp48
 70
     1
102
RTVSPost2010Prop49
280
     0
102
RTVSPost2010PropOp49
 70
     1
102
RTVSPost2010Prop50
 90
       50
102
RTVSPost2010PropOp50
 70
     1
102
RTVSPost2010Prop51ColorIndex
 90
      256
102
RTVSPost2010Prop51ColorRGB
 90
-16777216
102
RTVSPost2010PropOp51
 70
     0
102
RTVSPost2010Prop52
140
1.0
102
RTVSPost2010PropOp52
 70
     0
102
RTVSPost2010Prop53
 90
        2
102
RTVSPost2010PropOp53
 70
     1
102
RTVSPost2010Prop54
  1
strokes_ogs.tif
102
RTVSPost2010PropOp54
 70
     1
102
RTVSPost2010Prop55
280
     0
102
RTVSPost2010PropOp55
 70
     1
102
RTVSPost2010Prop56
140
1.0
102
RTVSPost2010PropOp56
 70
     1
102
RTVSPost2010Prop57
140
1.0
102
RTVSPost2010PropOp57
 70
     1
  0
XRECORD
  5
373
102
{ACAD_REACTORS
330
372
102
}
330
372
100
AcDbXrecord
280
     1
102
RTVSPost2010Prop28
280
     0
102
RTVSPost2010PropOp28
 70
     1
102
RTVSPost2010Prop29
280
     1
102
RTVSPost2010PropOp29
 70
     1
102
RTVSPost2010Prop30
280
     1
102
RTVSPost2010PropOp30
 70
     1
102
RTVSPost2010Prop31
280
     0
102
RTVSPost2010PropOp31
 70
     1
102
RTVSPost2010Prop32
280
     0
102
RTVSPost2010PropOp32
 70
     1
102
RTVSPost2010Prop33
280
     0
102
RTVSPost2010PropOp33
 70
     1
102
RTVSPost2010Prop34
280
     0
102
RTVSPost2010PropOp34
 70
     1
102
RTVSPost2010Prop35
280
     0
102
RTVSPost2010PropOp35
 70
     1
102
RTVSPost2010Prop36
280
     0
102
RTVSPost2010PropOp36
 70
     1
102
RTVSPost2010Prop37
 90
       50
102
RTVSPost2010PropOp37
 70
     1
102
RTVSPost2010Prop38
140
0.0
102
RTVSPost2010PropOp38
 70
     1
102
RTVSPost2010Prop39
140
1.0
102
RTVSPost2010PropOp39
 70
     1
102
RTVSPost2010Prop40
 90
        0
102
RTVSPost2010PropOp40
 70
     1
102
RTVSPost2010Prop41ColorIndex
 90
       18
102
RTVSPost2010Prop41ColorRGB
 90
        0
102
RTVSPost2010PropOp41
 70
     1
102
RTVSPost2010Prop42
 90
       50
102
RTVSPost2010PropOp42
 70
     1
102
RTVSPost2010Prop43
 90
        3
102
RTVSPost2010PropOp43
 70
     1
102
RTVSPost2010Prop44ColorIndex
 90
        5
102
RTVSPost2010Prop44ColorRGB
 90
      255
102
RTVSPost2010PropOp44
 70
     1
102
RTVSPost2010Prop45
280
     0
102
RTVSPost2010PropOp45
 70
     1
102
RTVSPost2010Prop46
 90
       50
102
RTVSPost2010PropOp46
 70
     1
102
RTVSPost2010Prop47
 90
       50
102
RTVSPost2010PropOp47
 70
     1
102
RTVSPost2010Prop48
 90
       50
102
RTVSPost2010PropOp48
 70
     1
102
RTVSPost2010Prop49
280
     0
102
RTVSPost2010PropOp49
 70
     1
102
RTVSPost2010Prop50
 90
       50
102
RTVSPost2010PropOp50
 70
     1
102
RTVSPost2010Prop51ColorIndex
 90
      256
102
RTVSPost2010Prop51ColorRGB
 90
-16777216
102
RTVSPost2010PropOp51
 70
     0
102
RTVSPost2010Prop52
140
1.0
102
RTVSPost2010PropOp52
 70
     0
102
RTVSPost2010Prop53
 90
        2
102
RTVSPost2010PropOp53
 70
     1
102
RTVSPost2010Prop54
  1
strokes_ogs.tif
102
RTVSPost2010PropOp54
 70
     1
102
RTVSPost2010Prop55
280
     0
102
RTVSPost2010PropOp55
 70
     1
102
RTVSPost2010Prop56
140
1.0
102
RTVSPost2010PropOp56
 70
     1
102
RTVSPost2010Prop57
140
1.0
102
RTVSPost2010PropOp57
 70
     1
  0
XRECORD
  5
37B
102
{ACAD_REACTORS
330
37A
102
}
330
37A
100
AcDbXrecord
280
     1
102
RTVSPost2010Prop28
280
     0
102
RTVSPost2010PropOp28
 70
     1
102
RTVSPost2010Prop29
280
     1
102
RTVSPost2010PropOp29
 70
     1
102
RTVSPost2010Prop30
280
     1
102
RTVSPost2010PropOp30
 70
     1
102
RTVSPost2010Prop31
280
     0
102
RTVSPost2010PropOp31
 70
     1
102
RTVSPost2010Prop32
280
     0
102
RTVSPost2010PropOp32
 70
     1
102
RTVSPost2010Prop33
280
     0
102
RTVSPost2010PropOp33
 70
     1
102
RTVSPost2010Prop34
280
     0
102
RTVSPost2010PropOp34
 70
     1
102
RTVSPost2010Prop35
280
     0
102
RTVSPost2010PropOp35
 70
     1
102
RTVSPost2010Prop36
280
     0
102
RTVSPost2010PropOp36
 70
     1
102
RTVSPost2010Prop37
 90
       50
102
RTVSPost2010PropOp37
 70
     1
102
RTVSPost2010Prop38
140
0.0
102
RTVSPost2010PropOp38
 70
     1
102
RTVSPost2010Prop39
140
1.0
102
RTVSPost2010PropOp39
 70
     1
102
RTVSPost2010Prop40
 90
        0
102
RTVSPost2010PropOp40
 70
     1
102
RTVSPost2010Prop41ColorIndex
 90
       18
102
RTVSPost2010Prop41ColorRGB
 90
        0
102
RTVSPost2010PropOp41
 70
     1
102
RTVSPost2010Prop42
 90
       50
102
RTVSPost2010PropOp42
 70
     1
102
RTVSPost2010Prop43
 90
        3
102
RTVSPost2010PropOp43
 70
     1
102
RTVSPost2010Prop44ColorIndex
 90
        5
102
RTVSPost2010Prop44ColorRGB
 90
      255
102
RTVSPost2010PropOp44
 70
     1
102
RTVSPost2010Prop45
280
     0
102
RTVSPost2010PropOp45
 70
     1
102
RTVSPost2010Prop46
 90
       50
102
RTVSPost2010PropOp46
 70
     1
102
RTVSPost2010Prop47
 90
       50
102
RTVSPost2010PropOp47
 70
     1
102
RTVSPost2010Prop48
 90
       50
102
RTVSPost2010PropOp48
 70
     1
102
RTVSPost2010Prop49
280
     0
102
RTVSPost2010PropOp49
 70
     1
102
RTVSPost2010Prop50
 90
       50
102
RTVSPost2010PropOp50
 70
     1
102
RTVSPost2010Prop51ColorIndex
 90
      256
102
RTVSPost2010Prop51ColorRGB
 90
-16777216
102
RTVSPost2010PropOp51
 70
     0
102
RTVSPost2010Prop52
140
1.0
102
RTVSPost2010PropOp52
 70
     0
102
RTVSPost2010Prop53
 90
        2
102
RTVSPost2010PropOp53
 70
     1
102
RTVSPost2010Prop54
  1
strokes_ogs.tif
102
RTVSPost2010PropOp54
 70
     1
102
RTVSPost2010Prop55
280
     0
102
RTVSPost2010PropOp55
 70
     1
102
RTVSPost2010Prop56
140
1.0
102
RTVSPost2010PropOp56
 70
     1
102
RTVSPost2010Prop57
140
1.0
102
RTVSPost2010PropOp57
 70
     1
  0
XRECORD
  5
383
102
{ACAD_REACTORS
330
382
102
}
330
382
100
AcDbXrecord
280
     1
102
RTVSPost2010Prop28
280
     0
102
RTVSPost2010PropOp28
 70
     1
102
RTVSPost2010Prop29
280
     1
102
RTVSPost2010PropOp29
 70
     1
102
RTVSPost2010Prop30
280
     1
102
RTVSPost2010PropOp30
 70
     1
102
RTVSPost2010Prop31
280
     0
102
RTVSPost2010PropOp31
 70
     1
102
RTVSPost2010Prop32
280
     0
102
RTVSPost2010PropOp32
 70
     1
102
RTVSPost2010Prop33
280
     0
102
RTVSPost2010PropOp33
 70
     1
102
RTVSPost2010Prop34
280
     0
102
RTVSPost2010PropOp34
 70
     1
102
RTVSPost2010Prop35
280
     0
102
RTVSPost2010PropOp35
 70
     1
102
RTVSPost2010Prop36
280
     0
102
RTVSPost2010PropOp36
 70
     1
102
RTVSPost2010Prop37
 90
       50
102
RTVSPost2010PropOp37
 70
     1
102
RTVSPost2010Prop38
140
0.0
102
RTVSPost2010PropOp38
 70
     1
102
RTVSPost2010Prop39
140
1.0
102
RTVSPost2010PropOp39
 70
     1
102
RTVSPost2010Prop40
 90
        0
102
RTVSPost2010PropOp40
 70
     1
102
RTVSPost2010Prop41ColorIndex
 90
       18
102
RTVSPost2010Prop41ColorRGB
 90
        0
102
RTVSPost2010PropOp41
 70
     1
102
RTVSPost2010Prop42
 90
       50
102
RTVSPost2010PropOp42
 70
     1
102
RTVSPost2010Prop43
 90
        3
102
RTVSPost2010PropOp43
 70
     1
102
RTVSPost2010Prop44ColorIndex
 90
        5
102
RTVSPost2010Prop44ColorRGB
 90
      255
102
RTVSPost2010PropOp44
 70
     1
102
RTVSPost2010Prop45
280
     0
102
RTVSPost2010PropOp45
 70
     1
102
RTVSPost2010Prop46
 90
       50
102
RTVSPost2010PropOp46
 70
     1
102
RTVSPost2010Prop47
 90
       50
102
RTVSPost2010PropOp47
 70
     1
102
RTVSPost2010Prop48
 90
       50
102
RTVSPost2010PropOp48
 70
     1
102
RTVSPost2010Prop49
280
     0
102
RTVSPost2010PropOp49
 70
     1
102
RTVSPost2010Prop50
 90
       50
102
RTVSPost2010PropOp50
 70
     1
102
RTVSPost2010Prop51ColorIndex
 90
      256
102
RTVSPost2010Prop51ColorRGB
 90
-16777216
102
RTVSPost2010PropOp51
 70
     0
102
RTVSPost2010Prop52
140
1.0
102
RTVSPost2010PropOp52
 70
     0
102
RTVSPost2010Prop53
 90
        2
102
RTVSPost2010PropOp53
 70
     1
102
RTVSPost2010Prop54
  1
strokes_ogs.tif
102
RTVSPost2010PropOp54
 70
     1
102
RTVSPost2010Prop55
280
     0
102
RTVSPost2010PropOp55
 70
     1
102
RTVSPost2010Prop56
140
1.0
102
RTVSPost2010PropOp56
 70
     1
102
RTVSPost2010Prop57
140
1.0
102
RTVSPost2010PropOp57
 70
     1
  0
XRECORD
  5
377
102
{ACAD_REACTORS
330
376
102
}
330
376
100
AcDbXrecord
280
     1
102
RTVSPost2010Prop28
280
     0
102
RTVSPost2010PropOp28
 70
     1
102
RTVSPost2010Prop29
280
     1
102
RTVSPost2010PropOp29
 70
     1
102
RTVSPost2010Prop30
280
     1
102
RTVSPost2010PropOp30
 70
     1
102
RTVSPost2010Prop31
280
     0
102
RTVSPost2010PropOp31
 70
     1
102
RTVSPost2010Prop32
280
     0
102
RTVSPost2010PropOp32
 70
     1
102
RTVSPost2010Prop33
280
     0
102
RTVSPost2010PropOp33
 70
     1
102
RTVSPost2010Prop34
280
     0
102
RTVSPost2010PropOp34
 70
     1
102
RTVSPost2010Prop35
280
     0
102
RTVSPost2010PropOp35
 70
     1
102
RTVSPost2010Prop36
280
     0
102
RTVSPost2010PropOp36
 70
     1
102
RTVSPost2010Prop37
 90
       50
102
RTVSPost2010PropOp37
 70
     1
102
RTVSPost2010Prop38
140
0.0
102
RTVSPost2010PropOp38
 70
     1
102
RTVSPost2010Prop39
140
1.0
102
RTVSPost2010PropOp39
 70
     1
102
RTVSPost2010Prop40
 90
        0
102
RTVSPost2010PropOp40
 70
     1
102
RTVSPost2010Prop41ColorIndex
 90
       18
102
RTVSPost2010Prop41ColorRGB
 90
        0
102
RTVSPost2010PropOp41
 70
     1
102
RTVSPost2010Prop42
 90
       50
102
RTVSPost2010PropOp42
 70
     1
102
RTVSPost2010Prop43
 90
        3
102
RTVSPost2010PropOp43
 70
     1
102
RTVSPost2010Prop44ColorIndex
 90
        5
102
RTVSPost2010Prop44ColorRGB
 90
      255
102
RTVSPost2010PropOp44
 70
     1
102
RTVSPost2010Prop45
280
     0
102
RTVSPost2010PropOp45
 70
     1
102
RTVSPost2010Prop46
 90
       50
102
RTVSPost2010PropOp46
 70
     1
102
RTVSPost2010Prop47
 90
       50
102
RTVSPost2010PropOp47
 70
     1
102
RTVSPost2010Prop48
 90
       50
102
RTVSPost2010PropOp48
 70
     1
102
RTVSPost2010Prop49
280
     0
102
RTVSPost2010PropOp49
 70
     1
102
RTVSPost2010Prop50
 90
       50
102
RTVSPost2010PropOp50
 70
     1
102
RTVSPost2010Prop51ColorIndex
 90
      256
102
RTVSPost2010Prop51ColorRGB
 90
-16777216
102
RTVSPost2010PropOp51
 70
     0
102
RTVSPost2010Prop52
140
1.0
102
RTVSPost2010PropOp52
 70
     0
102
RTVSPost2010Prop53
 90
        2
102
RTVSPost2010PropOp53
 70
     1
102
RTVSPost2010Prop54
  1
strokes_ogs.tif
102
RTVSPost2010PropOp54
 70
     1
102
RTVSPost2010Prop55
280
     0
102
RTVSPost2010PropOp55
 70
     1
102
RTVSPost2010Prop56
140
1.0
102
RTVSPost2010PropOp56
 70
     1
102
RTVSPost2010Prop57
140
1.0
102
RTVSPost2010PropOp57
 70
     1
  0
XRECORD
  5
379
102
{ACAD_REACTORS
330
378
102
}
330
378
100
AcDbXrecord
280
     1
102
RTVSPost2010Prop28
280
     0
102
RTVSPost2010PropOp28
 70
     1
102
RTVSPost2010Prop29
280
     1
102
RTVSPost2010PropOp29
 70
     1
102
RTVSPost2010Prop30
280
     1
102
RTVSPost2010PropOp30
 70
     1
102
RTVSPost2010Prop31
280
     0
102
RTVSPost2010PropOp31
 70
     1
102
RTVSPost2010Prop32
280
     0
102
RTVSPost2010PropOp32
 70
     1
102
RTVSPost2010Prop33
280
     0
102
RTVSPost2010PropOp33
 70
     1
102
RTVSPost2010Prop34
280
     0
102
RTVSPost2010PropOp34
 70
     1
102
RTVSPost2010Prop35
280
     0
102
RTVSPost2010PropOp35
 70
     1
102
RTVSPost2010Prop36
280
     0
102
RTVSPost2010PropOp36
 70
     1
102
RTVSPost2010Prop37
 90
       50
102
RTVSPost2010PropOp37
 70
     1
102
RTVSPost2010Prop38
140
0.0
102
RTVSPost2010PropOp38
 70
     1
102
RTVSPost2010Prop39
140
1.0
102
RTVSPost2010PropOp39
 70
     1
102
RTVSPost2010Prop40
 90
        0
102
RTVSPost2010PropOp40
 70
     1
102
RTVSPost2010Prop41ColorIndex
 90
       18
102
RTVSPost2010Prop41ColorRGB
 90
        0
102
RTVSPost2010PropOp41
 70
     1
102
RTVSPost2010Prop42
 90
       50
102
RTVSPost2010PropOp42
 70
     1
102
RTVSPost2010Prop43
 90
        3
102
RTVSPost2010PropOp43
 70
     1
102
RTVSPost2010Prop44ColorIndex
 90
        5
102
RTVSPost2010Prop44ColorRGB
 90
      255
102
RTVSPost2010PropOp44
 70
     1
102
RTVSPost2010Prop45
280
     0
102
RTVSPost2010PropOp45
 70
     1
102
RTVSPost2010Prop46
 90
       50
102
RTVSPost2010PropOp46
 70
     1
102
RTVSPost2010Prop47
 90
       50
102
RTVSPost2010PropOp47
 70
     1
102
RTVSPost2010Prop48
 90
       50
102
RTVSPost2010PropOp48
 70
     1
102
RTVSPost2010Prop49
280
     0
102
RTVSPost2010PropOp49
 70
     1
102
RTVSPost2010Prop50
 90
       50
102
RTVSPost2010PropOp50
 70
     1
102
RTVSPost2010Prop51ColorIndex
 90
      256
102
RTVSPost2010Prop51ColorRGB
 90
-16777216
102
RTVSPost2010PropOp51
 70
     0
102
RTVSPost2010Prop52
140
1.0
102
RTVSPost2010PropOp52
 70
     0
102
RTVSPost2010Prop53
 90
        2
102
RTVSPost2010PropOp53
 70
     1
102
RTVSPost2010Prop54
  1
strokes_ogs.tif
102
RTVSPost2010PropOp54
 70
     1
102
RTVSPost2010Prop55
280
     0
102
RTVSPost2010PropOp55
 70
     1
102
RTVSPost2010Prop56
140
1.0
102
RTVSPost2010PropOp56
 70
     1
102
RTVSPost2010Prop57
140
1.0
102
RTVSPost2010PropOp57
 70
     1
  0
XRECORD
  5
389
102
{ACAD_REACTORS
330
388
102
}
330
388
100
AcDbXrecord
280
     1
102
RTVSPost2010Prop28
280
     0
102
RTVSPost2010PropOp28
 70
     0
102
RTVSPost2010Prop29
280
     1
102
RTVSPost2010PropOp29
 70
     0
102
RTVSPost2010Prop30
280
     1
102
RTVSPost2010PropOp30
 70
     0
102
RTVSPost2010Prop31
280
     0
102
RTVSPost2010PropOp31
 70
     0
102
RTVSPost2010Prop32
280
     0
102
RTVSPost2010PropOp32
 70
     0
102
RTVSPost2010Prop33
280
     0
102
RTVSPost2010PropOp33
 70
     0
102
RTVSPost2010Prop34
280
     0
102
RTVSPost2010PropOp34
 70
     0
102
RTVSPost2010Prop35
280
     0
102
RTVSPost2010PropOp35
 70
     0
102
RTVSPost2010Prop36
280
     0
102
RTVSPost2010PropOp36
 70
     0
102
RTVSPost2010Prop37
 90
       50
102
RTVSPost2010PropOp37
 70
     0
102
RTVSPost2010Prop38
140
0.0
102
RTVSPost2010PropOp38
 70
     0
102
RTVSPost2010Prop39
140
1.0
102
RTVSPost2010PropOp39
 70
     0
102
RTVSPost2010Prop40
 90
        0
102
RTVSPost2010PropOp40
 70
     0
102
RTVSPost2010Prop41ColorIndex
 90
       18
102
RTVSPost2010Prop41ColorRGB
 90
        0
102
RTVSPost2010PropOp41
 70
     0
102
RTVSPost2010Prop42
 90
       50
102
RTVSPost2010PropOp42
 70
     0
102
RTVSPost2010Prop43
 90
        3
102
RTVSPost2010PropOp43
 70
     0
102
RTVSPost2010Prop44ColorIndex
 90
        5
102
RTVSPost2010Prop44ColorRGB
 90
      255
102
RTVSPost2010PropOp44
 70
     0
102
RTVSPost2010Prop45
280
     0
102
RTVSPost2010PropOp45
 70
     0
102
RTVSPost2010Prop46
 90
       50
102
RTVSPost2010PropOp46
 70
     0
102
RTVSPost2010Prop47
 90
       50
102
RTVSPost2010PropOp47
 70
     0
102
RTVSPost2010Prop48
 90
       50
102
RTVSPost2010PropOp48
 70
     0
102
RTVSPost2010Prop49
280
     0
102
RTVSPost2010PropOp49
 70
     0
102
RTVSPost2010Prop50
 90
       50
102
RTVSPost2010PropOp50
 70
     0
102
RTVSPost2010Prop51ColorIndex
 90
      256
102
RTVSPost2010Prop51ColorRGB
 90
-16777216
102
RTVSPost2010PropOp51
 70
     0
102
RTVSPost2010Prop52
140
1.0
102
RTVSPost2010PropOp52
 70
     0
102
RTVSPost2010Prop53
 90
        2
102
RTVSPost2010PropOp53
 70
     0
102
RTVSPost2010Prop54
  1
strokes_ogs.tif
102
RTVSPost2010PropOp54
 70
     0
102
RTVSPost2010Prop55
280
     0
102
RTVSPost2010PropOp55
 70
     0
102
RTVSPost2010Prop56
140
1.0
102
RTVSPost2010PropOp56
 70
     0
102
RTVSPost2010Prop57
140
1.0
102
RTVSPost2010PropOp57
 70
     0
  0
XRECORD
  5
381
102
{ACAD_REACTORS
330
380
102
}
330
380
100
AcDbXrecord
280
     1
102
RTVSPost2010Prop28
280
     0
102
RTVSPost2010PropOp28
 70
     1
102
RTVSPost2010Prop29
280
     1
102
RTVSPost2010PropOp29
 70
     1
102
RTVSPost2010Prop30
280
     1
102
RTVSPost2010PropOp30
 70
     1
102
RTVSPost2010Prop31
280
     0
102
RTVSPost2010PropOp31
 70
     1
102
RTVSPost2010Prop32
280
     0
102
RTVSPost2010PropOp32
 70
     1
102
RTVSPost2010Prop33
280
     0
102
RTVSPost2010PropOp33
 70
     1
102
RTVSPost2010Prop34
280
     0
102
RTVSPost2010PropOp34
 70
     1
102
RTVSPost2010Prop35
280
     0
102
RTVSPost2010PropOp35
 70
     1
102
RTVSPost2010Prop36
280
     0
102
RTVSPost2010PropOp36
 70
     1
102
RTVSPost2010Prop37
 90
       50
102
RTVSPost2010PropOp37
 70
     1
102
RTVSPost2010Prop38
140
0.0
102
RTVSPost2010PropOp38
 70
     1
102
RTVSPost2010Prop39
140
1.0
102
RTVSPost2010PropOp39
 70
     1
102
RTVSPost2010Prop40
 90
        0
102
RTVSPost2010PropOp40
 70
     1
102
RTVSPost2010Prop41ColorIndex
 90
       18
102
RTVSPost2010Prop41ColorRGB
 90
        0
102
RTVSPost2010PropOp41
 70
     1
102
RTVSPost2010Prop42
 90
       50
102
RTVSPost2010PropOp42
 70
     1
102
RTVSPost2010Prop43
 90
        3
102
RTVSPost2010PropOp43
 70
     1
102
RTVSPost2010Prop44ColorIndex
 90
        5
102
RTVSPost2010Prop44ColorRGB
 90
      255
102
RTVSPost2010PropOp44
 70
     1
102
RTVSPost2010Prop45
280
     0
102
RTVSPost2010PropOp45
 70
     1
102
RTVSPost2010Prop46
 90
       50
102
RTVSPost2010PropOp46
 70
     1
102
RTVSPost2010Prop47
 90
       50
102
RTVSPost2010PropOp47
 70
     1
102
RTVSPost2010Prop48
 90
       50
102
RTVSPost2010PropOp48
 70
     1
102
RTVSPost2010Prop49
280
     0
102
RTVSPost2010PropOp49
 70
     1
102
RTVSPost2010Prop50
 90
       50
102
RTVSPost2010PropOp50
 70
     1
102
RTVSPost2010Prop51ColorIndex
 90
      256
102
RTVSPost2010Prop51ColorRGB
 90
-16777216
102
RTVSPost2010PropOp51
 70
     0
102
RTVSPost2010Prop52
140
1.0
102
RTVSPost2010PropOp52
 70
     0
102
RTVSPost2010Prop53
 90
        2
102
RTVSPost2010PropOp53
 70
     1
102
RTVSPost2010Prop54
  1
strokes_ogs.tif
102
RTVSPost2010PropOp54
 70
     1
102
RTVSPost2010Prop55
280
     0
102
RTVSPost2010PropOp55
 70
     1
102
RTVSPost2010Prop56
140
1.0
102
RTVSPost2010PropOp56
 70
     1
102
RTVSPost2010Prop57
140
1.0
102
RTVSPost2010PropOp57
 70
     1
  0
XRECORD
  5
365
102
{ACAD_REACTORS
330
364
102
}
330
364
100
AcDbXrecord
280
     1
102
RTVSPost2010Prop28
280
     0
102
RTVSPost2010PropOp28
 70
     1
102
RTVSPost2010Prop29
280
     1
102
RTVSPost2010PropOp29
 70
     1
102
RTVSPost2010Prop30
280
     1
102
RTVSPost2010PropOp30
 70
     1
102
RTVSPost2010Prop31
280
     0
102
RTVSPost2010PropOp31
 70
     1
102
RTVSPost2010Prop32
280
     0
102
RTVSPost2010PropOp32
 70
     1
102
RTVSPost2010Prop33
280
     0
102
RTVSPost2010PropOp33
 70
     1
102
RTVSPost2010Prop34
280
     0
102
RTVSPost2010PropOp34
 70
     1
102
RTVSPost2010Prop35
280
     0
102
RTVSPost2010PropOp35
 70
     1
102
RTVSPost2010Prop36
280
     0
102
RTVSPost2010PropOp36
 70
     1
102
RTVSPost2010Prop37
 90
       50
102
RTVSPost2010PropOp37
 70
     1
102
RTVSPost2010Prop38
140
0.0
102
RTVSPost2010PropOp38
 70
     1
102
RTVSPost2010Prop39
140
1.0
102
RTVSPost2010PropOp39
 70
     1
102
RTVSPost2010Prop40
 90
        0
102
RTVSPost2010PropOp40
 70
     1
102
RTVSPost2010Prop41ColorIndex
 90
       18
102
RTVSPost2010Prop41ColorRGB
 90
        0
102
RTVSPost2010PropOp41
 70
     1
102
RTVSPost2010Prop42
 90
       50
102
RTVSPost2010PropOp42
 70
     1
102
RTVSPost2010Prop43
 90
        3
102
RTVSPost2010PropOp43
 70
     1
102
RTVSPost2010Prop44ColorIndex
 90
        5
102
RTVSPost2010Prop44ColorRGB
 90
      255
102
RTVSPost2010PropOp44
 70
     1
102
RTVSPost2010Prop45
280
     0
102
RTVSPost2010PropOp45
 70
     1
102
RTVSPost2010Prop46
 90
       50
102
RTVSPost2010PropOp46
 70
     1
102
RTVSPost2010Prop47
 90
       50
102
RTVSPost2010PropOp47
 70
     1
102
RTVSPost2010Prop48
 90
       50
102
RTVSPost2010PropOp48
 70
     1
102
RTVSPost2010Prop49
280
     0
102
RTVSPost2010PropOp49
 70
     1
102
RTVSPost2010Prop50
 90
       50
102
RTVSPost2010PropOp50
 70
     1
102
RTVSPost2010Prop51ColorIndex
 90
      256
102
RTVSPost2010Prop51ColorRGB
 90
-16777216
102
RTVSPost2010PropOp51
 70
     0
102
RTVSPost2010Prop52
140
1.0
102
RTVSPost2010PropOp52
 70
     0
102
RTVSPost2010Prop53
 90
        2
102
RTVSPost2010PropOp53
 70
     1
102
RTVSPost2010Prop54
  1
strokes_ogs.tif
102
RTVSPost2010PropOp54
 70
     1
102
RTVSPost2010Prop55
280
     0
102
RTVSPost2010PropOp55
 70
     1
102
RTVSPost2010Prop56
140
1.0
102
RTVSPost2010PropOp56
 70
     1
102
RTVSPost2010Prop57
140
1.0
102
RTVSPost2010PropOp57
 70
     1
  0
XRECORD
  5
367
102
{ACAD_REACTORS
330
366
102
}
330
366
100
AcDbXrecord
280
     1
102
RTVSPost2010Prop28
280
     0
102
RTVSPost2010PropOp28
 70
     1
102
RTVSPost2010Prop29
280
     1
102
RTVSPost2010PropOp29
 70
     1
102
RTVSPost2010Prop30
280
     1
102
RTVSPost2010PropOp30
 70
     1
102
RTVSPost2010Prop31
280
     0
102
RTVSPost2010PropOp31
 70
     1
102
RTVSPost2010Prop32
280
     0
102
RTVSPost2010PropOp32
 70
     1
102
RTVSPost2010Prop33
280
     0
102
RTVSPost2010PropOp33
 70
     1
102
RTVSPost2010Prop34
280
     0
102
RTVSPost2010PropOp34
 70
     1
102
RTVSPost2010Prop35
280
     0
102
RTVSPost2010PropOp35
 70
     1
102
RTVSPost2010Prop36
280
     0
102
RTVSPost2010PropOp36
 70
     1
102
RTVSPost2010Prop37
 90
       50
102
RTVSPost2010PropOp37
 70
     1
102
RTVSPost2010Prop38
140
0.0
102
RTVSPost2010PropOp38
 70
     1
102
RTVSPost2010Prop39
140
1.0
102
RTVSPost2010PropOp39
 70
     1
102
RTVSPost2010Prop40
 90
        0
102
RTVSPost2010PropOp40
 70
     1
102
RTVSPost2010Prop41ColorIndex
 90
       18
102
RTVSPost2010Prop41ColorRGB
 90
        0
102
RTVSPost2010PropOp41
 70
     1
102
RTVSPost2010Prop42
 90
       50
102
RTVSPost2010PropOp42
 70
     1
102
RTVSPost2010Prop43
 90
        3
102
RTVSPost2010PropOp43
 70
     1
102
RTVSPost2010Prop44ColorIndex
 90
        5
102
RTVSPost2010Prop44ColorRGB
 90
      255
102
RTVSPost2010PropOp44
 70
     1
102
RTVSPost2010Prop45
280
     0
102
RTVSPost2010PropOp45
 70
     1
102
RTVSPost2010Prop46
 90
       50
102
RTVSPost2010PropOp46
 70
     1
102
RTVSPost2010Prop47
 90
       50
102
RTVSPost2010PropOp47
 70
     1
102
RTVSPost2010Prop48
 90
       50
102
RTVSPost2010PropOp48
 70
     1
102
RTVSPost2010Prop49
280
     0
102
RTVSPost2010PropOp49
 70
     1
102
RTVSPost2010Prop50
 90
       50
102
RTVSPost2010PropOp50
 70
     1
102
RTVSPost2010Prop51ColorIndex
 90
      256
102
RTVSPost2010Prop51ColorRGB
 90
-16777216
102
RTVSPost2010PropOp51
 70
     0
102
RTVSPost2010Prop52
140
1.0
102
RTVSPost2010PropOp52
 70
     0
102
RTVSPost2010Prop53
 90
        2
102
RTVSPost2010PropOp53
 70
     1
102
RTVSPost2010Prop54
  1
strokes_ogs.tif
102
RTVSPost2010PropOp54
 70
     1
102
RTVSPost2010Prop55
280
     0
102
RTVSPost2010PropOp55
 70
     1
102
RTVSPost2010Prop56
140
1.0
102
RTVSPost2010PropOp56
 70
     1
102
RTVSPost2010Prop57
140
1.0
102
RTVSPost2010PropOp57
 70
     1
  0
XRECORD
  5
369
102
{ACAD_REACTORS
330
368
102
}
330
368
100
AcDbXrecord
280
     1
102
RTVSPost2010Prop28
280
     0
102
RTVSPost2010PropOp28
 70
     1
102
RTVSPost2010Prop29
280
     1
102
RTVSPost2010PropOp29
 70
     1
102
RTVSPost2010Prop30
280
     1
102
RTVSPost2010PropOp30
 70
     1
102
RTVSPost2010Prop31
280
     0
102
RTVSPost2010PropOp31
 70
     1
102
RTVSPost2010Prop32
280
     0
102
RTVSPost2010PropOp32
 70
     1
102
RTVSPost2010Prop33
280
     0
102
RTVSPost2010PropOp33
 70
     1
102
RTVSPost2010Prop34
280
     0
102
RTVSPost2010PropOp34
 70
     1
102
RTVSPost2010Prop35
280
     0
102
RTVSPost2010PropOp35
 70
     1
102
RTVSPost2010Prop36
280
     0
102
RTVSPost2010PropOp36
 70
     1
102
RTVSPost2010Prop37
 90
       50
102
RTVSPost2010PropOp37
 70
     1
102
RTVSPost2010Prop38
140
0.0
102
RTVSPost2010PropOp38
 70
     1
102
RTVSPost2010Prop39
140
1.0
102
RTVSPost2010PropOp39
 70
     1
102
RTVSPost2010Prop40
 90
        0
102
RTVSPost2010PropOp40
 70
     1
102
RTVSPost2010Prop41ColorIndex
 90
       18
102
RTVSPost2010Prop41ColorRGB
 90
        0
102
RTVSPost2010PropOp41
 70
     1
102
RTVSPost2010Prop42
 90
       50
102
RTVSPost2010PropOp42
 70
     1
102
RTVSPost2010Prop43
 90
        3
102
RTVSPost2010PropOp43
 70
     1
102
RTVSPost2010Prop44ColorIndex
 90
        5
102
RTVSPost2010Prop44ColorRGB
 90
      255
102
RTVSPost2010PropOp44
 70
     1
102
RTVSPost2010Prop45
280
     0
102
RTVSPost2010PropOp45
 70
     1
102
RTVSPost2010Prop46
 90
       50
102
RTVSPost2010PropOp46
 70
     1
102
RTVSPost2010Prop47
 90
       50
102
RTVSPost2010PropOp47
 70
     1
102
RTVSPost2010Prop48
 90
       50
102
RTVSPost2010PropOp48
 70
     1
102
RTVSPost2010Prop49
280
     0
102
RTVSPost2010PropOp49
 70
     1
102
RTVSPost2010Prop50
 90
       50
102
RTVSPost2010PropOp50
 70
     1
102
RTVSPost2010Prop51ColorIndex
 90
      256
102
RTVSPost2010Prop51ColorRGB
 90
-16777216
102
RTVSPost2010PropOp51
 70
     0
102
RTVSPost2010Prop52
140
1.0
102
RTVSPost2010PropOp52
 70
     0
102
RTVSPost2010Prop53
 90
        2
102
RTVSPost2010PropOp53
 70
     1
102
RTVSPost2010Prop54
  1
strokes_ogs.tif
102
RTVSPost2010PropOp54
 70
     1
102
RTVSPost2010Prop55
280
     0
102
RTVSPost2010PropOp55
 70
     1
102
RTVSPost2010Prop56
140
1.0
102
RTVSPost2010PropOp56
 70
     1
102
RTVSPost2010Prop57
140
1.0
102
RTVSPost2010PropOp57
 70
     1
  0
XRECORD
  5
36B
102
{ACAD_REACTORS
330
36A
102
}
330
36A
100
AcDbXrecord
280
     1
102
RTVSPost2010Prop28
280
     0
102
RTVSPost2010PropOp28
 70
     1
102
RTVSPost2010Prop29
280
     1
102
RTVSPost2010PropOp29
 70
     1
102
RTVSPost2010Prop30
280
     1
102
RTVSPost2010PropOp30
 70
     1
102
RTVSPost2010Prop31
280
     0
102
RTVSPost2010PropOp31
 70
     1
102
RTVSPost2010Prop32
280
     0
102
RTVSPost2010PropOp32
 70
     1
102
RTVSPost2010Prop33
280
     0
102
RTVSPost2010PropOp33
 70
     1
102
RTVSPost2010Prop34
280
     0
102
RTVSPost2010PropOp34
 70
     1
102
RTVSPost2010Prop35
280
     0
102
RTVSPost2010PropOp35
 70
     1
102
RTVSPost2010Prop36
280
     0
102
RTVSPost2010PropOp36
 70
     1
102
RTVSPost2010Prop37
 90
       50
102
RTVSPost2010PropOp37
 70
     1
102
RTVSPost2010Prop38
140
0.0
102
RTVSPost2010PropOp38
 70
     1
102
RTVSPost2010Prop39
140
1.0
102
RTVSPost2010PropOp39
 70
     1
102
RTVSPost2010Prop40
 90
        0
102
RTVSPost2010PropOp40
 70
     1
102
RTVSPost2010Prop41ColorIndex
 90
       18
102
RTVSPost2010Prop41ColorRGB
 90
        0
102
RTVSPost2010PropOp41
 70
     1
102
RTVSPost2010Prop42
 90
       50
102
RTVSPost2010PropOp42
 70
     1
102
RTVSPost2010Prop43
 90
        3
102
RTVSPost2010PropOp43
 70
     1
102
RTVSPost2010Prop44ColorIndex
 90
        5
102
RTVSPost2010Prop44ColorRGB
 90
      255
102
RTVSPost2010PropOp44
 70
     1
102
RTVSPost2010Prop45
280
     0
102
RTVSPost2010PropOp45
 70
     1
102
RTVSPost2010Prop46
 90
       50
102
RTVSPost2010PropOp46
 70
     1
102
RTVSPost2010Prop47
 90
       50
102
RTVSPost2010PropOp47
 70
     1
102
RTVSPost2010Prop48
 90
       50
102
RTVSPost2010PropOp48
 70
     1
102
RTVSPost2010Prop49
280
     0
102
RTVSPost2010PropOp49
 70
     1
102
RTVSPost2010Prop50
 90
       50
102
RTVSPost2010PropOp50
 70
     1
102
RTVSPost2010Prop51ColorIndex
 90
      256
102
RTVSPost2010Prop51ColorRGB
 90
-16777216
102
RTVSPost2010PropOp51
 70
     0
102
RTVSPost2010Prop52
140
1.0
102
RTVSPost2010PropOp52
 70
     0
102
RTVSPost2010Prop53
 90
        2
102
RTVSPost2010PropOp53
 70
     1
102
RTVSPost2010Prop54
  1
strokes_ogs.tif
102
RTVSPost2010PropOp54
 70
     1
102
RTVSPost2010Prop55
280
     0
102
RTVSPost2010PropOp55
 70
     1
102
RTVSPost2010Prop56
140
1.0
102
RTVSPost2010PropOp56
 70
     1
102
RTVSPost2010Prop57
140
1.0
102
RTVSPost2010PropOp57
 70
     1
  0
XRECORD
  5
371
102
{ACAD_REACTORS
330
370
102
}
330
370
100
AcDbXrecord
280
     1
102
RTVSPost2010Prop28
280
     0
102
RTVSPost2010PropOp28
 70
     1
102
RTVSPost2010Prop29
280
     1
102
RTVSPost2010PropOp29
 70
     1
102
RTVSPost2010Prop30
280
     1
102
RTVSPost2010PropOp30
 70
     1
102
RTVSPost2010Prop31
280
     0
102
RTVSPost2010PropOp31
 70
     1
102
RTVSPost2010Prop32
280
     0
102
RTVSPost2010PropOp32
 70
     1
102
RTVSPost2010Prop33
280
     0
102
RTVSPost2010PropOp33
 70
     1
102
RTVSPost2010Prop34
280
     0
102
RTVSPost2010PropOp34
 70
     1
102
RTVSPost2010Prop35
280
     0
102
RTVSPost2010PropOp35
 70
     1
102
RTVSPost2010Prop36
280
     0
102
RTVSPost2010PropOp36
 70
     1
102
RTVSPost2010Prop37
 90
       50
102
RTVSPost2010PropOp37
 70
     1
102
RTVSPost2010Prop38
140
0.0
102
RTVSPost2010PropOp38
 70
     1
102
RTVSPost2010Prop39
140
1.0
102
RTVSPost2010PropOp39
 70
     1
102
RTVSPost2010Prop40
 90
        0
102
RTVSPost2010PropOp40
 70
     1
102
RTVSPost2010Prop41ColorIndex
 90
       18
102
RTVSPost2010Prop41ColorRGB
 90
        0
102
RTVSPost2010PropOp41
 70
     1
102
RTVSPost2010Prop42
 90
       50
102
RTVSPost2010PropOp42
 70
     1
102
RTVSPost2010Prop43
 90
        3
102
RTVSPost2010PropOp43
 70
     1
102
RTVSPost2010Prop44ColorIndex
 90
        5
102
RTVSPost2010Prop44ColorRGB
 90
      255
102
RTVSPost2010PropOp44
 70
     1
102
RTVSPost2010Prop45
280
     0
102
RTVSPost2010PropOp45
 70
     1
102
RTVSPost2010Prop46
 90
       50
102
RTVSPost2010PropOp46
 70
     1
102
RTVSPost2010Prop47
 90
       50
102
RTVSPost2010PropOp47
 70
     1
102
RTVSPost2010Prop48
 90
       50
102
RTVSPost2010PropOp48
 70
     1
102
RTVSPost2010Prop49
280
     0
102
RTVSPost2010PropOp49
 70
     1
102
RTVSPost2010Prop50
 90
       50
102
RTVSPost2010PropOp50
 70
     1
102
RTVSPost2010Prop51ColorIndex
 90
      256
102
RTVSPost2010Prop51ColorRGB
 90
-16777216
102
RTVSPost2010PropOp51
 70
     0
102
RTVSPost2010Prop52
140
1.0
102
RTVSPost2010PropOp52
 70
     0
102
RTVSPost2010Prop53
 90
        2
102
RTVSPost2010PropOp53
 70
     1
102
RTVSPost2010Prop54
  1
strokes_ogs.tif
102
RTVSPost2010PropOp54
 70
     1
102
RTVSPost2010Prop55
280
     0
102
RTVSPost2010PropOp55
 70
     1
102
RTVSPost2010Prop56
140
1.0
102
RTVSPost2010PropOp56
 70
     1
102
RTVSPost2010Prop57
140
1.0
102
RTVSPost2010PropOp57
 70
     1
  0
XRECORD
  5
385
102
{ACAD_REACTORS
330
384
102
}
330
384
100
AcDbXrecord
280
     1
102
RTVSPost2010Prop28
280
     0
102
RTVSPost2010PropOp28
 70
     0
102
RTVSPost2010Prop29
280
     1
102
RTVSPost2010PropOp29
 70
     0
102
RTVSPost2010Prop30
280
     1
102
RTVSPost2010PropOp30
 70
     0
102
RTVSPost2010Prop31
280
     0
102
RTVSPost2010PropOp31
 70
     0
102
RTVSPost2010Prop32
280
     0
102
RTVSPost2010PropOp32
 70
     0
102
RTVSPost2010Prop33
280
     0
102
RTVSPost2010PropOp33
 70
     0
102
RTVSPost2010Prop34
280
     0
102
RTVSPost2010PropOp34
 70
     0
102
RTVSPost2010Prop35
280
     0
102
RTVSPost2010PropOp35
 70
     0
102
RTVSPost2010Prop36
280
     0
102
RTVSPost2010PropOp36
 70
     0
102
RTVSPost2010Prop37
 90
       50
102
RTVSPost2010PropOp37
 70
     0
102
RTVSPost2010Prop38
140
0.0
102
RTVSPost2010PropOp38
 70
     0
102
RTVSPost2010Prop39
140
1.0
102
RTVSPost2010PropOp39
 70
     0
102
RTVSPost2010Prop40
 90
        0
102
RTVSPost2010PropOp40
 70
     0
102
RTVSPost2010Prop41ColorIndex
 90
       18
102
RTVSPost2010Prop41ColorRGB
 90
        0
102
RTVSPost2010PropOp41
 70
     0
102
RTVSPost2010Prop42
 90
       50
102
RTVSPost2010PropOp42
 70
     0
102
RTVSPost2010Prop43
 90
        3
102
RTVSPost2010PropOp43
 70
     0
102
RTVSPost2010Prop44ColorIndex
 90
        5
102
RTVSPost2010Prop44ColorRGB
 90
      255
102
RTVSPost2010PropOp44
 70
     0
102
RTVSPost2010Prop45
280
     0
102
RTVSPost2010PropOp45
 70
     0
102
RTVSPost2010Prop46
 90
       50
102
RTVSPost2010PropOp46
 70
     0
102
RTVSPost2010Prop47
 90
       50
102
RTVSPost2010PropOp47
 70
     0
102
RTVSPost2010Prop48
 90
       50
102
RTVSPost2010PropOp48
 70
     0
102
RTVSPost2010Prop49
280
     0
102
RTVSPost2010PropOp49
 70
     0
102
RTVSPost2010Prop50
 90
       50
102
RTVSPost2010PropOp50
 70
     0
102
RTVSPost2010Prop51ColorIndex
 90
      256
102
RTVSPost2010Prop51ColorRGB
 90
-16777216
102
RTVSPost2010PropOp51
 70
     0
102
RTVSPost2010Prop52
140
1.0
102
RTVSPost2010PropOp52
 70
     0
102
RTVSPost2010Prop53
 90
        2
102
RTVSPost2010PropOp53
 70
     0
102
RTVSPost2010Prop54
  1
strokes_ogs.tif
102
RTVSPost2010PropOp54
 70
     0
102
RTVSPost2010Prop55
280
     0
102
RTVSPost2010PropOp55
 70
     0
102
RTVSPost2010Prop56
140
1.0
102
RTVSPost2010PropOp56
 70
     0
102
RTVSPost2010Prop57
140
1.0
102
RTVSPost2010PropOp57
 70
     0
  0
XRECORD
  5
37F
102
{ACAD_REACTORS
330
37E
102
}
330
37E
100
AcDbXrecord
280
     1
102
RTVSPost2010Prop28
280
     0
102
RTVSPost2010PropOp28
 70
     1
102
RTVSPost2010Prop29
280
     1
102
RTVSPost2010PropOp29
 70
     1
102
RTVSPost2010Prop30
280
     1
102
RTVSPost2010PropOp30
 70
     1
102
RTVSPost2010Prop31
280
     0
102
RTVSPost2010PropOp31
 70
     1
102
RTVSPost2010Prop32
280
     0
102
RTVSPost2010PropOp32
 70
     1
102
RTVSPost2010Prop33
280
     0
102
RTVSPost2010PropOp33
 70
     1
102
RTVSPost2010Prop34
280
     0
102
RTVSPost2010PropOp34
 70
     1
102
RTVSPost2010Prop35
280
     0
102
RTVSPost2010PropOp35
 70
     1
102
RTVSPost2010Prop36
280
     0
102
RTVSPost2010PropOp36
 70
     1
102
RTVSPost2010Prop37
 90
       50
102
RTVSPost2010PropOp37
 70
     1
102
RTVSPost2010Prop38
140
0.0
102
RTVSPost2010PropOp38
 70
     1
102
RTVSPost2010Prop39
140
1.0
102
RTVSPost2010PropOp39
 70
     1
102
RTVSPost2010Prop40
 90
        0
102
RTVSPost2010PropOp40
 70
     1
102
RTVSPost2010Prop41ColorIndex
 90
       18
102
RTVSPost2010Prop41ColorRGB
 90
        0
102
RTVSPost2010PropOp41
 70
     1
102
RTVSPost2010Prop42
 90
       50
102
RTVSPost2010PropOp42
 70
     1
102
RTVSPost2010Prop43
 90
        3
102
RTVSPost2010PropOp43
 70
     1
102
RTVSPost2010Prop44ColorIndex
 90
        5
102
RTVSPost2010Prop44ColorRGB
 90
      255
102
RTVSPost2010PropOp44
 70
     1
102
RTVSPost2010Prop45
280
     0
102
RTVSPost2010PropOp45
 70
     1
102
RTVSPost2010Prop46
 90
       50
102
RTVSPost2010PropOp46
 70
     1
102
RTVSPost2010Prop47
 90
       50
102
RTVSPost2010PropOp47
 70
     1
102
RTVSPost2010Prop48
 90
       50
102
RTVSPost2010PropOp48
 70
     1
102
RTVSPost2010Prop49
280
     0
102
RTVSPost2010PropOp49
 70
     1
102
RTVSPost2010Prop50
 90
       50
102
RTVSPost2010PropOp50
 70
     1
102
RTVSPost2010Prop51ColorIndex
 90
      256
102
RTVSPost2010Prop51ColorRGB
 90
-16777216
102
RTVSPost2010PropOp51
 70
     0
102
RTVSPost2010Prop52
140
1.0
102
RTVSPost2010PropOp52
 70
     0
102
RTVSPost2010Prop53
 90
        2
102
RTVSPost2010PropOp53
 70
     1
102
RTVSPost2010Prop54
  1
strokes_ogs.tif
102
RTVSPost2010PropOp54
 70
     1
102
RTVSPost2010Prop55
280
     0
102
RTVSPost2010PropOp55
 70
     1
102
RTVSPost2010Prop56
140
1.0
102
RTVSPost2010PropOp56
 70
     1
102
RTVSPost2010Prop57
140
1.0
102
RTVSPost2010PropOp57
 70
     1
  0
XRECORD
  5
387
102
{ACAD_REACTORS
330
386
102
}
330
386
100
AcDbXrecord
280
     1
102
RTVSPost2010Prop28
280
     0
102
RTVSPost2010PropOp28
 70
     0
102
RTVSPost2010Prop29
280
     1
102
RTVSPost2010PropOp29
 70
     0
102
RTVSPost2010Prop30
280
     1
102
RTVSPost2010PropOp30
 70
     0
102
RTVSPost2010Prop31
280
     0
102
RTVSPost2010PropOp31
 70
     0
102
RTVSPost2010Prop32
280
     0
102
RTVSPost2010PropOp32
 70
     0
102
RTVSPost2010Prop33
280
     0
102
RTVSPost2010PropOp33
 70
     0
102
RTVSPost2010Prop34
280
     0
102
RTVSPost2010PropOp34
 70
     0
102
RTVSPost2010Prop35
280
     0
102
RTVSPost2010PropOp35
 70
     0
102
RTVSPost2010Prop36
280
     0
102
RTVSPost2010PropOp36
 70
     0
102
RTVSPost2010Prop37
 90
       50
102
RTVSPost2010PropOp37
 70
     0
102
RTVSPost2010Prop38
140
0.0
102
RTVSPost2010PropOp38
 70
     0
102
RTVSPost2010Prop39
140
1.0
102
RTVSPost2010PropOp39
 70
     0
102
RTVSPost2010Prop40
 90
        0
102
RTVSPost2010PropOp40
 70
     0
102
RTVSPost2010Prop41ColorIndex
 90
       18
102
RTVSPost2010Prop41ColorRGB
 90
        0
102
RTVSPost2010PropOp41
 70
     0
102
RTVSPost2010Prop42
 90
       50
102
RTVSPost2010PropOp42
 70
     0
102
RTVSPost2010Prop43
 90
        3
102
RTVSPost2010PropOp43
 70
     0
102
RTVSPost2010Prop44ColorIndex
 90
        5
102
RTVSPost2010Prop44ColorRGB
 90
      255
102
RTVSPost2010PropOp44
 70
     0
102
RTVSPost2010Prop45
280
     0
102
RTVSPost2010PropOp45
 70
     0
102
RTVSPost2010Prop46
 90
       50
102
RTVSPost2010PropOp46
 70
     0
102
RTVSPost2010Prop47
 90
       50
102
RTVSPost2010PropOp47
 70
     0
102
RTVSPost2010Prop48
 90
       50
102
RTVSPost2010PropOp48
 70
     0
102
RTVSPost2010Prop49
280
     0
102
RTVSPost2010PropOp49
 70
     0
102
RTVSPost2010Prop50
 90
       50
102
RTVSPost2010PropOp50
 70
     0
102
RTVSPost2010Prop51ColorIndex
 90
      256
102
RTVSPost2010Prop51ColorRGB
 90
-16777216
102
RTVSPost2010PropOp51
 70
     0
102
RTVSPost2010Prop52
140
1.0
102
RTVSPost2010PropOp52
 70
     0
102
RTVSPost2010Prop53
 90
        2
102
RTVSPost2010PropOp53
 70
     0
102
RTVSPost2010Prop54
  1
strokes_ogs.tif
102
RTVSPost2010PropOp54
 70
     0
102
RTVSPost2010Prop55
280
     0
102
RTVSPost2010PropOp55
 70
     0
102
RTVSPost2010Prop56
140
1.0
102
RTVSPost2010PropOp56
 70
     0
102
RTVSPost2010Prop57
140
1.0
102
RTVSPost2010PropOp57
 70
     0
  0
XRECORD
  5
375
102
{ACAD_REACTORS
330
374
102
}
330
374
100
AcDbXrecord
280
     1
102
RTVSPost2010Prop28
280
     0
102
RTVSPost2010PropOp28
 70
     1
102
RTVSPost2010Prop29
280
     1
102
RTVSPost2010PropOp29
 70
     1
102
RTVSPost2010Prop30
280
     1
102
RTVSPost2010PropOp30
 70
     1
102
RTVSPost2010Prop31
280
     0
102
RTVSPost2010PropOp31
 70
     1
102
RTVSPost2010Prop32
280
     0
102
RTVSPost2010PropOp32
 70
     1
102
RTVSPost2010Prop33
280
     0
102
RTVSPost2010PropOp33
 70
     1
102
RTVSPost2010Prop34
280
     0
102
RTVSPost2010PropOp34
 70
     1
102
RTVSPost2010Prop35
280
     0
102
RTVSPost2010PropOp35
 70
     1
102
RTVSPost2010Prop36
280
     0
102
RTVSPost2010PropOp36
 70
     1
102
RTVSPost2010Prop37
 90
       50
102
RTVSPost2010PropOp37
 70
     1
102
RTVSPost2010Prop38
140
0.0
102
RTVSPost2010PropOp38
 70
     1
102
RTVSPost2010Prop39
140
1.0
102
RTVSPost2010PropOp39
 70
     1
102
RTVSPost2010Prop40
 90
        0
102
RTVSPost2010PropOp40
 70
     1
102
RTVSPost2010Prop41ColorIndex
 90
       18
102
RTVSPost2010Prop41ColorRGB
 90
        0
102
RTVSPost2010PropOp41
 70
     1
102
RTVSPost2010Prop42
 90
       50
102
RTVSPost2010PropOp42
 70
     1
102
RTVSPost2010Prop43
 90
        3
102
RTVSPost2010PropOp43
 70
     1
102
RTVSPost2010Prop44ColorIndex
 90
        5
102
RTVSPost2010Prop44ColorRGB
 90
      255
102
RTVSPost2010PropOp44
 70
     1
102
RTVSPost2010Prop45
280
     0
102
RTVSPost2010PropOp45
 70
     1
102
RTVSPost2010Prop46
 90
       50
102
RTVSPost2010PropOp46
 70
     1
102
RTVSPost2010Prop47
 90
       50
102
RTVSPost2010PropOp47
 70
     1
102
RTVSPost2010Prop48
 90
       50
102
RTVSPost2010PropOp48
 70
     1
102
RTVSPost2010Prop49
280
     0
102
RTVSPost2010PropOp49
 70
     1
102
RTVSPost2010Prop50
 90
       50
102
RTVSPost2010PropOp50
 70
     1
102
RTVSPost2010Prop51ColorIndex
 90
      256
102
RTVSPost2010Prop51ColorRGB
 90
-16777216
102
RTVSPost2010PropOp51
 70
     0
102
RTVSPost2010Prop52
140
1.0
102
RTVSPost2010PropOp52
 70
     0
102
RTVSPost2010Prop53
 90
        2
102
RTVSPost2010PropOp53
 70
     1
102
RTVSPost2010Prop54
  1
strokes_ogs.tif
102
RTVSPost2010PropOp54
 70
     1
102
RTVSPost2010Prop55
280
     0
102
RTVSPost2010PropOp55
 70
     1
102
RTVSPost2010Prop56
140
1.0
102
RTVSPost2010PropOp56
 70
     1
102
RTVSPost2010Prop57
140
1.0
102
RTVSPost2010PropOp57
 70
     1
  0
XRECORD
  5
393
102
{ACAD_REACTORS
330
392
102
}
330
392
100
AcDbXrecord
280
     1
102
RTVSPost2010Prop28
280
     0
102
RTVSPost2010PropOp28
 70
     1
102
RTVSPost2010Prop29
280
     1
102
RTVSPost2010PropOp29
 70
     1
102
RTVSPost2010Prop30
280
     1
102
RTVSPost2010PropOp30
 70
     1
102
RTVSPost2010Prop31
280
     0
102
RTVSPost2010PropOp31
 70
     1
102
RTVSPost2010Prop32
280
     0
102
RTVSPost2010PropOp32
 70
     1
102
RTVSPost2010Prop33
280
     0
102
RTVSPost2010PropOp33
 70
     1
102
RTVSPost2010Prop34
280
     0
102
RTVSPost2010PropOp34
 70
     1
102
RTVSPost2010Prop35
280
     0
102
RTVSPost2010PropOp35
 70
     1
102
RTVSPost2010Prop36
280
     0
102
RTVSPost2010PropOp36
 70
     1
102
RTVSPost2010Prop37
 90
       50
102
RTVSPost2010PropOp37
 70
     1
102
RTVSPost2010Prop38
140
0.0
102
RTVSPost2010PropOp38
 70
     1
102
RTVSPost2010Prop39
140
1.0
102
RTVSPost2010PropOp39
 70
     1
102
RTVSPost2010Prop40
 90
        0
102
RTVSPost2010PropOp40
 70
     1
102
RTVSPost2010Prop41ColorIndex
 90
       18
102
RTVSPost2010Prop41ColorRGB
 90
        0
102
RTVSPost2010PropOp41
 70
     1
102
RTVSPost2010Prop42
 90
       50
102
RTVSPost2010PropOp42
 70
     1
102
RTVSPost2010Prop43
 90
        3
102
RTVSPost2010PropOp43
 70
     1
102
RTVSPost2010Prop44ColorIndex
 90
        5
102
RTVSPost2010Prop44ColorRGB
 90
      255
102
RTVSPost2010PropOp44
 70
     1
102
RTVSPost2010Prop45
280
     0
102
RTVSPost2010PropOp45
 70
     1
102
RTVSPost2010Prop46
 90
       50
102
RTVSPost2010PropOp46
 70
     1
102
RTVSPost2010Prop47
 90
       50
102
RTVSPost2010PropOp47
 70
     1
102
RTVSPost2010Prop48
 90
       50
102
RTVSPost2010PropOp48
 70
     1
102
RTVSPost2010Prop49
280
     0
102
RTVSPost2010PropOp49
 70
     1
102
RTVSPost2010Prop50
 90
       50
102
RTVSPost2010PropOp50
 70
     1
102
RTVSPost2010Prop51ColorIndex
 90
      256
102
RTVSPost2010Prop51ColorRGB
 90
-16777216
102
RTVSPost2010PropOp51
 70
     0
102
RTVSPost2010Prop52
140
1.0
102
RTVSPost2010PropOp52
 70
     0
102
RTVSPost2010Prop53
 90
        2
102
RTVSPost2010PropOp53
 70
     1
102
RTVSPost2010Prop54
  1
strokes_ogs.tif
102
RTVSPost2010PropOp54
 70
     1
102
RTVSPost2010Prop55
280
     0
102
RTVSPost2010PropOp55
 70
     1
102
RTVSPost2010Prop56
140
1.0
102
RTVSPost2010PropOp56
 70
     1
102
RTVSPost2010Prop57
140
1.0
102
RTVSPost2010PropOp57
 70
     1
  0
XRECORD
  5
391
102
{ACAD_REACTORS
330
390
102
}
330
390
100
AcDbXrecord
280
     1
102
RTVSPost2010Prop28
280
     0
102
RTVSPost2010PropOp28
 70
     1
102
RTVSPost2010Prop29
280
     1
102
RTVSPost2010PropOp29
 70
     1
102
RTVSPost2010Prop30
280
     1
102
RTVSPost2010PropOp30
 70
     1
102
RTVSPost2010Prop31
280
     0
102
RTVSPost2010PropOp31
 70
     1
102
RTVSPost2010Prop32
280
     0
102
RTVSPost2010PropOp32
 70
     1
102
RTVSPost2010Prop33
280
     0
102
RTVSPost2010PropOp33
 70
     1
102
RTVSPost2010Prop34
280
     0
102
RTVSPost2010PropOp34
 70
     1
102
RTVSPost2010Prop35
280
     0
102
RTVSPost2010PropOp35
 70
     1
102
RTVSPost2010Prop36
280
     0
102
RTVSPost2010PropOp36
 70
     1
102
RTVSPost2010Prop37
 90
       50
102
RTVSPost2010PropOp37
 70
     1
102
RTVSPost2010Prop38
140
0.0
102
RTVSPost2010PropOp38
 70
     1
102
RTVSPost2010Prop39
140
1.0
102
RTVSPost2010PropOp39
 70
     1
102
RTVSPost2010Prop40
 90
        0
102
RTVSPost2010PropOp40
 70
     1
102
RTVSPost2010Prop41ColorIndex
 90
       18
102
RTVSPost2010Prop41ColorRGB
 90
        0
102
RTVSPost2010PropOp41
 70
     1
102
RTVSPost2010Prop42
 90
       50
102
RTVSPost2010PropOp42
 70
     1
102
RTVSPost2010Prop43
 90
        3
102
RTVSPost2010PropOp43
 70
     1
102
RTVSPost2010Prop44ColorIndex
 90
        5
102
RTVSPost2010Prop44ColorRGB
 90
      255
102
RTVSPost2010PropOp44
 70
     1
102
RTVSPost2010Prop45
280
     0
102
RTVSPost2010PropOp45
 70
     1
102
RTVSPost2010Prop46
 90
       50
102
RTVSPost2010PropOp46
 70
     1
102
RTVSPost2010Prop47
 90
       50
102
RTVSPost2010PropOp47
 70
     1
102
RTVSPost2010Prop48
 90
       50
102
RTVSPost2010PropOp48
 70
     1
102
RTVSPost2010Prop49
280
     0
102
RTVSPost2010PropOp49
 70
     1
102
RTVSPost2010Prop50
 90
       50
102
RTVSPost2010PropOp50
 70
     1
102
RTVSPost2010Prop51ColorIndex
 90
      256
102
RTVSPost2010Prop51ColorRGB
 90
-16777216
102
RTVSPost2010PropOp51
 70
     0
102
RTVSPost2010Prop52
140
1.0
102
RTVSPost2010PropOp52
 70
     0
102
RTVSPost2010Prop53
 90
        2
102
RTVSPost2010PropOp53
 70
     1
102
RTVSPost2010Prop54
  1
strokes_ogs.tif
102
RTVSPost2010PropOp54
 70
     1
102
RTVSPost2010Prop55
280
     0
102
RTVSPost2010PropOp55
 70
     1
102
RTVSPost2010Prop56
140
1.0
102
RTVSPost2010PropOp56
 70
     1
102
RTVSPost2010Prop57
140
1.0
102
RTVSPost2010PropOp57
 70
     1
  0
XRECORD
  5
38B
102
{ACAD_REACTORS
330
38A
102
}
330
38A
100
AcDbXrecord
280
     1
102
RTVSPost2010Prop28
280
     0
102
RTVSPost2010PropOp28
 70
     1
102
RTVSPost2010Prop29
280
     1
102
RTVSPost2010PropOp29
 70
     1
102
RTVSPost2010Prop30
280
     1
102
RTVSPost2010PropOp30
 70
     1
102
RTVSPost2010Prop31
280
     0
102
RTVSPost2010PropOp31
 70
     1
102
RTVSPost2010Prop32
280
     0
102
RTVSPost2010PropOp32
 70
     1
102
RTVSPost2010Prop33
280
     0
102
RTVSPost2010PropOp33
 70
     1
102
RTVSPost2010Prop34
280
     0
102
RTVSPost2010PropOp34
 70
     1
102
RTVSPost2010Prop35
280
     0
102
RTVSPost2010PropOp35
 70
     1
102
RTVSPost2010Prop36
280
     0
102
RTVSPost2010PropOp36
 70
     1
102
RTVSPost2010Prop37
 90
       50
102
RTVSPost2010PropOp37
 70
     1
102
RTVSPost2010Prop38
140
0.0
102
RTVSPost2010PropOp38
 70
     1
102
RTVSPost2010Prop39
140
1.0
102
RTVSPost2010PropOp39
 70
     1
102
RTVSPost2010Prop40
 90
        0
102
RTVSPost2010PropOp40
 70
     1
102
RTVSPost2010Prop41ColorIndex
 90
       18
102
RTVSPost2010Prop41ColorRGB
 90
        0
102
RTVSPost2010PropOp41
 70
     1
102
RTVSPost2010Prop42
 90
       50
102
RTVSPost2010PropOp42
 70
     1
102
RTVSPost2010Prop43
 90
        3
102
RTVSPost2010PropOp43
 70
     1
102
RTVSPost2010Prop44ColorIndex
 90
        5
102
RTVSPost2010Prop44ColorRGB
 90
      255
102
RTVSPost2010PropOp44
 70
     1
102
RTVSPost2010Prop45
280
     0
102
RTVSPost2010PropOp45
 70
     1
102
RTVSPost2010Prop46
 90
       50
102
RTVSPost2010PropOp46
 70
     1
102
RTVSPost2010Prop47
 90
       50
102
RTVSPost2010PropOp47
 70
     1
102
RTVSPost2010Prop48
 90
       50
102
RTVSPost2010PropOp48
 70
     1
102
RTVSPost2010Prop49
280
     0
102
RTVSPost2010PropOp49
 70
     1
102
RTVSPost2010Prop50
 90
       50
102
RTVSPost2010PropOp50
 70
     1
102
RTVSPost2010Prop51ColorIndex
 90
      256
102
RTVSPost2010Prop51ColorRGB
 90
-16777216
102
RTVSPost2010PropOp51
 70
     0
102
RTVSPost2010Prop52
140
1.0
102
RTVSPost2010PropOp52
 70
     0
102
RTVSPost2010Prop53
 90
        2
102
RTVSPost2010PropOp53
 70
     1
102
RTVSPost2010Prop54
  1
strokes_ogs.tif
102
RTVSPost2010PropOp54
 70
     1
102
RTVSPost2010Prop55
280
     0
102
RTVSPost2010PropOp55
 70
     1
102
RTVSPost2010Prop56
140
1.0
102
RTVSPost2010PropOp56
 70
     1
102
RTVSPost2010Prop57
140
1.0
102
RTVSPost2010PropOp57
 70
     1
  0
XRECORD
  5
38D
102
{ACAD_REACTORS
330
38C
102
}
330
38C
100
AcDbXrecord
280
     1
102
RTVSPost2010Prop28
280
     0
102
RTVSPost2010PropOp28
 70
     1
102
RTVSPost2010Prop29
280
     1
102
RTVSPost2010PropOp29
 70
     1
102
RTVSPost2010Prop30
280
     1
102
RTVSPost2010PropOp30
 70
     1
102
RTVSPost2010Prop31
280
     0
102
RTVSPost2010PropOp31
 70
     1
102
RTVSPost2010Prop32
280
     0
102
RTVSPost2010PropOp32
 70
     1
102
RTVSPost2010Prop33
280
     0
102
RTVSPost2010PropOp33
 70
     1
102
RTVSPost2010Prop34
280
     0
102
RTVSPost2010PropOp34
 70
     1
102
RTVSPost2010Prop35
280
     0
102
RTVSPost2010PropOp35
 70
     1
102
RTVSPost2010Prop36
280
     0
102
RTVSPost2010PropOp36
 70
     1
102
RTVSPost2010Prop37
 90
       50
102
RTVSPost2010PropOp37
 70
     1
102
RTVSPost2010Prop38
140
0.0
102
RTVSPost2010PropOp38
 70
     1
102
RTVSPost2010Prop39
140
1.0
102
RTVSPost2010PropOp39
 70
     1
102
RTVSPost2010Prop40
 90
        0
102
RTVSPost2010PropOp40
 70
     1
102
RTVSPost2010Prop41ColorIndex
 90
       18
102
RTVSPost2010Prop41ColorRGB
 90
        0
102
RTVSPost2010PropOp41
 70
     1
102
RTVSPost2010Prop42
 90
       50
102
RTVSPost2010PropOp42
 70
     1
102
RTVSPost2010Prop43
 90
        3
102
RTVSPost2010PropOp43
 70
     1
102
RTVSPost2010Prop44ColorIndex
 90
        5
102
RTVSPost2010Prop44ColorRGB
 90
      255
102
RTVSPost2010PropOp44
 70
     1
102
RTVSPost2010Prop45
280
     0
102
RTVSPost2010PropOp45
 70
     1
102
RTVSPost2010Prop46
 90
       50
102
RTVSPost2010PropOp46
 70
     1
102
RTVSPost2010Prop47
 90
       50
102
RTVSPost2010PropOp47
 70
     1
102
RTVSPost2010Prop48
 90
       50
102
RTVSPost2010PropOp48
 70
     1
102
RTVSPost2010Prop49
280
     0
102
RTVSPost2010PropOp49
 70
     1
102
RTVSPost2010Prop50
 90
       50
102
RTVSPost2010PropOp50
 70
     1
102
RTVSPost2010Prop51ColorIndex
 90
      256
102
RTVSPost2010Prop51ColorRGB
 90
-16777216
102
RTVSPost2010PropOp51
 70
     0
102
RTVSPost2010Prop52
140
1.0
102
RTVSPost2010PropOp52
 70
     0
102
RTVSPost2010Prop53
 90
        2
102
RTVSPost2010PropOp53
 70
     1
102
RTVSPost2010Prop54
  1
strokes_ogs.tif
102
RTVSPost2010PropOp54
 70
     1
102
RTVSPost2010Prop55
280
     0
102
RTVSPost2010PropOp55
 70
     1
102
RTVSPost2010Prop56
140
1.0
102
RTVSPost2010PropOp56
 70
     1
102
RTVSPost2010Prop57
140
1.0
102
RTVSPost2010PropOp57
 70
     1
  0
XRECORD
  5
37D
102
{ACAD_REACTORS
330
37C
102
}
330
37C
100
AcDbXrecord
280
     1
102
RTVSPost2010Prop28
280
     0
102
RTVSPost2010PropOp28
 70
     1
102
RTVSPost2010Prop29
280
     1
102
RTVSPost2010PropOp29
 70
     1
102
RTVSPost2010Prop30
280
     1
102
RTVSPost2010PropOp30
 70
     1
102
RTVSPost2010Prop31
280
     0
102
RTVSPost2010PropOp31
 70
     1
102
RTVSPost2010Prop32
280
     0
102
RTVSPost2010PropOp32
 70
     1
102
RTVSPost2010Prop33
280
     0
102
RTVSPost2010PropOp33
 70
     1
102
RTVSPost2010Prop34
280
     0
102
RTVSPost2010PropOp34
 70
     1
102
RTVSPost2010Prop35
280
     0
102
RTVSPost2010PropOp35
 70
     1
102
RTVSPost2010Prop36
280
     0
102
RTVSPost2010PropOp36
 70
     1
102
RTVSPost2010Prop37
 90
       50
102
RTVSPost2010PropOp37
 70
     1
102
RTVSPost2010Prop38
140
0.0
102
RTVSPost2010PropOp38
 70
     1
102
RTVSPost2010Prop39
140
1.0
102
RTVSPost2010PropOp39
 70
     1
102
RTVSPost2010Prop40
 90
        0
102
RTVSPost2010PropOp40
 70
     1
102
RTVSPost2010Prop41ColorIndex
 90
       18
102
RTVSPost2010Prop41ColorRGB
 90
        0
102
RTVSPost2010PropOp41
 70
     1
102
RTVSPost2010Prop42
 90
       50
102
RTVSPost2010PropOp42
 70
     1
102
RTVSPost2010Prop43
 90
        3
102
RTVSPost2010PropOp43
 70
     1
102
RTVSPost2010Prop44ColorIndex
 90
        5
102
RTVSPost2010Prop44ColorRGB
 90
      255
102
RTVSPost2010PropOp44
 70
     1
102
RTVSPost2010Prop45
280
     0
102
RTVSPost2010PropOp45
 70
     1
102
RTVSPost2010Prop46
 90
       50
102
RTVSPost2010PropOp46
 70
     1
102
RTVSPost2010Prop47
 90
       50
102
RTVSPost2010PropOp47
 70
     1
102
RTVSPost2010Prop48
 90
       50
102
RTVSPost2010PropOp48
 70
     1
102
RTVSPost2010Prop49
280
     0
102
RTVSPost2010PropOp49
 70
     1
102
RTVSPost2010Prop50
 90
       50
102
RTVSPost2010PropOp50
 70
     1
102
RTVSPost2010Prop51ColorIndex
 90
      256
102
RTVSPost2010Prop51ColorRGB
 90
-16777216
102
RTVSPost2010PropOp51
 70
     0
102
RTVSPost2010Prop52
140
1.0
102
RTVSPost2010PropOp52
 70
     0
102
RTVSPost2010Prop53
 90
        2
102
RTVSPost2010PropOp53
 70
     1
102
RTVSPost2010Prop54
  1
strokes_ogs.tif
102
RTVSPost2010PropOp54
 70
     1
102
RTVSPost2010Prop55
280
     0
102
RTVSPost2010PropOp55
 70
     1
102
RTVSPost2010Prop56
140
1.0
102
RTVSPost2010PropOp56
 70
     1
102
RTVSPost2010Prop57
140
1.0
102
RTVSPost2010PropOp57
 70
     1
  0
XRECORD
  5
36F
102
{ACAD_REACTORS
330
36E
102
}
330
36E
100
AcDbXrecord
280
     1
102
RTVSPost2010Prop28
280
     0
102
RTVSPost2010PropOp28
 70
     1
102
RTVSPost2010Prop29
280
     1
102
RTVSPost2010PropOp29
 70
     1
102
RTVSPost2010Prop30
280
     1
102
RTVSPost2010PropOp30
 70
     1
102
RTVSPost2010Prop31
280
     0
102
RTVSPost2010PropOp31
 70
     1
102
RTVSPost2010Prop32
280
     0
102
RTVSPost2010PropOp32
 70
     1
102
RTVSPost2010Prop33
280
     0
102
RTVSPost2010PropOp33
 70
     1
102
RTVSPost2010Prop34
280
     0
102
RTVSPost2010PropOp34
 70
     1
102
RTVSPost2010Prop35
280
     0
102
RTVSPost2010PropOp35
 70
     1
102
RTVSPost2010Prop36
280
     0
102
RTVSPost2010PropOp36
 70
     1
102
RTVSPost2010Prop37
 90
       50
102
RTVSPost2010PropOp37
 70
     1
102
RTVSPost2010Prop38
140
0.0
102
RTVSPost2010PropOp38
 70
     1
102
RTVSPost2010Prop39
140
1.0
102
RTVSPost2010PropOp39
 70
     1
102
RTVSPost2010Prop40
 90
        0
102
RTVSPost2010PropOp40
 70
     1
102
RTVSPost2010Prop41ColorIndex
 90
       18
102
RTVSPost2010Prop41ColorRGB
 90
        0
102
RTVSPost2010PropOp41
 70
     1
102
RTVSPost2010Prop42
 90
       50
102
RTVSPost2010PropOp42
 70
     1
102
RTVSPost2010Prop43
 90
        3
102
RTVSPost2010PropOp43
 70
     1
102
RTVSPost2010Prop44ColorIndex
 90
        5
102
RTVSPost2010Prop44ColorRGB
 90
      255
102
RTVSPost2010PropOp44
 70
     1
102
RTVSPost2010Prop45
280
     0
102
RTVSPost2010PropOp45
 70
     1
102
RTVSPost2010Prop46
 90
       50
102
RTVSPost2010PropOp46
 70
     1
102
RTVSPost2010Prop47
 90
       50
102
RTVSPost2010PropOp47
 70
     1
102
RTVSPost2010Prop48
 90
       50
102
RTVSPost2010PropOp48
 70
     1
102
RTVSPost2010Prop49
280
     0
102
RTVSPost2010PropOp49
 70
     1
102
RTVSPost2010Prop50
 90
       50
102
RTVSPost2010PropOp50
 70
     1
102
RTVSPost2010Prop51ColorIndex
 90
      256
102
RTVSPost2010Prop51ColorRGB
 90
-16777216
102
RTVSPost2010PropOp51
 70
     0
102
RTVSPost2010Prop52
140
1.0
102
RTVSPost2010PropOp52
 70
     0
102
RTVSPost2010Prop53
 90
        2
102
RTVSPost2010PropOp53
 70
     1
102
RTVSPost2010Prop54
  1
strokes_ogs.tif
102
RTVSPost2010PropOp54
 70
     1
102
RTVSPost2010Prop55
280
     0
102
RTVSPost2010PropOp55
 70
     1
102
RTVSPost2010Prop56
140
1.0
102
RTVSPost2010PropOp56
 70
     1
102
RTVSPost2010Prop57
140
1.0
102
RTVSPost2010PropOp57
 70
     1
  0
XRECORD
  5
38F
102
{ACAD_REACTORS
330
38E
102
}
330
38E
100
AcDbXrecord
280
     1
102
RTVSPost2010Prop28
280
     0
102
RTVSPost2010PropOp28
 70
     1
102
RTVSPost2010Prop29
280
     1
102
RTVSPost2010PropOp29
 70
     1
102
RTVSPost2010Prop30
280
     1
102
RTVSPost2010PropOp30
 70
     1
102
RTVSPost2010Prop31
280
     0
102
RTVSPost2010PropOp31
 70
     1
102
RTVSPost2010Prop32
280
     0
102
RTVSPost2010PropOp32
 70
     1
102
RTVSPost2010Prop33
280
     0
102
RTVSPost2010PropOp33
 70
     1
102
RTVSPost2010Prop34
280
     0
102
RTVSPost2010PropOp34
 70
     1
102
RTVSPost2010Prop35
280
     0
102
RTVSPost2010PropOp35
 70
     1
102
RTVSPost2010Prop36
280
     0
102
RTVSPost2010PropOp36
 70
     1
102
RTVSPost2010Prop37
 90
       50
102
RTVSPost2010PropOp37
 70
     1
102
RTVSPost2010Prop38
140
0.0
102
RTVSPost2010PropOp38
 70
     1
102
RTVSPost2010Prop39
140
1.0
102
RTVSPost2010PropOp39
 70
     1
102
RTVSPost2010Prop40
 90
        0
102
RTVSPost2010PropOp40
 70
     1
102
RTVSPost2010Prop41ColorIndex
 90
       18
102
RTVSPost2010Prop41ColorRGB
 90
        0
102
RTVSPost2010PropOp41
 70
     1
102
RTVSPost2010Prop42
 90
       50
102
RTVSPost2010PropOp42
 70
     1
102
RTVSPost2010Prop43
 90
        3
102
RTVSPost2010PropOp43
 70
     1
102
RTVSPost2010Prop44ColorIndex
 90
        5
102
RTVSPost2010Prop44ColorRGB
 90
      255
102
RTVSPost2010PropOp44
 70
     1
102
RTVSPost2010Prop45
280
     0
102
RTVSPost2010PropOp45
 70
     1
102
RTVSPost2010Prop46
 90
       50
102
RTVSPost2010PropOp46
 70
     1
102
RTVSPost2010Prop47
 90
       50
102
RTVSPost2010PropOp47
 70
     1
102
RTVSPost2010Prop48
 90
       50
102
RTVSPost2010PropOp48
 70
     1
102
RTVSPost2010Prop49
280
     0
102
RTVSPost2010PropOp49
 70
     1
102
RTVSPost2010Prop50
 90
       50
102
RTVSPost2010PropOp50
 70
     1
102
RTVSPost2010Prop51ColorIndex
 90
      256
102
RTVSPost2010Prop51ColorRGB
 90
-16777216
102
RTVSPost2010PropOp51
 70
     0
102
RTVSPost2010Prop52
140
1.0
102
RTVSPost2010PropOp52
 70
     0
102
RTVSPost2010Prop53
 90
        2
102
RTVSPost2010PropOp53
 70
     1
102
RTVSPost2010Prop54
  1
strokes_ogs.tif
102
RTVSPost2010PropOp54
 70
     1
102
RTVSPost2010Prop55
280
     0
102
RTVSPost2010PropOp55
 70
     1
102
RTVSPost2010Prop56
140
1.0
102
RTVSPost2010PropOp56
 70
     1
102
RTVSPost2010Prop57
140
1.0
102
RTVSPost2010PropOp57
 70
     1
  0
ENDSEC
  0
EOF
