  0
SECTION
  2
HEADER
  9
$ACADVER
  1
AC1024
  9
$ACADMAINTVER
 70
     6
  9
$DWGCODEPAGE
  3
ANSI_1252
  9
$INSBASE
 10
0.0
 20
0.0
 30
0.0
  9
$EXTMIN
 10
1.000000E+20
 20
1.000000E+20
 30
1.000000E+20
  9
$EXTMAX
 10
-1.000000E+20
 20
-1.000000E+20
 30
-1.000000E+20
  9
$LIMMIN
 10
0.0
 20
0.0
  9
$LIMMAX
 10
420.0
 20
297.0
  9
$ORTHOMODE
 70
     0
  9
$REGENMODE
 70
     1
  9
$FILLMODE
 70
     1
  9
$QTEXTMODE
 70
     0
  9
$MIRRTEXT
 70
     1
  9
$LTSCALE
 40
1.0
  9
$ATTMODE
 70
     1
  9
$TEXTSIZE
 40
2.5
  9
$TRACEWID
 40
1.0
  9
$TEXTSTYLE
  7
Standard
  9
$CLAYER
  8
0
  9
$CELTYPE
  6
ByLayer
  9
$CECOLOR
 62
   256
  9
$CELTSCALE
 40
1.0
  9
$DISPSILH
 70
     0
  9
$DIMSCALE
 40
1.0
  9
$DIMASZ
 40
2.5
  9
$DIMEXO
 40
0.625
  9
$DIMDLI
 40
3.75
  9
$DIMRND
 40
0.0
  9
$DIMDLE
 40
0.0
  9
$DIMEXE
 40
1.25
  9
$DIMTP
 40
0.0
  9
$DIMTM
 40
0.0
  9
$DIMTXT
 40
2.5
  9
$DIMCEN
 40
2.5
  9
$DIMTSZ
 40
0.0
  9
$DIMTOL
 70
     0
  9
$DIMLIM
 70
     0
  9
$DIMTIH
 70
     0
  9
$DIMTOH
 70
     0
  9
$DIMSE1
 70
     0
  9
$DIMSE2
 70
     0
  9
$DIMTAD
 70
     1
  9
$DIMZIN
 70
     8
  9
$DIMBLK
  1

  9
$DIMASO
 70
     1
  9
$DIMSHO
 70
     1
  9
$DIMPOST
  1

  9
$DIMAPOST
  1

  9
$DIMALT
 70
     0
  9
$DIMALTD
 70
     3
  9
$DIMALTF
 40
0.03937
  9
$DIMLFAC
 40
1.0
  9
$DIMTOFL
 70
     1
  9
$DIMTVP
 40
0.0
  9
$DIMTIX
 70
     0
  9
$DIMSOXD
 70
     0
  9
$DIMSAH
 70
     0
  9
$DIMBLK1
  1

  9
$DIMBLK2
  1

  9
$DIMSTYLE
  2
ISO-25
  9
$DIMCLRD
 70
     0
  9
$DIMCLRE
 70
     0
  9
$DIMCLRT
 70
     0
  9
$DIMTFAC
 40
1.0
  9
$DIMGAP
 40
0.625
  9
$DIMJUST
 70
     0
  9
$DIMSD1
 70
     0
  9
$DIMSD2
 70
     0
  9
$DIMTOLJ
 70
     0
  9
$DIMTZIN
 70
     8
  9
$DIMALTZ
 70
     0
  9
$DIMALTTZ
 70
     0
  9
$DIMUPT
 70
     0
  9
$DIMDEC
 70
     2
  9
$DIMTDEC
 70
     2
  9
$DIMALTU
 70
     2
  9
$DIMALTTD
 70
     3
  9
$DIMTXSTY
  7
Standard
  9
$DIMAUNIT
 70
     0
  9
$DIMADEC
 70
     0
  9
$DIMALTRND
 40
0.0
  9
$DIMAZIN
 70
     0
  9
$DIMDSEP
 70
    44
  9
$DIMATFIT
 70
     3
  9
$DIMFRAC
 70
     0
  9
$DIMLDRBLK
  1

  9
$DIMLUNIT
 70
     2
  9
$DIMLWD
 70
    -2
  9
$DIMLWE
 70
    -2
  9
$DIMTMOVE
 70
     0
  9
$DIMFXL
 40
1.0
  9
$DIMFXLON
 70
     0
  9
$DIMJOGANG
 40
0.785398
  9
$DIMTFILL
 70
     0
  9
$DIMTFILLCLR
 70
     0
  9
$DIMARCSYM
 70
     0
  9
$DIMLTYPE
  6

  9
$DIMLTEX1
  6

  9
$DIMLTEX2
  6

  9
$DIMTXTDIRECTION
 70
     0
  9
$LUNITS
 70
     2
  9
$LUPREC
 70
     4
  9
$SKETCHINC
 40
1.0
  9
$FILLETRAD
 40
10.0
  9
$AUNITS
 70
     0
  9
$AUPREC
 70
     0
  9
$MENU
  1
.
  9
$ELEVATION
 40
0.0
  9
$PELEVATION
 40
0.0
  9
$THICKNESS
 40
0.0
  9
$LIMCHECK
 70
     0
  9
$CHAMFERA
 40
0.0
  9
$CHAMFERB
 40
0.0
  9
$CHAMFERC
 40
0.0
  9
$CHAMFERD
 40
0.0
  9
$SKPOLY
 70
     0
  9
$TDCREATE
 40
2458638.481218634
  9
$TDUCREATE
 40
2458638.397885301
  9
$TDUPDATE
 40
2458638.481219271
  9
$TDUUPDATE
 40
2458638.397885938
  9
$TDINDWG
 40
0.0000000116
  9
$TDUSRTIMER
 40
0.0000000116
  9
$USRTIMER
 70
     1
  9
$ANGBASE
 50
0.0
  9
$ANGDIR
 70
     0
  9
$PDMODE
 70
     0
  9
$PDSIZE
 40
0.0
  9
$PLINEWID
 40
0.0
  9
$SPLFRAME
 70
     0
  9
$SPLINETYPE
 70
     6
  9
$SPLINESEGS
 70
     8
  9
$HANDSEED
  5
2A0
  9
$SURFTAB1
 70
     6
  9
$SURFTAB2
 70
     6
  9
$SURFTYPE
 70
     6
  9
$SURFU
 70
     6
  9
$SURFV
 70
     6
  9
$UCSBASE
  2

  9
$UCSNAME
  2

  9
$UCSORG
 10
0.0
 20
0.0
 30
0.0
  9
$UCSXDIR
 10
1.0
 20
0.0
 30
0.0
  9
$UCSYDIR
 10
0.0
 20
1.0
 30
0.0
  9
$UCSORTHOREF
  2

  9
$UCSORTHOVIEW
 70
     0
  9
$UCSORGTOP
 10
0.0
 20
0.0
 30
0.0
  9
$UCSORGBOTTOM
 10
0.0
 20
0.0
 30
0.0
  9
$UCSORGLEFT
 10
0.0
 20
0.0
 30
0.0
  9
$UCSORGRIGHT
 10
0.0
 20
0.0
 30
0.0
  9
$UCSORGFRONT
 10
0.0
 20
0.0
 30
0.0
  9
$UCSORGBACK
 10
0.0
 20
0.0
 30
0.0
  9
$PUCSBASE
  2

  9
$PUCSNAME
  2

  9
$PUCSORG
 10
0.0
 20
0.0
 30
0.0
  9
$PUCSXDIR
 10
1.0
 20
0.0
 30
0.0
  9
$PUCSYDIR
 10
0.0
 20
1.0
 30
0.0
  9
$PUCSORTHOREF
  2

  9
$PUCSORTHOVIEW
 70
     0
  9
$PUCSORGTOP
 10
0.0
 20
0.0
 30
0.0
  9
$PUCSORGBOTTOM
 10
0.0
 20
0.0
 30
0.0
  9
$PUCSORGLEFT
 10
0.0
 20
0.0
 30
0.0
  9
$PUCSORGRIGHT
 10
0.0
 20
0.0
 30
0.0
  9
$PUCSORGFRONT
 10
0.0
 20
0.0
 30
0.0
  9
$PUCSORGBACK
 10
0.0
 20
0.0
 30
0.0
  9
$USERI1
 70
     0
  9
$USERI2
 70
     0
  9
$USERI3
 70
     0
  9
$USERI4
 70
     0
  9
$USERI5
 70
     0
  9
$USERR1
 40
0.0
  9
$USERR2
 40
0.0
  9
$USERR3
 40
0.0
  9
$USERR4
 40
0.0
  9
$USERR5
 40
0.0
  9
$WORLDVIEW
 70
     1
  9
$SHADEDGE
 70
     3
  9
$SHADEDIF
 70
    70
  9
$TILEMODE
 70
     1
  9
$MAXACTVP
 70
    64
  9
$PINSBASE
 10
0.0
 20
0.0
 30
0.0
  9
$PLIMCHECK
 70
     0
  9
$PEXTMIN
 10
1.000000E+20
 20
1.000000E+20
 30
1.000000E+20
  9
$PEXTMAX
 10
-1.000000E+20
 20
-1.000000E+20
 30
-1.000000E+20
  9
$PLIMMIN
 10
0.0
 20
0.0
  9
$PLIMMAX
 10
420.0
 20
297.0
  9
$UNITMODE
 70
     0
  9
$VISRETAIN
 70
     1
  9
$PLINEGEN
 70
     0
  9
$PSLTSCALE
 70
     1
  9
$TREEDEPTH
 70
  3020
  9
$CMLSTYLE
  2
Standard
  9
$CMLJUST
 70
     0
  9
$CMLSCALE
 40
20.0
  9
$PROXYGRAPHICS
 70
     1
  9
$MEASUREMENT
 70
     1
  9
$CELWEIGHT
370
    -1
  9
$ENDCAPS
280
     0
  9
$JOINSTYLE
280
     0
  9
$LWDISPLAY
290
     0
  9
$INSUNITS
 70
     4
  9
$HYPERLINKBASE
  1

  9
$STYLESHEET
  1

  9
$XEDIT
290
     1
  9
$CEPSNTYPE
380
     0
  9
$PSTYLEMODE
290
     1
  9
$FINGERPRINTGUID
  2
{6E1C4822-7EFF-46B0-8257-0DE641DF6B54}
  9
$VERSIONGUID
  2
{FAEB1C32-E019-11D5-929B-00C0DF256EC4}
  9
$EXTNAMES
290
     1
  9
$PSVPSCALE
 40
0.0
  9
$OLESTARTUP
290
     0
  9
$SORTENTS
280
   127
  9
$INDEXCTL
280
     0
  9
$HIDETEXT
280
     1
  9
$XCLIPFRAME
280
     2
  9
$HALOGAP
280
     0
  9
$OBSCOLOR
 70
   257
  9
$OBSLTYPE
280
     0
  9
$INTERSECTIONDISPLAY
280
     0
  9
$INTERSECTIONCOLOR
 70
   257
  9
$DIMASSOC
280
     2
  9
$PROJECTNAME
  1

  9
$CAMERADISPLAY
290
     0
  9
$LENSLENGTH
 40
50.0
  9
$CAMERAHEIGHT
 40
0.0
  9
$STEPSPERSEC
 40
2.0
  9
$STEPSIZE
 40
6.0
  9
$3DDWFPREC
 40
2.0
  9
$PSOLWIDTH
 40
5.0
  9
$PSOLHEIGHT
 40
80.0
  9
$LOFTANG1
 40
1.570796
  9
$LOFTANG2
 40
1.570796
  9
$LOFTMAG1
 40
0.0
  9
$LOFTMAG2
 40
0.0
  9
$LOFTPARAM
 70
     7
  9
$LOFTNORMALS
280
     1
  9
$LATITUDE
 40
37.795
  9
$LONGITUDE
 40
-122.394
  9
$NORTHDIRECTION
 40
0.0
  9
$TIMEZONE
 70
 -8000
  9
$LIGHTGLYPHDISPLAY
280
     1
  9
$TILEMODELIGHTSYNCH
280
     1
  9
$CMATERIAL
347
44
  9
$SOLIDHIST
280
     0
  9
$SHOWHIST
280
     1
  9
$DWFFRAME
280
     2
  9
$DGNFRAME
280
     2
  9
$REALWORLDSCALE
290
     1
  9
$INTERFERECOLOR
 62
   256
  9
$CSHADOW
280
     0
  9
$SHADOWPLANELOCATION
 40
0.0
  0
ENDSEC
  0
SECTION
  2
CLASSES
  0
CLASS
  1
ACDBDICTIONARYWDFLT
  2
AcDbDictionaryWithDefault
  3
ObjectDBX Classes
 90
        0
 91
        4
280
     0
281
     0
  0
CLASS
  1
VISUALSTYLE
  2
AcDbVisualStyle
  3
ObjectDBX Classes
 90
     4095
 91
        4
280
     0
281
     0
  0
CLASS
  1
MATERIAL
  2
AcDbMaterial
  3
ObjectDBX Classes
 90
     1153
 91
        4
280
     0
281
     0
  0
CLASS
  1
SCALE
  2
AcDbScale
  3
ObjectDBX Classes
 90
     1153
 91
        4
280
     0
281
     0
  0
CLASS
  1
TABLESTYLE
  2
AcDbTableStyle
  3
ObjectDBX Classes
 90
     4095
 91
        4
280
     0
281
     0
  0
CLASS
  1
MLEADERSTYLE
  2
AcDbMLeaderStyle
  3
ACDB_MLEADERSTYLE_CLASS
 90
     4095
 91
        4
280
     0
281
     0
  0
CLASS
  1
SUN
  2
AcDbSun
  3
SCENEOE
 90
     1153
 91
        4
280
     0
281
     0
  0
CLASS
  1
DICTIONARYVAR
  2
AcDbDictionaryVar
  3
ObjectDBX Classes
 90
        0
 91
        4
280
     0
281
     0
  0
CLASS
  1
CELLSTYLEMAP
  2
AcDbCellStyleMap
  3
ObjectDBX Classes
 90
     1152
 91
        4
280
     0
281
     0
  0
ENDSEC
  0
SECTION
  2
TABLES
  0
TABLE
  2
VPORT
  5
8
330
0
100
AcDbSymbolTable
 70
     1
  0
VPORT
  5
29
330
8
100
AcDbSymbolTableRecord
100
AcDbViewportTableRecord
  2
*Active
 70
     0
 10
0.0
 20
0.0
 11
1.0
 21
1.0
 12
344.186916
 22
148.5
 13
0.0
 23
0.0
 14
10.0
 24
10.0
 15
10.0
 25
10.0
 16
0.0
 26
0.0
 36
1.0
 17
0.0
 27
0.0
 37
0.0
 40
297.0
 41
1.972973
 42
50.0
 43
0.0
 44
0.0
 50
0.0
 51
0.0
 71
     0
 72
   100
 73
     1
 74
     3
 75
     0
 76
     0
 77
     0
 78
     0
281
     0
 65
     1
110
0.0
120
0.0
130
0.0
111
1.0
121
0.0
131
0.0
112
0.0
122
1.0
132
0.0
 79
     0
146
0.0
348
2F
 60
     3
 61
     5
292
     1
282
     1
141
0.0
142
0.0
 63
   250
361
6D
  0
ENDTAB
  0
TABLE
  2
LTYPE
  5
5
330
0
100
AcDbSymbolTable
 70
     1
  0
LTYPE
  5
14
330
5
100
AcDbSymbolTableRecord
100
AcDbLinetypeTableRecord
  2
ByBlock
 70
     0
  3

 72
    65
 73
     0
 40
0.0
  0
LTYPE
  5
15
330
5
100
AcDbSymbolTableRecord
100
AcDbLinetypeTableRecord
  2
ByLayer
 70
     0
  3

 72
    65
 73
     0
 40
0.0
  0
LTYPE
  5
16
330
5
100
AcDbSymbolTableRecord
100
AcDbLinetypeTableRecord
  2
Continuous
 70
     0
  3
Solid line
 72
    65
 73
     0
 40
0.0
  0
ENDTAB
  0
TABLE
  2
LAYER
  5
2
330
0
100
AcDbSymbolTable
 70
     1
  0
LAYER
  5
10
330
2
100
AcDbSymbolTableRecord
100
AcDbLayerTableRecord
  2
0
 70
     0
 62
   106
  6
Continuous
370
     0
390
F
347
46
  0
ENDTAB
  0
TABLE
  2
STYLE
  5
3
330
0
100
AcDbSymbolTable
 70
     4
  0
STYLE
  5
11
330
3
100
AcDbSymbolTableRecord
100
AcDbTextStyleTableRecord
  2
Standard
 70
     0
 40
0.0
 41
1.0
 50
0.0
 71
     0
 42
2.5
  3
txt
  4

  0
STYLE
  5
6E
330
3
100
AcDbSymbolTableRecord
100
AcDbTextStyleTableRecord
  2
Default
 70
     0
 40
0.0
 41
1.0
 50
0.0
 71
     0
 42
2.5
  3

  4

1001
ACAD
1000
txt
1071
        0
  0
STYLE
  5
6F
330
3
100
AcDbSymbolTableRecord
100
AcDbTextStyleTableRecord
  2
ISO
 70
     0
 40
0.0
 41
1.0
 50
0.0
 71
     0
 42
2.5
  3

  4

1001
ACAD
1000
txt
1071
        0
  0
STYLE
  5
70
330
3
100
AcDbSymbolTableRecord
100
AcDbTextStyleTableRecord
  2
zucchetti
 70
     0
 40
0.0
 41
1.0
 50
0.0
 71
     0
 42
2.5
  3

  4

1001
ACAD
1000
Arial
1071
        0
  0
ENDTAB
  0
TABLE
  2
VIEW
  5
6
330
0
100
AcDbSymbolTable
 70
     0
  0
ENDTAB
  0
TABLE
  2
UCS
  5
7
330
0
100
AcDbSymbolTable
 70
     0
  0
ENDTAB
  0
TABLE
  2
APPID
  5
9
330
0
100
AcDbSymbolTable
 70
     1
  0
APPID
  5
12
330
9
100
AcDbSymbolTableRecord
100
AcDbRegAppTableRecord
  2
ACAD
 70
     0
  0
ENDTAB
  0
TABLE
  2
DIMSTYLE
  5
A
330
0
100
AcDbSymbolTable
 70
     4
100
AcDbDimStyleTable
  0
DIMSTYLE
105
27
330
A
100
AcDbSymbolTableRecord
100
AcDbDimStyleTableRecord
  2
ISO-25
 70
     0
 41
2.5
 42
0.625
 43
3.75
 44
1.25
 73
     0
 74
     0
 77
     1
 78
     8
140
2.5
141
2.5
143
0.03937
147
0.625
171
     3
172
     1
178
     0
271
     2
272
     2
274
     3
278
    44
283
     0
284
     8
340
11
  0
DIMSTYLE
105
71
330
A
100
AcDbSymbolTableRecord
100
AcDbDimStyleTableRecord
  2
Default
 70
     0
  3
<>
 41
4.375
 42
1.05
 44
2.1
 49
10.01
 73
     0
 74
     0
 77
     1
 78
     8
140
3.5
146
0.4
147
1.75
172
     1
271
     2
178
     3
271
     2
272
     3
284
     8
340
6E
341
72
342
72
  0
DIMSTYLE
105
79
330
A
100
AcDbSymbolTableRecord
100
AcDbDimStyleTableRecord
  2
ISO
 70
     0
  3
<>
 41
4.375
 42
1.05
 44
2.1
 49
10.01
 73
     0
 74
     0
 77
     1
 78
     8
140
3.5
146
0.4
147
1.75
172
     1
271
     2
178
     3
271
     2
272
     3
284
     8
340
6F
341
72
342
72
  0
DIMSTYLE
105
7A
330
A
100
AcDbSymbolTableRecord
100
AcDbDimStyleTableRecord
  2
zucchetti
 70
     0
  3
<>
 41
3.0
 42
0.9
 44
1.8
 49
8.58
 73
     0
 74
     0
 77
     1
 78
     8
140
3.0
146
0.6
147
1.5
172
     1
176
     3
177
     3
271
     2
178
     3
271
     2
272
     2
284
     8
340
70
  0
ENDTAB
  0
TABLE
  2
BLOCK_RECORD
  5
1
330
0
100
AcDbSymbolTable
 70
     6
  0
BLOCK_RECORD
  5
1F
330
1
100
AcDbSymbolTableRecord
100
AcDbBlockTableRecord
  2
*Model_Space
340
22
 70
     0
280
     1
281
     0
  0
BLOCK_RECORD
  5
1B
330
1
100
AcDbSymbolTableRecord
100
AcDbBlockTableRecord
  2
*Paper_Space
340
1E
 70
     0
280
     1
281
     0
  0
BLOCK_RECORD
  5
23
330
1
100
AcDbSymbolTableRecord
100
AcDbBlockTableRecord
  2
*Paper_Space0
340
26
 70
     0
280
     1
281
     0
  0
BLOCK_RECORD
  5
72
330
1
100
AcDbSymbolTableRecord
100
AcDbBlockTableRecord
  2
_CLOSED
340
0
 70
     0
280
     1
281
     0
  0
BLOCK_RECORD
  5
7B
330
1
100
AcDbSymbolTableRecord
100
AcDbBlockTableRecord
  2
a
340
0
102
{BLKREFS
331
12E
102
}
 70
     0
280
     1
281
     0
  0
BLOCK_RECORD
  5
12F
330
1
100
AcDbSymbolTableRecord
100
AcDbBlockTableRecord
  2
b
340
0
102
{BLKREFS
331
18D
102
}
 70
     0
280
     1
281
     0
  0
BLOCK_RECORD
  5
18E
330
1
100
AcDbSymbolTableRecord
100
AcDbBlockTableRecord
  2
c
340
0
102
{BLKREFS
331
1F9
102
}
 70
     0
280
     1
281
     0
  0
BLOCK_RECORD
  5
1FA
330
1
100
AcDbSymbolTableRecord
100
AcDbBlockTableRecord
  2
d
340
0
102
{BLKREFS
331
266
102
}
 70
     0
280
     1
281
     0
  0
ENDTAB
  0
ENDSEC
  0
SECTION
  2
BLOCKS
  0
BLOCK
  5
20
330
1F
100
AcDbEntity
  8
0
100
AcDbBlockBegin
  2
*Model_Space
 70
     0
 10
0.0
 20
0.0
 30
0.0
  3
*Model_Space
  1

  0
ENDBLK
  5
21
330
1F
100
AcDbEntity
  8
0
100
AcDbBlockEnd
  0
BLOCK
  5
1C
330
1B
100
AcDbEntity
 67
     1
  8
0
100
AcDbBlockBegin
  2
*Paper_Space
 70
     0
 10
0.0
 20
0.0
 30
0.0
  3
*Paper_Space
  1

  0
ENDBLK
  5
1D
330
1B
100
AcDbEntity
 67
     1
  8
0
100
AcDbBlockEnd
  0
BLOCK
  5
24
330
23
100
AcDbEntity
  8
0
100
AcDbBlockBegin
  2
*Paper_Space0
 70
     0
 10
0.0
 20
0.0
 30
0.0
  3
*Paper_Space0
  1

  0
ENDBLK
  5
25
330
23
100
AcDbEntity
  8
0
100
AcDbBlockEnd
  0
BLOCK
  5
73
330
72
100
AcDbEntity
  8
0
100
AcDbBlockBegin
  2
_CLOSED
 70
     0
 10
0.0
 20
0.0
 30
0.0
  3
_CLOSED
  1

  0
LINE
  5
75
330
72
100
AcDbEntity
  8
0
  6
ByBlock
 62
     0
370
    -2
100
AcDbLine
 10
-1.0
 20
0.166667
 30
0.0
 11
0.0
 21
0.0
 31
0.0
  0
LINE
  5
76
330
72
100
AcDbEntity
  8
0
  6
ByBlock
 62
     0
370
    -2
100
AcDbLine
 10
0.0
 20
0.0
 30
0.0
 11
-1.0
 21
-0.166667
 31
0.0
  0
LINE
  5
77
330
72
100
AcDbEntity
  8
0
  6
ByBlock
 62
     0
370
    -2
100
AcDbLine
 10
-1.0
 20
0.166667
 30
0.0
 11
-1.0
 21
-0.166667
 31
0.0
  0
LINE
  5
78
330
72
100
AcDbEntity
  8
0
  6
ByBlock
 62
     0
370
    -2
100
AcDbLine
 10
0.0
 20
0.0
 30
0.0
 11
-1.0
 21
0.0
 31
0.0
  0
ENDBLK
  5
74
330
72
100
AcDbEntity
  8
0
100
AcDbBlockEnd
  0
BLOCK
  5
12C
330
7B
100
AcDbEntity
  8
0
100
AcDbBlockBegin
  2
a
 70
     0
 10
267.221527
 20
89.072235
 30
0.0
  3
a
  1

  0
ARC
  5
7C
330
7B
100
AcDbEntity
  8
0
  6
Continuous
 62
     0
370
     0
100
AcDbCircle
 10
396.094724
 20
352.206111
 30
0.0
 40
0.7000135584183457
100
AcDbArc
 50
270.001896
 51
359.998104
  0
LINE
  5
7D
330
7B
100
AcDbEntity
  8
0
  6
Continuous
 62
     0
370
     0
100
AcDbLine
 10
396.094747
 20
351.506097
 30
0.0
 11
396.148174
 21
351.45267
 31
0.0
  0
ARC
  5
7E
330
7B
100
AcDbEntity
  8
0
  6
Continuous
 62
     0
370
    30
100
AcDbCircle
 10
396.148771
 20
352.152064
 30
0.0
 40
0.6993937001774351
100
AcDbArc
 50
269.951097
 51
0.048903
  0
LINE
  5
7F
330
7B
100
AcDbEntity
  8
0
  6
Continuous
 62
     0
370
     0
100
AcDbLine
 10
396.848164
 20
352.152661
 30
0.0
 11
396.794737
 21
352.206087
 31
0.0
  0
LINE
  5
80
330
7B
100
AcDbEntity
  8
0
  6
Continuous
 62
     0
370
     0
100
AcDbLine
 10
295.987436
 20
352.206087
 30
0.0
 11
295.987436
 21
351.506097
 31
0.0
  0
LINE
  5
81
330
7B
100
AcDbEntity
  8
0
  6
Continuous
 62
     0
370
     0
100
AcDbLine
 10
295.987436
 20
351.506097
 30
0.0
 11
396.094747
 21
351.506097
 31
0.0
  0
LINE
  5
82
330
7B
100
AcDbEntity
  8
0
  6
Continuous
 62
     0
370
     0
100
AcDbLine
 10
396.094747
 20
351.506097
 30
0.0
 11
396.094747
 21
352.206087
 31
0.0
  0
LINE
  5
83
330
7B
100
AcDbEntity
  8
0
  6
Continuous
 62
     0
370
     0
100
AcDbLine
 10
396.094747
 20
352.206087
 30
0.0
 11
295.987436
 21
352.206087
 31
0.0
  0
LINE
  5
84
330
7B
100
AcDbEntity
  8
0
  6
Continuous
 62
     0
370
     0
100
AcDbLine
 10
396.094747
 20
469.313399
 30
0.0
 11
396.094747
 21
352.206087
 31
0.0
  0
LINE
  5
85
330
7B
100
AcDbEntity
  8
0
  6
Continuous
 62
     0
370
     0
100
AcDbLine
 10
396.094747
 20
352.206087
 30
0.0
 11
396.794737
 21
352.206087
 31
0.0
  0
LINE
  5
86
330
7B
100
AcDbEntity
  8
0
  6
Continuous
 62
     0
370
     0
100
AcDbLine
 10
396.794737
 20
352.206087
 30
0.0
 11
396.794737
 21
469.313399
 31
0.0
  0
LINE
  5
87
330
7B
100
AcDbEntity
  8
0
  6
Continuous
 62
     0
370
     0
100
AcDbLine
 10
396.794737
 20
469.313399
 30
0.0
 11
396.094747
 21
469.313399
 31
0.0
  0
LINE
  5
88
330
7B
100
AcDbEntity
  8
0
  6
Continuous
 62
     0
370
     0
100
AcDbLine
 10
396.794737
 20
469.313399
 30
0.0
 11
396.848164
 21
469.366825
 31
0.0
  0
ARC
  5
89
330
7B
100
AcDbEntity
  8
0
  6
Continuous
 62
     0
370
    30
100
AcDbCircle
 10
396.148771
 20
469.367422
 30
0.0
 40
0.699393700095118
100
AcDbArc
 50
359.951097
 51
90.048903
  0
LINE
  5
8A
330
7B
100
AcDbEntity
  8
0
  6
Continuous
 62
     0
370
     0
100
AcDbLine
 10
396.148174
 20
470.066816
 30
0.0
 11
396.094747
 21
470.013389
 31
0.0
  0
ARC
  5
8B
330
7B
100
AcDbEntity
  8
0
  6
Continuous
 62
     0
370
     0
100
AcDbCircle
 10
396.094724
 20
469.313375
 30
0.0
 40
0.7000135584171484
100
AcDbArc
 50
0.001896
 51
89.998104
  0
LINE
  5
8C
330
7B
100
AcDbEntity
  8
0
  6
Continuous
 62
     0
370
     0
100
AcDbLine
 10
295.987436
 20
469.313399
 30
0.0
 11
396.094747
 21
469.313399
 31
0.0
  0
LINE
  5
8D
330
7B
100
AcDbEntity
  8
0
  6
Continuous
 62
     0
370
     0
100
AcDbLine
 10
396.094747
 20
469.313399
 30
0.0
 11
396.094747
 21
470.013389
 31
0.0
  0
LINE
  5
8E
330
7B
100
AcDbEntity
  8
0
  6
Continuous
 62
     0
370
     0
100
AcDbLine
 10
396.094747
 20
470.013389
 30
0.0
 11
295.987436
 21
470.013389
 31
0.0
  0
LINE
  5
8F
330
7B
100
AcDbEntity
  8
0
  6
Continuous
 62
     0
370
     0
100
AcDbLine
 10
295.987436
 20
470.013389
 30
0.0
 11
295.987436
 21
469.313399
 31
0.0
  0
LINE
  5
90
330
7B
100
AcDbEntity
  8
0
  6
Continuous
 62
     0
370
     0
100
AcDbLine
 10
295.287445
 20
352.206087
 30
0.0
 11
295.234018
 21
352.152661
 31
0.0
  0
ARC
  5
91
330
7B
100
AcDbEntity
  8
0
  6
Continuous
 62
     0
370
    30
100
AcDbCircle
 10
295.933412
 20
352.152064
 30
0.0
 40
0.6993937000954127
100
AcDbArc
 50
179.951097
 51
270.048903
  0
LINE
  5
92
330
7B
100
AcDbEntity
  8
0
  6
Continuous
 62
     0
370
     0
100
AcDbLine
 10
295.934009
 20
351.45267
 30
0.0
 11
295.987436
 21
351.506097
 31
0.0
  0
ARC
  5
93
330
7B
100
AcDbEntity
  8
0
  6
Continuous
 62
     0
370
     0
100
AcDbCircle
 10
295.987459
 20
352.206111
 30
0.0
 40
0.7000135584181183
100
AcDbArc
 50
180.001896
 51
269.998104
  0
LINE
  5
94
330
7B
100
AcDbEntity
  8
0
  6
Continuous
 62
     0
370
     0
100
AcDbLine
 10
295.987436
 20
469.313399
 30
0.0
 11
295.287445
 21
469.313399
 31
0.0
  0
LINE
  5
95
330
7B
100
AcDbEntity
  8
0
  6
Continuous
 62
     0
370
     0
100
AcDbLine
 10
295.287445
 20
469.313399
 30
0.0
 11
295.287445
 21
352.206087
 31
0.0
  0
LINE
  5
96
330
7B
100
AcDbEntity
  8
0
  6
Continuous
 62
     0
370
     0
100
AcDbLine
 10
295.287445
 20
352.206087
 30
0.0
 11
295.987436
 21
352.206087
 31
0.0
  0
LINE
  5
97
330
7B
100
AcDbEntity
  8
0
  6
Continuous
 62
     0
370
     0
100
AcDbLine
 10
295.987436
 20
352.206087
 30
0.0
 11
295.987436
 21
469.313399
 31
0.0
  0
ARC
  5
98
330
7B
100
AcDbEntity
  8
0
  6
Continuous
 62
     0
370
     0
100
AcDbCircle
 10
295.987459
 20
469.313375
 30
0.0
 40
0.7000135584175284
100
AcDbArc
 50
90.001896
 51
179.998104
  0
LINE
  5
99
330
7B
100
AcDbEntity
  8
0
  6
Continuous
 62
     0
370
     0
100
AcDbLine
 10
295.987436
 20
470.013389
 30
0.0
 11
295.934009
 21
470.066816
 31
0.0
  0
ARC
  5
9A
330
7B
100
AcDbEntity
  8
0
  6
Continuous
 62
     0
370
    30
100
AcDbCircle
 10
295.933412
 20
469.367422
 30
0.0
 40
0.6993937001768105
100
AcDbArc
 50
89.951097
 51
180.048903
  0
LINE
  5
9B
330
7B
100
AcDbEntity
  8
0
  6
Continuous
 62
     0
370
     0
100
AcDbLine
 10
295.234018
 20
469.366825
 30
0.0
 11
295.287445
 21
469.313399
 31
0.0
  0
LINE
  5
9C
330
7B
100
AcDbEntity
  8
0
  6
Continuous
 62
     0
370
    30
100
AcDbLine
 10
396.848164
 20
352.152661
 30
0.0
 11
396.848164
 21
469.366825
 31
0.0
  0
LINE
  5
9D
330
7B
100
AcDbEntity
  8
0
  6
Continuous
 62
     0
370
    30
100
AcDbLine
 10
396.148174
 20
470.066816
 30
0.0
 11
295.934009
 21
470.066816
 31
0.0
  0
LINE
  5
9E
330
7B
100
AcDbEntity
  8
0
  6
Continuous
 62
     0
370
    30
100
AcDbLine
 10
295.934009
 20
351.45267
 30
0.0
 11
396.148174
 21
351.45267
 31
0.0
  0
LWPOLYLINE
  5
9F
330
7B
100
AcDbEntity
  8
0
  6
Continuous
 62
     0
370
     0
100
AcDbPolyline
 90
       55
 70
     0
 43
0.0
 10
346.041107
 20
351.492584
 10
346.526031
 20
351.49231
 10
346.776611
 20
351.491913
 10
346.9599
 20
351.491516
 10
347.108337
 20
351.491089
 10
347.233978
 20
351.490662
 10
347.34317
 20
351.490265
 10
347.439636
 20
351.489838
 10
347.525757
 20
351.489441
 10
347.60321
 20
351.489014
 10
347.673157
 20
351.488586
 10
347.736542
 20
351.48819
 10
347.794037
 20
351.487762
 10
347.846191
 20
351.487335
 10
347.893463
 20
351.486908
 10
347.936218
 20
351.486511
 10
347.974731
 20
351.486084
 10
348.009247
 20
351.485657
 10
348.039978
 20
351.485229
 10
348.067078
 20
351.484833
 10
348.090698
 20
351.484406
 10
348.110931
 20
351.483978
 10
348.12793
 20
351.483582
 10
348.141754
 20
351.483154
 10
348.152435
 20
351.482727
 10
348.160034
 20
351.4823
 10
348.164581
 20
351.481903
 10
348.166077
 20
351.481476
 10
348.164581
 20
351.481049
 10
348.160065
 20
351.480621
 10
348.152496
 20
351.480225
 10
348.141846
 20
351.479797
 10
348.128052
 20
351.47937
 10
348.111084
 20
351.478943
 10
348.090851
 20
351.478546
 10
348.067261
 20
351.478119
 10
348.040192
 20
351.477692
 10
348.009491
 20
351.477264
 10
347.975006
 20
351.476868
 10
347.936523
 20
351.47644
 10
347.893799
 20
351.476013
 10
347.846588
 20
351.475586
 10
347.794464
 20
351.475189
 10
347.736969
 20
351.474762
 10
347.673645
 20
351.474335
 10
347.60376
 20
351.473938
 10
347.526367
 20
351.473511
 10
347.440308
 20
351.473083
 10
347.343933
 20
351.472687
 10
347.234863
 20
351.47226
 10
347.109344
 20
351.471863
 10
346.961121
 20
351.471436
 10
346.778168
 20
351.471039
 10
346.52832
 20
351.470642
 10
346.041107
 20
351.470337
  0
LWPOLYLINE
  5
A0
330
7B
100
AcDbEntity
  8
0
  6
Continuous
 62
     0
370
     0
100
AcDbPolyline
 90
       55
 70
     0
 43
0.0
 10
346.041107
 20
351.470337
 10
345.556183
 20
351.470642
 10
345.305573
 20
351.471039
 10
345.122284
 20
351.471436
 10
344.973877
 20
351.471832
 10
344.848206
 20
351.47226
 10
344.739014
 20
351.472687
 10
344.642548
 20
351.473083
 10
344.556427
 20
351.473511
 10
344.478973
 20
351.473938
 10
344.409027
 20
351.474335
 10
344.345673
 20
351.474762
 10
344.288147
 20
351.475189
 10
344.235992
 20
351.475586
 10
344.188721
 20
351.476013
 10
344.145966
 20
351.47644
 10
344.107452
 20
351.476868
 10
344.072937
 20
351.477264
 10
344.042236
 20
351.477692
 10
344.015137
 20
351.478119
 10
343.991486
 20
351.478516
 10
343.971252
 20
351.478943
 10
343.954254
 20
351.47937
 10
343.94043
 20
351.479797
 10
343.929779
 20
351.480194
 10
343.92218
 20
351.480621
 10
343.917603
 20
351.481049
 10
343.916107
 20
351.481476
 10
343.917603
 20
351.481873
 10
343.922119
 20
351.4823
 10
343.929688
 20
351.482727
 10
343.940338
 20
351.483154
 10
343.954132
 20
351.483551
 10
343.9711
 20
351.483978
 10
343.991333
 20
351.484406
 10
344.014923
 20
351.484833
 10
344.041992
 20
351.485229
 10
344.072693
 20
351.485657
 10
344.107178
 20
351.486084
 10
344.14566
 20
351.486511
 10
344.188385
 20
351.486908
 10
344.235596
 20
351.487335
 10
344.28772
 20
351.487762
 10
344.345215
 20
351.488159
 10
344.408539
 20
351.488586
 10
344.478424
 20
351.489014
 10
344.555817
 20
351.489441
 10
344.641846
 20
351.489838
 10
344.738251
 20
351.490265
 10
344.847321
 20
351.490662
 10
344.972839
 20
351.491089
 10
345.121063
 20
351.491486
 10
345.303986
 20
351.491913
 10
345.553833
 20
351.49231
 10
346.041107
 20
351.492584
  0
LINE
  5
A1
330
7B
100
AcDbEntity
  8
0
  6
Continuous
 62
     0
370
    30
100
AcDbLine
 10
295.234018
 20
469.366825
 30
0.0
 11
295.234018
 21
352.152661
 31
0.0
  0
LINE
  5
A2
330
7B
100
AcDbEntity
  8
0
  6
Continuous
 62
     0
370
    30
100
AcDbLine
 10
346.041111
 20
440.089747
 30
0.0
 11
342.091111
 21
440.089747
 31
0.0
  0
LINE
  5
A3
330
7B
100
AcDbEntity
  8
0
  6
Continuous
 62
     0
370
    30
100
AcDbLine
 10
349.991111
 20
440.089747
 30
0.0
 11
346.041111
 21
440.089747
 31
0.0
  0
LWPOLYLINE
  5
A4
330
7B
100
AcDbEntity
  8
0
  6
Continuous
 62
     0
370
    30
100
AcDbPolyline
 90
        7
 70
     0
 43
0.0
 10
348.762299
 20
432.59082
 10
349.119446
 20
432.544525
 10
349.42157
 20
432.500092
 10
349.663818
 20
432.460541
 10
349.841888
 20
432.429108
 10
349.951508
 20
432.408844
 10
349.990814
 20
432.401367
  0
LWPOLYLINE
  5
A5
330
7B
100
AcDbEntity
  8
0
  6
Continuous
 62
     0
370
    30
100
AcDbPolyline
 90
        3
 70
     0
 43
0.0
 10
346.041107
 20
432.759735
 10
346.154327
 20
432.760284
 10
347.166565
 20
432.730865
  0
LWPOLYLINE
  5
A6
330
7B
100
AcDbEntity
  8
0
  6
Continuous
 62
     0
370
    30
100
AcDbPolyline
 90
        3
 70
     0
 43
0.0
 10
344.894714
 20
432.729797
 10
345.034637
 20
432.737122
 10
346.041107
 20
432.759735
  0
LWPOLYLINE
  5
A7
330
7B
100
AcDbEntity
  8
0
  6
Continuous
 62
     0
370
    30
100
AcDbPolyline
 90
        8
 70
     0
 43
0.0
 10
342.091431
 20
432.401398
 10
342.13031
 20
432.408783
 10
342.247009
 20
432.430328
 10
342.439056
 20
432.46405
 10
342.701538
 20
432.506378
 10
343.029419
 20
432.553589
 10
343.416779
 20
432.602295
 10
343.858459
 20
432.64975
  0
LINE
  5
A8
330
7B
100
AcDbEntity
  8
0
  6
Continuous
 62
     0
370
    30
100
AcDbLine
 10
346.041111
 20
440.589746
 30
0.0
 11
349.491158
 21
440.589746
 31
0.0
  0
LINE
  5
A9
330
7B
100
AcDbEntity
  8
0
  6
Continuous
 62
     0
370
    30
100
AcDbLine
 10
342.591064
 20
440.589746
 30
0.0
 11
346.041111
 21
440.589746
 31
0.0
  0
ARC
  5
AA
330
7B
100
AcDbEntity
  8
0
  6
Continuous
 62
     0
370
    30
100
AcDbCircle
 10
346.041407
 20
410.759747
 30
0.0
 40
21.50000000203893
100
AcDbArc
 50
269.999211
 51
90.000789
  0
ARC
  5
AB
330
7B
100
AcDbEntity
  8
0
  6
Continuous
 62
     0
370
    30
100
AcDbCircle
 10
346.040818
 20
410.759747
 30
0.0
 40
21.50000000199058
100
AcDbArc
 50
89.99922
 51
270.00078
  0
LWPOLYLINE
  5
AC
330
7B
100
AcDbEntity
  8
0
  6
Continuous
 62
     0
370
    30
100
AcDbPolyline
 90
       54
 70
     0
 43
0.0
 10
346.041107
 20
388.759735
 10
347.341949
 20
388.799286
 10
348.640137
 20
388.916626
 10
349.930847
 20
389.110474
 10
351.208069
 20
389.379578
 10
352.466431
 20
389.722809
 10
353.701752
 20
390.139221
 10
354.910004
 20
390.627899
 10
356.087219
 20
391.187958
 10
357.229309
 20
391.817535
 10
358.332031
 20
392.513702
 10
359.391205
 20
393.273529
 10
360.40271
 20
394.094055
 10
361.363007
 20
394.972626
 10
362.269043
 20
395.906799
 10
363.118378
 20
396.893524
 10
363.908783
 20
397.929352
 10
364.637451
 20
399.010468
 10
365.301422
 20
400.132904
 10
365.897705
 20
401.292694
 10
366.423645
 20
402.485779
 10
366.877808
 20
403.707886
 10
367.258911
 20
404.954681
 10
367.565765
 20
406.221863
 10
367.797272
 20
407.505005
 10
367.952545
 20
408.79953
 10
368.030762
 20
410.100952
 10
368.031128
 20
411.404663
 10
367.953674
 20
412.706116
 10
367.799164
 20
414.000763
 10
367.568451
 20
415.284027
 10
367.262421
 20
416.551422
 10
366.882172
 20
417.798462
 10
366.428894
 20
419.020905
 10
365.903839
 20
420.214386
 10
365.308441
 20
421.374603
 10
364.645264
 20
422.497559
 10
363.917328
 20
423.579163
 10
363.127533
 20
424.615479
 10
362.278656
 20
425.6026
 10
361.372925
 20
426.537079
 10
360.412872
 20
427.415924
 10
359.401642
 20
428.236725
 10
358.342834
 20
428.996979
 10
357.24054
 20
429.693817
 10
356.098999
 20
430.324341
 10
354.922363
 20
430.885681
 10
353.714691
 20
431.375916
 10
352.479889
 20
431.793793
 10
351.221893
 20
432.138214
 10
349.944855
 20
432.408051
 10
348.654175
 20
432.602203
 10
347.355957
 20
432.719727
 10
346.041107
 20
432.759735
  0
LWPOLYLINE
  5
AD
330
7B
100
AcDbEntity
  8
0
  6
Continuous
 62
     0
370
    30
100
AcDbPolyline
 90
       54
 70
     0
 43
0.0
 10
346.041107
 20
432.759735
 10
344.740234
 20
432.720581
 10
343.441986
 20
432.603882
 10
342.151184
 20
432.410522
 10
340.873962
 20
432.14151
 10
339.615753
 20
431.797882
 10
338.380676
 20
431.380768
 10
337.172668
 20
430.891327
 10
335.995667
 20
430.33075
 10
334.853729
 20
429.700958
 10
333.751007
 20
429.004822
 10
332.691711
 20
428.245209
 10
331.679932
 20
427.425049
 10
330.71933
 20
426.546814
 10
329.813019
 20
425.612915
 10
328.963501
 20
424.626343
 10
328.173065
 20
423.590546
 10
327.444427
 20
422.509399
 10
326.780548
 20
421.386902
 10
326.184418
 20
420.22702
 10
325.6586
 20
419.033875
 10
325.204559
 20
417.811737
 10
324.823486
 20
416.564911
 10
324.516663
 20
415.29776
 10
324.285156
 20
414.014618
 10
324.129822
 20
412.720062
 10
324.051514
 20
411.418671
 10
324.051025
 20
410.11496
 10
324.128448
 20
408.813507
 10
324.282898
 20
407.51886
 10
324.51358
 20
406.235565
 10
324.819611
 20
404.968201
 10
325.199951
 20
403.721161
 10
325.65329
 20
402.498749
 10
326.178497
 20
401.305328
 10
326.774017
 20
400.145172
 10
327.437286
 20
399.022308
 10
328.165283
 20
397.940735
 10
328.955017
 20
396.904388
 10
329.803741
 20
395.917145
 10
330.709198
 20
394.982361
 10
331.668915
 20
394.10318
 10
332.679871
 20
393.282043
 10
333.738586
 20
392.521545
 10
334.840851
 20
391.824677
 10
335.982513
 20
391.194366
 10
337.159393
 20
390.633545
 10
338.36734
 20
390.144073
 10
339.602386
 20
389.726898
 10
340.860535
 20
389.382874
 10
342.137573
 20
389.112946
 10
343.428162
 20
388.918304
 10
344.726288
 20
388.80014
 10
346.041107
 20
388.759735
  0
ARC
  5
AE
330
7B
100
AcDbEntity
  8
0
  6
Continuous
 62
     0
370
    30
100
AcDbCircle
 10
346.041111
 20
410.759747
 30
0.0
 40
22.00000000000004
100
AcDbArc
 50
45.723999
 51
79.26029
  0
ARC
  5
AF
330
7B
100
AcDbEntity
  8
0
  6
Continuous
 62
     0
370
    30
100
AcDbCircle
 10
346.041111
 20
410.759747
 30
0.0
 40
22.00000000000004
100
AcDbArc
 50
100.739738
 51
134.27604
  0
LWPOLYLINE
  5
B0
330
7B
100
AcDbEntity
  8
0
  6
Continuous
 62
     0
370
    30
100
AcDbPolyline
 90
       14
 70
     0
 43
0.0
 10
341.291382
 20
389.278595
 10
341.326447
 20
389.270874
 10
341.429993
 20
389.248322
 10
341.599579
 20
389.212616
 10
341.83252
 20
389.166016
 10
342.126007
 20
389.110931
 10
342.475189
 20
389.050659
 10
342.874664
 20
388.9888
 10
343.321106
 20
388.928558
 10
343.808411
 20
388.873322
 10
344.32666
 20
388.82663
 10
344.87323
 20
388.790894
 10
345.437897
 20
388.768066
 10
346.041107
 20
388.759735
  0
LWPOLYLINE
  5
B1
330
7B
100
AcDbEntity
  8
0
  6
Continuous
 62
     0
370
    30
100
AcDbPolyline
 90
       14
 70
     0
 43
0.0
 10
346.041107
 20
388.759735
 10
346.611816
 20
388.767181
 10
347.177124
 20
388.789215
 10
347.725098
 20
388.82428
 10
348.245026
 20
388.870392
 10
348.734283
 20
388.925232
 10
349.183289
 20
388.98526
 10
349.585541
 20
389.04715
 10
349.937714
 20
389.107605
 10
350.234558
 20
389.163086
 10
350.471039
 20
389.210205
 10
350.644287
 20
389.246613
 10
350.751709
 20
389.269989
 10
350.790833
 20
389.278595
  0
LWPOLYLINE
  5
B2
330
7B
100
AcDbEntity
  8
0
  6
Continuous
 62
     0
370
    30
100
AcDbPolyline
 90
       13
 70
     0
 43
0.0
 10
350.140747
 20
432.37439
 10
350.105377
 20
432.381073
 10
350.000824
 20
432.400543
 10
349.829895
 20
432.431152
 10
349.595337
 20
432.470734
 10
349.30072
 20
432.516907
 10
348.951996
 20
432.566345
 10
348.554199
 20
432.615753
 10
348.111603
 20
432.662079
 10
347.635071
 20
432.701935
 10
347.129303
 20
432.732727
 10
346.603149
 20
432.752533
 10
346.041138
 20
432.759735
  0
LWPOLYLINE
  5
B3
330
7B
100
AcDbEntity
  8
0
  6
Continuous
 62
     0
370
    30
100
AcDbPolyline
 90
       13
 70
     0
 43
0.0
 10
346.041138
 20
432.759735
 10
345.508057
 20
432.753265
 10
344.981232
 20
432.7341
 10
344.473999
 20
432.703888
 10
343.995819
 20
432.664459
 10
343.551056
 20
432.618378
 10
343.150665
 20
432.569061
 10
342.799164
 20
432.519562
 10
342.501404
 20
432.473114
 10
342.263519
 20
432.433105
 10
342.089081
 20
432.401947
 10
341.980865
 20
432.381805
 10
341.941467
 20
432.37439
  0
LINE
  5
B4
330
7B
100
AcDbEntity
  8
0
  6
Continuous
 62
     0
370
    30
100
AcDbLine
 10
349.491028
 20
440.589849
 30
0.0
 11
349.991169
 21
440.08971
 31
0.0
  0
LINE
  5
B5
330
7B
100
AcDbEntity
  8
0
  6
Continuous
 62
     0
370
    30
100
AcDbLine
 10
342.091053
 20
440.08971
 30
0.0
 11
342.591194
 21
440.589849
 31
0.0
  0
LINE
  5
B6
330
7B
100
AcDbEntity
  8
0
  6
Continuous
 62
     0
370
    30
100
AcDbLine
 10
342.091111
 20
440.089747
 30
0.0
 11
342.091111
 21
432.401229
 31
0.0
  0
LINE
  5
B7
330
7B
100
AcDbEntity
  8
0
  6
Continuous
 62
     0
370
    30
100
AcDbLine
 10
349.991111
 20
440.089747
 30
0.0
 11
349.991111
 21
432.401211
 31
0.0
  0
ARC
  5
B8
330
7B
100
AcDbEntity
  8
0
  6
Continuous
 62
     0
370
    30
100
AcDbCircle
 10
318.040844
 20
558.760479
 30
0.0
 40
0.5000000000013998
100
AcDbArc
 50
90.0
 51
180.0
  0
LINE
  5
B9
330
7B
100
AcDbEntity
  8
0
  6
Continuous
 62
     0
370
     0
100
AcDbLine
 10
374.040844
 20
558.760479
 30
0.0
 11
318.040844
 21
558.760479
 31
0.0
  0
LINE
  5
BA
330
7B
100
AcDbEntity
  8
0
  6
Continuous
 62
     0
370
     0
100
AcDbLine
 10
318.040844
 20
558.760479
 30
0.0
 11
318.040844
 21
502.760479
 31
0.0
  0
LINE
  5
BB
330
7B
100
AcDbEntity
  8
0
  6
Continuous
 62
     0
370
     0
100
AcDbLine
 10
318.040844
 20
502.760479
 30
0.0
 11
374.040844
 21
502.760479
 31
0.0
  0
LINE
  5
BC
330
7B
100
AcDbEntity
  8
0
  6
Continuous
 62
     0
370
     0
100
AcDbLine
 10
374.040844
 20
502.760479
 30
0.0
 11
374.040844
 21
558.760479
 31
0.0
  0
ARC
  5
BD
330
7B
100
AcDbEntity
  8
0
  6
Continuous
 62
     0
370
     0
100
AcDbCircle
 10
346.040844
 20
530.760811
 30
0.0
 40
24.40000000225906
100
AcDbArc
 50
359.99922
 51
180.00078
  0
ARC
  5
BE
330
7B
100
AcDbEntity
  8
0
  6
Continuous
 62
     0
370
     0
100
AcDbCircle
 10
346.040844
 20
530.760147
 30
0.0
 40
24.40000000225906
100
AcDbArc
 50
179.99922
 51
0.00078
  0
LINE
  5
BF
330
7B
100
AcDbEntity
  8
0
  6
Continuous
 62
     0
370
    30
100
AcDbLine
 10
317.540844
 20
502.760479
 30
0.0
 11
317.540844
 21
558.760479
 31
0.0
  0
ARC
  5
C0
330
7B
100
AcDbEntity
  8
0
  6
Continuous
 62
     0
370
    30
100
AcDbCircle
 10
318.040844
 20
502.760479
 30
0.0
 40
0.5000000000012275
100
AcDbArc
 50
180.0
 51
270.0
  0
LINE
  5
C1
330
7B
100
AcDbEntity
  8
0
  6
Continuous
 62
     0
370
    30
100
AcDbLine
 10
374.040844
 20
502.260479
 30
0.0
 11
318.040844
 21
502.260479
 31
0.0
  0
ARC
  5
C2
330
7B
100
AcDbEntity
  8
0
  6
Continuous
 62
     0
370
    30
100
AcDbCircle
 10
374.040844
 20
502.760479
 30
0.0
 40
0.5000000000005649
100
AcDbArc
 50
270.0
 51
360.0
  0
LINE
  5
C3
330
7B
100
AcDbEntity
  8
0
  6
Continuous
 62
     0
370
    30
100
AcDbLine
 10
374.540844
 20
558.760479
 30
0.0
 11
374.540844
 21
502.760479
 31
0.0
  0
ARC
  5
C4
330
7B
100
AcDbEntity
  8
0
  6
Continuous
 62
     0
370
    30
100
AcDbCircle
 10
374.040844
 20
558.760479
 30
0.0
 40
0.4999999999934328
100
AcDbArc
 50
360.0
 51
90.0
  0
LINE
  5
C5
330
7B
100
AcDbEntity
  8
0
  6
Continuous
 62
     0
370
    30
100
AcDbLine
 10
318.040844
 20
559.260479
 30
0.0
 11
374.040844
 21
559.260479
 31
0.0
  0
LINE
  5
C6
330
7B
100
AcDbEntity
  8
0
  6
Continuous
 62
     0
370
     0
100
AcDbLine
 10
318.040844
 20
559.260479
 30
0.0
 11
318.040844
 21
558.760479
 31
0.0
  0
LINE
  5
C7
330
7B
100
AcDbEntity
  8
0
  6
Continuous
 62
     0
370
     0
100
AcDbLine
 10
374.040844
 20
558.760479
 30
0.0
 11
374.040844
 21
559.260479
 31
0.0
  0
LINE
  5
C8
330
7B
100
AcDbEntity
  8
0
  6
Continuous
 62
     0
370
     0
100
AcDbLine
 10
374.040844
 20
558.760479
 30
0.0
 11
374.540844
 21
558.760479
 31
0.0
  0
LINE
  5
C9
330
7B
100
AcDbEntity
  8
0
  6
Continuous
 62
     0
370
     0
100
AcDbLine
 10
374.040844
 20
502.760479
 30
0.0
 11
374.540844
 21
502.760479
 31
0.0
  0
LINE
  5
CA
330
7B
100
AcDbEntity
  8
0
  6
Continuous
 62
     0
370
     0
100
AcDbLine
 10
374.040844
 20
502.760479
 30
0.0
 11
374.040844
 21
502.260479
 31
0.0
  0
LINE
  5
CB
330
7B
100
AcDbEntity
  8
0
  6
Continuous
 62
     0
370
     0
100
AcDbLine
 10
318.040844
 20
502.760479
 30
0.0
 11
318.040844
 21
502.260479
 31
0.0
  0
LINE
  5
CC
330
7B
100
AcDbEntity
  8
0
  6
Continuous
 62
     0
370
     0
100
AcDbLine
 10
318.040844
 20
502.760479
 30
0.0
 11
317.540844
 21
502.760479
 31
0.0
  0
LINE
  5
CD
330
7B
100
AcDbEntity
  8
0
  6
Continuous
 62
     0
370
     0
100
AcDbLine
 10
318.040844
 20
558.760479
 30
0.0
 11
317.540844
 21
558.760479
 31
0.0
  0
LWPOLYLINE
  5
CE
330
7B
100
AcDbEntity
  8
0
  6
Continuous
 62
     0
370
     0
100
AcDbPolyline
 90
        4
 70
     0
 43
0.0
 10
365.718506
 20
525.08075
 10
359.507538
 20
525.082397
 10
353.287445
 20
525.082825
 10
346.040833
 20
525.08313
  0
LINE
  5
CF
330
7B
100
AcDbEntity
  8
0
  6
Continuous
 62
     0
370
     0
100
AcDbLine
 10
346.040841
 20
525.083123
 30
0.0
 11
346.040841
 21
517.714301
 31
0.0
  0
LWPOLYLINE
  5
D0
330
7B
100
AcDbEntity
  8
0
  6
Continuous
 62
     0
370
     0
100
AcDbPolyline
 90
        3
 70
     0
 43
0.0
 10
346.040833
 20
517.714294
 10
354.642731
 20
517.692322
 10
365.191711
 20
517.655823
  0
LINE
  5
D1
330
7B
100
AcDbEntity
  8
0
  6
Continuous
 62
     0
370
     0
100
AcDbLine
 10
365.191722
 20
517.655802
 30
0.0
 11
365.810061
 21
517.654112
 31
0.0
  0
LWPOLYLINE
  5
D2
330
7B
100
AcDbEntity
  8
0
  6
Continuous
 62
     0
370
     0
100
AcDbPolyline
 90
       17
 70
     0
 43
0.0
 10
365.810059
 20
517.654114
 10
365.808228
 20
518.376465
 10
365.805969
 20
519.092896
 10
365.803253
 20
519.795166
 10
365.80011
 20
520.476318
 10
365.796448
 20
521.130249
 10
365.792236
 20
521.751099
 10
365.787415
 20
522.333008
 10
365.781952
 20
522.870544
 10
365.775818
 20
523.358826
 10
365.768921
 20
523.793335
 10
365.761353
 20
524.1698
 10
365.753143
 20
524.484436
 10
365.744751
 20
524.734375
 10
365.736816
 20
524.918091
 10
365.729156
 20
525.033875
 10
365.718506
 20
525.08075
  0
LWPOLYLINE
  5
D3
330
7B
100
AcDbEntity
  8
0
  6
Continuous
 62
     0
370
     0
100
AcDbPolyline
 90
       17
 70
     0
 43
0.0
 10
365.718506
 20
536.440247
 10
365.728638
 20
536.481995
 10
365.736359
 20
536.593384
 10
365.744202
 20
536.772705
 10
365.752625
 20
537.018433
 10
365.760834
 20
537.328979
 10
365.768463
 20
537.701599
 10
365.775391
 20
538.132446
 10
365.781586
 20
538.617432
 10
365.787079
 20
539.151917
 10
365.791931
 20
539.73114
 10
365.796173
 20
540.349609
 10
365.799896
 20
541.001587
 10
365.80307
 20
541.681152
 10
365.805817
 20
542.382263
 10
365.808105
 20
543.098083
 10
365.810059
 20
543.866821
  0
LINE
  5
D4
330
7B
100
AcDbEntity
  8
0
  6
Continuous
 62
     0
370
     0
100
AcDbLine
 10
365.810061
 20
543.866846
 30
0.0
 11
365.191722
 21
543.865156
 31
0.0
  0
LWPOLYLINE
  5
D5
330
7B
100
AcDbEntity
  8
0
  6
Continuous
 62
     0
370
     0
100
AcDbPolyline
 90
        3
 70
     0
 43
0.0
 10
365.191711
 20
543.865173
 10
356.590454
 20
543.836243
 10
346.040833
 20
543.806641
  0
LINE
  5
D6
330
7B
100
AcDbEntity
  8
0
  6
Continuous
 62
     0
370
     0
100
AcDbLine
 10
346.040841
 20
543.806657
 30
0.0
 11
346.04084
 21
536.437835
 31
0.0
  0
LWPOLYLINE
  5
D7
330
7B
100
AcDbEntity
  8
0
  6
Continuous
 62
     0
370
     0
100
AcDbPolyline
 90
        4
 70
     0
 43
0.0
 10
346.040833
 20
536.437805
 10
352.276428
 20
536.438049
 10
358.498596
 20
536.438416
 10
365.718506
 20
536.440247
  0
LINE
  5
D8
330
7B
100
AcDbEntity
  8
0
  6
Continuous
 62
     0
370
     0
100
AcDbLine
 10
365.718511
 20
536.439436
 30
0.0
 11
365.549529
 21
536.26913
 31
0.0
  0
ARC
  5
D9
330
7B
100
AcDbEntity
  8
0
  6
Continuous
 62
     0
370
     0
100
AcDbCircle
 10
365.549438
 20
535.269076
 30
0.0
 40
1.000053852843429
100
AcDbArc
 50
0.005267
 51
89.994733
  0
LINE
  5
DA
330
7B
100
AcDbEntity
  8
0
  6
Continuous
 62
     0
370
     0
100
AcDbLine
 10
366.549491
 20
535.269168
 30
0.0
 11
366.719799
 21
535.439809
 31
0.0
  0
ARC
  5
DB
330
7B
100
AcDbEntity
  8
0
  6
Continuous
 62
     0
370
     0
100
AcDbCircle
 10
365.720076
 20
535.439714
 30
0.0
 40
0.999723385864179
100
AcDbArc
 50
0.005446
 51
90.089649
  0
LINE
  5
DC
330
7B
100
AcDbEntity
  8
0
  6
Continuous
 62
     0
370
     0
100
AcDbLine
 10
365.549529
 20
535.269168
 30
0.0
 11
366.549491
 21
535.269168
 31
0.0
  0
LINE
  5
DD
330
7B
100
AcDbEntity
  8
0
  6
Continuous
 62
     0
370
     0
100
AcDbLine
 10
365.549529
 20
536.26913
 30
0.0
 11
365.549529
 21
535.269168
 31
0.0
  0
LINE
  5
DE
330
7B
100
AcDbEntity
  8
0
  6
Continuous
 62
     0
370
     0
100
AcDbLine
 10
365.549529
 20
535.269168
 30
0.0
 11
365.549529
 21
526.25179
 31
0.0
  0
LINE
  5
DF
330
7B
100
AcDbEntity
  8
0
  6
Continuous
 62
     0
370
     0
100
AcDbLine
 10
365.549529
 20
526.25179
 30
0.0
 11
366.549491
 21
526.25179
 31
0.0
  0
LINE
  5
E0
330
7B
100
AcDbEntity
  8
0
  6
Continuous
 62
     0
370
     0
100
AcDbLine
 10
366.549491
 20
526.25179
 30
0.0
 11
366.549491
 21
535.269168
 31
0.0
  0
ARC
  5
E1
330
7B
100
AcDbEntity
  8
0
  6
Continuous
 62
     0
370
     0
100
AcDbCircle
 10
365.549438
 20
526.251882
 30
0.0
 40
1.000053852845652
100
AcDbArc
 50
270.005267
 51
359.994733
  0
LINE
  5
E2
330
7B
100
AcDbEntity
  8
0
  6
Continuous
 62
     0
370
     0
100
AcDbLine
 10
365.549529
 20
526.25179
 30
0.0
 11
365.549529
 21
525.251828
 31
0.0
  0
LINE
  5
E3
330
7B
100
AcDbEntity
  8
0
  6
Continuous
 62
     0
370
     0
100
AcDbLine
 10
365.549529
 20
525.251828
 30
0.0
 11
365.718511
 21
525.081522
 31
0.0
  0
ARC
  5
E4
330
7B
100
AcDbEntity
  8
0
  6
Continuous
 62
     0
370
     0
100
AcDbCircle
 10
365.720076
 20
526.081244
 30
0.0
 40
0.9997233760789841
100
AcDbArc
 50
269.910348
 51
359.994554
  0
LINE
  5
E5
330
7B
100
AcDbEntity
  8
0
  6
Continuous
 62
     0
370
     0
100
AcDbLine
 10
366.719799
 20
526.081149
 30
0.0
 11
366.549491
 21
526.25179
 31
0.0
  0
LWPOLYLINE
  5
E6
330
7B
100
AcDbEntity
  8
0
  6
Continuous
 62
     0
370
     0
100
AcDbPolyline
 90
        9
 70
     0
 43
0.0
 10
365.810059
 20
517.654114
 10
365.970062
 20
518.3255
 10
366.127625
 20
518.996033
 10
366.279755
 20
519.664429
 10
366.422546
 20
520.330078
 10
366.551147
 20
520.99353
 10
366.660095
 20
521.655396
 10
366.739532
 20
522.316223
 10
366.775696
 20
523.050964
  0
LWPOLYLINE
  5
E7
330
7B
100
AcDbEntity
  8
0
  6
Continuous
 62
     0
370
     0
100
AcDbPolyline
 90
       10
 70
     0
 43
0.0
 10
366.775696
 20
523.050964
 10
366.771149
 20
523.646301
 10
366.765961
 20
524.187622
 10
366.760193
 20
524.669128
 10
366.754059
 20
525.085388
 10
366.747589
 20
525.432922
 10
366.740875
 20
525.708557
 10
366.733978
 20
525.909485
 10
366.726959
 20
526.033813
 10
366.719788
 20
526.081177
  0
LINE
  5
E8
330
7B
100
AcDbEntity
  8
0
  6
Continuous
 62
     0
370
     0
100
AcDbLine
 10
366.775941
 20
523.050943
 30
0.0
 11
366.775853
 21
525.01261
 31
0.0
  0
LINE
  5
E9
330
7B
100
AcDbEntity
  8
0
  6
Continuous
 62
     0
370
     0
100
AcDbLine
 10
366.775853
 20
525.01261
 30
0.0
 11
366.775739
 21
530.760479
 31
0.0
  0
LINE
  5
EA
330
7B
100
AcDbEntity
  8
0
  6
Continuous
 62
     0
370
     0
100
AcDbLine
 10
366.775739
 20
530.760479
 30
0.0
 11
366.775853
 21
536.508348
 31
0.0
  0
LINE
  5
EB
330
7B
100
AcDbEntity
  8
0
  6
Continuous
 62
     0
370
     0
100
AcDbLine
 10
366.775853
 20
536.508348
 30
0.0
 11
366.775941
 21
538.470016
 31
0.0
  0
LWPOLYLINE
  5
EC
330
7B
100
AcDbEntity
  8
0
  6
Continuous
 62
     0
370
     0
100
AcDbPolyline
 90
       12
 70
     0
 43
0.0
 10
366.77594
 20
538.470032
 10
366.772736
 20
538.061707
 10
366.769226
 20
537.666382
 10
366.76532
 20
537.286804
 10
366.761078
 20
536.926331
 10
366.756409
 20
536.589417
 10
366.751343
 20
536.281494
 10
366.74585
 20
536.009216
 10
366.739929
 20
535.780518
 10
366.733673
 20
535.604126
 10
366.727081
 20
535.488647
 10
366.719788
 20
535.439819
  0
LWPOLYLINE
  5
ED
330
7B
100
AcDbEntity
  8
0
  6
Continuous
 62
     0
370
     0
100
AcDbPolyline
 90
        9
 70
     0
 43
0.0
 10
366.775696
 20
538.470032
 10
366.746124
 20
539.129639
 10
366.670837
 20
539.790344
 10
366.564636
 20
540.452087
 10
366.437988
 20
541.115295
 10
366.296539
 20
541.78064
 10
366.145264
 20
542.44873
 10
365.988159
 20
543.119141
 10
365.810059
 20
543.866821
  0
LINE
  5
EE
330
7B
100
AcDbEntity
  8
0
  6
Continuous
 62
     0
370
     0
100
AcDbLine
 10
366.775739
 20
530.760479
 30
0.0
 11
367.758248
 21
530.760479
 31
0.0
  0
LINE
  5
EF
330
7B
100
AcDbEntity
  8
0
  6
Continuous
 62
     0
370
     0
100
AcDbLine
 10
367.758248
 20
530.760479
 30
0.0
 11
367.758891
 21
536.266887
 31
0.0
  0
LINE
  5
F0
330
7B
100
AcDbEntity
  8
0
  6
Continuous
 62
     0
370
     0
100
AcDbLine
 10
367.758891
 20
536.266887
 30
0.0
 11
367.758942
 21
536.503886
 31
0.0
  0
ARC
  5
F1
330
7B
100
AcDbEntity
  8
0
  6
Continuous
 62
     0
370
     0
100
AcDbCircle
 10
367.520895
 20
592.358548
 30
0.0
 40
55.85516932763861
100
AcDbArc
 50
269.235719
 51
270.244188
  0
LINE
  5
F2
330
7B
100
AcDbEntity
  8
0
  6
Continuous
 62
     0
370
     0
100
AcDbLine
 10
367.758942
 20
536.503886
 30
0.0
 11
367.759455
 21
538.464182
 31
0.0
  0
ARC
  5
F3
330
7B
100
AcDbEntity
  8
0
  6
Continuous
 62
     0
370
     0
100
AcDbCircle
 10
367.521245
 20
581.208676
 30
0.0
 40
42.74515844405187
100
AcDbArc
 50
269.000941
 51
270.319298
  0
LWPOLYLINE
  5
F4
330
7B
100
AcDbEntity
  8
0
  6
Continuous
 62
     0
370
     0
100
AcDbPolyline
 90
       10
 70
     0
 43
0.0
 10
367.75946
 20
538.464172
 10
367.719849
 20
539.106689
 10
367.611115
 20
539.741516
 10
367.446136
 20
540.363586
 10
367.236115
 20
540.972046
 10
366.991364
 20
541.567322
 10
366.720276
 20
542.151062
 10
366.429779
 20
542.725403
 10
366.126282
 20
543.292908
 10
365.810059
 20
543.866821
  0
ARC
  5
F5
330
7B
100
AcDbEntity
  8
0
  6
Continuous
 62
     0
370
     0
100
AcDbCircle
 10
367.520895
 20
469.16241
 30
0.0
 40
55.85516932360131
100
AcDbArc
 50
89.755812
 51
90.764281
  0
LINE
  5
F6
330
7B
100
AcDbEntity
  8
0
  6
Continuous
 62
     0
370
     0
100
AcDbLine
 10
367.758942
 20
525.017072
 30
0.0
 11
367.758891
 21
525.254071
 31
0.0
  0
LINE
  5
F7
330
7B
100
AcDbEntity
  8
0
  6
Continuous
 62
     0
370
     0
100
AcDbLine
 10
367.758891
 20
525.254071
 30
0.0
 11
367.758248
 21
530.760479
 31
0.0
  0
ARC
  5
F8
330
7B
100
AcDbEntity
  8
0
  6
Continuous
 62
     0
370
     0
100
AcDbCircle
 10
367.521245
 20
480.312282
 30
0.0
 40
42.745158668429
100
AcDbArc
 50
89.680702
 51
90.999059
  0
LINE
  5
F9
330
7B
100
AcDbEntity
  8
0
  6
Continuous
 62
     0
370
     0
100
AcDbLine
 10
367.759455
 20
523.056776
 30
0.0
 11
367.758942
 21
525.017072
 31
0.0
  0
LWPOLYLINE
  5
FA
330
7B
100
AcDbEntity
  8
0
  6
Continuous
 62
     0
370
     0
100
AcDbPolyline
 90
       10
 70
     0
 43
0.0
 10
365.810059
 20
517.654114
 10
366.120697
 20
518.217773
 10
366.424347
 20
518.785217
 10
366.715149
 20
519.359375
 10
366.986633
 20
519.942932
 10
367.231964
 20
520.537964
 10
367.442688
 20
521.146179
 10
367.608582
 20
521.768066
 10
367.718445
 20
522.402649
 10
367.75946
 20
523.056763
  0
LWPOLYLINE
  5
FB
330
7B
100
AcDbEntity
  8
0
  6
Continuous
 62
     0
370
     0
100
AcDbPolyline
 90
       17
 70
     0
 43
0.0
 10
326.36319
 20
525.08075
 10
326.353058
 20
525.039001
 10
326.345337
 20
524.927612
 10
326.337463
 20
524.74823
 10
326.329071
 20
524.502502
 10
326.320831
 20
524.192017
 10
326.313232
 20
523.819397
 10
326.306305
 20
523.388489
 10
326.30011
 20
522.903503
 10
326.294586
 20
522.369019
 10
326.289734
 20
521.789795
 10
326.285492
 20
521.171326
 10
326.281799
 20
520.519348
 10
326.278595
 20
519.839783
 10
326.275879
 20
519.138672
 10
326.27359
 20
518.422852
 10
326.271606
 20
517.654114
  0
LINE
  5
FC
330
7B
100
AcDbEntity
  8
0
  6
Continuous
 62
     0
370
     0
100
AcDbLine
 10
326.271621
 20
517.654112
 30
0.0
 11
326.889959
 21
517.655802
 31
0.0
  0
LWPOLYLINE
  5
FD
330
7B
100
AcDbEntity
  8
0
  6
Continuous
 62
     0
370
     0
100
AcDbPolyline
 90
        3
 70
     0
 43
0.0
 10
326.889954
 20
517.655823
 10
335.491211
 20
517.684692
 10
346.040833
 20
517.714294
  0
LWPOLYLINE
  5
FE
330
7B
100
AcDbEntity
  8
0
  6
Continuous
 62
     0
370
     0
100
AcDbPolyline
 90
        4
 70
     0
 43
0.0
 10
346.040833
 20
525.08313
 10
339.805176
 20
525.082886
 10
333.582916
 20
525.08252
 10
326.36319
 20
525.08075
  0
LWPOLYLINE
  5
FF
330
7B
100
AcDbEntity
  8
0
  6
Continuous
 62
     0
370
     0
100
AcDbPolyline
 90
        4
 70
     0
 43
0.0
 10
326.36319
 20
536.440247
 10
332.574066
 20
536.438538
 10
338.794067
 20
536.438171
 10
346.040833
 20
536.437805
  0
LWPOLYLINE
  5
100
330
7B
100
AcDbEntity
  8
0
  6
Continuous
 62
     0
370
     0
100
AcDbPolyline
 90
        3
 70
     0
 43
0.0
 10
346.040833
 20
543.806641
 10
337.438934
 20
543.828613
 10
326.889954
 20
543.865173
  0
LINE
  5
101
330
7B
100
AcDbEntity
  8
0
  6
Continuous
 62
     0
370
     0
100
AcDbLine
 10
326.889959
 20
543.865156
 30
0.0
 11
326.271621
 21
543.866846
 31
0.0
  0
LWPOLYLINE
  5
102
330
7B
100
AcDbEntity
  8
0
  6
Continuous
 62
     0
370
     0
100
AcDbPolyline
 90
       17
 70
     0
 43
0.0
 10
326.271606
 20
543.866821
 10
326.273438
 20
543.144531
 10
326.275726
 20
542.42804
 10
326.278412
 20
541.725769
 10
326.281586
 20
541.044617
 10
326.285248
 20
540.390686
 10
326.289459
 20
539.769897
 10
326.29425
 20
539.187927
 10
326.299713
 20
538.650391
 10
326.305878
 20
538.162109
 10
326.312744
 20
537.7276
 10
326.320343
 20
537.351135
 10
326.328522
 20
537.036499
 10
326.336945
 20
536.78656
 10
326.344849
 20
536.602905
 10
326.352509
 20
536.487061
 10
326.36319
 20
536.440247
  0
ARC
  5
103
330
7B
100
AcDbEntity
  8
0
  6
Continuous
 62
     0
370
     0
100
AcDbCircle
 10
326.361606
 20
535.439714
 30
0.0
 40
0.999723385866938
100
AcDbArc
 50
89.910351
 51
179.994554
  0
LINE
  5
104
330
7B
100
AcDbEntity
  8
0
  6
Continuous
 62
     0
370
     0
100
AcDbLine
 10
325.361882
 20
535.439809
 30
0.0
 11
325.53219
 21
535.269168
 31
0.0
  0
ARC
  5
105
330
7B
100
AcDbEntity
  8
0
  6
Continuous
 62
     0
370
     0
100
AcDbCircle
 10
326.532244
 20
535.269076
 30
0.0
 40
1.000053852843294
100
AcDbArc
 50
90.005267
 51
179.994733
  0
LINE
  5
106
330
7B
100
AcDbEntity
  8
0
  6
Continuous
 62
     0
370
     0
100
AcDbLine
 10
326.532152
 20
536.26913
 30
0.0
 11
326.36317
 21
536.439436
 31
0.0
  0
LINE
  5
107
330
7B
100
AcDbEntity
  8
0
  6
Continuous
 62
     0
370
     0
100
AcDbLine
 10
326.532152
 20
535.269168
 30
0.0
 11
326.532152
 21
536.26913
 31
0.0
  0
LINE
  5
108
330
7B
100
AcDbEntity
  8
0
  6
Continuous
 62
     0
370
     0
100
AcDbLine
 10
325.53219
 20
535.269168
 30
0.0
 11
326.532152
 21
535.269168
 31
0.0
  0
LINE
  5
109
330
7B
100
AcDbEntity
  8
0
  6
Continuous
 62
     0
370
     0
100
AcDbLine
 10
325.53219
 20
535.269168
 30
0.0
 11
325.53219
 21
526.25179
 31
0.0
  0
LINE
  5
10A
330
7B
100
AcDbEntity
  8
0
  6
Continuous
 62
     0
370
     0
100
AcDbLine
 10
325.53219
 20
526.25179
 30
0.0
 11
326.532152
 21
526.25179
 31
0.0
  0
LINE
  5
10B
330
7B
100
AcDbEntity
  8
0
  6
Continuous
 62
     0
370
     0
100
AcDbLine
 10
326.532152
 20
526.25179
 30
0.0
 11
326.532152
 21
535.269168
 31
0.0
  0
LINE
  5
10C
330
7B
100
AcDbEntity
  8
0
  6
Continuous
 62
     0
370
     0
100
AcDbLine
 10
326.532152
 20
525.251828
 30
0.0
 11
326.532152
 21
526.25179
 31
0.0
  0
ARC
  5
10D
330
7B
100
AcDbEntity
  8
0
  6
Continuous
 62
     0
370
     0
100
AcDbCircle
 10
326.532244
 20
526.251882
 30
0.0
 40
1.000053852844701
100
AcDbArc
 50
180.005267
 51
269.994733
  0
LINE
  5
10E
330
7B
100
AcDbEntity
  8
0
  6
Continuous
 62
     0
370
     0
100
AcDbLine
 10
325.53219
 20
526.25179
 30
0.0
 11
325.361882
 21
526.081149
 31
0.0
  0
ARC
  5
10F
330
7B
100
AcDbEntity
  8
0
  6
Continuous
 62
     0
370
     0
100
AcDbCircle
 10
326.361606
 20
526.081244
 30
0.0
 40
0.9997233760787703
100
AcDbArc
 50
180.005446
 51
270.089652
  0
LINE
  5
110
330
7B
100
AcDbEntity
  8
0
  6
Continuous
 62
     0
370
     0
100
AcDbLine
 10
326.36317
 20
525.081522
 30
0.0
 11
326.532152
 21
525.251828
 31
0.0
  0
LWPOLYLINE
  5
111
330
7B
100
AcDbEntity
  8
0
  6
Continuous
 62
     0
370
     0
100
AcDbPolyline
 90
       10
 70
     0
 43
0.0
 10
325.361877
 20
526.081177
 10
325.354828
 20
526.034851
 10
325.347809
 20
525.911499
 10
325.340912
 20
525.711487
 10
325.334167
 20
525.436707
 10
325.327698
 20
525.090088
 10
325.321564
 20
524.674683
 10
325.315796
 20
524.193909
 10
325.310608
 20
523.65332
 10
325.306
 20
523.050964
  0
LWPOLYLINE
  5
112
330
7B
100
AcDbEntity
  8
0
  6
Continuous
 62
     0
370
     0
100
AcDbPolyline
 90
        9
 70
     0
 43
0.0
 10
325.306
 20
523.050964
 10
325.335541
 20
522.391357
 10
325.410828
 20
521.730652
 10
325.517029
 20
521.068909
 10
325.643677
 20
520.40564
 10
325.785126
 20
519.740295
 10
325.936432
 20
519.072205
 10
326.093506
 20
518.401855
 10
326.271606
 20
517.654114
  0
LWPOLYLINE
  5
113
330
7B
100
AcDbEntity
  8
0
  6
Continuous
 62
     0
370
     0
100
AcDbPolyline
 90
       12
 70
     0
 43
0.0
 10
325.361877
 20
535.439819
 10
325.355133
 20
535.482361
 10
325.348541
 20
535.592712
 10
325.342224
 20
535.764587
 10
325.336273
 20
535.989502
 10
325.33075
 20
536.258606
 10
325.325653
 20
536.564026
 10
325.320953
 20
536.898865
 10
325.316681
 20
537.257568
 10
325.312775
 20
537.635864
 10
325.309204
 20
538.030029
 10
325.305725
 20
538.470032
  0
LINE
  5
114
330
7B
100
AcDbEntity
  8
0
  6
Continuous
 62
     0
370
     0
100
AcDbLine
 10
325.30574
 20
538.470016
 30
0.0
 11
325.305829
 21
536.508348
 31
0.0
  0
LINE
  5
115
330
7B
100
AcDbEntity
  8
0
  6
Continuous
 62
     0
370
     0
100
AcDbLine
 10
325.305829
 20
536.508348
 30
0.0
 11
325.305942
 21
530.760479
 31
0.0
  0
LINE
  5
116
330
7B
100
AcDbEntity
  8
0
  6
Continuous
 62
     0
370
     0
100
AcDbLine
 10
325.305942
 20
530.760479
 30
0.0
 11
325.305829
 21
525.01261
 31
0.0
  0
LINE
  5
117
330
7B
100
AcDbEntity
  8
0
  6
Continuous
 62
     0
370
     0
100
AcDbLine
 10
325.305829
 20
525.01261
 30
0.0
 11
325.30574
 21
523.050943
 31
0.0
  0
LWPOLYLINE
  5
118
330
7B
100
AcDbEntity
  8
0
  6
Continuous
 62
     0
370
     0
100
AcDbPolyline
 90
        9
 70
     0
 43
0.0
 10
326.271606
 20
543.866821
 10
326.111603
 20
543.195496
 10
325.954071
 20
542.524902
 10
325.801941
 20
541.856506
 10
325.659119
 20
541.190918
 10
325.530548
 20
540.527466
 10
325.4216
 20
539.86554
 10
325.342163
 20
539.204773
 10
325.306
 20
538.470032
  0
ARC
  5
119
330
7B
100
AcDbEntity
  8
0
  6
Continuous
 62
     0
370
     0
100
AcDbCircle
 10
324.560787
 20
592.358548
 30
0.0
 40
55.85516932984766
100
AcDbArc
 50
269.755812
 51
270.764281
  0
LINE
  5
11A
330
7B
100
AcDbEntity
  8
0
  6
Continuous
 62
     0
370
     0
100
AcDbLine
 10
324.322739
 20
536.503886
 30
0.0
 11
324.322791
 21
536.266887
 31
0.0
  0
LINE
  5
11B
330
7B
100
AcDbEntity
  8
0
  6
Continuous
 62
     0
370
     0
100
AcDbLine
 10
324.322791
 20
536.266887
 30
0.0
 11
324.323433
 21
530.760479
 31
0.0
  0
LINE
  5
11C
330
7B
100
AcDbEntity
  8
0
  6
Continuous
 62
     0
370
     0
100
AcDbLine
 10
324.323433
 20
530.760479
 30
0.0
 11
325.305942
 21
530.760479
 31
0.0
  0
ARC
  5
11D
330
7B
100
AcDbEntity
  8
0
  6
Continuous
 62
     0
370
     0
100
AcDbCircle
 10
324.560436
 20
581.208676
 30
0.0
 40
42.74515844429686
100
AcDbArc
 50
269.680702
 51
270.999059
  0
LINE
  5
11E
330
7B
100
AcDbEntity
  8
0
  6
Continuous
 62
     0
370
     0
100
AcDbLine
 10
324.322227
 20
538.464182
 30
0.0
 11
324.322739
 21
536.503886
 31
0.0
  0
LWPOLYLINE
  5
11F
330
7B
100
AcDbEntity
  8
0
  6
Continuous
 62
     0
370
     0
100
AcDbPolyline
 90
       10
 70
     0
 43
0.0
 10
326.271606
 20
543.866821
 10
325.960999
 20
543.303162
 10
325.657318
 20
542.735718
 10
325.366516
 20
542.16156
 10
325.095032
 20
541.578064
 10
324.849731
 20
540.982971
 10
324.638977
 20
540.374756
 10
324.473083
 20
539.75293
 10
324.36322
 20
539.118286
 10
324.322235
 20
538.464172
  0
ARC
  5
120
330
7B
100
AcDbEntity
  8
0
  6
Continuous
 62
     0
370
     0
100
AcDbCircle
 10
324.560787
 20
469.16241
 30
0.0
 40
55.85516932675239
100
AcDbArc
 50
89.235719
 51
90.244188
  0
LINE
  5
121
330
7B
100
AcDbEntity
  8
0
  6
Continuous
 62
     0
370
     0
100
AcDbLine
 10
324.323433
 20
530.760479
 30
0.0
 11
324.322791
 21
525.254071
 31
0.0
  0
LINE
  5
122
330
7B
100
AcDbEntity
  8
0
  6
Continuous
 62
     0
370
     0
100
AcDbLine
 10
324.322791
 20
525.254071
 30
0.0
 11
324.322739
 21
525.017072
 31
0.0
  0
LINE
  5
123
330
7B
100
AcDbEntity
  8
0
  6
Continuous
 62
     0
370
     0
100
AcDbLine
 10
324.322739
 20
525.017072
 30
0.0
 11
324.322227
 21
523.056776
 31
0.0
  0
ARC
  5
124
330
7B
100
AcDbEntity
  8
0
  6
Continuous
 62
     0
370
     0
100
AcDbCircle
 10
324.560436
 20
480.312282
 30
0.0
 40
42.74515866742594
100
AcDbArc
 50
89.000941
 51
90.319298
  0
LWPOLYLINE
  5
125
330
7B
100
AcDbEntity
  8
0
  6
Continuous
 62
     0
370
     0
100
AcDbPolyline
 90
       10
 70
     0
 43
0.0
 10
324.322235
 20
523.056763
 10
324.361816
 20
522.414246
 10
324.470551
 20
521.77948
 10
324.635529
 20
521.157349
 10
324.845551
 20
520.548889
 10
325.090332
 20
519.953613
 10
325.361389
 20
519.369873
 10
325.651917
 20
518.795593
 10
325.955414
 20
518.228027
 10
326.271606
 20
517.654114
  0
LINE
  5
126
330
7B
100
AcDbEntity
  8
0
  6
Continuous
 62
     0
370
     0
100
AcDbLine
 10
365.549529
 20
525.251828
 30
0.0
 11
326.532152
 21
525.251828
 31
0.0
  0
LINE
  5
127
330
7B
100
AcDbEntity
  8
0
  6
Continuous
 62
     0
370
     0
100
AcDbLine
 10
365.549529
 20
526.25179
 30
0.0
 11
326.532152
 21
526.25179
 31
0.0
  0
LINE
  5
128
330
7B
100
AcDbEntity
  8
0
  6
Continuous
 62
     0
370
     0
100
AcDbLine
 10
365.549529
 20
535.269168
 30
0.0
 11
326.532152
 21
535.269168
 31
0.0
  0
LINE
  5
129
330
7B
100
AcDbEntity
  8
0
  6
Continuous
 62
     0
370
     0
100
AcDbLine
 10
365.549529
 20
536.26913
 30
0.0
 11
326.532152
 21
536.26913
 31
0.0
  0
ARC
  5
12A
330
7B
100
AcDbEntity
  8
0
  6
Continuous
 62
     0
370
    30
100
AcDbCircle
 10
346.040827
 20
530.760492
 30
0.0
 40
24.00001348890065
100
AcDbArc
 50
269.999954
 51
359.999968
  0
ARC
  5
12B
330
7B
100
AcDbEntity
  8
0
  6
Continuous
 62
     0
370
    30
100
AcDbCircle
 10
346.040841
 20
530.760479
 30
0.0
 40
24.00000000003322
100
AcDbArc
 50
0.0
 51
269.999922
  0
ENDBLK
  5
12D
330
7B
100
AcDbEntity
  8
0
100
AcDbBlockEnd
  0
BLOCK
  5
18B
330
12F
100
AcDbEntity
  8
0
100
AcDbBlockBegin
  2
b
 70
     0
 10
267.221558
 20
196.540741
 30
0.0
  3
b
  1

  0
ARC
  5
130
330
12F
100
AcDbEntity
  8
0
  6
Continuous
 62
     0
370
    30
100
AcDbCircle
 10
396.094777
 20
249.127989
 30
0.0
 40
0.6999999880795758
100
AcDbArc
 50
270.0
 51
359.7
  0
LINE
  5
131
330
12F
100
AcDbEntity
  8
0
  6
Continuous
 62
     0
370
    30
100
AcDbLine
 10
396.794768
 20
249.124324
 30
0.0
 11
396.848194
 21
259.327989
 31
0.0
  0
LWPOLYLINE
  5
132
330
12F
100
AcDbEntity
  8
0
  6
Continuous
 62
     0
370
    30
100
AcDbPolyline
 90
        6
 70
     0
 43
0.0
 10
396.848206
 20
259.328003
 10
396.815155
 20
259.328003
 10
396.719116
 20
259.328003
 10
396.569702
 20
259.328003
 10
396.378967
 20
259.328003
 10
396.148193
 20
259.328003
  0
LINE
  5
133
330
12F
100
AcDbEntity
  8
0
  6
Continuous
 62
     0
370
     0
100
AcDbLine
 10
396.148204
 20
259.327989
 30
0.0
 11
396.094777
 21
249.124324
 31
0.0
  0
ARC
  5
134
330
12F
100
AcDbEntity
  8
0
  6
Continuous
 62
     0
370
     0
100
AcDbCircle
 10
396.444771
 20
282.547272
 30
0.0
 40
33.42478041267238
100
AcDbArc
 50
269.40004
 51
270.599965
  0
LINE
  5
135
330
12F
100
AcDbEntity
  8
0
  6
Continuous
 62
     0
370
    30
100
AcDbLine
 10
366.8558
 20
248.427989
 30
0.0
 11
396.094777
 21
248.427989
 31
0.0
  0
LINE
  5
136
330
12F
100
AcDbEntity
  8
0
  6
Continuous
 62
     0
370
    30
100
AcDbLine
 10
295.987466
 20
248.427989
 30
0.0
 11
325.225942
 21
248.427989
 31
0.0
  0
LWPOLYLINE
  5
137
330
12F
100
AcDbEntity
  8
0
  6
Continuous
 62
     0
370
     0
100
AcDbPolyline
 90
        6
 70
     0
 43
0.0
 10
396.094788
 20
248.427994
 10
396.094788
 20
248.464691
 10
396.094788
 20
248.564026
 10
396.094788
 20
248.705048
 10
396.094788
 20
248.894058
 10
396.094788
 20
249.124329
  0
LINE
  5
138
330
12F
100
AcDbEntity
  8
0
  6
Continuous
 62
     0
370
     0
100
AcDbLine
 10
322.040871
 20
249.124324
 30
0.0
 11
295.987466
 21
249.124324
 31
0.0
  0
LINE
  5
139
330
12F
100
AcDbEntity
  8
0
  6
Continuous
 62
     0
370
     0
100
AcDbLine
 10
396.094777
 20
249.124324
 30
0.0
 11
370.040871
 21
249.124324
 31
0.0
  0
LINE
  5
13A
330
12F
100
AcDbEntity
  8
0
  6
Continuous
 62
     0
370
     0
100
AcDbLine
 10
295.987466
 20
249.124324
 30
0.0
 11
295.987466
 21
248.427989
 31
0.0
  0
ARC
  5
13B
330
12F
100
AcDbEntity
  8
0
  6
Continuous
 62
     0
370
    30
100
AcDbCircle
 10
295.987466
 20
249.127989
 30
0.0
 40
0.6999999880786458
100
AcDbArc
 50
180.3
 51
270.0
  0
ARC
  5
13C
330
12F
100
AcDbEntity
  8
0
  6
Continuous
 62
     0
370
     0
100
AcDbCircle
 10
295.637472
 20
282.547272
 30
0.0
 40
33.42478041273749
100
AcDbArc
 50
269.400035
 51
270.59996
  0
LINE
  5
13D
330
12F
100
AcDbEntity
  8
0
  6
Continuous
 62
     0
370
     0
100
AcDbLine
 10
295.987466
 20
249.124324
 30
0.0
 11
295.934039
 21
259.327989
 31
0.0
  0
LINE
  5
13E
330
12F
100
AcDbEntity
  8
0
  6
Continuous
 62
     0
370
    30
100
AcDbLine
 10
295.934039
 20
259.327989
 30
0.0
 11
295.234049
 21
259.327989
 31
0.0
  0
LINE
  5
13F
330
12F
100
AcDbEntity
  8
0
  6
Continuous
 62
     0
370
    30
100
AcDbLine
 10
295.234049
 20
259.327989
 30
0.0
 11
295.287476
 21
249.124324
 31
0.0
  0
LINE
  5
140
330
12F
100
AcDbEntity
  8
0
  6
Continuous
 62
     0
370
    30
100
AcDbLine
 10
317.540874
 20
259.327989
 30
0.0
 11
295.934039
 21
259.327989
 31
0.0
  0
LINE
  5
141
330
12F
100
AcDbEntity
  8
0
  6
Continuous
 62
     0
370
    30
100
AcDbLine
 10
396.148204
 20
259.327989
 30
0.0
 11
374.540874
 21
259.327989
 31
0.0
  0
ARC
  5
142
330
12F
100
AcDbEntity
  8
0
  6
Continuous
 62
     0
370
    30
100
AcDbCircle
 10
346.041142
 20
204.207989
 30
0.0
 40
3.950000000000013
100
AcDbArc
 50
90.0
 51
269.999997
  0
ARC
  5
143
330
12F
100
AcDbEntity
  8
0
  6
Continuous
 62
     0
370
    30
100
AcDbCircle
 10
346.041142
 20
204.207989
 30
0.0
 40
3.949999999999978
100
AcDbArc
 50
269.999997
 51
90.0
  0
ARC
  5
144
330
12F
100
AcDbEntity
  8
0
  6
Continuous
 62
     0
370
    30
100
AcDbCircle
 10
346.041188
 20
204.207989
 30
0.0
 40
3.450000000319434
100
AcDbArc
 50
269.99922
 51
90.00078
  0
ARC
  5
145
330
12F
100
AcDbEntity
  8
0
  6
Continuous
 62
     0
370
    30
100
AcDbCircle
 10
346.041095
 20
204.207989
 30
0.0
 40
3.450000000319427
100
AcDbArc
 50
89.99922
 51
270.00078
  0
LINE
  5
146
330
12F
100
AcDbEntity
  8
0
  6
Continuous
 62
     0
370
    30
100
AcDbLine
 10
367.541438
 20
195.207991
 30
0.0
 11
346.041142
 21
195.20799
 31
0.0
  0
LINE
  5
147
330
12F
100
AcDbEntity
  8
0
  6
Continuous
 62
     0
370
    30
100
AcDbLine
 10
346.041142
 20
195.20799
 30
0.0
 11
324.540849
 21
195.207991
 31
0.0
  0
LWPOLYLINE
  5
148
330
12F
100
AcDbEntity
  8
0
  6
Continuous
 62
     0
370
    30
100
AcDbPolyline
 90
       28
 70
     0
 43
0.0
 10
368.040741
 20
195.707611
 10
368.003204
 20
195.707535
 10
367.891205
 20
195.707367
 10
367.705536
 20
195.707138
 10
367.446991
 20
195.706894
 10
367.116455
 20
195.70668
 10
366.715057
 20
195.706528
 10
366.243958
 20
195.706451
 10
365.704254
 20
195.706467
 10
365.097717
 20
195.706558
 10
364.426971
 20
195.706741
 10
363.694855
 20
195.70697
 10
362.904083
 20
195.70726
 10
362.057129
 20
195.707565
 10
361.156097
 20
195.707825
 10
360.203522
 20
195.707962
 10
359.202393
 20
195.707916
 10
358.156281
 20
195.707687
 10
357.069122
 20
195.707336
 10
355.944794
 20
195.706985
 10
354.787292
 20
195.70668
 10
353.600342
 20
195.706497
 10
352.387695
 20
195.706451
 10
351.153076
 20
195.706573
 10
349.90033
 20
195.706894
 10
348.634705
 20
195.707306
 10
347.361908
 20
195.707703
 10
346.041138
 20
195.707993
  0
LWPOLYLINE
  5
149
330
12F
100
AcDbEntity
  8
0
  6
Continuous
 62
     0
370
    30
100
AcDbPolyline
 90
       28
 70
     0
 43
0.0
 10
346.041138
 20
195.707993
 10
344.765778
 20
195.707718
 10
343.492828
 20
195.707321
 10
342.226868
 20
195.706894
 10
340.973572
 20
195.706589
 10
339.73819
 20
195.706451
 10
338.524719
 20
195.706482
 10
337.336792
 20
195.706665
 10
336.178162
 20
195.70697
 10
335.052612
 20
195.707336
 10
333.96405
 20
195.707672
 10
332.916412
 20
195.707916
 10
331.913605
 20
195.707977
 10
330.959229
 20
195.707825
 10
330.056335
 20
195.707581
 10
329.207428
 20
195.707275
 10
328.414612
 20
195.706985
 10
327.680359
 20
195.706741
 10
327.007385
 20
195.706558
 10
326.398499
 20
195.706467
 10
325.856384
 20
195.706451
 10
325.382812
 20
195.706528
 10
324.978912
 20
195.70668
 10
324.645844
 20
195.706879
 10
324.384735
 20
195.707123
 10
324.196442
 20
195.707352
 10
324.081787
 20
195.707535
 10
324.041534
 20
195.707611
  0
LINE
  5
14A
330
12F
100
AcDbEntity
  8
0
  6
Continuous
 62
     0
370
    30
100
AcDbLine
 10
368.041142
 20
245.207991
 30
0.0
 11
366.751014
 21
245.207991
 31
0.0
  0
LINE
  5
14B
330
12F
100
AcDbEntity
  8
0
  6
Continuous
 62
     0
370
    30
100
AcDbLine
 10
325.330728
 20
245.207991
 30
0.0
 11
324.041142
 21
245.207991
 31
0.0
  0
LWPOLYLINE
  5
14C
330
12F
100
AcDbEntity
  8
0
  6
Continuous
 62
     0
370
     0
100
AcDbPolyline
 90
       25
 70
     0
 43
0.0
 10
346.041138
 20
208.307983
 10
346.575836
 20
208.27243
 10
347.104156
 20
208.166168
 10
347.612701
 20
207.992996
 10
348.09201
 20
207.758377
 10
348.537598
 20
207.465088
 10
348.938477
 20
207.112564
 10
349.290039
 20
206.710785
 10
349.587402
 20
206.267487
 10
349.824402
 20
205.786911
 10
349.997498
 20
205.278183
 10
350.103851
 20
204.751953
 10
350.140778
 20
204.217834
 10
350.106445
 20
203.683578
 10
350.002533
 20
203.156906
 10
349.831787
 20
202.647369
 10
349.597015
 20
202.165604
 10
349.301758
 20
201.720871
 10
348.952087
 20
201.317459
 10
348.553009
 20
200.962875
 10
348.108917
 20
200.667313
 10
347.630707
 20
200.430496
 10
347.123138
 20
200.25499
 10
346.595245
 20
200.146317
 10
346.041168
 20
200.108383
  0
LWPOLYLINE
  5
14D
330
12F
100
AcDbEntity
  8
0
  6
Continuous
 62
     0
370
     0
100
AcDbPolyline
 90
       25
 70
     0
 43
0.0
 10
346.041168
 20
200.108383
 10
345.50647
 20
200.143707
 10
344.978088
 20
200.249863
 10
344.469543
 20
200.423019
 10
343.990234
 20
200.6577
 10
343.544678
 20
200.95105
 10
343.143829
 20
201.303619
 10
342.792267
 20
201.705429
 10
342.494934
 20
202.148743
 10
342.257935
 20
202.629318
 10
342.084839
 20
203.138062
 10
341.978455
 20
203.664291
 10
341.941498
 20
204.198425
 10
341.9758
 20
204.732681
 10
342.079773
 20
205.259354
 10
342.25061
 20
205.768845
 10
342.485474
 20
206.25061
 10
342.780701
 20
206.695358
 10
343.130341
 20
207.098801
 10
343.529419
 20
207.4534
 10
343.973541
 20
207.748932
 10
344.451782
 20
207.985657
 10
344.959381
 20
208.161102
 10
345.487274
 20
208.269852
 10
346.041138
 20
208.307983
  0
LINE
  5
14E
330
12F
100
AcDbEntity
  8
0
  6
Continuous
 62
     0
370
    30
100
AcDbLine
 10
368.041142
 20
245.207991
 30
0.0
 11
368.041142
 21
195.70799
 31
0.0
  0
LINE
  5
14F
330
12F
100
AcDbEntity
  8
0
  6
Continuous
 62
     0
370
    30
100
AcDbLine
 10
324.041142
 20
245.207991
 30
0.0
 11
324.041142
 21
195.70799
 31
0.0
  0
LINE
  5
150
330
12F
100
AcDbEntity
  8
0
  6
Continuous
 62
     0
370
    30
100
AcDbLine
 10
324.540755
 20
195.208377
 30
0.0
 11
324.04144
 21
195.707692
 31
0.0
  0
LINE
  5
151
330
12F
100
AcDbEntity
  8
0
  6
Continuous
 62
     0
370
    30
100
AcDbLine
 10
367.54153
 20
195.208379
 30
0.0
 11
368.040843
 21
195.707692
 31
0.0
  0
LINE
  5
152
330
12F
100
AcDbEntity
  8
0
  6
Continuous
 62
     0
370
    30
100
AcDbLine
 10
317.540874
 20
259.44795
 30
0.0
 11
317.540874
 21
249.72795
 31
0.0
  0
LINE
  5
153
330
12F
100
AcDbEntity
  8
0
  6
Continuous
 62
     0
370
     0
100
AcDbLine
 10
317.540874
 20
249.72795
 30
0.0
 11
318.040874
 21
249.72795
 31
0.0
  0
LINE
  5
154
330
12F
100
AcDbEntity
  8
0
  6
Continuous
 62
     0
370
     0
100
AcDbLine
 10
318.040874
 20
249.72795
 30
0.0
 11
318.040874
 21
259.44795
 31
0.0
  0
LINE
  5
155
330
12F
100
AcDbEntity
  8
0
  6
Continuous
 62
     0
370
    30
100
AcDbLine
 10
318.040874
 20
259.44795
 30
0.0
 11
317.540874
 21
259.44795
 31
0.0
  0
LINE
  5
156
330
12F
100
AcDbEntity
  8
0
  6
Continuous
 62
     0
370
    30
100
AcDbLine
 10
374.040874
 20
249.22795
 30
0.0
 11
318.040874
 21
249.22795
 31
0.0
  0
LINE
  5
157
330
12F
100
AcDbEntity
  8
0
  6
Continuous
 62
     0
370
    30
100
AcDbLine
 10
374.540874
 20
259.44795
 30
0.0
 11
374.540874
 21
249.72795
 31
0.0
  0
LINE
  5
158
330
12F
100
AcDbEntity
  8
0
  6
Continuous
 62
     0
370
     0
100
AcDbLine
 10
374.040874
 20
259.44795
 30
0.0
 11
374.040874
 21
249.72795
 31
0.0
  0
LINE
  5
159
330
12F
100
AcDbEntity
  8
0
  6
Continuous
 62
     0
370
     0
100
AcDbLine
 10
374.040874
 20
249.72795
 30
0.0
 11
374.540874
 21
249.72795
 31
0.0
  0
LINE
  5
15A
330
12F
100
AcDbEntity
  8
0
  6
Continuous
 62
     0
370
    30
100
AcDbLine
 10
374.540874
 20
259.44795
 30
0.0
 11
374.040874
 21
259.44795
 31
0.0
  0
LINE
  5
15B
330
12F
100
AcDbEntity
  8
0
  6
Continuous
 62
     0
370
    30
100
AcDbLine
 10
374.040874
 20
259.44795
 30
0.0
 11
318.040874
 21
259.44795
 31
0.0
  0
LINE
  5
15C
330
12F
100
AcDbEntity
  8
0
  6
Continuous
 62
     0
370
     0
100
AcDbLine
 10
318.040874
 20
249.72795
 30
0.0
 11
374.040874
 21
249.72795
 31
0.0
  0
LINE
  5
15D
330
12F
100
AcDbEntity
  8
0
  6
Continuous
 62
     0
370
     0
100
AcDbLine
 10
318.040874
 20
249.72795
 30
0.0
 11
318.040874
 21
249.22795
 31
0.0
  0
LWPOLYLINE
  5
15E
330
12F
100
AcDbEntity
  8
0
  6
Continuous
 62
     0
370
     0
100
AcDbPolyline
 90
        6
 70
     0
 43
0.0
 10
374.040863
 20
249.227951
 10
374.040863
 20
249.252014
 10
374.040863
 20
249.317703
 10
374.040863
 20
249.411026
 10
374.040863
 20
249.535278
 10
374.040863
 20
249.727951
  0
ARC
  5
15F
330
12F
100
AcDbEntity
  8
0
  6
Continuous
 62
     0
370
    30
100
AcDbCircle
 10
374.040874
 20
249.72795
 30
0.0
 40
0.500000000000437
100
AcDbArc
 50
270.0
 51
360.0
  0
ARC
  5
160
330
12F
100
AcDbEntity
  8
0
  6
Continuous
 62
     0
370
    30
100
AcDbCircle
 10
318.040874
 20
249.72795
 30
0.0
 40
0.4999999999992966
100
AcDbArc
 50
180.0
 51
270.0
  0
LWPOLYLINE
  5
161
330
12F
100
AcDbEntity
  8
0
  6
Continuous
 62
     0
370
     0
100
AcDbPolyline
 90
       17
 70
     0
 43
0.0
 10
365.718536
 20
241.634781
 10
365.728668
 20
242.357056
 10
365.736359
 20
243.073563
 10
365.744232
 20
243.776001
 10
365.752655
 20
244.457352
 10
365.760864
 20
245.111633
 10
365.768494
 20
245.732925
 10
365.775421
 20
246.31543
 10
365.781616
 20
246.853638
 10
365.787109
 20
247.342712
 10
365.791962
 20
247.77803
 10
365.796204
 20
248.155426
 10
365.799896
 20
248.470917
 10
365.803101
 20
248.721756
 10
365.805847
 20
248.906296
 10
365.808136
 20
249.022949
 10
365.810089
 20
249.070679
  0
LINE
  5
162
330
12F
100
AcDbEntity
  8
0
  6
Continuous
 62
     0
370
     0
100
AcDbLine
 10
365.810091
 20
249.070685
 30
0.0
 11
365.191753
 21
249.061733
 31
0.0
  0
LWPOLYLINE
  5
163
330
12F
100
AcDbEntity
  8
0
  6
Continuous
 62
     0
370
     0
100
AcDbPolyline
 90
        4
 70
     0
 43
0.0
 10
365.191742
 20
249.061737
 10
359.514191
 20
248.984344
 10
353.836456
 20
248.922241
 10
346.040863
 20
248.884384
  0
LINE
  5
164
330
12F
100
AcDbEntity
  8
0
  6
Continuous
 62
     0
370
     0
100
AcDbLine
 10
346.040871
 20
248.884388
 30
0.0
 11
346.040871
 21
241.450987
 31
0.0
  0
LWPOLYLINE
  5
165
330
12F
100
AcDbEntity
  8
0
  6
Continuous
 62
     0
370
     0
100
AcDbPolyline
 90
        4
 70
     0
 43
0.0
 10
346.040863
 20
241.450989
 10
352.034302
 20
241.473663
 10
358.01535
 20
241.531693
 10
365.718536
 20
241.634781
  0
LINE
  5
166
330
12F
100
AcDbEntity
  8
0
  6
Continuous
 62
     0
370
     0
100
AcDbLine
 10
365.718542
 20
241.634359
 30
0.0
 11
365.54956
 21
222.119226
 31
0.0
  0
LWPOLYLINE
  5
167
330
12F
100
AcDbEntity
  8
0
  6
Continuous
 62
     0
370
     0
100
AcDbPolyline
 90
        7
 70
     0
 43
0.0
 10
365.549561
 20
222.119232
 10
365.804077
 20
222.117294
 10
366.042419
 20
222.116058
 10
366.247803
 20
222.115616
 10
366.407074
 20
222.115982
 10
366.509857
 20
222.117142
 10
366.54953
 20
222.119232
  0
LINE
  5
168
330
12F
100
AcDbEntity
  8
0
  6
Continuous
 62
     0
370
    30
100
AcDbLine
 10
366.549522
 20
222.119226
 30
0.0
 11
366.71983
 21
241.634556
 31
0.0
  0
LWPOLYLINE
  5
169
330
12F
100
AcDbEntity
  8
0
  6
Continuous
 62
     0
370
     0
100
AcDbPolyline
 90
        7
 70
     0
 43
0.0
 10
366.719818
 20
241.634552
 10
366.686676
 20
241.632568
 10
366.5896
 20
241.631287
 10
366.435028
 20
241.630798
 10
366.233185
 20
241.631134
 10
365.997009
 20
241.632278
 10
365.718536
 20
241.634354
  0
ARC
  5
16A
330
12F
100
AcDbEntity
  8
0
  6
Continuous
 62
     0
370
    30
100
AcDbCircle
 10
365.54956
 20
222.127953
 30
0.0
 40
1.000000000000962
100
AcDbArc
 50
270.0
 51
359.5
  0
LINE
  5
16B
330
12F
100
AcDbEntity
  8
0
  6
Continuous
 62
     0
370
     0
100
AcDbLine
 10
365.54956
 20
222.119226
 30
0.0
 11
365.54956
 21
221.127953
 31
0.0
  0
LINE
  5
16C
330
12F
100
AcDbEntity
  8
0
  6
Continuous
 62
     0
370
    30
100
AcDbLine
 10
366.775972
 20
248.067787
 30
0.0
 11
366.71983
 21
241.634556
 31
0.0
  0
LWPOLYLINE
  5
16D
330
12F
100
AcDbEntity
  8
0
  6
Continuous
 62
     0
370
     0
100
AcDbPolyline
 90
        9
 70
     0
 43
0.0
 10
366.775726
 20
248.067795
 10
366.746124
 20
248.270447
 10
366.670685
 20
248.460037
 10
366.564331
 20
248.630676
 10
366.437469
 20
248.777023
 10
366.295837
 20
248.896378
 10
366.144348
 20
248.986389
 10
365.987091
 20
249.044907
 10
365.810089
 20
249.070679
  0
ARC
  5
16E
330
12F
100
AcDbEntity
  8
0
  6
Continuous
 62
     0
370
    30
100
AcDbCircle
 10
367.775728
 20
248.035907
 30
0.0
 40
0.9999907688785785
100
AcDbArc
 50
90.999833
 51
178.173569
  0
ARC
  5
16F
330
12F
100
AcDbEntity
  8
0
  6
Continuous
 62
     0
370
    30
100
AcDbCircle
 10
367.775839
 20
248.048938
 30
0.0
 40
0.9999929687379825
100
AcDbArc
 50
90.966432
 51
178.92004
  0
LINE
  5
170
330
12F
100
AcDbEntity
  8
0
  6
Continuous
 62
     0
370
     0
100
AcDbLine
 10
367.758973
 20
249.048789
 30
0.0
 11
367.759485
 21
249.058908
 31
0.0
  0
ARC
  5
171
330
12F
100
AcDbEntity
  8
0
  6
Continuous
 62
     0
370
    30
100
AcDbCircle
 10
367.775924
 20
248.059052
 30
0.0
 40
0.9999909637123057
100
AcDbArc
 50
90.941949
 51
179.499529
  0
LWPOLYLINE
  5
172
330
12F
100
AcDbEntity
  8
0
  6
Continuous
 62
     0
370
     0
100
AcDbPolyline
 90
       10
 70
     0
 43
0.0
 10
367.759491
 20
249.058914
 10
367.719879
 20
249.062149
 10
367.611145
 20
249.064514
 10
367.446167
 20
249.066177
 10
367.236145
 20
249.067337
 10
366.991394
 20
249.068146
 10
366.720337
 20
249.068756
 10
366.42981
 20
249.069305
 10
366.126312
 20
249.069901
 10
365.810089
 20
249.070679
  0
LWPOLYLINE
  5
173
330
12F
100
AcDbEntity
  8
0
  6
Continuous
 62
     0
370
     0
100
AcDbPolyline
 90
        4
 70
     0
 43
0.0
 10
326.36322
 20
241.634781
 10
332.33252
 20
241.552795
 10
338.309998
 20
241.487656
 10
346.040863
 20
241.450989
  0
LWPOLYLINE
  5
174
330
12F
100
AcDbEntity
  8
0
  6
Continuous
 62
     0
370
     0
100
AcDbPolyline
 90
        4
 70
     0
 43
0.0
 10
346.040863
 20
248.884384
 10
340.362793
 20
248.905167
 10
334.684937
 20
248.958893
 10
326.889984
 20
249.061737
  0
LINE
  5
175
330
12F
100
AcDbEntity
  8
0
  6
Continuous
 62
     0
370
     0
100
AcDbLine
 10
326.88999
 20
249.061733
 30
0.0
 11
326.271651
 21
249.070685
 31
0.0
  0
LWPOLYLINE
  5
176
330
12F
100
AcDbEntity
  8
0
  6
Continuous
 62
     0
370
     0
100
AcDbPolyline
 90
       17
 70
     0
 43
0.0
 10
326.271637
 20
249.070679
 10
326.273468
 20
249.028168
 10
326.275757
 20
248.916
 10
326.278442
 20
248.73584
 10
326.281616
 20
248.489273
 10
326.285278
 20
248.177948
 10
326.28949
 20
247.804489
 10
326.294281
 20
247.372818
 10
326.299744
 20
246.887115
 10
326.305908
 20
246.351974
 10
326.312775
 20
245.772186
 10
326.320343
 20
245.153259
 10
326.328552
 20
244.500961
 10
326.336975
 20
243.821182
 10
326.344879
 20
243.119934
 10
326.352539
 20
242.404083
 10
326.36322
 20
241.634781
  0
LWPOLYLINE
  5
177
330
12F
100
AcDbEntity
  8
0
  6
Continuous
 62
     0
370
     0
100
AcDbPolyline
 90
        7
 70
     0
 43
0.0
 10
326.36319
 20
241.634354
 10
326.108398
 20
241.632431
 10
325.86972
 20
241.63121
 10
325.664032
 20
241.630798
 10
325.504486
 20
241.631195
 10
325.401581
 20
241.632416
 10
325.361908
 20
241.634552
  0
LINE
  5
178
330
12F
100
AcDbEntity
  8
0
  6
Continuous
 62
     0
370
    30
100
AcDbLine
 10
325.361913
 20
241.634556
 30
0.0
 11
325.532221
 21
222.119226
 31
0.0
  0
LWPOLYLINE
  5
179
330
12F
100
AcDbEntity
  8
0
  6
Continuous
 62
     0
370
     0
100
AcDbPolyline
 90
        7
 70
     0
 43
0.0
 10
325.532227
 20
222.119232
 10
325.565308
 20
222.117294
 10
325.66217
 20
222.116058
 10
325.816437
 20
222.115616
 10
326.017914
 20
222.115982
 10
326.253754
 20
222.117142
 10
326.532196
 20
222.119232
  0
LINE
  5
17A
330
12F
100
AcDbEntity
  8
0
  6
Continuous
 62
     0
370
     0
100
AcDbLine
 10
326.532182
 20
222.119226
 30
0.0
 11
326.3632
 21
241.634359
 31
0.0
  0
LWPOLYLINE
  5
17B
330
12F
100
AcDbEntity
  8
0
  6
Continuous
 62
     0
370
     0
100
AcDbPolyline
 90
        7
 70
     0
 43
0.0
 10
326.532196
 20
221.12796
 10
326.532196
 20
221.160309
 10
326.532196
 20
221.255676
 10
326.532196
 20
221.408279
 10
326.532196
 20
221.608078
 10
326.532196
 20
221.84082
 10
326.532196
 20
222.119232
  0
ARC
  5
17C
330
12F
100
AcDbEntity
  8
0
  6
Continuous
 62
     0
370
    30
100
AcDbCircle
 10
326.532182
 20
222.127953
 30
0.0
 40
1.000000000000136
100
AcDbArc
 50
180.5
 51
270.0
  0
LINE
  5
17D
330
12F
100
AcDbEntity
  8
0
  6
Continuous
 62
     0
370
    30
100
AcDbLine
 10
325.361913
 20
241.634556
 30
0.0
 11
325.305771
 21
248.067787
 31
0.0
  0
LWPOLYLINE
  5
17E
330
12F
100
AcDbEntity
  8
0
  6
Continuous
 62
     0
370
     0
100
AcDbPolyline
 90
        9
 70
     0
 43
0.0
 10
326.271637
 20
249.070679
 10
326.111481
 20
249.049179
 10
325.953796
 20
248.994095
 10
325.801514
 20
248.907318
 10
325.6586
 20
248.790955
 10
325.529968
 20
248.647354
 10
325.421051
 20
248.47908
 10
325.341766
 20
248.291183
 10
325.30603
 20
248.067795
  0
ARC
  5
17F
330
12F
100
AcDbEntity
  8
0
  6
Continuous
 62
     0
370
    30
100
AcDbCircle
 10
324.305903
 20
248.048938
 30
0.0
 40
0.9999929687385469
100
AcDbArc
 50
1.07996
 51
89.033568
  0
ARC
  5
180
330
12F
100
AcDbEntity
  8
0
  6
Continuous
 62
     0
370
    30
100
AcDbCircle
 10
324.306014
 20
248.035907
 30
0.0
 40
0.9999907688784009
100
AcDbArc
 50
1.826431
 51
89.000167
  0
ARC
  5
181
330
12F
100
AcDbEntity
  8
0
  6
Continuous
 62
     0
370
    30
100
AcDbCircle
 10
324.305818
 20
248.059052
 30
0.0
 40
0.9999909637118828
100
AcDbArc
 50
0.500471
 51
89.058051
  0
LINE
  5
182
330
12F
100
AcDbEntity
  8
0
  6
Continuous
 62
     0
370
     0
100
AcDbLine
 10
324.322257
 20
249.058908
 30
0.0
 11
324.32277
 21
249.048789
 31
0.0
  0
LWPOLYLINE
  5
183
330
12F
100
AcDbEntity
  8
0
  6
Continuous
 62
     0
370
     0
100
AcDbPolyline
 90
       10
 70
     0
 43
0.0
 10
326.271637
 20
249.070679
 10
325.961029
 20
249.069916
 10
325.657349
 20
249.069321
 10
325.366577
 20
249.068771
 10
325.095093
 20
249.068161
 10
324.849762
 20
249.067352
 10
324.639038
 20
249.066193
 10
324.473145
 20
249.064545
 10
324.363251
 20
249.062195
 10
324.322266
 20
249.058914
  0
LINE
  5
184
330
12F
100
AcDbEntity
  8
0
  6
Continuous
 62
     0
370
    30
100
AcDbLine
 10
365.54956
 20
221.127953
 30
0.0
 11
326.532182
 21
221.127953
 31
0.0
  0
LINE
  5
185
330
12F
100
AcDbEntity
  8
0
  6
Continuous
 62
     0
370
     0
100
AcDbLine
 10
365.54956
 20
222.119226
 30
0.0
 11
326.532182
 21
222.119226
 31
0.0
  0
LINE
  5
186
330
12F
100
AcDbEntity
  8
0
  6
Continuous
 62
     0
370
    30
100
AcDbLine
 10
370.040871
 20
249.075588
 30
0.0
 11
322.040871
 21
249.075588
 31
0.0
  0
LINE
  5
187
330
12F
100
AcDbEntity
  8
0
  6
Continuous
 62
     0
370
    30
100
AcDbLine
 10
370.040871
 20
249.075588
 30
0.0
 11
370.040871
 21
249.227952
 31
0.0
  0
LINE
  5
188
330
12F
100
AcDbEntity
  8
0
  6
Continuous
 62
     0
370
    30
100
AcDbLine
 10
322.040871
 20
249.075588
 30
0.0
 11
322.040871
 21
249.227952
 31
0.0
  0
LINE
  5
189
330
12F
100
AcDbEntity
  8
0
  6
Continuous
 62
     0
370
    30
100
AcDbLine
 10
367.758279
 20
249.035745
 30
0.0
 11
370.040871
 21
249.075588
 31
0.0
  0
LINE
  5
18A
330
12F
100
AcDbEntity
  8
0
  6
Continuous
 62
     0
370
    30
100
AcDbLine
 10
322.040871
 20
249.075588
 30
0.0
 11
324.323463
 21
249.035745
 31
0.0
  0
ENDBLK
  5
18C
330
12F
100
AcDbEntity
  8
0
100
AcDbBlockEnd
  0
BLOCK
  5
1F7
330
18E
100
AcDbEntity
  8
0
100
AcDbBlockBegin
  2
c
 70
     0
 10
267.221527
 20
89.072235
 30
0.0
  3
c
  1

  0
ARC
  5
18F
330
18E
100
AcDbEntity
  8
0
  6
Continuous
 62
     0
370
    30
100
AcDbCircle
 10
483.121005
 20
352.206118
 30
0.0
 40
0.6999999880787424
100
AcDbArc
 50
270.3
 51
0.0
  0
ARC
  5
190
330
18E
100
AcDbEntity
  8
0
  6
Continuous
 62
     0
370
    30
100
AcDbCircle
 10
483.121005
 20
469.313429
 30
0.0
 40
0.6999999880784751
100
AcDbArc
 50
0.0
 51
89.7
  0
LINE
  5
191
330
18E
100
AcDbEntity
  8
0
  6
Continuous
 62
     0
370
     0
100
AcDbLine
 10
483.12467
 20
352.206118
 30
0.0
 11
472.921005
 21
352.152691
 31
0.0
  0
LINE
  5
192
330
18E
100
AcDbEntity
  8
0
  6
Continuous
 62
     0
370
    30
100
AcDbLine
 10
472.921005
 20
352.152691
 30
0.0
 11
472.921005
 21
351.452701
 31
0.0
  0
LINE
  5
193
330
18E
100
AcDbEntity
  8
0
  6
Continuous
 62
     0
370
    30
100
AcDbLine
 10
472.921005
 20
351.452701
 30
0.0
 11
483.12467
 21
351.506127
 31
0.0
  0
ARC
  5
194
330
18E
100
AcDbEntity
  8
0
  6
Continuous
 62
     0
370
     0
100
AcDbCircle
 10
449.701722
 20
351.856124
 30
0.0
 40
33.42478041334619
100
AcDbArc
 50
359.400035
 51
0.59996
  0
LWPOLYLINE
  5
195
330
18E
100
AcDbEntity
  8
0
  6
Continuous
 62
     0
370
     0
100
AcDbPolyline
 90
        6
 70
     0
 43
0.0
 10
483.821014
 20
469.313416
 10
483.784302
 20
469.313416
 10
483.684967
 20
469.313416
 10
483.543945
 20
469.313416
 10
483.35495
 20
469.313416
 10
483.124664
 20
469.313416
  0
LINE
  5
196
330
18E
100
AcDbEntity
  8
0
  6
Continuous
 62
     0
370
     0
100
AcDbLine
 10
483.12467
 20
469.313429
 30
0.0
 11
483.12467
 21
352.206118
 31
0.0
  0
LINE
  5
197
330
18E
100
AcDbEntity
  8
0
  6
Continuous
 62
     0
370
     0
100
AcDbLine
 10
483.12467
 20
352.206118
 30
0.0
 11
483.821005
 21
352.206118
 31
0.0
  0
LINE
  5
198
330
18E
100
AcDbEntity
  8
0
  6
Continuous
 62
     0
370
    30
100
AcDbLine
 10
483.821005
 20
352.206118
 30
0.0
 11
483.821005
 21
469.313429
 31
0.0
  0
ARC
  5
199
330
18E
100
AcDbEntity
  8
0
  6
Continuous
 62
     0
370
     0
100
AcDbCircle
 10
449.701722
 20
469.663423
 30
0.0
 40
33.42478041298378
100
AcDbArc
 50
359.40004
 51
0.599965
  0
LINE
  5
19A
330
18E
100
AcDbEntity
  8
0
  6
Continuous
 62
     0
370
    30
100
AcDbLine
 10
483.12467
 20
470.01342
 30
0.0
 11
472.921005
 21
470.066846
 31
0.0
  0
LWPOLYLINE
  5
19B
330
18E
100
AcDbEntity
  8
0
  6
Continuous
 62
     0
370
    30
100
AcDbPolyline
 90
        6
 70
     0
 43
0.0
 10
472.92099
 20
470.066833
 10
472.921021
 20
470.033813
 10
472.92099
 20
469.937775
 10
472.92099
 20
469.78833
 10
472.921021
 20
469.597626
 10
472.92099
 20
469.366852
  0
LINE
  5
19C
330
18E
100
AcDbEntity
  8
0
  6
Continuous
 62
     0
370
     0
100
AcDbLine
 10
472.921005
 20
469.366856
 30
0.0
 11
483.12467
 21
469.313429
 31
0.0
  0
LINE
  5
19D
330
18E
100
AcDbEntity
  8
0
  6
Continuous
 62
     0
370
    30
100
AcDbLine
 10
472.921005
 20
469.366856
 30
0.0
 11
472.921005
 21
352.152691
 31
0.0
  0
LINE
  5
19E
330
18E
100
AcDbEntity
  8
0
  6
Continuous
 62
     0
370
    30
100
AcDbLine
 10
483.821003
 20
429.760006
 30
0.0
 11
487.041004
 21
429.760006
 31
0.0
  0
LINE
  5
19F
330
18E
100
AcDbEntity
  8
0
  6
Continuous
 62
     0
370
    30
100
AcDbLine
 10
483.821003
 20
391.760006
 30
0.0
 11
487.041004
 21
391.760006
 31
0.0
  0
LINE
  5
1A0
330
18E
100
AcDbEntity
  8
0
  6
Continuous
 62
     0
370
    30
100
AcDbLine
 10
531.991004
 20
440.089777
 30
0.0
 11
524.091004
 21
440.089777
 31
0.0
  0
LINE
  5
1A1
330
18E
100
AcDbEntity
  8
0
  6
Continuous
 62
     0
370
    30
100
AcDbLine
 10
531.991004
 20
440.089777
 30
0.0
 11
531.991004
 21
432.759777
 31
0.0
  0
LWPOLYLINE
  5
1A2
330
18E
100
AcDbEntity
  8
0
  6
Continuous
 62
     0
370
    30
100
AcDbPolyline
 90
       24
 70
     0
 43
0.0
 10
524.091003
 20
432.762299
 10
524.128052
 20
432.754486
 10
524.237732
 20
432.733124
 10
524.417664
 20
432.701263
 10
524.665222
 20
432.661926
 10
524.975403
 20
432.617706
 10
525.341919
 20
432.571045
 10
525.758606
 20
432.524384
 10
526.218018
 20
432.480682
 10
526.711365
 20
432.443542
 10
527.229553
 20
432.416687
 10
527.763306
 20
432.403107
 10
528.302368
 20
432.403107
 10
528.836487
 20
432.416595
 10
529.355347
 20
432.442871
 10
529.849609
 20
432.479279
 10
530.310242
 20
432.52243
 10
530.728149
 20
432.569031
 10
531.09613
 20
432.616119
 10
531.40802
 20
432.661011
 10
531.657898
 20
432.701141
 10
531.840454
 20
432.73349
 10
531.952271
 20
432.754486
 10
531.991028
 20
432.759766
  0
LWPOLYLINE
  5
1A3
330
18E
100
AcDbEntity
  8
0
  6
Continuous
 62
     0
370
    30
100
AcDbPolyline
 90
       22
 70
     0
 43
0.0
 10
524.591003
 20
440.589783
 10
524.629456
 20
440.589783
 10
524.743896
 20
440.589783
 10
524.932007
 20
440.589783
 10
525.18927
 20
440.589783
 10
525.510193
 20
440.589783
 10
525.887451
 20
440.589783
 10
526.312805
 20
440.589783
 10
526.776611
 20
440.589783
 10
527.268616
 20
440.589783
 10
527.777893
 20
440.589783
 10
528.292969
 20
440.589783
 10
528.802429
 20
440.589783
 10
529.294983
 20
440.589783
 10
529.759521
 20
440.589783
 10
530.185791
 20
440.589783
 10
530.564209
 20
440.589783
 10
530.886414
 20
440.589783
 10
531.145142
 20
440.589783
 10
531.334778
 20
440.589783
 10
531.450867
 20
440.589783
 10
531.491028
 20
440.589783
  0
LINE
  5
1A4
330
18E
100
AcDbEntity
  8
0
  6
Continuous
 62
     0
370
    30
100
AcDbLine
 10
531.491004
 20
440.589777
 30
0.0
 11
531.991004
 21
440.089777
 31
0.0
  0
LWPOLYLINE
  5
1A5
330
18E
100
AcDbEntity
  8
0
  6
Continuous
 62
     0
370
    30
100
AcDbPolyline
 90
       53
 70
     0
 43
0.0
 10
537.041016
 20
432.259766
 10
537.041016
 20
432.220642
 10
537.041016
 20
432.102997
 10
537.041016
 20
431.907654
 10
537.041016
 20
431.635406
 10
537.041016
 20
431.287018
 10
537.041016
 20
430.863403
 10
537.041016
 20
430.366364
 10
537.041016
 20
429.798004
 10
537.041016
 20
429.160492
 10
537.041016
 20
428.455933
 10
537.041016
 20
427.686584
 10
537.041016
 20
426.855255
 10
537.041016
 20
425.965332
 10
537.041016
 20
425.020142
 10
537.041016
 20
424.023071
 10
537.041016
 20
422.977478
 10
537.041016
 20
421.887146
 10
537.041016
 20
420.756256
 10
537.041016
 20
419.58902
 10
537.041016
 20
418.389709
 10
537.041016
 20
417.162537
 10
537.041016
 20
415.911896
 10
537.041016
 20
414.642426
 10
537.041016
 20
413.358826
 10
537.041016
 20
412.065796
 10
537.041016
 20
410.768036
 10
537.041016
 20
409.470245
 10
537.041016
 20
408.177124
 10
537.041016
 20
406.893372
 10
537.041016
 20
405.623688
 10
537.041016
 20
404.372772
 10
537.041016
 20
403.145264
 10
537.041016
 20
401.945587
 10
537.041016
 20
400.777924
 10
537.041016
 20
399.646515
 10
537.041016
 20
398.555634
 10
537.041016
 20
397.50946
 10
537.041016
 20
396.51178
 10
537.041016
 20
395.565887
 10
537.041016
 20
394.675232
 10
537.041016
 20
393.84314
 10
537.041016
 20
393.072968
 10
537.041016
 20
392.367615
 10
537.041016
 20
391.729218
 10
537.041016
 20
391.159973
 10
537.041016
 20
390.661987
 10
537.041016
 20
390.237457
 10
537.041016
 20
389.888123
 10
537.041016
 20
389.614868
 10
537.041016
 20
389.418549
 10
537.041016
 20
389.299927
 10
537.041016
 20
389.259766
  0
LINE
  5
1A6
330
18E
100
AcDbEntity
  8
0
  6
Continuous
 62
     0
370
    30
100
AcDbLine
 10
537.041004
 20
389.259777
 30
0.0
 11
536.541004
 21
388.759777
 31
0.0
  0
LWPOLYLINE
  5
1A7
330
18E
100
AcDbEntity
  8
0
  6
Continuous
 62
     0
370
    30
100
AcDbPolyline
 90
       54
 70
     0
 43
0.0
 10
536.541016
 20
432.759766
 10
536.54126
 20
432.720612
 10
536.541687
 20
432.603943
 10
536.542114
 20
432.410675
 10
536.542419
 20
432.141754
 10
536.542542
 20
431.798248
 10
536.54248
 20
431.381256
 10
536.542297
 20
430.891968
 10
536.541992
 20
430.331573
 10
536.541626
 20
429.701996
 10
536.54126
 20
429.006042
 10
536.541077
 20
428.246674
 10
536.541016
 20
427.426758
 10
536.541199
 20
426.548798
 10
536.541504
 20
425.615173
 10
536.541809
 20
424.628906
 10
536.542114
 20
423.593384
 10
536.542297
 20
422.512543
 10
536.54248
 20
421.39032
 10
536.542542
 20
420.230774
 10
536.542542
 20
419.037933
 10
536.542419
 20
417.816071
 10
536.542236
 20
416.56955
 10
536.541992
 20
415.302643
 10
536.541748
 20
414.019775
 10
536.541565
 20
412.725494
 10
536.541382
 20
411.424316
 10
536.541443
 20
410.120819
 10
536.541565
 20
408.81958
 10
536.541748
 20
407.525085
 10
536.542053
 20
406.241943
 10
536.542236
 20
404.974701
 10
536.542419
 20
403.727753
 10
536.542542
 20
402.505402
 10
536.542603
 20
401.312012
 10
536.54248
 20
400.151825
 10
536.542358
 20
399.028931
 10
536.542114
 20
397.947266
 10
536.541809
 20
396.910797
 10
536.541504
 20
395.923401
 10
536.54126
 20
394.988434
 10
536.541077
 20
394.109009
 10
536.541016
 20
393.287567
 10
536.541199
 20
392.526794
 10
536.541504
 20
391.829559
 10
536.54187
 20
391.198853
 10
536.542175
 20
390.637604
 10
536.542358
 20
390.147644
 10
536.542419
 20
389.72995
 10
536.542358
 20
389.385406
 10
536.542053
 20
389.114929
 10
536.541687
 20
388.919647
 10
536.54126
 20
388.800842
 10
536.541016
 20
388.759766
  0
LINE
  5
1A8
330
18E
100
AcDbEntity
  8
0
  6
Continuous
 62
     0
370
    30
100
AcDbLine
 10
523.291004
 20
388.759777
 30
0.0
 11
487.041004
 21
388.759777
 31
0.0
  0
LINE
  5
1A9
330
18E
100
AcDbEntity
  8
0
  6
Continuous
 62
     0
370
    30
100
AcDbLine
 10
487.041004
 20
432.759777
 30
0.0
 11
487.041004
 21
388.759777
 31
0.0
  0
LWPOLYLINE
  5
1AA
330
18E
100
AcDbEntity
  8
0
  6
Continuous
 62
     0
370
     0
100
AcDbPolyline
 90
       26
 70
     0
 43
0.0
 10
523.291016
 20
388.759766
 10
523.329041
 20
388.767883
 10
523.443115
 20
388.79187
 10
523.62915
 20
388.829834
 10
523.881531
 20
388.879578
 10
524.196289
 20
388.938202
 10
524.575195
 20
389.001678
 10
525.009644
 20
389.066193
 10
525.489868
 20
389.128021
 10
526.011902
 20
389.183014
 10
526.568237
 20
389.227814
 10
527.147888
 20
389.259796
 10
527.740295
 20
389.276459
 10
528.336609
 20
389.27655
 10
528.929077
 20
389.259979
 10
529.508911
 20
389.228149
 10
530.06543
 20
389.183441
 10
530.58783
 20
389.12854
 10
531.06842
 20
389.066742
 10
531.503296
 20
389.002228
 10
531.882751
 20
388.938751
 10
532.198059
 20
388.880035
 10
532.450989
 20
388.830231
 10
532.637634
 20
388.792114
 10
532.752258
 20
388.768036
 10
532.791016
 20
388.759766
  0
LINE
  5
1AB
330
18E
100
AcDbEntity
  8
0
  6
Continuous
 62
     0
370
    30
100
AcDbLine
 10
532.791004
 20
388.759777
 30
0.0
 11
536.541004
 21
388.759777
 31
0.0
  0
LWPOLYLINE
  5
1AC
330
18E
100
AcDbEntity
  8
0
  6
Continuous
 62
     0
370
     0
100
AcDbPolyline
 90
       24
 70
     0
 43
0.0
 10
532.140625
 20
432.759766
 10
532.102051
 20
432.752655
 10
531.986206
 20
432.731689
 10
531.797791
 20
432.69873
 10
531.542969
 20
432.656036
 10
531.223572
 20
432.60672
 10
530.84137
 20
432.554657
 10
530.408325
 20
432.503418
 10
529.931274
 20
432.456818
 10
529.416565
 20
432.418427
 10
528.875854
 20
432.390778
 10
528.320984
 20
432.376282
 10
527.761841
 20
432.376251
 10
527.20697
 20
432.390717
 10
526.66626
 20
432.418365
 10
526.15155
 20
432.456757
 10
525.674377
 20
432.503357
 10
525.241272
 20
432.554596
 10
524.858887
 20
432.606628
 10
524.539368
 20
432.655945
 10
524.284485
 20
432.698669
 10
524.095947
 20
432.731628
 10
523.979919
 20
432.752625
 10
523.940979
 20
432.759766
  0
LINE
  5
1AD
330
18E
100
AcDbEntity
  8
0
  6
Continuous
 62
     0
370
    30
100
AcDbLine
 10
523.291004
 20
388.759777
 30
0.0
 11
532.791004
 21
388.759777
 31
0.0
  0
LINE
  5
1AE
330
18E
100
AcDbEntity
  8
0
  6
Continuous
 62
     0
370
    30
100
AcDbLine
 10
531.991004
 20
432.759777
 30
0.0
 11
532.140607
 21
432.759777
 31
0.0
  0
LINE
  5
1AF
330
18E
100
AcDbEntity
  8
0
  6
Continuous
 62
     0
370
    30
100
AcDbLine
 10
487.041004
 20
432.759777
 30
0.0
 11
523.941004
 21
432.759777
 31
0.0
  0
LINE
  5
1B0
330
18E
100
AcDbEntity
  8
0
  6
Continuous
 62
     0
370
    30
100
AcDbLine
 10
536.541005
 20
432.759777
 30
0.0
 11
532.140607
 21
432.759777
 31
0.0
  0
LINE
  5
1B1
330
18E
100
AcDbEntity
  8
0
  6
Continuous
 62
     0
370
    30
100
AcDbLine
 10
537.041004
 20
432.259777
 30
0.0
 11
536.541004
 21
432.759777
 31
0.0
  0
LINE
  5
1B2
330
18E
100
AcDbEntity
  8
0
  6
Continuous
 62
     0
370
    30
100
AcDbLine
 10
524.091004
 20
440.089777
 30
0.0
 11
524.591004
 21
440.589777
 31
0.0
  0
LINE
  5
1B3
330
18E
100
AcDbEntity
  8
0
  6
Continuous
 62
     0
370
    30
100
AcDbLine
 10
524.091004
 20
440.089777
 30
0.0
 11
524.091004
 21
432.762297
 31
0.0
  0
LINE
  5
1B4
330
18E
100
AcDbEntity
  8
0
  6
Continuous
 62
     0
370
     0
100
AcDbLine
 10
472.801039
 20
558.760509
 30
0.0
 11
482.521039
 21
558.760509
 31
0.0
  0
LINE
  5
1B5
330
18E
100
AcDbEntity
  8
0
  6
Continuous
 62
     0
370
     0
100
AcDbLine
 10
482.521039
 20
558.760509
 30
0.0
 11
482.521039
 21
559.260509
 31
0.0
  0
LINE
  5
1B6
330
18E
100
AcDbEntity
  8
0
  6
Continuous
 62
     0
370
    30
100
AcDbLine
 10
482.521039
 20
559.260509
 30
0.0
 11
472.801039
 21
559.260509
 31
0.0
  0
LINE
  5
1B7
330
18E
100
AcDbEntity
  8
0
  6
Continuous
 62
     0
370
    30
100
AcDbLine
 10
472.801039
 20
559.260509
 30
0.0
 11
472.801039
 21
558.760509
 31
0.0
  0
LINE
  5
1B8
330
18E
100
AcDbEntity
  8
0
  6
Continuous
 62
     0
370
    30
100
AcDbLine
 10
483.021039
 20
558.760509
 30
0.0
 11
483.021039
 21
502.760509
 31
0.0
  0
LINE
  5
1B9
330
18E
100
AcDbEntity
  8
0
  6
Continuous
 62
     0
370
    30
100
AcDbLine
 10
472.801039
 20
558.760509
 30
0.0
 11
472.801039
 21
502.760509
 31
0.0
  0
LINE
  5
1BA
330
18E
100
AcDbEntity
  8
0
  6
Continuous
 62
     0
370
     0
100
AcDbLine
 10
472.801039
 20
502.760509
 30
0.0
 11
482.521039
 21
502.760509
 31
0.0
  0
LINE
  5
1BB
330
18E
100
AcDbEntity
  8
0
  6
Continuous
 62
     0
370
     0
100
AcDbLine
 10
482.521039
 20
502.760509
 30
0.0
 11
482.521039
 21
558.760509
 31
0.0
  0
LINE
  5
1BC
330
18E
100
AcDbEntity
  8
0
  6
Continuous
 62
     0
370
    30
100
AcDbLine
 10
472.801039
 20
502.260509
 30
0.0
 11
482.521039
 21
502.260509
 31
0.0
  0
LINE
  5
1BD
330
18E
100
AcDbEntity
  8
0
  6
Continuous
 62
     0
370
     0
100
AcDbLine
 10
482.521039
 20
502.260509
 30
0.0
 11
482.521039
 21
502.760509
 31
0.0
  0
LINE
  5
1BE
330
18E
100
AcDbEntity
  8
0
  6
Continuous
 62
     0
370
    30
100
AcDbLine
 10
472.801039
 20
502.760509
 30
0.0
 11
472.801039
 21
502.260509
 31
0.0
  0
ARC
  5
1BF
330
18E
100
AcDbEntity
  8
0
  6
Continuous
 62
     0
370
    30
100
AcDbCircle
 10
482.521039
 20
558.760509
 30
0.0
 40
0.5000000000012221
100
AcDbArc
 50
0.0
 51
90.0
  0
ARC
  5
1C0
330
18E
100
AcDbEntity
  8
0
  6
Continuous
 62
     0
370
    30
100
AcDbCircle
 10
482.521039
 20
502.760509
 30
0.0
 40
0.5000000000001421
100
AcDbArc
 50
270.0
 51
0.0
  0
LWPOLYLINE
  5
1C1
330
18E
100
AcDbEntity
  8
0
  6
Continuous
 62
     0
370
     0
100
AcDbPolyline
 90
        5
 70
     0
 43
0.0
 10
483.021027
 20
502.760498
 10
482.983398
 20
502.760498
 10
482.87616
 20
502.760498
 10
482.715485
 20
502.760498
 10
482.521027
 20
502.760498
  0
LWPOLYLINE
  5
1C2
330
18E
100
AcDbEntity
  8
0
  6
Continuous
 62
     0
370
     0
100
AcDbPolyline
 90
        6
 70
     0
 43
0.0
 10
483.021027
 20
558.760498
 10
482.996979
 20
558.760498
 10
482.931274
 20
558.760498
 10
482.837952
 20
558.760498
 10
482.713715
 20
558.760498
 10
482.521027
 20
558.760498
  0
ARC
  5
1C3
330
18E
100
AcDbEntity
  8
0
  6
Continuous
 62
     0
370
    30
100
AcDbCircle
 10
490.863435
 20
517.583449
 30
0.0
 40
7.499975632288328
100
AcDbArc
 50
91.210815
 51
179.00008
  0
ARC
  5
1C4
330
18E
100
AcDbEntity
  8
0
  6
Continuous
 62
     0
370
    30
100
AcDbCircle
 10
490.863435
 20
543.93757
 30
0.0
 40
7.499975597602567
100
AcDbArc
 50
180.99992
 51
268.788577
  0
ARC
  5
1C5
330
18E
100
AcDbEntity
  8
0
  6
Continuous
 62
     0
370
     0
100
AcDbCircle
 10
490.68
 20
517.578972
 30
0.0
 40
7.50207258450536
100
AcDbArc
 50
90.502514
 51
179.425895
  0
LINE
  5
1C6
330
18E
100
AcDbEntity
  8
0
  6
Continuous
 62
     0
370
     0
100
AcDbLine
 10
483.178304
 20
517.654142
 30
0.0
 11
483.187257
 21
517.655832
 31
0.0
  0
ARC
  5
1C7
330
18E
100
AcDbEntity
  8
0
  6
Continuous
 62
     0
370
     0
100
AcDbCircle
 10
483.10788
 20
518.194906
 30
0.0
 40
0.5448863562901562
100
AcDbArc
 50
278.376499
 51
297.90689
  0
ARC
  5
1C8
330
18E
100
AcDbEntity
  8
0
  6
Continuous
 62
     0
370
     0
100
AcDbCircle
 10
483.10788
 20
543.326113
 30
0.0
 40
0.5448863437074287
100
AcDbArc
 50
62.09311
 51
81.623501
  0
LINE
  5
1C9
330
18E
100
AcDbEntity
  8
0
  6
Continuous
 62
     0
370
     0
100
AcDbLine
 10
483.187257
 20
543.865187
 30
0.0
 11
483.178304
 21
543.866877
 31
0.0
  0
ARC
  5
1CA
330
18E
100
AcDbEntity
  8
0
  6
Continuous
 62
     0
370
     0
100
AcDbCircle
 10
490.680001
 20
543.942047
 30
0.0
 40
7.502072687834472
100
AcDbArc
 50
180.574105
 51
269.497486
  0
LWPOLYLINE
  5
1CB
330
18E
100
AcDbEntity
  8
0
  6
Continuous
 62
     0
370
     0
100
AcDbPolyline
 90
        7
 70
     0
 43
0.0
 10
490.614624
 20
536.439453
 10
490.616547
 20
536.406738
 10
490.617767
 20
536.310059
 10
490.618195
 20
536.155823
 10
490.617798
 20
535.954224
 10
490.616577
 20
535.718201
 10
490.614441
 20
535.439819
  0
LINE
  5
1CC
330
18E
100
AcDbEntity
  8
0
  6
Continuous
 62
     0
370
     0
100
AcDbLine
 10
490.614435
 20
535.439839
 30
0.0
 11
510.129764
 21
535.269198
 31
0.0
  0
LWPOLYLINE
  5
1CD
330
18E
100
AcDbEntity
  8
0
  6
Continuous
 62
     0
370
     0
100
AcDbPolyline
 90
        7
 70
     0
 43
0.0
 10
510.129761
 20
535.269226
 10
510.131683
 20
535.523682
 10
510.132935
 20
535.762085
 10
510.133392
 20
535.967468
 10
510.132996
 20
536.126709
 10
510.131836
 20
536.229492
 10
510.129761
 20
536.269165
  0
LINE
  5
1CE
330
18E
100
AcDbEntity
  8
0
  6
Continuous
 62
     0
370
    30
100
AcDbLine
 10
510.129764
 20
536.26916
 30
0.0
 11
498.018863
 21
536.37485
 31
0.0
  0
ARC
  5
1CF
330
18E
100
AcDbEntity
  8
0
  6
Continuous
 62
     0
370
    30
100
AcDbCircle
 10
510.121037
 20
535.269198
 30
0.0
 40
1.000000000827401
100
AcDbArc
 50
0.0
 51
89.5
  0
LINE
  5
1D0
330
18E
100
AcDbEntity
  8
0
  6
Continuous
 62
     0
370
     0
100
AcDbLine
 10
510.129764
 20
535.269198
 30
0.0
 11
511.121037
 21
535.269198
 31
0.0
  0
LINE
  5
1D1
330
18E
100
AcDbEntity
  8
0
  6
Continuous
 62
     0
370
     0
100
AcDbLine
 10
510.129764
 20
535.269198
 30
0.0
 11
510.129764
 21
526.251821
 31
0.0
  0
LINE
  5
1D2
330
18E
100
AcDbEntity
  8
0
  6
Continuous
 62
     0
370
     0
100
AcDbLine
 10
510.129764
 20
526.251821
 30
0.0
 11
511.121037
 21
526.251821
 31
0.0
  0
LINE
  5
1D3
330
18E
100
AcDbEntity
  8
0
  6
Continuous
 62
     0
370
    30
100
AcDbLine
 10
511.121037
 20
526.251821
 30
0.0
 11
511.121037
 21
535.269198
 31
0.0
  0
ARC
  5
1D4
330
18E
100
AcDbEntity
  8
0
  6
Continuous
 62
     0
370
    30
100
AcDbCircle
 10
510.121037
 20
526.251821
 30
0.0
 40
1.000000000824937
100
AcDbArc
 50
270.5
 51
360.0
  0
LWPOLYLINE
  5
1D5
330
18E
100
AcDbEntity
  8
0
  6
Continuous
 62
     0
370
     0
100
AcDbPolyline
 90
        7
 70
     0
 43
0.0
 10
510.129761
 20
526.251831
 10
510.131683
 20
525.997314
 10
510.132935
 20
525.758972
 10
510.133392
 20
525.553589
 10
510.132996
 20
525.394287
 10
510.131836
 20
525.291504
 10
510.129761
 20
525.251831
  0
LINE
  5
1D6
330
18E
100
AcDbEntity
  8
0
  6
Continuous
 62
     0
370
     0
100
AcDbLine
 10
510.129764
 20
526.251821
 30
0.0
 11
490.614435
 21
526.08118
 31
0.0
  0
LWPOLYLINE
  5
1D7
330
18E
100
AcDbEntity
  8
0
  6
Continuous
 62
     0
370
     0
100
AcDbPolyline
 90
        7
 70
     0
 43
0.0
 10
490.614441
 20
526.081177
 10
490.616425
 20
525.826416
 10
490.617706
 20
525.587891
 10
490.618195
 20
525.382446
 10
490.617859
 20
525.223267
 10
490.616699
 20
525.120789
 10
490.614624
 20
525.081543
  0
LINE
  5
1D8
330
18E
100
AcDbEntity
  8
0
  6
Continuous
 62
     0
370
    30
100
AcDbLine
 10
498.018863
 20
525.146169
 30
0.0
 11
510.129764
 21
525.251859
 31
0.0
  0
ARC
  5
1D9
330
18E
100
AcDbEntity
  8
0
  6
Continuous
 62
     0
370
     0
100
AcDbCircle
 10
490.693895
 20
517.568392
 30
0.0
 40
8.513159052408383
100
AcDbArc
 50
90.534798
 51
139.908316
  0
LWPOLYLINE
  5
1DA
330
18E
100
AcDbEntity
  8
0
  6
Continuous
 62
     0
370
     0
100
AcDbPolyline
 90
        7
 70
     0
 43
0.0
 10
484.181213
 20
523.050964
 10
483.916718
 20
522.180908
 10
483.67804
 20
521.309082
 10
483.478394
 20
520.434937
 10
483.325378
 20
519.55719
 10
483.224335
 20
518.674805
 10
483.178314
 20
517.654114
  0
ARC
  5
1DB
330
18E
100
AcDbEntity
  8
0
  6
Continuous
 62
     0
370
     0
100
AcDbCircle
 10
490.690058
 20
543.944475
 30
0.0
 40
8.504972238961777
100
AcDbArc
 50
220.066322
 51
269.490541
  0
LINE
  5
1DC
330
18E
100
AcDbEntity
  8
0
  6
Continuous
 62
     0
370
     0
100
AcDbLine
 10
484.181204
 20
538.470046
 30
0.0
 11
484.191323
 21
536.508378
 31
0.0
  0
ARC
  5
1DD
330
18E
100
AcDbEntity
  8
0
  6
Continuous
 62
     0
370
     0
100
AcDbCircle
 10
-798.616573
 20
530.723272
 30
0.0
 40
1282.820940124773
100
AcDbArc
 50
0.001663
 51
0.258386
  0
ARC
  5
1DE
330
18E
100
AcDbEntity
  8
0
  6
Continuous
 62
     0
370
     0
100
AcDbCircle
 10
-798.616573
 20
530.797747
 30
0.0
 40
1282.82094012924
100
AcDbArc
 50
359.741614
 51
359.998337
  0
LINE
  5
1DF
330
18E
100
AcDbEntity
  8
0
  6
Continuous
 62
     0
370
     0
100
AcDbLine
 10
484.191323
 20
525.012641
 30
0.0
 11
484.181204
 21
523.050973
 31
0.0
  0
LWPOLYLINE
  5
1E0
330
18E
100
AcDbEntity
  8
0
  6
Continuous
 62
     0
370
     0
100
AcDbPolyline
 90
        7
 70
     0
 43
0.0
 10
483.178314
 20
543.866882
 10
483.213745
 20
542.981689
 10
483.306427
 20
542.098694
 10
483.451813
 20
541.220215
 10
483.644653
 20
540.345642
 10
483.878174
 20
539.473511
 10
484.181213
 20
538.470032
  0
LINE
  5
1E1
330
18E
100
AcDbEntity
  8
0
  6
Continuous
 62
     0
370
     0
100
AcDbLine
 10
484.191323
 20
536.508378
 30
0.0
 11
483.200201
 21
536.503916
 31
0.0
  0
LINE
  5
1E2
330
18E
100
AcDbEntity
  8
0
  6
Continuous
 62
     0
370
     0
100
AcDbLine
 10
483.200201
 20
536.503916
 30
0.0
 11
483.201188
 21
536.266918
 31
0.0
  0
ARC
  5
1E3
330
18E
100
AcDbEntity
  8
0
  6
Continuous
 62
     0
370
     0
100
AcDbCircle
 10
-783.174578
 20
530.740672
 30
0.0
 40
1266.38782389515
100
AcDbArc
 50
0.000898
 51
0.250027
  0
LINE
  5
1E4
330
18E
100
AcDbEntity
  8
0
  6
Continuous
 62
     0
370
     0
100
AcDbLine
 10
483.213245
 20
530.760509
 30
0.0
 11
484.204367
 21
530.760509
 31
0.0
  0
LINE
  5
1E5
330
18E
100
AcDbEntity
  8
0
  6
Continuous
 62
     0
370
     0
100
AcDbLine
 10
484.181204
 20
538.470046
 30
0.0
 11
483.190082
 21
538.464212
 31
0.0
  0
LINE
  5
1E6
330
18E
100
AcDbEntity
  8
0
  6
Continuous
 62
     0
370
     0
100
AcDbLine
 10
483.190082
 20
538.464212
 30
0.0
 11
483.200201
 21
536.503916
 31
0.0
  0
LWPOLYLINE
  5
1E7
330
18E
100
AcDbEntity
  8
0
  6
Continuous
 62
     0
370
     0
100
AcDbPolyline
 90
        5
 70
     0
 43
0.0
 10
483.178314
 20
543.866882
 10
483.179779
 20
542.618652
 10
483.181122
 20
541.335449
 10
483.183746
 20
539.993774
 10
483.190094
 20
538.464233
  0
LINE
  5
1E8
330
18E
100
AcDbEntity
  8
0
  6
Continuous
 62
     0
370
     0
100
AcDbLine
 10
483.200201
 20
525.017103
 30
0.0
 11
484.191323
 21
525.012641
 31
0.0
  0
ARC
  5
1E9
330
18E
100
AcDbEntity
  8
0
  6
Continuous
 62
     0
370
     0
100
AcDbCircle
 10
-783.174578
 20
530.780347
 30
0.0
 40
1266.387823831361
100
AcDbArc
 50
359.749973
 51
359.999102
  0
LINE
  5
1EA
330
18E
100
AcDbEntity
  8
0
  6
Continuous
 62
     0
370
     0
100
AcDbLine
 10
483.201188
 20
525.254101
 30
0.0
 11
483.200201
 21
525.017103
 31
0.0
  0
LINE
  5
1EB
330
18E
100
AcDbEntity
  8
0
  6
Continuous
 62
     0
370
     0
100
AcDbLine
 10
483.200201
 20
525.017103
 30
0.0
 11
483.190082
 21
523.056807
 31
0.0
  0
LINE
  5
1EC
330
18E
100
AcDbEntity
  8
0
  6
Continuous
 62
     0
370
     0
100
AcDbLine
 10
483.190082
 20
523.056807
 30
0.0
 11
484.181204
 21
523.050973
 31
0.0
  0
LWPOLYLINE
  5
1ED
330
18E
100
AcDbEntity
  8
0
  6
Continuous
 62
     0
370
     0
100
AcDbPolyline
 90
        5
 70
     0
 43
0.0
 10
483.190094
 20
523.056824
 10
483.184082
 20
521.650818
 10
483.181305
 20
520.303223
 10
483.179901
 20
519.015564
 10
483.178314
 20
517.654114
  0
LINE
  5
1EE
330
18E
100
AcDbEntity
  8
0
  6
Continuous
 62
     0
370
    30
100
AcDbLine
 10
483.364601
 20
517.714332
 30
0.0
 11
483.173402
 21
506.760509
 31
0.0
  0
LWPOLYLINE
  5
1EF
330
18E
100
AcDbEntity
  8
0
  6
Continuous
 62
     0
370
    30
100
AcDbPolyline
 90
       57
 70
     0
 43
0.0
 10
483.173401
 20
554.760498
 10
483.173401
 20
554.729309
 10
483.173401
 20
554.633179
 10
483.173401
 20
554.468811
 10
483.173401
 20
554.233154
 10
483.173401
 20
553.923706
 10
483.173401
 20
553.538574
 10
483.173401
 20
553.076355
 10
483.173401
 20
552.53656
 10
483.173401
 20
551.91925
 10
483.173401
 20
551.225525
 10
483.173401
 20
550.457153
 10
483.173401
 20
549.616821
 10
483.173401
 20
548.707947
 10
483.173401
 20
547.734802
 10
483.173401
 20
546.702271
 10
483.173401
 20
545.615967
 10
483.173401
 20
544.481873
 10
483.173401
 20
543.30658
 10
483.173401
 20
542.096863
 10
483.173401
 20
540.859619
 10
483.173401
 20
539.601807
 10
483.173401
 20
538.330383
 10
483.173401
 20
537.052124
 10
483.173401
 20
535.773438
 10
483.173401
 20
534.500427
 10
483.173401
 20
533.238708
 10
483.173401
 20
531.99353
 10
483.173401
 20
530.76947
 10
483.173401
 20
529.545776
 10
483.173401
 20
528.300842
 10
483.173401
 20
527.039368
 10
483.173401
 20
525.766479
 10
483.173401
 20
524.487793
 10
483.173401
 20
523.209473
 10
483.173401
 20
521.937927
 10
483.173401
 20
520.679871
 10
483.173401
 20
519.442261
 10
483.173401
 20
518.232056
 10
483.173401
 20
517.056213
 10
483.173401
 20
515.921509
 10
483.173401
 20
514.834473
 10
483.173401
 20
513.801086
 10
483.173401
 20
512.827026
 10
483.173401
 20
511.917145
 10
483.173401
 20
511.075745
 10
483.173401
 20
510.306305
 10
483.173401
 20
509.61145
 10
483.173401
 20
508.993042
 10
483.173401
 20
508.452087
 10
483.173401
 20
507.988739
 10
483.173401
 20
507.602448
 10
483.173401
 20
507.291901
 10
483.173401
 20
507.055176
 10
483.173401
 20
506.889771
 10
483.173401
 20
506.792664
 10
483.173401
 20
506.760498
  0
LINE
  5
1F0
330
18E
100
AcDbEntity
  8
0
  6
Continuous
 62
     0
370
    30
100
AcDbLine
 10
483.173402
 20
554.760509
 30
0.0
 11
483.021038
 21
554.760509
 31
0.0
  0
LINE
  5
1F1
330
18E
100
AcDbEntity
  8
0
  6
Continuous
 62
     0
370
    30
100
AcDbLine
 10
483.021038
 20
506.760509
 30
0.0
 11
483.173402
 21
506.760509
 31
0.0
  0
LINE
  5
1F2
330
18E
100
AcDbEntity
  8
0
  6
Continuous
 62
     0
370
    30
100
AcDbLine
 10
483.173402
 20
554.760509
 30
0.0
 11
483.364601
 21
543.806694
 31
0.0
  0
ARC
  5
1F3
330
18E
100
AcDbEntity
  8
0
  6
Continuous
 62
     0
370
    30
100
AcDbCircle
 10
490.680467
 20
543.941788
 30
0.0
 40
7.501943200961291
100
AcDbArc
 50
267.493924
 51
269.494525
  0
ARC
  5
1F4
330
18E
100
AcDbEntity
  8
0
  6
Continuous
 62
     0
370
    30
100
AcDbCircle
 10
490.680467
 20
517.579231
 30
0.0
 40
7.501943358150758
100
AcDbArc
 50
90.505476
 51
92.506092
  0
LINE
  5
1F5
330
18E
100
AcDbEntity
  8
0
  6
Continuous
 62
     0
370
    30
100
AcDbLine
 10
490.614645
 20
525.081552
 30
0.0
 11
498.018863
 21
525.146168
 31
0.0
  0
LINE
  5
1F6
330
18E
100
AcDbEntity
  8
0
  6
Continuous
 62
     0
370
    30
100
AcDbLine
 10
490.614645
 20
536.439467
 30
0.0
 11
498.018863
 21
536.374851
 31
0.0
  0
ENDBLK
  5
1F8
330
18E
100
AcDbEntity
  8
0
100
AcDbBlockEnd
  0
BLOCK
  5
264
330
1FA
100
AcDbEntity
  8
0
100
AcDbBlockBegin
  2
d
 70
     0
 10
241.282593
 20
0.0
 30
0.0
  3
d
  1

  0
ARC
  5
1FB
330
1FA
100
AcDbEntity
  8
0
  6
Continuous
 62
     0
370
     0
100
AcDbCircle
 10
232.230937
 20
351.856124
 30
0.0
 40
33.42478041239015
100
AcDbArc
 50
179.40004
 51
180.599965
  0
LINE
  5
1FC
330
1FA
100
AcDbEntity
  8
0
  6
Continuous
 62
     0
370
    30
100
AcDbLine
 10
198.807989
 20
351.506127
 30
0.0
 11
209.011654
 21
351.452701
 31
0.0
  0
LWPOLYLINE
  5
1FD
330
1FA
100
AcDbEntity
  8
0
  6
Continuous
 62
     0
370
    30
100
AcDbPolyline
 90
        6
 70
     0
 43
0.0
 10
209.011658
 20
351.452698
 10
209.011658
 20
351.485718
 10
209.011658
 20
351.581757
 10
209.011658
 20
351.731201
 10
209.011658
 20
351.921936
 10
209.011658
 20
352.152679
  0
LINE
  5
1FE
330
1FA
100
AcDbEntity
  8
0
  6
Continuous
 62
     0
370
     0
100
AcDbLine
 10
209.011654
 20
352.152691
 30
0.0
 11
198.807989
 21
352.206118
 31
0.0
  0
ARC
  5
1FF
330
1FA
100
AcDbEntity
  8
0
  6
Continuous
 62
     0
370
    30
100
AcDbCircle
 10
198.811654
 20
352.206118
 30
0.0
 40
0.6999999880789235
100
AcDbArc
 50
180.0
 51
269.7
  0
LINE
  5
200
330
1FA
100
AcDbEntity
  8
0
  6
Continuous
 62
     0
370
    30
100
AcDbLine
 10
198.111654
 20
469.313429
 30
0.0
 11
198.111654
 21
352.206118
 31
0.0
  0
LWPOLYLINE
  5
201
330
1FA
100
AcDbEntity
  8
0
  6
Continuous
 62
     0
370
     0
100
AcDbPolyline
 90
        6
 70
     0
 43
0.0
 10
198.111649
 20
352.206116
 10
198.148346
 20
352.206116
 10
198.247696
 20
352.206116
 10
198.388718
 20
352.206116
 10
198.577713
 20
352.206116
 10
198.807983
 20
352.206116
  0
LINE
  5
202
330
1FA
100
AcDbEntity
  8
0
  6
Continuous
 62
     0
370
     0
100
AcDbLine
 10
198.807989
 20
352.206118
 30
0.0
 11
198.807989
 21
469.313429
 31
0.0
  0
LINE
  5
203
330
1FA
100
AcDbEntity
  8
0
  6
Continuous
 62
     0
370
     0
100
AcDbLine
 10
198.807989
 20
469.313429
 30
0.0
 11
198.111654
 21
469.313429
 31
0.0
  0
LINE
  5
204
330
1FA
100
AcDbEntity
  8
0
  6
Continuous
 62
     0
370
     0
100
AcDbLine
 10
198.807989
 20
469.313429
 30
0.0
 11
209.011654
 21
469.366856
 31
0.0
  0
LINE
  5
205
330
1FA
100
AcDbEntity
  8
0
  6
Continuous
 62
     0
370
    30
100
AcDbLine
 10
209.011654
 20
469.366856
 30
0.0
 11
209.011654
 21
470.066846
 31
0.0
  0
LINE
  5
206
330
1FA
100
AcDbEntity
  8
0
  6
Continuous
 62
     0
370
    30
100
AcDbLine
 10
209.011654
 20
470.066846
 30
0.0
 11
198.807989
 21
470.01342
 31
0.0
  0
ARC
  5
207
330
1FA
100
AcDbEntity
  8
0
  6
Continuous
 62
     0
370
     0
100
AcDbCircle
 10
232.230937
 20
469.663423
 30
0.0
 40
33.42478041252156
100
AcDbArc
 50
179.400035
 51
180.59996
  0
ARC
  5
208
330
1FA
100
AcDbEntity
  8
0
  6
Continuous
 62
     0
370
    30
100
AcDbCircle
 10
198.811654
 20
469.313429
 30
0.0
 40
0.6999999880791743
100
AcDbArc
 50
90.3
 51
180.0
  0
LINE
  5
209
330
1FA
100
AcDbEntity
  8
0
  6
Continuous
 62
     0
370
    30
100
AcDbLine
 10
209.011654
 20
352.152691
 30
0.0
 11
209.011654
 21
469.366856
 31
0.0
  0
LINE
  5
20A
330
1FA
100
AcDbEntity
  8
0
  6
Continuous
 62
     0
370
    30
100
AcDbLine
 10
198.111656
 20
429.760006
 30
0.0
 11
194.891655
 21
429.760006
 31
0.0
  0
LINE
  5
20B
330
1FA
100
AcDbEntity
  8
0
  6
Continuous
 62
     0
370
    30
100
AcDbLine
 10
198.111656
 20
391.760006
 30
0.0
 11
194.891655
 21
391.760006
 31
0.0
  0
LINE
  5
20C
330
1FA
100
AcDbEntity
  8
0
  6
Continuous
 62
     0
370
    30
100
AcDbLine
 10
157.841655
 20
440.089777
 30
0.0
 11
149.941655
 21
440.089777
 31
0.0
  0
LINE
  5
20D
330
1FA
100
AcDbEntity
  8
0
  6
Continuous
 62
     0
370
    30
100
AcDbLine
 10
149.941655
 20
440.089777
 30
0.0
 11
149.941655
 21
432.759777
 31
0.0
  0
LWPOLYLINE
  5
20E
330
1FA
100
AcDbEntity
  8
0
  6
Continuous
 62
     0
370
    30
100
AcDbPolyline
 90
       24
 70
     0
 43
0.0
 10
149.94165
 20
432.759766
 10
149.978134
 20
432.754822
 10
150.087769
 20
432.734222
 10
150.268265
 20
432.702209
 10
150.516174
 20
432.662323
 10
150.826294
 20
432.617554
 10
151.192627
 20
432.570496
 10
151.609161
 20
432.523834
 10
152.068619
 20
432.480499
 10
152.562012
 20
432.443817
 10
153.080261
 20
432.417175
 10
153.614029
 20
432.40332
 10
154.153122
 20
432.402893
 10
154.687164
 20
432.416077
 10
155.205948
 20
432.442566
 10
155.700165
 20
432.479462
 10
156.160782
 20
432.52301
 10
156.578857
 20
432.569641
 10
156.946976
 20
432.616302
 10
157.258911
 20
432.660614
 10
157.508484
 20
432.700165
 10
157.690521
 20
432.7323
 10
157.802322
 20
432.754028
 10
157.84166
 20
432.762299
  0
LWPOLYLINE
  5
20F
330
1FA
100
AcDbEntity
  8
0
  6
Continuous
 62
     0
370
    30
100
AcDbPolyline
 90
       22
 70
     0
 43
0.0
 10
150.44165
 20
440.589783
 10
150.480133
 20
440.589783
 10
150.594574
 20
440.589783
 10
150.782654
 20
440.589783
 10
151.039902
 20
440.589783
 10
151.360825
 20
440.589783
 10
151.738098
 20
440.589783
 10
152.163422
 20
440.589783
 10
152.627258
 20
440.589783
 10
153.119263
 20
440.589783
 10
153.62851
 20
440.589783
 10
154.1436
 20
440.589783
 10
154.653107
 20
440.589783
 10
155.145615
 20
440.589783
 10
155.610168
 20
440.589783
 10
156.036438
 20
440.589783
 10
156.414841
 20
440.589783
 10
156.737091
 20
440.589783
 10
156.995773
 20
440.589783
 10
157.18541
 20
440.589783
 10
157.301483
 20
440.589783
 10
157.34166
 20
440.589783
  0
LINE
  5
210
330
1FA
100
AcDbEntity
  8
0
  6
Continuous
 62
     0
370
    30
100
AcDbLine
 10
150.441655
 20
440.589777
 30
0.0
 11
149.941655
 21
440.089777
 31
0.0
  0
LWPOLYLINE
  5
211
330
1FA
100
AcDbEntity
  8
0
  6
Continuous
 62
     0
370
    30
100
AcDbPolyline
 90
       53
 70
     0
 43
0.0
 10
144.891663
 20
389.259766
 10
144.891647
 20
389.29892
 10
144.891647
 20
389.416565
 10
144.891647
 20
389.611908
 10
144.891647
 20
389.884155
 10
144.891647
 20
390.232544
 10
144.891647
 20
390.656158
 10
144.891647
 20
391.153198
 10
144.891647
 20
391.721558
 10
144.891647
 20
392.35907
 10
144.891647
 20
393.063629
 10
144.891647
 20
393.832977
 10
144.891647
 20
394.664307
 10
144.891647
 20
395.55423
 10
144.891647
 20
396.49942
 10
144.891647
 20
397.49649
 10
144.891647
 20
398.542053
 10
144.891647
 20
399.632385
 10
144.891647
 20
400.763306
 10
144.891647
 20
401.930511
 10
144.891647
 20
403.129822
 10
144.891647
 20
404.356995
 10
144.891647
 20
405.607635
 10
144.891647
 20
406.877106
 10
144.891647
 20
408.160736
 10
144.891647
 20
409.453766
 10
144.891647
 20
410.751526
 10
144.891647
 20
412.049316
 10
144.891647
 20
413.342438
 10
144.891647
 20
414.626221
 10
144.891647
 20
415.895905
 10
144.891647
 20
417.14682
 10
144.891647
 20
418.374298
 10
144.891647
 20
419.574005
 10
144.891647
 20
420.741669
 10
144.891647
 20
421.873047
 10
144.891647
 20
422.963928
 10
144.891647
 20
424.010071
 10
144.891647
 20
425.007782
 10
144.891647
 20
425.953644
 10
144.891647
 20
426.84433
 10
144.891647
 20
427.676422
 10
144.891647
 20
428.446564
 10
144.891647
 20
429.151947
 10
144.891647
 20
429.790314
 10
144.891647
 20
430.359589
 10
144.891647
 20
430.857544
 10
144.891647
 20
431.282104
 10
144.891647
 20
431.631439
 10
144.891647
 20
431.904663
 10
144.891647
 20
432.101013
 10
144.891647
 20
432.219635
 10
144.891663
 20
432.259766
  0
LINE
  5
212
330
1FA
100
AcDbEntity
  8
0
  6
Continuous
 62
     0
370
    30
100
AcDbLine
 10
144.891655
 20
389.259777
 30
0.0
 11
145.391655
 21
388.759777
 31
0.0
  0
LWPOLYLINE
  5
213
330
1FA
100
AcDbEntity
  8
0
  6
Continuous
 62
     0
370
    30
100
AcDbPolyline
 90
       54
 70
     0
 43
0.0
 10
145.391663
 20
388.759766
 10
145.391388
 20
388.799316
 10
145.391006
 20
388.916595
 10
145.39061
 20
389.110382
 10
145.39032
 20
389.379395
 10
145.390213
 20
389.722504
 10
145.390274
 20
390.138794
 10
145.390472
 20
390.62735
 10
145.390778
 20
391.187195
 10
145.391113
 20
391.816559
 10
145.391434
 20
392.512543
 10
145.391617
 20
393.272125
 10
145.391617
 20
394.092377
 10
145.391418
 20
394.970703
 10
145.391144
 20
395.904602
 10
145.390839
 20
396.891022
 10
145.390549
 20
397.926544
 10
145.39032
 20
399.007385
 10
145.390152
 20
400.129517
 10
145.390076
 20
401.289001
 10
145.390106
 20
402.481781
 10
145.390213
 20
403.703613
 10
145.390396
 20
404.950134
 10
145.390625
 20
406.21701
 10
145.390869
 20
407.499878
 10
145.391098
 20
408.794189
 10
145.391251
 20
410.095367
 10
145.391251
 20
411.398865
 10
145.391129
 20
412.700104
 10
145.3909
 20
413.994598
 10
145.390656
 20
415.27771
 10
145.390427
 20
416.544952
 10
145.390244
 20
417.791931
 10
145.390137
 20
419.014313
 10
145.390106
 20
420.207764
 10
145.390182
 20
421.368011
 10
145.390335
 20
422.490997
 10
145.390564
 20
423.572693
 10
145.390839
 20
424.6091
 10
145.391144
 20
425.596405
 10
145.391434
 20
426.531097
 10
145.391617
 20
427.410156
 10
145.391617
 20
428.231232
 10
145.391403
 20
428.991821
 10
145.391068
 20
429.688995
 10
145.390701
 20
430.319916
 10
145.390381
 20
430.881714
 10
145.390167
 20
431.372375
 10
145.390106
 20
431.790802
 10
145.390228
 20
432.135742
 10
145.390533
 20
432.406128
 10
145.390961
 20
432.600922
 10
145.391373
 20
432.719086
 10
145.391663
 20
432.759766
  0
LINE
  5
214
330
1FA
100
AcDbEntity
  8
0
  6
Continuous
 62
     0
370
    30
100
AcDbLine
 10
158.641655
 20
388.759777
 30
0.0
 11
194.891656
 21
388.759777
 31
0.0
  0
LWPOLYLINE
  5
215
330
1FA
100
AcDbEntity
  8
0
  6
Continuous
 62
     0
370
    30
100
AcDbPolyline
 90
       54
 70
     0
 43
0.0
 10
194.891663
 20
388.759766
 10
194.891663
 20
388.791779
 10
194.891663
 20
388.890411
 10
194.891663
 20
389.059326
 10
194.891663
 20
389.301636
 10
194.891663
 20
389.620026
 10
194.891663
 20
390.016388
 10
194.891663
 20
390.491882
 10
194.891663
 20
391.046875
 10
194.891663
 20
391.680817
 10
194.891663
 20
392.392151
 10
194.891647
 20
393.178467
 10
194.891647
 20
394.036346
 10
194.891647
 20
394.961517
 10
194.891647
 20
395.948822
 10
194.891647
 20
396.992401
 10
194.891647
 20
398.085815
 10
194.891647
 20
399.222046
 10
194.891647
 20
400.393799
 10
194.891647
 20
401.593536
 10
194.891647
 20
402.813751
 10
194.891647
 20
404.046936
 10
194.891647
 20
405.285858
 10
194.891647
 20
406.523621
 10
194.891647
 20
407.753754
 10
194.891647
 20
408.970306
 10
194.891647
 20
410.167908
 10
194.891647
 20
411.348206
 10
194.891647
 20
412.545746
 10
194.891647
 20
413.762268
 10
194.891647
 20
414.992371
 10
194.891647
 20
416.230103
 10
194.891647
 20
417.469055
 10
194.891647
 20
418.70224
 10
194.891647
 20
419.922485
 10
194.891647
 20
421.122314
 10
194.891647
 20
422.294159
 10
194.891647
 20
423.430511
 10
194.891647
 20
424.524048
 10
194.891647
 20
425.56781
 10
194.891647
 20
426.555267
 10
194.891647
 20
427.480621
 10
194.891647
 20
428.338715
 10
194.891663
 20
429.125214
 10
194.891663
 20
429.836792
 10
194.891663
 20
430.470947
 10
194.891663
 20
431.026184
 10
194.891663
 20
431.501923
 10
194.891663
 20
431.898499
 10
194.891663
 20
432.217102
 10
194.891663
 20
432.459656
 10
194.891663
 20
432.628754
 10
194.891663
 20
432.72757
 10
194.891663
 20
432.759766
  0
LINE
  5
216
330
1FA
100
AcDbEntity
  8
0
  6
Continuous
 62
     0
370
    30
100
AcDbLine
 10
149.141655
 20
388.759777
 30
0.0
 11
145.391655
 21
388.759777
 31
0.0
  0
LWPOLYLINE
  5
217
330
1FA
100
AcDbEntity
  8
0
  6
Continuous
 62
     0
370
     0
100
AcDbPolyline
 90
       26
 70
     0
 43
0.0
 10
149.141663
 20
388.759766
 10
149.179733
 20
388.767883
 10
149.293762
 20
388.79187
 10
149.479797
 20
388.829834
 10
149.732193
 20
388.879578
 10
150.046921
 20
388.938202
 10
150.425858
 20
389.001678
 10
150.860306
 20
389.066193
 10
151.34053
 20
389.128021
 10
151.862579
 20
389.182983
 10
152.418884
 20
389.227814
 10
152.99855
 20
389.259796
 10
153.590927
 20
389.276459
 10
154.187286
 20
389.27655
 10
154.779724
 20
389.259979
 10
155.359558
 20
389.228149
 10
155.916107
 20
389.183441
 10
156.438492
 20
389.12854
 10
156.919083
 20
389.066742
 10
157.353943
 20
389.002228
 10
157.733414
 20
388.938751
 10
158.048691
 20
388.880035
 10
158.301636
 20
388.830231
 10
158.488281
 20
388.792114
 10
158.602936
 20
388.768036
 10
158.641663
 20
388.759766
  0
LWPOLYLINE
  5
218
330
1FA
100
AcDbEntity
  8
0
  6
Continuous
 62
     0
370
     0
100
AcDbPolyline
 90
       24
 70
     0
 43
0.0
 10
157.991653
 20
432.759766
 10
157.95282
 20
432.752655
 10
157.836914
 20
432.731689
 10
157.648453
 20
432.69873
 10
157.393692
 20
432.656036
 10
157.074356
 20
432.60672
 10
156.692154
 20
432.554657
 10
156.259171
 20
432.503387
 10
155.78212
 20
432.456818
 10
155.26741
 20
432.418396
 10
154.726654
 20
432.390778
 10
154.171799
 20
432.376282
 10
153.612625
 20
432.376251
 10
153.05777
 20
432.390747
 10
152.516998
 20
432.418365
 10
152.002258
 20
432.456757
 10
151.525146
 20
432.503326
 10
151.092056
 20
432.554596
 10
150.709702
 20
432.606628
 10
150.390182
 20
432.655945
 10
150.135254
 20
432.698669
 10
149.946671
 20
432.731628
 10
149.830734
 20
432.752625
 10
149.792053
 20
432.759766
  0
LINE
  5
219
330
1FA
100
AcDbEntity
  8
0
  6
Continuous
 62
     0
370
    30
100
AcDbLine
 10
158.641655
 20
388.759777
 30
0.0
 11
149.141655
 21
388.759777
 31
0.0
  0
LINE
  5
21A
330
1FA
100
AcDbEntity
  8
0
  6
Continuous
 62
     0
370
    30
100
AcDbLine
 10
149.941655
 20
432.759777
 30
0.0
 11
149.792052
 21
432.759777
 31
0.0
  0
LINE
  5
21B
330
1FA
100
AcDbEntity
  8
0
  6
Continuous
 62
     0
370
    30
100
AcDbLine
 10
194.891656
 20
432.759777
 30
0.0
 11
157.991655
 21
432.759777
 31
0.0
  0
LINE
  5
21C
330
1FA
100
AcDbEntity
  8
0
  6
Continuous
 62
     0
370
    30
100
AcDbLine
 10
145.391654
 20
432.759777
 30
0.0
 11
149.792052
 21
432.759777
 31
0.0
  0
LINE
  5
21D
330
1FA
100
AcDbEntity
  8
0
  6
Continuous
 62
     0
370
    30
100
AcDbLine
 10
144.891655
 20
432.259777
 30
0.0
 11
145.391655
 21
432.759777
 31
0.0
  0
LINE
  5
21E
330
1FA
100
AcDbEntity
  8
0
  6
Continuous
 62
     0
370
    30
100
AcDbLine
 10
157.841655
 20
440.089777
 30
0.0
 11
157.341655
 21
440.589777
 31
0.0
  0
LINE
  5
21F
330
1FA
100
AcDbEntity
  8
0
  6
Continuous
 62
     0
370
    30
100
AcDbLine
 10
157.841655
 20
440.089777
 30
0.0
 11
157.841655
 21
432.762297
 31
0.0
  0
LINE
  5
220
330
1FA
100
AcDbEntity
  8
0
  6
Continuous
 62
     0
370
    30
100
AcDbLine
 10
198.91162
 20
502.760509
 30
0.0
 11
198.91162
 21
558.760509
 31
0.0
  0
LINE
  5
221
330
1FA
100
AcDbEntity
  8
0
  6
Continuous
 62
     0
370
    30
100
AcDbLine
 10
209.13162
 20
502.260509
 30
0.0
 11
199.41162
 21
502.260509
 31
0.0
  0
LINE
  5
222
330
1FA
100
AcDbEntity
  8
0
  6
Continuous
 62
     0
370
     0
100
AcDbLine
 10
209.13162
 20
502.760509
 30
0.0
 11
199.41162
 21
502.760509
 31
0.0
  0
LINE
  5
223
330
1FA
100
AcDbEntity
  8
0
  6
Continuous
 62
     0
370
     0
100
AcDbLine
 10
199.41162
 20
502.760509
 30
0.0
 11
199.41162
 21
502.260509
 31
0.0
  0
LINE
  5
224
330
1FA
100
AcDbEntity
  8
0
  6
Continuous
 62
     0
370
    30
100
AcDbLine
 10
209.13162
 20
502.260509
 30
0.0
 11
209.13162
 21
502.760509
 31
0.0
  0
LINE
  5
225
330
1FA
100
AcDbEntity
  8
0
  6
Continuous
 62
     0
370
    30
100
AcDbLine
 10
209.13162
 20
502.760509
 30
0.0
 11
209.13162
 21
558.760509
 31
0.0
  0
LINE
  5
226
330
1FA
100
AcDbEntity
  8
0
  6
Continuous
 62
     0
370
     0
100
AcDbLine
 10
209.13162
 20
558.760509
 30
0.0
 11
199.41162
 21
558.760509
 31
0.0
  0
LINE
  5
227
330
1FA
100
AcDbEntity
  8
0
  6
Continuous
 62
     0
370
     0
100
AcDbLine
 10
199.41162
 20
558.760509
 30
0.0
 11
199.41162
 21
502.760509
 31
0.0
  0
LINE
  5
228
330
1FA
100
AcDbEntity
  8
0
  6
Continuous
 62
     0
370
    30
100
AcDbLine
 10
209.13162
 20
559.260509
 30
0.0
 11
199.41162
 21
559.260509
 31
0.0
  0
LINE
  5
229
330
1FA
100
AcDbEntity
  8
0
  6
Continuous
 62
     0
370
     0
100
AcDbLine
 10
199.41162
 20
559.260509
 30
0.0
 11
199.41162
 21
558.760509
 31
0.0
  0
LINE
  5
22A
330
1FA
100
AcDbEntity
  8
0
  6
Continuous
 62
     0
370
    30
100
AcDbLine
 10
209.13162
 20
558.760509
 30
0.0
 11
209.13162
 21
559.260509
 31
0.0
  0
ARC
  5
22B
330
1FA
100
AcDbEntity
  8
0
  6
Continuous
 62
     0
370
    30
100
AcDbCircle
 10
199.41162
 20
558.760509
 30
0.0
 40
0.4999999999917399
100
AcDbArc
 50
90.0
 51
180.0
  0
LWPOLYLINE
  5
22C
330
1FA
100
AcDbEntity
  8
0
  6
Continuous
 62
     0
370
     0
100
AcDbPolyline
 90
        5
 70
     0
 43
0.0
 10
198.911621
 20
558.760498
 10
198.949249
 20
558.760498
 10
199.056488
 20
558.760498
 10
199.217178
 20
558.760498
 10
199.411621
 20
558.760498
  0
LWPOLYLINE
  5
22D
330
1FA
100
AcDbEntity
  8
0
  6
Continuous
 62
     0
370
     0
100
AcDbPolyline
 90
        6
 70
     0
 43
0.0
 10
198.911621
 20
502.760498
 10
198.935684
 20
502.760498
 10
199.001373
 20
502.760498
 10
199.094696
 20
502.760498
 10
199.218948
 20
502.760498
 10
199.411621
 20
502.760498
  0
ARC
  5
22E
330
1FA
100
AcDbEntity
  8
0
  6
Continuous
 62
     0
370
    30
100
AcDbCircle
 10
199.41162
 20
502.760509
 30
0.0
 40
0.4999999999978044
100
AcDbArc
 50
180.0
 51
270.0
  0
ARC
  5
22F
330
1FA
100
AcDbEntity
  8
0
  6
Continuous
 62
     0
370
    30
100
AcDbCircle
 10
191.069224
 20
517.583449
 30
0.0
 40
7.499975597599862
100
AcDbArc
 50
0.99992
 51
88.788577
  0
ARC
  5
230
330
1FA
100
AcDbEntity
  8
0
  6
Continuous
 62
     0
370
     0
100
AcDbCircle
 10
198.82478
 20
518.194906
 30
0.0
 40
0.5448863601346233
100
AcDbArc
 50
242.09311
 51
261.623501
  0
LINE
  5
231
330
1FA
100
AcDbEntity
  8
0
  6
Continuous
 62
     0
370
     0
100
AcDbLine
 10
198.745402
 20
517.655832
 30
0.0
 11
198.754355
 21
517.654142
 31
0.0
  0
ARC
  5
232
330
1FA
100
AcDbEntity
  8
0
  6
Continuous
 62
     0
370
     0
100
AcDbCircle
 10
191.252659
 20
517.578972
 30
0.0
 40
7.502072584505131
100
AcDbArc
 50
0.574105
 51
89.497486
  0
ARC
  5
233
330
1FA
100
AcDbEntity
  8
0
  6
Continuous
 62
     0
370
     0
100
AcDbCircle
 10
191.252659
 20
543.942047
 30
0.0
 40
7.502072687835562
100
AcDbArc
 50
270.502514
 51
359.425895
  0
LINE
  5
234
330
1FA
100
AcDbEntity
  8
0
  6
Continuous
 62
     0
370
     0
100
AcDbLine
 10
198.754355
 20
543.866877
 30
0.0
 11
198.745402
 21
543.865187
 31
0.0
  0
ARC
  5
235
330
1FA
100
AcDbEntity
  8
0
  6
Continuous
 62
     0
370
     0
100
AcDbCircle
 10
198.82478
 20
543.326113
 30
0.0
 40
0.5448863422932875
100
AcDbArc
 50
98.376499
 51
117.90689
  0
ARC
  5
236
330
1FA
100
AcDbEntity
  8
0
  6
Continuous
 62
     0
370
    30
100
AcDbCircle
 10
191.069224
 20
543.93757
 30
0.0
 40
7.499975632285302
100
AcDbArc
 50
271.210815
 51
359.00008
  0
LINE
  5
237
330
1FA
100
AcDbEntity
  8
0
  6
Continuous
 62
     0
370
    30
100
AcDbLine
 10
183.913796
 20
536.37485
 30
0.0
 11
171.802895
 21
536.26916
 31
0.0
  0
LWPOLYLINE
  5
238
330
1FA
100
AcDbEntity
  8
0
  6
Continuous
 62
     0
370
     0
100
AcDbPolyline
 90
        7
 70
     0
 43
0.0
 10
171.802902
 20
536.269165
 10
171.800964
 20
536.236084
 10
171.799728
 20
536.139221
 10
171.799286
 20
535.984924
 10
171.799652
 20
535.783447
 10
171.800812
 20
535.547668
 10
171.802902
 20
535.269226
  0
LINE
  5
239
330
1FA
100
AcDbEntity
  8
0
  6
Continuous
 62
     0
370
     0
100
AcDbLine
 10
171.802895
 20
535.269198
 30
0.0
 11
191.318224
 21
535.439839
 31
0.0
  0
LWPOLYLINE
  5
23A
330
1FA
100
AcDbEntity
  8
0
  6
Continuous
 62
     0
370
     0
100
AcDbPolyline
 90
        7
 70
     0
 43
0.0
 10
191.318222
 20
535.439819
 10
191.316238
 20
535.69458
 10
191.314957
 20
535.933105
 10
191.314468
 20
536.13855
 10
191.314804
 20
536.297729
 10
191.315948
 20
536.400269
 10
191.318024
 20
536.439453
  0
LWPOLYLINE
  5
23B
330
1FA
100
AcDbEntity
  8
0
  6
Continuous
 62
     0
370
     0
100
AcDbPolyline
 90
        7
 70
     0
 43
0.0
 10
170.811615
 20
535.269226
 10
170.844238
 20
535.269226
 10
170.939835
 20
535.269226
 10
171.092178
 20
535.269226
 10
171.291336
 20
535.269226
 10
171.524796
 20
535.269226
 10
171.802902
 20
535.269226
  0
ARC
  5
23C
330
1FA
100
AcDbEntity
  8
0
  6
Continuous
 62
     0
370
    30
100
AcDbCircle
 10
171.811622
 20
535.269198
 30
0.0
 40
1.000000000829184
100
AcDbArc
 50
90.5
 51
180.0
  0
LINE
  5
23D
330
1FA
100
AcDbEntity
  8
0
  6
Continuous
 62
     0
370
    30
100
AcDbLine
 10
170.811622
 20
535.269198
 30
0.0
 11
170.811622
 21
526.251821
 31
0.0
  0
LWPOLYLINE
  5
23E
330
1FA
100
AcDbEntity
  8
0
  6
Continuous
 62
     0
370
     0
100
AcDbPolyline
 90
        7
 70
     0
 43
0.0
 10
170.811615
 20
526.251831
 10
170.84816
 20
526.251831
 10
170.950119
 20
526.251831
 10
171.098282
 20
526.251831
 10
171.28801
 20
526.251831
 10
171.525467
 20
526.251831
 10
171.802902
 20
526.251831
  0
LINE
  5
23F
330
1FA
100
AcDbEntity
  8
0
  6
Continuous
 62
     0
370
     0
100
AcDbLine
 10
171.802895
 20
526.251821
 30
0.0
 11
171.802895
 21
535.269198
 31
0.0
  0
LWPOLYLINE
  5
240
330
1FA
100
AcDbEntity
  8
0
  6
Continuous
 62
     0
370
     0
100
AcDbPolyline
 90
        7
 70
     0
 43
0.0
 10
171.802902
 20
525.251831
 10
171.800964
 20
525.284912
 10
171.799728
 20
525.381836
 10
171.799286
 20
525.536072
 10
171.799652
 20
525.737549
 10
171.800812
 20
525.973389
 10
171.802902
 20
526.251831
  0
ARC
  5
241
330
1FA
100
AcDbEntity
  8
0
  6
Continuous
 62
     0
370
    30
100
AcDbCircle
 10
171.811622
 20
526.251821
 30
0.0
 40
1.000000000828063
100
AcDbArc
 50
180.0
 51
269.5
  0
LINE
  5
242
330
1FA
100
AcDbEntity
  8
0
  6
Continuous
 62
     0
370
    30
100
AcDbLine
 10
171.802895
 20
525.251859
 30
0.0
 11
183.913796
 21
525.146169
 31
0.0
  0
LWPOLYLINE
  5
243
330
1FA
100
AcDbEntity
  8
0
  6
Continuous
 62
     0
370
     0
100
AcDbPolyline
 90
        7
 70
     0
 43
0.0
 10
191.318024
 20
525.081543
 10
191.316101
 20
525.114258
 10
191.31488
 20
525.210938
 10
191.314468
 20
525.365173
 10
191.314865
 20
525.566772
 10
191.316086
 20
525.802795
 10
191.318222
 20
526.081177
  0
LINE
  5
244
330
1FA
100
AcDbEntity
  8
0
  6
Continuous
 62
     0
370
     0
100
AcDbLine
 10
191.318225
 20
526.08118
 30
0.0
 11
171.802895
 21
526.251821
 31
0.0
  0
LWPOLYLINE
  5
245
330
1FA
100
AcDbEntity
  8
0
  6
Continuous
 62
     0
370
     0
100
AcDbPolyline
 90
        7
 70
     0
 43
0.0
 10
198.754349
 20
517.654114
 10
198.718918
 20
518.539307
 10
198.626236
 20
519.422363
 10
198.48085
 20
520.300781
 10
198.287994
 20
521.175415
 10
198.054489
 20
522.047546
 10
197.751465
 20
523.050964
  0
ARC
  5
246
330
1FA
100
AcDbEntity
  8
0
  6
Continuous
 62
     0
370
     0
100
AcDbCircle
 10
191.238764
 20
517.568392
 30
0.0
 40
8.513159052811565
100
AcDbArc
 50
40.091684
 51
89.465202
  0
LINE
  5
247
330
1FA
100
AcDbEntity
  8
0
  6
Continuous
 62
     0
370
     0
100
AcDbLine
 10
197.751456
 20
523.050973
 30
0.0
 11
197.741337
 21
525.012641
 31
0.0
  0
ARC
  5
248
330
1FA
100
AcDbEntity
  8
0
  6
Continuous
 62
     0
370
     0
100
AcDbCircle
 10
1480.549232
 20
530.797747
 30
0.0
 40
1282.820940123898
100
AcDbArc
 50
180.001663
 51
180.258386
  0
ARC
  5
249
330
1FA
100
AcDbEntity
  8
0
  6
Continuous
 62
     0
370
     0
100
AcDbCircle
 10
1480.549232
 20
530.723272
 30
0.0
 40
1282.820940131691
100
AcDbArc
 50
179.741614
 51
179.998337
  0
LINE
  5
24A
330
1FA
100
AcDbEntity
  8
0
  6
Continuous
 62
     0
370
     0
100
AcDbLine
 10
197.741337
 20
536.508378
 30
0.0
 11
197.751456
 21
538.470046
 31
0.0
  0
ARC
  5
24B
330
1FA
100
AcDbEntity
  8
0
  6
Continuous
 62
     0
370
     0
100
AcDbCircle
 10
191.242601
 20
543.944475
 30
0.0
 40
8.504972238959267
100
AcDbArc
 50
270.509459
 51
319.933678
  0
LWPOLYLINE
  5
24C
330
1FA
100
AcDbEntity
  8
0
  6
Continuous
 62
     0
370
     0
100
AcDbPolyline
 90
        7
 70
     0
 43
0.0
 10
197.751465
 20
538.470032
 10
198.015945
 20
539.340088
 10
198.254608
 20
540.211914
 10
198.454269
 20
541.08606
 10
198.607269
 20
541.963806
 10
198.708328
 20
542.846252
 10
198.754349
 20
543.866882
  0
LINE
  5
24D
330
1FA
100
AcDbEntity
  8
0
  6
Continuous
 62
     0
370
     0
100
AcDbLine
 10
197.728293
 20
530.760509
 30
0.0
 11
198.719414
 21
530.760509
 31
0.0
  0
ARC
  5
24E
330
1FA
100
AcDbEntity
  8
0
  6
Continuous
 62
     0
370
     0
100
AcDbCircle
 10
1465.107237
 20
530.740672
 30
0.0
 40
1266.387823859874
100
AcDbArc
 50
179.749973
 51
179.999102
  0
LINE
  5
24F
330
1FA
100
AcDbEntity
  8
0
  6
Continuous
 62
     0
370
     0
100
AcDbLine
 10
198.731471
 20
536.266918
 30
0.0
 11
198.732458
 21
536.503916
 31
0.0
  0
LINE
  5
250
330
1FA
100
AcDbEntity
  8
0
  6
Continuous
 62
     0
370
     0
100
AcDbLine
 10
198.732458
 20
536.503916
 30
0.0
 11
197.741337
 21
536.508378
 31
0.0
  0
LINE
  5
251
330
1FA
100
AcDbEntity
  8
0
  6
Continuous
 62
     0
370
     0
100
AcDbLine
 10
198.732458
 20
536.503916
 30
0.0
 11
198.742577
 21
538.464212
 31
0.0
  0
LINE
  5
252
330
1FA
100
AcDbEntity
  8
0
  6
Continuous
 62
     0
370
     0
100
AcDbLine
 10
198.742577
 20
538.464212
 30
0.0
 11
197.751456
 21
538.470046
 31
0.0
  0
LWPOLYLINE
  5
253
330
1FA
100
AcDbEntity
  8
0
  6
Continuous
 62
     0
370
     0
100
AcDbPolyline
 90
        5
 70
     0
 43
0.0
 10
198.742584
 20
538.464233
 10
198.748566
 20
539.870178
 10
198.751358
 20
541.217834
 10
198.752762
 20
542.505432
 10
198.754349
 20
543.866882
  0
LINE
  5
254
330
1FA
100
AcDbEntity
  8
0
  6
Continuous
 62
     0
370
     0
100
AcDbLine
 10
197.741337
 20
525.012641
 30
0.0
 11
198.732458
 21
525.017103
 31
0.0
  0
LINE
  5
255
330
1FA
100
AcDbEntity
  8
0
  6
Continuous
 62
     0
370
     0
100
AcDbLine
 10
198.732458
 20
525.017103
 30
0.0
 11
198.731471
 21
525.254101
 31
0.0
  0
ARC
  5
256
330
1FA
100
AcDbEntity
  8
0
  6
Continuous
 62
     0
370
     0
100
AcDbCircle
 10
1465.107237
 20
530.780347
 30
0.0
 40
1266.38782384629
100
AcDbArc
 50
180.000898
 51
180.250027
  0
LINE
  5
257
330
1FA
100
AcDbEntity
  8
0
  6
Continuous
 62
     0
370
     0
100
AcDbLine
 10
197.751456
 20
523.050973
 30
0.0
 11
198.742577
 21
523.056807
 31
0.0
  0
LINE
  5
258
330
1FA
100
AcDbEntity
  8
0
  6
Continuous
 62
     0
370
     0
100
AcDbLine
 10
198.742577
 20
523.056807
 30
0.0
 11
198.732458
 21
525.017103
 31
0.0
  0
LWPOLYLINE
  5
259
330
1FA
100
AcDbEntity
  8
0
  6
Continuous
 62
     0
370
     0
100
AcDbPolyline
 90
        5
 70
     0
 43
0.0
 10
198.754349
 20
517.654114
 10
198.752884
 20
518.902344
 10
198.751526
 20
520.185547
 10
198.748917
 20
521.527283
 10
198.742584
 20
523.056824
  0
LINE
  5
25A
330
1FA
100
AcDbEntity
  8
0
  6
Continuous
 62
     0
370
    30
100
AcDbLine
 10
198.568058
 20
517.714332
 30
0.0
 11
198.759257
 21
506.760509
 31
0.0
  0
LWPOLYLINE
  5
25B
330
1FA
100
AcDbEntity
  8
0
  6
Continuous
 62
     0
370
    30
100
AcDbPolyline
 90
       29
 70
     0
 43
0.0
 10
198.759262
 20
506.760498
 10
198.759262
 20
506.791718
 10
198.759262
 20
506.887756
 10
198.759262
 20
507.052063
 10
198.759262
 20
507.287567
 10
198.759262
 20
507.596802
 10
198.759262
 20
507.98175
 10
198.759262
 20
508.443695
 10
198.759262
 20
508.983215
 10
198.759262
 20
509.600128
 10
198.759262
 20
510.293488
 10
198.759262
 20
511.061432
 10
198.759262
 20
511.901306
 10
198.759262
 20
512.809692
 10
198.759262
 20
513.78241
 10
198.759262
 20
514.814392
 10
198.759262
 20
515.900208
 10
198.759262
 20
517.033752
 10
198.759262
 20
518.208557
 10
198.759262
 20
519.417786
 10
198.759262
 20
520.654602
 10
198.759262
 20
521.911926
 10
198.759262
 20
523.182922
 10
198.759262
 20
524.460815
 10
198.759262
 20
525.739197
 10
198.759262
 20
527.011963
 10
198.759262
 20
528.273376
 10
198.759262
 20
529.518372
 10
198.759262
 20
530.760498
  0
LINE
  5
25C
330
1FA
100
AcDbEntity
  8
0
  6
Continuous
 62
     0
370
    30
100
AcDbLine
 10
198.759256
 20
530.760509
 30
0.0
 11
198.759257
 21
554.760509
 31
0.0
  0
LINE
  5
25D
330
1FA
100
AcDbEntity
  8
0
  6
Continuous
 62
     0
370
    30
100
AcDbLine
 10
198.759257
 20
554.760509
 30
0.0
 11
198.911621
 21
554.760509
 31
0.0
  0
LINE
  5
25E
330
1FA
100
AcDbEntity
  8
0
  6
Continuous
 62
     0
370
    30
100
AcDbLine
 10
198.911621
 20
506.760509
 30
0.0
 11
198.759257
 21
506.760509
 31
0.0
  0
LINE
  5
25F
330
1FA
100
AcDbEntity
  8
0
  6
Continuous
 62
     0
370
    30
100
AcDbLine
 10
198.759257
 20
554.760509
 30
0.0
 11
198.568058
 21
543.806694
 31
0.0
  0
ARC
  5
260
330
1FA
100
AcDbEntity
  8
0
  6
Continuous
 62
     0
370
    30
100
AcDbCircle
 10
191.252192
 20
543.941788
 30
0.0
 40
7.501943201119037
100
AcDbArc
 50
270.505475
 51
272.506076
  0
ARC
  5
261
330
1FA
100
AcDbEntity
  8
0
  6
Continuous
 62
     0
370
    30
100
AcDbCircle
 10
191.252192
 20
517.579231
 30
0.0
 40
7.501943357225251
100
AcDbArc
 50
87.493908
 51
89.494524
  0
LINE
  5
262
330
1FA
100
AcDbEntity
  8
0
  6
Continuous
 62
     0
370
    30
100
AcDbLine
 10
191.318014
 20
525.081552
 30
0.0
 11
183.913796
 21
525.146168
 31
0.0
  0
LINE
  5
263
330
1FA
100
AcDbEntity
  8
0
  6
Continuous
 62
     0
370
    30
100
AcDbLine
 10
191.318014
 20
536.439467
 30
0.0
 11
183.913796
 21
536.374851
 31
0.0
  0
ENDBLK
  5
265
330
1FA
100
AcDbEntity
  8
0
100
AcDbBlockEnd
  0
ENDSEC
  0
SECTION
  2
ENTITIES
  0
INSERT
  5
12E
330
1F
100
AcDbEntity
  8
0
  6
Continuous
 62
     7
420
 16250871
370
     0
100
AcDbBlockReference
  2
a
 10
267.221527
 20
89.072235
 30
0.0
  0
INSERT
  5
18D
330
1F
100
AcDbEntity
  8
0
  6
Continuous
 62
     7
420
 16250871
370
     0
100
AcDbBlockReference
  2
b
 10
267.221558
 20
196.540741
 30
0.0
  0
INSERT
  5
1F9
330
1F
100
AcDbEntity
  8
0
  6
Continuous
 62
     7
420
 16250871
370
     0
100
AcDbBlockReference
  2
c
 10
267.221527
 20
89.072235
 30
0.0
  0
INSERT
  5
266
330
1F
100
AcDbEntity
  8
0
  6
Continuous
 62
     7
420
 16250871
370
     0
100
AcDbBlockReference
  2
d
 10
241.282593
 20
0.0
 30
0.0
  0
ENDSEC
  0
SECTION
  2
OBJECTS
  0
DICTIONARY
  5
C
330
0
100
AcDbDictionary
281
     1
  3
ACAD_DETAILVIEWSTYLE
350
29E
  3
ACAD_GROUP
350
D
  3
ACAD_LAYOUT
350
1A
  3
ACAD_MATERIAL
350
43
  3
ACAD_MLEADERSTYLE
350
6B
  3
ACAD_MLINESTYLE
350
17
  3
ACAD_PLOTSETTINGS
350
19
  3
ACAD_PLOTSTYLENAME
350
E
  3
ACAD_SCALELIST
350
47
  3
ACAD_SECTIONVIEWSTYLE
350
29F
  3
ACAD_TABLESTYLE
350
69
  3
ACAD_VISUALSTYLE
350
2A
  3
ACDB_RECOMPOSE_DATA
350
29B
  3
AcDbVariableDictionary
350
267
  0
SUN
  5
6D
330
29
100
AcDbSun
 90
        1
290
     0
 63
     7
421
 16777215
 40
1.0
291
     1
 91
  2455826
 92
 54000000
292
     0
 70
     2
 71
   256
280
     1
  0
DICTIONARY
  5
29E
102
{ACAD_REACTORS
330
C
102
}
330
C
100
AcDbDictionary
281
     1
  0
DICTIONARY
  5
D
102
{ACAD_REACTORS
330
C
102
}
330
C
100
AcDbDictionary
281
     1
  0
DICTIONARY
  5
1A
102
{ACAD_REACTORS
330
C
102
}
330
C
100
AcDbDictionary
281
     1
  3
Layout1
350
1E
  3
Layout2
350
26
  3
Model
350
22
  0
DICTIONARY
  5
43
102
{ACAD_REACTORS
330
C
102
}
330
C
100
AcDbDictionary
281
     1
  3
ByBlock
350
45
  3
ByLayer
350
44
  3
Global
350
46
  0
DICTIONARY
  5
6B
102
{ACAD_REACTORS
330
C
102
}
330
C
100
AcDbDictionary
281
     1
  3
Standard
350
6C
  0
DICTIONARY
  5
17
102
{ACAD_REACTORS
330
C
102
}
330
C
100
AcDbDictionary
281
     1
  3
Standard
350
18
  0
DICTIONARY
  5
19
102
{ACAD_REACTORS
330
C
102
}
330
C
100
AcDbDictionary
281
     1
  0
ACDBDICTIONARYWDFLT
  5
E
102
{ACAD_REACTORS
330
C
102
}
330
C
100
AcDbDictionary
281
     1
  3
Normal
350
F
100
AcDbDictionaryWithDefault
340
F
  0
DICTIONARY
  5
47
102
{ACAD_REACTORS
330
C
102
}
330
C
100
AcDbDictionary
281
     1
  3
A0
350
48
  3
A1
350
49
  3
A2
350
4A
  3
A3
350
4B
  3
A4
350
4C
  3
A5
350
4D
  3
A6
350
4E
  3
A7
350
4F
  3
A8
350
50
  3
A9
350
51
  3
B0
350
52
  3
B1
350
53
  3
B2
350
54
  3
B3
350
55
  3
B4
350
56
  3
B5
350
57
  3
B6
350
58
  3
B7
350
59
  3
B8
350
5A
  3
B9
350
5B
  3
C0
350
5C
  3
C1
350
5D
  3
C2
350
5E
  3
C3
350
5F
  3
C4
350
60
  3
C5
350
61
  3
C6
350
62
  3
C7
350
63
  3
C8
350
64
  3
C9
350
65
  3
D0
350
66
  3
D1
350
67
  3
D2
350
68
  0
DICTIONARY
  5
29F
102
{ACAD_REACTORS
330
C
102
}
330
C
100
AcDbDictionary
281
     1
  0
DICTIONARY
  5
69
102
{ACAD_REACTORS
330
C
102
}
330
C
100
AcDbDictionary
281
     1
  3
Standard
350
6A
  0
DICTIONARY
  5
2A
102
{ACAD_REACTORS
330
C
102
}
330
C
100
AcDbDictionary
281
     1
  3
2dWireframe
350
2F
  3
Basic
350
32
  3
Brighten
350
36
  3
ColorChange
350
3A
  3
Conceptual
350
34
  3
Dim
350
35
  3
EdgeColorOff
350
3D
  3
Facepattern
350
39
  3
Flat
350
2B
  3
FlatWithEdges
350
2C
  3
Gouraud
350
2D
  3
GouraudWithEdges
350
2E
  3
Hidden
350
31
  3
JitterOff
350
3B
  3
Linepattern
350
38
  3
OverhangOff
350
3C
  3
Realistic
350
33
  3
Shaded
350
42
  3
Shaded with edges
350
41
  3
Shades of Gray
350
3E
  3
Sketchy
350
3F
  3
Thicken
350
37
  3
Wireframe
350
30
  3
X-Ray
350
40
  0
XRECORD
  5
29B
102
{ACAD_REACTORS
330
C
102
}
330
C
100
AcDbXrecord
280
     1
 90
        1
330
6A
  0
DICTIONARY
  5
267
102
{ACAD_REACTORS
330
C
102
}
330
C
100
AcDbDictionary
281
     1
  3
CANNOSCALE
350
268
  3
CMLEADERSTYLE
350
29D
  3
CTABLESTYLE
350
29C
  0
LAYOUT
  5
1E
102
{ACAD_REACTORS
330
1A
102
}
330
1A
100
AcDbPlotSettings
  1

  2
none_device
  4

  6

 40
0.0
 41
0.0
 42
0.0
 43
0.0
 44
0.0
 45
0.0
 46
0.0
 47
0.0
 48
0.0
 49
0.0
140
0.0
141
0.0
142
1.0
143
1.0
 70
   688
 72
     1
 73
     0
 74
     5
  7

 75
    16
 76
     0
 77
     2
 78
   300
147
1.0
148
0.0
149
0.0
100
AcDbLayout
  1
Layout1
 70
     1
 71
     1
 10
0.0
 20
0.0
 11
420.0
 21
297.0
 12
0.0
 22
0.0
 32
0.0
 14
1.000000E+20
 24
1.000000E+20
 34
1.000000E+20
 15
-1.000000E+20
 25
-1.000000E+20
 35
-1.000000E+20
146
0.0
 13
0.0
 23
0.0
 33
0.0
 16
1.0
 26
0.0
 36
0.0
 17
0.0
 27
1.0
 37
0.0
 76
     0
330
1B
  0
LAYOUT
  5
26
102
{ACAD_REACTORS
330
1A
102
}
330
1A
100
AcDbPlotSettings
  1

  2
none_device
  4

  6

 40
0.0
 41
0.0
 42
0.0
 43
0.0
 44
0.0
 45
0.0
 46
0.0
 47
0.0
 48
0.0
 49
0.0
140
0.0
141
0.0
142
1.0
143
1.0
 70
   688
 72
     1
 73
     0
 74
     5
  7

 75
    16
 76
     0
 77
     2
 78
   300
147
1.0
148
0.0
149
0.0
100
AcDbLayout
  1
Layout2
 70
     1
 71
     2
 10
0.0
 20
0.0
 11
0.0
 21
0.0
 12
0.0
 22
0.0
 32
0.0
 14
0.0
 24
0.0
 34
0.0
 15
0.0
 25
0.0
 35
0.0
146
0.0
 13
0.0
 23
0.0
 33
0.0
 16
1.0
 26
0.0
 36
0.0
 17
0.0
 27
1.0
 37
0.0
 76
     0
330
23
  0
LAYOUT
  5
22
102
{ACAD_REACTORS
330
1A
102
}
330
1A
100
AcDbPlotSettings
  1

  2
none_device
  4
Letter_(8.50_x_11.00_Inches)
  6

 40
6.35
 41
6.35
 42
6.350005
 43
6.350005
 44
215.9
 45
279.4
 46
0.0
 47
0.0
 48
0.0
 49
0.0
140
0.0
141
0.0
142
1.0
143
1.0
 70
  1712
 72
     1
 73
     0
 74
     0
  7

 75
     0
 76
     0
 77
     2
 78
   300
147
1.0
148
0.0
149
0.0
100
AcDbLayout
  1
Model
 70
     1
 71
     0
 10
0.0
 20
0.0
 11
420.0
 21
297.0
 12
0.0
 22
0.0
 32
0.0
 14
1.000000E+20
 24
1.000000E+20
 34
1.000000E+20
 15
-1.000000E+20
 25
-1.000000E+20
 35
-1.000000E+20
146
0.0
 13
0.0
 23
0.0
 33
0.0
 16
1.0
 26
0.0
 36
0.0
 17
0.0
 27
1.0
 37
0.0
 76
     0
330
1F
331
29
  0
MATERIAL
  5
45
102
{ACAD_REACTORS
330
43
102
}
330
43
100
AcDbMaterial
  1
ByBlock
 72
     1
 94
      127
  0
MATERIAL
  5
44
102
{ACAD_REACTORS
330
43
102
}
330
43
100
AcDbMaterial
  1
ByLayer
 72
     1
 94
      127
  0
MATERIAL
  5
46
102
{ACAD_REACTORS
330
43
102
}
330
43
100
AcDbMaterial
  1
Global
 72
     1
 94
      127
  0
MLEADERSTYLE
  5
6C
102
{ACAD_REACTORS
330
6B
102
}
330
6B
100
AcDbMLeaderStyle
179
     2
170
     2
171
     1
172
     0
 90
        2
 40
0.0
 41
0.0
173
     1
 91
-1056964608
340
14
 92
       -2
290
     1
 42
2.0
291
     1
 43
8.0
  3
Standard
341
0
 44
4.0
300

342
11
174
     1
178
     6
175
     1
176
     0
 93
-1056964608
 45
4.0
292
     0
297
     0
 46
4.0
343
0
 94
-1056964608
 47
1.0
 49
1.0
140
1.0
293
     1
141
0.0
294
     1
177
     0
142
1.0
295
     0
296
     0
143
3.75
271
     0
272
     9
273
     9
  0
MLINESTYLE
  5
18
102
{ACAD_REACTORS
330
17
102
}
330
17
100
AcDbMlineStyle
  2
Standard
 70
     0
  3

 62
   256
 51
90.0
 52
90.0
 71
     2
 49
0.5
 62
   256
  6
BYLAYER
 49
-0.5
 62
   256
  6
BYLAYER
  0
ACDBPLACEHOLDER
  5
F
102
{ACAD_REACTORS
330
E
102
}
330
E
  0
SCALE
  5
48
102
{ACAD_REACTORS
330
47
102
}
330
47
100
AcDbScale
 70
     0
300
1:1
140
1.0
141
1.0
290
     1
  0
SCALE
  5
49
102
{ACAD_REACTORS
330
47
102
}
330
47
100
AcDbScale
 70
     0
300
1:2
140
1.0
141
2.0
290
     0
  0
SCALE
  5
4A
102
{ACAD_REACTORS
330
47
102
}
330
47
100
AcDbScale
 70
     0
300
1:4
140
1.0
141
4.0
290
     0
  0
SCALE
  5
4B
102
{ACAD_REACTORS
330
47
102
}
330
47
100
AcDbScale
 70
     0
300
1:5
140
1.0
141
5.0
290
     0
  0
SCALE
  5
4C
102
{ACAD_REACTORS
330
47
102
}
330
47
100
AcDbScale
 70
     0
300
1:8
140
1.0
141
8.0
290
     0
  0
SCALE
  5
4D
102
{ACAD_REACTORS
330
47
102
}
330
47
100
AcDbScale
 70
     0
300
1:10
140
1.0
141
10.0
290
     0
  0
SCALE
  5
4E
102
{ACAD_REACTORS
330
47
102
}
330
47
100
AcDbScale
 70
     0
300
1:16
140
1.0
141
16.0
290
     0
  0
SCALE
  5
4F
102
{ACAD_REACTORS
330
47
102
}
330
47
100
AcDbScale
 70
     0
300
1:20
140
1.0
141
20.0
290
     0
  0
SCALE
  5
50
102
{ACAD_REACTORS
330
47
102
}
330
47
100
AcDbScale
 70
     0
300
1:30
140
1.0
141
30.0
290
     0
  0
SCALE
  5
51
102
{ACAD_REACTORS
330
47
102
}
330
47
100
AcDbScale
 70
     0
300
1:40
140
1.0
141
40.0
290
     0
  0
SCALE
  5
52
102
{ACAD_REACTORS
330
47
102
}
330
47
100
AcDbScale
 70
     0
300
1:50
140
1.0
141
50.0
290
     0
  0
SCALE
  5
53
102
{ACAD_REACTORS
330
47
102
}
330
47
100
AcDbScale
 70
     0
300
1:100
140
1.0
141
100.0
290
     0
  0
SCALE
  5
54
102
{ACAD_REACTORS
330
47
102
}
330
47
100
AcDbScale
 70
     0
300
2:1
140
2.0
141
1.0
290
     0
  0
SCALE
  5
55
102
{ACAD_REACTORS
330
47
102
}
330
47
100
AcDbScale
 70
     0
300
4:1
140
4.0
141
1.0
290
     0
  0
SCALE
  5
56
102
{ACAD_REACTORS
330
47
102
}
330
47
100
AcDbScale
 70
     0
300
8:1
140
8.0
141
1.0
290
     0
  0
SCALE
  5
57
102
{ACAD_REACTORS
330
47
102
}
330
47
100
AcDbScale
 70
     0
300
10:1
140
10.0
141
1.0
290
     0
  0
SCALE
  5
58
102
{ACAD_REACTORS
330
47
102
}
330
47
100
AcDbScale
 70
     0
300
100:1
140
100.0
141
1.0
290
     0
  0
SCALE
  5
59
102
{ACAD_REACTORS
330
47
102
}
330
47
100
AcDbScale
 70
     0
300
1/128" = 1'-0"
140
0.007812
141
12.0
290
     0
  0
SCALE
  5
5A
102
{ACAD_REACTORS
330
47
102
}
330
47
100
AcDbScale
 70
     0
300
1/64" = 1'-0"
140
0.015625
141
12.0
290
     0
  0
SCALE
  5
5B
102
{ACAD_REACTORS
330
47
102
}
330
47
100
AcDbScale
 70
     0
300
1/32" = 1'-0"
140
0.03125
141
12.0
290
     0
  0
SCALE
  5
5C
102
{ACAD_REACTORS
330
47
102
}
330
47
100
AcDbScale
 70
     0
300
1/16" = 1'-0"
140
0.0625
141
12.0
290
     0
  0
SCALE
  5
5D
102
{ACAD_REACTORS
330
47
102
}
330
47
100
AcDbScale
 70
     0
300
3/32" = 1'-0"
140
0.09375
141
12.0
290
     0
  0
SCALE
  5
5E
102
{ACAD_REACTORS
330
47
102
}
330
47
100
AcDbScale
 70
     0
300
1/8" = 1'-0"
140
0.125
141
12.0
290
     0
  0
SCALE
  5
5F
102
{ACAD_REACTORS
330
47
102
}
330
47
100
AcDbScale
 70
     0
300
3/16" = 1'-0"
140
0.1875
141
12.0
290
     0
  0
SCALE
  5
60
102
{ACAD_REACTORS
330
47
102
}
330
47
100
AcDbScale
 70
     0
300
1/4" = 1'-0"
140
0.25
141
12.0
290
     0
  0
SCALE
  5
61
102
{ACAD_REACTORS
330
47
102
}
330
47
100
AcDbScale
 70
     0
300
3/8" = 1'-0"
140
0.375
141
12.0
290
     0
  0
SCALE
  5
62
102
{ACAD_REACTORS
330
47
102
}
330
47
100
AcDbScale
 70
     0
300
1/2" = 1'-0"
140
0.5
141
12.0
290
     0
  0
SCALE
  5
63
102
{ACAD_REACTORS
330
47
102
}
330
47
100
AcDbScale
 70
     0
300
3/4" = 1'-0"
140
0.75
141
12.0
290
     0
  0
SCALE
  5
64
102
{ACAD_REACTORS
330
47
102
}
330
47
100
AcDbScale
 70
     0
300
1" = 1'-0"
140
1.0
141
12.0
290
     0
  0
SCALE
  5
65
102
{ACAD_REACTORS
330
47
102
}
330
47
100
AcDbScale
 70
     0
300
1-1/2" = 1'-0"
140
1.5
141
12.0
290
     0
  0
SCALE
  5
66
102
{ACAD_REACTORS
330
47
102
}
330
47
100
AcDbScale
 70
     0
300
3" = 1'-0"
140
3.0
141
12.0
290
     0
  0
SCALE
  5
67
102
{ACAD_REACTORS
330
47
102
}
330
47
100
AcDbScale
 70
     0
300
6" = 1'-0"
140
6.0
141
12.0
290
     0
  0
SCALE
  5
68
102
{ACAD_REACTORS
330
47
102
}
330
47
100
AcDbScale
 70
     0
300
1'-0" = 1'-0"
140
12.0
141
12.0
290
     0
  0
TABLESTYLE
  5
6A
102
{ACAD_REACTORS
330
69
102
}
102
{ACAD_XDICTIONARY
360
299
102
}
330
69
100
AcDbTableStyle
  3
Standard
 70
     0
 71
     0
 40
0.06
 41
0.06
280
     0
281
     0
  7
Standard
140
4.5
170
     2
 62
     0
 63
   257
283
     0
 90
        4
 91
        0
  1

274
    -2
284
     1
 64
     0
275
    -2
285
     1
 65
     0
276
    -2
286
     1
 66
     0
277
    -2
287
     1
 67
     0
278
    -2
288
     1
 68
     0
279
    -2
289
     1
 69
     0
  7
Standard
140
6.0
170
     5
 62
     0
 63
   257
283
     0
 90
        4
 91
        0
  1

274
    -2
284
     1
 64
     0
275
    -2
285
     1
 65
     0
276
    -2
286
     1
 66
     0
277
    -2
287
     1
 67
     0
278
    -2
288
     1
 68
     0
279
    -2
289
     1
 69
     0
  7
Standard
140
4.5
170
     5
 62
     0
 63
   257
283
     0
 90
        4
 91
        0
  1

274
    -2
284
     1
 64
     0
275
    -2
285
     1
 65
     0
276
    -2
286
     1
 66
     0
277
    -2
287
     1
 67
     0
278
    -2
288
     1
 68
     0
279
    -2
289
     1
 69
     0
  0
VISUALSTYLE
  5
2F
102
{ACAD_REACTORS
330
2A
102
}
102
{ACAD_XDICTIONARY
360
271
102
}
330
2A
100
AcDbVisualStyle
  2
2dWireframe
 70
     4
177
     2
291
     0
 71
     0
176
     1
 72
     2
176
     1
 73
     0
176
     1
 90
        0
176
     1
 40
0.6
176
     1
 41
30.0
176
     1
 62
     5
 63
     7
421
 16777215
176
     1
 74
     1
176
     1
 91
        4
176
     1
 64
     7
176
     1
 65
   257
176
     1
 75
     1
176
     1
175
     1
176
     1
 42
1.0
176
     1
 92
        0
176
     1
 66
   257
176
     1
 43
1.0
176
     1
 76
     1
176
     1
 77
     6
176
     1
 78
     2
176
     1
 67
     7
176
     1
 79
     5
176
     1
170
     0
176
     1
171
     0
176
     1
290
     0
176
     1
 93
        1
176
     1
 44
0.0
176
     1
173
     0
176
     1
  0
VISUALSTYLE
  5
32
102
{ACAD_REACTORS
330
2A
102
}
102
{ACAD_XDICTIONARY
360
277
102
}
330
2A
100
AcDbVisualStyle
  2
Basic
 70
     7
177
     2
291
     1
 71
     1
176
     1
 72
     0
176
     1
 73
     1
176
     1
 90
        0
176
     1
 40
0.6
176
     1
 41
30.0
176
     1
 62
     5
 63
     7
421
 16777215
176
     1
 74
     0
176
     1
 91
        4
176
     1
 64
     7
176
     1
 65
   257
176
     1
 75
     1
176
     1
175
     1
176
     1
 42
1.0
176
     1
 92
        8
176
     1
 66
     7
176
     1
 43
1.0
176
     1
 76
     1
176
     1
 77
     6
176
     1
 78
     2
176
     1
 67
     7
176
     1
 79
     5
176
     1
170
     0
176
     1
171
     0
176
     1
290
     0
176
     1
 93
        1
176
     1
 44
0.0
176
     1
173
     0
176
     1
  0
VISUALSTYLE
  5
36
102
{ACAD_REACTORS
330
2A
102
}
102
{ACAD_XDICTIONARY
360
27F
102
}
330
2A
100
AcDbVisualStyle
  2
Brighten
 70
    12
177
     2
291
     1
 71
     2
176
     1
 72
     2
176
     1
 73
     0
176
     1
 90
        0
176
     1
 40
0.6
176
     1
 41
30.0
176
     1
 62
     5
 63
     7
421
 16777215
176
     1
 74
     1
176
     1
 91
        4
176
     1
 64
     7
176
     1
 65
   257
176
     1
 75
     1
176
     1
175
     1
176
     1
 42
1.0
176
     1
 92
        8
176
     1
 66
     7
176
     1
 43
1.0
176
     1
 76
     1
176
     1
 77
     6
176
     1
 78
     2
176
     1
 67
     7
176
     1
 79
     5
176
     1
170
     0
176
     1
171
     0
176
     1
290
     0
176
     1
 93
        1
176
     1
 44
50.0
176
     1
173
     0
176
     1
  0
VISUALSTYLE
  5
3A
102
{ACAD_REACTORS
330
2A
102
}
102
{ACAD_XDICTIONARY
360
287
102
}
330
2A
100
AcDbVisualStyle
  2
ColorChange
 70
    16
177
     2
291
     1
 71
     2
176
     1
 72
     2
176
     1
 73
     3
176
     1
 90
        0
176
     1
 40
0.6
176
     1
 41
30.0
176
     1
 62
     5
 63
     8
421
  8421504
176
     1
 74
     1
176
     1
 91
        4
176
     1
 64
     7
176
     1
 65
   257
176
     1
 75
     1
176
     1
175
     1
176
     1
 42
1.0
176
     1
 92
        8
176
     1
 66
     8
424
  8421504
176
     1
 43
1.0
176
     1
 76
     1
176
     1
 77
     6
176
     1
 78
     2
176
     1
 67
     7
176
     1
 79
     5
176
     1
170
     0
176
     1
171
     0
176
     1
290
     0
176
     1
 93
        1
176
     1
 44
0.0
176
     1
173
     0
176
     1
  0
VISUALSTYLE
  5
34
102
{ACAD_REACTORS
330
2A
102
}
102
{ACAD_XDICTIONARY
360
27B
102
}
330
2A
100
AcDbVisualStyle
  2
Conceptual
 70
     9
177
     2
291
     0
 71
     3
176
     1
 72
     2
176
     1
 73
     0
176
     1
 90
        0
176
     1
 40
0.6
176
     1
 41
30.0
176
     1
 62
     5
 63
     7
421
 16777215
176
     1
 74
     2
176
     1
 91
        2
176
     1
 64
     7
176
     1
 65
   257
176
     1
 75
     1
176
     1
175
     1
176
     1
 42
179.0
176
     1
 92
        8
176
     1
 66
     7
176
     1
 43
1.0
176
     1
 76
     1
176
     1
 77
     6
176
     1
 78
     2
176
     1
 67
     7
176
     1
 79
     3
176
     1
170
     0
176
     1
171
     0
176
     1
290
     0
176
     1
 93
        1
176
     1
 44
0.0
176
     1
173
     0
176
     1
  0
VISUALSTYLE
  5
35
102
{ACAD_REACTORS
330
2A
102
}
102
{ACAD_XDICTIONARY
360
27D
102
}
330
2A
100
AcDbVisualStyle
  2
Dim
 70
    11
177
     2
291
     1
 71
     2
176
     1
 72
     2
176
     1
 73
     0
176
     1
 90
        0
176
     1
 40
0.6
176
     1
 41
30.0
176
     1
 62
     5
 63
     7
421
 16777215
176
     1
 74
     1
176
     1
 91
        4
176
     1
 64
     7
176
     1
 65
   257
176
     1
 75
     1
176
     1
175
     1
176
     1
 42
1.0
176
     1
 92
        8
176
     1
 66
     7
176
     1
 43
1.0
176
     1
 76
     1
176
     1
 77
     6
176
     1
 78
     2
176
     1
 67
     7
176
     1
 79
     5
176
     1
170
     0
176
     1
171
     0
176
     1
290
     0
176
     1
 93
        1
176
     1
 44
-50.0
176
     1
173
     0
176
     1
  0
VISUALSTYLE
  5
3D
102
{ACAD_REACTORS
330
2A
102
}
102
{ACAD_XDICTIONARY
360
28D
102
}
330
2A
100
AcDbVisualStyle
  2
EdgeColorOff
 70
    22
177
     2
291
     1
 71
     2
176
     0
 72
     2
176
     0
 73
     0
176
     0
 90
        0
176
     0
 40
0.6
176
     0
 41
30.0
176
     0
 62
     5
 63
     7
421
 16777215
176
     0
 74
     1
176
     0
 91
        4
176
     0
 64
     7
176
     0
 65
   257
176
     0
 75
     1
176
     0
175
     1
176
     0
 42
1.0
176
     0
 92
        8
176
     2
 66
     7
176
     0
 43
1.0
176
     0
 76
     1
176
     0
 77
     6
176
     0
 78
     2
176
     0
 67
     7
176
     0
 79
     5
176
     0
170
     0
176
     0
171
     0
176
     0
290
     0
176
     0
 93
        1
176
     0
 44
0.0
176
     0
173
     0
176
     0
  0
VISUALSTYLE
  5
39
102
{ACAD_REACTORS
330
2A
102
}
102
{ACAD_XDICTIONARY
360
285
102
}
330
2A
100
AcDbVisualStyle
  2
Facepattern
 70
    15
177
     2
291
     1
 71
     2
176
     1
 72
     2
176
     1
 73
     0
176
     1
 90
        0
176
     1
 40
0.6
176
     1
 41
30.0
176
     1
 62
     5
 63
     7
421
 16777215
176
     1
 74
     1
176
     1
 91
        4
176
     1
 64
     7
176
     1
 65
   257
176
     1
 75
     1
176
     1
175
     1
176
     1
 42
1.0
176
     1
 92
        8
176
     1
 66
     7
176
     1
 43
1.0
176
     1
 76
     1
176
     1
 77
     6
176
     1
 78
     2
176
     1
 67
     7
176
     1
 79
     5
176
     1
170
     0
176
     1
171
     0
176
     1
290
     0
176
     1
 93
        1
176
     1
 44
0.0
176
     1
173
     0
176
     1
  0
VISUALSTYLE
  5
2B
102
{ACAD_REACTORS
330
2A
102
}
102
{ACAD_XDICTIONARY
360
269
102
}
330
2A
100
AcDbVisualStyle
  2
Flat
 70
     0
177
     2
291
     1
 71
     2
176
     1
 72
     1
176
     1
 73
     1
176
     1
 90
        2
176
     1
 40
0.6
176
     1
 41
30.0
176
     1
 62
     5
 63
     7
421
 16777215
176
     1
 74
     0
176
     1
 91
        0
176
     1
 64
     7
176
     1
 65
   257
176
     1
 75
     1
176
     1
175
     1
176
     1
 42
1.0
176
     1
 92
        8
176
     1
 66
     7
176
     1
 43
1.0
176
     1
 76
     1
176
     1
 77
     6
176
     1
 78
     2
176
     1
 67
     7
176
     1
 79
     5
176
     1
170
     0
176
     1
171
     0
176
     1
290
     0
176
     1
 93
       13
176
     1
 44
0.0
176
     1
173
     0
176
     1
  0
VISUALSTYLE
  5
2C
102
{ACAD_REACTORS
330
2A
102
}
102
{ACAD_XDICTIONARY
360
26B
102
}
330
2A
100
AcDbVisualStyle
  2
FlatWithEdges
 70
     1
177
     2
291
     1
 71
     2
176
     1
 72
     1
176
     1
 73
     1
176
     1
 90
        2
176
     1
 40
0.6
176
     1
 41
30.0
176
     1
 62
     5
 63
     7
421
 16777215
176
     1
 74
     1
176
     1
 91
        0
176
     1
 64
     7
176
     1
 65
   257
176
     1
 75
     1
176
     1
175
     1
176
     1
 42
1.0
176
     1
 92
        0
176
     1
 66
   257
176
     1
 43
1.0
176
     1
 76
     1
176
     1
 77
     6
176
     1
 78
     2
176
     1
 67
     7
176
     1
 79
     5
176
     1
170
     0
176
     1
171
     0
176
     1
290
     0
176
     1
 93
       13
176
     1
 44
0.0
176
     1
173
     0
176
     1
  0
VISUALSTYLE
  5
2D
102
{ACAD_REACTORS
330
2A
102
}
102
{ACAD_XDICTIONARY
360
26D
102
}
330
2A
100
AcDbVisualStyle
  2
Gouraud
 70
     2
177
     2
291
     1
 71
     2
176
     1
 72
     2
176
     1
 73
     1
176
     1
 90
        2
176
     1
 40
0.6
176
     1
 41
30.0
176
     1
 62
     5
 63
     7
421
 16777215
176
     1
 74
     0
176
     1
 91
        0
176
     1
 64
     7
176
     1
 65
   257
176
     1
 75
     1
176
     1
175
     1
176
     1
 42
1.0
176
     1
 92
        0
176
     1
 66
     7
176
     1
 43
1.0
176
     1
 76
     1
176
     1
 77
     6
176
     1
 78
     2
176
     1
 67
     7
176
     1
 79
     5
176
     1
170
     0
176
     1
171
     0
176
     1
290
     0
176
     1
 93
       13
176
     1
 44
0.0
176
     1
173
     0
176
     1
  0
VISUALSTYLE
  5
2E
102
{ACAD_REACTORS
330
2A
102
}
102
{ACAD_XDICTIONARY
360
26F
102
}
330
2A
100
AcDbVisualStyle
  2
GouraudWithEdges
 70
     3
177
     2
291
     1
 71
     2
176
     1
 72
     2
176
     1
 73
     1
176
     1
 90
        2
176
     1
 40
0.6
176
     1
 41
30.0
176
     1
 62
     5
 63
     7
421
 16777215
176
     1
 74
     1
176
     1
 91
        0
176
     1
 64
     7
176
     1
 65
   257
176
     1
 75
     1
176
     1
175
     1
176
     1
 42
1.0
176
     1
 92
        0
176
     1
 66
   257
176
     1
 43
1.0
176
     1
 76
     1
176
     1
 77
     6
176
     1
 78
     2
176
     1
 67
     7
176
     1
 79
     5
176
     1
170
     0
176
     1
171
     0
176
     1
290
     0
176
     1
 93
       13
176
     1
 44
0.0
176
     1
173
     0
176
     1
  0
VISUALSTYLE
  5
31
102
{ACAD_REACTORS
330
2A
102
}
102
{ACAD_XDICTIONARY
360
275
102
}
330
2A
100
AcDbVisualStyle
  2
Hidden
 70
     6
177
     2
291
     0
 71
     1
176
     1
 72
     2
176
     1
 73
     2
176
     1
 90
        0
176
     1
 40
0.6
176
     1
 41
30.0
176
     1
 62
     5
 63
     7
421
 16777215
176
     1
 74
     2
176
     1
 91
        2
176
     1
 64
     7
176
     1
 65
   257
176
     1
 75
     2
176
     1
175
     1
176
     1
 42
40.0
176
     1
 92
        0
176
     1
 66
   257
176
     1
 43
1.0
176
     1
 76
     1
176
     1
 77
     6
176
     1
 78
     2
176
     1
 67
     7
176
     1
 79
     3
176
     1
170
     0
176
     1
171
     0
176
     1
290
     0
176
     1
 93
        1
176
     1
 44
0.0
176
     1
173
     0
176
     1
  0
VISUALSTYLE
  5
3B
102
{ACAD_REACTORS
330
2A
102
}
102
{ACAD_XDICTIONARY
360
289
102
}
330
2A
100
AcDbVisualStyle
  2
JitterOff
 70
    20
177
     2
291
     1
 71
     2
176
     0
 72
     2
176
     0
 73
     0
176
     0
 90
        0
176
     0
 40
0.6
176
     0
 41
30.0
176
     0
 62
     5
 63
     7
421
 16777215
176
     0
 74
     1
176
     0
 91
        4
176
     0
 64
     7
176
     0
 65
   257
176
     0
 75
     1
176
     0
175
     1
176
     0
 42
1.0
176
     0
 92
       10
176
     2
 66
     7
176
     0
 43
1.0
176
     0
 76
     1
176
     0
 77
     6
176
     0
 78
     2
176
     0
 67
     7
176
     0
 79
     5
176
     0
170
     0
176
     0
171
     0
176
     0
290
     0
176
     0
 93
        1
176
     0
 44
0.0
176
     0
173
     0
176
     0
  0
VISUALSTYLE
  5
38
102
{ACAD_REACTORS
330
2A
102
}
102
{ACAD_XDICTIONARY
360
283
102
}
330
2A
100
AcDbVisualStyle
  2
Linepattern
 70
    14
177
     2
291
     1
 71
     2
176
     1
 72
     2
176
     1
 73
     0
176
     1
 90
        0
176
     1
 40
0.6
176
     1
 41
30.0
176
     1
 62
     5
 63
     7
421
 16777215
176
     1
 74
     1
176
     1
 91
        4
176
     1
 64
     7
176
     1
 65
   257
176
     1
 75
     7
176
     1
175
     7
176
     1
 42
1.0
176
     1
 92
        8
176
     1
 66
     7
176
     1
 43
1.0
176
     1
 76
     1
176
     1
 77
     6
176
     1
 78
     2
176
     1
 67
     7
176
     1
 79
     5
176
     1
170
     0
176
     1
171
     0
176
     1
290
     0
176
     1
 93
        1
176
     1
 44
0.0
176
     1
173
     0
176
     1
  0
VISUALSTYLE
  5
3C
102
{ACAD_REACTORS
330
2A
102
}
102
{ACAD_XDICTIONARY
360
28B
102
}
330
2A
100
AcDbVisualStyle
  2
OverhangOff
 70
    21
177
     2
291
     1
 71
     2
176
     0
 72
     2
176
     0
 73
     0
176
     0
 90
        0
176
     0
 40
0.6
176
     0
 41
30.0
176
     0
 62
     5
 63
     7
421
 16777215
176
     0
 74
     1
176
     0
 91
        4
176
     0
 64
     7
176
     0
 65
   257
176
     0
 75
     1
176
     0
175
     1
176
     0
 42
1.0
176
     0
 92
        9
176
     2
 66
     7
176
     0
 43
1.0
176
     0
 76
     1
176
     0
 77
     6
176
     0
 78
     2
176
     0
 67
     7
176
     0
 79
     5
176
     0
170
     0
176
     0
171
     0
176
     0
290
     0
176
     0
 93
        1
176
     0
 44
0.0
176
     0
173
     0
176
     0
  0
VISUALSTYLE
  5
33
102
{ACAD_REACTORS
330
2A
102
}
102
{ACAD_XDICTIONARY
360
279
102
}
330
2A
100
AcDbVisualStyle
  2
Realistic
 70
     8
177
     2
291
     0
 71
     2
176
     1
 72
     3
176
     1
 73
     0
176
     1
 90
        2
176
     1
 40
0.6
176
     1
 41
30.0
176
     1
 62
     5
 63
     7
421
 16777215
176
     1
 74
     0
176
     1
 91
        0
176
     1
 64
     7
176
     1
 65
   257
176
     1
 75
     1
176
     1
175
     1
176
     1
 42
1.0
176
     1
 92
        8
176
     1
 66
   257
176
     1
 43
1.0
176
     1
 76
     1
176
     1
 77
     6
176
     1
 78
     2
176
     1
 67
     7
176
     1
 79
     3
176
     1
170
     0
176
     1
171
     0
176
     1
290
     0
176
     1
 93
       13
176
     1
 44
0.0
176
     1
173
     0
176
     1
  0
VISUALSTYLE
  5
42
102
{ACAD_REACTORS
330
2A
102
}
102
{ACAD_XDICTIONARY
360
297
102
}
330
2A
100
AcDbVisualStyle
  2
Shaded
 70
    27
177
     2
291
     0
 71
     2
176
     1
 72
     2
176
     1
 73
     1
176
     1
 90
        2
176
     1
 40
0.6
176
     1
 41
30.0
176
     1
 62
     5
 63
     7
421
 16777215
176
     1
 74
     0
176
     1
 91
        4
176
     1
 64
     7
176
     1
 65
   257
176
     1
 75
     1
176
     1
175
     1
176
     1
 42
1.0
176
     1
 92
        8
176
     1
 66
   257
176
     1
 43
1.0
176
     1
 76
     1
176
     1
 77
     6
176
     1
 78
     2
176
     1
 67
     8
425
  7895160
176
     1
 79
     3
176
     1
170
     0
176
     1
171
     0
176
     1
290
     0
176
     1
 93
        5
176
     1
 44
0.0
176
     1
173
     0
176
     1
  0
VISUALSTYLE
  5
41
102
{ACAD_REACTORS
330
2A
102
}
102
{ACAD_XDICTIONARY
360
295
102
}
330
2A
100
AcDbVisualStyle
  2
Shaded with edges
 70
    26
177
     2
291
     0
 71
     2
176
     1
 72
     2
176
     1
 73
     1
176
     1
 90
        2
176
     1
 40
0.6
176
     1
 41
30.0
176
     1
 62
     5
 63
     7
421
 16777215
176
     1
 74
     1
176
     1
 91
       10
176
     1
 64
     7
176
     1
 65
   257
176
     1
 75
     2
176
     1
175
     1
176
     1
 42
1.0
176
     1
 92
        8
176
     1
 66
   257
176
     1
 43
1.0
176
     1
 76
     1
176
     1
 77
     6
176
     1
 78
     2
176
     1
 67
     7
176
     1
 79
     3
176
     1
170
     0
176
     1
171
     0
176
     1
290
     0
176
     1
 93
        5
176
     1
 44
0.0
176
     1
173
     0
176
     1
  0
VISUALSTYLE
  5
3E
102
{ACAD_REACTORS
330
2A
102
}
102
{ACAD_XDICTIONARY
360
28F
102
}
330
2A
100
AcDbVisualStyle
  2
Shades of Gray
 70
    23
177
     2
291
     0
 71
     2
176
     1
 72
     2
176
     1
 73
     3
176
     1
 90
        0
176
     1
 40
0.6
176
     1
 41
30.0
176
     1
 62
     5
 63
     7
421
 16777215
176
     1
 74
     2
176
     1
 91
        2
176
     1
 64
     7
176
     1
 65
     7
176
     1
 75
     1
176
     1
175
     1
176
     1
 42
40.0
176
     1
 92
        8
176
     1
 66
     7
176
     1
 43
1.0
176
     1
 76
     1
176
     1
 77
     6
176
     1
 78
     2
176
     1
 67
     7
176
     1
 79
     3
176
     1
170
     0
176
     1
171
     0
176
     1
290
     0
176
     1
 93
        1
176
     1
 44
0.0
176
     1
173
     0
176
     1
  0
VISUALSTYLE
  5
3F
102
{ACAD_REACTORS
330
2A
102
}
102
{ACAD_XDICTIONARY
360
291
102
}
330
2A
100
AcDbVisualStyle
  2
Sketchy
 70
    24
177
     2
291
     0
 71
     1
176
     1
 72
     2
176
     1
 73
     2
176
     1
 90
        0
176
     1
 40
0.6
176
     1
 41
30.0
176
     1
 62
     5
 63
     7
421
 16777215
176
     1
 74
     2
176
     1
 91
        2
176
     1
 64
     7
176
     1
 65
     7
176
     1
 75
     1
176
     1
175
     1
176
     1
 42
40.0
176
     1
 92
       11
176
     1
 66
     7
176
     1
 43
1.0
176
     1
 76
     1
176
     1
 77
     6
176
     1
 78
     2
176
     1
 67
     7
176
     1
 79
     6
176
     1
170
     0
176
     1
171
     0
176
     1
290
     0
176
     1
 93
        1
176
     1
 44
0.0
176
     1
173
     0
176
     1
  0
VISUALSTYLE
  5
37
102
{ACAD_REACTORS
330
2A
102
}
102
{ACAD_XDICTIONARY
360
281
102
}
330
2A
100
AcDbVisualStyle
  2
Thicken
 70
    13
177
     2
291
     1
 71
     2
176
     1
 72
     2
176
     1
 73
     0
176
     1
 90
        0
176
     1
 40
0.6
176
     1
 41
30.0
176
     1
 62
     5
 63
     7
421
 16777215
176
     1
 74
     1
176
     1
 91
        4
176
     1
 64
     7
176
     1
 65
   257
176
     1
 75
     1
176
     1
175
     1
176
     1
 42
1.0
176
     1
 92
       12
176
     1
 66
     7
176
     1
 43
1.0
176
     1
 76
     1
176
     1
 77
     6
176
     1
 78
     2
176
     1
 67
     7
176
     1
 79
     5
176
     1
170
     0
176
     1
171
     0
176
     1
290
     0
176
     1
 93
        1
176
     1
 44
0.0
176
     1
173
     0
176
     1
  0
VISUALSTYLE
  5
30
102
{ACAD_REACTORS
330
2A
102
}
102
{ACAD_XDICTIONARY
360
273
102
}
330
2A
100
AcDbVisualStyle
  2
Wireframe
 70
     5
177
     2
291
     0
 71
     0
176
     1
 72
     2
176
     1
 73
     0
176
     1
 90
        0
176
     1
 40
0.6
176
     1
 41
30.0
176
     1
 62
     5
 63
     7
421
 16777215
176
     1
 74
     1
176
     1
 91
        4
176
     1
 64
     7
176
     1
 65
   257
176
     1
 75
     1
176
     1
175
     1
176
     1
 42
1.0
176
     1
 92
        0
176
     1
 66
   257
176
     1
 43
1.0
176
     1
 76
     1
176
     1
 77
     6
176
     1
 78
     2
176
     1
 67
     7
176
     1
 79
     3
176
     1
170
     0
176
     1
171
     0
176
     1
290
     0
176
     1
 93
        1
176
     1
 44
0.0
176
     1
173
     0
176
     1
  0
VISUALSTYLE
  5
40
102
{ACAD_REACTORS
330
2A
102
}
102
{ACAD_XDICTIONARY
360
293
102
}
330
2A
100
AcDbVisualStyle
  2
X-Ray
 70
    25
177
     2
291
     0
 71
     2
176
     1
 72
     2
176
     1
 73
     1
176
     1
 90
        1
176
     1
 40
0.5
176
     1
 41
30.0
176
     1
 62
     5
 63
     7
421
 16777215
176
     1
 74
     1
176
     1
 91
        0
176
     1
 64
     7
176
     1
 65
   257
176
     1
 75
     1
176
     1
175
     1
176
     1
 42
1.0
176
     1
 92
        8
176
     1
 66
     7
176
     1
 43
1.0
176
     1
 76
     1
176
     1
 77
     6
176
     1
 78
     2
176
     1
 67
     7
176
     1
 79
     3
176
     1
170
     0
176
     1
171
     0
176
     1
290
     0
176
     1
 93
       13
176
     1
 44
0.0
176
     1
173
     0
176
     1
  0
DICTIONARYVAR
  5
268
102
{ACAD_REACTORS
330
267
102
}
330
267
100
DictionaryVariables
280
     0
  1
1:1
  0
DICTIONARYVAR
  5
29D
102
{ACAD_REACTORS
330
267
102
}
330
267
100
DictionaryVariables
280
     0
  1
Standard
  0
DICTIONARYVAR
  5
29C
102
{ACAD_REACTORS
330
267
102
}
330
267
100
DictionaryVariables
280
     0
  1
Standard
  0
DICTIONARY
  5
299
330
6A
100
AcDbDictionary
280
     1
281
     1
  3
ACAD_ROUNDTRIP_2008_TABLESTYLE_CELLSTYLEMAP
360
29A
  0
DICTIONARY
  5
271
330
2F
100
AcDbDictionary
280
     1
281
     1
  3
ACAD_XREC_ROUNDTRIP
360
272
  0
DICTIONARY
  5
277
330
32
100
AcDbDictionary
280
     1
281
     1
  3
ACAD_XREC_ROUNDTRIP
360
278
  0
DICTIONARY
  5
27F
330
36
100
AcDbDictionary
280
     1
281
     1
  3
ACAD_XREC_ROUNDTRIP
360
280
  0
DICTIONARY
  5
287
330
3A
100
AcDbDictionary
280
     1
281
     1
  3
ACAD_XREC_ROUNDTRIP
360
288
  0
DICTIONARY
  5
27B
330
34
100
AcDbDictionary
280
     1
281
     1
  3
ACAD_XREC_ROUNDTRIP
360
27C
  0
DICTIONARY
  5
27D
330
35
100
AcDbDictionary
280
     1
281
     1
  3
ACAD_XREC_ROUNDTRIP
360
27E
  0
DICTIONARY
  5
28D
330
3D
100
AcDbDictionary
280
     1
281
     1
  3
ACAD_XREC_ROUNDTRIP
360
28E
  0
DICTIONARY
  5
285
330
39
100
AcDbDictionary
280
     1
281
     1
  3
ACAD_XREC_ROUNDTRIP
360
286
  0
DICTIONARY
  5
269
330
2B
100
AcDbDictionary
280
     1
281
     1
  3
ACAD_XREC_ROUNDTRIP
360
26A
  0
DICTIONARY
  5
26B
330
2C
100
AcDbDictionary
280
     1
281
     1
  3
ACAD_XREC_ROUNDTRIP
360
26C
  0
DICTIONARY
  5
26D
330
2D
100
AcDbDictionary
280
     1
281
     1
  3
ACAD_XREC_ROUNDTRIP
360
26E
  0
DICTIONARY
  5
26F
330
2E
100
AcDbDictionary
280
     1
281
     1
  3
ACAD_XREC_ROUNDTRIP
360
270
  0
DICTIONARY
  5
275
330
31
100
AcDbDictionary
280
     1
281
     1
  3
ACAD_XREC_ROUNDTRIP
360
276
  0
DICTIONARY
  5
289
330
3B
100
AcDbDictionary
280
     1
281
     1
  3
ACAD_XREC_ROUNDTRIP
360
28A
  0
DICTIONARY
  5
283
330
38
100
AcDbDictionary
280
     1
281
     1
  3
ACAD_XREC_ROUNDTRIP
360
284
  0
DICTIONARY
  5
28B
330
3C
100
AcDbDictionary
280
     1
281
     1
  3
ACAD_XREC_ROUNDTRIP
360
28C
  0
DICTIONARY
  5
279
330
33
100
AcDbDictionary
280
     1
281
     1
  3
ACAD_XREC_ROUNDTRIP
360
27A
  0
DICTIONARY
  5
297
330
42
100
AcDbDictionary
280
     1
281
     1
  3
ACAD_XREC_ROUNDTRIP
360
298
  0
DICTIONARY
  5
295
330
41
100
AcDbDictionary
280
     1
281
     1
  3
ACAD_XREC_ROUNDTRIP
360
296
  0
DICTIONARY
  5
28F
330
3E
100
AcDbDictionary
280
     1
281
     1
  3
ACAD_XREC_ROUNDTRIP
360
290
  0
DICTIONARY
  5
291
330
3F
100
AcDbDictionary
280
     1
281
     1
  3
ACAD_XREC_ROUNDTRIP
360
292
  0
DICTIONARY
  5
281
330
37
100
AcDbDictionary
280
     1
281
     1
  3
ACAD_XREC_ROUNDTRIP
360
282
  0
DICTIONARY
  5
273
330
30
100
AcDbDictionary
280
     1
281
     1
  3
ACAD_XREC_ROUNDTRIP
360
274
  0
DICTIONARY
  5
293
330
40
100
AcDbDictionary
280
     1
281
     1
  3
ACAD_XREC_ROUNDTRIP
360
294
  0
CELLSTYLEMAP
  5
29A
102
{ACAD_REACTORS
330
299
102
}
330
299
100
AcDbCellStyleMap
 90
        3
300
CELLSTYLE
  1
TABLEFORMAT_BEGIN
 90
        5
170
     1
 91
        0
 92
    32768
 62
   257
 93
        1
300
CONTENTFORMAT
  1
CONTENTFORMAT_BEGIN
 90
        0
 91
        0
 92
        4
 93
        0
300

 40
0.0
140
1.0
 94
        5
 62
     0
340
11
144
6.0
309
CONTENTFORMAT_END
171
     1
301
MARGIN
  1
CELLMARGIN_BEGIN
 40
1.5
 40
1.5
 40
1.5
 40
1.5
 40
1.5
 40
1.5
309
CELLMARGIN_END
 94
        6
 95
        1
302
GRIDFORMAT
  1
GRIDFORMAT_BEGIN
 90
        0
 91
        1
 62
     0
 92
       -2
340
14
 93
        0
 40
0.045
309
GRIDFORMAT_END
 95
        2
302
GRIDFORMAT
  1
GRIDFORMAT_BEGIN
 90
        0
 91
        1
 62
     0
 92
       -2
340
14
 93
        0
 40
0.045
309
GRIDFORMAT_END
 95
        4
302
GRIDFORMAT
  1
GRIDFORMAT_BEGIN
 90
        0
 91
        1
 62
     0
 92
       -2
340
14
 93
        0
 40
0.045
309
GRIDFORMAT_END
 95
        8
302
GRIDFORMAT
  1
GRIDFORMAT_BEGIN
 90
        0
 91
        1
 62
     0
 92
       -2
340
14
 93
        0
 40
0.045
309
GRIDFORMAT_END
 95
       16
302
GRIDFORMAT
  1
GRIDFORMAT_BEGIN
 90
        0
 91
        1
 62
     0
 92
       -2
340
14
 93
        0
 40
0.045
309
GRIDFORMAT_END
 95
       32
302
GRIDFORMAT
  1
GRIDFORMAT_BEGIN
 90
        0
 91
        1
 62
     0
 92
       -2
340
14
 93
        0
 40
0.045
309
GRIDFORMAT_END
309
TABLEFORMAT_END
  1
CELLSTYLE_BEGIN
 90
        1
 91
        1
300
_TITLE
309
CELLSTYLE_END
300
CELLSTYLE
  1
TABLEFORMAT_BEGIN
 90
        5
170
     1
 91
        0
 92
        0
 62
   257
 93
        1
300
CONTENTFORMAT
  1
CONTENTFORMAT_BEGIN
 90
        0
 91
        0
 92
        4
 93
        0
300

 40
0.0
140
1.0
 94
        5
 62
     0
340
11
144
4.5
309
CONTENTFORMAT_END
171
     1
301
MARGIN
  1
CELLMARGIN_BEGIN
 40
1.5
 40
1.5
 40
1.5
 40
1.5
 40
1.5
 40
1.5
309
CELLMARGIN_END
 94
        6
 95
        1
302
GRIDFORMAT
  1
GRIDFORMAT_BEGIN
 90
        0
 91
        1
 62
     0
 92
       -2
340
14
 93
        0
 40
0.045
309
GRIDFORMAT_END
 95
        2
302
GRIDFORMAT
  1
GRIDFORMAT_BEGIN
 90
        0
 91
        1
 62
     0
 92
       -2
340
14
 93
        0
 40
0.045
309
GRIDFORMAT_END
 95
        4
302
GRIDFORMAT
  1
GRIDFORMAT_BEGIN
 90
        0
 91
        1
 62
     0
 92
       -2
340
14
 93
        0
 40
0.045
309
GRIDFORMAT_END
 95
        8
302
GRIDFORMAT
  1
GRIDFORMAT_BEGIN
 90
        0
 91
        1
 62
     0
 92
       -2
340
14
 93
        0
 40
0.045
309
GRIDFORMAT_END
 95
       16
302
GRIDFORMAT
  1
GRIDFORMAT_BEGIN
 90
        0
 91
        1
 62
     0
 92
       -2
340
14
 93
        0
 40
0.045
309
GRIDFORMAT_END
 95
       32
302
GRIDFORMAT
  1
GRIDFORMAT_BEGIN
 90
        0
 91
        1
 62
     0
 92
       -2
340
14
 93
        0
 40
0.045
309
GRIDFORMAT_END
309
TABLEFORMAT_END
  1
CELLSTYLE_BEGIN
 90
        2
 91
        1
300
_HEADER
309
CELLSTYLE_END
300
CELLSTYLE
  1
TABLEFORMAT_BEGIN
 90
        5
170
     1
 91
        0
 92
        0
 62
   257
 93
        1
300
CONTENTFORMAT
  1
CONTENTFORMAT_BEGIN
 90
        0
 91
        0
 92
        4
 93
        0
300

 40
0.0
140
1.0
 94
        2
 62
     0
340
11
144
4.5
309
CONTENTFORMAT_END
171
     1
301
MARGIN
  1
CELLMARGIN_BEGIN
 40
1.5
 40
1.5
 40
1.5
 40
1.5
 40
1.5
 40
1.5
309
CELLMARGIN_END
 94
        6
 95
        1
302
GRIDFORMAT
  1
GRIDFORMAT_BEGIN
 90
        0
 91
        1
 62
     0
 92
       -2
340
14
 93
        0
 40
0.045
309
GRIDFORMAT_END
 95
        2
302
GRIDFORMAT
  1
GRIDFORMAT_BEGIN
 90
        0
 91
        1
 62
     0
 92
       -2
340
14
 93
        0
 40
0.045
309
GRIDFORMAT_END
 95
        4
302
GRIDFORMAT
  1
GRIDFORMAT_BEGIN
 90
        0
 91
        1
 62
     0
 92
       -2
340
14
 93
        0
 40
0.045
309
GRIDFORMAT_END
 95
        8
302
GRIDFORMAT
  1
GRIDFORMAT_BEGIN
 90
        0
 91
        1
 62
     0
 92
       -2
340
14
 93
        0
 40
0.045
309
GRIDFORMAT_END
 95
       16
302
GRIDFORMAT
  1
GRIDFORMAT_BEGIN
 90
        0
 91
        1
 62
     0
 92
       -2
340
14
 93
        0
 40
0.045
309
GRIDFORMAT_END
 95
       32
302
GRIDFORMAT
  1
GRIDFORMAT_BEGIN
 90
        0
 91
        1
 62
     0
 92
       -2
340
14
 93
        0
 40
0.045
309
GRIDFORMAT_END
309
TABLEFORMAT_END
  1
CELLSTYLE_BEGIN
 90
        3
 91
        2
300
_DATA
309
CELLSTYLE_END
  0
XRECORD
  5
272
102
{ACAD_REACTORS
330
271
102
}
330
271
100
AcDbXrecord
280
     1
102
RTVSPost2010Prop28
280
     1
102
RTVSPost2010PropOp28
 70
     1
102
RTVSPost2010Prop29
280
     1
102
RTVSPost2010PropOp29
 70
     1
102
RTVSPost2010Prop30
280
     0
102
RTVSPost2010PropOp30
 70
     1
102
RTVSPost2010Prop31
280
     0
102
RTVSPost2010PropOp31
 70
     1
102
RTVSPost2010Prop32
280
     0
102
RTVSPost2010PropOp32
 70
     1
102
RTVSPost2010Prop33
280
     0
102
RTVSPost2010PropOp33
 70
     1
102
RTVSPost2010Prop34
280
     0
102
RTVSPost2010PropOp34
 70
     1
102
RTVSPost2010Prop35
280
     0
102
RTVSPost2010PropOp35
 70
     1
102
RTVSPost2010Prop36
280
     0
102
RTVSPost2010PropOp36
 70
     1
102
RTVSPost2010Prop37
 90
       50
102
RTVSPost2010PropOp37
 70
     1
102
RTVSPost2010Prop38
140
0.0
102
RTVSPost2010PropOp38
 70
     1
102
RTVSPost2010Prop39
140
1.0
102
RTVSPost2010PropOp39
 70
     1
102
RTVSPost2010Prop40
 90
        0
102
RTVSPost2010PropOp40
 70
     1
102
RTVSPost2010Prop41ColorIndex
 90
       18
102
RTVSPost2010Prop41ColorRGB
 90
        0
102
RTVSPost2010PropOp41
 70
     1
102
RTVSPost2010Prop42
 90
       50
102
RTVSPost2010PropOp42
 70
     1
102
RTVSPost2010Prop43
 90
        3
102
RTVSPost2010PropOp43
 70
     1
102
RTVSPost2010Prop44ColorIndex
 90
        5
102
RTVSPost2010Prop44ColorRGB
 90
      255
102
RTVSPost2010PropOp44
 70
     1
102
RTVSPost2010Prop45
280
     0
102
RTVSPost2010PropOp45
 70
     1
102
RTVSPost2010Prop46
 90
       50
102
RTVSPost2010PropOp46
 70
     1
102
RTVSPost2010Prop47
 90
       50
102
RTVSPost2010PropOp47
 70
     1
102
RTVSPost2010Prop48
 90
       50
102
RTVSPost2010PropOp48
 70
     1
102
RTVSPost2010Prop49
280
     0
102
RTVSPost2010PropOp49
 70
     1
102
RTVSPost2010Prop50
 90
       50
102
RTVSPost2010PropOp50
 70
     1
102
RTVSPost2010Prop51ColorIndex
 90
      256
102
RTVSPost2010Prop51ColorRGB
 90
-16777216
102
RTVSPost2010PropOp51
 70
     0
102
RTVSPost2010Prop52
140
1.0
102
RTVSPost2010PropOp52
 70
     0
102
RTVSPost2010Prop53
 90
        2
102
RTVSPost2010PropOp53
 70
     1
102
RTVSPost2010Prop54
  1
strokes_ogs.tif
102
RTVSPost2010PropOp54
 70
     1
102
RTVSPost2010Prop55
280
     0
102
RTVSPost2010PropOp55
 70
     1
102
RTVSPost2010Prop56
140
1.0
102
RTVSPost2010PropOp56
 70
     1
102
RTVSPost2010Prop57
140
1.0
102
RTVSPost2010PropOp57
 70
     1
  0
XRECORD
  5
278
102
{ACAD_REACTORS
330
277
102
}
330
277
100
AcDbXrecord
280
     1
102
RTVSPost2010Prop28
280
     0
102
RTVSPost2010PropOp28
 70
     1
102
RTVSPost2010Prop29
280
     1
102
RTVSPost2010PropOp29
 70
     1
102
RTVSPost2010Prop30
280
     1
102
RTVSPost2010PropOp30
 70
     1
102
RTVSPost2010Prop31
280
     0
102
RTVSPost2010PropOp31
 70
     1
102
RTVSPost2010Prop32
280
     0
102
RTVSPost2010PropOp32
 70
     1
102
RTVSPost2010Prop33
280
     0
102
RTVSPost2010PropOp33
 70
     1
102
RTVSPost2010Prop34
280
     0
102
RTVSPost2010PropOp34
 70
     1
102
RTVSPost2010Prop35
280
     0
102
RTVSPost2010PropOp35
 70
     1
102
RTVSPost2010Prop36
280
     0
102
RTVSPost2010PropOp36
 70
     1
102
RTVSPost2010Prop37
 90
       50
102
RTVSPost2010PropOp37
 70
     1
102
RTVSPost2010Prop38
140
0.0
102
RTVSPost2010PropOp38
 70
     1
102
RTVSPost2010Prop39
140
1.0
102
RTVSPost2010PropOp39
 70
     1
102
RTVSPost2010Prop40
 90
        0
102
RTVSPost2010PropOp40
 70
     1
102
RTVSPost2010Prop41ColorIndex
 90
       18
102
RTVSPost2010Prop41ColorRGB
 90
        0
102
RTVSPost2010PropOp41
 70
     1
102
RTVSPost2010Prop42
 90
       50
102
RTVSPost2010PropOp42
 70
     1
102
RTVSPost2010Prop43
 90
        3
102
RTVSPost2010PropOp43
 70
     1
102
RTVSPost2010Prop44ColorIndex
 90
        5
102
RTVSPost2010Prop44ColorRGB
 90
      255
102
RTVSPost2010PropOp44
 70
     1
102
RTVSPost2010Prop45
280
     0
102
RTVSPost2010PropOp45
 70
     1
102
RTVSPost2010Prop46
 90
       50
102
RTVSPost2010PropOp46
 70
     1
102
RTVSPost2010Prop47
 90
       50
102
RTVSPost2010PropOp47
 70
     1
102
RTVSPost2010Prop48
 90
       50
102
RTVSPost2010PropOp48
 70
     1
102
RTVSPost2010Prop49
280
     0
102
RTVSPost2010PropOp49
 70
     1
102
RTVSPost2010Prop50
 90
       50
102
RTVSPost2010PropOp50
 70
     1
102
RTVSPost2010Prop51ColorIndex
 90
      256
102
RTVSPost2010Prop51ColorRGB
 90
-16777216
102
RTVSPost2010PropOp51
 70
     0
102
RTVSPost2010Prop52
140
1.0
102
RTVSPost2010PropOp52
 70
     0
102
RTVSPost2010Prop53
 90
        2
102
RTVSPost2010PropOp53
 70
     1
102
RTVSPost2010Prop54
  1
strokes_ogs.tif
102
RTVSPost2010PropOp54
 70
     1
102
RTVSPost2010Prop55
280
     0
102
RTVSPost2010PropOp55
 70
     1
102
RTVSPost2010Prop56
140
1.0
102
RTVSPost2010PropOp56
 70
     1
102
RTVSPost2010Prop57
140
1.0
102
RTVSPost2010PropOp57
 70
     1
  0
XRECORD
  5
280
102
{ACAD_REACTORS
330
27F
102
}
330
27F
100
AcDbXrecord
280
     1
102
RTVSPost2010Prop28
280
     0
102
RTVSPost2010PropOp28
 70
     1
102
RTVSPost2010Prop29
280
     1
102
RTVSPost2010PropOp29
 70
     1
102
RTVSPost2010Prop30
280
     1
102
RTVSPost2010PropOp30
 70
     1
102
RTVSPost2010Prop31
280
     0
102
RTVSPost2010PropOp31
 70
     1
102
RTVSPost2010Prop32
280
     0
102
RTVSPost2010PropOp32
 70
     1
102
RTVSPost2010Prop33
280
     0
102
RTVSPost2010PropOp33
 70
     1
102
RTVSPost2010Prop34
280
     0
102
RTVSPost2010PropOp34
 70
     1
102
RTVSPost2010Prop35
280
     0
102
RTVSPost2010PropOp35
 70
     1
102
RTVSPost2010Prop36
280
     0
102
RTVSPost2010PropOp36
 70
     1
102
RTVSPost2010Prop37
 90
       50
102
RTVSPost2010PropOp37
 70
     1
102
RTVSPost2010Prop38
140
0.0
102
RTVSPost2010PropOp38
 70
     1
102
RTVSPost2010Prop39
140
1.0
102
RTVSPost2010PropOp39
 70
     1
102
RTVSPost2010Prop40
 90
        0
102
RTVSPost2010PropOp40
 70
     1
102
RTVSPost2010Prop41ColorIndex
 90
       18
102
RTVSPost2010Prop41ColorRGB
 90
        0
102
RTVSPost2010PropOp41
 70
     1
102
RTVSPost2010Prop42
 90
       50
102
RTVSPost2010PropOp42
 70
     1
102
RTVSPost2010Prop43
 90
        3
102
RTVSPost2010PropOp43
 70
     1
102
RTVSPost2010Prop44ColorIndex
 90
        5
102
RTVSPost2010Prop44ColorRGB
 90
      255
102
RTVSPost2010PropOp44
 70
     1
102
RTVSPost2010Prop45
280
     0
102
RTVSPost2010PropOp45
 70
     1
102
RTVSPost2010Prop46
 90
       50
102
RTVSPost2010PropOp46
 70
     1
102
RTVSPost2010Prop47
 90
       50
102
RTVSPost2010PropOp47
 70
     1
102
RTVSPost2010Prop48
 90
       50
102
RTVSPost2010PropOp48
 70
     1
102
RTVSPost2010Prop49
280
     0
102
RTVSPost2010PropOp49
 70
     1
102
RTVSPost2010Prop50
 90
       50
102
RTVSPost2010PropOp50
 70
     1
102
RTVSPost2010Prop51ColorIndex
 90
      256
102
RTVSPost2010Prop51ColorRGB
 90
-16777216
102
RTVSPost2010PropOp51
 70
     0
102
RTVSPost2010Prop52
140
1.0
102
RTVSPost2010PropOp52
 70
     0
102
RTVSPost2010Prop53
 90
        2
102
RTVSPost2010PropOp53
 70
     1
102
RTVSPost2010Prop54
  1
strokes_ogs.tif
102
RTVSPost2010PropOp54
 70
     1
102
RTVSPost2010Prop55
280
     0
102
RTVSPost2010PropOp55
 70
     1
102
RTVSPost2010Prop56
140
1.0
102
RTVSPost2010PropOp56
 70
     1
102
RTVSPost2010Prop57
140
1.0
102
RTVSPost2010PropOp57
 70
     1
  0
XRECORD
  5
288
102
{ACAD_REACTORS
330
287
102
}
330
287
100
AcDbXrecord
280
     1
102
RTVSPost2010Prop28
280
     0
102
RTVSPost2010PropOp28
 70
     1
102
RTVSPost2010Prop29
280
     1
102
RTVSPost2010PropOp29
 70
     1
102
RTVSPost2010Prop30
280
     1
102
RTVSPost2010PropOp30
 70
     1
102
RTVSPost2010Prop31
280
     0
102
RTVSPost2010PropOp31
 70
     1
102
RTVSPost2010Prop32
280
     0
102
RTVSPost2010PropOp32
 70
     1
102
RTVSPost2010Prop33
280
     0
102
RTVSPost2010PropOp33
 70
     1
102
RTVSPost2010Prop34
280
     0
102
RTVSPost2010PropOp34
 70
     1
102
RTVSPost2010Prop35
280
     0
102
RTVSPost2010PropOp35
 70
     1
102
RTVSPost2010Prop36
280
     0
102
RTVSPost2010PropOp36
 70
     1
102
RTVSPost2010Prop37
 90
       50
102
RTVSPost2010PropOp37
 70
     1
102
RTVSPost2010Prop38
140
0.0
102
RTVSPost2010PropOp38
 70
     1
102
RTVSPost2010Prop39
140
1.0
102
RTVSPost2010PropOp39
 70
     1
102
RTVSPost2010Prop40
 90
        0
102
RTVSPost2010PropOp40
 70
     1
102
RTVSPost2010Prop41ColorIndex
 90
       18
102
RTVSPost2010Prop41ColorRGB
 90
        0
102
RTVSPost2010PropOp41
 70
     1
102
RTVSPost2010Prop42
 90
       50
102
RTVSPost2010PropOp42
 70
     1
102
RTVSPost2010Prop43
 90
        3
102
RTVSPost2010PropOp43
 70
     1
102
RTVSPost2010Prop44ColorIndex
 90
        5
102
RTVSPost2010Prop44ColorRGB
 90
      255
102
RTVSPost2010PropOp44
 70
     1
102
RTVSPost2010Prop45
280
     0
102
RTVSPost2010PropOp45
 70
     1
102
RTVSPost2010Prop46
 90
       50
102
RTVSPost2010PropOp46
 70
     1
102
RTVSPost2010Prop47
 90
       50
102
RTVSPost2010PropOp47
 70
     1
102
RTVSPost2010Prop48
 90
       50
102
RTVSPost2010PropOp48
 70
     1
102
RTVSPost2010Prop49
280
     0
102
RTVSPost2010PropOp49
 70
     1
102
RTVSPost2010Prop50
 90
       50
102
RTVSPost2010PropOp50
 70
     1
102
RTVSPost2010Prop51ColorIndex
 90
      256
102
RTVSPost2010Prop51ColorRGB
 90
-16777216
102
RTVSPost2010PropOp51
 70
     0
102
RTVSPost2010Prop52
140
1.0
102
RTVSPost2010PropOp52
 70
     0
102
RTVSPost2010Prop53
 90
        2
102
RTVSPost2010PropOp53
 70
     1
102
RTVSPost2010Prop54
  1
strokes_ogs.tif
102
RTVSPost2010PropOp54
 70
     1
102
RTVSPost2010Prop55
280
     0
102
RTVSPost2010PropOp55
 70
     1
102
RTVSPost2010Prop56
140
1.0
102
RTVSPost2010PropOp56
 70
     1
102
RTVSPost2010Prop57
140
1.0
102
RTVSPost2010PropOp57
 70
     1
  0
XRECORD
  5
27C
102
{ACAD_REACTORS
330
27B
102
}
330
27B
100
AcDbXrecord
280
     1
102
RTVSPost2010Prop28
280
     0
102
RTVSPost2010PropOp28
 70
     1
102
RTVSPost2010Prop29
280
     1
102
RTVSPost2010PropOp29
 70
     1
102
RTVSPost2010Prop30
280
     1
102
RTVSPost2010PropOp30
 70
     1
102
RTVSPost2010Prop31
280
     0
102
RTVSPost2010PropOp31
 70
     1
102
RTVSPost2010Prop32
280
     0
102
RTVSPost2010PropOp32
 70
     1
102
RTVSPost2010Prop33
280
     0
102
RTVSPost2010PropOp33
 70
     1
102
RTVSPost2010Prop34
280
     0
102
RTVSPost2010PropOp34
 70
     1
102
RTVSPost2010Prop35
280
     0
102
RTVSPost2010PropOp35
 70
     1
102
RTVSPost2010Prop36
280
     0
102
RTVSPost2010PropOp36
 70
     1
102
RTVSPost2010Prop37
 90
       50
102
RTVSPost2010PropOp37
 70
     1
102
RTVSPost2010Prop38
140
0.0
102
RTVSPost2010PropOp38
 70
     1
102
RTVSPost2010Prop39
140
1.0
102
RTVSPost2010PropOp39
 70
     1
102
RTVSPost2010Prop40
 90
        0
102
RTVSPost2010PropOp40
 70
     1
102
RTVSPost2010Prop41ColorIndex
 90
       18
102
RTVSPost2010Prop41ColorRGB
 90
        0
102
RTVSPost2010PropOp41
 70
     1
102
RTVSPost2010Prop42
 90
       50
102
RTVSPost2010PropOp42
 70
     1
102
RTVSPost2010Prop43
 90
        3
102
RTVSPost2010PropOp43
 70
     1
102
RTVSPost2010Prop44ColorIndex
 90
        5
102
RTVSPost2010Prop44ColorRGB
 90
      255
102
RTVSPost2010PropOp44
 70
     1
102
RTVSPost2010Prop45
280
     0
102
RTVSPost2010PropOp45
 70
     1
102
RTVSPost2010Prop46
 90
       50
102
RTVSPost2010PropOp46
 70
     1
102
RTVSPost2010Prop47
 90
       50
102
RTVSPost2010PropOp47
 70
     1
102
RTVSPost2010Prop48
 90
       50
102
RTVSPost2010PropOp48
 70
     1
102
RTVSPost2010Prop49
280
     0
102
RTVSPost2010PropOp49
 70
     1
102
RTVSPost2010Prop50
 90
       50
102
RTVSPost2010PropOp50
 70
     1
102
RTVSPost2010Prop51ColorIndex
 90
      256
102
RTVSPost2010Prop51ColorRGB
 90
-16777216
102
RTVSPost2010PropOp51
 70
     0
102
RTVSPost2010Prop52
140
1.0
102
RTVSPost2010PropOp52
 70
     0
102
RTVSPost2010Prop53
 90
        2
102
RTVSPost2010PropOp53
 70
     1
102
RTVSPost2010Prop54
  1
strokes_ogs.tif
102
RTVSPost2010PropOp54
 70
     1
102
RTVSPost2010Prop55
280
     0
102
RTVSPost2010PropOp55
 70
     1
102
RTVSPost2010Prop56
140
1.0
102
RTVSPost2010PropOp56
 70
     1
102
RTVSPost2010Prop57
140
1.0
102
RTVSPost2010PropOp57
 70
     1
  0
XRECORD
  5
27E
102
{ACAD_REACTORS
330
27D
102
}
330
27D
100
AcDbXrecord
280
     1
102
RTVSPost2010Prop28
280
     0
102
RTVSPost2010PropOp28
 70
     1
102
RTVSPost2010Prop29
280
     1
102
RTVSPost2010PropOp29
 70
     1
102
RTVSPost2010Prop30
280
     1
102
RTVSPost2010PropOp30
 70
     1
102
RTVSPost2010Prop31
280
     0
102
RTVSPost2010PropOp31
 70
     1
102
RTVSPost2010Prop32
280
     0
102
RTVSPost2010PropOp32
 70
     1
102
RTVSPost2010Prop33
280
     0
102
RTVSPost2010PropOp33
 70
     1
102
RTVSPost2010Prop34
280
     0
102
RTVSPost2010PropOp34
 70
     1
102
RTVSPost2010Prop35
280
     0
102
RTVSPost2010PropOp35
 70
     1
102
RTVSPost2010Prop36
280
     0
102
RTVSPost2010PropOp36
 70
     1
102
RTVSPost2010Prop37
 90
       50
102
RTVSPost2010PropOp37
 70
     1
102
RTVSPost2010Prop38
140
0.0
102
RTVSPost2010PropOp38
 70
     1
102
RTVSPost2010Prop39
140
1.0
102
RTVSPost2010PropOp39
 70
     1
102
RTVSPost2010Prop40
 90
        0
102
RTVSPost2010PropOp40
 70
     1
102
RTVSPost2010Prop41ColorIndex
 90
       18
102
RTVSPost2010Prop41ColorRGB
 90
        0
102
RTVSPost2010PropOp41
 70
     1
102
RTVSPost2010Prop42
 90
       50
102
RTVSPost2010PropOp42
 70
     1
102
RTVSPost2010Prop43
 90
        3
102
RTVSPost2010PropOp43
 70
     1
102
RTVSPost2010Prop44ColorIndex
 90
        5
102
RTVSPost2010Prop44ColorRGB
 90
      255
102
RTVSPost2010PropOp44
 70
     1
102
RTVSPost2010Prop45
280
     0
102
RTVSPost2010PropOp45
 70
     1
102
RTVSPost2010Prop46
 90
       50
102
RTVSPost2010PropOp46
 70
     1
102
RTVSPost2010Prop47
 90
       50
102
RTVSPost2010PropOp47
 70
     1
102
RTVSPost2010Prop48
 90
       50
102
RTVSPost2010PropOp48
 70
     1
102
RTVSPost2010Prop49
280
     0
102
RTVSPost2010PropOp49
 70
     1
102
RTVSPost2010Prop50
 90
       50
102
RTVSPost2010PropOp50
 70
     1
102
RTVSPost2010Prop51ColorIndex
 90
      256
102
RTVSPost2010Prop51ColorRGB
 90
-16777216
102
RTVSPost2010PropOp51
 70
     0
102
RTVSPost2010Prop52
140
1.0
102
RTVSPost2010PropOp52
 70
     0
102
RTVSPost2010Prop53
 90
        2
102
RTVSPost2010PropOp53
 70
     1
102
RTVSPost2010Prop54
  1
strokes_ogs.tif
102
RTVSPost2010PropOp54
 70
     1
102
RTVSPost2010Prop55
280
     0
102
RTVSPost2010PropOp55
 70
     1
102
RTVSPost2010Prop56
140
1.0
102
RTVSPost2010PropOp56
 70
     1
102
RTVSPost2010Prop57
140
1.0
102
RTVSPost2010PropOp57
 70
     1
  0
XRECORD
  5
28E
102
{ACAD_REACTORS
330
28D
102
}
330
28D
100
AcDbXrecord
280
     1
102
RTVSPost2010Prop28
280
     0
102
RTVSPost2010PropOp28
 70
     0
102
RTVSPost2010Prop29
280
     1
102
RTVSPost2010PropOp29
 70
     0
102
RTVSPost2010Prop30
280
     1
102
RTVSPost2010PropOp30
 70
     0
102
RTVSPost2010Prop31
280
     0
102
RTVSPost2010PropOp31
 70
     0
102
RTVSPost2010Prop32
280
     0
102
RTVSPost2010PropOp32
 70
     0
102
RTVSPost2010Prop33
280
     0
102
RTVSPost2010PropOp33
 70
     0
102
RTVSPost2010Prop34
280
     0
102
RTVSPost2010PropOp34
 70
     0
102
RTVSPost2010Prop35
280
     0
102
RTVSPost2010PropOp35
 70
     0
102
RTVSPost2010Prop36
280
     0
102
RTVSPost2010PropOp36
 70
     0
102
RTVSPost2010Prop37
 90
       50
102
RTVSPost2010PropOp37
 70
     0
102
RTVSPost2010Prop38
140
0.0
102
RTVSPost2010PropOp38
 70
     0
102
RTVSPost2010Prop39
140
1.0
102
RTVSPost2010PropOp39
 70
     0
102
RTVSPost2010Prop40
 90
        0
102
RTVSPost2010PropOp40
 70
     0
102
RTVSPost2010Prop41ColorIndex
 90
       18
102
RTVSPost2010Prop41ColorRGB
 90
        0
102
RTVSPost2010PropOp41
 70
     0
102
RTVSPost2010Prop42
 90
       50
102
RTVSPost2010PropOp42
 70
     0
102
RTVSPost2010Prop43
 90
        3
102
RTVSPost2010PropOp43
 70
     0
102
RTVSPost2010Prop44ColorIndex
 90
        5
102
RTVSPost2010Prop44ColorRGB
 90
      255
102
RTVSPost2010PropOp44
 70
     0
102
RTVSPost2010Prop45
280
     0
102
RTVSPost2010PropOp45
 70
     0
102
RTVSPost2010Prop46
 90
       50
102
RTVSPost2010PropOp46
 70
     0
102
RTVSPost2010Prop47
 90
       50
102
RTVSPost2010PropOp47
 70
     0
102
RTVSPost2010Prop48
 90
       50
102
RTVSPost2010PropOp48
 70
     0
102
RTVSPost2010Prop49
280
     0
102
RTVSPost2010PropOp49
 70
     0
102
RTVSPost2010Prop50
 90
       50
102
RTVSPost2010PropOp50
 70
     0
102
RTVSPost2010Prop51ColorIndex
 90
      256
102
RTVSPost2010Prop51ColorRGB
 90
-16777216
102
RTVSPost2010PropOp51
 70
     0
102
RTVSPost2010Prop52
140
1.0
102
RTVSPost2010PropOp52
 70
     0
102
RTVSPost2010Prop53
 90
        2
102
RTVSPost2010PropOp53
 70
     0
102
RTVSPost2010Prop54
  1
strokes_ogs.tif
102
RTVSPost2010PropOp54
 70
     0
102
RTVSPost2010Prop55
280
     0
102
RTVSPost2010PropOp55
 70
     0
102
RTVSPost2010Prop56
140
1.0
102
RTVSPost2010PropOp56
 70
     0
102
RTVSPost2010Prop57
140
1.0
102
RTVSPost2010PropOp57
 70
     0
  0
XRECORD
  5
286
102
{ACAD_REACTORS
330
285
102
}
330
285
100
AcDbXrecord
280
     1
102
RTVSPost2010Prop28
280
     0
102
RTVSPost2010PropOp28
 70
     1
102
RTVSPost2010Prop29
280
     1
102
RTVSPost2010PropOp29
 70
     1
102
RTVSPost2010Prop30
280
     1
102
RTVSPost2010PropOp30
 70
     1
102
RTVSPost2010Prop31
280
     0
102
RTVSPost2010PropOp31
 70
     1
102
RTVSPost2010Prop32
280
     0
102
RTVSPost2010PropOp32
 70
     1
102
RTVSPost2010Prop33
280
     0
102
RTVSPost2010PropOp33
 70
     1
102
RTVSPost2010Prop34
280
     0
102
RTVSPost2010PropOp34
 70
     1
102
RTVSPost2010Prop35
280
     0
102
RTVSPost2010PropOp35
 70
     1
102
RTVSPost2010Prop36
280
     0
102
RTVSPost2010PropOp36
 70
     1
102
RTVSPost2010Prop37
 90
       50
102
RTVSPost2010PropOp37
 70
     1
102
RTVSPost2010Prop38
140
0.0
102
RTVSPost2010PropOp38
 70
     1
102
RTVSPost2010Prop39
140
1.0
102
RTVSPost2010PropOp39
 70
     1
102
RTVSPost2010Prop40
 90
        0
102
RTVSPost2010PropOp40
 70
     1
102
RTVSPost2010Prop41ColorIndex
 90
       18
102
RTVSPost2010Prop41ColorRGB
 90
        0
102
RTVSPost2010PropOp41
 70
     1
102
RTVSPost2010Prop42
 90
       50
102
RTVSPost2010PropOp42
 70
     1
102
RTVSPost2010Prop43
 90
        3
102
RTVSPost2010PropOp43
 70
     1
102
RTVSPost2010Prop44ColorIndex
 90
        5
102
RTVSPost2010Prop44ColorRGB
 90
      255
102
RTVSPost2010PropOp44
 70
     1
102
RTVSPost2010Prop45
280
     0
102
RTVSPost2010PropOp45
 70
     1
102
RTVSPost2010Prop46
 90
       50
102
RTVSPost2010PropOp46
 70
     1
102
RTVSPost2010Prop47
 90
       50
102
RTVSPost2010PropOp47
 70
     1
102
RTVSPost2010Prop48
 90
       50
102
RTVSPost2010PropOp48
 70
     1
102
RTVSPost2010Prop49
280
     0
102
RTVSPost2010PropOp49
 70
     1
102
RTVSPost2010Prop50
 90
       50
102
RTVSPost2010PropOp50
 70
     1
102
RTVSPost2010Prop51ColorIndex
 90
      256
102
RTVSPost2010Prop51ColorRGB
 90
-16777216
102
RTVSPost2010PropOp51
 70
     0
102
RTVSPost2010Prop52
140
1.0
102
RTVSPost2010PropOp52
 70
     0
102
RTVSPost2010Prop53
 90
        2
102
RTVSPost2010PropOp53
 70
     1
102
RTVSPost2010Prop54
  1
strokes_ogs.tif
102
RTVSPost2010PropOp54
 70
     1
102
RTVSPost2010Prop55
280
     0
102
RTVSPost2010PropOp55
 70
     1
102
RTVSPost2010Prop56
140
1.0
102
RTVSPost2010PropOp56
 70
     1
102
RTVSPost2010Prop57
140
1.0
102
RTVSPost2010PropOp57
 70
     1
  0
XRECORD
  5
26A
102
{ACAD_REACTORS
330
269
102
}
330
269
100
AcDbXrecord
280
     1
102
RTVSPost2010Prop28
280
     0
102
RTVSPost2010PropOp28
 70
     1
102
RTVSPost2010Prop29
280
     1
102
RTVSPost2010PropOp29
 70
     1
102
RTVSPost2010Prop30
280
     1
102
RTVSPost2010PropOp30
 70
     1
102
RTVSPost2010Prop31
280
     0
102
RTVSPost2010PropOp31
 70
     1
102
RTVSPost2010Prop32
280
     0
102
RTVSPost2010PropOp32
 70
     1
102
RTVSPost2010Prop33
280
     0
102
RTVSPost2010PropOp33
 70
     1
102
RTVSPost2010Prop34
280
     0
102
RTVSPost2010PropOp34
 70
     1
102
RTVSPost2010Prop35
280
     0
102
RTVSPost2010PropOp35
 70
     1
102
RTVSPost2010Prop36
280
     0
102
RTVSPost2010PropOp36
 70
     1
102
RTVSPost2010Prop37
 90
       50
102
RTVSPost2010PropOp37
 70
     1
102
RTVSPost2010Prop38
140
0.0
102
RTVSPost2010PropOp38
 70
     1
102
RTVSPost2010Prop39
140
1.0
102
RTVSPost2010PropOp39
 70
     1
102
RTVSPost2010Prop40
 90
        0
102
RTVSPost2010PropOp40
 70
     1
102
RTVSPost2010Prop41ColorIndex
 90
       18
102
RTVSPost2010Prop41ColorRGB
 90
        0
102
RTVSPost2010PropOp41
 70
     1
102
RTVSPost2010Prop42
 90
       50
102
RTVSPost2010PropOp42
 70
     1
102
RTVSPost2010Prop43
 90
        3
102
RTVSPost2010PropOp43
 70
     1
102
RTVSPost2010Prop44ColorIndex
 90
        5
102
RTVSPost2010Prop44ColorRGB
 90
      255
102
RTVSPost2010PropOp44
 70
     1
102
RTVSPost2010Prop45
280
     0
102
RTVSPost2010PropOp45
 70
     1
102
RTVSPost2010Prop46
 90
       50
102
RTVSPost2010PropOp46
 70
     1
102
RTVSPost2010Prop47
 90
       50
102
RTVSPost2010PropOp47
 70
     1
102
RTVSPost2010Prop48
 90
       50
102
RTVSPost2010PropOp48
 70
     1
102
RTVSPost2010Prop49
280
     0
102
RTVSPost2010PropOp49
 70
     1
102
RTVSPost2010Prop50
 90
       50
102
RTVSPost2010PropOp50
 70
     1
102
RTVSPost2010Prop51ColorIndex
 90
      256
102
RTVSPost2010Prop51ColorRGB
 90
-16777216
102
RTVSPost2010PropOp51
 70
     0
102
RTVSPost2010Prop52
140
1.0
102
RTVSPost2010PropOp52
 70
     0
102
RTVSPost2010Prop53
 90
        2
102
RTVSPost2010PropOp53
 70
     1
102
RTVSPost2010Prop54
  1
strokes_ogs.tif
102
RTVSPost2010PropOp54
 70
     1
102
RTVSPost2010Prop55
280
     0
102
RTVSPost2010PropOp55
 70
     1
102
RTVSPost2010Prop56
140
1.0
102
RTVSPost2010PropOp56
 70
     1
102
RTVSPost2010Prop57
140
1.0
102
RTVSPost2010PropOp57
 70
     1
  0
XRECORD
  5
26C
102
{ACAD_REACTORS
330
26B
102
}
330
26B
100
AcDbXrecord
280
     1
102
RTVSPost2010Prop28
280
     0
102
RTVSPost2010PropOp28
 70
     1
102
RTVSPost2010Prop29
280
     1
102
RTVSPost2010PropOp29
 70
     1
102
RTVSPost2010Prop30
280
     1
102
RTVSPost2010PropOp30
 70
     1
102
RTVSPost2010Prop31
280
     0
102
RTVSPost2010PropOp31
 70
     1
102
RTVSPost2010Prop32
280
     0
102
RTVSPost2010PropOp32
 70
     1
102
RTVSPost2010Prop33
280
     0
102
RTVSPost2010PropOp33
 70
     1
102
RTVSPost2010Prop34
280
     0
102
RTVSPost2010PropOp34
 70
     1
102
RTVSPost2010Prop35
280
     0
102
RTVSPost2010PropOp35
 70
     1
102
RTVSPost2010Prop36
280
     0
102
RTVSPost2010PropOp36
 70
     1
102
RTVSPost2010Prop37
 90
       50
102
RTVSPost2010PropOp37
 70
     1
102
RTVSPost2010Prop38
140
0.0
102
RTVSPost2010PropOp38
 70
     1
102
RTVSPost2010Prop39
140
1.0
102
RTVSPost2010PropOp39
 70
     1
102
RTVSPost2010Prop40
 90
        0
102
RTVSPost2010PropOp40
 70
     1
102
RTVSPost2010Prop41ColorIndex
 90
       18
102
RTVSPost2010Prop41ColorRGB
 90
        0
102
RTVSPost2010PropOp41
 70
     1
102
RTVSPost2010Prop42
 90
       50
102
RTVSPost2010PropOp42
 70
     1
102
RTVSPost2010Prop43
 90
        3
102
RTVSPost2010PropOp43
 70
     1
102
RTVSPost2010Prop44ColorIndex
 90
        5
102
RTVSPost2010Prop44ColorRGB
 90
      255
102
RTVSPost2010PropOp44
 70
     1
102
RTVSPost2010Prop45
280
     0
102
RTVSPost2010PropOp45
 70
     1
102
RTVSPost2010Prop46
 90
       50
102
RTVSPost2010PropOp46
 70
     1
102
RTVSPost2010Prop47
 90
       50
102
RTVSPost2010PropOp47
 70
     1
102
RTVSPost2010Prop48
 90
       50
102
RTVSPost2010PropOp48
 70
     1
102
RTVSPost2010Prop49
280
     0
102
RTVSPost2010PropOp49
 70
     1
102
RTVSPost2010Prop50
 90
       50
102
RTVSPost2010PropOp50
 70
     1
102
RTVSPost2010Prop51ColorIndex
 90
      256
102
RTVSPost2010Prop51ColorRGB
 90
-16777216
102
RTVSPost2010PropOp51
 70
     0
102
RTVSPost2010Prop52
140
1.0
102
RTVSPost2010PropOp52
 70
     0
102
RTVSPost2010Prop53
 90
        2
102
RTVSPost2010PropOp53
 70
     1
102
RTVSPost2010Prop54
  1
strokes_ogs.tif
102
RTVSPost2010PropOp54
 70
     1
102
RTVSPost2010Prop55
280
     0
102
RTVSPost2010PropOp55
 70
     1
102
RTVSPost2010Prop56
140
1.0
102
RTVSPost2010PropOp56
 70
     1
102
RTVSPost2010Prop57
140
1.0
102
RTVSPost2010PropOp57
 70
     1
  0
XRECORD
  5
26E
102
{ACAD_REACTORS
330
26D
102
}
330
26D
100
AcDbXrecord
280
     1
102
RTVSPost2010Prop28
280
     0
102
RTVSPost2010PropOp28
 70
     1
102
RTVSPost2010Prop29
280
     1
102
RTVSPost2010PropOp29
 70
     1
102
RTVSPost2010Prop30
280
     1
102
RTVSPost2010PropOp30
 70
     1
102
RTVSPost2010Prop31
280
     0
102
RTVSPost2010PropOp31
 70
     1
102
RTVSPost2010Prop32
280
     0
102
RTVSPost2010PropOp32
 70
     1
102
RTVSPost2010Prop33
280
     0
102
RTVSPost2010PropOp33
 70
     1
102
RTVSPost2010Prop34
280
     0
102
RTVSPost2010PropOp34
 70
     1
102
RTVSPost2010Prop35
280
     0
102
RTVSPost2010PropOp35
 70
     1
102
RTVSPost2010Prop36
280
     0
102
RTVSPost2010PropOp36
 70
     1
102
RTVSPost2010Prop37
 90
       50
102
RTVSPost2010PropOp37
 70
     1
102
RTVSPost2010Prop38
140
0.0
102
RTVSPost2010PropOp38
 70
     1
102
RTVSPost2010Prop39
140
1.0
102
RTVSPost2010PropOp39
 70
     1
102
RTVSPost2010Prop40
 90
        0
102
RTVSPost2010PropOp40
 70
     1
102
RTVSPost2010Prop41ColorIndex
 90
       18
102
RTVSPost2010Prop41ColorRGB
 90
        0
102
RTVSPost2010PropOp41
 70
     1
102
RTVSPost2010Prop42
 90
       50
102
RTVSPost2010PropOp42
 70
     1
102
RTVSPost2010Prop43
 90
        3
102
RTVSPost2010PropOp43
 70
     1
102
RTVSPost2010Prop44ColorIndex
 90
        5
102
RTVSPost2010Prop44ColorRGB
 90
      255
102
RTVSPost2010PropOp44
 70
     1
102
RTVSPost2010Prop45
280
     0
102
RTVSPost2010PropOp45
 70
     1
102
RTVSPost2010Prop46
 90
       50
102
RTVSPost2010PropOp46
 70
     1
102
RTVSPost2010Prop47
 90
       50
102
RTVSPost2010PropOp47
 70
     1
102
RTVSPost2010Prop48
 90
       50
102
RTVSPost2010PropOp48
 70
     1
102
RTVSPost2010Prop49
280
     0
102
RTVSPost2010PropOp49
 70
     1
102
RTVSPost2010Prop50
 90
       50
102
RTVSPost2010PropOp50
 70
     1
102
RTVSPost2010Prop51ColorIndex
 90
      256
102
RTVSPost2010Prop51ColorRGB
 90
-16777216
102
RTVSPost2010PropOp51
 70
     0
102
RTVSPost2010Prop52
140
1.0
102
RTVSPost2010PropOp52
 70
     0
102
RTVSPost2010Prop53
 90
        2
102
RTVSPost2010PropOp53
 70
     1
102
RTVSPost2010Prop54
  1
strokes_ogs.tif
102
RTVSPost2010PropOp54
 70
     1
102
RTVSPost2010Prop55
280
     0
102
RTVSPost2010PropOp55
 70
     1
102
RTVSPost2010Prop56
140
1.0
102
RTVSPost2010PropOp56
 70
     1
102
RTVSPost2010Prop57
140
1.0
102
RTVSPost2010PropOp57
 70
     1
  0
XRECORD
  5
270
102
{ACAD_REACTORS
330
26F
102
}
330
26F
100
AcDbXrecord
280
     1
102
RTVSPost2010Prop28
280
     0
102
RTVSPost2010PropOp28
 70
     1
102
RTVSPost2010Prop29
280
     1
102
RTVSPost2010PropOp29
 70
     1
102
RTVSPost2010Prop30
280
     1
102
RTVSPost2010PropOp30
 70
     1
102
RTVSPost2010Prop31
280
     0
102
RTVSPost2010PropOp31
 70
     1
102
RTVSPost2010Prop32
280
     0
102
RTVSPost2010PropOp32
 70
     1
102
RTVSPost2010Prop33
280
     0
102
RTVSPost2010PropOp33
 70
     1
102
RTVSPost2010Prop34
280
     0
102
RTVSPost2010PropOp34
 70
     1
102
RTVSPost2010Prop35
280
     0
102
RTVSPost2010PropOp35
 70
     1
102
RTVSPost2010Prop36
280
     0
102
RTVSPost2010PropOp36
 70
     1
102
RTVSPost2010Prop37
 90
       50
102
RTVSPost2010PropOp37
 70
     1
102
RTVSPost2010Prop38
140
0.0
102
RTVSPost2010PropOp38
 70
     1
102
RTVSPost2010Prop39
140
1.0
102
RTVSPost2010PropOp39
 70
     1
102
RTVSPost2010Prop40
 90
        0
102
RTVSPost2010PropOp40
 70
     1
102
RTVSPost2010Prop41ColorIndex
 90
       18
102
RTVSPost2010Prop41ColorRGB
 90
        0
102
RTVSPost2010PropOp41
 70
     1
102
RTVSPost2010Prop42
 90
       50
102
RTVSPost2010PropOp42
 70
     1
102
RTVSPost2010Prop43
 90
        3
102
RTVSPost2010PropOp43
 70
     1
102
RTVSPost2010Prop44ColorIndex
 90
        5
102
RTVSPost2010Prop44ColorRGB
 90
      255
102
RTVSPost2010PropOp44
 70
     1
102
RTVSPost2010Prop45
280
     0
102
RTVSPost2010PropOp45
 70
     1
102
RTVSPost2010Prop46
 90
       50
102
RTVSPost2010PropOp46
 70
     1
102
RTVSPost2010Prop47
 90
       50
102
RTVSPost2010PropOp47
 70
     1
102
RTVSPost2010Prop48
 90
       50
102
RTVSPost2010PropOp48
 70
     1
102
RTVSPost2010Prop49
280
     0
102
RTVSPost2010PropOp49
 70
     1
102
RTVSPost2010Prop50
 90
       50
102
RTVSPost2010PropOp50
 70
     1
102
RTVSPost2010Prop51ColorIndex
 90
      256
102
RTVSPost2010Prop51ColorRGB
 90
-16777216
102
RTVSPost2010PropOp51
 70
     0
102
RTVSPost2010Prop52
140
1.0
102
RTVSPost2010PropOp52
 70
     0
102
RTVSPost2010Prop53
 90
        2
102
RTVSPost2010PropOp53
 70
     1
102
RTVSPost2010Prop54
  1
strokes_ogs.tif
102
RTVSPost2010PropOp54
 70
     1
102
RTVSPost2010Prop55
280
     0
102
RTVSPost2010PropOp55
 70
     1
102
RTVSPost2010Prop56
140
1.0
102
RTVSPost2010PropOp56
 70
     1
102
RTVSPost2010Prop57
140
1.0
102
RTVSPost2010PropOp57
 70
     1
  0
XRECORD
  5
276
102
{ACAD_REACTORS
330
275
102
}
330
275
100
AcDbXrecord
280
     1
102
RTVSPost2010Prop28
280
     0
102
RTVSPost2010PropOp28
 70
     1
102
RTVSPost2010Prop29
280
     1
102
RTVSPost2010PropOp29
 70
     1
102
RTVSPost2010Prop30
280
     1
102
RTVSPost2010PropOp30
 70
     1
102
RTVSPost2010Prop31
280
     0
102
RTVSPost2010PropOp31
 70
     1
102
RTVSPost2010Prop32
280
     0
102
RTVSPost2010PropOp32
 70
     1
102
RTVSPost2010Prop33
280
     0
102
RTVSPost2010PropOp33
 70
     1
102
RTVSPost2010Prop34
280
     0
102
RTVSPost2010PropOp34
 70
     1
102
RTVSPost2010Prop35
280
     0
102
RTVSPost2010PropOp35
 70
     1
102
RTVSPost2010Prop36
280
     0
102
RTVSPost2010PropOp36
 70
     1
102
RTVSPost2010Prop37
 90
       50
102
RTVSPost2010PropOp37
 70
     1
102
RTVSPost2010Prop38
140
0.0
102
RTVSPost2010PropOp38
 70
     1
102
RTVSPost2010Prop39
140
1.0
102
RTVSPost2010PropOp39
 70
     1
102
RTVSPost2010Prop40
 90
        0
102
RTVSPost2010PropOp40
 70
     1
102
RTVSPost2010Prop41ColorIndex
 90
       18
102
RTVSPost2010Prop41ColorRGB
 90
        0
102
RTVSPost2010PropOp41
 70
     1
102
RTVSPost2010Prop42
 90
       50
102
RTVSPost2010PropOp42
 70
     1
102
RTVSPost2010Prop43
 90
        3
102
RTVSPost2010PropOp43
 70
     1
102
RTVSPost2010Prop44ColorIndex
 90
        5
102
RTVSPost2010Prop44ColorRGB
 90
      255
102
RTVSPost2010PropOp44
 70
     1
102
RTVSPost2010Prop45
280
     0
102
RTVSPost2010PropOp45
 70
     1
102
RTVSPost2010Prop46
 90
       50
102
RTVSPost2010PropOp46
 70
     1
102
RTVSPost2010Prop47
 90
       50
102
RTVSPost2010PropOp47
 70
     1
102
RTVSPost2010Prop48
 90
       50
102
RTVSPost2010PropOp48
 70
     1
102
RTVSPost2010Prop49
280
     0
102
RTVSPost2010PropOp49
 70
     1
102
RTVSPost2010Prop50
 90
       50
102
RTVSPost2010PropOp50
 70
     1
102
RTVSPost2010Prop51ColorIndex
 90
      256
102
RTVSPost2010Prop51ColorRGB
 90
-16777216
102
RTVSPost2010PropOp51
 70
     0
102
RTVSPost2010Prop52
140
1.0
102
RTVSPost2010PropOp52
 70
     0
102
RTVSPost2010Prop53
 90
        2
102
RTVSPost2010PropOp53
 70
     1
102
RTVSPost2010Prop54
  1
strokes_ogs.tif
102
RTVSPost2010PropOp54
 70
     1
102
RTVSPost2010Prop55
280
     0
102
RTVSPost2010PropOp55
 70
     1
102
RTVSPost2010Prop56
140
1.0
102
RTVSPost2010PropOp56
 70
     1
102
RTVSPost2010Prop57
140
1.0
102
RTVSPost2010PropOp57
 70
     1
  0
XRECORD
  5
28A
102
{ACAD_REACTORS
330
289
102
}
330
289
100
AcDbXrecord
280
     1
102
RTVSPost2010Prop28
280
     0
102
RTVSPost2010PropOp28
 70
     0
102
RTVSPost2010Prop29
280
     1
102
RTVSPost2010PropOp29
 70
     0
102
RTVSPost2010Prop30
280
     1
102
RTVSPost2010PropOp30
 70
     0
102
RTVSPost2010Prop31
280
     0
102
RTVSPost2010PropOp31
 70
     0
102
RTVSPost2010Prop32
280
     0
102
RTVSPost2010PropOp32
 70
     0
102
RTVSPost2010Prop33
280
     0
102
RTVSPost2010PropOp33
 70
     0
102
RTVSPost2010Prop34
280
     0
102
RTVSPost2010PropOp34
 70
     0
102
RTVSPost2010Prop35
280
     0
102
RTVSPost2010PropOp35
 70
     0
102
RTVSPost2010Prop36
280
     0
102
RTVSPost2010PropOp36
 70
     0
102
RTVSPost2010Prop37
 90
       50
102
RTVSPost2010PropOp37
 70
     0
102
RTVSPost2010Prop38
140
0.0
102
RTVSPost2010PropOp38
 70
     0
102
RTVSPost2010Prop39
140
1.0
102
RTVSPost2010PropOp39
 70
     0
102
RTVSPost2010Prop40
 90
        0
102
RTVSPost2010PropOp40
 70
     0
102
RTVSPost2010Prop41ColorIndex
 90
       18
102
RTVSPost2010Prop41ColorRGB
 90
        0
102
RTVSPost2010PropOp41
 70
     0
102
RTVSPost2010Prop42
 90
       50
102
RTVSPost2010PropOp42
 70
     0
102
RTVSPost2010Prop43
 90
        3
102
RTVSPost2010PropOp43
 70
     0
102
RTVSPost2010Prop44ColorIndex
 90
        5
102
RTVSPost2010Prop44ColorRGB
 90
      255
102
RTVSPost2010PropOp44
 70
     0
102
RTVSPost2010Prop45
280
     0
102
RTVSPost2010PropOp45
 70
     0
102
RTVSPost2010Prop46
 90
       50
102
RTVSPost2010PropOp46
 70
     0
102
RTVSPost2010Prop47
 90
       50
102
RTVSPost2010PropOp47
 70
     0
102
RTVSPost2010Prop48
 90
       50
102
RTVSPost2010PropOp48
 70
     0
102
RTVSPost2010Prop49
280
     0
102
RTVSPost2010PropOp49
 70
     0
102
RTVSPost2010Prop50
 90
       50
102
RTVSPost2010PropOp50
 70
     0
102
RTVSPost2010Prop51ColorIndex
 90
      256
102
RTVSPost2010Prop51ColorRGB
 90
-16777216
102
RTVSPost2010PropOp51
 70
     0
102
RTVSPost2010Prop52
140
1.0
102
RTVSPost2010PropOp52
 70
     0
102
RTVSPost2010Prop53
 90
        2
102
RTVSPost2010PropOp53
 70
     0
102
RTVSPost2010Prop54
  1
strokes_ogs.tif
102
RTVSPost2010PropOp54
 70
     0
102
RTVSPost2010Prop55
280
     0
102
RTVSPost2010PropOp55
 70
     0
102
RTVSPost2010Prop56
140
1.0
102
RTVSPost2010PropOp56
 70
     0
102
RTVSPost2010Prop57
140
1.0
102
RTVSPost2010PropOp57
 70
     0
  0
XRECORD
  5
284
102
{ACAD_REACTORS
330
283
102
}
330
283
100
AcDbXrecord
280
     1
102
RTVSPost2010Prop28
280
     0
102
RTVSPost2010PropOp28
 70
     1
102
RTVSPost2010Prop29
280
     1
102
RTVSPost2010PropOp29
 70
     1
102
RTVSPost2010Prop30
280
     1
102
RTVSPost2010PropOp30
 70
     1
102
RTVSPost2010Prop31
280
     0
102
RTVSPost2010PropOp31
 70
     1
102
RTVSPost2010Prop32
280
     0
102
RTVSPost2010PropOp32
 70
     1
102
RTVSPost2010Prop33
280
     0
102
RTVSPost2010PropOp33
 70
     1
102
RTVSPost2010Prop34
280
     0
102
RTVSPost2010PropOp34
 70
     1
102
RTVSPost2010Prop35
280
     0
102
RTVSPost2010PropOp35
 70
     1
102
RTVSPost2010Prop36
280
     0
102
RTVSPost2010PropOp36
 70
     1
102
RTVSPost2010Prop37
 90
       50
102
RTVSPost2010PropOp37
 70
     1
102
RTVSPost2010Prop38
140
0.0
102
RTVSPost2010PropOp38
 70
     1
102
RTVSPost2010Prop39
140
1.0
102
RTVSPost2010PropOp39
 70
     1
102
RTVSPost2010Prop40
 90
        0
102
RTVSPost2010PropOp40
 70
     1
102
RTVSPost2010Prop41ColorIndex
 90
       18
102
RTVSPost2010Prop41ColorRGB
 90
        0
102
RTVSPost2010PropOp41
 70
     1
102
RTVSPost2010Prop42
 90
       50
102
RTVSPost2010PropOp42
 70
     1
102
RTVSPost2010Prop43
 90
        3
102
RTVSPost2010PropOp43
 70
     1
102
RTVSPost2010Prop44ColorIndex
 90
        5
102
RTVSPost2010Prop44ColorRGB
 90
      255
102
RTVSPost2010PropOp44
 70
     1
102
RTVSPost2010Prop45
280
     0
102
RTVSPost2010PropOp45
 70
     1
102
RTVSPost2010Prop46
 90
       50
102
RTVSPost2010PropOp46
 70
     1
102
RTVSPost2010Prop47
 90
       50
102
RTVSPost2010PropOp47
 70
     1
102
RTVSPost2010Prop48
 90
       50
102
RTVSPost2010PropOp48
 70
     1
102
RTVSPost2010Prop49
280
     0
102
RTVSPost2010PropOp49
 70
     1
102
RTVSPost2010Prop50
 90
       50
102
RTVSPost2010PropOp50
 70
     1
102
RTVSPost2010Prop51ColorIndex
 90
      256
102
RTVSPost2010Prop51ColorRGB
 90
-16777216
102
RTVSPost2010PropOp51
 70
     0
102
RTVSPost2010Prop52
140
1.0
102
RTVSPost2010PropOp52
 70
     0
102
RTVSPost2010Prop53
 90
        2
102
RTVSPost2010PropOp53
 70
     1
102
RTVSPost2010Prop54
  1
strokes_ogs.tif
102
RTVSPost2010PropOp54
 70
     1
102
RTVSPost2010Prop55
280
     0
102
RTVSPost2010PropOp55
 70
     1
102
RTVSPost2010Prop56
140
1.0
102
RTVSPost2010PropOp56
 70
     1
102
RTVSPost2010Prop57
140
1.0
102
RTVSPost2010PropOp57
 70
     1
  0
XRECORD
  5
28C
102
{ACAD_REACTORS
330
28B
102
}
330
28B
100
AcDbXrecord
280
     1
102
RTVSPost2010Prop28
280
     0
102
RTVSPost2010PropOp28
 70
     0
102
RTVSPost2010Prop29
280
     1
102
RTVSPost2010PropOp29
 70
     0
102
RTVSPost2010Prop30
280
     1
102
RTVSPost2010PropOp30
 70
     0
102
RTVSPost2010Prop31
280
     0
102
RTVSPost2010PropOp31
 70
     0
102
RTVSPost2010Prop32
280
     0
102
RTVSPost2010PropOp32
 70
     0
102
RTVSPost2010Prop33
280
     0
102
RTVSPost2010PropOp33
 70
     0
102
RTVSPost2010Prop34
280
     0
102
RTVSPost2010PropOp34
 70
     0
102
RTVSPost2010Prop35
280
     0
102
RTVSPost2010PropOp35
 70
     0
102
RTVSPost2010Prop36
280
     0
102
RTVSPost2010PropOp36
 70
     0
102
RTVSPost2010Prop37
 90
       50
102
RTVSPost2010PropOp37
 70
     0
102
RTVSPost2010Prop38
140
0.0
102
RTVSPost2010PropOp38
 70
     0
102
RTVSPost2010Prop39
140
1.0
102
RTVSPost2010PropOp39
 70
     0
102
RTVSPost2010Prop40
 90
        0
102
RTVSPost2010PropOp40
 70
     0
102
RTVSPost2010Prop41ColorIndex
 90
       18
102
RTVSPost2010Prop41ColorRGB
 90
        0
102
RTVSPost2010PropOp41
 70
     0
102
RTVSPost2010Prop42
 90
       50
102
RTVSPost2010PropOp42
 70
     0
102
RTVSPost2010Prop43
 90
        3
102
RTVSPost2010PropOp43
 70
     0
102
RTVSPost2010Prop44ColorIndex
 90
        5
102
RTVSPost2010Prop44ColorRGB
 90
      255
102
RTVSPost2010PropOp44
 70
     0
102
RTVSPost2010Prop45
280
     0
102
RTVSPost2010PropOp45
 70
     0
102
RTVSPost2010Prop46
 90
       50
102
RTVSPost2010PropOp46
 70
     0
102
RTVSPost2010Prop47
 90
       50
102
RTVSPost2010PropOp47
 70
     0
102
RTVSPost2010Prop48
 90
       50
102
RTVSPost2010PropOp48
 70
     0
102
RTVSPost2010Prop49
280
     0
102
RTVSPost2010PropOp49
 70
     0
102
RTVSPost2010Prop50
 90
       50
102
RTVSPost2010PropOp50
 70
     0
102
RTVSPost2010Prop51ColorIndex
 90
      256
102
RTVSPost2010Prop51ColorRGB
 90
-16777216
102
RTVSPost2010PropOp51
 70
     0
102
RTVSPost2010Prop52
140
1.0
102
RTVSPost2010PropOp52
 70
     0
102
RTVSPost2010Prop53
 90
        2
102
RTVSPost2010PropOp53
 70
     0
102
RTVSPost2010Prop54
  1
strokes_ogs.tif
102
RTVSPost2010PropOp54
 70
     0
102
RTVSPost2010Prop55
280
     0
102
RTVSPost2010PropOp55
 70
     0
102
RTVSPost2010Prop56
140
1.0
102
RTVSPost2010PropOp56
 70
     0
102
RTVSPost2010Prop57
140
1.0
102
RTVSPost2010PropOp57
 70
     0
  0
XRECORD
  5
27A
102
{ACAD_REACTORS
330
279
102
}
330
279
100
AcDbXrecord
280
     1
102
RTVSPost2010Prop28
280
     0
102
RTVSPost2010PropOp28
 70
     1
102
RTVSPost2010Prop29
280
     1
102
RTVSPost2010PropOp29
 70
     1
102
RTVSPost2010Prop30
280
     1
102
RTVSPost2010PropOp30
 70
     1
102
RTVSPost2010Prop31
280
     0
102
RTVSPost2010PropOp31
 70
     1
102
RTVSPost2010Prop32
280
     0
102
RTVSPost2010PropOp32
 70
     1
102
RTVSPost2010Prop33
280
     0
102
RTVSPost2010PropOp33
 70
     1
102
RTVSPost2010Prop34
280
     0
102
RTVSPost2010PropOp34
 70
     1
102
RTVSPost2010Prop35
280
     0
102
RTVSPost2010PropOp35
 70
     1
102
RTVSPost2010Prop36
280
     0
102
RTVSPost2010PropOp36
 70
     1
102
RTVSPost2010Prop37
 90
       50
102
RTVSPost2010PropOp37
 70
     1
102
RTVSPost2010Prop38
140
0.0
102
RTVSPost2010PropOp38
 70
     1
102
RTVSPost2010Prop39
140
1.0
102
RTVSPost2010PropOp39
 70
     1
102
RTVSPost2010Prop40
 90
        0
102
RTVSPost2010PropOp40
 70
     1
102
RTVSPost2010Prop41ColorIndex
 90
       18
102
RTVSPost2010Prop41ColorRGB
 90
        0
102
RTVSPost2010PropOp41
 70
     1
102
RTVSPost2010Prop42
 90
       50
102
RTVSPost2010PropOp42
 70
     1
102
RTVSPost2010Prop43
 90
        3
102
RTVSPost2010PropOp43
 70
     1
102
RTVSPost2010Prop44ColorIndex
 90
        5
102
RTVSPost2010Prop44ColorRGB
 90
      255
102
RTVSPost2010PropOp44
 70
     1
102
RTVSPost2010Prop45
280
     0
102
RTVSPost2010PropOp45
 70
     1
102
RTVSPost2010Prop46
 90
       50
102
RTVSPost2010PropOp46
 70
     1
102
RTVSPost2010Prop47
 90
       50
102
RTVSPost2010PropOp47
 70
     1
102
RTVSPost2010Prop48
 90
       50
102
RTVSPost2010PropOp48
 70
     1
102
RTVSPost2010Prop49
280
     0
102
RTVSPost2010PropOp49
 70
     1
102
RTVSPost2010Prop50
 90
       50
102
RTVSPost2010PropOp50
 70
     1
102
RTVSPost2010Prop51ColorIndex
 90
      256
102
RTVSPost2010Prop51ColorRGB
 90
-16777216
102
RTVSPost2010PropOp51
 70
     0
102
RTVSPost2010Prop52
140
1.0
102
RTVSPost2010PropOp52
 70
     0
102
RTVSPost2010Prop53
 90
        2
102
RTVSPost2010PropOp53
 70
     1
102
RTVSPost2010Prop54
  1
strokes_ogs.tif
102
RTVSPost2010PropOp54
 70
     1
102
RTVSPost2010Prop55
280
     0
102
RTVSPost2010PropOp55
 70
     1
102
RTVSPost2010Prop56
140
1.0
102
RTVSPost2010PropOp56
 70
     1
102
RTVSPost2010Prop57
140
1.0
102
RTVSPost2010PropOp57
 70
     1
  0
XRECORD
  5
298
102
{ACAD_REACTORS
330
297
102
}
330
297
100
AcDbXrecord
280
     1
102
RTVSPost2010Prop28
280
     0
102
RTVSPost2010PropOp28
 70
     1
102
RTVSPost2010Prop29
280
     1
102
RTVSPost2010PropOp29
 70
     1
102
RTVSPost2010Prop30
280
     1
102
RTVSPost2010PropOp30
 70
     1
102
RTVSPost2010Prop31
280
     0
102
RTVSPost2010PropOp31
 70
     1
102
RTVSPost2010Prop32
280
     0
102
RTVSPost2010PropOp32
 70
     1
102
RTVSPost2010Prop33
280
     0
102
RTVSPost2010PropOp33
 70
     1
102
RTVSPost2010Prop34
280
     0
102
RTVSPost2010PropOp34
 70
     1
102
RTVSPost2010Prop35
280
     0
102
RTVSPost2010PropOp35
 70
     1
102
RTVSPost2010Prop36
280
     0
102
RTVSPost2010PropOp36
 70
     1
102
RTVSPost2010Prop37
 90
       50
102
RTVSPost2010PropOp37
 70
     1
102
RTVSPost2010Prop38
140
0.0
102
RTVSPost2010PropOp38
 70
     1
102
RTVSPost2010Prop39
140
1.0
102
RTVSPost2010PropOp39
 70
     1
102
RTVSPost2010Prop40
 90
        0
102
RTVSPost2010PropOp40
 70
     1
102
RTVSPost2010Prop41ColorIndex
 90
       18
102
RTVSPost2010Prop41ColorRGB
 90
        0
102
RTVSPost2010PropOp41
 70
     1
102
RTVSPost2010Prop42
 90
       50
102
RTVSPost2010PropOp42
 70
     1
102
RTVSPost2010Prop43
 90
        3
102
RTVSPost2010PropOp43
 70
     1
102
RTVSPost2010Prop44ColorIndex
 90
        5
102
RTVSPost2010Prop44ColorRGB
 90
      255
102
RTVSPost2010PropOp44
 70
     1
102
RTVSPost2010Prop45
280
     0
102
RTVSPost2010PropOp45
 70
     1
102
RTVSPost2010Prop46
 90
       50
102
RTVSPost2010PropOp46
 70
     1
102
RTVSPost2010Prop47
 90
       50
102
RTVSPost2010PropOp47
 70
     1
102
RTVSPost2010Prop48
 90
       50
102
RTVSPost2010PropOp48
 70
     1
102
RTVSPost2010Prop49
280
     0
102
RTVSPost2010PropOp49
 70
     1
102
RTVSPost2010Prop50
 90
       50
102
RTVSPost2010PropOp50
 70
     1
102
RTVSPost2010Prop51ColorIndex
 90
      256
102
RTVSPost2010Prop51ColorRGB
 90
-16777216
102
RTVSPost2010PropOp51
 70
     0
102
RTVSPost2010Prop52
140
1.0
102
RTVSPost2010PropOp52
 70
     0
102
RTVSPost2010Prop53
 90
        2
102
RTVSPost2010PropOp53
 70
     1
102
RTVSPost2010Prop54
  1
strokes_ogs.tif
102
RTVSPost2010PropOp54
 70
     1
102
RTVSPost2010Prop55
280
     0
102
RTVSPost2010PropOp55
 70
     1
102
RTVSPost2010Prop56
140
1.0
102
RTVSPost2010PropOp56
 70
     1
102
RTVSPost2010Prop57
140
1.0
102
RTVSPost2010PropOp57
 70
     1
  0
XRECORD
  5
296
102
{ACAD_REACTORS
330
295
102
}
330
295
100
AcDbXrecord
280
     1
102
RTVSPost2010Prop28
280
     0
102
RTVSPost2010PropOp28
 70
     1
102
RTVSPost2010Prop29
280
     1
102
RTVSPost2010PropOp29
 70
     1
102
RTVSPost2010Prop30
280
     1
102
RTVSPost2010PropOp30
 70
     1
102
RTVSPost2010Prop31
280
     0
102
RTVSPost2010PropOp31
 70
     1
102
RTVSPost2010Prop32
280
     0
102
RTVSPost2010PropOp32
 70
     1
102
RTVSPost2010Prop33
280
     0
102
RTVSPost2010PropOp33
 70
     1
102
RTVSPost2010Prop34
280
     0
102
RTVSPost2010PropOp34
 70
     1
102
RTVSPost2010Prop35
280
     0
102
RTVSPost2010PropOp35
 70
     1
102
RTVSPost2010Prop36
280
     0
102
RTVSPost2010PropOp36
 70
     1
102
RTVSPost2010Prop37
 90
       50
102
RTVSPost2010PropOp37
 70
     1
102
RTVSPost2010Prop38
140
0.0
102
RTVSPost2010PropOp38
 70
     1
102
RTVSPost2010Prop39
140
1.0
102
RTVSPost2010PropOp39
 70
     1
102
RTVSPost2010Prop40
 90
        0
102
RTVSPost2010PropOp40
 70
     1
102
RTVSPost2010Prop41ColorIndex
 90
       18
102
RTVSPost2010Prop41ColorRGB
 90
        0
102
RTVSPost2010PropOp41
 70
     1
102
RTVSPost2010Prop42
 90
       50
102
RTVSPost2010PropOp42
 70
     1
102
RTVSPost2010Prop43
 90
        3
102
RTVSPost2010PropOp43
 70
     1
102
RTVSPost2010Prop44ColorIndex
 90
        5
102
RTVSPost2010Prop44ColorRGB
 90
      255
102
RTVSPost2010PropOp44
 70
     1
102
RTVSPost2010Prop45
280
     0
102
RTVSPost2010PropOp45
 70
     1
102
RTVSPost2010Prop46
 90
       50
102
RTVSPost2010PropOp46
 70
     1
102
RTVSPost2010Prop47
 90
       50
102
RTVSPost2010PropOp47
 70
     1
102
RTVSPost2010Prop48
 90
       50
102
RTVSPost2010PropOp48
 70
     1
102
RTVSPost2010Prop49
280
     0
102
RTVSPost2010PropOp49
 70
     1
102
RTVSPost2010Prop50
 90
       50
102
RTVSPost2010PropOp50
 70
     1
102
RTVSPost2010Prop51ColorIndex
 90
      256
102
RTVSPost2010Prop51ColorRGB
 90
-16777216
102
RTVSPost2010PropOp51
 70
     0
102
RTVSPost2010Prop52
140
1.0
102
RTVSPost2010PropOp52
 70
     0
102
RTVSPost2010Prop53
 90
        2
102
RTVSPost2010PropOp53
 70
     1
102
RTVSPost2010Prop54
  1
strokes_ogs.tif
102
RTVSPost2010PropOp54
 70
     1
102
RTVSPost2010Prop55
280
     0
102
RTVSPost2010PropOp55
 70
     1
102
RTVSPost2010Prop56
140
1.0
102
RTVSPost2010PropOp56
 70
     1
102
RTVSPost2010Prop57
140
1.0
102
RTVSPost2010PropOp57
 70
     1
  0
XRECORD
  5
290
102
{ACAD_REACTORS
330
28F
102
}
330
28F
100
AcDbXrecord
280
     1
102
RTVSPost2010Prop28
280
     0
102
RTVSPost2010PropOp28
 70
     1
102
RTVSPost2010Prop29
280
     1
102
RTVSPost2010PropOp29
 70
     1
102
RTVSPost2010Prop30
280
     1
102
RTVSPost2010PropOp30
 70
     1
102
RTVSPost2010Prop31
280
     0
102
RTVSPost2010PropOp31
 70
     1
102
RTVSPost2010Prop32
280
     0
102
RTVSPost2010PropOp32
 70
     1
102
RTVSPost2010Prop33
280
     0
102
RTVSPost2010PropOp33
 70
     1
102
RTVSPost2010Prop34
280
     0
102
RTVSPost2010PropOp34
 70
     1
102
RTVSPost2010Prop35
280
     0
102
RTVSPost2010PropOp35
 70
     1
102
RTVSPost2010Prop36
280
     0
102
RTVSPost2010PropOp36
 70
     1
102
RTVSPost2010Prop37
 90
       50
102
RTVSPost2010PropOp37
 70
     1
102
RTVSPost2010Prop38
140
0.0
102
RTVSPost2010PropOp38
 70
     1
102
RTVSPost2010Prop39
140
1.0
102
RTVSPost2010PropOp39
 70
     1
102
RTVSPost2010Prop40
 90
        0
102
RTVSPost2010PropOp40
 70
     1
102
RTVSPost2010Prop41ColorIndex
 90
       18
102
RTVSPost2010Prop41ColorRGB
 90
        0
102
RTVSPost2010PropOp41
 70
     1
102
RTVSPost2010Prop42
 90
       50
102
RTVSPost2010PropOp42
 70
     1
102
RTVSPost2010Prop43
 90
        3
102
RTVSPost2010PropOp43
 70
     1
102
RTVSPost2010Prop44ColorIndex
 90
        5
102
RTVSPost2010Prop44ColorRGB
 90
      255
102
RTVSPost2010PropOp44
 70
     1
102
RTVSPost2010Prop45
280
     0
102
RTVSPost2010PropOp45
 70
     1
102
RTVSPost2010Prop46
 90
       50
102
RTVSPost2010PropOp46
 70
     1
102
RTVSPost2010Prop47
 90
       50
102
RTVSPost2010PropOp47
 70
     1
102
RTVSPost2010Prop48
 90
       50
102
RTVSPost2010PropOp48
 70
     1
102
RTVSPost2010Prop49
280
     0
102
RTVSPost2010PropOp49
 70
     1
102
RTVSPost2010Prop50
 90
       50
102
RTVSPost2010PropOp50
 70
     1
102
RTVSPost2010Prop51ColorIndex
 90
      256
102
RTVSPost2010Prop51ColorRGB
 90
-16777216
102
RTVSPost2010PropOp51
 70
     0
102
RTVSPost2010Prop52
140
1.0
102
RTVSPost2010PropOp52
 70
     0
102
RTVSPost2010Prop53
 90
        2
102
RTVSPost2010PropOp53
 70
     1
102
RTVSPost2010Prop54
  1
strokes_ogs.tif
102
RTVSPost2010PropOp54
 70
     1
102
RTVSPost2010Prop55
280
     0
102
RTVSPost2010PropOp55
 70
     1
102
RTVSPost2010Prop56
140
1.0
102
RTVSPost2010PropOp56
 70
     1
102
RTVSPost2010Prop57
140
1.0
102
RTVSPost2010PropOp57
 70
     1
  0
XRECORD
  5
292
102
{ACAD_REACTORS
330
291
102
}
330
291
100
AcDbXrecord
280
     1
102
RTVSPost2010Prop28
280
     0
102
RTVSPost2010PropOp28
 70
     1
102
RTVSPost2010Prop29
280
     1
102
RTVSPost2010PropOp29
 70
     1
102
RTVSPost2010Prop30
280
     1
102
RTVSPost2010PropOp30
 70
     1
102
RTVSPost2010Prop31
280
     0
102
RTVSPost2010PropOp31
 70
     1
102
RTVSPost2010Prop32
280
     0
102
RTVSPost2010PropOp32
 70
     1
102
RTVSPost2010Prop33
280
     0
102
RTVSPost2010PropOp33
 70
     1
102
RTVSPost2010Prop34
280
     0
102
RTVSPost2010PropOp34
 70
     1
102
RTVSPost2010Prop35
280
     0
102
RTVSPost2010PropOp35
 70
     1
102
RTVSPost2010Prop36
280
     0
102
RTVSPost2010PropOp36
 70
     1
102
RTVSPost2010Prop37
 90
       50
102
RTVSPost2010PropOp37
 70
     1
102
RTVSPost2010Prop38
140
0.0
102
RTVSPost2010PropOp38
 70
     1
102
RTVSPost2010Prop39
140
1.0
102
RTVSPost2010PropOp39
 70
     1
102
RTVSPost2010Prop40
 90
        0
102
RTVSPost2010PropOp40
 70
     1
102
RTVSPost2010Prop41ColorIndex
 90
       18
102
RTVSPost2010Prop41ColorRGB
 90
        0
102
RTVSPost2010PropOp41
 70
     1
102
RTVSPost2010Prop42
 90
       50
102
RTVSPost2010PropOp42
 70
     1
102
RTVSPost2010Prop43
 90
        3
102
RTVSPost2010PropOp43
 70
     1
102
RTVSPost2010Prop44ColorIndex
 90
        5
102
RTVSPost2010Prop44ColorRGB
 90
      255
102
RTVSPost2010PropOp44
 70
     1
102
RTVSPost2010Prop45
280
     0
102
RTVSPost2010PropOp45
 70
     1
102
RTVSPost2010Prop46
 90
       50
102
RTVSPost2010PropOp46
 70
     1
102
RTVSPost2010Prop47
 90
       50
102
RTVSPost2010PropOp47
 70
     1
102
RTVSPost2010Prop48
 90
       50
102
RTVSPost2010PropOp48
 70
     1
102
RTVSPost2010Prop49
280
     0
102
RTVSPost2010PropOp49
 70
     1
102
RTVSPost2010Prop50
 90
       50
102
RTVSPost2010PropOp50
 70
     1
102
RTVSPost2010Prop51ColorIndex
 90
      256
102
RTVSPost2010Prop51ColorRGB
 90
-16777216
102
RTVSPost2010PropOp51
 70
     0
102
RTVSPost2010Prop52
140
1.0
102
RTVSPost2010PropOp52
 70
     0
102
RTVSPost2010Prop53
 90
        2
102
RTVSPost2010PropOp53
 70
     1
102
RTVSPost2010Prop54
  1
strokes_ogs.tif
102
RTVSPost2010PropOp54
 70
     1
102
RTVSPost2010Prop55
280
     0
102
RTVSPost2010PropOp55
 70
     1
102
RTVSPost2010Prop56
140
1.0
102
RTVSPost2010PropOp56
 70
     1
102
RTVSPost2010Prop57
140
1.0
102
RTVSPost2010PropOp57
 70
     1
  0
XRECORD
  5
282
102
{ACAD_REACTORS
330
281
102
}
330
281
100
AcDbXrecord
280
     1
102
RTVSPost2010Prop28
280
     0
102
RTVSPost2010PropOp28
 70
     1
102
RTVSPost2010Prop29
280
     1
102
RTVSPost2010PropOp29
 70
     1
102
RTVSPost2010Prop30
280
     1
102
RTVSPost2010PropOp30
 70
     1
102
RTVSPost2010Prop31
280
     0
102
RTVSPost2010PropOp31
 70
     1
102
RTVSPost2010Prop32
280
     0
102
RTVSPost2010PropOp32
 70
     1
102
RTVSPost2010Prop33
280
     0
102
RTVSPost2010PropOp33
 70
     1
102
RTVSPost2010Prop34
280
     0
102
RTVSPost2010PropOp34
 70
     1
102
RTVSPost2010Prop35
280
     0
102
RTVSPost2010PropOp35
 70
     1
102
RTVSPost2010Prop36
280
     0
102
RTVSPost2010PropOp36
 70
     1
102
RTVSPost2010Prop37
 90
       50
102
RTVSPost2010PropOp37
 70
     1
102
RTVSPost2010Prop38
140
0.0
102
RTVSPost2010PropOp38
 70
     1
102
RTVSPost2010Prop39
140
1.0
102
RTVSPost2010PropOp39
 70
     1
102
RTVSPost2010Prop40
 90
        0
102
RTVSPost2010PropOp40
 70
     1
102
RTVSPost2010Prop41ColorIndex
 90
       18
102
RTVSPost2010Prop41ColorRGB
 90
        0
102
RTVSPost2010PropOp41
 70
     1
102
RTVSPost2010Prop42
 90
       50
102
RTVSPost2010PropOp42
 70
     1
102
RTVSPost2010Prop43
 90
        3
102
RTVSPost2010PropOp43
 70
     1
102
RTVSPost2010Prop44ColorIndex
 90
        5
102
RTVSPost2010Prop44ColorRGB
 90
      255
102
RTVSPost2010PropOp44
 70
     1
102
RTVSPost2010Prop45
280
     0
102
RTVSPost2010PropOp45
 70
     1
102
RTVSPost2010Prop46
 90
       50
102
RTVSPost2010PropOp46
 70
     1
102
RTVSPost2010Prop47
 90
       50
102
RTVSPost2010PropOp47
 70
     1
102
RTVSPost2010Prop48
 90
       50
102
RTVSPost2010PropOp48
 70
     1
102
RTVSPost2010Prop49
280
     0
102
RTVSPost2010PropOp49
 70
     1
102
RTVSPost2010Prop50
 90
       50
102
RTVSPost2010PropOp50
 70
     1
102
RTVSPost2010Prop51ColorIndex
 90
      256
102
RTVSPost2010Prop51ColorRGB
 90
-16777216
102
RTVSPost2010PropOp51
 70
     0
102
RTVSPost2010Prop52
140
1.0
102
RTVSPost2010PropOp52
 70
     0
102
RTVSPost2010Prop53
 90
        2
102
RTVSPost2010PropOp53
 70
     1
102
RTVSPost2010Prop54
  1
strokes_ogs.tif
102
RTVSPost2010PropOp54
 70
     1
102
RTVSPost2010Prop55
280
     0
102
RTVSPost2010PropOp55
 70
     1
102
RTVSPost2010Prop56
140
1.0
102
RTVSPost2010PropOp56
 70
     1
102
RTVSPost2010Prop57
140
1.0
102
RTVSPost2010PropOp57
 70
     1
  0
XRECORD
  5
274
102
{ACAD_REACTORS
330
273
102
}
330
273
100
AcDbXrecord
280
     1
102
RTVSPost2010Prop28
280
     0
102
RTVSPost2010PropOp28
 70
     1
102
RTVSPost2010Prop29
280
     1
102
RTVSPost2010PropOp29
 70
     1
102
RTVSPost2010Prop30
280
     1
102
RTVSPost2010PropOp30
 70
     1
102
RTVSPost2010Prop31
280
     0
102
RTVSPost2010PropOp31
 70
     1
102
RTVSPost2010Prop32
280
     0
102
RTVSPost2010PropOp32
 70
     1
102
RTVSPost2010Prop33
280
     0
102
RTVSPost2010PropOp33
 70
     1
102
RTVSPost2010Prop34
280
     0
102
RTVSPost2010PropOp34
 70
     1
102
RTVSPost2010Prop35
280
     0
102
RTVSPost2010PropOp35
 70
     1
102
RTVSPost2010Prop36
280
     0
102
RTVSPost2010PropOp36
 70
     1
102
RTVSPost2010Prop37
 90
       50
102
RTVSPost2010PropOp37
 70
     1
102
RTVSPost2010Prop38
140
0.0
102
RTVSPost2010PropOp38
 70
     1
102
RTVSPost2010Prop39
140
1.0
102
RTVSPost2010PropOp39
 70
     1
102
RTVSPost2010Prop40
 90
        0
102
RTVSPost2010PropOp40
 70
     1
102
RTVSPost2010Prop41ColorIndex
 90
       18
102
RTVSPost2010Prop41ColorRGB
 90
        0
102
RTVSPost2010PropOp41
 70
     1
102
RTVSPost2010Prop42
 90
       50
102
RTVSPost2010PropOp42
 70
     1
102
RTVSPost2010Prop43
 90
        3
102
RTVSPost2010PropOp43
 70
     1
102
RTVSPost2010Prop44ColorIndex
 90
        5
102
RTVSPost2010Prop44ColorRGB
 90
      255
102
RTVSPost2010PropOp44
 70
     1
102
RTVSPost2010Prop45
280
     0
102
RTVSPost2010PropOp45
 70
     1
102
RTVSPost2010Prop46
 90
       50
102
RTVSPost2010PropOp46
 70
     1
102
RTVSPost2010Prop47
 90
       50
102
RTVSPost2010PropOp47
 70
     1
102
RTVSPost2010Prop48
 90
       50
102
RTVSPost2010PropOp48
 70
     1
102
RTVSPost2010Prop49
280
     0
102
RTVSPost2010PropOp49
 70
     1
102
RTVSPost2010Prop50
 90
       50
102
RTVSPost2010PropOp50
 70
     1
102
RTVSPost2010Prop51ColorIndex
 90
      256
102
RTVSPost2010Prop51ColorRGB
 90
-16777216
102
RTVSPost2010PropOp51
 70
     0
102
RTVSPost2010Prop52
140
1.0
102
RTVSPost2010PropOp52
 70
     0
102
RTVSPost2010Prop53
 90
        2
102
RTVSPost2010PropOp53
 70
     1
102
RTVSPost2010Prop54
  1
strokes_ogs.tif
102
RTVSPost2010PropOp54
 70
     1
102
RTVSPost2010Prop55
280
     0
102
RTVSPost2010PropOp55
 70
     1
102
RTVSPost2010Prop56
140
1.0
102
RTVSPost2010PropOp56
 70
     1
102
RTVSPost2010Prop57
140
1.0
102
RTVSPost2010PropOp57
 70
     1
  0
XRECORD
  5
294
102
{ACAD_REACTORS
330
293
102
}
330
293
100
AcDbXrecord
280
     1
102
RTVSPost2010Prop28
280
     0
102
RTVSPost2010PropOp28
 70
     1
102
RTVSPost2010Prop29
280
     1
102
RTVSPost2010PropOp29
 70
     1
102
RTVSPost2010Prop30
280
     1
102
RTVSPost2010PropOp30
 70
     1
102
RTVSPost2010Prop31
280
     0
102
RTVSPost2010PropOp31
 70
     1
102
RTVSPost2010Prop32
280
     0
102
RTVSPost2010PropOp32
 70
     1
102
RTVSPost2010Prop33
280
     0
102
RTVSPost2010PropOp33
 70
     1
102
RTVSPost2010Prop34
280
     0
102
RTVSPost2010PropOp34
 70
     1
102
RTVSPost2010Prop35
280
     0
102
RTVSPost2010PropOp35
 70
     1
102
RTVSPost2010Prop36
280
     0
102
RTVSPost2010PropOp36
 70
     1
102
RTVSPost2010Prop37
 90
       50
102
RTVSPost2010PropOp37
 70
     1
102
RTVSPost2010Prop38
140
0.0
102
RTVSPost2010PropOp38
 70
     1
102
RTVSPost2010Prop39
140
1.0
102
RTVSPost2010PropOp39
 70
     1
102
RTVSPost2010Prop40
 90
        0
102
RTVSPost2010PropOp40
 70
     1
102
RTVSPost2010Prop41ColorIndex
 90
       18
102
RTVSPost2010Prop41ColorRGB
 90
        0
102
RTVSPost2010PropOp41
 70
     1
102
RTVSPost2010Prop42
 90
       50
102
RTVSPost2010PropOp42
 70
     1
102
RTVSPost2010Prop43
 90
        3
102
RTVSPost2010PropOp43
 70
     1
102
RTVSPost2010Prop44ColorIndex
 90
        5
102
RTVSPost2010Prop44ColorRGB
 90
      255
102
RTVSPost2010PropOp44
 70
     1
102
RTVSPost2010Prop45
280
     0
102
RTVSPost2010PropOp45
 70
     1
102
RTVSPost2010Prop46
 90
       50
102
RTVSPost2010PropOp46
 70
     1
102
RTVSPost2010Prop47
 90
       50
102
RTVSPost2010PropOp47
 70
     1
102
RTVSPost2010Prop48
 90
       50
102
RTVSPost2010PropOp48
 70
     1
102
RTVSPost2010Prop49
280
     0
102
RTVSPost2010PropOp49
 70
     1
102
RTVSPost2010Prop50
 90
       50
102
RTVSPost2010PropOp50
 70
     1
102
RTVSPost2010Prop51ColorIndex
 90
      256
102
RTVSPost2010Prop51ColorRGB
 90
-16777216
102
RTVSPost2010PropOp51
 70
     0
102
RTVSPost2010Prop52
140
1.0
102
RTVSPost2010PropOp52
 70
     0
102
RTVSPost2010Prop53
 90
        2
102
RTVSPost2010PropOp53
 70
     1
102
RTVSPost2010Prop54
  1
strokes_ogs.tif
102
RTVSPost2010PropOp54
 70
     1
102
RTVSPost2010Prop55
280
     0
102
RTVSPost2010PropOp55
 70
     1
102
RTVSPost2010Prop56
140
1.0
102
RTVSPost2010PropOp56
 70
     1
102
RTVSPost2010Prop57
140
1.0
102
RTVSPost2010PropOp57
 70
     1
  0
ENDSEC
  0
EOF
