  0
SECTION
  2
HEADER
  9
$ACADVER
  1
AC1024
  9
$ACADMAINTVER
 70
     6
  9
$DWGCODEPAGE
  3
ANSI_1252
  9
$INSBASE
 10
0.0
 20
0.0
 30
0.0
  9
$EXTMIN
 10
1.000000E+20
 20
1.000000E+20
 30
1.000000E+20
  9
$EXTMAX
 10
-1.000000E+20
 20
-1.000000E+20
 30
-1.000000E+20
  9
$LIMMIN
 10
0.0
 20
0.0
  9
$LIMMAX
 10
420.0
 20
297.0
  9
$ORTHOMODE
 70
     0
  9
$REGENMODE
 70
     1
  9
$FILLMODE
 70
     1
  9
$QTEXTMODE
 70
     0
  9
$MIRRTEXT
 70
     1
  9
$LTSCALE
 40
1.0
  9
$ATTMODE
 70
     1
  9
$TEXTSIZE
 40
2.5
  9
$TRACEWID
 40
1.0
  9
$TEXTSTYLE
  7
Standard
  9
$CLAYER
  8
0
  9
$CELTYPE
  6
ByLayer
  9
$CECOLOR
 62
   256
  9
$CELTSCALE
 40
1.0
  9
$DISPSILH
 70
     0
  9
$DIMSCALE
 40
1.0
  9
$DIMASZ
 40
2.5
  9
$DIMEXO
 40
0.625
  9
$DIMDLI
 40
3.75
  9
$DIMRND
 40
0.0
  9
$DIMDLE
 40
0.0
  9
$DIMEXE
 40
1.25
  9
$DIMTP
 40
0.0
  9
$DIMTM
 40
0.0
  9
$DIMTXT
 40
2.5
  9
$DIMCEN
 40
2.5
  9
$DIMTSZ
 40
0.0
  9
$DIMTOL
 70
     0
  9
$DIMLIM
 70
     0
  9
$DIMTIH
 70
     0
  9
$DIMTOH
 70
     0
  9
$DIMSE1
 70
     0
  9
$DIMSE2
 70
     0
  9
$DIMTAD
 70
     1
  9
$DIMZIN
 70
     8
  9
$DIMBLK
  1

  9
$DIMASO
 70
     1
  9
$DIMSHO
 70
     1
  9
$DIMPOST
  1

  9
$DIMAPOST
  1

  9
$DIMALT
 70
     0
  9
$DIMALTD
 70
     3
  9
$DIMALTF
 40
0.03937
  9
$DIMLFAC
 40
1.0
  9
$DIMTOFL
 70
     1
  9
$DIMTVP
 40
0.0
  9
$DIMTIX
 70
     0
  9
$DIMSOXD
 70
     0
  9
$DIMSAH
 70
     0
  9
$DIMBLK1
  1

  9
$DIMBLK2
  1

  9
$DIMSTYLE
  2
ISO-25
  9
$DIMCLRD
 70
     0
  9
$DIMCLRE
 70
     0
  9
$DIMCLRT
 70
     0
  9
$DIMTFAC
 40
1.0
  9
$DIMGAP
 40
0.625
  9
$DIMJUST
 70
     0
  9
$DIMSD1
 70
     0
  9
$DIMSD2
 70
     0
  9
$DIMTOLJ
 70
     0
  9
$DIMTZIN
 70
     8
  9
$DIMALTZ
 70
     0
  9
$DIMALTTZ
 70
     0
  9
$DIMUPT
 70
     0
  9
$DIMDEC
 70
     2
  9
$DIMTDEC
 70
     2
  9
$DIMALTU
 70
     2
  9
$DIMALTTD
 70
     3
  9
$DIMTXSTY
  7
Standard
  9
$DIMAUNIT
 70
     0
  9
$DIMADEC
 70
     0
  9
$DIMALTRND
 40
0.0
  9
$DIMAZIN
 70
     0
  9
$DIMDSEP
 70
    44
  9
$DIMATFIT
 70
     3
  9
$DIMFRAC
 70
     0
  9
$DIMLDRBLK
  1

  9
$DIMLUNIT
 70
     2
  9
$DIMLWD
 70
    -2
  9
$DIMLWE
 70
    -2
  9
$DIMTMOVE
 70
     0
  9
$DIMFXL
 40
1.0
  9
$DIMFXLON
 70
     0
  9
$DIMJOGANG
 40
0.785398
  9
$DIMTFILL
 70
     0
  9
$DIMTFILLCLR
 70
     0
  9
$DIMARCSYM
 70
     0
  9
$DIMLTYPE
  6

  9
$DIMLTEX1
  6

  9
$DIMLTEX2
  6

  9
$DIMTXTDIRECTION
 70
     0
  9
$LUNITS
 70
     2
  9
$LUPREC
 70
     4
  9
$SKETCHINC
 40
1.0
  9
$FILLETRAD
 40
10.0
  9
$AUNITS
 70
     0
  9
$AUPREC
 70
     0
  9
$MENU
  1
.
  9
$ELEVATION
 40
0.0
  9
$PELEVATION
 40
0.0
  9
$THICKNESS
 40
0.0
  9
$LIMCHECK
 70
     0
  9
$CHAMFERA
 40
0.0
  9
$CHAMFERB
 40
0.0
  9
$CHAMFERC
 40
0.0
  9
$CHAMFERD
 40
0.0
  9
$SKPOLY
 70
     0
  9
$TDCREATE
 40
2457826.624921539
  9
$TDUCREATE
 40
2457826.583254873
  9
$TDUPDATE
 40
2457826.624922292
  9
$TDUUPDATE
 40
2457826.583255625
  9
$TDINDWG
 40
0.0000000116
  9
$TDUSRTIMER
 40
0.0000000116
  9
$USRTIMER
 70
     1
  9
$ANGBASE
 50
0.0
  9
$ANGDIR
 70
     0
  9
$PDMODE
 70
     0
  9
$PDSIZE
 40
0.0
  9
$PLINEWID
 40
0.0
  9
$SPLFRAME
 70
     0
  9
$SPLINETYPE
 70
     6
  9
$SPLINESEGS
 70
     8
  9
$HANDSEED
  5
3B8
  9
$SURFTAB1
 70
     6
  9
$SURFTAB2
 70
     6
  9
$SURFTYPE
 70
     6
  9
$SURFU
 70
     6
  9
$SURFV
 70
     6
  9
$UCSBASE
  2

  9
$UCSNAME
  2

  9
$UCSORG
 10
0.0
 20
0.0
 30
0.0
  9
$UCSXDIR
 10
1.0
 20
0.0
 30
0.0
  9
$UCSYDIR
 10
0.0
 20
1.0
 30
0.0
  9
$UCSORTHOREF
  2

  9
$UCSORTHOVIEW
 70
     0
  9
$UCSORGTOP
 10
0.0
 20
0.0
 30
0.0
  9
$UCSORGBOTTOM
 10
0.0
 20
0.0
 30
0.0
  9
$UCSORGLEFT
 10
0.0
 20
0.0
 30
0.0
  9
$UCSORGRIGHT
 10
0.0
 20
0.0
 30
0.0
  9
$UCSORGFRONT
 10
0.0
 20
0.0
 30
0.0
  9
$UCSORGBACK
 10
0.0
 20
0.0
 30
0.0
  9
$PUCSBASE
  2

  9
$PUCSNAME
  2

  9
$PUCSORG
 10
0.0
 20
0.0
 30
0.0
  9
$PUCSXDIR
 10
1.0
 20
0.0
 30
0.0
  9
$PUCSYDIR
 10
0.0
 20
1.0
 30
0.0
  9
$PUCSORTHOREF
  2

  9
$PUCSORTHOVIEW
 70
     0
  9
$PUCSORGTOP
 10
0.0
 20
0.0
 30
0.0
  9
$PUCSORGBOTTOM
 10
0.0
 20
0.0
 30
0.0
  9
$PUCSORGLEFT
 10
0.0
 20
0.0
 30
0.0
  9
$PUCSORGRIGHT
 10
0.0
 20
0.0
 30
0.0
  9
$PUCSORGFRONT
 10
0.0
 20
0.0
 30
0.0
  9
$PUCSORGBACK
 10
0.0
 20
0.0
 30
0.0
  9
$USERI1
 70
     0
  9
$USERI2
 70
     0
  9
$USERI3
 70
     0
  9
$USERI4
 70
     0
  9
$USERI5
 70
     0
  9
$USERR1
 40
0.0
  9
$USERR2
 40
0.0
  9
$USERR3
 40
0.0
  9
$USERR4
 40
0.0
  9
$USERR5
 40
0.0
  9
$WORLDVIEW
 70
     1
  9
$SHADEDGE
 70
     3
  9
$SHADEDIF
 70
    70
  9
$TILEMODE
 70
     1
  9
$MAXACTVP
 70
    64
  9
$PINSBASE
 10
0.0
 20
0.0
 30
0.0
  9
$PLIMCHECK
 70
     0
  9
$PEXTMIN
 10
1.000000E+20
 20
1.000000E+20
 30
1.000000E+20
  9
$PEXTMAX
 10
-1.000000E+20
 20
-1.000000E+20
 30
-1.000000E+20
  9
$PLIMMIN
 10
0.0
 20
0.0
  9
$PLIMMAX
 10
420.0
 20
297.0
  9
$UNITMODE
 70
     0
  9
$VISRETAIN
 70
     1
  9
$PLINEGEN
 70
     0
  9
$PSLTSCALE
 70
     1
  9
$TREEDEPTH
 70
  3020
  9
$CMLSTYLE
  2
Standard
  9
$CMLJUST
 70
     0
  9
$CMLSCALE
 40
20.0
  9
$PROXYGRAPHICS
 70
     1
  9
$MEASUREMENT
 70
     1
  9
$CELWEIGHT
370
    -1
  9
$ENDCAPS
280
     0
  9
$JOINSTYLE
280
     0
  9
$LWDISPLAY
290
     0
  9
$INSUNITS
 70
     4
  9
$HYPERLINKBASE
  1

  9
$STYLESHEET
  1

  9
$XEDIT
290
     1
  9
$CEPSNTYPE
380
     0
  9
$PSTYLEMODE
290
     1
  9
$FINGERPRINTGUID
  2
{F866E6C5-96DD-475B-BC1E-3E79BB5B196C}
  9
$VERSIONGUID
  2
{FAEB1C32-E019-11D5-929B-00C0DF256EC4}
  9
$EXTNAMES
290
     1
  9
$PSVPSCALE
 40
0.0
  9
$OLESTARTUP
290
     0
  9
$SORTENTS
280
   127
  9
$INDEXCTL
280
     0
  9
$HIDETEXT
280
     1
  9
$XCLIPFRAME
280
     2
  9
$HALOGAP
280
     0
  9
$OBSCOLOR
 70
   257
  9
$OBSLTYPE
280
     0
  9
$INTERSECTIONDISPLAY
280
     0
  9
$INTERSECTIONCOLOR
 70
   257
  9
$DIMASSOC
280
     2
  9
$PROJECTNAME
  1

  9
$CAMERADISPLAY
290
     0
  9
$LENSLENGTH
 40
50.0
  9
$CAMERAHEIGHT
 40
0.0
  9
$STEPSPERSEC
 40
2.0
  9
$STEPSIZE
 40
6.0
  9
$3DDWFPREC
 40
2.0
  9
$PSOLWIDTH
 40
5.0
  9
$PSOLHEIGHT
 40
80.0
  9
$LOFTANG1
 40
1.570796
  9
$LOFTANG2
 40
1.570796
  9
$LOFTMAG1
 40
0.0
  9
$LOFTMAG2
 40
0.0
  9
$LOFTPARAM
 70
     7
  9
$LOFTNORMALS
280
     1
  9
$LATITUDE
 40
37.795
  9
$LONGITUDE
 40
-122.394
  9
$NORTHDIRECTION
 40
0.0
  9
$TIMEZONE
 70
 -8000
  9
$LIGHTGLYPHDISPLAY
280
     1
  9
$TILEMODELIGHTSYNCH
280
     1
  9
$CMATERIAL
347
44
  9
$SOLIDHIST
280
     0
  9
$SHOWHIST
280
     1
  9
$DWFFRAME
280
     2
  9
$DGNFRAME
280
     2
  9
$REALWORLDSCALE
290
     1
  9
$INTERFERECOLOR
 62
   256
  9
$CSHADOW
280
     0
  9
$SHADOWPLANELOCATION
 40
0.0
  0
ENDSEC
  0
SECTION
  2
CLASSES
  0
CLASS
  1
ACDBDICTIONARYWDFLT
  2
AcDbDictionaryWithDefault
  3
ObjectDBX Classes
 90
        0
 91
        4
280
     0
281
     0
  0
CLASS
  1
VISUALSTYLE
  2
AcDbVisualStyle
  3
ObjectDBX Classes
 90
     4095
 91
        4
280
     0
281
     0
  0
CLASS
  1
MATERIAL
  2
AcDbMaterial
  3
ObjectDBX Classes
 90
     1153
 91
        4
280
     0
281
     0
  0
CLASS
  1
SCALE
  2
AcDbScale
  3
ObjectDBX Classes
 90
     1153
 91
        4
280
     0
281
     0
  0
CLASS
  1
TABLESTYLE
  2
AcDbTableStyle
  3
ObjectDBX Classes
 90
     4095
 91
        4
280
     0
281
     0
  0
CLASS
  1
MLEADERSTYLE
  2
AcDbMLeaderStyle
  3
ACDB_MLEADERSTYLE_CLASS
 90
     4095
 91
        4
280
     0
281
     0
  0
CLASS
  1
SUN
  2
AcDbSun
  3
SCENEOE
 90
     1153
 91
        4
280
     0
281
     0
  0
CLASS
  1
DICTIONARYVAR
  2
AcDbDictionaryVar
  3
ObjectDBX Classes
 90
        0
 91
        4
280
     0
281
     0
  0
CLASS
  1
CELLSTYLEMAP
  2
AcDbCellStyleMap
  3
ObjectDBX Classes
 90
     1152
 91
        4
280
     0
281
     0
  0
ENDSEC
  0
SECTION
  2
TABLES
  0
TABLE
  2
VPORT
  5
8
330
0
100
AcDbSymbolTable
 70
     1
  0
VPORT
  5
29
330
8
100
AcDbSymbolTableRecord
100
AcDbViewportTableRecord
  2
*Active
 70
     0
 10
0.0
 20
0.0
 11
1.0
 21
1.0
 12
344.186916
 22
148.5
 13
0.0
 23
0.0
 14
10.0
 24
10.0
 15
10.0
 25
10.0
 16
0.0
 26
0.0
 36
1.0
 17
0.0
 27
0.0
 37
0.0
 40
297.0
 41
1.972973
 42
50.0
 43
0.0
 44
0.0
 50
0.0
 51
0.0
 71
     0
 72
   100
 73
     1
 74
     3
 75
     0
 76
     0
 77
     0
 78
     0
281
     0
 65
     1
110
0.0
120
0.0
130
0.0
111
1.0
121
0.0
131
0.0
112
0.0
122
1.0
132
0.0
 79
     0
146
0.0
348
2F
 60
     3
 61
     5
292
     1
282
     1
141
0.0
142
0.0
 63
   250
361
6D
  0
ENDTAB
  0
TABLE
  2
LTYPE
  5
5
330
0
100
AcDbSymbolTable
 70
     1
  0
LTYPE
  5
14
330
5
100
AcDbSymbolTableRecord
100
AcDbLinetypeTableRecord
  2
ByBlock
 70
     0
  3

 72
    65
 73
     0
 40
0.0
  0
LTYPE
  5
15
330
5
100
AcDbSymbolTableRecord
100
AcDbLinetypeTableRecord
  2
ByLayer
 70
     0
  3

 72
    65
 73
     0
 40
0.0
  0
LTYPE
  5
16
330
5
100
AcDbSymbolTableRecord
100
AcDbLinetypeTableRecord
  2
Continuous
 70
     0
  3
Solid line
 72
    65
 73
     0
 40
0.0
  0
ENDTAB
  0
TABLE
  2
LAYER
  5
2
330
0
100
AcDbSymbolTable
 70
     1
  0
LAYER
  5
10
330
2
100
AcDbSymbolTableRecord
100
AcDbLayerTableRecord
  2
0
 70
     0
 62
   106
  6
Continuous
370
     0
390
F
347
46
  0
ENDTAB
  0
TABLE
  2
STYLE
  5
3
330
0
100
AcDbSymbolTable
 70
     4
  0
STYLE
  5
11
330
3
100
AcDbSymbolTableRecord
100
AcDbTextStyleTableRecord
  2
Standard
 70
     0
 40
0.0
 41
1.0
 50
0.0
 71
     0
 42
2.5
  3
txt
  4

  0
STYLE
  5
6E
330
3
100
AcDbSymbolTableRecord
100
AcDbTextStyleTableRecord
  2
Default
 70
     0
 40
0.0
 41
1.0
 50
0.0
 71
     0
 42
2.5
  3

  4

1001
ACAD
1000
txt
1071
        0
  0
STYLE
  5
6F
330
3
100
AcDbSymbolTableRecord
100
AcDbTextStyleTableRecord
  2
ISO
 70
     0
 40
0.0
 41
1.0
 50
0.0
 71
     0
 42
2.5
  3

  4

1001
ACAD
1000
txt
1071
        0
  0
STYLE
  5
70
330
3
100
AcDbSymbolTableRecord
100
AcDbTextStyleTableRecord
  2
zucchetti
 70
     0
 40
0.0
 41
1.0
 50
0.0
 71
     0
 42
2.5
  3

  4

1001
ACAD
1000
Arial
1071
        0
  0
ENDTAB
  0
TABLE
  2
VIEW
  5
6
330
0
100
AcDbSymbolTable
 70
     0
  0
ENDTAB
  0
TABLE
  2
UCS
  5
7
330
0
100
AcDbSymbolTable
 70
     0
  0
ENDTAB
  0
TABLE
  2
APPID
  5
9
330
0
100
AcDbSymbolTable
 70
     1
  0
APPID
  5
12
330
9
100
AcDbSymbolTableRecord
100
AcDbRegAppTableRecord
  2
ACAD
 70
     0
  0
ENDTAB
  0
TABLE
  2
DIMSTYLE
  5
A
330
0
100
AcDbSymbolTable
 70
     4
100
AcDbDimStyleTable
  0
DIMSTYLE
105
27
330
A
100
AcDbSymbolTableRecord
100
AcDbDimStyleTableRecord
  2
ISO-25
 70
     0
 41
2.5
 42
0.625
 43
3.75
 44
1.25
 73
     0
 74
     0
 77
     1
 78
     8
140
2.5
141
2.5
143
0.03937
147
0.625
171
     3
172
     1
178
     0
271
     2
272
     2
274
     3
278
    44
283
     0
284
     8
340
11
  0
DIMSTYLE
105
71
330
A
100
AcDbSymbolTableRecord
100
AcDbDimStyleTableRecord
  2
Default
 70
     0
  3
<>
 41
4.375
 42
1.05
 44
2.1
 49
10.01
 73
     0
 74
     0
 77
     1
 78
     8
140
3.5
146
0.4
147
1.75
172
     1
271
     2
178
     3
271
     2
272
     3
284
     8
340
6E
341
72
342
72
  0
DIMSTYLE
105
79
330
A
100
AcDbSymbolTableRecord
100
AcDbDimStyleTableRecord
  2
ISO
 70
     0
  3
<>
 41
4.375
 42
1.05
 44
2.1
 49
10.01
 73
     0
 74
     0
 77
     1
 78
     8
140
3.5
146
0.4
147
1.75
172
     1
271
     2
178
     3
271
     2
272
     3
284
     8
340
6F
341
72
342
72
  0
DIMSTYLE
105
7A
330
A
100
AcDbSymbolTableRecord
100
AcDbDimStyleTableRecord
  2
zucchetti
 70
     0
  3
<>
 41
3.0
 42
0.9
 44
1.8
 49
8.58
 73
     0
 74
     0
 77
     1
 78
     8
140
3.0
146
0.6
147
1.5
172
     1
176
     3
177
     3
271
     2
178
     3
271
     2
272
     2
284
     8
340
70
  0
ENDTAB
  0
TABLE
  2
BLOCK_RECORD
  5
1
330
0
100
AcDbSymbolTable
 70
     7
  0
BLOCK_RECORD
  5
1F
330
1
100
AcDbSymbolTableRecord
100
AcDbBlockTableRecord
  2
*Model_Space
340
22
 70
     0
280
     1
281
     0
  0
BLOCK_RECORD
  5
1B
330
1
100
AcDbSymbolTableRecord
100
AcDbBlockTableRecord
  2
*Paper_Space
340
1E
 70
     0
280
     1
281
     0
  0
BLOCK_RECORD
  5
23
330
1
100
AcDbSymbolTableRecord
100
AcDbBlockTableRecord
  2
*Paper_Space0
340
26
 70
     0
280
     1
281
     0
  0
BLOCK_RECORD
  5
72
330
1
100
AcDbSymbolTableRecord
100
AcDbBlockTableRecord
  2
_CLOSED
340
0
 70
     0
280
     1
281
     0
  0
BLOCK_RECORD
  5
7B
330
1
100
AcDbSymbolTableRecord
100
AcDbBlockTableRecord
  2
a
340
0
102
{BLKREFS
331
F8
102
}
 70
     0
280
     1
281
     0
  0
BLOCK_RECORD
  5
F9
330
1
100
AcDbSymbolTableRecord
100
AcDbBlockTableRecord
  2
b
340
0
102
{BLKREFS
331
1CE
102
}
 70
     0
280
     1
281
     0
  0
BLOCK_RECORD
  5
1CF
330
1
100
AcDbSymbolTableRecord
100
AcDbBlockTableRecord
  2
c
340
0
102
{BLKREFS
331
231
102
}
 70
     0
280
     1
281
     0
  0
BLOCK_RECORD
  5
232
330
1
100
AcDbSymbolTableRecord
100
AcDbBlockTableRecord
  2
d
340
0
102
{BLKREFS
331
31D
102
}
 70
     0
280
     1
281
     0
  0
BLOCK_RECORD
  5
31E
330
1
100
AcDbSymbolTableRecord
100
AcDbBlockTableRecord
  2
e
340
0
102
{BLKREFS
331
37E
102
}
 70
     0
280
     1
281
     0
  0
ENDTAB
  0
ENDSEC
  0
SECTION
  2
BLOCKS
  0
BLOCK
  5
20
330
1F
100
AcDbEntity
  8
0
100
AcDbBlockBegin
  2
*Model_Space
 70
     0
 10
0.0
 20
0.0
 30
0.0
  3
*Model_Space
  1

  0
ENDBLK
  5
21
330
1F
100
AcDbEntity
  8
0
100
AcDbBlockEnd
  0
BLOCK
  5
1C
330
1B
100
AcDbEntity
 67
     1
  8
0
100
AcDbBlockBegin
  2
*Paper_Space
 70
     0
 10
0.0
 20
0.0
 30
0.0
  3
*Paper_Space
  1

  0
ENDBLK
  5
1D
330
1B
100
AcDbEntity
 67
     1
  8
0
100
AcDbBlockEnd
  0
BLOCK
  5
24
330
23
100
AcDbEntity
  8
0
100
AcDbBlockBegin
  2
*Paper_Space0
 70
     0
 10
0.0
 20
0.0
 30
0.0
  3
*Paper_Space0
  1

  0
ENDBLK
  5
25
330
23
100
AcDbEntity
  8
0
100
AcDbBlockEnd
  0
BLOCK
  5
73
330
72
100
AcDbEntity
  8
0
100
AcDbBlockBegin
  2
_CLOSED
 70
     0
 10
0.0
 20
0.0
 30
0.0
  3
_CLOSED
  1

  0
LINE
  5
75
330
72
100
AcDbEntity
  8
0
  6
ByBlock
 62
     0
370
    -2
100
AcDbLine
 10
-1.0
 20
0.166667
 30
0.0
 11
0.0
 21
0.0
 31
0.0
  0
LINE
  5
76
330
72
100
AcDbEntity
  8
0
  6
ByBlock
 62
     0
370
    -2
100
AcDbLine
 10
0.0
 20
0.0
 30
0.0
 11
-1.0
 21
-0.166667
 31
0.0
  0
LINE
  5
77
330
72
100
AcDbEntity
  8
0
  6
ByBlock
 62
     0
370
    -2
100
AcDbLine
 10
-1.0
 20
0.166667
 30
0.0
 11
-1.0
 21
-0.166667
 31
0.0
  0
LINE
  5
78
330
72
100
AcDbEntity
  8
0
  6
ByBlock
 62
     0
370
    -2
100
AcDbLine
 10
0.0
 20
0.0
 30
0.0
 11
-1.0
 21
0.0
 31
0.0
  0
ENDBLK
  5
74
330
72
100
AcDbEntity
  8
0
100
AcDbBlockEnd
  0
BLOCK
  5
F6
330
7B
100
AcDbEntity
  8
0
100
AcDbBlockBegin
  2
a
 70
     0
 10
115.40905
 20
99.184387
 30
0.0
  3
a
  1

  0
ARC
  5
7C
330
7B
100
AcDbEntity
  8
0
  6
Continuous
 62
     0
370
    30
100
AcDbCircle
 10
347.235168
 20
391.129225
 30
0.0
 40
0.5
100
AcDbArc
 50
90.0
 51
180.0
  0
ARC
  5
7D
330
7B
100
AcDbEntity
  8
0
  6
Continuous
 62
     0
370
    30
100
AcDbCircle
 10
403.235168
 20
391.129225
 30
0.0
 40
0.5
100
AcDbArc
 50
0.0
 51
90.0
  0
LINE
  5
7E
330
7B
100
AcDbEntity
  8
0
  6
Continuous
 62
     0
370
     0
100
AcDbLine
 10
403.235168
 20
391.129225
 30
0.0
 11
403.235168
 21
391.629225
 31
0.0
  0
LINE
  5
7F
330
7B
100
AcDbEntity
  8
0
  6
Continuous
 62
     0
370
    30
100
AcDbLine
 10
403.235168
 20
391.629225
 30
0.0
 11
347.235168
 21
391.629225
 31
0.0
  0
LINE
  5
80
330
7B
100
AcDbEntity
  8
0
  6
Continuous
 62
     0
370
     0
100
AcDbLine
 10
347.235168
 20
391.629225
 30
0.0
 11
347.235168
 21
391.129225
 31
0.0
  0
LINE
  5
81
330
7B
100
AcDbEntity
  8
0
  6
Continuous
 62
     0
370
     0
100
AcDbLine
 10
347.235168
 20
391.129225
 30
0.0
 11
403.235168
 21
391.129225
 31
0.0
  0
LINE
  5
82
330
7B
100
AcDbEntity
  8
0
  6
Continuous
 62
     0
370
     0
100
AcDbLine
 10
403.235168
 20
391.129225
 30
0.0
 11
403.735168
 21
391.129225
 31
0.0
  0
LINE
  5
83
330
7B
100
AcDbEntity
  8
0
  6
Continuous
 62
     0
370
     0
100
AcDbLine
 10
346.735168
 20
391.129225
 30
0.0
 11
347.235168
 21
391.129225
 31
0.0
  0
LINE
  5
84
330
7B
100
AcDbEntity
  8
0
  6
Continuous
 62
     0
370
    30
100
AcDbLine
 10
403.735168
 20
391.129225
 30
0.0
 11
403.735168
 21
381.409225
 31
0.0
  0
LINE
  5
85
330
7B
100
AcDbEntity
  8
0
  6
Continuous
 62
     0
370
     0
100
AcDbLine
 10
403.235168
 20
391.129225
 30
0.0
 11
403.235168
 21
381.409225
 31
0.0
  0
LINE
  5
86
330
7B
100
AcDbEntity
  8
0
  6
Continuous
 62
     0
370
    30
100
AcDbLine
 10
403.235168
 20
381.409225
 30
0.0
 11
403.735168
 21
381.409225
 31
0.0
  0
LINE
  5
87
330
7B
100
AcDbEntity
  8
0
  6
Continuous
 62
     0
370
     0
100
AcDbLine
 10
347.235168
 20
391.129225
 30
0.0
 11
347.235168
 21
381.409225
 31
0.0
  0
LINE
  5
88
330
7B
100
AcDbEntity
  8
0
  6
Continuous
 62
     0
370
    30
100
AcDbLine
 10
347.235168
 20
381.409225
 30
0.0
 11
403.235168
 21
381.409225
 31
0.0
  0
LINE
  5
89
330
7B
100
AcDbEntity
  8
0
  6
Continuous
 62
     0
370
    30
100
AcDbLine
 10
346.735168
 20
381.409225
 30
0.0
 11
346.735168
 21
391.129225
 31
0.0
  0
LINE
  5
8A
330
7B
100
AcDbEntity
  8
0
  6
Continuous
 62
     0
370
    30
100
AcDbLine
 10
346.735168
 20
381.409225
 30
0.0
 11
347.235168
 21
381.409225
 31
0.0
  0
ARC
  5
8B
330
7B
100
AcDbEntity
  8
0
  6
Continuous
 62
     0
370
    30
100
AcDbCircle
 10
395.735168
 20
392.329225
 30
0.0
 40
0.5
100
AcDbArc
 50
180.0
 51
270.0
  0
ARC
  5
8C
330
7B
100
AcDbEntity
  8
0
  6
Continuous
 62
     0
370
    30
100
AcDbCircle
 10
394.708557
 20
392.355836
 30
0.0
 40
0.5272831404232404
100
AcDbArc
 50
272.892862
 51
357.107138
  0
LINE
  5
8D
330
7B
100
AcDbEntity
  8
0
  6
Continuous
 62
     0
370
    30
100
AcDbLine
 10
395.235168
 20
392.329225
 30
0.0
 11
395.235168
 21
398.829225
 31
0.0
  0
LINE
  5
8E
330
7B
100
AcDbEntity
  8
0
  6
Continuous
 62
     0
370
     0
100
AcDbLine
 10
395.235168
 20
398.829225
 30
0.0
 11
394.735168
 21
398.829225
 31
0.0
  0
LINE
  5
8F
330
7B
100
AcDbEntity
  8
0
  6
Continuous
 62
     0
370
     0
100
AcDbLine
 10
394.735168
 20
398.829225
 30
0.0
 11
394.735168
 21
391.829225
 31
0.0
  0
LINE
  5
90
330
7B
100
AcDbEntity
  8
0
  6
Continuous
 62
     0
370
    30
100
AcDbLine
 10
395.235168
 20
419.329225
 30
0.0
 11
395.235168
 21
398.829225
 31
0.0
  0
ARC
  5
91
330
7B
100
AcDbEntity
  8
0
  6
Continuous
 62
     0
370
    30
100
AcDbCircle
 10
354.735168
 20
392.329225
 30
0.0
 40
0.5
100
AcDbArc
 50
270.0
 51
0.0
  0
ARC
  5
92
330
7B
100
AcDbEntity
  8
0
  6
Continuous
 62
     0
370
    30
100
AcDbCircle
 10
355.761929
 20
392.355986
 30
0.0
 40
0.5274398295952691
100
AcDbArc
 50
182.908244
 51
267.091756
  0
LINE
  5
93
330
7B
100
AcDbEntity
  8
0
  6
Continuous
 62
     0
370
    30
100
AcDbLine
 10
355.235168
 20
392.329225
 30
0.0
 11
355.235168
 21
398.829225
 31
0.0
  0
LINE
  5
94
330
7B
100
AcDbEntity
  8
0
  6
Continuous
 62
     0
370
    30
100
AcDbLine
 10
355.235168
 20
398.829225
 30
0.0
 11
355.235168
 21
419.329225
 31
0.0
  0
ARC
  5
95
330
7B
100
AcDbEntity
  8
0
  6
Continuous
 62
     0
370
    30
100
AcDbCircle
 10
394.735168
 20
419.329225
 30
0.0
 40
0.5000000000017479
100
AcDbArc
 50
0.0
 51
90.0
  0
LINE
  5
96
330
7B
100
AcDbEntity
  8
0
  6
Continuous
 62
     0
370
    30
100
AcDbLine
 10
394.735168
 20
419.829225
 30
0.0
 11
394.735168
 21
419.329225
 31
0.0
  0
LINE
  5
97
330
7B
100
AcDbEntity
  8
0
  6
Continuous
 62
     0
370
     0
100
AcDbLine
 10
394.735168
 20
419.329225
 30
0.0
 11
395.235168
 21
419.329225
 31
0.0
  0
LINE
  5
98
330
7B
100
AcDbEntity
  8
0
  6
Continuous
 62
     0
370
    30
100
AcDbLine
 10
355.735168
 20
419.329225
 30
0.0
 11
355.735168
 21
419.829225
 31
0.0
  0
ARC
  5
99
330
7B
100
AcDbEntity
  8
0
  6
Continuous
 62
     0
370
    30
100
AcDbCircle
 10
355.735168
 20
419.329225
 30
0.0
 40
0.4999999999996376
100
AcDbArc
 50
90.0
 51
180.0
  0
LINE
  5
9A
330
7B
100
AcDbEntity
  8
0
  6
Continuous
 62
     0
370
     0
100
AcDbLine
 10
355.235168
 20
419.329225
 30
0.0
 11
355.735168
 21
419.329225
 31
0.0
  0
LINE
  5
9B
330
7B
100
AcDbEntity
  8
0
  6
Continuous
 62
     0
370
     0
100
AcDbLine
 10
355.235168
 20
398.829225
 30
0.0
 11
355.735168
 21
398.829225
 31
0.0
  0
LINE
  5
9C
330
7B
100
AcDbEntity
  8
0
  6
Continuous
 62
     0
370
     0
100
AcDbLine
 10
355.735168
 20
398.829225
 30
0.0
 11
355.735168
 21
419.329225
 31
0.0
  0
LINE
  5
9D
330
7B
100
AcDbEntity
  8
0
  6
Continuous
 62
     0
370
     0
100
AcDbLine
 10
355.735168
 20
419.329225
 30
0.0
 11
394.735168
 21
419.329225
 31
0.0
  0
LINE
  5
9E
330
7B
100
AcDbEntity
  8
0
  6
Continuous
 62
     0
370
    30
100
AcDbLine
 10
394.735168
 20
419.829225
 30
0.0
 11
355.735168
 21
419.829225
 31
0.0
  0
LINE
  5
9F
330
7B
100
AcDbEntity
  8
0
  6
Continuous
 62
     0
370
     0
100
AcDbLine
 10
394.735168
 20
419.329225
 30
0.0
 11
394.735168
 21
398.829225
 31
0.0
  0
LINE
  5
A0
330
7B
100
AcDbEntity
  8
0
  6
Continuous
 62
     0
370
     0
100
AcDbLine
 10
355.735168
 20
391.829225
 30
0.0
 11
355.735168
 21
398.829225
 31
0.0
  0
LINE
  5
A1
330
7B
100
AcDbEntity
  8
0
  6
Continuous
 62
     0
370
     0
100
AcDbLine
 10
355.735168
 20
398.829225
 30
0.0
 11
394.735168
 21
398.829225
 31
0.0
  0
LINE
  5
A2
330
7B
100
AcDbEntity
  8
0
  6
Continuous
 62
     0
370
    30
100
AcDbLine
 10
351.235168
 20
391.829225
 30
0.0
 11
399.235168
 21
391.829225
 31
0.0
  0
ARC
  5
A3
330
7B
100
AcDbEntity
  8
0
  6
Continuous
 62
     0
370
    30
100
AcDbCircle
 10
203.235168
 20
391.129225
 30
0.0
 40
0.5
100
AcDbArc
 50
360.0
 51
90.0
  0
ARC
  5
A4
330
7B
100
AcDbEntity
  8
0
  6
Continuous
 62
     0
370
    30
100
AcDbCircle
 10
147.235168
 20
391.129225
 30
0.0
 40
0.5
100
AcDbArc
 50
90.0
 51
180.0
  0
LINE
  5
A5
330
7B
100
AcDbEntity
  8
0
  6
Continuous
 62
     0
370
     0
100
AcDbLine
 10
203.235168
 20
391.129225
 30
0.0
 11
147.235168
 21
391.129225
 31
0.0
  0
LINE
  5
A6
330
7B
100
AcDbEntity
  8
0
  6
Continuous
 62
     0
370
     0
100
AcDbLine
 10
203.235168
 20
391.629225
 30
0.0
 11
203.235168
 21
391.129225
 31
0.0
  0
LINE
  5
A7
330
7B
100
AcDbEntity
  8
0
  6
Continuous
 62
     0
370
    30
100
AcDbLine
 10
147.235168
 20
391.629225
 30
0.0
 11
203.235168
 21
391.629225
 31
0.0
  0
LINE
  5
A8
330
7B
100
AcDbEntity
  8
0
  6
Continuous
 62
     0
370
     0
100
AcDbLine
 10
147.235168
 20
391.129225
 30
0.0
 11
147.235168
 21
391.629225
 31
0.0
  0
LINE
  5
A9
330
7B
100
AcDbEntity
  8
0
  6
Continuous
 62
     0
370
     0
100
AcDbLine
 10
147.235168
 20
391.129225
 30
0.0
 11
146.735168
 21
391.129225
 31
0.0
  0
LINE
  5
AA
330
7B
100
AcDbEntity
  8
0
  6
Continuous
 62
     0
370
     0
100
AcDbLine
 10
203.735168
 20
391.129225
 30
0.0
 11
203.235168
 21
391.129225
 31
0.0
  0
LINE
  5
AB
330
7B
100
AcDbEntity
  8
0
  6
Continuous
 62
     0
370
    30
100
AcDbLine
 10
146.735168
 20
391.129225
 30
0.0
 11
146.735168
 21
381.409225
 31
0.0
  0
LINE
  5
AC
330
7B
100
AcDbEntity
  8
0
  6
Continuous
 62
     0
370
    30
100
AcDbLine
 10
147.235168
 20
381.409225
 30
0.0
 11
146.735168
 21
381.409225
 31
0.0
  0
LINE
  5
AD
330
7B
100
AcDbEntity
  8
0
  6
Continuous
 62
     0
370
     0
100
AcDbLine
 10
147.235168
 20
391.129225
 30
0.0
 11
147.235168
 21
381.409225
 31
0.0
  0
LINE
  5
AE
330
7B
100
AcDbEntity
  8
0
  6
Continuous
 62
     0
370
    30
100
AcDbLine
 10
203.235168
 20
381.409225
 30
0.0
 11
147.235168
 21
381.409225
 31
0.0
  0
LINE
  5
AF
330
7B
100
AcDbEntity
  8
0
  6
Continuous
 62
     0
370
     0
100
AcDbLine
 10
203.235168
 20
391.129225
 30
0.0
 11
203.235168
 21
381.409225
 31
0.0
  0
LINE
  5
B0
330
7B
100
AcDbEntity
  8
0
  6
Continuous
 62
     0
370
    30
100
AcDbLine
 10
203.735168
 20
381.409225
 30
0.0
 11
203.735168
 21
391.129225
 31
0.0
  0
LINE
  5
B1
330
7B
100
AcDbEntity
  8
0
  6
Continuous
 62
     0
370
    30
100
AcDbLine
 10
203.735168
 20
381.409225
 30
0.0
 11
203.235168
 21
381.409225
 31
0.0
  0
ARC
  5
B2
330
7B
100
AcDbEntity
  8
0
  6
Continuous
 62
     0
370
    30
100
AcDbCircle
 10
154.735168
 20
392.329225
 30
0.0
 40
0.5
100
AcDbArc
 50
270.0
 51
360.0
  0
ARC
  5
B3
330
7B
100
AcDbEntity
  8
0
  6
Continuous
 62
     0
370
    30
100
AcDbCircle
 10
155.76178
 20
392.355836
 30
0.0
 40
0.5272831404209155
100
AcDbArc
 50
182.892862
 51
267.107138
  0
LINE
  5
B4
330
7B
100
AcDbEntity
  8
0
  6
Continuous
 62
     0
370
     0
100
AcDbLine
 10
155.735168
 20
398.829225
 30
0.0
 11
155.735168
 21
391.829225
 31
0.0
  0
LINE
  5
B5
330
7B
100
AcDbEntity
  8
0
  6
Continuous
 62
     0
370
     0
100
AcDbLine
 10
155.235168
 20
398.829225
 30
0.0
 11
155.735168
 21
398.829225
 31
0.0
  0
LINE
  5
B6
330
7B
100
AcDbEntity
  8
0
  6
Continuous
 62
     0
370
    30
100
AcDbLine
 10
155.235168
 20
392.329225
 30
0.0
 11
155.235168
 21
398.829225
 31
0.0
  0
LINE
  5
B7
330
7B
100
AcDbEntity
  8
0
  6
Continuous
 62
     0
370
    30
100
AcDbLine
 10
155.235168
 20
419.329225
 30
0.0
 11
155.235168
 21
398.829225
 31
0.0
  0
ARC
  5
B8
330
7B
100
AcDbEntity
  8
0
  6
Continuous
 62
     0
370
    30
100
AcDbCircle
 10
195.735168
 20
392.329225
 30
0.0
 40
0.5
100
AcDbArc
 50
180.0
 51
270.0
  0
ARC
  5
B9
330
7B
100
AcDbEntity
  8
0
  6
Continuous
 62
     0
370
    30
100
AcDbCircle
 10
194.708408
 20
392.355986
 30
0.0
 40
0.5274398295963029
100
AcDbArc
 50
272.908244
 51
357.091756
  0
LINE
  5
BA
330
7B
100
AcDbEntity
  8
0
  6
Continuous
 62
     0
370
    30
100
AcDbLine
 10
195.235168
 20
398.829225
 30
0.0
 11
195.235168
 21
419.329225
 31
0.0
  0
LINE
  5
BB
330
7B
100
AcDbEntity
  8
0
  6
Continuous
 62
     0
370
    30
100
AcDbLine
 10
195.235168
 20
392.329225
 30
0.0
 11
195.235168
 21
398.829225
 31
0.0
  0
LINE
  5
BC
330
7B
100
AcDbEntity
  8
0
  6
Continuous
 62
     0
370
     0
100
AcDbLine
 10
155.735168
 20
419.329225
 30
0.0
 11
155.235168
 21
419.329225
 31
0.0
  0
LINE
  5
BD
330
7B
100
AcDbEntity
  8
0
  6
Continuous
 62
     0
370
    30
100
AcDbLine
 10
155.735168
 20
419.829225
 30
0.0
 11
155.735168
 21
419.329225
 31
0.0
  0
ARC
  5
BE
330
7B
100
AcDbEntity
  8
0
  6
Continuous
 62
     0
370
    30
100
AcDbCircle
 10
155.735168
 20
419.329225
 30
0.0
 40
0.4999999999966889
100
AcDbArc
 50
90.0
 51
180.0
  0
LINE
  5
BF
330
7B
100
AcDbEntity
  8
0
  6
Continuous
 62
     0
370
     0
100
AcDbLine
 10
195.235168
 20
419.329225
 30
0.0
 11
194.735168
 21
419.329225
 31
0.0
  0
ARC
  5
C0
330
7B
100
AcDbEntity
  8
0
  6
Continuous
 62
     0
370
    30
100
AcDbCircle
 10
194.735168
 20
419.329225
 30
0.0
 40
0.5000000000007141
100
AcDbArc
 50
0.0
 51
90.0
  0
LINE
  5
C1
330
7B
100
AcDbEntity
  8
0
  6
Continuous
 62
     0
370
    30
100
AcDbLine
 10
194.735168
 20
419.329225
 30
0.0
 11
194.735168
 21
419.829225
 31
0.0
  0
LINE
  5
C2
330
7B
100
AcDbEntity
  8
0
  6
Continuous
 62
     0
370
     0
100
AcDbLine
 10
194.735168
 20
398.829225
 30
0.0
 11
194.735168
 21
419.329225
 31
0.0
  0
LINE
  5
C3
330
7B
100
AcDbEntity
  8
0
  6
Continuous
 62
     0
370
     0
100
AcDbLine
 10
195.235168
 20
398.829225
 30
0.0
 11
194.735168
 21
398.829225
 31
0.0
  0
LINE
  5
C4
330
7B
100
AcDbEntity
  8
0
  6
Continuous
 62
     0
370
    30
100
AcDbLine
 10
155.735168
 20
419.829225
 30
0.0
 11
194.735168
 21
419.829225
 31
0.0
  0
LINE
  5
C5
330
7B
100
AcDbEntity
  8
0
  6
Continuous
 62
     0
370
     0
100
AcDbLine
 10
194.735168
 20
419.329225
 30
0.0
 11
155.735168
 21
419.329225
 31
0.0
  0
LINE
  5
C6
330
7B
100
AcDbEntity
  8
0
  6
Continuous
 62
     0
370
     0
100
AcDbLine
 10
155.735168
 20
419.329225
 30
0.0
 11
155.735168
 21
398.829225
 31
0.0
  0
LINE
  5
C7
330
7B
100
AcDbEntity
  8
0
  6
Continuous
 62
     0
370
     0
100
AcDbLine
 10
194.735168
 20
391.829225
 30
0.0
 11
194.735168
 21
398.829225
 31
0.0
  0
LINE
  5
C8
330
7B
100
AcDbEntity
  8
0
  6
Continuous
 62
     0
370
     0
100
AcDbLine
 10
194.735168
 20
398.829225
 30
0.0
 11
155.735168
 21
398.829225
 31
0.0
  0
LINE
  5
C9
330
7B
100
AcDbEntity
  8
0
  6
Continuous
 62
     0
370
    30
100
AcDbLine
 10
199.235168
 20
391.829225
 30
0.0
 11
151.235168
 21
391.829225
 31
0.0
  0
LINE
  5
CA
330
7B
100
AcDbEntity
  8
0
  6
Continuous
 62
     0
370
    30
100
AcDbLine
 10
199.235168
 20
391.829225
 30
0.0
 11
199.235168
 21
391.629225
 31
0.0
  0
ARC
  5
CB
330
7B
100
AcDbEntity
  8
0
  6
Continuous
 62
     0
370
    30
100
AcDbCircle
 10
247.235168
 20
391.129225
 30
0.0
 40
0.5
100
AcDbArc
 50
90.0
 51
180.0
  0
ARC
  5
CC
330
7B
100
AcDbEntity
  8
0
  6
Continuous
 62
     0
370
    30
100
AcDbCircle
 10
303.235168
 20
391.129225
 30
0.0
 40
0.5
100
AcDbArc
 50
0.0
 51
90.0
  0
LINE
  5
CD
330
7B
100
AcDbEntity
  8
0
  6
Continuous
 62
     0
370
     0
100
AcDbLine
 10
303.235168
 20
391.129225
 30
0.0
 11
303.235168
 21
391.629225
 31
0.0
  0
LINE
  5
CE
330
7B
100
AcDbEntity
  8
0
  6
Continuous
 62
     0
370
    30
100
AcDbLine
 10
303.235168
 20
391.629225
 30
0.0
 11
247.235168
 21
391.629225
 31
0.0
  0
LINE
  5
CF
330
7B
100
AcDbEntity
  8
0
  6
Continuous
 62
     0
370
     0
100
AcDbLine
 10
247.235168
 20
391.629225
 30
0.0
 11
247.235168
 21
391.129225
 31
0.0
  0
LINE
  5
D0
330
7B
100
AcDbEntity
  8
0
  6
Continuous
 62
     0
370
     0
100
AcDbLine
 10
247.235168
 20
391.129225
 30
0.0
 11
303.235168
 21
391.129225
 31
0.0
  0
LINE
  5
D1
330
7B
100
AcDbEntity
  8
0
  6
Continuous
 62
     0
370
     0
100
AcDbLine
 10
303.235168
 20
391.129225
 30
0.0
 11
303.735168
 21
391.129225
 31
0.0
  0
LINE
  5
D2
330
7B
100
AcDbEntity
  8
0
  6
Continuous
 62
     0
370
     0
100
AcDbLine
 10
246.735168
 20
391.129225
 30
0.0
 11
247.235168
 21
391.129225
 31
0.0
  0
LINE
  5
D3
330
7B
100
AcDbEntity
  8
0
  6
Continuous
 62
     0
370
    30
100
AcDbLine
 10
303.735168
 20
391.129225
 30
0.0
 11
303.735168
 21
381.409225
 31
0.0
  0
LINE
  5
D4
330
7B
100
AcDbEntity
  8
0
  6
Continuous
 62
     0
370
     0
100
AcDbLine
 10
303.235168
 20
391.129225
 30
0.0
 11
303.235168
 21
381.409225
 31
0.0
  0
LINE
  5
D5
330
7B
100
AcDbEntity
  8
0
  6
Continuous
 62
     0
370
    30
100
AcDbLine
 10
303.235168
 20
381.409225
 30
0.0
 11
303.735168
 21
381.409225
 31
0.0
  0
LINE
  5
D6
330
7B
100
AcDbEntity
  8
0
  6
Continuous
 62
     0
370
     0
100
AcDbLine
 10
247.235168
 20
391.129225
 30
0.0
 11
247.235168
 21
381.409225
 31
0.0
  0
LINE
  5
D7
330
7B
100
AcDbEntity
  8
0
  6
Continuous
 62
     0
370
    30
100
AcDbLine
 10
247.235168
 20
381.409225
 30
0.0
 11
303.235168
 21
381.409225
 31
0.0
  0
LINE
  5
D8
330
7B
100
AcDbEntity
  8
0
  6
Continuous
 62
     0
370
    30
100
AcDbLine
 10
246.735168
 20
381.409225
 30
0.0
 11
246.735168
 21
391.129225
 31
0.0
  0
LINE
  5
D9
330
7B
100
AcDbEntity
  8
0
  6
Continuous
 62
     0
370
    30
100
AcDbLine
 10
246.735168
 20
381.409225
 30
0.0
 11
247.235168
 21
381.409225
 31
0.0
  0
LINE
  5
DA
330
7B
100
AcDbEntity
  8
0
  6
Continuous
 62
     0
370
    30
100
AcDbLine
 10
255.235168
 20
504.629225
 30
0.0
 11
255.735168
 21
504.629225
 31
0.0
  0
LINE
  5
DB
330
7B
100
AcDbEntity
  8
0
  6
Continuous
 62
     0
370
    30
100
AcDbLine
 10
294.735168
 20
504.629225
 30
0.0
 11
295.235168
 21
504.629225
 31
0.0
  0
LINE
  5
DC
330
7B
100
AcDbEntity
  8
0
  6
Continuous
 62
     0
370
    30
100
AcDbLine
 10
255.735168
 20
504.629225
 30
0.0
 11
294.735168
 21
504.629225
 31
0.0
  0
LINE
  5
DD
330
7B
100
AcDbEntity
  8
0
  6
Continuous
 62
     0
370
    30
100
AcDbLine
 10
255.235168
 20
504.629225
 30
0.0
 11
255.235168
 21
523.095775
 31
0.0
  0
LINE
  5
DE
330
7B
100
AcDbEntity
  8
0
  6
Continuous
 62
     0
370
    30
100
AcDbLine
 10
255.235168
 20
523.095775
 30
0.0
 11
255.235168
 21
552.129225
 31
0.0
  0
LINE
  5
DF
330
7B
100
AcDbEntity
  8
0
  6
Continuous
 62
     0
370
    30
100
AcDbLine
 10
255.235168
 20
391.629225
 30
0.0
 11
255.235168
 21
492.629225
 31
0.0
  0
LINE
  5
E0
330
7B
100
AcDbEntity
  8
0
  6
Continuous
 62
     0
370
    30
100
AcDbLine
 10
255.235168
 20
492.629225
 30
0.0
 11
255.235168
 21
504.629225
 31
0.0
  0
LINE
  5
E1
330
7B
100
AcDbEntity
  8
0
  6
Continuous
 62
     0
370
     0
100
AcDbLine
 10
255.735168
 20
504.629225
 30
0.0
 11
255.735168
 21
523.351797
 31
0.0
  0
ELLIPSE
  5
E2
330
7B
100
AcDbEntity
  8
0
  6
Continuous
 62
     0
370
     0
100
AcDbEllipse
 10
255.735168
 20
523.095775
 30
0.0
 11
0.500000000000002
 21
0.0
 31
0.0
210
0.0
220
0.0
230
1.0
 40
0.512043
 41
1.570796326794882
 42
3.141592653589904
  0
LINE
  5
E3
330
7B
100
AcDbEntity
  8
0
  6
Continuous
 62
     0
370
     0
100
AcDbLine
 10
294.735168
 20
504.629225
 30
0.0
 11
294.735168
 21
523.351797
 31
0.0
  0
LINE
  5
E4
330
7B
100
AcDbEntity
  8
0
  6
Continuous
 62
     0
370
     0
100
AcDbLine
 10
294.735168
 20
523.351797
 30
0.0
 11
255.735168
 21
523.351797
 31
0.0
  0
LINE
  5
E5
330
7B
100
AcDbEntity
  8
0
  6
Continuous
 62
     0
370
    30
100
AcDbLine
 10
295.235168
 20
504.629225
 30
0.0
 11
295.235168
 21
523.095775
 31
0.0
  0
ELLIPSE
  5
E6
330
7B
100
AcDbEntity
  8
0
  6
Continuous
 62
     0
370
     0
100
AcDbEllipse
 10
294.735168
 20
523.095775
 30
0.0
 11
0.500000000000002
 21
0.0
 31
0.0
210
0.0
220
0.0
230
1.0
 40
0.512043
 41
-0.000000000000111
 42
1.570796326794897
  0
LINE
  5
E7
330
7B
100
AcDbEntity
  8
0
  6
Continuous
 62
     0
370
    30
100
AcDbLine
 10
295.235168
 20
523.095775
 30
0.0
 11
295.235168
 21
552.129225
 31
0.0
  0
ARC
  5
E8
330
7B
100
AcDbEntity
  8
0
  6
Continuous
 62
     0
370
    30
100
AcDbCircle
 10
294.735168
 20
552.129225
 30
0.0
 40
0.5000000000077574
100
AcDbArc
 50
0.0
 51
90.0
  0
LINE
  5
E9
330
7B
100
AcDbEntity
  8
0
  6
Continuous
 62
     0
370
     0
100
AcDbLine
 10
294.735168
 20
552.629225
 30
0.0
 11
294.735168
 21
523.351797
 31
0.0
  0
LINE
  5
EA
330
7B
100
AcDbEntity
  8
0
  6
Continuous
 62
     0
370
     0
100
AcDbLine
 10
255.735168
 20
523.351797
 30
0.0
 11
255.735168
 21
552.629225
 31
0.0
  0
ARC
  5
EB
330
7B
100
AcDbEntity
  8
0
  6
Continuous
 62
     0
370
    30
100
AcDbCircle
 10
255.735168
 20
552.129225
 30
0.0
 40
0.5000000000017781
100
AcDbArc
 50
90.0
 51
180.0
  0
LINE
  5
EC
330
7B
100
AcDbEntity
  8
0
  6
Continuous
 62
     0
370
    30
100
AcDbLine
 10
294.735168
 20
552.629225
 30
0.0
 11
255.735168
 21
552.629225
 31
0.0
  0
LINE
  5
ED
330
7B
100
AcDbEntity
  8
0
  6
Continuous
 62
     0
370
     0
100
AcDbLine
 10
294.735168
 20
504.629225
 30
0.0
 11
294.735168
 21
492.629225
 31
0.0
  0
LINE
  5
EE
330
7B
100
AcDbEntity
  8
0
  6
Continuous
 62
     0
370
     0
100
AcDbLine
 10
294.735168
 20
492.629225
 30
0.0
 11
295.235168
 21
492.629225
 31
0.0
  0
LINE
  5
EF
330
7B
100
AcDbEntity
  8
0
  6
Continuous
 62
     0
370
    30
100
AcDbLine
 10
295.235168
 20
492.629225
 30
0.0
 11
295.235168
 21
504.629225
 31
0.0
  0
LINE
  5
F0
330
7B
100
AcDbEntity
  8
0
  6
Continuous
 62
     0
370
     0
100
AcDbLine
 10
255.735168
 20
492.629225
 30
0.0
 11
255.735168
 21
504.629225
 31
0.0
  0
LINE
  5
F1
330
7B
100
AcDbEntity
  8
0
  6
Continuous
 62
     0
370
     0
100
AcDbLine
 10
294.735168
 20
492.629225
 30
0.0
 11
255.735168
 21
492.629225
 31
0.0
  0
LINE
  5
F2
330
7B
100
AcDbEntity
  8
0
  6
Continuous
 62
     0
370
     0
100
AcDbLine
 10
255.235168
 20
492.629225
 30
0.0
 11
255.735168
 21
492.629225
 31
0.0
  0
LINE
  5
F3
330
7B
100
AcDbEntity
  8
0
  6
Continuous
 62
     0
370
    30
100
AcDbLine
 10
295.235168
 20
492.629225
 30
0.0
 11
295.235168
 21
391.629225
 31
0.0
  0
LINE
  5
F4
330
7B
100
AcDbEntity
  8
0
  6
Continuous
 62
     0
370
     0
100
AcDbLine
 10
294.735168
 20
492.629225
 30
0.0
 11
294.735168
 21
391.629225
 31
0.0
  0
LINE
  5
F5
330
7B
100
AcDbEntity
  8
0
  6
Continuous
 62
     0
370
     0
100
AcDbLine
 10
255.735168
 20
492.629225
 30
0.0
 11
255.735168
 21
391.629225
 31
0.0
  0
ENDBLK
  5
F7
330
7B
100
AcDbEntity
  8
0
100
AcDbBlockEnd
  0
BLOCK
  5
1CC
330
F9
100
AcDbEntity
  8
0
100
AcDbBlockBegin
  2
b
 70
     0
 10
115.40905
 20
99.184387
 30
0.0
  3
b
  1

  0
LINE
  5
FA
330
F9
100
AcDbEntity
  8
0
  6
Continuous
 62
     0
370
     0
100
AcDbLine
 10
346.735168
 20
216.374929
 30
0.0
 11
347.235168
 21
216.374929
 31
0.0
  0
LINE
  5
FB
330
F9
100
AcDbEntity
  8
0
  6
Continuous
 62
     0
370
     0
100
AcDbLine
 10
347.235168
 20
216.374929
 30
0.0
 11
347.235168
 21
272.374929
 31
0.0
  0
LINE
  5
FC
330
F9
100
AcDbEntity
  8
0
  6
Continuous
 62
     0
370
     0
100
AcDbLine
 10
347.235168
 20
272.374929
 30
0.0
 11
346.735168
 21
272.374929
 31
0.0
  0
LINE
  5
FD
330
F9
100
AcDbEntity
  8
0
  6
Continuous
 62
     0
370
    30
100
AcDbLine
 10
346.735168
 20
272.374929
 30
0.0
 11
346.735168
 21
216.374929
 31
0.0
  0
LINE
  5
FE
330
F9
100
AcDbEntity
  8
0
  6
Continuous
 62
     0
370
     0
100
AcDbLine
 10
347.235168
 20
272.874929
 30
0.0
 11
347.235168
 21
272.374929
 31
0.0
  0
LINE
  5
FF
330
F9
100
AcDbEntity
  8
0
  6
Continuous
 62
     0
370
     0
100
AcDbLine
 10
347.235168
 20
272.374929
 30
0.0
 11
403.235168
 21
272.374929
 31
0.0
  0
LINE
  5
100
330
F9
100
AcDbEntity
  8
0
  6
Continuous
 62
     0
370
     0
100
AcDbLine
 10
403.235168
 20
272.374929
 30
0.0
 11
403.235168
 21
272.874929
 31
0.0
  0
LINE
  5
101
330
F9
100
AcDbEntity
  8
0
  6
Continuous
 62
     0
370
    30
100
AcDbLine
 10
403.235168
 20
272.874929
 30
0.0
 11
347.235168
 21
272.874929
 31
0.0
  0
LINE
  5
102
330
F9
100
AcDbEntity
  8
0
  6
Continuous
 62
     0
370
     0
100
AcDbLine
 10
403.735168
 20
272.374929
 30
0.0
 11
403.235168
 21
272.374929
 31
0.0
  0
LINE
  5
103
330
F9
100
AcDbEntity
  8
0
  6
Continuous
 62
     0
370
     0
100
AcDbLine
 10
403.235168
 20
272.374929
 30
0.0
 11
403.235168
 21
216.374929
 31
0.0
  0
LINE
  5
104
330
F9
100
AcDbEntity
  8
0
  6
Continuous
 62
     0
370
     0
100
AcDbLine
 10
403.235168
 20
216.374929
 30
0.0
 11
403.735168
 21
216.374929
 31
0.0
  0
LINE
  5
105
330
F9
100
AcDbEntity
  8
0
  6
Continuous
 62
     0
370
    30
100
AcDbLine
 10
403.735168
 20
216.374929
 30
0.0
 11
403.735168
 21
272.374929
 31
0.0
  0
ARC
  5
106
330
F9
100
AcDbEntity
  8
0
  6
Continuous
 62
     0
370
    30
100
AcDbCircle
 10
403.235168
 20
272.374929
 30
0.0
 40
0.4999999999993605
100
AcDbArc
 50
360.0
 51
90.0
  0
LINE
  5
107
330
F9
100
AcDbEntity
  8
0
  6
Continuous
 62
     0
370
     0
100
AcDbLine
 10
403.235168
 20
215.874929
 30
0.0
 11
403.235168
 21
216.374929
 31
0.0
  0
LINE
  5
108
330
F9
100
AcDbEntity
  8
0
  6
Continuous
 62
     0
370
     0
100
AcDbLine
 10
403.235168
 20
216.374929
 30
0.0
 11
347.235168
 21
216.374929
 31
0.0
  0
LINE
  5
109
330
F9
100
AcDbEntity
  8
0
  6
Continuous
 62
     0
370
     0
100
AcDbLine
 10
347.235168
 20
216.374929
 30
0.0
 11
347.235168
 21
215.874929
 31
0.0
  0
LINE
  5
10A
330
F9
100
AcDbEntity
  8
0
  6
Continuous
 62
     0
370
    30
100
AcDbLine
 10
347.235168
 20
215.874929
 30
0.0
 11
403.235168
 21
215.874929
 31
0.0
  0
ARC
  5
10B
330
F9
100
AcDbEntity
  8
0
  6
Continuous
 62
     0
370
    30
100
AcDbCircle
 10
403.235168
 20
216.374929
 30
0.0
 40
0.5000000000001084
100
AcDbArc
 50
270.0
 51
360.0
  0
ARC
  5
10C
330
F9
100
AcDbEntity
  8
0
  6
Continuous
 62
     0
370
    30
100
AcDbCircle
 10
347.235168
 20
272.374929
 30
0.0
 40
0.4999999999992362
100
AcDbArc
 50
90.0
 51
180.0
  0
ARC
  5
10D
330
F9
100
AcDbEntity
  8
0
  6
Continuous
 62
     0
370
    30
100
AcDbCircle
 10
347.235168
 20
216.374929
 30
0.0
 40
0.500000000001334
100
AcDbArc
 50
180.0
 51
270.0
  0
LINE
  5
10E
330
F9
100
AcDbEntity
  8
0
  6
Continuous
 62
     0
370
     0
100
AcDbLine
 10
394.735168
 20
256.374929
 30
0.0
 11
395.235168
 21
252.633272
 31
0.0
  0
LINE
  5
10F
330
F9
100
AcDbEntity
  8
0
  6
Continuous
 62
     0
370
     0
100
AcDbLine
 10
395.235168
 20
252.633272
 30
0.0
 11
395.735168
 21
252.633272
 31
0.0
  0
LINE
  5
110
330
F9
100
AcDbEntity
  8
0
  6
Continuous
 62
     0
370
     0
100
AcDbLine
 10
395.735168
 20
236.116586
 30
0.0
 11
395.235168
 21
236.116586
 31
0.0
  0
LINE
  5
111
330
F9
100
AcDbEntity
  8
0
  6
Continuous
 62
     0
370
     0
100
AcDbLine
 10
395.735168
 20
252.633272
 30
0.0
 11
395.735168
 21
236.116586
 31
0.0
  0
LINE
  5
112
330
F9
100
AcDbEntity
  8
0
  6
Continuous
 62
     0
370
    30
100
AcDbLine
 10
395.235168
 20
236.116586
 30
0.0
 11
394.735168
 21
232.374929
 31
0.0
  0
ARC
  5
113
330
F9
100
AcDbEntity
  8
0
  6
Continuous
 62
     0
370
     0
100
AcDbCircle
 10
384.665254
 20
237.070686
 30
0.0
 40
11.11095427391797
100
AcDbArc
 50
334.999631
 51
355.073934
  0
LINE
  5
114
330
F9
100
AcDbEntity
  8
0
  6
Continuous
 62
     0
370
    30
100
AcDbLine
 10
395.235168
 20
236.116586
 30
0.0
 11
395.235168
 21
239.874929
 31
0.0
  0
LWPOLYLINE
  5
115
330
F9
100
AcDbEntity
  8
0
  6
Continuous
 62
     0
370
     0
100
AcDbPolyline
 90
       17
 70
     0
 43
0.0
 10
394.735168
 20
239.374924
 10
394.735168
 20
239.337662
 10
394.735168
 20
239.227066
 10
394.735168
 20
239.046585
 10
394.735168
 20
238.801651
 10
394.735168
 20
238.499359
 10
394.735168
 20
238.147873
 10
394.735168
 20
237.756012
 10
394.735168
 20
237.332703
 10
394.735168
 20
236.870056
 10
394.735168
 20
236.353867
 10
394.735168
 20
235.786636
 10
394.735168
 20
235.172729
 10
394.735168
 20
234.518433
 10
394.735168
 20
233.831848
 10
394.735168
 20
233.12262
 10
394.735168
 20
232.374924
  0
LINE
  5
116
330
F9
100
AcDbEntity
  8
0
  6
Continuous
 62
     0
370
    30
100
AcDbLine
 10
395.235168
 20
252.633272
 30
0.0
 11
395.235168
 21
248.874929
 31
0.0
  0
LINE
  5
117
330
F9
100
AcDbEntity
  8
0
  6
Continuous
 62
     0
370
    30
100
AcDbLine
 10
395.235168
 20
248.874928
 30
0.0
 11
395.235168
 21
239.874928
 31
0.0
  0
LINE
  5
118
330
F9
100
AcDbEntity
  8
0
  6
Continuous
 62
     0
370
     0
100
AcDbLine
 10
394.735168
 20
256.374929
 30
0.0
 11
394.735168
 21
249.374929
 31
0.0
  0
LINE
  5
119
330
F9
100
AcDbEntity
  8
0
  6
Continuous
 62
     0
370
     0
100
AcDbLine
 10
355.235168
 20
236.116586
 30
0.0
 11
354.735168
 21
236.116586
 31
0.0
  0
LINE
  5
11A
330
F9
100
AcDbEntity
  8
0
  6
Continuous
 62
     0
370
     0
100
AcDbLine
 10
354.735168
 20
252.633272
 30
0.0
 11
355.235168
 21
252.633272
 31
0.0
  0
LINE
  5
11B
330
F9
100
AcDbEntity
  8
0
  6
Continuous
 62
     0
370
     0
100
AcDbLine
 10
354.735168
 20
236.116586
 30
0.0
 11
354.735168
 21
252.633272
 31
0.0
  0
ARC
  5
11C
330
F9
100
AcDbEntity
  8
0
  6
Continuous
 62
     0
370
     0
100
AcDbCircle
 10
365.830884
 20
237.077582
 30
0.0
 40
11.13725394607544
100
AcDbArc
 50
184.950012
 51
204.976423
  0
LINE
  5
11D
330
F9
100
AcDbEntity
  8
0
  6
Continuous
 62
     0
370
     0
100
AcDbLine
 10
355.735168
 20
232.374929
 30
0.0
 11
355.235168
 21
236.116586
 31
0.0
  0
LINE
  5
11E
330
F9
100
AcDbEntity
  8
0
  6
Continuous
 62
     0
370
     0
100
AcDbLine
 10
355.235168
 20
252.633272
 30
0.0
 11
355.735168
 21
256.374929
 31
0.0
  0
ARC
  5
11F
330
F9
100
AcDbEntity
  8
0
  6
Continuous
 62
     0
370
     0
100
AcDbCircle
 10
365.831781
 20
251.672036
 30
0.0
 40
11.13816794888719
100
AcDbArc
 50
155.024407
 51
175.049158
  0
LINE
  5
120
330
F9
100
AcDbEntity
  8
0
  6
Continuous
 62
     0
370
    30
100
AcDbLine
 10
355.235168
 20
252.633272
 30
0.0
 11
355.235168
 21
248.874929
 31
0.0
  0
LINE
  5
121
330
F9
100
AcDbEntity
  8
0
  6
Continuous
 62
     0
370
     0
100
AcDbLine
 10
355.735168
 20
249.374929
 30
0.0
 11
355.735168
 21
256.374929
 31
0.0
  0
LINE
  5
122
330
F9
100
AcDbEntity
  8
0
  6
Continuous
 62
     0
370
    30
100
AcDbLine
 10
355.235168
 20
236.116586
 30
0.0
 11
355.235168
 21
239.874929
 31
0.0
  0
LINE
  5
123
330
F9
100
AcDbEntity
  8
0
  6
Continuous
 62
     0
370
    30
100
AcDbLine
 10
355.235168
 20
239.874928
 30
0.0
 11
355.235168
 21
248.874928
 31
0.0
  0
LINE
  5
124
330
F9
100
AcDbEntity
  8
0
  6
Continuous
 62
     0
370
     0
100
AcDbLine
 10
395.235168
 20
239.874928
 30
0.0
 11
394.735168
 21
239.874928
 31
0.0
  0
LINE
  5
125
330
F9
100
AcDbEntity
  8
0
  6
Continuous
 62
     0
370
     0
100
AcDbLine
 10
394.735168
 20
239.874928
 30
0.0
 11
394.735168
 21
239.374928
 31
0.0
  0
ARC
  5
126
330
F9
100
AcDbEntity
  8
0
  6
Continuous
 62
     0
370
    30
100
AcDbCircle
 10
394.735168
 20
239.874928
 30
0.0
 40
0.4999999999976352
100
AcDbArc
 50
270.0
 51
0.0
  0
LWPOLYLINE
  5
127
330
F9
100
AcDbEntity
  8
0
  6
Continuous
 62
     0
370
     0
100
AcDbPolyline
 90
        5
 70
     0
 43
0.0
 10
355.735168
 20
239.374924
 10
355.735168
 20
239.409927
 10
355.735168
 20
239.520981
 10
355.735168
 20
239.690125
 10
355.735168
 20
239.874924
  0
LINE
  5
128
330
F9
100
AcDbEntity
  8
0
  6
Continuous
 62
     0
370
     0
100
AcDbLine
 10
355.735168
 20
239.874928
 30
0.0
 11
355.235168
 21
239.874928
 31
0.0
  0
ARC
  5
129
330
F9
100
AcDbEntity
  8
0
  6
Continuous
 62
     0
370
    30
100
AcDbCircle
 10
355.735168
 20
239.874928
 30
0.0
 40
0.4999999999992184
100
AcDbArc
 50
180.0
 51
270.0
  0
LINE
  5
12A
330
F9
100
AcDbEntity
  8
0
  6
Continuous
 62
     0
370
     0
100
AcDbLine
 10
394.735168
 20
249.374928
 30
0.0
 11
394.735168
 21
248.874928
 31
0.0
  0
LINE
  5
12B
330
F9
100
AcDbEntity
  8
0
  6
Continuous
 62
     0
370
     0
100
AcDbLine
 10
394.735168
 20
248.874928
 30
0.0
 11
395.235168
 21
248.874928
 31
0.0
  0
ARC
  5
12C
330
F9
100
AcDbEntity
  8
0
  6
Continuous
 62
     0
370
    30
100
AcDbCircle
 10
394.735168
 20
248.874928
 30
0.0
 40
0.5000000000024074
100
AcDbArc
 50
0.0
 51
90.0
  0
LINE
  5
12D
330
F9
100
AcDbEntity
  8
0
  6
Continuous
 62
     0
370
     0
100
AcDbLine
 10
355.235168
 20
248.874928
 30
0.0
 11
355.735168
 21
248.874928
 31
0.0
  0
LINE
  5
12E
330
F9
100
AcDbEntity
  8
0
  6
Continuous
 62
     0
370
     0
100
AcDbLine
 10
355.735168
 20
248.874928
 30
0.0
 11
355.735168
 21
249.374928
 31
0.0
  0
ARC
  5
12F
330
F9
100
AcDbEntity
  8
0
  6
Continuous
 62
     0
370
    30
100
AcDbCircle
 10
355.735168
 20
248.874928
 30
0.0
 40
0.5000000000001612
100
AcDbArc
 50
90.0
 51
180.0
  0
LINE
  5
130
330
F9
100
AcDbEntity
  8
0
  6
Continuous
 62
     0
370
    30
100
AcDbLine
 10
394.735168
 20
249.374928
 30
0.0
 11
355.735168
 21
249.374928
 31
0.0
  0
LINE
  5
131
330
F9
100
AcDbEntity
  8
0
  6
Continuous
 62
     0
370
     0
100
AcDbLine
 10
355.735168
 20
248.874928
 30
0.0
 11
394.735168
 21
248.874928
 31
0.0
  0
LINE
  5
132
330
F9
100
AcDbEntity
  8
0
  6
Continuous
 62
     0
370
     0
100
AcDbLine
 10
355.735168
 20
239.874928
 30
0.0
 11
355.735168
 21
248.874928
 31
0.0
  0
LINE
  5
133
330
F9
100
AcDbEntity
  8
0
  6
Continuous
 62
     0
370
     0
100
AcDbLine
 10
394.735168
 20
248.874928
 30
0.0
 11
394.735168
 21
239.874928
 31
0.0
  0
LINE
  5
134
330
F9
100
AcDbEntity
  8
0
  6
Continuous
 62
     0
370
    30
100
AcDbLine
 10
355.735168
 20
239.374928
 30
0.0
 11
394.735168
 21
239.374928
 31
0.0
  0
LINE
  5
135
330
F9
100
AcDbEntity
  8
0
  6
Continuous
 62
     0
370
     0
100
AcDbLine
 10
394.735168
 20
239.874928
 30
0.0
 11
355.735168
 21
239.874928
 31
0.0
  0
LINE
  5
136
330
F9
100
AcDbEntity
  8
0
  6
Continuous
 62
     0
370
     0
100
AcDbLine
 10
355.735168
 20
232.374929
 30
0.0
 11
355.735168
 21
239.374929
 31
0.0
  0
LINE
  5
137
330
F9
100
AcDbEntity
  8
0
  6
Continuous
 62
     0
370
     0
100
AcDbLine
 10
355.735168
 20
256.374929
 30
0.0
 11
394.735168
 21
256.374929
 31
0.0
  0
LINE
  5
138
330
F9
100
AcDbEntity
  8
0
  6
Continuous
 62
     0
370
     0
100
AcDbLine
 10
394.735168
 20
232.374929
 30
0.0
 11
355.735168
 21
232.374929
 31
0.0
  0
ARC
  5
139
330
F9
100
AcDbEntity
  8
0
  6
Continuous
 62
     0
370
    30
100
AcDbCircle
 10
375.235168
 20
244.374929
 30
0.0
 40
24.0
100
AcDbArc
 50
0.0
 51
180.0
  0
ARC
  5
13A
330
F9
100
AcDbEntity
  8
0
  6
Continuous
 62
     0
370
    30
100
AcDbCircle
 10
375.235168
 20
244.374929
 30
0.0
 40
24.0
100
AcDbArc
 50
180.0
 51
360.0
  0
ARC
  5
13B
330
F9
100
AcDbEntity
  8
0
  6
Continuous
 62
     0
370
     0
100
AcDbCircle
 10
384.663232
 20
251.677226
 30
0.0
 40
11.11313640145413
100
AcDbArc
 50
4.935165
 51
24.965942
  0
LINE
  5
13C
330
F9
100
AcDbEntity
  8
0
  6
Continuous
 62
     0
370
    30
100
AcDbLine
 10
203.735168
 20
272.374929
 30
0.0
 11
203.735168
 21
216.374929
 31
0.0
  0
LINE
  5
13D
330
F9
100
AcDbEntity
  8
0
  6
Continuous
 62
     0
370
     0
100
AcDbLine
 10
203.235168
 20
272.374929
 30
0.0
 11
203.735168
 21
272.374929
 31
0.0
  0
LINE
  5
13E
330
F9
100
AcDbEntity
  8
0
  6
Continuous
 62
     0
370
     0
100
AcDbLine
 10
203.235168
 20
216.374929
 30
0.0
 11
203.235168
 21
272.374929
 31
0.0
  0
LINE
  5
13F
330
F9
100
AcDbEntity
  8
0
  6
Continuous
 62
     0
370
     0
100
AcDbLine
 10
203.735168
 20
216.374929
 30
0.0
 11
203.235168
 21
216.374929
 31
0.0
  0
LINE
  5
140
330
F9
100
AcDbEntity
  8
0
  6
Continuous
 62
     0
370
    30
100
AcDbLine
 10
147.235168
 20
272.874929
 30
0.0
 11
203.235168
 21
272.874929
 31
0.0
  0
LINE
  5
141
330
F9
100
AcDbEntity
  8
0
  6
Continuous
 62
     0
370
     0
100
AcDbLine
 10
147.235168
 20
272.374929
 30
0.0
 11
147.235168
 21
272.874929
 31
0.0
  0
LINE
  5
142
330
F9
100
AcDbEntity
  8
0
  6
Continuous
 62
     0
370
     0
100
AcDbLine
 10
203.235168
 20
272.374929
 30
0.0
 11
147.235168
 21
272.374929
 31
0.0
  0
LINE
  5
143
330
F9
100
AcDbEntity
  8
0
  6
Continuous
 62
     0
370
     0
100
AcDbLine
 10
203.235168
 20
272.874929
 30
0.0
 11
203.235168
 21
272.374929
 31
0.0
  0
LINE
  5
144
330
F9
100
AcDbEntity
  8
0
  6
Continuous
 62
     0
370
    30
100
AcDbLine
 10
146.735168
 20
216.374929
 30
0.0
 11
146.735168
 21
272.374929
 31
0.0
  0
LINE
  5
145
330
F9
100
AcDbEntity
  8
0
  6
Continuous
 62
     0
370
     0
100
AcDbLine
 10
147.235168
 20
216.374929
 30
0.0
 11
146.735168
 21
216.374929
 31
0.0
  0
LINE
  5
146
330
F9
100
AcDbEntity
  8
0
  6
Continuous
 62
     0
370
     0
100
AcDbLine
 10
147.235168
 20
272.374929
 30
0.0
 11
147.235168
 21
216.374929
 31
0.0
  0
LINE
  5
147
330
F9
100
AcDbEntity
  8
0
  6
Continuous
 62
     0
370
     0
100
AcDbLine
 10
146.735168
 20
272.374929
 30
0.0
 11
147.235168
 21
272.374929
 31
0.0
  0
ARC
  5
148
330
F9
100
AcDbEntity
  8
0
  6
Continuous
 62
     0
370
    30
100
AcDbCircle
 10
147.235168
 20
272.374929
 30
0.0
 40
0.4999999999988844
100
AcDbArc
 50
90.0
 51
180.0
  0
LINE
  5
149
330
F9
100
AcDbEntity
  8
0
  6
Continuous
 62
     0
370
    30
100
AcDbLine
 10
203.235168
 20
215.874929
 30
0.0
 11
147.235168
 21
215.874929
 31
0.0
  0
LINE
  5
14A
330
F9
100
AcDbEntity
  8
0
  6
Continuous
 62
     0
370
     0
100
AcDbLine
 10
203.235168
 20
216.374929
 30
0.0
 11
203.235168
 21
215.874929
 31
0.0
  0
LINE
  5
14B
330
F9
100
AcDbEntity
  8
0
  6
Continuous
 62
     0
370
     0
100
AcDbLine
 10
147.235168
 20
216.374929
 30
0.0
 11
203.235168
 21
216.374929
 31
0.0
  0
LINE
  5
14C
330
F9
100
AcDbEntity
  8
0
  6
Continuous
 62
     0
370
     0
100
AcDbLine
 10
147.235168
 20
215.874929
 30
0.0
 11
147.235168
 21
216.374929
 31
0.0
  0
ARC
  5
14D
330
F9
100
AcDbEntity
  8
0
  6
Continuous
 62
     0
370
    30
100
AcDbCircle
 10
147.235168
 20
216.374929
 30
0.0
 40
0.49999999999722
100
AcDbArc
 50
180.0
 51
270.0
  0
ARC
  5
14E
330
F9
100
AcDbEntity
  8
0
  6
Continuous
 62
     0
370
    30
100
AcDbCircle
 10
203.235168
 20
272.374929
 30
0.0
 40
0.5000000000003357
100
AcDbArc
 50
0.0
 51
90.0
  0
ARC
  5
14F
330
F9
100
AcDbEntity
  8
0
  6
Continuous
 62
     0
370
    30
100
AcDbCircle
 10
203.235168
 20
216.374929
 30
0.0
 40
0.500000000000453
100
AcDbArc
 50
270.0
 51
360.0
  0
LINE
  5
150
330
F9
100
AcDbEntity
  8
0
  6
Continuous
 62
     0
370
     0
100
AcDbLine
 10
155.235168
 20
252.633272
 30
0.0
 11
154.735168
 21
252.633272
 31
0.0
  0
LINE
  5
151
330
F9
100
AcDbEntity
  8
0
  6
Continuous
 62
     0
370
     0
100
AcDbLine
 10
155.735168
 20
256.374929
 30
0.0
 11
155.235168
 21
252.633272
 31
0.0
  0
LINE
  5
152
330
F9
100
AcDbEntity
  8
0
  6
Continuous
 62
     0
370
     0
100
AcDbLine
 10
154.735168
 20
252.633272
 30
0.0
 11
154.735168
 21
236.116586
 31
0.0
  0
LINE
  5
153
330
F9
100
AcDbEntity
  8
0
  6
Continuous
 62
     0
370
     0
100
AcDbLine
 10
154.735168
 20
236.116586
 30
0.0
 11
155.235168
 21
236.116586
 31
0.0
  0
ARC
  5
154
330
F9
100
AcDbEntity
  8
0
  6
Continuous
 62
     0
370
     0
100
AcDbCircle
 10
165.805083
 20
237.070686
 30
0.0
 40
11.11095427389366
100
AcDbArc
 50
184.926066
 51
205.000369
  0
LINE
  5
155
330
F9
100
AcDbEntity
  8
0
  6
Continuous
 62
     0
370
    30
100
AcDbLine
 10
155.235168
 20
236.116586
 30
0.0
 11
155.735168
 21
232.374929
 31
0.0
  0
LWPOLYLINE
  5
156
330
F9
100
AcDbEntity
  8
0
  6
Continuous
 62
     0
370
     0
100
AcDbPolyline
 90
       17
 70
     0
 43
0.0
 10
155.735168
 20
239.374924
 10
155.735168
 20
239.337662
 10
155.735168
 20
239.227066
 10
155.735168
 20
239.046585
 10
155.735168
 20
238.801651
 10
155.735168
 20
238.499359
 10
155.735168
 20
238.147873
 10
155.735168
 20
237.756012
 10
155.735168
 20
237.332703
 10
155.735168
 20
236.870056
 10
155.735168
 20
236.353867
 10
155.735168
 20
235.786636
 10
155.735168
 20
235.172729
 10
155.735168
 20
234.518433
 10
155.735168
 20
233.831848
 10
155.735168
 20
233.12262
 10
155.735168
 20
232.374924
  0
LINE
  5
157
330
F9
100
AcDbEntity
  8
0
  6
Continuous
 62
     0
370
    30
100
AcDbLine
 10
155.235168
 20
236.116586
 30
0.0
 11
155.235168
 21
239.874929
 31
0.0
  0
LINE
  5
158
330
F9
100
AcDbEntity
  8
0
  6
Continuous
 62
     0
370
    30
100
AcDbLine
 10
155.235168
 20
248.874928
 30
0.0
 11
155.235168
 21
239.874928
 31
0.0
  0
LINE
  5
159
330
F9
100
AcDbEntity
  8
0
  6
Continuous
 62
     0
370
    30
100
AcDbLine
 10
155.235168
 20
252.633272
 30
0.0
 11
155.235168
 21
248.874929
 31
0.0
  0
LINE
  5
15A
330
F9
100
AcDbEntity
  8
0
  6
Continuous
 62
     0
370
     0
100
AcDbLine
 10
155.735168
 20
256.374929
 30
0.0
 11
155.735168
 21
249.374929
 31
0.0
  0
LINE
  5
15B
330
F9
100
AcDbEntity
  8
0
  6
Continuous
 62
     0
370
     0
100
AcDbLine
 10
195.735168
 20
236.116586
 30
0.0
 11
195.735168
 21
252.633272
 31
0.0
  0
LINE
  5
15C
330
F9
100
AcDbEntity
  8
0
  6
Continuous
 62
     0
370
     0
100
AcDbLine
 10
195.735168
 20
252.633272
 30
0.0
 11
195.235168
 21
252.633272
 31
0.0
  0
LINE
  5
15D
330
F9
100
AcDbEntity
  8
0
  6
Continuous
 62
     0
370
     0
100
AcDbLine
 10
195.235168
 20
236.116586
 30
0.0
 11
195.735168
 21
236.116586
 31
0.0
  0
LINE
  5
15E
330
F9
100
AcDbEntity
  8
0
  6
Continuous
 62
     0
370
     0
100
AcDbLine
 10
194.735168
 20
232.374929
 30
0.0
 11
195.235168
 21
236.116586
 31
0.0
  0
ARC
  5
15F
330
F9
100
AcDbEntity
  8
0
  6
Continuous
 62
     0
370
     0
100
AcDbCircle
 10
184.638556
 20
251.672036
 30
0.0
 40
11.13816794889307
100
AcDbArc
 50
4.950842
 51
24.975593
  0
LINE
  5
160
330
F9
100
AcDbEntity
  8
0
  6
Continuous
 62
     0
370
     0
100
AcDbLine
 10
195.235168
 20
252.633272
 30
0.0
 11
194.735168
 21
256.374929
 31
0.0
  0
LINE
  5
161
330
F9
100
AcDbEntity
  8
0
  6
Continuous
 62
     0
370
     0
100
AcDbLine
 10
194.735168
 20
249.374929
 30
0.0
 11
194.735168
 21
256.374929
 31
0.0
  0
LINE
  5
162
330
F9
100
AcDbEntity
  8
0
  6
Continuous
 62
     0
370
    30
100
AcDbLine
 10
195.235168
 20
252.633272
 30
0.0
 11
195.235168
 21
248.874929
 31
0.0
  0
LINE
  5
163
330
F9
100
AcDbEntity
  8
0
  6
Continuous
 62
     0
370
    30
100
AcDbLine
 10
195.235168
 20
239.874928
 30
0.0
 11
195.235168
 21
248.874928
 31
0.0
  0
LINE
  5
164
330
F9
100
AcDbEntity
  8
0
  6
Continuous
 62
     0
370
    30
100
AcDbLine
 10
195.235168
 20
236.116586
 30
0.0
 11
195.235168
 21
239.874929
 31
0.0
  0
ARC
  5
165
330
F9
100
AcDbEntity
  8
0
  6
Continuous
 62
     0
370
    30
100
AcDbCircle
 10
155.735168
 20
239.874928
 30
0.0
 40
0.5000000000004183
100
AcDbArc
 50
180.0
 51
270.0
  0
LINE
  5
166
330
F9
100
AcDbEntity
  8
0
  6
Continuous
 62
     0
370
     0
100
AcDbLine
 10
155.735168
 20
239.874928
 30
0.0
 11
155.735168
 21
239.374928
 31
0.0
  0
LINE
  5
167
330
F9
100
AcDbEntity
  8
0
  6
Continuous
 62
     0
370
     0
100
AcDbLine
 10
155.235168
 20
239.874928
 30
0.0
 11
155.735168
 21
239.874928
 31
0.0
  0
ARC
  5
168
330
F9
100
AcDbEntity
  8
0
  6
Continuous
 62
     0
370
    30
100
AcDbCircle
 10
194.735168
 20
239.874928
 30
0.0
 40
0.4999999999997189
100
AcDbArc
 50
270.0
 51
360.0
  0
LINE
  5
169
330
F9
100
AcDbEntity
  8
0
  6
Continuous
 62
     0
370
     0
100
AcDbLine
 10
194.735168
 20
239.874928
 30
0.0
 11
195.235168
 21
239.874928
 31
0.0
  0
LWPOLYLINE
  5
16A
330
F9
100
AcDbEntity
  8
0
  6
Continuous
 62
     0
370
     0
100
AcDbPolyline
 90
        5
 70
     0
 43
0.0
 10
194.735168
 20
239.374924
 10
194.735168
 20
239.409927
 10
194.735168
 20
239.520981
 10
194.735168
 20
239.690125
 10
194.735168
 20
239.874924
  0
ARC
  5
16B
330
F9
100
AcDbEntity
  8
0
  6
Continuous
 62
     0
370
    30
100
AcDbCircle
 10
155.735168
 20
248.874928
 30
0.0
 40
0.5000000000024349
100
AcDbArc
 50
90.0
 51
180.0
  0
LINE
  5
16C
330
F9
100
AcDbEntity
  8
0
  6
Continuous
 62
     0
370
     0
100
AcDbLine
 10
155.735168
 20
248.874928
 30
0.0
 11
155.235168
 21
248.874928
 31
0.0
  0
LINE
  5
16D
330
F9
100
AcDbEntity
  8
0
  6
Continuous
 62
     0
370
     0
100
AcDbLine
 10
155.735168
 20
249.374928
 30
0.0
 11
155.735168
 21
248.874928
 31
0.0
  0
ARC
  5
16E
330
F9
100
AcDbEntity
  8
0
  6
Continuous
 62
     0
370
    30
100
AcDbCircle
 10
194.735168
 20
248.874928
 30
0.0
 40
0.500000000000695
100
AcDbArc
 50
0.0
 51
90.0
  0
LINE
  5
16F
330
F9
100
AcDbEntity
  8
0
  6
Continuous
 62
     0
370
     0
100
AcDbLine
 10
194.735168
 20
248.874928
 30
0.0
 11
194.735168
 21
249.374928
 31
0.0
  0
LINE
  5
170
330
F9
100
AcDbEntity
  8
0
  6
Continuous
 62
     0
370
     0
100
AcDbLine
 10
195.235168
 20
248.874928
 30
0.0
 11
194.735168
 21
248.874928
 31
0.0
  0
LINE
  5
171
330
F9
100
AcDbEntity
  8
0
  6
Continuous
 62
     0
370
     0
100
AcDbLine
 10
194.735168
 20
248.874928
 30
0.0
 11
155.735168
 21
248.874928
 31
0.0
  0
LINE
  5
172
330
F9
100
AcDbEntity
  8
0
  6
Continuous
 62
     0
370
    30
100
AcDbLine
 10
155.735168
 20
249.374928
 30
0.0
 11
194.735168
 21
249.374928
 31
0.0
  0
LINE
  5
173
330
F9
100
AcDbEntity
  8
0
  6
Continuous
 62
     0
370
     0
100
AcDbLine
 10
194.735168
 20
239.874928
 30
0.0
 11
194.735168
 21
248.874928
 31
0.0
  0
LINE
  5
174
330
F9
100
AcDbEntity
  8
0
  6
Continuous
 62
     0
370
     0
100
AcDbLine
 10
155.735168
 20
248.874928
 30
0.0
 11
155.735168
 21
239.874928
 31
0.0
  0
LINE
  5
175
330
F9
100
AcDbEntity
  8
0
  6
Continuous
 62
     0
370
     0
100
AcDbLine
 10
155.735168
 20
239.874928
 30
0.0
 11
194.735168
 21
239.874928
 31
0.0
  0
LINE
  5
176
330
F9
100
AcDbEntity
  8
0
  6
Continuous
 62
     0
370
    30
100
AcDbLine
 10
194.735168
 20
239.374928
 30
0.0
 11
155.735168
 21
239.374928
 31
0.0
  0
LINE
  5
177
330
F9
100
AcDbEntity
  8
0
  6
Continuous
 62
     0
370
     0
100
AcDbLine
 10
194.735168
 20
232.374929
 30
0.0
 11
194.735168
 21
239.374929
 31
0.0
  0
LINE
  5
178
330
F9
100
AcDbEntity
  8
0
  6
Continuous
 62
     0
370
     0
100
AcDbLine
 10
194.735168
 20
256.374929
 30
0.0
 11
155.735168
 21
256.374929
 31
0.0
  0
LINE
  5
179
330
F9
100
AcDbEntity
  8
0
  6
Continuous
 62
     0
370
     0
100
AcDbLine
 10
155.735168
 20
232.374929
 30
0.0
 11
194.735168
 21
232.374929
 31
0.0
  0
ARC
  5
17A
330
F9
100
AcDbEntity
  8
0
  6
Continuous
 62
     0
370
    30
100
AcDbCircle
 10
175.235168
 20
244.374929
 30
0.0
 40
24.0
100
AcDbArc
 50
180.0
 51
360.0
  0
ARC
  5
17B
330
F9
100
AcDbEntity
  8
0
  6
Continuous
 62
     0
370
    30
100
AcDbCircle
 10
175.235168
 20
244.374929
 30
0.0
 40
24.0
100
AcDbArc
 50
0.0
 51
180.0
  0
ARC
  5
17C
330
F9
100
AcDbEntity
  8
0
  6
Continuous
 62
     0
370
     0
100
AcDbCircle
 10
184.663232
 20
237.072632
 30
0.0
 40
11.11313640192368
100
AcDbArc
 50
335.034058
 51
355.064835
  0
ARC
  5
17D
330
F9
100
AcDbEntity
  8
0
  6
Continuous
 62
     0
370
     0
100
AcDbCircle
 10
165.807105
 20
251.677226
 30
0.0
 40
11.11313640145736
100
AcDbArc
 50
155.034058
 51
175.064835
  0
ARC
  5
17E
330
F9
100
AcDbEntity
  8
0
  6
Continuous
 62
     0
370
    30
100
AcDbCircle
 10
275.235168
 20
244.374929
 30
0.0
 40
24.0
100
AcDbArc
 50
326.44269
 51
90.0
  0
ARC
  5
17F
330
F9
100
AcDbEntity
  8
0
  6
Continuous
 62
     0
370
    30
100
AcDbCircle
 10
275.235168
 20
244.374929
 30
0.0
 40
24.0
100
AcDbArc
 50
90.0
 51
213.55731
  0
LINE
  5
180
330
F9
100
AcDbEntity
  8
0
  6
Continuous
 62
     0
370
     0
100
AcDbLine
 10
246.735168
 20
216.374929
 30
0.0
 11
247.235168
 21
216.374929
 31
0.0
  0
LINE
  5
181
330
F9
100
AcDbEntity
  8
0
  6
Continuous
 62
     0
370
     0
100
AcDbLine
 10
247.235168
 20
216.374929
 30
0.0
 11
247.235168
 21
272.374929
 31
0.0
  0
LINE
  5
182
330
F9
100
AcDbEntity
  8
0
  6
Continuous
 62
     0
370
     0
100
AcDbLine
 10
247.235168
 20
272.374929
 30
0.0
 11
246.735168
 21
272.374929
 31
0.0
  0
LINE
  5
183
330
F9
100
AcDbEntity
  8
0
  6
Continuous
 62
     0
370
    30
100
AcDbLine
 10
246.735168
 20
272.374929
 30
0.0
 11
246.735168
 21
216.374929
 31
0.0
  0
LINE
  5
184
330
F9
100
AcDbEntity
  8
0
  6
Continuous
 62
     0
370
     0
100
AcDbLine
 10
247.235168
 20
272.874929
 30
0.0
 11
247.235168
 21
272.374929
 31
0.0
  0
LINE
  5
185
330
F9
100
AcDbEntity
  8
0
  6
Continuous
 62
     0
370
     0
100
AcDbLine
 10
247.235168
 20
272.374929
 30
0.0
 11
303.235168
 21
272.374929
 31
0.0
  0
LINE
  5
186
330
F9
100
AcDbEntity
  8
0
  6
Continuous
 62
     0
370
     0
100
AcDbLine
 10
303.235168
 20
272.374929
 30
0.0
 11
303.235168
 21
272.874929
 31
0.0
  0
LINE
  5
187
330
F9
100
AcDbEntity
  8
0
  6
Continuous
 62
     0
370
    30
100
AcDbLine
 10
303.235168
 20
272.874929
 30
0.0
 11
247.235168
 21
272.874929
 31
0.0
  0
LINE
  5
188
330
F9
100
AcDbEntity
  8
0
  6
Continuous
 62
     0
370
     0
100
AcDbLine
 10
303.735168
 20
272.374929
 30
0.0
 11
303.235168
 21
272.374929
 31
0.0
  0
LINE
  5
189
330
F9
100
AcDbEntity
  8
0
  6
Continuous
 62
     0
370
     0
100
AcDbLine
 10
303.235168
 20
272.374929
 30
0.0
 11
303.235168
 21
216.374929
 31
0.0
  0
LINE
  5
18A
330
F9
100
AcDbEntity
  8
0
  6
Continuous
 62
     0
370
     0
100
AcDbLine
 10
303.235168
 20
216.374929
 30
0.0
 11
303.735168
 21
216.374929
 31
0.0
  0
LINE
  5
18B
330
F9
100
AcDbEntity
  8
0
  6
Continuous
 62
     0
370
    30
100
AcDbLine
 10
303.735168
 20
216.374929
 30
0.0
 11
303.735168
 21
272.374929
 31
0.0
  0
ARC
  5
18C
330
F9
100
AcDbEntity
  8
0
  6
Continuous
 62
     0
370
    30
100
AcDbCircle
 10
303.235168
 20
272.374929
 30
0.0
 40
0.4999999999996572
100
AcDbArc
 50
360.0
 51
90.0
  0
LINE
  5
18D
330
F9
100
AcDbEntity
  8
0
  6
Continuous
 62
     0
370
     0
100
AcDbLine
 10
303.235168
 20
215.874929
 30
0.0
 11
303.235168
 21
216.374929
 31
0.0
  0
LINE
  5
18E
330
F9
100
AcDbEntity
  8
0
  6
Continuous
 62
     0
370
     0
100
AcDbLine
 10
255.235168
 20
216.374929
 30
0.0
 11
247.235168
 21
216.374929
 31
0.0
  0
LINE
  5
18F
330
F9
100
AcDbEntity
  8
0
  6
Continuous
 62
     0
370
     0
100
AcDbLine
 10
303.235168
 20
216.374929
 30
0.0
 11
295.235168
 21
216.374929
 31
0.0
  0
LINE
  5
190
330
F9
100
AcDbEntity
  8
0
  6
Continuous
 62
     0
370
     0
100
AcDbLine
 10
247.235168
 20
216.374929
 30
0.0
 11
247.235168
 21
215.874929
 31
0.0
  0
LINE
  5
191
330
F9
100
AcDbEntity
  8
0
  6
Continuous
 62
     0
370
    30
100
AcDbLine
 10
295.235168
 20
215.874929
 30
0.0
 11
303.235168
 21
215.874929
 31
0.0
  0
LINE
  5
192
330
F9
100
AcDbEntity
  8
0
  6
Continuous
 62
     0
370
    30
100
AcDbLine
 10
247.235168
 20
215.874929
 30
0.0
 11
255.235168
 21
215.874929
 31
0.0
  0
ARC
  5
193
330
F9
100
AcDbEntity
  8
0
  6
Continuous
 62
     0
370
    30
100
AcDbCircle
 10
303.235168
 20
216.374929
 30
0.0
 40
0.500000000000254
100
AcDbArc
 50
270.0
 51
360.0
  0
ARC
  5
194
330
F9
100
AcDbEntity
  8
0
  6
Continuous
 62
     0
370
    30
100
AcDbCircle
 10
247.235168
 20
272.374929
 30
0.0
 40
0.5000000000005951
100
AcDbArc
 50
90.0
 51
180.0
  0
ARC
  5
195
330
F9
100
AcDbEntity
  8
0
  6
Continuous
 62
     0
370
    30
100
AcDbCircle
 10
247.235168
 20
216.374929
 30
0.0
 40
0.5000000000000373
100
AcDbArc
 50
180.0
 51
270.0
  0
ARC
  5
196
330
F9
100
AcDbEntity
  8
0
  6
Continuous
 62
     0
370
    30
100
AcDbCircle
 10
275.235168
 20
244.374929
 30
0.0
 40
24.24999999999996
100
AcDbArc
 50
325.56237
 51
360.0
  0
ARC
  5
197
330
F9
100
AcDbEntity
  8
0
  6
Continuous
 62
     0
370
    30
100
AcDbCircle
 10
275.235168
 20
244.374929
 30
0.0
 40
24.24999999999998
100
AcDbArc
 50
180.0
 51
214.43763
  0
ARC
  5
198
330
F9
100
AcDbEntity
  8
0
  6
Continuous
 62
     0
370
    30
100
AcDbCircle
 10
275.235168
 20
244.374929
 30
0.0
 40
24.25000000000001
100
AcDbArc
 50
0.0
 51
180.0
  0
ARC
  5
199
330
F9
100
AcDbEntity
  8
0
  6
Continuous
 62
     0
370
    30
100
AcDbCircle
 10
278.735168
 20
256.374927
 30
0.0
 40
0.5
100
AcDbArc
 50
270.0
 51
0.0
  0
LINE
  5
19A
330
F9
100
AcDbEntity
  8
0
  6
Continuous
 62
     0
370
    30
100
AcDbLine
 10
279.235168
 20
263.374927
 30
0.0
 11
279.235168
 21
256.374927
 31
0.0
  0
ARC
  5
19B
330
F9
100
AcDbEntity
  8
0
  6
Continuous
 62
     0
370
    30
100
AcDbCircle
 10
278.735168
 20
263.374927
 30
0.0
 40
0.5
100
AcDbArc
 50
0.0
 51
90.0
  0
LINE
  5
19C
330
F9
100
AcDbEntity
  8
0
  6
Continuous
 62
     0
370
    30
100
AcDbLine
 10
271.735168
 20
263.874927
 30
0.0
 11
278.735168
 21
263.874927
 31
0.0
  0
LINE
  5
19D
330
F9
100
AcDbEntity
  8
0
  6
Continuous
 62
     0
370
     0
100
AcDbLine
 10
271.735168
 20
263.374927
 30
0.0
 11
271.235168
 21
263.374927
 31
0.0
  0
LINE
  5
19E
330
F9
100
AcDbEntity
  8
0
  6
Continuous
 62
     0
370
    30
100
AcDbLine
 10
271.235168
 20
263.374927
 30
0.0
 11
271.235168
 21
256.374927
 31
0.0
  0
LINE
  5
19F
330
F9
100
AcDbEntity
  8
0
  6
Continuous
 62
     0
370
     0
100
AcDbLine
 10
271.235168
 20
256.374927
 30
0.0
 11
271.735168
 21
256.374927
 31
0.0
  0
LINE
  5
1A0
330
F9
100
AcDbEntity
  8
0
  6
Continuous
 62
     0
370
     0
100
AcDbLine
 10
271.735168
 20
256.374927
 30
0.0
 11
271.735168
 21
263.374927
 31
0.0
  0
LINE
  5
1A1
330
F9
100
AcDbEntity
  8
0
  6
Continuous
 62
     0
370
     0
100
AcDbLine
 10
278.735168
 20
263.374927
 30
0.0
 11
278.735168
 21
263.874927
 31
0.0
  0
LINE
  5
1A2
330
F9
100
AcDbEntity
  8
0
  6
Continuous
 62
     0
370
     0
100
AcDbLine
 10
271.735168
 20
263.874927
 30
0.0
 11
271.735168
 21
263.374927
 31
0.0
  0
LINE
  5
1A3
330
F9
100
AcDbEntity
  8
0
  6
Continuous
 62
     0
370
     0
100
AcDbLine
 10
271.735168
 20
263.374927
 30
0.0
 11
278.735168
 21
263.374927
 31
0.0
  0
LINE
  5
1A4
330
F9
100
AcDbEntity
  8
0
  6
Continuous
 62
     0
370
     0
100
AcDbLine
 10
278.735168
 20
256.374927
 30
0.0
 11
279.235168
 21
256.374927
 31
0.0
  0
LINE
  5
1A5
330
F9
100
AcDbEntity
  8
0
  6
Continuous
 62
     0
370
     0
100
AcDbLine
 10
279.235168
 20
263.374927
 30
0.0
 11
278.735168
 21
263.374927
 31
0.0
  0
LINE
  5
1A6
330
F9
100
AcDbEntity
  8
0
  6
Continuous
 62
     0
370
     0
100
AcDbLine
 10
278.735168
 20
263.374927
 30
0.0
 11
278.735168
 21
256.374927
 31
0.0
  0
ARC
  5
1A7
330
F9
100
AcDbEntity
  8
0
  6
Continuous
 62
     0
370
    30
100
AcDbCircle
 10
271.735168
 20
263.374927
 30
0.0
 40
0.5000000000001035
100
AcDbArc
 50
90.0
 51
180.0
  0
LINE
  5
1A8
330
F9
100
AcDbEntity
  8
0
  6
Continuous
 62
     0
370
     0
100
AcDbLine
 10
271.735168
 20
256.374927
 30
0.0
 11
271.735168
 21
255.874927
 31
0.0
  0
LINE
  5
1A9
330
F9
100
AcDbEntity
  8
0
  6
Continuous
 62
     0
370
    30
100
AcDbLine
 10
271.735168
 20
255.874927
 30
0.0
 11
278.735168
 21
255.874927
 31
0.0
  0
LINE
  5
1AA
330
F9
100
AcDbEntity
  8
0
  6
Continuous
 62
     0
370
     0
100
AcDbLine
 10
278.735168
 20
255.874927
 30
0.0
 11
278.735168
 21
256.374927
 31
0.0
  0
LINE
  5
1AB
330
F9
100
AcDbEntity
  8
0
  6
Continuous
 62
     0
370
     0
100
AcDbLine
 10
278.735168
 20
256.374927
 30
0.0
 11
271.735168
 21
256.374927
 31
0.0
  0
ARC
  5
1AC
330
F9
100
AcDbEntity
  8
0
  6
Continuous
 62
     0
370
    30
100
AcDbCircle
 10
271.735168
 20
256.374927
 30
0.0
 40
0.4999999999999654
100
AcDbArc
 50
180.0
 51
270.0
  0
ARC
  5
1AD
330
F9
100
AcDbEntity
  8
0
  6
Continuous
 62
     0
370
    30
100
AcDbCircle
 10
255.779588
 20
94.91473
 30
0.0
 40
0.5457552033716914
100
AcDbArc
 50
175.991066
 51
265.331447
  0
ARC
  5
1AE
330
F9
100
AcDbEntity
  8
0
  6
Continuous
 62
     0
370
    30
100
AcDbCircle
 10
294.690749
 20
94.91473
 30
0.0
 40
0.5457551947049305
100
AcDbArc
 50
274.668552
 51
4.00893
  0
LINE
  5
1AF
330
F9
100
AcDbEntity
  8
0
  6
Continuous
 62
     0
370
    30
100
AcDbLine
 10
255.735168
 20
94.370786
 30
0.0
 11
294.735168
 21
94.370786
 31
0.0
  0
LINE
  5
1B0
330
F9
100
AcDbEntity
  8
0
  6
Continuous
 62
     0
370
    30
100
AcDbLine
 10
255.235168
 20
94.952885
 30
0.0
 11
255.235168
 21
105.961158
 31
0.0
  0
LINE
  5
1B1
330
F9
100
AcDbEntity
  8
0
  6
Continuous
 62
     0
370
    30
100
AcDbLine
 10
255.235168
 20
105.961158
 30
0.0
 11
255.235168
 21
157.069271
 31
0.0
  0
LINE
  5
1B2
330
F9
100
AcDbEntity
  8
0
  6
Continuous
 62
     0
370
    30
100
AcDbLine
 10
255.235168
 20
157.069271
 30
0.0
 11
255.235168
 21
189.374922
 31
0.0
  0
LINE
  5
1B3
330
F9
100
AcDbEntity
  8
0
  6
Continuous
 62
     0
370
    30
100
AcDbLine
 10
255.235168
 20
189.374922
 30
0.0
 11
255.235168
 21
248.874925
 31
0.0
  0
LINE
  5
1B4
330
F9
100
AcDbEntity
  8
0
  6
Continuous
 62
     0
370
     0
100
AcDbLine
 10
255.735168
 20
94.370786
 30
0.0
 11
255.735168
 21
105.531678
 31
0.0
  0
ARC
  5
1B5
330
F9
100
AcDbEntity
  8
0
  6
Continuous
 62
     0
370
     0
100
AcDbCircle
 10
255.702395
 20
105.999313
 30
0.0
 40
0.4687818374936292
100
AcDbArc
 50
184.668552
 51
274.008934
  0
LINE
  5
1B6
330
F9
100
AcDbEntity
  8
0
  6
Continuous
 62
     0
370
     0
100
AcDbLine
 10
294.735168
 20
94.370786
 30
0.0
 11
294.735168
 21
105.531678
 31
0.0
  0
LINE
  5
1B7
330
F9
100
AcDbEntity
  8
0
  6
Continuous
 62
     0
370
     0
100
AcDbLine
 10
294.735168
 20
105.531678
 30
0.0
 11
255.735168
 21
105.531678
 31
0.0
  0
LINE
  5
1B8
330
F9
100
AcDbEntity
  8
0
  6
Continuous
 62
     0
370
    30
100
AcDbLine
 10
295.235168
 20
94.952885
 30
0.0
 11
295.235168
 21
105.961158
 31
0.0
  0
ARC
  5
1B9
330
F9
100
AcDbEntity
  8
0
  6
Continuous
 62
     0
370
     0
100
AcDbCircle
 10
294.767942
 20
105.999313
 30
0.0
 40
0.468781837495523
100
AcDbArc
 50
265.991066
 51
355.331448
  0
LINE
  5
1BA
330
F9
100
AcDbEntity
  8
0
  6
Continuous
 62
     0
370
    30
100
AcDbLine
 10
295.235168
 20
105.961158
 30
0.0
 11
295.235168
 21
157.069271
 31
0.0
  0
LINE
  5
1BB
330
F9
100
AcDbEntity
  8
0
  6
Continuous
 62
     0
370
     0
100
AcDbLine
 10
295.235168
 20
157.069271
 30
0.0
 11
294.735168
 21
157.069271
 31
0.0
  0
LINE
  5
1BC
330
F9
100
AcDbEntity
  8
0
  6
Continuous
 62
     0
370
     0
100
AcDbLine
 10
294.735168
 20
157.06927
 30
0.0
 11
294.735168
 21
105.531678
 31
0.0
  0
LINE
  5
1BD
330
F9
100
AcDbEntity
  8
0
  6
Continuous
 62
     0
370
     0
100
AcDbLine
 10
255.735168
 20
105.531678
 30
0.0
 11
255.735168
 21
157.06927
 31
0.0
  0
LINE
  5
1BE
330
F9
100
AcDbEntity
  8
0
  6
Continuous
 62
     0
370
     0
100
AcDbLine
 10
255.735168
 20
157.069271
 30
0.0
 11
255.235168
 21
157.069271
 31
0.0
  0
LINE
  5
1BF
330
F9
100
AcDbEntity
  8
0
  6
Continuous
 62
     0
370
     0
100
AcDbLine
 10
294.735168
 20
157.069271
 30
0.0
 11
255.735168
 21
157.069271
 31
0.0
  0
LINE
  5
1C0
330
F9
100
AcDbEntity
  8
0
  6
Continuous
 62
     0
370
     0
100
AcDbLine
 10
294.735168
 20
157.069271
 30
0.0
 11
294.735168
 21
189.374922
 31
0.0
  0
LINE
  5
1C1
330
F9
100
AcDbEntity
  8
0
  6
Continuous
 62
     0
370
     0
100
AcDbLine
 10
294.735168
 20
189.374922
 30
0.0
 11
255.735168
 21
189.374922
 31
0.0
  0
LINE
  5
1C2
330
F9
100
AcDbEntity
  8
0
  6
Continuous
 62
     0
370
     0
100
AcDbLine
 10
255.735168
 20
189.374922
 30
0.0
 11
255.735168
 21
157.06927
 31
0.0
  0
LINE
  5
1C3
330
F9
100
AcDbEntity
  8
0
  6
Continuous
 62
     0
370
    30
100
AcDbLine
 10
295.235168
 20
157.069271
 30
0.0
 11
295.235168
 21
189.374922
 31
0.0
  0
LINE
  5
1C4
330
F9
100
AcDbEntity
  8
0
  6
Continuous
 62
     0
370
     0
100
AcDbLine
 10
295.235168
 20
189.374922
 30
0.0
 11
294.735168
 21
189.374922
 31
0.0
  0
LINE
  5
1C5
330
F9
100
AcDbEntity
  8
0
  6
Continuous
 62
     0
370
     0
100
AcDbLine
 10
255.735168
 20
189.374922
 30
0.0
 11
255.235168
 21
189.374922
 31
0.0
  0
LINE
  5
1C6
330
F9
100
AcDbEntity
  8
0
  6
Continuous
 62
     0
370
     0
100
AcDbLine
 10
255.735168
 20
189.374922
 30
0.0
 11
255.735168
 21
249.374925
 31
0.0
  0
ARC
  5
1C7
330
F9
100
AcDbEntity
  8
0
  6
Continuous
 62
     0
370
    30
100
AcDbCircle
 10
255.735168
 20
248.874925
 30
0.0
 40
0.4999999999999547
100
AcDbArc
 50
90.0
 51
180.0
  0
LINE
  5
1C8
330
F9
100
AcDbEntity
  8
0
  6
Continuous
 62
     0
370
     0
100
AcDbLine
 10
294.735168
 20
189.374922
 30
0.0
 11
294.735168
 21
249.374925
 31
0.0
  0
LINE
  5
1C9
330
F9
100
AcDbEntity
  8
0
  6
Continuous
 62
     0
370
    30
100
AcDbLine
 10
294.735168
 20
249.374925
 30
0.0
 11
255.735168
 21
249.374925
 31
0.0
  0
LINE
  5
1CA
330
F9
100
AcDbEntity
  8
0
  6
Continuous
 62
     0
370
    30
100
AcDbLine
 10
295.235168
 20
189.374922
 30
0.0
 11
295.235168
 21
248.874925
 31
0.0
  0
ARC
  5
1CB
330
F9
100
AcDbEntity
  8
0
  6
Continuous
 62
     0
370
    30
100
AcDbCircle
 10
294.735168
 20
248.874925
 30
0.0
 40
0.5000000000000622
100
AcDbArc
 50
0.0
 51
90.0
  0
ENDBLK
  5
1CD
330
F9
100
AcDbEntity
  8
0
100
AcDbBlockEnd
  0
BLOCK
  5
22F
330
1CF
100
AcDbEntity
  8
0
100
AcDbBlockBegin
  2
c
 70
     0
 10
115.40905
 20
99.184387
 30
0.0
  3
c
  1

  0
ARC
  5
1D0
330
1CF
100
AcDbEntity
  8
0
  6
Continuous
 62
     0
370
    30
100
AcDbCircle
 10
461.624918
 20
391.129225
 30
0.0
 40
0.5
100
AcDbArc
 50
90.0
 51
180.0
  0
LINE
  5
1D1
330
1CF
100
AcDbEntity
  8
0
  6
Continuous
 62
     0
370
     0
100
AcDbLine
 10
517.624918
 20
391.129225
 30
0.0
 11
461.624918
 21
391.129225
 31
0.0
  0
LINE
  5
1D2
330
1CF
100
AcDbEntity
  8
0
  6
Continuous
 62
     0
370
     0
100
AcDbLine
 10
517.624918
 20
391.629225
 30
0.0
 11
517.624918
 21
391.129225
 31
0.0
  0
LINE
  5
1D3
330
1CF
100
AcDbEntity
  8
0
  6
Continuous
 62
     0
370
    30
100
AcDbLine
 10
461.624918
 20
391.629225
 30
0.0
 11
517.624918
 21
391.629225
 31
0.0
  0
LINE
  5
1D4
330
1CF
100
AcDbEntity
  8
0
  6
Continuous
 62
     0
370
     0
100
AcDbLine
 10
461.624918
 20
391.129225
 30
0.0
 11
461.624918
 21
391.629225
 31
0.0
  0
LINE
  5
1D5
330
1CF
100
AcDbEntity
  8
0
  6
Continuous
 62
     0
370
     0
100
AcDbLine
 10
461.624918
 20
391.129225
 30
0.0
 11
461.124918
 21
391.129225
 31
0.0
  0
ARC
  5
1D6
330
1CF
100
AcDbEntity
  8
0
  6
Continuous
 62
     0
370
    30
100
AcDbCircle
 10
517.624918
 20
391.129225
 30
0.0
 40
0.5
100
AcDbArc
 50
360.0
 51
90.0
  0
LWPOLYLINE
  5
1D7
330
1CF
100
AcDbEntity
  8
0
  6
Continuous
 62
     0
370
     0
100
AcDbPolyline
 90
        6
 70
     0
 43
0.0
 10
518.124939
 20
391.129211
 10
518.10083
 20
391.129211
 10
518.035156
 20
391.129211
 10
517.941833
 20
391.129211
 10
517.817566
 20
391.129211
 10
517.624939
 20
391.129211
  0
LINE
  5
1D8
330
1CF
100
AcDbEntity
  8
0
  6
Continuous
 62
     0
370
    30
100
AcDbLine
 10
461.124918
 20
381.409225
 30
0.0
 11
461.124918
 21
391.129225
 31
0.0
  0
LINE
  5
1D9
330
1CF
100
AcDbEntity
  8
0
  6
Continuous
 62
     0
370
    30
100
AcDbLine
 10
461.624918
 20
381.409225
 30
0.0
 11
461.124918
 21
381.409225
 31
0.0
  0
LINE
  5
1DA
330
1CF
100
AcDbEntity
  8
0
  6
Continuous
 62
     0
370
     0
100
AcDbLine
 10
461.624918
 20
391.129225
 30
0.0
 11
461.624918
 21
381.409225
 31
0.0
  0
LINE
  5
1DB
330
1CF
100
AcDbEntity
  8
0
  6
Continuous
 62
     0
370
    30
100
AcDbLine
 10
517.624918
 20
381.409225
 30
0.0
 11
461.624918
 21
381.409225
 31
0.0
  0
LINE
  5
1DC
330
1CF
100
AcDbEntity
  8
0
  6
Continuous
 62
     0
370
     0
100
AcDbLine
 10
517.624918
 20
391.129225
 30
0.0
 11
517.624918
 21
381.409225
 31
0.0
  0
LINE
  5
1DD
330
1CF
100
AcDbEntity
  8
0
  6
Continuous
 62
     0
370
    30
100
AcDbLine
 10
518.124918
 20
381.409225
 30
0.0
 11
517.624918
 21
381.409225
 31
0.0
  0
LINE
  5
1DE
330
1CF
100
AcDbEntity
  8
0
  6
Continuous
 62
     0
370
    30
100
AcDbLine
 10
518.124918
 20
391.129225
 30
0.0
 11
518.124918
 21
381.409225
 31
0.0
  0
LINE
  5
1DF
330
1CF
100
AcDbEntity
  8
0
  6
Continuous
 62
     0
370
     0
100
AcDbLine
 10
481.366575
 20
392.329225
 30
0.0
 11
481.366575
 21
391.829225
 31
0.0
  0
ARC
  5
1E0
330
1CF
100
AcDbEntity
  8
0
  6
Continuous
 62
     0
370
    30
100
AcDbCircle
 10
477.482336
 20
407.146207
 30
0.0
 40
15.3176460891477
100
AcDbArc
 50
270.533335
 51
284.689422
  0
LINE
  5
1E1
330
1CF
100
AcDbEntity
  8
0
  6
Continuous
 62
     0
370
     0
100
AcDbLine
 10
497.88326
 20
392.329225
 30
0.0
 11
481.366575
 21
392.329225
 31
0.0
  0
LINE
  5
1E2
330
1CF
100
AcDbEntity
  8
0
  6
Continuous
 62
     0
370
     0
100
AcDbLine
 10
497.88326
 20
391.829225
 30
0.0
 11
497.88326
 21
392.329225
 31
0.0
  0
ARC
  5
1E3
330
1CF
100
AcDbEntity
  8
0
  6
Continuous
 62
     0
370
    30
100
AcDbCircle
 10
501.765517
 20
407.131377
 30
0.0
 40
15.30279778775765
100
AcDbArc
 50
255.303675
 51
269.473568
  0
ARC
  5
1E4
330
1CF
100
AcDbEntity
  8
0
  6
Continuous
 62
     0
370
    30
100
AcDbCircle
 10
501.624917
 20
398.829225
 30
0.0
 40
7.000000000000016
100
AcDbArc
 50
180.0
 51
270.0
  0
LINE
  5
1E5
330
1CF
100
AcDbEntity
  8
0
  6
Continuous
 62
     0
370
     0
100
AcDbLine
 10
494.124918
 20
398.829225
 30
0.0
 11
494.624917
 21
398.829225
 31
0.0
  0
ARC
  5
1E6
330
1CF
100
AcDbEntity
  8
0
  6
Continuous
 62
     0
370
     0
100
AcDbCircle
 10
501.624918
 20
398.829225
 30
0.0
 40
7.500000000000008
100
AcDbArc
 50
180.0
 51
240.073565
  0
LINE
  5
1E7
330
1CF
100
AcDbEntity
  8
0
  6
Continuous
 62
     0
370
     0
100
AcDbLine
 10
494.124918
 20
419.329225
 30
0.0
 11
494.124918
 21
398.829225
 31
0.0
  0
LINE
  5
1E8
330
1CF
100
AcDbEntity
  8
0
  6
Continuous
 62
     0
370
     0
100
AcDbLine
 10
485.124918
 20
419.329225
 30
0.0
 11
494.124918
 21
419.329225
 31
0.0
  0
LINE
  5
1E9
330
1CF
100
AcDbEntity
  8
0
  6
Continuous
 62
     0
370
     0
100
AcDbLine
 10
485.124918
 20
398.829225
 30
0.0
 11
485.124918
 21
419.329225
 31
0.0
  0
ARC
  5
1EA
330
1CF
100
AcDbEntity
  8
0
  6
Continuous
 62
     0
370
     0
100
AcDbCircle
 10
477.624918
 20
398.829225
 30
0.0
 40
7.499999999999983
100
AcDbArc
 50
299.926435
 51
360.0
  0
LINE
  5
1EB
330
1CF
100
AcDbEntity
  8
0
  6
Continuous
 62
     0
370
     0
100
AcDbLine
 10
484.624917
 20
398.829225
 30
0.0
 11
485.124918
 21
398.829225
 31
0.0
  0
ARC
  5
1EC
330
1CF
100
AcDbEntity
  8
0
  6
Continuous
 62
     0
370
    30
100
AcDbCircle
 10
477.624917
 20
398.829225
 30
0.0
 40
7.000000000000004
100
AcDbArc
 50
270.0
 51
360.0
  0
LWPOLYLINE
  5
1ED
330
1CF
100
AcDbEntity
  8
0
  6
Continuous
 62
     0
370
     0
100
AcDbPolyline
 90
        6
 70
     0
 43
0.0
 10
494.624908
 20
419.329224
 10
494.600861
 20
419.329224
 10
494.535156
 20
419.329224
 10
494.441833
 20
419.329224
 10
494.317596
 20
419.329224
 10
494.124908
 20
419.329224
  0
ARC
  5
1EE
330
1CF
100
AcDbEntity
  8
0
  6
Continuous
 62
     0
370
    30
100
AcDbCircle
 10
494.124917
 20
419.329225
 30
0.0
 40
0.5000000000002243
100
AcDbArc
 50
0.0
 51
90.0
  0
LINE
  5
1EF
330
1CF
100
AcDbEntity
  8
0
  6
Continuous
 62
     0
370
    30
100
AcDbLine
 10
494.124918
 20
419.329225
 30
0.0
 11
494.124917
 21
419.829225
 31
0.0
  0
LINE
  5
1F0
330
1CF
100
AcDbEntity
  8
0
  6
Continuous
 62
     0
370
     0
100
AcDbLine
 10
485.124918
 20
419.329225
 30
0.0
 11
484.624917
 21
419.329225
 31
0.0
  0
LINE
  5
1F1
330
1CF
100
AcDbEntity
  8
0
  6
Continuous
 62
     0
370
    30
100
AcDbLine
 10
485.124917
 20
419.829225
 30
0.0
 11
485.124918
 21
419.329225
 31
0.0
  0
ARC
  5
1F2
330
1CF
100
AcDbEntity
  8
0
  6
Continuous
 62
     0
370
    30
100
AcDbCircle
 10
485.124917
 20
419.329225
 30
0.0
 40
0.5000000000004321
100
AcDbArc
 50
90.0
 51
180.0
  0
LINE
  5
1F3
330
1CF
100
AcDbEntity
  8
0
  6
Continuous
 62
     0
370
    30
100
AcDbLine
 10
484.624917
 20
398.829225
 30
0.0
 11
484.624917
 21
419.329225
 31
0.0
  0
LINE
  5
1F4
330
1CF
100
AcDbEntity
  8
0
  6
Continuous
 62
     0
370
    30
100
AcDbLine
 10
485.124917
 20
419.829225
 30
0.0
 11
494.124917
 21
419.829225
 31
0.0
  0
LINE
  5
1F5
330
1CF
100
AcDbEntity
  8
0
  6
Continuous
 62
     0
370
    30
100
AcDbLine
 10
494.624917
 20
419.329225
 30
0.0
 11
494.624917
 21
398.829225
 31
0.0
  0
LWPOLYLINE
  5
1F6
330
1CF
100
AcDbEntity
  8
0
  6
Continuous
 62
     0
370
    30
100
AcDbPolyline
 90
       29
 70
     0
 43
0.0
 10
513.624939
 20
391.829224
 10
513.593689
 20
391.829224
 10
513.497681
 20
391.829224
 10
513.333374
 20
391.829224
 10
513.097839
 20
391.829224
 10
512.788574
 20
391.829224
 10
512.403687
 20
391.829224
 10
511.941711
 20
391.829224
 10
511.402191
 20
391.829224
 10
510.785278
 20
391.829224
 10
510.091949
 20
391.829224
 10
509.324005
 20
391.829224
 10
508.4841
 20
391.829224
 10
507.575684
 20
391.829224
 10
506.603027
 20
391.829224
 10
505.571014
 20
391.829224
 10
504.485199
 20
391.829224
 10
503.351654
 20
391.829224
 10
502.17688
 20
391.829224
 10
500.96759
 20
391.829224
 10
499.730804
 20
391.829224
 10
498.47345
 20
391.829224
 10
497.202484
 20
391.829224
 10
495.924591
 20
391.829224
 10
494.64621
 20
391.829224
 10
493.373474
 20
391.829224
 10
492.11203
 20
391.829224
 10
490.867035
 20
391.829224
 10
489.624908
 20
391.829224
  0
LINE
  5
1F7
330
1CF
100
AcDbEntity
  8
0
  6
Continuous
 62
     0
370
    30
100
AcDbLine
 10
489.624918
 20
391.829225
 30
0.0
 11
465.624917
 21
391.829225
 31
0.0
  0
LINE
  5
1F8
330
1CF
100
AcDbEntity
  8
0
  6
Continuous
 62
     0
370
    30
100
AcDbLine
 10
465.624917
 20
391.829225
 30
0.0
 11
465.624917
 21
391.629225
 31
0.0
  0
LINE
  5
1F9
330
1CF
100
AcDbEntity
  8
0
  6
Continuous
 62
     0
370
    30
100
AcDbLine
 10
513.624917
 20
391.829225
 30
0.0
 11
513.624917
 21
391.629225
 31
0.0
  0
LINE
  5
1FA
330
1CF
100
AcDbEntity
  8
0
  6
Continuous
 62
     0
370
     0
100
AcDbLine
 10
470.624912
 20
397.129225
 30
0.0
 11
470.624912
 21
396.629225
 31
0.0
  0
LINE
  5
1FB
330
1CF
100
AcDbEntity
  8
0
  6
Continuous
 62
     0
370
    30
100
AcDbLine
 10
470.624912
 20
396.629225
 30
0.0
 11
477.624912
 21
396.629225
 31
0.0
  0
LINE
  5
1FC
330
1CF
100
AcDbEntity
  8
0
  6
Continuous
 62
     0
370
     0
100
AcDbLine
 10
477.624912
 20
396.629225
 30
0.0
 11
477.624912
 21
397.129225
 31
0.0
  0
LINE
  5
1FD
330
1CF
100
AcDbEntity
  8
0
  6
Continuous
 62
     0
370
     0
100
AcDbLine
 10
477.624912
 20
397.129225
 30
0.0
 11
470.624912
 21
397.129225
 31
0.0
  0
ARC
  5
1FE
330
1CF
100
AcDbEntity
  8
0
  6
Continuous
 62
     0
370
    30
100
AcDbCircle
 10
477.624912
 20
397.129225
 30
0.0
 40
0.5
100
AcDbArc
 50
270.0
 51
0.0
  0
ARC
  5
1FF
330
1CF
100
AcDbEntity
  8
0
  6
Continuous
 62
     0
370
    30
100
AcDbCircle
 10
470.624912
 20
397.129225
 30
0.0
 40
0.5
100
AcDbArc
 50
180.0
 51
270.0
  0
LWPOLYLINE
  5
200
330
1CF
100
AcDbEntity
  8
0
  6
Continuous
 62
     0
370
     0
100
AcDbPolyline
 90
        5
 70
     0
 43
0.0
 10
478.124908
 20
397.129211
 10
478.089905
 20
397.129211
 10
477.978851
 20
397.129211
 10
477.809723
 20
397.129211
 10
477.624908
 20
397.129211
  0
LINE
  5
201
330
1CF
100
AcDbEntity
  8
0
  6
Continuous
 62
     0
370
     0
100
AcDbLine
 10
470.624912
 20
397.129225
 30
0.0
 11
470.124912
 21
397.129225
 31
0.0
  0
LINE
  5
202
330
1CF
100
AcDbEntity
  8
0
  6
Continuous
 62
     0
370
    30
100
AcDbLine
 10
470.124912
 20
397.129225
 30
0.0
 11
470.124912
 21
426.129225
 31
0.0
  0
LINE
  5
203
330
1CF
100
AcDbEntity
  8
0
  6
Continuous
 62
     0
370
     0
100
AcDbLine
 10
470.624912
 20
426.629225
 30
0.0
 11
470.624912
 21
426.129225
 31
0.0
  0
LINE
  5
204
330
1CF
100
AcDbEntity
  8
0
  6
Continuous
 62
     0
370
     0
100
AcDbLine
 10
470.624912
 20
426.129225
 30
0.0
 11
477.624912
 21
426.129225
 31
0.0
  0
LINE
  5
205
330
1CF
100
AcDbEntity
  8
0
  6
Continuous
 62
     0
370
     0
100
AcDbLine
 10
477.624912
 20
426.129225
 30
0.0
 11
477.624912
 21
426.629225
 31
0.0
  0
LINE
  5
206
330
1CF
100
AcDbEntity
  8
0
  6
Continuous
 62
     0
370
    30
100
AcDbLine
 10
477.624912
 20
426.629225
 30
0.0
 11
470.624912
 21
426.629225
 31
0.0
  0
ARC
  5
207
330
1CF
100
AcDbEntity
  8
0
  6
Continuous
 62
     0
370
    30
100
AcDbCircle
 10
470.624912
 20
426.129225
 30
0.0
 40
0.5
100
AcDbArc
 50
90.0
 51
180.0
  0
LINE
  5
208
330
1CF
100
AcDbEntity
  8
0
  6
Continuous
 62
     0
370
     0
100
AcDbLine
 10
470.124912
 20
426.129225
 30
0.0
 11
470.624912
 21
426.129225
 31
0.0
  0
ARC
  5
209
330
1CF
100
AcDbEntity
  8
0
  6
Continuous
 62
     0
370
    30
100
AcDbCircle
 10
477.624912
 20
426.129225
 30
0.0
 40
0.5
100
AcDbArc
 50
0.0
 51
90.0
  0
LINE
  5
20A
330
1CF
100
AcDbEntity
  8
0
  6
Continuous
 62
     0
370
     0
100
AcDbLine
 10
477.624912
 20
426.129225
 30
0.0
 11
478.124912
 21
426.129225
 31
0.0
  0
LINE
  5
20B
330
1CF
100
AcDbEntity
  8
0
  6
Continuous
 62
     0
370
    30
100
AcDbLine
 10
478.124912
 20
426.129225
 30
0.0
 11
478.124912
 21
397.129225
 31
0.0
  0
LINE
  5
20C
330
1CF
100
AcDbEntity
  8
0
  6
Continuous
 62
     0
370
     0
100
AcDbLine
 10
477.624912
 20
426.129225
 30
0.0
 11
477.624912
 21
397.129225
 31
0.0
  0
LINE
  5
20D
330
1CF
100
AcDbEntity
  8
0
  6
Continuous
 62
     0
370
     0
100
AcDbLine
 10
470.624912
 20
426.129225
 30
0.0
 11
470.624912
 21
397.129225
 31
0.0
  0
LINE
  5
20E
330
1CF
100
AcDbEntity
  8
0
  6
Continuous
 62
     0
370
    30
100
AcDbLine
 10
639.046952
 20
504.629225
 30
0.0
 11
639.629051
 21
504.629225
 31
0.0
  0
LINE
  5
20F
330
1CF
100
AcDbEntity
  8
0
  6
Continuous
 62
     0
370
    30
100
AcDbLine
 10
628.569163
 20
504.629225
 30
0.0
 11
639.046952
 21
504.629225
 31
0.0
  0
LWPOLYLINE
  5
210
330
1CF
100
AcDbEntity
  8
0
  6
Continuous
 62
     0
370
    30
100
AcDbPolyline
 90
        6
 70
     0
 43
0.0
 10
627.987061
 20
504.629211
 10
628.012939
 20
504.629211
 10
628.0896
 20
504.629211
 10
628.20697
 20
504.629211
 10
628.359131
 20
504.629211
 10
628.569153
 20
504.629211
  0
LINE
  5
211
330
1CF
100
AcDbEntity
  8
0
  6
Continuous
 62
     0
370
    30
100
AcDbLine
 10
627.987064
 20
504.629225
 30
0.0
 11
619.878559
 21
518.231368
 31
0.0
  0
LINE
  5
212
330
1CF
100
AcDbEntity
  8
0
  6
Continuous
 62
     0
370
     0
100
AcDbLine
 10
628.569163
 20
504.629225
 30
0.0
 11
620.308039
 21
518.48739
 31
0.0
  0
LINE
  5
213
330
1CF
100
AcDbEntity
  8
0
  6
Continuous
 62
     0
370
     0
100
AcDbLine
 10
620.308039
 20
518.48739
 30
0.0
 11
619.878559
 21
518.231368
 31
0.0
  0
LINE
  5
214
330
1CF
100
AcDbEntity
  8
0
  6
Continuous
 62
     0
370
     0
100
AcDbLine
 10
639.046952
 20
504.629225
 30
0.0
 11
628.038678
 21
523.095775
 31
0.0
  0
ARC
  5
215
330
1CF
100
AcDbEntity
  8
0
  6
Continuous
 62
     0
370
     0
100
AcDbCircle
 10
576.930565
 20
492.629225
 30
0.0
 40
59.5
100
AcDbArc
 50
30.8
 51
90.0
  0
LINE
  5
216
330
1CF
100
AcDbEntity
  8
0
  6
Continuous
 62
     0
370
     0
100
AcDbLine
 10
576.930565
 20
552.129225
 30
0.0
 11
544.624913
 21
552.129225
 31
0.0
  0
ARC
  5
217
330
1CF
100
AcDbEntity
  8
0
  6
Continuous
 62
     0
370
     0
100
AcDbCircle
 10
544.624913
 20
492.629225
 30
0.0
 40
59.49999999999987
100
AcDbArc
 50
90.0
 51
180.0
  0
LINE
  5
218
330
1CF
100
AcDbEntity
  8
0
  6
Continuous
 62
     0
370
     0
100
AcDbLine
 10
485.124913
 20
492.629225
 30
0.0
 11
485.124913
 21
419.829225
 31
0.0
  0
LINE
  5
219
330
1CF
100
AcDbEntity
  8
0
  6
Continuous
 62
     0
370
     0
100
AcDbLine
 10
494.124913
 20
419.829225
 30
0.0
 11
494.124913
 21
492.629225
 31
0.0
  0
ARC
  5
21A
330
1CF
100
AcDbEntity
  8
0
  6
Continuous
 62
     0
370
     0
100
AcDbCircle
 10
544.624913
 20
492.629225
 30
0.0
 40
50.49999999999989
100
AcDbArc
 50
90.0
 51
180.0
  0
LINE
  5
21B
330
1CF
100
AcDbEntity
  8
0
  6
Continuous
 62
     0
370
     0
100
AcDbLine
 10
544.624913
 20
543.129225
 30
0.0
 11
576.930565
 21
543.129225
 31
0.0
  0
ARC
  5
21C
330
1CF
100
AcDbEntity
  8
0
  6
Continuous
 62
     0
370
     0
100
AcDbCircle
 10
576.930565
 20
492.629225
 30
0.0
 40
50.49999999999993
100
AcDbArc
 50
30.8
 51
90.0
  0
LINE
  5
21D
330
1CF
100
AcDbEntity
  8
0
  6
Continuous
 62
     0
370
    30
100
AcDbLine
 10
639.629051
 20
504.629225
 30
0.0
 11
628.468158
 21
523.351797
 31
0.0
  0
LINE
  5
21E
330
1CF
100
AcDbEntity
  8
0
  6
Continuous
 62
     0
370
     0
100
AcDbLine
 10
628.468158
 20
523.351797
 30
0.0
 11
628.038678
 21
523.095775
 31
0.0
  0
ARC
  5
21F
330
1CF
100
AcDbEntity
  8
0
  6
Continuous
 62
     0
370
    30
100
AcDbCircle
 10
576.930565
 20
492.629225
 30
0.0
 40
50.0
100
AcDbArc
 50
30.8
 51
90.0
  0
LINE
  5
220
330
1CF
100
AcDbEntity
  8
0
  6
Continuous
 62
     0
370
     0
100
AcDbLine
 10
576.930565
 20
543.129225
 30
0.0
 11
576.930565
 21
542.629225
 31
0.0
  0
ARC
  5
221
330
1CF
100
AcDbEntity
  8
0
  6
Continuous
 62
     0
370
    30
100
AcDbCircle
 10
576.930565
 20
492.629225
 30
0.0
 40
60.0
100
AcDbArc
 50
30.8
 51
90.0
  0
LINE
  5
222
330
1CF
100
AcDbEntity
  8
0
  6
Continuous
 62
     0
370
     0
100
AcDbLine
 10
576.930565
 20
552.629225
 30
0.0
 11
576.930565
 21
552.129225
 31
0.0
  0
LINE
  5
223
330
1CF
100
AcDbEntity
  8
0
  6
Continuous
 62
     0
370
    30
100
AcDbLine
 10
544.624913
 20
552.629225
 30
0.0
 11
576.930565
 21
552.629225
 31
0.0
  0
LINE
  5
224
330
1CF
100
AcDbEntity
  8
0
  6
Continuous
 62
     0
370
    30
100
AcDbLine
 10
576.930565
 20
542.629225
 30
0.0
 11
544.624913
 21
542.629225
 31
0.0
  0
LINE
  5
225
330
1CF
100
AcDbEntity
  8
0
  6
Continuous
 62
     0
370
     0
100
AcDbLine
 10
544.624913
 20
543.129225
 30
0.0
 11
544.624913
 21
542.629225
 31
0.0
  0
LINE
  5
226
330
1CF
100
AcDbEntity
  8
0
  6
Continuous
 62
     0
370
     0
100
AcDbLine
 10
544.624913
 20
552.629225
 30
0.0
 11
544.624913
 21
552.129225
 31
0.0
  0
ARC
  5
227
330
1CF
100
AcDbEntity
  8
0
  6
Continuous
 62
     0
370
    30
100
AcDbCircle
 10
544.624913
 20
492.629225
 30
0.0
 40
59.99999999999986
100
AcDbArc
 50
90.0
 51
180.0
  0
LINE
  5
228
330
1CF
100
AcDbEntity
  8
0
  6
Continuous
 62
     0
370
     0
100
AcDbLine
 10
484.624913
 20
492.629225
 30
0.0
 11
485.124913
 21
492.629225
 31
0.0
  0
ARC
  5
229
330
1CF
100
AcDbEntity
  8
0
  6
Continuous
 62
     0
370
    30
100
AcDbCircle
 10
544.624913
 20
492.629225
 30
0.0
 40
50.0
100
AcDbArc
 50
90.0
 51
180.0
  0
LINE
  5
22A
330
1CF
100
AcDbEntity
  8
0
  6
Continuous
 62
     0
370
     0
100
AcDbLine
 10
494.124913
 20
492.629225
 30
0.0
 11
494.624913
 21
492.629225
 31
0.0
  0
LINE
  5
22B
330
1CF
100
AcDbEntity
  8
0
  6
Continuous
 62
     0
370
    30
100
AcDbLine
 10
484.624913
 20
492.629225
 30
0.0
 11
484.624913
 21
419.329225
 31
0.0
  0
LINE
  5
22C
330
1CF
100
AcDbEntity
  8
0
  6
Continuous
 62
     0
370
    30
100
AcDbLine
 10
494.624913
 20
492.629225
 30
0.0
 11
494.624913
 21
419.329225
 31
0.0
  0
LINE
  5
22D
330
1CF
100
AcDbEntity
  8
0
  6
Continuous
 62
     0
370
    30
100
AcDbLine
 10
472.624912
 20
396.629225
 30
0.0
 11
472.624912
 21
391.829225
 31
0.0
  0
LINE
  5
22E
330
1CF
100
AcDbEntity
  8
0
  6
Continuous
 62
     0
370
    30
100
AcDbLine
 10
475.624912
 20
396.629225
 30
0.0
 11
475.624912
 21
391.829225
 31
0.0
  0
ENDBLK
  5
230
330
1CF
100
AcDbEntity
  8
0
100
AcDbBlockEnd
  0
BLOCK
  5
31B
330
232
100
AcDbEntity
  8
0
100
AcDbBlockBegin
  2
d
 70
     0
 10
115.40905
 20
99.184387
 30
0.0
  3
d
  1

  0
ELLIPSE
  5
233
330
232
100
AcDbEntity
  8
0
  6
Continuous
 62
     0
370
     0
100
AcDbEllipse
 10
643.991951
 20
200.950518
 30
0.0
 11
-0.2500000000000001
 21
-0.4330127018922194
 31
0.0
210
0.0
220
0.0
230
-1.0
 40
0.57735
 41
0.7853981633974483
 42
2.356194490192359
  0
LINE
  5
234
330
232
100
AcDbEntity
  8
0
  6
Continuous
 62
     0
370
     0
100
AcDbLine
 10
643.991951
 20
201.358766
 30
0.0
 11
604.393971
 21
224.220671
 31
0.0
  0
ELLIPSE
  5
235
330
232
100
AcDbEntity
  8
0
  6
Continuous
 62
     0
370
     0
100
AcDbEllipse
 10
604.393971
 20
223.812422
 30
0.0
 11
0.2500000000000001
 21
0.4330127018922194
 31
0.0
210
0.0
220
0.0
230
1.0
 40
0.57735
 41
0.7853981633974412
 42
2.356194490192338
  0
LINE
  5
236
330
232
100
AcDbEntity
  8
0
  6
Continuous
 62
     0
370
     0
100
AcDbLine
 10
604.040418
 20
223.608298
 30
0.0
 11
643.638398
 21
200.746394
 31
0.0
  0
ELLIPSE
  5
237
330
232
100
AcDbEntity
  8
0
  6
Continuous
 62
     0
370
     0
100
AcDbEllipse
 10
604.393971
 20
223.812422
 30
0.0
 11
-0.2500000000000001
 21
0.4330127018922193
 31
0.0
210
0.0
220
0.0
230
-1.0
 40
0.57735
 41
5.497787143782138
 42
7.068583470577035
  0
LINE
  5
238
330
232
100
AcDbEntity
  8
0
  6
Continuous
 62
     0
370
     0
100
AcDbLine
 10
604.393971
 20
224.220671
 30
0.0
 11
626.521389
 21
236.995941
 31
0.0
  0
LINE
  5
239
330
232
100
AcDbEntity
  8
0
  6
Continuous
 62
     0
370
     0
100
AcDbLine
 10
658.84119
 20
209.931978
 30
0.0
 11
643.991951
 21
201.358766
 31
0.0
  0
ELLIPSE
  5
23A
330
232
100
AcDbEntity
  8
0
  6
Continuous
 62
     0
370
     0
100
AcDbEllipse
 10
643.991951
 20
200.950518
 30
0.0
 11
-0.2500000000000001
 21
0.4330127018922194
 31
0.0
210
0.0
220
0.0
230
-1.0
 40
0.57735
 41
0.7853981633974769
 42
2.356194490192338
  0
LINE
  5
23B
330
232
100
AcDbEntity
  8
0
  6
Continuous
 62
     0
370
     0
100
AcDbLine
 10
644.345504
 20
200.746394
 30
0.0
 11
659.548297
 21
209.52373
 31
0.0
  0
ARC
  5
23C
330
232
100
AcDbEntity
  8
0
  6
Continuous
 62
     0
370
     0
100
AcDbCircle
 10
604.109453
 20
223.812422
 30
0.0
 40
0.2154822031360176
100
AcDbArc
 50
108.68574
 51
251.31426
  0
ARC
  5
23D
330
232
100
AcDbEntity
  8
0
  6
Continuous
 62
     0
370
     0
100
AcDbCircle
 10
643.991951
 20
201.443317
 30
0.0
 40
0.7814744144201441
100
AcDbArc
 50
243.101049
 51
296.898951
  0
LINE
  5
23E
330
232
100
AcDbEntity
  8
0
  6
Continuous
 62
     0
370
     0
100
AcDbLine
 10
683.943484
 20
217.072941
 30
0.0
 11
683.943484
 21
215.671952
 31
0.0
  0
ELLIPSE
  5
23F
330
232
100
AcDbEntity
  8
0
  6
Continuous
 62
     0
370
    30
100
AcDbEllipse
 10
683.589931
 20
215.876076
 30
0.0
 11
-0.5
 21
0.0
 31
0.0
210
0.0
220
0.0
230
1.0
 40
0.57735
 41
2.356194490192245
 42
3.141592644950104
  0
LINE
  5
240
330
232
100
AcDbEntity
  8
0
  6
Continuous
 62
     0
370
     0
100
AcDbLine
 10
644.345504
 20
200.746394
 30
0.0
 11
644.345504
 21
192.810047
 31
0.0
  0
LINE
  5
241
330
232
100
AcDbEntity
  8
0
  6
Continuous
 62
     0
370
    30
100
AcDbLine
 10
644.345504
 20
192.810047
 30
0.0
 11
683.943484
 21
215.671952
 31
0.0
  0
ELLIPSE
  5
242
330
232
100
AcDbEntity
  8
0
  6
Continuous
 62
     0
370
    30
100
AcDbEllipse
 10
604.393971
 20
215.876076
 30
0.0
 11
-0.5
 21
0.0
 31
0.0
210
0.0
220
0.0
230
1.0
 40
0.57735
 41
-0.000000008639689
 42
0.7853981633974625
  0
LINE
  5
243
330
232
100
AcDbEntity
  8
0
  6
Continuous
 62
     0
370
     0
100
AcDbLine
 10
604.040418
 20
215.671952
 30
0.0
 11
604.040418
 21
223.608298
 31
0.0
  0
LINE
  5
244
330
232
100
AcDbEntity
  8
0
  6
Continuous
 62
     0
370
    30
100
AcDbLine
 10
604.040418
 20
215.671952
 30
0.0
 11
643.638398
 21
192.810047
 31
0.0
  0
LINE
  5
245
330
232
100
AcDbEntity
  8
0
  6
Continuous
 62
     0
370
     0
100
AcDbLine
 10
643.638398
 20
192.810047
 30
0.0
 11
643.638398
 21
200.746394
 31
0.0
  0
ELLIPSE
  5
246
330
232
100
AcDbEntity
  8
0
  6
Continuous
 62
     0
370
    30
100
AcDbEllipse
 10
643.991951
 20
193.014171
 30
0.0
 11
-0.5
 21
0.0
 31
0.0
210
0.0
220
0.0
230
1.0
 40
0.57735
 41
0.7853981633974731
 42
2.356194490192281
  0
ELLIPSE
  5
247
330
232
100
AcDbEntity
  8
0
  6
Continuous
 62
     0
370
    30
100
AcDbEllipse
 10
643.991951
 20
224.220671
 30
0.0
 11
-24.0
 21
0.0
 31
0.0
210
0.0
220
0.0
230
1.0
 40
0.57735
 41
-0.0000000086396854
 42
2.124950614595181
  0
ELLIPSE
  5
248
330
232
100
AcDbEntity
  8
0
  6
Continuous
 62
     0
370
     0
100
AcDbEllipse
 10
635.335792
 20
213.051674
 30
0.0
 11
-0.2499999999998994
 21
-0.4330127018922775
 31
0.0
210
0.0
220
0.0
230
-1.0
 40
0.57735
 41
3.926990816987367
 42
5.497787143782258
  0
LINE
  5
249
330
232
100
AcDbEntity
  8
0
  6
Continuous
 62
     0
370
     0
100
AcDbLine
 10
624.010285
 20
219.998707
 30
0.0
 11
635.689345
 21
213.255798
 31
0.0
  0
ELLIPSE
  5
24A
330
232
100
AcDbEntity
  8
0
  6
Continuous
 62
     0
370
     0
100
AcDbEllipse
 10
623.656732
 20
219.794583
 30
0.0
 11
0.2499999999998994
 21
0.4330127018922775
 31
0.0
210
0.0
220
0.0
230
1.0
 40
0.57735
 41
3.926990816987107
 42
5.497787143781999
  0
LINE
  5
24B
330
232
100
AcDbEntity
  8
0
  6
Continuous
 62
     0
370
     0
100
AcDbLine
 10
635.335792
 20
212.643426
 30
0.0
 11
623.656732
 21
219.386334
 31
0.0
  0
ARC
  5
24C
330
232
100
AcDbEntity
  8
0
  6
Continuous
 62
     0
370
     0
100
AcDbCircle
 10
641.599087
 20
225.824006
 30
0.0
 40
14.59303133038869
100
AcDbArc
 50
244.583348
 51
258.495776
  0
ARC
  5
24D
330
232
100
AcDbEntity
  8
0
  6
Continuous
 62
     0
370
     0
100
AcDbCircle
 10
642.678071
 20
221.897328
 30
0.0
 40
11.11387978339577
100
AcDbArc
 50
231.036245
 51
248.963755
  0
ARC
  5
24E
330
232
100
AcDbEntity
  8
0
  6
Continuous
 62
     0
370
     0
100
AcDbCircle
 10
626.050978
 20
226.180093
 30
0.0
 40
6.50952885575933
100
AcDbArc
 50
228.269875
 51
251.730125
  0
ARC
  5
24F
330
232
100
AcDbEntity
  8
0
  6
Continuous
 62
     0
370
     0
100
AcDbCircle
 10
627.4145
 20
225.088323
 30
0.0
 40
6.828871940494356
100
AcDbArc
 50
213.470904
 51
236.614011
  0
ARC
  5
250
330
232
100
AcDbEntity
  8
0
  6
Continuous
 62
     0
370
     0
100
AcDbCircle
 10
623.436645
 20
223.225176
 30
0.0
 40
3.277066790520558
100
AcDbArc
 50
280.081392
 51
9.598393
  0
LINE
  5
251
330
232
100
AcDbEntity
  8
0
  6
Continuous
 62
     0
370
     0
100
AcDbLine
 10
626.667835
 20
223.771598
 30
0.0
 11
626.521388
 21
223.975722
 31
0.0
  0
ARC
  5
252
330
232
100
AcDbEntity
  8
0
  6
Continuous
 62
     0
370
     0
100
AcDbCircle
 10
623.700588
 20
223.526102
 30
0.0
 40
2.964439196680193
100
AcDbArc
 50
228.0285
 51
4.766877
  0
ARC
  5
253
330
232
100
AcDbEntity
  8
0
  6
Continuous
 62
     0
370
     0
100
AcDbCircle
 10
644.611517
 20
220.658477
 30
0.0
 40
11.59330818475468
100
AcDbArc
 50
182.774187
 51
219.682313
  0
LINE
  5
254
330
232
100
AcDbEntity
  8
0
  6
Continuous
 62
     0
370
     0
100
AcDbLine
 10
633.031796
 20
220.097363
 30
0.0
 11
633.031796
 21
236.835543
 31
0.0
  0
LINE
  5
255
330
232
100
AcDbEntity
  8
0
  6
Continuous
 62
     0
370
     0
100
AcDbLine
 10
633.031796
 20
236.835543
 30
0.0
 11
626.667835
 21
240.509778
 31
0.0
  0
LINE
  5
256
330
232
100
AcDbEntity
  8
0
  6
Continuous
 62
     0
370
     0
100
AcDbLine
 10
626.667835
 20
240.509778
 30
0.0
 11
626.667835
 21
223.771598
 31
0.0
  0
ARC
  5
257
330
232
100
AcDbEntity
  8
0
  6
Continuous
 62
     0
370
     0
100
AcDbCircle
 10
632.958573
 20
236.793267
 30
0.0
 40
0.7814744144211219
100
AcDbArc
 50
3.101049
 51
56.898951
  0
ARC
  5
258
330
232
100
AcDbEntity
  8
0
  6
Continuous
 62
     0
370
     0
100
AcDbCircle
 10
633.812126
 20
236.793267
 30
0.0
 40
0.7814744144240582
100
AcDbArc
 50
123.101049
 51
176.898951
  0
ARC
  5
259
330
232
100
AcDbEntity
  8
0
  6
Continuous
 62
     0
370
     0
100
AcDbCircle
 10
633.385349
 20
237.532466
 30
0.0
 40
0.7814744144181227
100
AcDbArc
 50
243.101049
 51
296.898951
  0
ARC
  5
25A
330
232
100
AcDbEntity
  8
0
  6
Continuous
 62
     0
370
     0
100
AcDbCircle
 10
627.448165
 20
240.467502
 30
0.0
 40
0.7814744144194309
100
AcDbArc
 50
123.101049
 51
176.898951
  0
ARC
  5
25B
330
232
100
AcDbEntity
  8
0
  6
Continuous
 62
     0
370
     0
100
AcDbCircle
 10
626.879129
 20
240.960301
 30
0.0
 40
0.2154822031359343
100
AcDbArc
 50
48.68574
 51
191.31426
  0
ARC
  5
25C
330
232
100
AcDbEntity
  8
0
  6
Continuous
 62
     0
370
     0
100
AcDbCircle
 10
626.73687
 20
240.713902
 30
0.0
 40
0.2154822031360048
100
AcDbArc
 50
108.68574
 51
251.31426
  0
LINE
  5
25D
330
232
100
AcDbEntity
  8
0
  6
Continuous
 62
     0
370
     0
100
AcDbLine
 10
627.021388
 20
241.12215
 30
0.0
 11
638.40857
 21
247.696542
 31
0.0
  0
LINE
  5
25E
330
232
100
AcDbEntity
  8
0
  6
Continuous
 62
     0
370
     0
100
AcDbLine
 10
633.385349
 20
237.447915
 30
0.0
 11
627.021388
 21
241.12215
 31
0.0
  0
ELLIPSE
  5
25F
330
232
100
AcDbEntity
  8
0
  6
Continuous
 62
     0
370
     0
100
AcDbEllipse
 10
633.385349
 20
220.301487
 30
0.0
 11
-0.5
 21
0.0
 31
0.0
210
0.0
220
0.0
230
1.0
 40
0.57735
 41
0.7853981633977112
 42
2.356194490192572
  0
LINE
  5
260
330
232
100
AcDbEntity
  8
0
  6
Continuous
 62
     0
370
     0
100
AcDbLine
 10
633.738903
 20
220.097363
 30
0.0
 11
633.738903
 21
236.835543
 31
0.0
  0
LINE
  5
261
330
232
100
AcDbEntity
  8
0
  6
Continuous
 62
     0
370
     0
100
AcDbLine
 10
633.738903
 20
236.835543
 30
0.0
 11
642.657393
 21
241.984636
 31
0.0
  0
LINE
  5
262
330
232
100
AcDbEntity
  8
0
  6
Continuous
 62
     0
370
     0
100
AcDbLine
 10
642.25608
 20
242.569434
 30
0.0
 11
633.385349
 21
237.447915
 31
0.0
  0
ARC
  5
263
330
232
100
AcDbEntity
  8
0
  6
Continuous
 62
     0
370
     0
100
AcDbCircle
 10
644.663524
 20
220.68922
 30
0.0
 40
10.9406418018991
100
AcDbArc
 50
183.101049
 51
236.898951
  0
LINE
  5
264
330
232
100
AcDbEntity
  8
0
  6
Continuous
 62
     0
370
     0
100
AcDbLine
 10
621.718087
 20
221.322108
 30
0.0
 11
626.521388
 21
224.095295
 31
0.0
  0
LINE
  5
265
330
232
100
AcDbEntity
  8
0
  6
Continuous
 62
     0
370
     0
100
AcDbLine
 10
633.738903
 20
220.097363
 30
0.0
 11
649.775707
 21
229.356216
 31
0.0
  0
LINE
  5
266
330
232
100
AcDbEntity
  8
0
  6
Continuous
 62
     0
370
     0
100
AcDbLine
 10
653.568139
 20
220.114826
 30
0.0
 11
638.68865
 21
211.524149
 31
0.0
  0
LWPOLYLINE
  5
267
330
232
100
AcDbEntity
  8
0
  6
Continuous
 62
     0
370
    30
100
AcDbPolyline
 90
       30
 70
     0
 43
0.0
 10
626.521362
 20
233.884491
 10
625.740662
 20
233.381943
 10
624.990173
 20
232.848251
 10
624.27478
 20
232.284027
 10
623.599304
 20
231.690155
 10
622.968689
 20
231.067841
 10
622.387573
 20
230.418625
 10
621.860596
 20
229.744385
 10
621.391968
 20
229.047302
 10
620.985657
 20
228.329865
 10
620.645203
 20
227.594864
 10
620.373596
 20
226.845322
 10
620.17334
 20
226.084488
 10
620.046265
 20
225.315765
 10
619.99353
 20
224.542694
 10
620.015625
 20
223.76889
 10
620.112305
 20
222.997955
 10
620.282776
 20
222.233459
 10
620.52533
 20
221.478882
 10
620.837891
 20
220.737534
 10
621.21759
 20
220.012558
 10
621.661072
 20
219.306808
 10
622.164673
 20
218.62291
 10
622.724121
 20
217.963196
 10
623.335022
 20
217.329636
 10
623.992676
 20
216.723938
 10
624.692261
 20
216.147415
 10
625.428955
 20
215.60112
 10
626.197876
 20
215.085754
 10
627.021362
 20
214.586014
  0
ARC
  5
268
330
232
100
AcDbEntity
  8
0
  6
Continuous
 62
     0
370
    30
100
AcDbCircle
 10
644.164311
 20
248.524553
 30
0.0
 40
38.02242001505535
100
AcDbArc
 50
243.200899
 51
289.033865
  0
LINE
  5
269
330
232
100
AcDbEntity
  8
0
  6
Continuous
 62
     0
370
    30
100
AcDbLine
 10
626.521388
 20
223.975722
 30
0.0
 11
626.521388
 21
240.713902
 31
0.0
  0
LINE
  5
26A
330
232
100
AcDbEntity
  8
0
  6
Continuous
 62
     0
370
    30
100
AcDbLine
 10
626.771388
 20
241.146914
 30
0.0
 11
638.314884
 21
247.811555
 31
0.0
  0
ARC
  5
26B
330
232
100
AcDbEntity
  8
0
  6
Continuous
 62
     0
370
    30
100
AcDbCircle
 10
623.273086
 20
223.603518
 30
0.0
 40
3.269557160067068
100
AcDbArc
 50
306.50425
 51
6.536675
  0
LINE
  5
26C
330
232
100
AcDbEntity
  8
0
  6
Continuous
 62
     0
370
    30
100
AcDbLine
 10
603.893971
 20
215.876076
 30
0.0
 11
603.893971
 21
223.812422
 31
0.0
  0
LINE
  5
26D
330
232
100
AcDbEntity
  8
0
  6
Continuous
 62
     0
370
    30
100
AcDbLine
 10
684.089931
 20
215.876076
 30
0.0
 11
684.089931
 21
217.157492
 31
0.0
  0
LINE
  5
26E
330
232
100
AcDbEntity
  8
0
  6
Continuous
 62
     0
370
    30
100
AcDbLine
 10
604.143971
 20
224.245435
 30
0.0
 11
626.521389
 21
237.165043
 31
0.0
  0
LINE
  5
26F
330
232
100
AcDbEntity
  8
0
  6
Continuous
 62
     0
370
     0
100
AcDbLine
 10
542.168575
 20
142.571013
 30
0.0
 11
520.041158
 21
155.346283
 31
0.0
  0
ELLIPSE
  5
270
330
232
100
AcDbEntity
  8
0
  6
Continuous
 62
     0
370
     0
100
AcDbEllipse
 10
542.168575
 20
142.162764
 30
0.0
 11
0.2500000000000001
 21
0.4330127018922194
 31
0.0
210
0.0
220
0.0
230
1.0
 40
0.57735
 41
5.497787143782138
 42
7.068583470577035
  0
ELLIPSE
  5
271
330
232
100
AcDbEntity
  8
0
  6
Continuous
 62
     0
370
     0
100
AcDbEllipse
 10
462.972615
 20
142.162764
 30
0.0
 11
0.2500000000000001
 21
-0.4330127018922193
 31
0.0
210
0.0
220
0.0
230
1.0
 40
0.57735
 41
2.356194490192345
 42
3.926990816987249
  0
LINE
  5
272
330
232
100
AcDbEntity
  8
0
  6
Continuous
 62
     0
370
     0
100
AcDbLine
 10
485.100032
 20
155.346283
 30
0.0
 11
462.972615
 21
142.571013
 31
0.0
  0
LINE
  5
273
330
232
100
AcDbEntity
  8
0
  6
Continuous
 62
     0
370
     0
100
AcDbLine
 10
502.217041
 20
119.096736
 30
0.0
 11
462.619062
 21
141.95864
 31
0.0
  0
ELLIPSE
  5
274
330
232
100
AcDbEntity
  8
0
  6
Continuous
 62
     0
370
     0
100
AcDbEllipse
 10
502.570595
 20
119.30086
 30
0.0
 11
0.2500000000000001
 21
0.4330127018922194
 31
0.0
210
0.0
220
0.0
230
1.0
 40
0.57735
 41
0.7853981633974625
 42
2.356194490192373
  0
LINE
  5
275
330
232
100
AcDbEntity
  8
0
  6
Continuous
 62
     0
370
     0
100
AcDbLine
 10
462.972615
 20
142.571013
 30
0.0
 11
502.570595
 21
119.709108
 31
0.0
  0
ELLIPSE
  5
276
330
232
100
AcDbEntity
  8
0
  6
Continuous
 62
     0
370
     0
100
AcDbEllipse
 10
462.972615
 20
142.162764
 30
0.0
 11
-0.2500000000000001
 21
-0.4330127018922194
 31
0.0
210
0.0
220
0.0
230
-1.0
 40
0.57735
 41
0.785398163397427
 42
2.356194490192373
  0
ARC
  5
277
330
232
100
AcDbEntity
  8
0
  6
Continuous
 62
     0
370
     0
100
AcDbCircle
 10
462.688097
 20
142.162764
 30
0.0
 40
0.2154822031366435
100
AcDbArc
 50
108.68574
 51
251.31426
  0
LINE
  5
278
330
232
100
AcDbEntity
  8
0
  6
Continuous
 62
     0
370
     0
100
AcDbLine
 10
542.522128
 20
141.95864
 30
0.0
 11
502.924148
 21
119.096736
 31
0.0
  0
ELLIPSE
  5
279
330
232
100
AcDbEntity
  8
0
  6
Continuous
 62
     0
370
     0
100
AcDbEllipse
 10
542.168575
 20
142.162764
 30
0.0
 11
-0.2500000000000001
 21
0.4330127018922194
 31
0.0
210
0.0
220
0.0
230
-1.0
 40
0.57735
 41
0.7853981633974485
 42
2.356194490192345
  0
LINE
  5
27A
330
232
100
AcDbEntity
  8
0
  6
Continuous
 62
     0
370
     0
100
AcDbLine
 10
502.570595
 20
119.709108
 30
0.0
 11
542.168575
 21
142.571013
 31
0.0
  0
ELLIPSE
  5
27B
330
232
100
AcDbEntity
  8
0
  6
Continuous
 62
     0
370
     0
100
AcDbEllipse
 10
502.570595
 20
119.30086
 30
0.0
 11
0.2500000000000001
 21
-0.4330127018922194
 31
0.0
210
0.0
220
0.0
230
1.0
 40
0.57735
 41
0.7853981633974483
 42
2.356194490192338
  0
LINE
  5
27C
330
232
100
AcDbEntity
  8
0
  6
Continuous
 62
     0
370
     0
100
AcDbLine
 10
502.924148
 20
119.096736
 30
0.0
 11
502.217041
 21
119.096736
 31
0.0
  0
ARC
  5
27D
330
232
100
AcDbEntity
  8
0
  6
Continuous
 62
     0
370
     0
100
AcDbCircle
 10
542.453092
 20
142.162764
 30
0.0
 40
0.2154822031354973
100
AcDbArc
 50
288.68574
 51
71.31426
  0
ELLIPSE
  5
27E
330
232
100
AcDbEntity
  8
0
  6
Continuous
 62
     0
370
    30
100
AcDbEllipse
 10
462.972615
 20
134.226418
 30
0.0
 11
0.5
 21
0.0
 31
0.0
210
0.0
220
0.0
230
-1.0
 40
0.57735
 41
2.356194490192331
 42
3.141592662229482
  0
LINE
  5
27F
330
232
100
AcDbEntity
  8
0
  6
Continuous
 62
     0
370
     0
100
AcDbLine
 10
462.619062
 20
141.95864
 30
0.0
 11
462.619062
 21
134.022293
 31
0.0
  0
LINE
  5
280
330
232
100
AcDbEntity
  8
0
  6
Continuous
 62
     0
370
    30
100
AcDbLine
 10
502.217041
 20
111.160389
 30
0.0
 11
462.619062
 21
134.022293
 31
0.0
  0
LINE
  5
281
330
232
100
AcDbEntity
  8
0
  6
Continuous
 62
     0
370
     0
100
AcDbLine
 10
502.217041
 20
119.096736
 30
0.0
 11
502.217041
 21
111.160389
 31
0.0
  0
ELLIPSE
  5
282
330
232
100
AcDbEntity
  8
0
  6
Continuous
 62
     0
370
    30
100
AcDbEllipse
 10
502.570595
 20
111.364513
 30
0.0
 11
0.5
 21
0.0
 31
0.0
210
0.0
220
0.0
230
-1.0
 40
0.57735
 41
0.7853981633973488
 42
2.356194490192324
  0
LINE
  5
283
330
232
100
AcDbEntity
  8
0
  6
Continuous
 62
     0
370
     0
100
AcDbLine
 10
502.924148
 20
119.096736
 30
0.0
 11
502.924148
 21
111.160389
 31
0.0
  0
LINE
  5
284
330
232
100
AcDbEntity
  8
0
  6
Continuous
 62
     0
370
    30
100
AcDbLine
 10
542.522128
 20
134.022293
 30
0.0
 11
502.924148
 21
111.160389
 31
0.0
  0
LINE
  5
285
330
232
100
AcDbEntity
  8
0
  6
Continuous
 62
     0
370
     0
100
AcDbLine
 10
542.522128
 20
141.95864
 30
0.0
 11
542.522128
 21
134.022293
 31
0.0
  0
ELLIPSE
  5
286
330
232
100
AcDbEntity
  8
0
  6
Continuous
 62
     0
370
    30
100
AcDbEllipse
 10
542.168575
 20
134.226418
 30
0.0
 11
0.5
 21
0.0
 31
0.0
210
0.0
220
0.0
230
-1.0
 40
0.57735
 41
0.0000000086396888
 42
0.7853981633973915
  0
ELLIPSE
  5
287
330
232
100
AcDbEntity
  8
0
  6
Continuous
 62
     0
370
    30
100
AcDbEllipse
 10
502.570595
 20
142.571013
 30
0.0
 11
24.0
 21
0.0
 31
0.0
210
0.0
220
0.0
230
-1.0
 40
0.57735
 41
0.7853981633974483
 42
2.356194490192613
  0
ELLIPSE
  5
288
330
232
100
AcDbEntity
  8
0
  6
Continuous
 62
     0
370
    30
100
AcDbEllipse
 10
502.570595
 20
142.571013
 30
0.0
 11
24.0
 21
0.0
 31
0.0
210
0.0
220
0.0
230
-1.0
 40
0.57735
 41
0.000000008639688
 42
0.7853981633974477
  0
ELLIPSE
  5
289
330
232
100
AcDbEntity
  8
0
  6
Continuous
 62
     0
370
    30
100
AcDbEllipse
 10
502.570595
 20
142.571013
 30
0.0
 11
24.0
 21
0.0
 31
0.0
210
0.0
220
0.0
230
-1.0
 40
0.57735
 41
2.356194490192613
 42
3.14159266222953
  0
LINE
  5
28A
330
232
100
AcDbEntity
  8
0
  6
Continuous
 62
     0
370
     0
100
AcDbLine
 10
482.588929
 20
138.349049
 30
0.0
 11
482.235376
 21
137.736676
 31
0.0
  0
ARC
  5
28B
330
232
100
AcDbEntity
  8
0
  6
Continuous
 62
     0
370
     0
100
AcDbCircle
 10
484.629677
 20
144.530531
 30
0.0
 40
6.509636980136195
100
AcDbArc
 50
228.270072
 51
251.729928
  0
LINE
  5
28C
330
232
100
AcDbEntity
  8
0
  6
Continuous
 62
     0
370
     0
100
AcDbLine
 10
494.267989
 20
131.60614
 30
0.0
 11
482.588929
 21
138.349049
 31
0.0
  0
LINE
  5
28D
330
232
100
AcDbEntity
  8
0
  6
Continuous
 62
     0
370
     0
100
AcDbLine
 10
482.235376
 20
137.736676
 30
0.0
 11
493.914436
 21
130.993768
 31
0.0
  0
ELLIPSE
  5
28E
330
232
100
AcDbEntity
  8
0
  6
Continuous
 62
     0
370
     0
100
AcDbEllipse
 10
493.914436
 20
131.402016
 30
0.0
 11
0.2500000000001008
 21
0.4330127018921612
 31
0.0
210
0.0
220
0.0
230
1.0
 40
0.57735
 41
3.926990816987518
 42
5.497787143782256
  0
ARC
  5
28F
330
232
100
AcDbEntity
  8
0
  6
Continuous
 62
     0
370
     0
100
AcDbCircle
 10
500.166619
 20
144.141061
 30
0.0
 40
14.55819762175504
100
AcDbArc
 50
244.566621
 51
258.512503
  0
ARC
  5
290
330
232
100
AcDbEntity
  8
0
  6
Continuous
 62
     0
370
    30
100
AcDbCircle
 10
501.254597
 20
140.244002
 30
0.0
 40
11.10969605627773
100
AcDbArc
 50
231.032842
 51
248.967158
  0
ARC
  5
291
330
232
100
AcDbEntity
  8
0
  6
Continuous
 62
     0
370
     0
100
AcDbCircle
 10
503.242168
 20
139.039562
 30
0.0
 40
10.94064180190401
100
AcDbArc
 50
183.101049
 51
236.898951
  0
ARC
  5
292
330
232
100
AcDbEntity
  8
0
  6
Continuous
 62
     0
370
     0
100
AcDbCircle
 10
491.963993
 20
139.144628
 30
0.0
 40
0.7814744144251025
100
AcDbArc
 50
243.101049
 51
296.898951
  0
ARC
  5
293
330
232
100
AcDbEntity
  8
0
  6
Continuous
 62
     0
370
     0
100
AcDbCircle
 10
503.234257
 20
139.025947
 30
0.0
 40
11.63819108548824
100
AcDbArc
 50
182.847907
 51
219.608593
  0
LINE
  5
294
330
232
100
AcDbEntity
  8
0
  6
Continuous
 62
     0
370
     0
100
AcDbLine
 10
491.61044
 20
155.185885
 30
0.0
 11
491.61044
 21
138.447705
 31
0.0
  0
LINE
  5
295
330
232
100
AcDbEntity
  8
0
  6
Continuous
 62
     0
370
     0
100
AcDbLine
 10
485.246479
 20
158.860119
 30
0.0
 11
491.61044
 21
155.185885
 31
0.0
  0
LINE
  5
296
330
232
100
AcDbEntity
  8
0
  6
Continuous
 62
     0
370
     0
100
AcDbLine
 10
485.246479
 20
142.12194
 30
0.0
 11
485.246479
 21
158.860119
 31
0.0
  0
ARC
  5
297
330
232
100
AcDbEntity
  8
0
  6
Continuous
 62
     0
370
     0
100
AcDbCircle
 10
482.036146
 20
141.560826
 30
0.0
 40
3.259000202386548
100
AcDbArc
 50
279.765569
 51
9.914216
  0
LINE
  5
298
330
232
100
AcDbEntity
  8
0
  6
Continuous
 62
     0
370
     0
100
AcDbLine
 10
485.100033
 20
142.326561
 30
0.0
 11
485.246479
 21
142.12194
 31
0.0
  0
ARC
  5
299
330
232
100
AcDbEntity
  8
0
  6
Continuous
 62
     0
370
     0
100
AcDbCircle
 10
482.280044
 20
141.874809
 30
0.0
 40
2.963766873959126
100
AcDbArc
 50
227.9957
 51
4.799677
  0
LINE
  5
29A
330
232
100
AcDbEntity
  8
0
  6
Continuous
 62
     0
370
     0
100
AcDbLine
 10
524.844458
 20
145.796174
 30
0.0
 11
523.451223
 21
147.091825
 31
0.0
  0
LINE
  5
29B
330
232
100
AcDbEntity
  8
0
  6
Continuous
 62
     0
370
     0
100
AcDbLine
 10
492.317546
 20
155.185885
 30
0.0
 11
491.61044
 21
155.185885
 31
0.0
  0
ARC
  5
29C
330
232
100
AcDbEntity
  8
0
  6
Continuous
 62
     0
370
     0
100
AcDbCircle
 10
491.537216
 20
155.143609
 30
0.0
 40
0.7814744144181427
100
AcDbArc
 50
3.101049
 51
56.898951
  0
ARC
  5
29D
330
232
100
AcDbEntity
  8
0
  6
Continuous
 62
     0
370
     0
100
AcDbCircle
 10
492.39077
 20
155.143609
 30
0.0
 40
0.7814744144222577
100
AcDbArc
 50
123.101049
 51
176.898951
  0
ARC
  5
29E
330
232
100
AcDbEntity
  8
0
  6
Continuous
 62
     0
370
     0
100
AcDbCircle
 10
519.825675
 20
171.311692
 30
0.0
 40
0.2154822031356954
100
AcDbArc
 50
288.68574
 51
71.31426
  0
ARC
  5
29F
330
232
100
AcDbEntity
  8
0
  6
Continuous
 62
     0
370
     0
100
AcDbCircle
 10
519.683416
 20
171.558092
 30
0.0
 40
0.2154822031358614
100
AcDbArc
 50
348.68574
 51
131.31426
  0
ARC
  5
2A0
330
232
100
AcDbEntity
  8
0
  6
Continuous
 62
     0
370
     0
100
AcDbCircle
 10
519.114381
 20
171.065293
 30
0.0
 40
0.7814744144203152
100
AcDbArc
 50
3.101049
 51
56.898951
  0
ARC
  5
2A1
330
232
100
AcDbEntity
  8
0
  6
Continuous
 62
     0
370
     0
100
AcDbCircle
 10
485.315514
 20
159.064244
 30
0.0
 40
0.2154822031353069
100
AcDbArc
 50
108.68574
 51
251.31426
  0
ARC
  5
2A2
330
232
100
AcDbEntity
  8
0
  6
Continuous
 62
     0
370
     0
100
AcDbCircle
 10
486.026809
 20
158.817844
 30
0.0
 40
0.7814744144244781
100
AcDbArc
 50
123.101049
 51
176.898951
  0
ARC
  5
2A3
330
232
100
AcDbEntity
  8
0
  6
Continuous
 62
     0
370
     0
100
AcDbCircle
 10
485.457773
 20
159.310643
 30
0.0
 40
0.2154822031356814
100
AcDbArc
 50
48.68574
 51
191.31426
  0
LINE
  5
2A4
330
232
100
AcDbEntity
  8
0
  6
Continuous
 62
     0
370
     0
100
AcDbLine
 10
513.177196
 20
175.394175
 30
0.0
 11
512.927196
 21
175.41894
 31
0.0
  0
LINE
  5
2A5
330
232
100
AcDbEntity
  8
0
  6
Continuous
 62
     0
370
     0
100
AcDbLine
 10
513.427197
 20
175.41894
 30
0.0
 11
513.177196
 21
175.394175
 31
0.0
  0
LINE
  5
2A6
330
232
100
AcDbEntity
  8
0
  6
Continuous
 62
     0
370
     0
100
AcDbLine
 10
513.177196
 20
175.394175
 30
0.0
 11
485.600032
 21
159.472492
 31
0.0
  0
LINE
  5
2A7
330
232
100
AcDbEntity
  8
0
  6
Continuous
 62
     0
370
     0
100
AcDbLine
 10
519.541158
 20
171.719941
 30
0.0
 11
513.177196
 21
175.394175
 31
0.0
  0
LINE
  5
2A8
330
232
100
AcDbEntity
  8
0
  6
Continuous
 62
     0
370
     0
100
AcDbLine
 10
485.600032
 20
159.472492
 30
0.0
 11
491.963993
 21
155.798257
 31
0.0
  0
LINE
  5
2A9
330
232
100
AcDbEntity
  8
0
  6
Continuous
 62
     0
370
     0
100
AcDbLine
 10
519.894711
 20
154.369388
 30
0.0
 11
519.894711
 21
171.107568
 31
0.0
  0
ELLIPSE
  5
2AA
330
232
100
AcDbEntity
  8
0
  6
Continuous
 62
     0
370
     0
100
AcDbEllipse
 10
519.541158
 20
154.573512
 30
0.0
 11
0.5
 21
0.0
 31
0.0
210
0.0
220
0.0
230
-1.0
 40
0.57735
 41
0.0000000086396887
 42
0.7853981633976758
  0
LINE
  5
2AB
330
232
100
AcDbEntity
  8
0
  6
Continuous
 62
     0
370
     0
100
AcDbLine
 10
491.963993
 20
155.798257
 30
0.0
 11
519.541158
 21
171.719941
 31
0.0
  0
LINE
  5
2AC
330
232
100
AcDbEntity
  8
0
  6
Continuous
 62
     0
370
     0
100
AcDbLine
 10
519.894711
 20
171.107568
 30
0.0
 11
492.317546
 21
155.185885
 31
0.0
  0
LINE
  5
2AD
330
232
100
AcDbEntity
  8
0
  6
Continuous
 62
     0
370
     0
100
AcDbLine
 10
492.317546
 20
155.185885
 30
0.0
 11
492.317546
 21
138.447705
 31
0.0
  0
ARC
  5
2AE
330
232
100
AcDbEntity
  8
0
  6
Continuous
 62
     0
370
     0
100
AcDbCircle
 10
530.819332
 20
154.961245
 30
0.0
 40
10.94064180190424
100
AcDbArc
 50
183.101049
 51
236.898951
  0
LINE
  5
2AF
330
232
100
AcDbEntity
  8
0
  6
Continuous
 62
     0
370
     0
100
AcDbLine
 10
485.100032
 20
142.445637
 30
0.0
 11
480.296731
 21
139.67245
 31
0.0
  0
LINE
  5
2B0
330
232
100
AcDbEntity
  8
0
  6
Continuous
 62
     0
370
     0
100
AcDbLine
 10
519.894711
 20
154.369388
 30
0.0
 11
492.317546
 21
138.447705
 31
0.0
  0
LINE
  5
2B1
330
232
100
AcDbEntity
  8
0
  6
Continuous
 62
     0
370
     0
100
AcDbLine
 10
497.267294
 20
129.874491
 30
0.0
 11
524.844458
 21
145.796174
 31
0.0
  0
LWPOLYLINE
  5
2B2
330
232
100
AcDbEntity
  8
0
  6
Continuous
 62
     0
370
    30
100
AcDbPolyline
 90
       58
 70
     0
 43
0.0
 10
520.479553
 20
151.958725
 10
521.258728
 20
151.428268
 10
522.00354
 20
150.865753
 10
522.708862
 20
150.272003
 10
523.369568
 20
149.648163
 10
523.980469
 20
148.995728
 10
524.536804
 20
148.316574
 10
525.033875
 20
147.612915
 10
525.467285
 20
146.887253
 10
525.833313
 20
146.142487
 10
526.128479
 20
145.381744
 10
526.350098
 20
144.608398
 10
526.495972
 20
143.82605
 10
526.564819
 20
143.038406
 10
526.555908
 20
142.249283
 10
526.469299
 20
141.462524
 10
526.305847
 20
140.6819
 10
526.0672
 20
139.911148
 10
525.755493
 20
139.153763
 10
525.373718
 20
138.413116
 10
524.925293
 20
137.692261
 10
524.414307
 20
136.994003
 10
523.845032
 20
136.320801
 10
523.222229
 20
135.674774
 10
522.550842
 20
135.057724
 10
521.835999
 20
134.471054
 10
521.082825
 20
133.915833
 10
520.296509
 20
133.392807
 10
519.482056
 20
132.902328
 10
518.624512
 20
132.43428
 10
517.710571
 20
131.982864
 10
516.741028
 20
131.55101
 10
515.717224
 20
131.141693
 10
514.641113
 20
130.757904
 10
513.515259
 20
130.402573
 10
512.342773
 20
130.078552
 10
511.127472
 20
129.788528
 10
509.873718
 20
129.535019
 10
508.586395
 20
129.320267
 10
507.270905
 20
129.14624
 10
505.933075
 20
129.014572
 10
504.579102
 20
128.926514
 10
503.215393
 20
128.882904
 10
501.848572
 20
128.884171
 10
500.485229
 20
128.930313
 10
499.131989
 20
129.020859
 10
497.795258
 20
129.154968
 10
496.481232
 20
129.331329
 10
495.195648
 20
129.548325
 10
493.943939
 20
129.80397
 10
492.730957
 20
130.095993
 10
491.561035
 20
130.42186
 10
490.437897
 20
130.77887
 10
489.364685
 20
131.164185
 10
488.343903
 20
131.574844
 10
487.377472
 20
132.007889
 10
486.466705
 20
132.460327
 10
485.600037
 20
132.936356
  0
LWPOLYLINE
  5
2B3
330
232
100
AcDbEntity
  8
0
  6
Continuous
 62
     0
370
    30
100
AcDbPolyline
 90
       30
 70
     0
 43
0.0
 10
485.600037
 20
132.936356
 10
484.802856
 20
133.419312
 10
484.032959
 20
133.93364
 10
483.295105
 20
134.478897
 10
482.594177
 20
135.054413
 10
481.935028
 20
135.659164
 10
481.322479
 20
136.291809
 10
480.76123
 20
136.950668
 10
480.255707
 20
137.633789
 10
479.81012
 20
138.338837
 10
479.428223
 20
139.063232
 10
479.113373
 20
139.804077
 10
478.868378
 20
140.558258
 10
478.695496
 20
141.322479
 10
478.596283
 20
142.093246
 10
478.571686
 20
142.86702
 10
478.621948
 20
143.640167
 10
478.746552
 20
144.409088
 10
478.944366
 20
145.170258
 10
479.213593
 20
145.920227
 10
479.551758
 20
146.655762
 10
479.955902
 20
147.37384
 10
480.422485
 20
148.07164
 10
480.947601
 20
148.746689
 10
481.526947
 20
149.39679
 10
482.156006
 20
150.020035
 10
482.830048
 20
150.614883
 10
483.544189
 20
151.18013
 10
484.293549
 20
151.714844
 10
485.100037
 20
152.234833
  0
ARC
  5
2B4
330
232
100
AcDbEntity
  8
0
  6
Continuous
 62
     0
370
     0
100
AcDbCircle
 10
519.156577
 20
142.039628
 30
0.0
 40
6.816104561764554
100
AcDbArc
 50
33.484964
 51
56.629171
  0
ARC
  5
2B5
330
232
100
AcDbEntity
  8
0
  6
Continuous
 62
     0
370
     0
100
AcDbCircle
 10
485.984612
 20
143.428996
 30
0.0
 40
6.816104561544299
100
AcDbArc
 50
213.484964
 51
236.629171
  0
ARC
  5
2B6
330
232
100
AcDbEntity
  8
0
  6
Continuous
 62
     0
370
    30
100
AcDbCircle
 10
531.384327
 20
155.225526
 30
0.0
 40
11.36189324823118
100
AcDbArc
 50
183.289782
 51
225.715307
  0
LINE
  5
2B7
330
232
100
AcDbEntity
  8
0
  6
Continuous
 62
     0
370
    30
100
AcDbLine
 10
520.041158
 20
171.311692
 30
0.0
 11
520.041158
 21
154.573512
 31
0.0
  0
LINE
  5
2B8
330
232
100
AcDbEntity
  8
0
  6
Continuous
 62
     0
370
    30
100
AcDbLine
 10
485.100032
 20
159.064244
 30
0.0
 11
485.100032
 21
142.326064
 31
0.0
  0
LINE
  5
2B9
330
232
100
AcDbEntity
  8
0
  6
Continuous
 62
     0
370
    30
100
AcDbLine
 10
513.427196
 20
175.41894
 30
0.0
 11
519.791158
 21
171.744705
 31
0.0
  0
LINE
  5
2BA
330
232
100
AcDbEntity
  8
0
  6
Continuous
 62
     0
370
    30
100
AcDbLine
 10
485.350032
 20
159.497256
 30
0.0
 11
512.927196
 21
175.41894
 31
0.0
  0
LINE
  5
2BB
330
232
100
AcDbEntity
  8
0
  6
Continuous
 62
     0
370
    30
100
AcDbLine
 10
523.45137
 20
147.091681
 30
0.0
 11
522.65606
 21
147.707172
 31
0.0
  0
ARC
  5
2BC
330
232
100
AcDbEntity
  8
0
  6
Continuous
 62
     0
370
    30
100
AcDbCircle
 10
481.84098
 20
141.95853
 30
0.0
 40
3.279710612378542
100
AcDbArc
 50
306.606667
 51
6.434234
  0
LINE
  5
2BD
330
232
100
AcDbEntity
  8
0
  6
Continuous
 62
     0
370
    30
100
AcDbLine
 10
542.668575
 20
142.162764
 30
0.0
 11
542.668575
 21
134.226418
 31
0.0
  0
LINE
  5
2BE
330
232
100
AcDbEntity
  8
0
  6
Continuous
 62
     0
370
    30
100
AcDbLine
 10
462.472615
 20
142.162764
 30
0.0
 11
462.472615
 21
134.226418
 31
0.0
  0
LINE
  5
2BF
330
232
100
AcDbEntity
  8
0
  6
Continuous
 62
     0
370
    30
100
AcDbLine
 10
462.722615
 20
142.595777
 30
0.0
 11
485.100032
 21
155.515385
 31
0.0
  0
LINE
  5
2C0
330
232
100
AcDbEntity
  8
0
  6
Continuous
 62
     0
370
    30
100
AcDbLine
 10
520.041158
 20
155.515385
 30
0.0
 11
542.418575
 21
142.595777
 31
0.0
  0
ELLIPSE
  5
2C1
330
232
100
AcDbEntity
  8
0
  6
Continuous
 62
     0
370
    30
100
AcDbEllipse
 10
573.281273
 20
183.395842
 30
0.0
 11
24.0
 21
0.0
 31
0.0
210
0.0
220
0.0
230
-1.0
 40
0.57735
 41
5.527701800800004
 42
7.068583470577035
  0
ELLIPSE
  5
2C2
330
232
100
AcDbEntity
  8
0
  6
Continuous
 62
     0
370
    30
100
AcDbEllipse
 10
573.281273
 20
183.395842
 30
0.0
 11
24.0
 21
0.0
 31
0.0
210
0.0
220
0.0
230
-1.0
 40
0.57735
 41
0.7853981633974485
 42
3.897076177248746
  0
ELLIPSE
  5
2C3
330
232
100
AcDbEntity
  8
0
  6
Continuous
 62
     0
370
    30
100
AcDbEllipse
 10
590.251836
 20
189.519566
 30
0.0
 11
-0.5
 21
2.775557561562891E-17
 31
0.0
210
0.0
220
0.0
230
1.0
 40
0.57735
 41
2.356194490192331
 42
3.141592644950108
  0
LINE
  5
2C4
330
232
100
AcDbEntity
  8
0
  6
Continuous
 62
     0
370
    30
100
AcDbLine
 10
563.028225
 20
173.393759
 30
0.0
 11
590.605389
 21
189.315442
 31
0.0
  0
ELLIPSE
  5
2C5
330
232
100
AcDbEntity
  8
0
  6
Continuous
 62
     0
370
    30
100
AcDbEllipse
 10
562.674671
 20
173.597883
 30
0.0
 11
-0.5
 21
0.0
 31
0.0
210
0.0
220
0.0
230
1.0
 40
0.57735
 41
0.7853981633974465
 42
2.356194490192359
  0
LINE
  5
2C6
330
232
100
AcDbEntity
  8
0
  6
Continuous
 62
     0
370
    30
100
AcDbLine
 10
555.957157
 20
177.067993
 30
0.0
 11
562.321118
 21
173.393759
 31
0.0
  0
ELLIPSE
  5
2C7
330
232
100
AcDbEntity
  8
0
  6
Continuous
 62
     0
370
    30
100
AcDbEllipse
 10
556.31071
 20
177.272117
 30
0.0
 11
-0.5
 21
2.775557561562891E-17
 31
0.0
210
0.0
220
0.0
230
1.0
 40
0.57735
 41
-0.000000008639689
 42
0.7853981633974483
  0
ELLIPSE
  5
2C8
330
232
100
AcDbEntity
  8
0
  6
Continuous
 62
     0
370
     0
100
AcDbEllipse
 10
573.281273
 20
160.125689
 30
0.0
 11
-0.2500000000000001
 21
-0.4330127018922194
 31
0.0
210
0.0
220
0.0
230
-1.0
 40
0.57735
 41
0.7853981633974447
 42
2.356194490192345
  0
LINE
  5
2C9
330
232
100
AcDbEntity
  8
0
  6
Continuous
 62
     0
370
     0
100
AcDbLine
 10
573.281273
 20
160.533937
 30
0.0
 11
533.683293
 21
183.395842
 31
0.0
  0
ELLIPSE
  5
2CA
330
232
100
AcDbEntity
  8
0
  6
Continuous
 62
     0
370
     0
100
AcDbEllipse
 10
533.683293
 20
182.987593
 30
0.0
 11
0.2500000000000001
 21
0.4330127018922194
 31
0.0
210
0.0
220
0.0
230
1.0
 40
0.57735
 41
0.7853981633974483
 42
2.35619449019235
  0
LINE
  5
2CB
330
232
100
AcDbEntity
  8
0
  6
Continuous
 62
     0
370
     0
100
AcDbLine
 10
533.32974
 20
182.783469
 30
0.0
 11
572.927719
 21
159.921565
 31
0.0
  0
ELLIPSE
  5
2CC
330
232
100
AcDbEntity
  8
0
  6
Continuous
 62
     0
370
     0
100
AcDbEllipse
 10
533.683293
 20
182.987593
 30
0.0
 11
-0.25
 21
0.4330127018922194
 31
0.0
210
0.0
220
0.0
230
-1.0
 40
0.57735
 41
5.497787143782133
 42
7.068583470577035
  0
LINE
  5
2CD
330
232
100
AcDbEntity
  8
0
  6
Continuous
 62
     0
370
     0
100
AcDbLine
 10
533.683293
 20
183.395842
 30
0.0
 11
555.81071
 21
196.171112
 31
0.0
  0
LINE
  5
2CE
330
232
100
AcDbEntity
  8
0
  6
Continuous
 62
     0
370
     0
100
AcDbLine
 10
590.751836
 20
196.171112
 30
0.0
 11
612.879253
 21
183.395842
 31
0.0
  0
ELLIPSE
  5
2CF
330
232
100
AcDbEntity
  8
0
  6
Continuous
 62
     0
370
     0
100
AcDbEllipse
 10
612.879253
 20
182.987593
 30
0.0
 11
-0.2500000000000001
 21
-0.4330127018922193
 31
0.0
210
0.0
220
0.0
230
-1.0
 40
0.57735
 41
2.356194490192338
 42
3.92699081698724
  0
ELLIPSE
  5
2D0
330
232
100
AcDbEntity
  8
0
  6
Continuous
 62
     0
370
     0
100
AcDbEllipse
 10
612.879253
 20
182.987593
 30
0.0
 11
0.2500000000000001
 21
-0.4330127018922194
 31
0.0
210
0.0
220
0.0
230
1.0
 40
0.57735
 41
0.7853981633974625
 42
2.356194490192324
  0
LINE
  5
2D1
330
232
100
AcDbEntity
  8
0
  6
Continuous
 62
     0
370
     0
100
AcDbLine
 10
612.879253
 20
183.395842
 30
0.0
 11
573.281273
 21
160.533937
 31
0.0
  0
ELLIPSE
  5
2D2
330
232
100
AcDbEntity
  8
0
  6
Continuous
 62
     0
370
     0
100
AcDbEllipse
 10
573.281273
 20
160.125689
 30
0.0
 11
-0.2500000000000001
 21
0.4330127018922194
 31
0.0
210
0.0
220
0.0
230
-1.0
 40
0.57735
 41
0.7853981633974485
 42
2.356194490192334
  0
LINE
  5
2D3
330
232
100
AcDbEntity
  8
0
  6
Continuous
 62
     0
370
     0
100
AcDbLine
 10
573.634826
 20
159.921565
 30
0.0
 11
613.232806
 21
182.783469
 31
0.0
  0
ARC
  5
2D4
330
232
100
AcDbEntity
  8
0
  6
Continuous
 62
     0
370
     0
100
AcDbCircle
 10
613.16377
 20
182.987593
 30
0.0
 40
0.2154822031354002
100
AcDbArc
 50
288.68574
 51
71.31426
  0
ARC
  5
2D5
330
232
100
AcDbEntity
  8
0
  6
Continuous
 62
     0
370
     0
100
AcDbCircle
 10
533.398775
 20
182.987593
 30
0.0
 40
0.2154822031355206
100
AcDbArc
 50
108.68574
 51
251.31426
  0
ARC
  5
2D6
330
232
100
AcDbEntity
  8
0
  6
Continuous
 62
     0
370
     0
100
AcDbCircle
 10
573.281273
 20
160.618488
 30
0.0
 40
0.7814744144216061
100
AcDbArc
 50
243.101049
 51
296.898951
  0
LINE
  5
2D7
330
232
100
AcDbEntity
  8
0
  6
Continuous
 62
     0
370
     0
100
AcDbLine
 10
613.232806
 20
182.783469
 30
0.0
 11
613.232806
 21
174.847122
 31
0.0
  0
ELLIPSE
  5
2D8
330
232
100
AcDbEntity
  8
0
  6
Continuous
 62
     0
370
    30
100
AcDbEllipse
 10
612.879253
 20
175.051247
 30
0.0
 11
-0.5
 21
0.0
 31
0.0
210
0.0
220
0.0
230
1.0
 40
0.57735
 41
2.356194490192345
 42
3.141592644950106
  0
LINE
  5
2D9
330
232
100
AcDbEntity
  8
0
  6
Continuous
 62
     0
370
     0
100
AcDbLine
 10
573.634826
 20
159.921565
 30
0.0
 11
573.634826
 21
151.985218
 31
0.0
  0
LINE
  5
2DA
330
232
100
AcDbEntity
  8
0
  6
Continuous
 62
     0
370
    30
100
AcDbLine
 10
573.634826
 20
151.985218
 30
0.0
 11
613.232806
 21
174.847122
 31
0.0
  0
LWPOLYLINE
  5
2DB
330
232
100
AcDbEntity
  8
0
  6
Continuous
 62
     0
370
    30
100
AcDbPolyline
 90
       59
 70
     0
 43
0.0
 10
556.133911
 20
173.495819
 10
556.992798
 20
173.023651
 10
557.908203
 20
172.567932
 10
558.879456
 20
172.131592
 10
559.905273
 20
171.71759
 10
560.983643
 20
171.328918
 10
562.112244
 20
170.968521
 10
563.287842
 20
170.639236
 10
564.506714
 20
170.343765
 10
565.764709
 20
170.084641
 10
567.056885
 20
169.864166
 10
568.377869
 20
169.684296
 10
569.721985
 20
169.546722
 10
571.083008
 20
169.452744
 10
572.454651
 20
169.403229
 10
573.8302
 20
169.398682
 10
575.203125
 20
169.439133
 10
576.566833
 20
169.5242
 10
577.914856
 20
169.653061
 10
579.241028
 20
169.824493
 10
580.539429
 20
170.036926
 10
581.804749
 20
170.288422
 10
583.031921
 20
170.576752
 10
584.216553
 20
170.899414
 10
585.354919
 20
171.253769
 10
586.443665
 20
171.636963
 10
587.480225
 20
172.046082
 10
588.462646
 20
172.478149
 10
589.389404
 20
172.930191
 10
590.259705
 20
173.399277
 10
591.083374
 20
173.888885
 10
591.878906
 20
174.410843
 10
592.641846
 20
174.965134
 10
593.367126
 20
175.551086
 10
594.049622
 20
176.167679
 10
594.684143
 20
176.813538
 10
595.265747
 20
177.486938
 10
595.789734
 20
178.185822
 10
596.251587
 20
178.907776
 10
596.647278
 20
179.650055
 10
596.973267
 20
180.409637
 10
597.226562
 20
181.183243
 10
597.404724
 20
181.967361
 10
597.506104
 20
182.758331
 10
597.529785
 20
183.552368
 10
597.475403
 20
184.345642
 10
597.343567
 20
185.134354
 10
597.135559
 20
185.914764
 10
596.853333
 20
186.683258
 10
596.499451
 20
187.436401
 10
596.077209
 20
188.171005
 10
595.590393
 20
188.884186
 10
595.043152
 20
189.573288
 10
594.440125
 20
190.236069
 10
593.786072
 20
190.870575
 10
593.086121
 20
191.475235
 10
592.345398
 20
192.048828
 10
591.56897
 20
192.590439
 10
590.751831
 20
193.105667
  0
LWPOLYLINE
  5
2DC
330
232
100
AcDbEntity
  8
0
  6
Continuous
 62
     0
370
    30
100
AcDbPolyline
 90
       30
 70
     0
 43
0.0
 10
555.81073
 20
193.105667
 10
555.009155
 20
192.600769
 10
554.23761
 20
192.063812
 10
553.501038
 20
191.495316
 10
552.804504
 20
190.896164
 10
552.153015
 20
190.267517
 10
551.551575
 20
189.610947
 10
551.004883
 20
188.928284
 10
550.517395
 20
188.221771
 10
550.093384
 20
187.493927
 10
549.73645
 20
186.747589
 10
549.449829
 20
185.985855
 10
549.236206
 20
185.212051
 10
549.097473
 20
184.429703
 10
549.035034
 20
183.642441
 10
549.049438
 20
182.854019
 10
549.140564
 20
182.068176
 10
549.307495
 20
181.288605
 10
549.548767
 20
180.518921
 10
549.862061
 20
179.762573
 10
550.244507
 20
179.022812
 10
550.692749
 20
178.302628
 10
551.202942
 20
177.604782
 10
551.770691
 20
176.931641
 10
552.391479
 20
176.285339
 10
553.060364
 20
175.667572
 10
553.772522
 20
175.079788
 10
554.522766
 20
174.52301
 10
555.306152
 20
173.998016
 10
556.133911
 20
173.495819
  0
ELLIPSE
  5
2DD
330
232
100
AcDbEntity
  8
0
  6
Continuous
 62
     0
370
    30
100
AcDbEllipse
 10
533.683293
 20
175.051247
 30
0.0
 11
-0.5
 21
2.775557561562891E-17
 31
0.0
210
0.0
220
0.0
230
1.0
 40
0.57735
 41
-0.0000000086396881
 42
0.7853981633974483
  0
LINE
  5
2DE
330
232
100
AcDbEntity
  8
0
  6
Continuous
 62
     0
370
     0
100
AcDbLine
 10
533.32974
 20
174.847122
 30
0.0
 11
533.32974
 21
182.783469
 31
0.0
  0
LINE
  5
2DF
330
232
100
AcDbEntity
  8
0
  6
Continuous
 62
     0
370
    30
100
AcDbLine
 10
533.32974
 20
174.847122
 30
0.0
 11
572.927719
 21
151.985218
 31
0.0
  0
LINE
  5
2E0
330
232
100
AcDbEntity
  8
0
  6
Continuous
 62
     0
370
     0
100
AcDbLine
 10
572.927719
 20
151.985218
 30
0.0
 11
572.927719
 21
159.921565
 31
0.0
  0
ELLIPSE
  5
2E1
330
232
100
AcDbEntity
  8
0
  6
Continuous
 62
     0
370
    30
100
AcDbEllipse
 10
573.281273
 20
152.189342
 30
0.0
 11
-0.5
 21
0.0
 31
0.0
210
0.0
220
0.0
230
1.0
 40
0.57735
 41
0.7853981633974483
 42
2.356194490192345
  0
ARC
  5
2E2
330
232
100
AcDbEntity
  8
0
  6
Continuous
 62
     0
370
    30
100
AcDbCircle
 10
665.212312
 20
207.236195
 30
0.0
 40
0.8510132691732224
100
AcDbArc
 50
240.74884
 51
294.234819
  0
LINE
  5
2E3
330
232
100
AcDbEntity
  8
0
  6
Continuous
 62
     0
370
    30
100
AcDbLine
 10
657.387559
 20
210.771237
 30
0.0
 11
664.796474
 21
206.493698
 31
0.0
  0
ARC
  5
2E4
330
232
100
AcDbEntity
  8
0
  6
Continuous
 62
     0
370
    30
100
AcDbCircle
 10
693.059611
 20
222.574184
 30
0.0
 40
0.2079844243727982
100
AcDbArc
 50
292.379313
 51
19.725417
  0
LINE
  5
2E5
330
232
100
AcDbEntity
  8
0
  6
Continuous
 62
     0
370
    30
100
AcDbLine
 10
665.561634
 20
206.460181
 30
0.0
 11
693.138798
 21
222.381864
 31
0.0
  0
LINE
  5
2E6
330
232
100
AcDbEntity
  8
0
  6
Continuous
 62
     0
370
     0
100
AcDbLine
 10
657.387559
 20
210.771237
 30
0.0
 11
651.546062
 21
225.458971
 31
0.0
  0
ELLIPSE
  5
2E7
330
232
100
AcDbEntity
  8
0
  6
Continuous
 62
     0
370
     0
100
AcDbEllipse
 10
651.899615
 20
225.663095
 30
0.0
 11
0.4646039010202274
 21
0.1847788276745706
 31
0.0
210
0.0
220
0.0
230
-1.0
 40
0.200293
 41
2.511410905407562
 42
3.207591589896106
  0
LINE
  5
2E8
330
232
100
AcDbEntity
  8
0
  6
Continuous
 62
     0
370
     0
100
AcDbLine
 10
664.796474
 20
206.493698
 30
0.0
 11
657.012449
 21
226.065682
 31
0.0
  0
LWPOLYLINE
  5
2E9
330
232
100
AcDbEntity
  8
0
  6
Continuous
 62
     0
370
     0
100
AcDbPolyline
 90
       28
 70
     0
 43
0.0
 10
657.012451
 20
226.065689
 10
656.197388
 20
228.051178
 10
655.32666
 20
230.046448
 10
654.400757
 20
232.047409
 10
653.420349
 20
234.049713
 10
652.386414
 20
236.048981
 10
651.300232
 20
238.040619
 10
650.163208
 20
240.02002
 10
648.977234
 20
241.982498
 10
647.744263
 20
243.923355
 10
646.466614
 20
245.837921
 10
645.146729
 20
247.721588
 10
643.787354
 20
249.569809
 10
642.391479
 20
251.378189
 10
640.962158
 20
253.142502
 10
639.502747
 20
254.858688
 10
638.016541
 20
256.522949
 10
636.50708
 20
258.131714
 10
634.978027
 20
259.681702
 10
633.432983
 20
261.169922
 10
631.87561
 20
262.593719
 10
630.309509
 20
263.950745
 10
628.738403
 20
265.239044
 10
627.165833
 20
266.45697
 10
625.595276
 20
267.60321
 10
624.03009
 20
268.676849
 10
622.473572
 20
269.677277
 10
620.873535
 20
270.6362
  0
LINE
  5
2EA
330
232
100
AcDbEntity
  8
0
  6
Continuous
 62
     0
370
     0
100
AcDbLine
 10
620.873555
 20
270.636194
 30
0.0
 11
598.03001
 21
283.824921
 31
0.0
  0
LWPOLYLINE
  5
2EB
330
232
100
AcDbEntity
  8
0
  6
Continuous
 62
     0
370
     0
100
AcDbPolyline
 90
       47
 70
     0
 43
0.0
 10
598.030029
 20
283.824921
 10
596.729065
 20
284.552795
 10
595.413269
 20
285.241638
 10
594.084351
 20
285.888855
 10
592.74408
 20
286.491791
 10
591.39447
 20
287.047913
 10
590.037659
 20
287.554688
 10
588.675781
 20
288.009613
 10
587.311218
 20
288.410339
 10
585.94635
 20
288.754608
 10
584.583618
 20
289.040253
 10
583.225769
 20
289.265289
 10
581.875305
 20
289.427856
 10
580.535034
 20
289.526306
 10
579.207642
 20
289.559204
 10
577.895874
 20
289.525238
 10
576.602539
 20
289.423431
 10
575.330444
 20
289.252991
 10
574.082153
 20
289.013397
 10
572.860474
 20
288.704346
 10
571.667908
 20
288.325836
 10
570.50708
 20
287.878143
 10
569.38031
 20
287.361786
 10
568.289856
 20
286.777588
 10
567.238037
 20
286.126587
 10
566.226685
 20
285.410156
 10
565.257751
 20
284.629822
 10
564.332886
 20
283.787415
 10
563.453491
 20
282.88501
 10
562.620972
 20
281.924835
 10
561.836426
 20
280.909332
 10
561.100708
 20
279.841125
 10
560.41449
 20
278.722992
 10
559.778381
 20
277.557861
 10
559.192566
 20
276.348663
 10
558.657166
 20
275.098602
 10
558.17218
 20
273.810791
 10
557.737305
 20
272.488464
 10
557.352112
 20
271.134827
 10
557.01593
 20
269.753204
 10
556.728149
 20
268.346741
 10
556.487732
 20
266.918671
 10
556.293701
 20
265.472168
 10
556.144897
 20
264.010254
 10
556.040161
 20
262.53595
 10
555.978027
 20
261.052155
 10
555.957153
 20
259.534149
  0
LINE
  5
2EC
330
232
100
AcDbEntity
  8
0
  6
Continuous
 62
     0
370
     0
100
AcDbLine
 10
555.957157
 20
259.534148
 30
0.0
 11
555.957157
 21
177.067993
 31
0.0
  0
LINE
  5
2ED
330
232
100
AcDbEntity
  8
0
  6
Continuous
 62
     0
370
     0
100
AcDbLine
 10
562.321118
 20
173.393759
 30
0.0
 11
562.321118
 21
255.859913
 31
0.0
  0
LWPOLYLINE
  5
2EE
330
232
100
AcDbEntity
  8
0
  6
Continuous
 62
     0
370
     0
100
AcDbPolyline
 90
       43
 70
     0
 43
0.0
 10
562.321106
 20
255.859909
 10
562.341614
 20
257.245514
 10
562.404236
 20
258.624054
 10
562.510559
 20
259.992462
 10
562.662048
 20
261.347443
 10
562.860107
 20
262.685608
 10
563.105835
 20
264.003479
 10
563.400391
 20
265.297577
 10
563.74469
 20
266.56427
 10
564.139404
 20
267.799957
 10
564.585083
 20
269.001007
 10
565.082092
 20
270.163818
 10
565.630432
 20
271.284882
 10
566.230042
 20
272.360718
 10
566.880493
 20
273.388
 10
567.581238
 20
274.363525
 10
568.331299
 20
275.284241
 10
569.1297
 20
276.147339
 10
569.974976
 20
276.950165
 10
570.865601
 20
277.69043
 10
571.799805
 20
278.365967
 10
572.775452
 20
278.975037
 10
573.790405
 20
279.516083
 10
574.842163
 20
279.987946
 10
575.928284
 20
280.389801
 10
577.045959
 20
280.721069
 10
578.192322
 20
280.981567
 10
579.364502
 20
281.171478
 10
580.559509
 20
281.291199
 10
581.774231
 20
281.341492
 10
583.005615
 20
281.323456
 10
584.250549
 20
281.238434
 10
585.505981
 20
281.088013
 10
586.768921
 20
280.874023
 10
588.036377
 20
280.598602
 10
589.305481
 20
280.263947
 10
590.573486
 20
279.872498
 10
591.837769
 20
279.426849
 10
593.095703
 20
278.929718
 10
594.344971
 20
278.38385
 10
595.583313
 20
277.792145
 10
596.808655
 20
277.157471
 10
598.030029
 20
276.47644
  0
LINE
  5
2EF
330
232
100
AcDbEntity
  8
0
  6
Continuous
 62
     0
370
     0
100
AcDbLine
 10
598.03001
 20
276.476452
 30
0.0
 11
620.873555
 21
263.287725
 31
0.0
  0
LWPOLYLINE
  5
2F0
330
232
100
AcDbEntity
  8
0
  6
Continuous
 62
     0
370
     0
100
AcDbPolyline
 90
       26
 70
     0
 43
0.0
 10
620.873535
 20
263.28772
 10
622.289062
 20
262.438049
 10
623.716125
 20
261.515717
 10
625.151367
 20
260.520996
 10
626.591248
 20
259.45462
 10
628.032166
 20
258.317657
 10
629.470337
 20
257.111633
 10
630.901917
 20
255.838425
 10
632.323059
 20
254.500351
 10
633.729858
 20
253.100067
 10
635.118347
 20
251.640686
 10
636.48468
 20
250.12558
 10
637.825073
 20
248.558533
 10
639.135986
 20
246.943573
 10
640.413818
 20
245.285004
 10
641.655212
 20
243.587357
 10
642.857178
 20
241.855362
 10
644.016785
 20
240.093872
 10
645.131409
 20
238.307831
 10
646.19873
 20
236.502258
 10
647.216736
 20
234.682159
 10
648.183594
 20
232.852509
 10
649.097961
 20
231.018188
 10
649.958618
 20
229.184006
 10
650.764832
 20
227.354553
 10
651.546082
 20
225.458969
  0
LINE
  5
2F1
330
232
100
AcDbEntity
  8
0
  6
Continuous
 62
     0
370
     0
100
AcDbLine
 10
665.561634
 20
206.460181
 30
0.0
 11
657.669691
 21
226.303512
 31
0.0
  0
ELLIPSE
  5
2F2
330
232
100
AcDbEntity
  8
0
  6
Continuous
 62
     0
370
     0
100
AcDbEllipse
 10
657.366003
 20
226.269806
 30
0.0
 11
0.4646039010202274
 21
0.1847788276745706
 31
0.0
210
0.0
220
0.0
230
-1.0
 40
0.200293
 41
0.9406145786126491
 42
2.511410905407562
  0
LINE
  5
2F3
330
232
100
AcDbEntity
  8
0
  6
Continuous
 62
     0
370
     0
100
AcDbLine
 10
693.138798
 20
222.381864
 30
0.0
 11
685.246855
 21
242.225195
 31
0.0
  0
LINE
  5
2F4
330
232
100
AcDbEntity
  8
0
  6
Continuous
 62
     0
370
     0
100
AcDbLine
 10
685.246855
 20
242.225195
 30
0.0
 11
657.669691
 21
226.303512
 31
0.0
  0
ARC
  5
2F5
330
232
100
AcDbEntity
  8
0
  6
Continuous
 62
     0
370
     0
100
AcDbCircle
 10
648.946532
 20
287.008401
 30
0.0
 40
0.2154822031380642
100
AcDbArc
 50
348.68574
 51
131.31426
  0
LWPOLYLINE
  5
2F6
330
232
100
AcDbEntity
  8
0
  6
Continuous
 62
     0
370
     0
100
AcDbPolyline
 90
       27
 70
     0
 43
0.0
 10
648.80426
 20
287.170258
 10
650.314941
 20
286.266998
 10
651.845093
 20
285.288635
 10
653.39209
 20
284.234192
 10
654.953003
 20
283.103058
 10
656.524719
 20
281.894897
 10
658.103882
 20
280.609772
 10
659.686951
 20
279.248047
 10
661.270264
 20
277.810516
 10
662.849976
 20
276.298431
 10
664.421997
 20
274.713348
 10
665.982239
 20
273.057343
 10
667.52655
 20
271.332855
 10
669.05072
 20
269.542786
 10
670.550415
 20
267.690399
 10
672.021484
 20
265.779388
 10
673.459778
 20
263.813843
 10
674.861145
 20
261.798157
 10
676.22168
 20
259.73703
 10
677.537659
 20
257.635498
 10
678.805481
 20
255.498825
 10
680.021912
 20
253.332443
 10
681.183777
 20
251.141968
 10
682.28833
 20
248.933105
 10
683.333191
 20
246.711609
 10
684.316162
 20
244.483261
 10
685.246826
 20
242.225189
  0
ARC
  5
2F7
330
232
100
AcDbEntity
  8
0
  6
Continuous
 62
     0
370
     0
100
AcDbCircle
 10
621.08485
 20
263.245449
 30
0.0
 40
0.2154822031349671
100
AcDbArc
 50
168.68574
 51
311.31426
  0
LWPOLYLINE
  5
2F8
330
232
100
AcDbEntity
  8
0
  6
Continuous
 62
     0
370
     0
100
AcDbPolyline
 90
       27
 70
     0
 43
0.0
 10
657.669678
 20
226.303513
 10
656.751221
 20
228.532959
 10
655.769043
 20
230.761368
 10
654.724976
 20
232.982971
 10
653.621155
 20
235.192047
 10
652.460022
 20
237.382797
 10
651.244263
 20
239.549515
 10
649.977051
 20
241.686615
 10
648.661682
 20
243.78862
 10
647.301697
 20
245.850296
 10
645.900818
 20
247.866608
 10
644.463013
 20
249.83284
 10
642.99231
 20
251.744553
 10
641.492981
 20
253.597717
 10
639.969116
 20
255.388611
 10
638.425049
 20
257.113953
 10
636.864929
 20
258.770844
 10
635.29303
 20
260.356842
 10
633.71344
 20
261.869904
 10
632.130127
 20
263.30838
 10
630.546997
 20
264.671082
 10
628.967773
 20
265.957214
 10
627.395935
 20
267.166382
 10
625.8349
 20
268.298492
 10
624.287659
 20
269.353912
 10
622.757263
 20
270.333252
 10
621.227112
 20
271.248566
  0
ARC
  5
2F9
330
232
100
AcDbEntity
  8
0
  6
Continuous
 62
     0
370
     0
100
AcDbCircle
 10
621.653886
 20
270.593919
 30
0.0
 40
0.7814744144191306
100
AcDbArc
 50
123.101049
 51
176.898951
  0
LINE
  5
2FA
330
232
100
AcDbEntity
  8
0
  6
Continuous
 62
     0
370
     0
100
AcDbLine
 10
648.804273
 20
287.17025
 30
0.0
 11
621.227109
 21
271.248567
 31
0.0
  0
LINE
  5
2FB
330
232
100
AcDbEntity
  8
0
  6
Continuous
 62
     0
370
     0
100
AcDbLine
 10
648.804273
 20
287.17025
 30
0.0
 11
625.960728
 21
300.358977
 31
0.0
  0
LINE
  5
2FC
330
232
100
AcDbEntity
  8
0
  6
Continuous
 62
     0
370
     0
100
AcDbLine
 10
625.960728
 20
300.358977
 30
0.0
 11
598.383564
 21
284.437294
 31
0.0
  0
LINE
  5
2FD
330
232
100
AcDbEntity
  8
0
  6
Continuous
 62
     0
370
     0
100
AcDbLine
 10
598.383564
 20
284.437294
 30
0.0
 11
621.227109
 21
271.248567
 31
0.0
  0
ELLIPSE
  5
2FE
330
232
100
AcDbEntity
  8
0
  6
Continuous
 62
     0
370
     0
100
AcDbEllipse
 10
625.960728
 20
299.950729
 30
0.0
 11
0.2500000000000011
 21
0.4330127018922211
 31
0.0
210
0.0
220
0.0
230
1.0
 40
0.57735
 41
-0.0000000228501555
 42
0.7853981633974483
  0
ELLIPSE
  5
2FF
330
232
100
AcDbEntity
  8
0
  6
Continuous
 62
     0
370
     0
100
AcDbEllipse
 10
598.383564
 20
276.680576
 30
0.0
 11
0.2500000000000011
 21
0.4330127018922211
 31
0.0
210
0.0
220
0.0
230
1.0
 40
0.57735
 41
2.356194490192345
 42
3.141592630739628
  0
ELLIPSE
  5
300
330
232
100
AcDbEntity
  8
0
  6
Continuous
 62
     0
370
     0
100
AcDbEllipse
 10
598.383564
 20
284.029045
 30
0.0
 11
0.2500000000000011
 21
0.4330127018922211
 31
0.0
210
0.0
220
0.0
230
1.0
 40
0.57735
 41
0.7853981633974483
 42
2.356194490192345
  0
LWPOLYLINE
  5
301
330
232
100
AcDbEntity
  8
0
  6
Continuous
 62
     0
370
     0
100
AcDbPolyline
 90
       47
 70
     0
 43
0.0
 10
598.383545
 20
284.437286
 10
597.071594
 20
285.171326
 10
595.744568
 20
285.866028
 10
594.404358
 20
286.518738
 10
593.052734
 20
287.126801
 10
591.69165
 20
287.687622
 10
590.323303
 20
288.198669
 10
588.949829
 20
288.65744
 10
587.573669
 20
289.061523
 10
586.197144
 20
289.408661
 10
584.822937
 20
289.696686
 10
583.453491
 20
289.923584
 10
582.091553
 20
290.087463
 10
580.739929
 20
290.186676
 10
579.401245
 20
290.219757
 10
578.078369
 20
290.185425
 10
576.774109
 20
290.082642
 10
575.49115
 20
289.910645
 10
574.232361
 20
289.668884
 10
573.000305
 20
289.357086
 10
571.797729
 20
288.97525
 10
570.627014
 20
288.523621
 10
569.490784
 20
288.002716
 10
568.391174
 20
287.413422
 10
567.330444
 20
286.756744
 10
566.310608
 20
286.034058
 10
565.333557
 20
285.246948
 10
564.40094
 20
284.397247
 10
563.514221
 20
283.487
 10
562.674744
 20
282.518524
 10
561.883667
 20
281.494232
 10
561.141846
 20
280.416809
 10
560.449951
 20
279.289032
 10
559.808533
 20
278.113831
 10
559.217896
 20
276.894226
 10
558.678162
 20
275.633392
 10
558.189209
 20
274.334534
 10
557.750854
 20
273.000824
 10
557.362549
 20
271.63562
 10
557.023682
 20
270.242126
 10
556.733582
 20
268.823639
 10
556.491333
 20
267.383362
 10
556.295837
 20
265.924469
 10
556.145996
 20
264.450073
 10
556.040466
 20
262.963196
 10
555.978027
 20
261.466766
 10
555.957153
 20
259.942383
  0
ARC
  5
302
330
232
100
AcDbEntity
  8
0
  6
Continuous
 62
     0
370
     0
100
AcDbCircle
 10
556.026192
 20
259.738272
 30
0.0
 40
0.2154822031350307
100
AcDbArc
 50
108.68574
 51
251.31426
  0
ELLIPSE
  5
303
330
232
100
AcDbEntity
  8
0
  6
Continuous
 62
     0
370
     0
100
AcDbEllipse
 10
625.960728
 20
251.369182
 30
0.0
 11
30.00000000000001
 21
-51.96152422706632
 31
0.0
210
0.0
220
0.0
230
1.0
 40
0.57735
 41
2.356194490192345
 42
3.141592685079635
  0
ARC
  5
304
330
232
100
AcDbEntity
  8
0
  6
Continuous
 62
     0
370
     0
100
AcDbCircle
 10
630.958995
 20
271.976003
 30
0.0
 40
40.35407396995936
100
AcDbArc
 50
169.368122
 51
180.276024
  0
ARC
  5
305
330
232
100
AcDbEntity
  8
0
  6
Continuous
 62
     0
370
     0
100
AcDbCircle
 10
590.536353
 20
271.985721
 30
0.0
 40
0.2154822031360229
100
AcDbArc
 50
288.68574
 51
71.31426
  0
ELLIPSE
  5
306
330
232
100
AcDbEntity
  8
0
  6
Continuous
 62
     0
370
     0
100
AcDbEllipse
 10
598.383564
 20
235.447499
 30
0.0
 11
-25.00000000000001
 21
43.30127018922194
 31
0.0
210
0.0
220
0.0
230
-1.0
 40
0.57735
 41
5.497787143782138
 42
7.058558558275174
  0
LINE
  5
307
330
232
100
AcDbEntity
  8
0
  6
Continuous
 62
     0
370
     0
100
AcDbLine
 10
590.605389
 20
271.781597
 30
0.0
 11
563.028225
 21
255.859913
 31
0.0
  0
ARC
  5
308
330
232
100
AcDbEntity
  8
0
  6
Continuous
 62
     0
370
     0
100
AcDbCircle
 10
562.674671
 20
256.556837
 30
0.0
 40
0.781474414417749
100
AcDbArc
 50
243.101049
 51
296.898951
  0
LINE
  5
309
330
232
100
AcDbEntity
  8
0
  6
Continuous
 62
     0
370
     0
100
AcDbLine
 10
590.605389
 20
271.781597
 30
0.0
 11
590.605389
 21
189.315442
 31
0.0
  0
LINE
  5
30A
330
232
100
AcDbEntity
  8
0
  6
Continuous
 62
     0
370
     0
100
AcDbLine
 10
563.028225
 20
255.859913
 30
0.0
 11
563.028225
 21
173.393759
 31
0.0
  0
LINE
  5
30B
330
232
100
AcDbEntity
  8
0
  6
Continuous
 62
     0
370
    30
100
AcDbLine
 10
590.751836
 20
189.519566
 30
0.0
 11
590.751836
 21
271.985721
 31
0.0
  0
LINE
  5
30C
330
232
100
AcDbEntity
  8
0
  6
Continuous
 62
     0
370
    30
100
AcDbLine
 10
555.81071
 20
177.272117
 30
0.0
 11
555.81071
 21
259.738272
 31
0.0
  0
LWPOLYLINE
  5
30D
330
232
100
AcDbEntity
  8
0
  6
Continuous
 62
     0
370
    30
100
AcDbPolyline
 90
       32
 70
     0
 43
0.0
 10
573.383545
 20
278.748779
 10
574.011475
 20
279.093079
 10
574.655273
 20
279.410126
 10
575.314514
 20
279.699768
 10
575.98877
 20
279.961792
 10
576.67749
 20
280.196014
 10
577.380371
 20
280.402191
 10
578.096802
 20
280.580139
 10
578.826477
 20
280.729675
 10
579.568787
 20
280.850586
 10
580.323364
 20
280.942719
 10
581.089783
 20
281.005981
 10
581.867493
 20
281.040405
 10
582.656067
 20
281.04599
 10
583.455078
 20
281.022675
 10
584.263977
 20
280.97049
 10
585.082397
 20
280.889465
 10
585.90979
 20
280.77951
 10
586.745605
 20
280.640656
 10
587.589233
 20
280.47287
 10
588.440247
 20
280.276154
 10
589.297913
 20
280.050446
 10
590.161743
 20
279.795898
 10
591.031128
 20
279.513123
 10
591.905518
 20
279.202881
 10
592.784424
 20
278.865845
 10
593.667114
 20
278.500854
 10
594.552979
 20
278.103699
 10
595.441406
 20
277.676056
 10
596.332275
 20
277.235474
 10
597.224915
 20
276.7836
 10
598.133545
 20
276.247559
  0
ARC
  5
30E
330
232
100
AcDbEntity
  8
0
  6
Continuous
 62
     0
370
    30
100
AcDbCircle
 10
631.585399
 20
272.131324
 30
0.0
 40
40.83382260398677
100
AcDbArc
 50
169.767731
 51
180.204302
  0
LWPOLYLINE
  5
30F
330
232
100
AcDbEntity
  8
0
  6
Continuous
 62
     0
370
    30
100
AcDbPolyline
 90
       23
 70
     0
 43
0.0
 10
595.960754
 20
303.330719
 10
597.065918
 20
303.923981
 10
598.208862
 20
304.449768
 10
599.387756
 20
304.907227
 10
600.600647
 20
305.295624
 10
601.84552
 20
305.614105
 10
603.120544
 20
305.862244
 10
604.424011
 20
306.040009
 10
605.75415
 20
306.147461
 10
607.109192
 20
306.184601
 10
608.487427
 20
306.151459
 10
609.887085
 20
306.048096
 10
611.306458
 20
305.874603
 10
612.743713
 20
305.631287
 10
614.197144
 20
305.318726
 10
615.664917
 20
304.937439
 10
617.145264
 20
304.487976
 10
618.636475
 20
303.970825
 10
620.136658
 20
303.386536
 10
621.643921
 20
302.735931
 10
623.156067
 20
302.020172
 10
624.670898
 20
301.240448
 10
626.210754
 20
300.383728
  0
LINE
  5
310
330
232
100
AcDbEntity
  8
0
  6
Continuous
 62
     0
370
    30
100
AcDbLine
 10
568.383563
 20
287.409022
 30
0.0
 11
595.960727
 21
303.330706
 31
0.0
  0
LWPOLYLINE
  5
311
330
232
100
AcDbEntity
  8
0
  6
Continuous
 62
     0
370
    30
100
AcDbPolyline
 90
       23
 70
     0
 43
0.0
 10
568.383545
 20
287.409027
 10
567.3172
 20
286.748566
 10
566.290344
 20
286.021606
 10
565.304749
 20
285.22937
 10
564.361938
 20
284.373199
 10
563.463684
 20
283.454376
 10
562.611267
 20
282.474213
 10
561.805603
 20
281.434265
 10
561.047485
 20
280.33606
 10
560.337769
 20
279.181122
 10
559.677368
 20
277.970978
 10
559.067078
 20
276.707153
 10
558.507629
 20
275.391205
 10
557.999695
 20
274.024841
 10
557.543701
 20
272.609863
 10
557.140015
 20
271.148071
 10
556.789062
 20
269.641296
 10
556.491333
 20
268.091309
 10
556.247253
 20
266.499969
 10
556.057068
 20
264.869324
 10
555.920837
 20
263.201904
 10
555.838684
 20
261.500183
 10
555.81073
 20
259.738281
  0
LINE
  5
312
330
232
100
AcDbEntity
  8
0
  6
Continuous
 62
     0
370
    30
100
AcDbLine
 10
598.133564
 20
276.247563
 30
0.0
 11
620.977109
 21
263.058836
 31
0.0
  0
LINE
  5
313
330
232
100
AcDbEntity
  8
0
  6
Continuous
 62
     0
370
    30
100
AcDbLine
 10
626.210728
 20
300.383741
 30
0.0
 11
649.054273
 21
287.195014
 31
0.0
  0
LWPOLYLINE
  5
314
330
232
100
AcDbEntity
  8
0
  6
Continuous
 62
     0
370
    30
100
AcDbPolyline
 90
       39
 70
     0
 43
0.0
 10
620.977112
 20
263.058838
 10
621.937866
 20
262.488983
 10
622.898743
 20
261.888885
 10
623.858826
 20
261.259033
 10
624.817261
 20
260.600006
 10
625.773193
 20
259.912384
 10
626.725769
 20
259.196655
 10
627.674133
 20
258.45343
 10
628.617615
 20
257.683258
 10
629.555481
 20
256.88678
 10
630.487122
 20
256.064514
 10
631.411865
 20
255.217117
 10
632.328979
 20
254.345139
 10
633.237793
 20
253.449188
 10
634.137695
 20
252.529922
 10
635.028015
 20
251.588058
 10
635.90802
 20
250.624329
 10
636.777039
 20
249.63945
 10
637.634399
 20
248.634155
 10
638.479492
 20
247.609177
 10
639.311707
 20
246.565292
 10
640.130371
 20
245.503281
 10
640.934937
 20
244.42392
 10
641.724731
 20
243.328018
 10
642.499207
 20
242.2164
 10
643.257751
 20
241.08989
 10
643.999878
 20
239.949326
 10
644.724915
 20
238.795563
 10
645.432495
 20
237.629456
 10
646.121948
 20
236.451874
 10
646.792664
 20
235.263702
 10
647.444275
 20
234.065811
 10
648.076904
 20
232.859024
 10
648.689575
 20
231.644318
 10
649.280396
 20
230.422684
 10
649.849243
 20
229.195038
 10
650.404114
 20
227.961548
 10
650.923706
 20
226.72493
 10
651.434998
 20
225.478317
  0
LWPOLYLINE
  5
315
330
232
100
AcDbEntity
  8
0
  6
Continuous
 62
     0
370
    30
100
AcDbPolyline
 90
       27
 70
     0
 43
0.0
 10
649.05426
 20
287.195007
 10
650.734985
 20
286.186035
 10
652.414124
 20
285.100922
 10
654.088623
 20
283.941772
 10
655.755493
 20
282.710663
 10
657.411621
 20
281.409668
 10
659.054016
 20
280.040863
 10
660.67981
 20
278.606537
 10
662.286682
 20
277.1091
 10
663.872192
 20
275.551117
 10
665.434021
 20
273.935059
 10
666.969788
 20
272.263458
 10
668.477112
 20
270.538879
 10
669.953674
 20
268.763763
 10
671.397034
 20
266.940643
 10
672.805115
 20
265.072296
 10
674.175781
 20
263.161743
 10
675.507019
 20
261.212036
 10
676.796875
 20
259.226257
 10
678.043274
 20
257.207397
 10
679.244263
 20
255.158554
 10
680.397827
 20
253.082794
 10
681.501892
 20
250.983276
 10
682.554749
 20
248.863785
 10
683.554626
 20
246.728241
 10
684.499817
 20
244.580597
 10
685.407776
 20
242.376266
  0
LINE
  5
316
330
232
100
AcDbEntity
  8
0
  6
Continuous
 62
     0
370
    30
100
AcDbLine
 10
685.407771
 20
242.376268
 30
0.0
 11
693.255391
 21
222.644381
 31
0.0
  0
LINE
  5
317
330
232
100
AcDbEntity
  8
0
  6
Continuous
 62
     0
370
    30
100
AcDbLine
 10
533.183293
 20
175.051247
 30
0.0
 11
533.183293
 21
182.987593
 31
0.0
  0
LINE
  5
318
330
232
100
AcDbEntity
  8
0
  6
Continuous
 62
     0
370
    30
100
AcDbLine
 10
613.379253
 20
175.051247
 30
0.0
 11
613.379253
 21
182.987593
 31
0.0
  0
LINE
  5
319
330
232
100
AcDbEntity
  8
0
  6
Continuous
 62
     0
370
    30
100
AcDbLine
 10
590.751836
 20
196.340214
 30
0.0
 11
613.129253
 21
183.420606
 31
0.0
  0
LINE
  5
31A
330
232
100
AcDbEntity
  8
0
  6
Continuous
 62
     0
370
    30
100
AcDbLine
 10
533.433293
 20
183.420606
 30
0.0
 11
555.81071
 21
196.340214
 31
0.0
  0
ENDBLK
  5
31C
330
232
100
AcDbEntity
  8
0
100
AcDbBlockEnd
  0
BLOCK
  5
37C
330
31E
100
AcDbEntity
  8
0
100
AcDbBlockBegin
  2
e
 70
     0
 10
68.901184
 20
0.0
 30
0.0
  3
e
  1

  0
ARC
  5
31F
330
31E
100
AcDbEntity
  8
0
  6
Continuous
 62
     0
370
    30
100
AcDbCircle
 10
33.758997
 20
391.129225
 30
0.0
 40
0.5
100
AcDbArc
 50
0.0
 51
90.0
  0
LINE
  5
320
330
31E
100
AcDbEntity
  8
0
  6
Continuous
 62
     0
370
     0
100
AcDbLine
 10
33.758997
 20
391.129225
 30
0.0
 11
33.758997
 21
391.629225
 31
0.0
  0
LINE
  5
321
330
31E
100
AcDbEntity
  8
0
  6
Continuous
 62
     0
370
    30
100
AcDbLine
 10
33.758997
 20
391.629225
 30
0.0
 11
-22.241003
 21
391.629225
 31
0.0
  0
LINE
  5
322
330
31E
100
AcDbEntity
  8
0
  6
Continuous
 62
     0
370
     0
100
AcDbLine
 10
-22.241003
 20
391.629225
 30
0.0
 11
-22.241003
 21
391.129225
 31
0.0
  0
LINE
  5
323
330
31E
100
AcDbEntity
  8
0
  6
Continuous
 62
     0
370
     0
100
AcDbLine
 10
-22.241003
 20
391.129225
 30
0.0
 11
33.758997
 21
391.129225
 31
0.0
  0
LINE
  5
324
330
31E
100
AcDbEntity
  8
0
  6
Continuous
 62
     0
370
     0
100
AcDbLine
 10
33.758997
 20
391.129225
 30
0.0
 11
34.258997
 21
391.129225
 31
0.0
  0
ARC
  5
325
330
31E
100
AcDbEntity
  8
0
  6
Continuous
 62
     0
370
    30
100
AcDbCircle
 10
-22.241003
 20
391.129225
 30
0.0
 40
0.5
100
AcDbArc
 50
90.0
 51
180.0
  0
LWPOLYLINE
  5
326
330
31E
100
AcDbEntity
  8
0
  6
Continuous
 62
     0
370
     0
100
AcDbPolyline
 90
        6
 70
     0
 43
0.0
 10
-22.741003
 20
391.129211
 10
-22.716946
 20
391.129211
 10
-22.651249
 20
391.129211
 10
-22.557928
 20
391.129211
 10
-22.433668
 20
391.129211
 10
-22.241003
 20
391.129211
  0
LINE
  5
327
330
31E
100
AcDbEntity
  8
0
  6
Continuous
 62
     0
370
     0
100
AcDbLine
 10
33.758997
 20
391.129225
 30
0.0
 11
33.758997
 21
381.409225
 31
0.0
  0
LINE
  5
328
330
31E
100
AcDbEntity
  8
0
  6
Continuous
 62
     0
370
    30
100
AcDbLine
 10
33.758997
 20
381.409225
 30
0.0
 11
34.258997
 21
381.409225
 31
0.0
  0
LINE
  5
329
330
31E
100
AcDbEntity
  8
0
  6
Continuous
 62
     0
370
    30
100
AcDbLine
 10
34.258997
 20
381.409225
 30
0.0
 11
34.258997
 21
391.129225
 31
0.0
  0
LINE
  5
32A
330
31E
100
AcDbEntity
  8
0
  6
Continuous
 62
     0
370
     0
100
AcDbLine
 10
-22.241003
 20
391.129225
 30
0.0
 11
-22.241003
 21
381.409225
 31
0.0
  0
LINE
  5
32B
330
31E
100
AcDbEntity
  8
0
  6
Continuous
 62
     0
370
    30
100
AcDbLine
 10
-22.241003
 20
381.409225
 30
0.0
 11
33.758997
 21
381.409225
 31
0.0
  0
LINE
  5
32C
330
31E
100
AcDbEntity
  8
0
  6
Continuous
 62
     0
370
    30
100
AcDbLine
 10
-22.741003
 20
391.129225
 30
0.0
 11
-22.741003
 21
381.409225
 31
0.0
  0
LINE
  5
32D
330
31E
100
AcDbEntity
  8
0
  6
Continuous
 62
     0
370
    30
100
AcDbLine
 10
-22.741003
 20
381.409225
 30
0.0
 11
-22.241003
 21
381.409225
 31
0.0
  0
ARC
  5
32E
330
31E
100
AcDbEntity
  8
0
  6
Continuous
 62
     0
370
    30
100
AcDbCircle
 10
17.901579
 20
407.146207
 30
0.0
 40
15.31764608914737
100
AcDbArc
 50
255.310578
 51
269.466665
  0
LINE
  5
32F
330
31E
100
AcDbEntity
  8
0
  6
Continuous
 62
     0
370
     0
100
AcDbLine
 10
14.01734
 20
392.329225
 30
0.0
 11
14.01734
 21
391.829225
 31
0.0
  0
LINE
  5
330
330
31E
100
AcDbEntity
  8
0
  6
Continuous
 62
     0
370
     0
100
AcDbLine
 10
-2.499345
 20
391.829225
 30
0.0
 11
-2.499345
 21
392.329225
 31
0.0
  0
LINE
  5
331
330
31E
100
AcDbEntity
  8
0
  6
Continuous
 62
     0
370
     0
100
AcDbLine
 10
-2.499345
 20
392.329225
 30
0.0
 11
14.01734
 21
392.329225
 31
0.0
  0
ARC
  5
332
330
31E
100
AcDbEntity
  8
0
  6
Continuous
 62
     0
370
    30
100
AcDbCircle
 10
-6.381602
 20
407.131377
 30
0.0
 40
15.30279778775761
100
AcDbArc
 50
270.526432
 51
284.696325
  0
ARC
  5
333
330
31E
100
AcDbEntity
  8
0
  6
Continuous
 62
     0
370
     0
100
AcDbCircle
 10
-6.241003
 20
398.829225
 30
0.0
 40
7.500000000000005
100
AcDbArc
 50
299.926435
 51
360.0
  0
LINE
  5
334
330
31E
100
AcDbEntity
  8
0
  6
Continuous
 62
     0
370
     0
100
AcDbLine
 10
1.258997
 20
398.829225
 30
0.0
 11
0.758997
 21
398.829225
 31
0.0
  0
ARC
  5
335
330
31E
100
AcDbEntity
  8
0
  6
Continuous
 62
     0
370
    30
100
AcDbCircle
 10
-6.241003
 20
398.829225
 30
0.0
 40
7.000000000000007
100
AcDbArc
 50
270.0
 51
360.0
  0
ARC
  5
336
330
31E
100
AcDbEntity
  8
0
  6
Continuous
 62
     0
370
     0
100
AcDbCircle
 10
17.758997
 20
398.829225
 30
0.0
 40
7.499999999999995
100
AcDbArc
 50
180.0
 51
240.073565
  0
LINE
  5
337
330
31E
100
AcDbEntity
  8
0
  6
Continuous
 62
     0
370
     0
100
AcDbLine
 10
10.258997
 20
398.829225
 30
0.0
 11
10.258997
 21
419.329225
 31
0.0
  0
LINE
  5
338
330
31E
100
AcDbEntity
  8
0
  6
Continuous
 62
     0
370
     0
100
AcDbLine
 10
10.258997
 20
419.329225
 30
0.0
 11
1.258997
 21
419.329225
 31
0.0
  0
LINE
  5
339
330
31E
100
AcDbEntity
  8
0
  6
Continuous
 62
     0
370
     0
100
AcDbLine
 10
1.258997
 20
419.329225
 30
0.0
 11
1.258997
 21
398.829225
 31
0.0
  0
ARC
  5
33A
330
31E
100
AcDbEntity
  8
0
  6
Continuous
 62
     0
370
    30
100
AcDbCircle
 10
17.758997
 20
398.829225
 30
0.0
 40
7.000000000000004
100
AcDbArc
 50
180.0
 51
270.0
  0
LINE
  5
33B
330
31E
100
AcDbEntity
  8
0
  6
Continuous
 62
     0
370
     0
100
AcDbLine
 10
10.758997
 20
398.829225
 30
0.0
 11
10.258997
 21
398.829225
 31
0.0
  0
LINE
  5
33C
330
31E
100
AcDbEntity
  8
0
  6
Continuous
 62
     0
370
    30
100
AcDbLine
 10
1.258997
 20
419.329225
 30
0.0
 11
1.258997
 21
419.829225
 31
0.0
  0
ARC
  5
33D
330
31E
100
AcDbEntity
  8
0
  6
Continuous
 62
     0
370
    30
100
AcDbCircle
 10
1.258997
 20
419.329225
 30
0.0
 40
0.4999999999998082
100
AcDbArc
 50
90.0
 51
180.0
  0
LWPOLYLINE
  5
33E
330
31E
100
AcDbEntity
  8
0
  6
Continuous
 62
     0
370
     0
100
AcDbPolyline
 90
        6
 70
     0
 43
0.0
 10
0.758997
 20
419.329224
 10
0.783055
 20
419.329224
 10
0.848751
 20
419.329224
 10
0.942073
 20
419.329224
 10
1.066332
 20
419.329224
 10
1.258997
 20
419.329224
  0
ARC
  5
33F
330
31E
100
AcDbEntity
  8
0
  6
Continuous
 62
     0
370
    30
100
AcDbCircle
 10
10.258997
 20
419.329225
 30
0.0
 40
0.5000000000000377
100
AcDbArc
 50
0.0
 51
90.0
  0
LINE
  5
340
330
31E
100
AcDbEntity
  8
0
  6
Continuous
 62
     0
370
    30
100
AcDbLine
 10
10.258997
 20
419.829225
 30
0.0
 11
10.258997
 21
419.329225
 31
0.0
  0
LINE
  5
341
330
31E
100
AcDbEntity
  8
0
  6
Continuous
 62
     0
370
     0
100
AcDbLine
 10
10.258997
 20
419.329225
 30
0.0
 11
10.758997
 21
419.329225
 31
0.0
  0
LINE
  5
342
330
31E
100
AcDbEntity
  8
0
  6
Continuous
 62
     0
370
    30
100
AcDbLine
 10
10.758997
 20
398.829225
 30
0.0
 11
10.758997
 21
419.329225
 31
0.0
  0
LINE
  5
343
330
31E
100
AcDbEntity
  8
0
  6
Continuous
 62
     0
370
    30
100
AcDbLine
 10
10.258997
 20
419.829225
 30
0.0
 11
1.258997
 21
419.829225
 31
0.0
  0
LINE
  5
344
330
31E
100
AcDbEntity
  8
0
  6
Continuous
 62
     0
370
    30
100
AcDbLine
 10
0.758997
 20
419.329225
 30
0.0
 11
0.758997
 21
398.829225
 31
0.0
  0
LINE
  5
345
330
31E
100
AcDbEntity
  8
0
  6
Continuous
 62
     0
370
    30
100
AcDbLine
 10
5.758997
 20
391.829225
 30
0.0
 11
29.758998
 21
391.829225
 31
0.0
  0
LWPOLYLINE
  5
346
330
31E
100
AcDbEntity
  8
0
  6
Continuous
 62
     0
370
    30
100
AcDbPolyline
 90
       29
 70
     0
 43
0.0
 10
-18.241001
 20
391.829224
 10
-18.209793
 20
391.829224
 10
-18.113743
 20
391.829224
 10
-17.949457
 20
391.829224
 10
-17.713943
 20
391.829224
 10
-17.404686
 20
391.829224
 10
-17.019741
 20
391.829224
 10
-16.557804
 20
391.829224
 10
-16.018284
 20
391.829224
 10
-15.401361
 20
391.829224
 10
-14.708019
 20
391.829224
 10
-13.940076
 20
391.829224
 10
-13.100177
 20
391.829224
 10
-12.19178
 20
391.829224
 10
-11.21911
 20
391.829224
 10
-10.187093
 20
391.829224
 10
-9.101279
 20
391.829224
 10
-7.967738
 20
391.829224
 10
-6.792951
 20
391.829224
 10
-5.58369
 20
391.829224
 10
-4.346894
 20
391.829224
 10
-3.089547
 20
391.829224
 10
-1.81856
 20
391.829224
 10
-0.540661
 20
391.829224
 10
0.7377
 20
391.829224
 10
2.010436
 20
391.829224
 10
3.27189
 20
391.829224
 10
4.516889
 20
391.829224
 10
5.758997
 20
391.829224
  0
ARC
  5
347
330
31E
100
AcDbEntity
  8
0
  6
Continuous
 62
     0
370
    30
100
AcDbCircle
 10
17.759003
 20
397.129225
 30
0.0
 40
0.5
100
AcDbArc
 50
180.0
 51
270.0
  0
LINE
  5
348
330
31E
100
AcDbEntity
  8
0
  6
Continuous
 62
     0
370
     0
100
AcDbLine
 10
17.759003
 20
397.129225
 30
0.0
 11
17.759003
 21
396.629225
 31
0.0
  0
LINE
  5
349
330
31E
100
AcDbEntity
  8
0
  6
Continuous
 62
     0
370
    30
100
AcDbLine
 10
17.759003
 20
396.629225
 30
0.0
 11
24.759003
 21
396.629225
 31
0.0
  0
LINE
  5
34A
330
31E
100
AcDbEntity
  8
0
  6
Continuous
 62
     0
370
     0
100
AcDbLine
 10
24.759003
 20
396.629225
 30
0.0
 11
24.759003
 21
397.129225
 31
0.0
  0
LINE
  5
34B
330
31E
100
AcDbEntity
  8
0
  6
Continuous
 62
     0
370
     0
100
AcDbLine
 10
24.759003
 20
397.129225
 30
0.0
 11
17.759003
 21
397.129225
 31
0.0
  0
LINE
  5
34C
330
31E
100
AcDbEntity
  8
0
  6
Continuous
 62
     0
370
     0
100
AcDbLine
 10
17.759003
 20
397.129225
 30
0.0
 11
17.259003
 21
397.129225
 31
0.0
  0
ARC
  5
34D
330
31E
100
AcDbEntity
  8
0
  6
Continuous
 62
     0
370
    30
100
AcDbCircle
 10
24.759003
 20
397.129225
 30
0.0
 40
0.5
100
AcDbArc
 50
270.0
 51
0.0
  0
LINE
  5
34E
330
31E
100
AcDbEntity
  8
0
  6
Continuous
 62
     0
370
     0
100
AcDbLine
 10
25.259003
 20
397.129225
 30
0.0
 11
24.759003
 21
397.129225
 31
0.0
  0
LINE
  5
34F
330
31E
100
AcDbEntity
  8
0
  6
Continuous
 62
     0
370
     0
100
AcDbLine
 10
17.759003
 20
397.129225
 30
0.0
 11
17.759003
 21
426.129225
 31
0.0
  0
LINE
  5
350
330
31E
100
AcDbEntity
  8
0
  6
Continuous
 62
     0
370
     0
100
AcDbLine
 10
17.759003
 20
426.129225
 30
0.0
 11
17.259003
 21
426.129225
 31
0.0
  0
LINE
  5
351
330
31E
100
AcDbEntity
  8
0
  6
Continuous
 62
     0
370
    30
100
AcDbLine
 10
17.259003
 20
426.129225
 30
0.0
 11
17.259003
 21
397.129225
 31
0.0
  0
LINE
  5
352
330
31E
100
AcDbEntity
  8
0
  6
Continuous
 62
     0
370
     0
100
AcDbLine
 10
24.759003
 20
397.129225
 30
0.0
 11
24.759003
 21
426.129225
 31
0.0
  0
LINE
  5
353
330
31E
100
AcDbEntity
  8
0
  6
Continuous
 62
     0
370
     0
100
AcDbLine
 10
24.759003
 20
426.129225
 30
0.0
 11
17.759003
 21
426.129225
 31
0.0
  0
LINE
  5
354
330
31E
100
AcDbEntity
  8
0
  6
Continuous
 62
     0
370
    30
100
AcDbLine
 10
25.259003
 20
397.129225
 30
0.0
 11
25.259003
 21
426.129225
 31
0.0
  0
LINE
  5
355
330
31E
100
AcDbEntity
  8
0
  6
Continuous
 62
     0
370
     0
100
AcDbLine
 10
25.259003
 20
426.129225
 30
0.0
 11
24.759003
 21
426.129225
 31
0.0
  0
ARC
  5
356
330
31E
100
AcDbEntity
  8
0
  6
Continuous
 62
     0
370
    30
100
AcDbCircle
 10
24.759003
 20
426.129225
 30
0.0
 40
0.5
100
AcDbArc
 50
0.0
 51
90.0
  0
LINE
  5
357
330
31E
100
AcDbEntity
  8
0
  6
Continuous
 62
     0
370
     0
100
AcDbLine
 10
17.759003
 20
426.629225
 30
0.0
 11
17.759003
 21
426.129225
 31
0.0
  0
LINE
  5
358
330
31E
100
AcDbEntity
  8
0
  6
Continuous
 62
     0
370
     0
100
AcDbLine
 10
24.759003
 20
426.129225
 30
0.0
 11
24.759003
 21
426.629225
 31
0.0
  0
LINE
  5
359
330
31E
100
AcDbEntity
  8
0
  6
Continuous
 62
     0
370
    30
100
AcDbLine
 10
24.759003
 20
426.629225
 30
0.0
 11
17.759003
 21
426.629225
 31
0.0
  0
ARC
  5
35A
330
31E
100
AcDbEntity
  8
0
  6
Continuous
 62
     0
370
    30
100
AcDbCircle
 10
17.759003
 20
426.129225
 30
0.0
 40
0.5
100
AcDbArc
 50
90.0
 51
180.0
  0
LINE
  5
35B
330
31E
100
AcDbEntity
  8
0
  6
Continuous
 62
     0
370
    30
100
AcDbLine
 10
-133.185249
 20
504.629225
 30
0.0
 11
-132.603149
 21
504.629225
 31
0.0
  0
LINE
  5
35C
330
31E
100
AcDbEntity
  8
0
  6
Continuous
 62
     0
370
    30
100
AcDbLine
 10
-143.663037
 20
504.629225
 30
0.0
 11
-133.185249
 21
504.629225
 31
0.0
  0
LWPOLYLINE
  5
35D
330
31E
100
AcDbEntity
  8
0
  6
Continuous
 62
     0
370
    30
100
AcDbPolyline
 90
        6
 70
     0
 43
0.0
 10
-144.245132
 20
504.629211
 10
-144.221573
 20
504.629211
 10
-144.145676
 20
504.629211
 10
-144.020142
 20
504.629211
 10
-143.86235
 20
504.629211
 10
-143.66304
 20
504.629211
  0
LINE
  5
35E
330
31E
100
AcDbEntity
  8
0
  6
Continuous
 62
     0
370
    30
100
AcDbLine
 10
-132.603149
 20
504.629225
 30
0.0
 11
-124.494644
 21
518.231368
 31
0.0
  0
LINE
  5
35F
330
31E
100
AcDbEntity
  8
0
  6
Continuous
 62
     0
370
     0
100
AcDbLine
 10
-124.494644
 20
518.231368
 30
0.0
 11
-124.924124
 21
518.48739
 31
0.0
  0
LINE
  5
360
330
31E
100
AcDbEntity
  8
0
  6
Continuous
 62
     0
370
     0
100
AcDbLine
 10
-124.924124
 20
518.48739
 30
0.0
 11
-133.185249
 21
504.629225
 31
0.0
  0
LINE
  5
361
330
31E
100
AcDbEntity
  8
0
  6
Continuous
 62
     0
370
    30
100
AcDbLine
 10
-144.245136
 20
504.629225
 30
0.0
 11
-133.084243
 21
523.351797
 31
0.0
  0
LINE
  5
362
330
31E
100
AcDbEntity
  8
0
  6
Continuous
 62
     0
370
     0
100
AcDbLine
 10
-143.663037
 20
504.629225
 30
0.0
 11
-132.654763
 21
523.095775
 31
0.0
  0
LINE
  5
363
330
31E
100
AcDbEntity
  8
0
  6
Continuous
 62
     0
370
     0
100
AcDbLine
 10
-132.654763
 20
523.095775
 30
0.0
 11
-133.084243
 21
523.351797
 31
0.0
  0
ARC
  5
364
330
31E
100
AcDbEntity
  8
0
  6
Continuous
 62
     0
370
     0
100
AcDbCircle
 10
-81.54665
 20
492.629225
 30
0.0
 40
59.49999999999947
100
AcDbArc
 50
90.0
 51
149.2
  0
LINE
  5
365
330
31E
100
AcDbEntity
  8
0
  6
Continuous
 62
     0
370
     0
100
AcDbLine
 10
-81.54665
 20
552.129225
 30
0.0
 11
-81.54665
 21
552.629225
 31
0.0
  0
ARC
  5
366
330
31E
100
AcDbEntity
  8
0
  6
Continuous
 62
     0
370
    30
100
AcDbCircle
 10
-81.54665
 20
492.629225
 30
0.0
 40
60.00000000000063
100
AcDbArc
 50
90.0
 51
149.2
  0
ARC
  5
367
330
31E
100
AcDbEntity
  8
0
  6
Continuous
 62
     0
370
    30
100
AcDbCircle
 10
-81.54665
 20
492.629225
 30
0.0
 40
50.00000000000043
100
AcDbArc
 50
90.0
 51
149.2
  0
LINE
  5
368
330
31E
100
AcDbEntity
  8
0
  6
Continuous
 62
     0
370
     0
100
AcDbLine
 10
-81.54665
 20
542.629225
 30
0.0
 11
-81.54665
 21
543.129225
 31
0.0
  0
ARC
  5
369
330
31E
100
AcDbEntity
  8
0
  6
Continuous
 62
     0
370
     0
100
AcDbCircle
 10
-81.54665
 20
492.629225
 30
0.0
 40
50.50000000000011
100
AcDbArc
 50
90.0
 51
149.2
  0
LINE
  5
36A
330
31E
100
AcDbEntity
  8
0
  6
Continuous
 62
     0
370
    30
100
AcDbLine
 10
-81.54665
 20
552.629225
 30
0.0
 11
-49.240998
 21
552.629225
 31
0.0
  0
LINE
  5
36B
330
31E
100
AcDbEntity
  8
0
  6
Continuous
 62
     0
370
     0
100
AcDbLine
 10
-81.54665
 20
552.129225
 30
0.0
 11
-49.240998
 21
552.129225
 31
0.0
  0
LINE
  5
36C
330
31E
100
AcDbEntity
  8
0
  6
Continuous
 62
     0
370
     0
100
AcDbLine
 10
-49.240998
 20
552.129225
 30
0.0
 11
-49.240998
 21
552.629225
 31
0.0
  0
LINE
  5
36D
330
31E
100
AcDbEntity
  8
0
  6
Continuous
 62
     0
370
    30
100
AcDbLine
 10
-81.54665
 20
542.629225
 30
0.0
 11
-49.240998
 21
542.629225
 31
0.0
  0
LINE
  5
36E
330
31E
100
AcDbEntity
  8
0
  6
Continuous
 62
     0
370
     0
100
AcDbLine
 10
-49.240998
 20
542.629225
 30
0.0
 11
-49.240998
 21
543.129225
 31
0.0
  0
LINE
  5
36F
330
31E
100
AcDbEntity
  8
0
  6
Continuous
 62
     0
370
     0
100
AcDbLine
 10
-49.240998
 20
543.129225
 30
0.0
 11
-81.54665
 21
543.129225
 31
0.0
  0
ARC
  5
370
330
31E
100
AcDbEntity
  8
0
  6
Continuous
 62
     0
370
    30
100
AcDbCircle
 10
-49.240998
 20
492.629225
 30
0.0
 40
60.0
100
AcDbArc
 50
0.0
 51
90.0
  0
ARC
  5
371
330
31E
100
AcDbEntity
  8
0
  6
Continuous
 62
     0
370
     0
100
AcDbCircle
 10
-49.240998
 20
492.629225
 30
0.0
 40
59.49999999999989
100
AcDbArc
 50
0.0
 51
90.0
  0
LINE
  5
372
330
31E
100
AcDbEntity
  8
0
  6
Continuous
 62
     0
370
     0
100
AcDbLine
 10
10.259002
 20
492.629225
 30
0.0
 11
10.759002
 21
492.629225
 31
0.0
  0
ARC
  5
373
330
31E
100
AcDbEntity
  8
0
  6
Continuous
 62
     0
370
    30
100
AcDbCircle
 10
-49.240998
 20
492.629225
 30
0.0
 40
50.00000000000001
100
AcDbArc
 50
0.0
 51
90.0
  0
LWPOLYLINE
  5
374
330
31E
100
AcDbEntity
  8
0
  6
Continuous
 62
     0
370
     0
100
AcDbPolyline
 90
        5
 70
     0
 43
0.0
 10
0.759002
 20
492.629211
 10
0.794008
 20
492.629211
 10
0.90505
 20
492.629211
 10
1.0742
 20
492.629211
 10
1.259002
 20
492.629211
  0
ARC
  5
375
330
31E
100
AcDbEntity
  8
0
  6
Continuous
 62
     0
370
     0
100
AcDbCircle
 10
-49.240998
 20
492.629225
 30
0.0
 40
50.49999999999994
100
AcDbArc
 50
360.0
 51
90.0
  0
LINE
  5
376
330
31E
100
AcDbEntity
  8
0
  6
Continuous
 62
     0
370
    30
100
AcDbLine
 10
10.759002
 20
492.629225
 30
0.0
 11
10.759002
 21
419.329225
 31
0.0
  0
LINE
  5
377
330
31E
100
AcDbEntity
  8
0
  6
Continuous
 62
     0
370
     0
100
AcDbLine
 10
10.259002
 20
492.629225
 30
0.0
 11
10.259002
 21
419.829225
 31
0.0
  0
LINE
  5
378
330
31E
100
AcDbEntity
  8
0
  6
Continuous
 62
     0
370
     0
100
AcDbLine
 10
1.259002
 20
492.629225
 30
0.0
 11
1.259002
 21
419.829225
 31
0.0
  0
LINE
  5
379
330
31E
100
AcDbEntity
  8
0
  6
Continuous
 62
     0
370
    30
100
AcDbLine
 10
0.759002
 20
492.629225
 30
0.0
 11
0.759002
 21
419.329225
 31
0.0
  0
LINE
  5
37A
330
31E
100
AcDbEntity
  8
0
  6
Continuous
 62
     0
370
    30
100
AcDbLine
 10
22.759003
 20
396.629225
 30
0.0
 11
22.759003
 21
391.829225
 31
0.0
  0
LINE
  5
37B
330
31E
100
AcDbEntity
  8
0
  6
Continuous
 62
     0
370
    30
100
AcDbLine
 10
19.759003
 20
396.629225
 30
0.0
 11
19.759003
 21
391.829225
 31
0.0
  0
ENDBLK
  5
37D
330
31E
100
AcDbEntity
  8
0
100
AcDbBlockEnd
  0
ENDSEC
  0
SECTION
  2
ENTITIES
  0
INSERT
  5
F8
330
1F
100
AcDbEntity
  8
0
  6
Continuous
 62
     7
420
 16250871
370
     0
100
AcDbBlockReference
  2
a
 10
115.40905
 20
99.184387
 30
0.0
  0
INSERT
  5
1CE
330
1F
100
AcDbEntity
  8
0
  6
Continuous
 62
     7
420
 16250871
370
     0
100
AcDbBlockReference
  2
b
 10
115.40905
 20
99.184387
 30
0.0
  0
INSERT
  5
231
330
1F
100
AcDbEntity
  8
0
  6
Continuous
 62
     7
420
 16250871
370
     0
100
AcDbBlockReference
  2
c
 10
115.40905
 20
99.184387
 30
0.0
  0
INSERT
  5
31D
330
1F
100
AcDbEntity
  8
0
  6
Continuous
 62
     7
420
 16250871
370
     0
100
AcDbBlockReference
  2
d
 10
115.40905
 20
99.184387
 30
0.0
  0
INSERT
  5
37E
330
1F
100
AcDbEntity
  8
0
  6
Continuous
 62
     7
420
 16250871
370
     0
100
AcDbBlockReference
  2
e
 10
68.901184
 20
0.0
 30
0.0
  0
ENDSEC
  0
SECTION
  2
OBJECTS
  0
DICTIONARY
  5
C
330
0
100
AcDbDictionary
281
     1
  3
ACAD_DETAILVIEWSTYLE
350
3B6
  3
ACAD_GROUP
350
D
  3
ACAD_LAYOUT
350
1A
  3
ACAD_MATERIAL
350
43
  3
ACAD_MLEADERSTYLE
350
6B
  3
ACAD_MLINESTYLE
350
17
  3
ACAD_PLOTSETTINGS
350
19
  3
ACAD_PLOTSTYLENAME
350
E
  3
ACAD_SCALELIST
350
47
  3
ACAD_SECTIONVIEWSTYLE
350
3B7
  3
ACAD_TABLESTYLE
350
69
  3
ACAD_VISUALSTYLE
350
2A
  3
ACDB_RECOMPOSE_DATA
350
3B3
  3
AcDbVariableDictionary
350
37F
  0
SUN
  5
6D
330
29
100
AcDbSun
 90
        1
290
     0
 63
     7
421
 16777215
 40
1.0
291
     1
 91
  2455826
 92
 54000000
292
     0
 70
     2
 71
   256
280
     1
  0
DICTIONARY
  5
3B6
102
{ACAD_REACTORS
330
C
102
}
330
C
100
AcDbDictionary
281
     1
  0
DICTIONARY
  5
D
102
{ACAD_REACTORS
330
C
102
}
330
C
100
AcDbDictionary
281
     1
  0
DICTIONARY
  5
1A
102
{ACAD_REACTORS
330
C
102
}
330
C
100
AcDbDictionary
281
     1
  3
Layout1
350
1E
  3
Layout2
350
26
  3
Model
350
22
  0
DICTIONARY
  5
43
102
{ACAD_REACTORS
330
C
102
}
330
C
100
AcDbDictionary
281
     1
  3
ByBlock
350
45
  3
ByLayer
350
44
  3
Global
350
46
  0
DICTIONARY
  5
6B
102
{ACAD_REACTORS
330
C
102
}
330
C
100
AcDbDictionary
281
     1
  3
Standard
350
6C
  0
DICTIONARY
  5
17
102
{ACAD_REACTORS
330
C
102
}
330
C
100
AcDbDictionary
281
     1
  3
Standard
350
18
  0
DICTIONARY
  5
19
102
{ACAD_REACTORS
330
C
102
}
330
C
100
AcDbDictionary
281
     1
  0
ACDBDICTIONARYWDFLT
  5
E
102
{ACAD_REACTORS
330
C
102
}
330
C
100
AcDbDictionary
281
     1
  3
Normal
350
F
100
AcDbDictionaryWithDefault
340
F
  0
DICTIONARY
  5
47
102
{ACAD_REACTORS
330
C
102
}
330
C
100
AcDbDictionary
281
     1
  3
A0
350
48
  3
A1
350
49
  3
A2
350
4A
  3
A3
350
4B
  3
A4
350
4C
  3
A5
350
4D
  3
A6
350
4E
  3
A7
350
4F
  3
A8
350
50
  3
A9
350
51
  3
B0
350
52
  3
B1
350
53
  3
B2
350
54
  3
B3
350
55
  3
B4
350
56
  3
B5
350
57
  3
B6
350
58
  3
B7
350
59
  3
B8
350
5A
  3
B9
350
5B
  3
C0
350
5C
  3
C1
350
5D
  3
C2
350
5E
  3
C3
350
5F
  3
C4
350
60
  3
C5
350
61
  3
C6
350
62
  3
C7
350
63
  3
C8
350
64
  3
C9
350
65
  3
D0
350
66
  3
D1
350
67
  3
D2
350
68
  0
DICTIONARY
  5
3B7
102
{ACAD_REACTORS
330
C
102
}
330
C
100
AcDbDictionary
281
     1
  0
DICTIONARY
  5
69
102
{ACAD_REACTORS
330
C
102
}
330
C
100
AcDbDictionary
281
     1
  3
Standard
350
6A
  0
DICTIONARY
  5
2A
102
{ACAD_REACTORS
330
C
102
}
330
C
100
AcDbDictionary
281
     1
  3
2dWireframe
350
2F
  3
Basic
350
32
  3
Brighten
350
36
  3
ColorChange
350
3A
  3
Conceptual
350
34
  3
Dim
350
35
  3
EdgeColorOff
350
3D
  3
Facepattern
350
39
  3
Flat
350
2B
  3
FlatWithEdges
350
2C
  3
Gouraud
350
2D
  3
GouraudWithEdges
350
2E
  3
Hidden
350
31
  3
JitterOff
350
3B
  3
Linepattern
350
38
  3
OverhangOff
350
3C
  3
Realistic
350
33
  3
Shaded
350
42
  3
Shaded with edges
350
41
  3
Shades of Gray
350
3E
  3
Sketchy
350
3F
  3
Thicken
350
37
  3
Wireframe
350
30
  3
X-Ray
350
40
  0
XRECORD
  5
3B3
102
{ACAD_REACTORS
330
C
102
}
330
C
100
AcDbXrecord
280
     1
 90
        1
330
6A
  0
DICTIONARY
  5
37F
102
{ACAD_REACTORS
330
C
102
}
330
C
100
AcDbDictionary
281
     1
  3
CANNOSCALE
350
380
  3
CMLEADERSTYLE
350
3B5
  3
CTABLESTYLE
350
3B4
  0
LAYOUT
  5
1E
102
{ACAD_REACTORS
330
1A
102
}
330
1A
100
AcDbPlotSettings
  1

  2
none_device
  4

  6

 40
0.0
 41
0.0
 42
0.0
 43
0.0
 44
0.0
 45
0.0
 46
0.0
 47
0.0
 48
0.0
 49
0.0
140
0.0
141
0.0
142
1.0
143
1.0
 70
   688
 72
     1
 73
     0
 74
     5
  7

 75
    16
 76
     0
 77
     2
 78
   300
147
1.0
148
0.0
149
0.0
100
AcDbLayout
  1
Layout1
 70
     1
 71
     1
 10
0.0
 20
0.0
 11
420.0
 21
297.0
 12
0.0
 22
0.0
 32
0.0
 14
1.000000E+20
 24
1.000000E+20
 34
1.000000E+20
 15
-1.000000E+20
 25
-1.000000E+20
 35
-1.000000E+20
146
0.0
 13
0.0
 23
0.0
 33
0.0
 16
1.0
 26
0.0
 36
0.0
 17
0.0
 27
1.0
 37
0.0
 76
     0
330
1B
  0
LAYOUT
  5
26
102
{ACAD_REACTORS
330
1A
102
}
330
1A
100
AcDbPlotSettings
  1

  2
none_device
  4

  6

 40
0.0
 41
0.0
 42
0.0
 43
0.0
 44
0.0
 45
0.0
 46
0.0
 47
0.0
 48
0.0
 49
0.0
140
0.0
141
0.0
142
1.0
143
1.0
 70
   688
 72
     1
 73
     0
 74
     5
  7

 75
    16
 76
     0
 77
     2
 78
   300
147
1.0
148
0.0
149
0.0
100
AcDbLayout
  1
Layout2
 70
     1
 71
     2
 10
0.0
 20
0.0
 11
0.0
 21
0.0
 12
0.0
 22
0.0
 32
0.0
 14
0.0
 24
0.0
 34
0.0
 15
0.0
 25
0.0
 35
0.0
146
0.0
 13
0.0
 23
0.0
 33
0.0
 16
1.0
 26
0.0
 36
0.0
 17
0.0
 27
1.0
 37
0.0
 76
     0
330
23
  0
LAYOUT
  5
22
102
{ACAD_REACTORS
330
1A
102
}
330
1A
100
AcDbPlotSettings
  1

  2
none_device
  4
Letter_(8.50_x_11.00_Inches)
  6

 40
6.35
 41
6.35
 42
6.350005
 43
6.350005
 44
215.9
 45
279.4
 46
0.0
 47
0.0
 48
0.0
 49
0.0
140
0.0
141
0.0
142
1.0
143
1.0
 70
  1712
 72
     1
 73
     0
 74
     0
  7

 75
     0
 76
     0
 77
     2
 78
   300
147
1.0
148
0.0
149
0.0
100
AcDbLayout
  1
Model
 70
     1
 71
     0
 10
0.0
 20
0.0
 11
420.0
 21
297.0
 12
0.0
 22
0.0
 32
0.0
 14
1.000000E+20
 24
1.000000E+20
 34
1.000000E+20
 15
-1.000000E+20
 25
-1.000000E+20
 35
-1.000000E+20
146
0.0
 13
0.0
 23
0.0
 33
0.0
 16
1.0
 26
0.0
 36
0.0
 17
0.0
 27
1.0
 37
0.0
 76
     0
330
1F
331
29
  0
MATERIAL
  5
45
102
{ACAD_REACTORS
330
43
102
}
330
43
100
AcDbMaterial
  1
ByBlock
 72
     1
 94
      127
  0
MATERIAL
  5
44
102
{ACAD_REACTORS
330
43
102
}
330
43
100
AcDbMaterial
  1
ByLayer
 72
     1
 94
      127
  0
MATERIAL
  5
46
102
{ACAD_REACTORS
330
43
102
}
330
43
100
AcDbMaterial
  1
Global
 72
     1
 94
      127
  0
MLEADERSTYLE
  5
6C
102
{ACAD_REACTORS
330
6B
102
}
330
6B
100
AcDbMLeaderStyle
179
     2
170
     2
171
     1
172
     0
 90
        2
 40
0.0
 41
0.0
173
     1
 91
-1056964608
340
14
 92
       -2
290
     1
 42
2.0
291
     1
 43
8.0
  3
Standard
341
0
 44
4.0
300

342
11
174
     1
178
     6
175
     1
176
     0
 93
-1056964608
 45
4.0
292
     0
297
     0
 46
4.0
343
0
 94
-1056964608
 47
1.0
 49
1.0
140
1.0
293
     1
141
0.0
294
     1
177
     0
142
1.0
295
     0
296
     0
143
3.75
271
     0
272
     9
273
     9
  0
MLINESTYLE
  5
18
102
{ACAD_REACTORS
330
17
102
}
330
17
100
AcDbMlineStyle
  2
Standard
 70
     0
  3

 62
   256
 51
90.0
 52
90.0
 71
     2
 49
0.5
 62
   256
  6
BYLAYER
 49
-0.5
 62
   256
  6
BYLAYER
  0
ACDBPLACEHOLDER
  5
F
102
{ACAD_REACTORS
330
E
102
}
330
E
  0
SCALE
  5
48
102
{ACAD_REACTORS
330
47
102
}
330
47
100
AcDbScale
 70
     0
300
1:1
140
1.0
141
1.0
290
     1
  0
SCALE
  5
49
102
{ACAD_REACTORS
330
47
102
}
330
47
100
AcDbScale
 70
     0
300
1:2
140
1.0
141
2.0
290
     0
  0
SCALE
  5
4A
102
{ACAD_REACTORS
330
47
102
}
330
47
100
AcDbScale
 70
     0
300
1:4
140
1.0
141
4.0
290
     0
  0
SCALE
  5
4B
102
{ACAD_REACTORS
330
47
102
}
330
47
100
AcDbScale
 70
     0
300
1:5
140
1.0
141
5.0
290
     0
  0
SCALE
  5
4C
102
{ACAD_REACTORS
330
47
102
}
330
47
100
AcDbScale
 70
     0
300
1:8
140
1.0
141
8.0
290
     0
  0
SCALE
  5
4D
102
{ACAD_REACTORS
330
47
102
}
330
47
100
AcDbScale
 70
     0
300
1:10
140
1.0
141
10.0
290
     0
  0
SCALE
  5
4E
102
{ACAD_REACTORS
330
47
102
}
330
47
100
AcDbScale
 70
     0
300
1:16
140
1.0
141
16.0
290
     0
  0
SCALE
  5
4F
102
{ACAD_REACTORS
330
47
102
}
330
47
100
AcDbScale
 70
     0
300
1:20
140
1.0
141
20.0
290
     0
  0
SCALE
  5
50
102
{ACAD_REACTORS
330
47
102
}
330
47
100
AcDbScale
 70
     0
300
1:30
140
1.0
141
30.0
290
     0
  0
SCALE
  5
51
102
{ACAD_REACTORS
330
47
102
}
330
47
100
AcDbScale
 70
     0
300
1:40
140
1.0
141
40.0
290
     0
  0
SCALE
  5
52
102
{ACAD_REACTORS
330
47
102
}
330
47
100
AcDbScale
 70
     0
300
1:50
140
1.0
141
50.0
290
     0
  0
SCALE
  5
53
102
{ACAD_REACTORS
330
47
102
}
330
47
100
AcDbScale
 70
     0
300
1:100
140
1.0
141
100.0
290
     0
  0
SCALE
  5
54
102
{ACAD_REACTORS
330
47
102
}
330
47
100
AcDbScale
 70
     0
300
2:1
140
2.0
141
1.0
290
     0
  0
SCALE
  5
55
102
{ACAD_REACTORS
330
47
102
}
330
47
100
AcDbScale
 70
     0
300
4:1
140
4.0
141
1.0
290
     0
  0
SCALE
  5
56
102
{ACAD_REACTORS
330
47
102
}
330
47
100
AcDbScale
 70
     0
300
8:1
140
8.0
141
1.0
290
     0
  0
SCALE
  5
57
102
{ACAD_REACTORS
330
47
102
}
330
47
100
AcDbScale
 70
     0
300
10:1
140
10.0
141
1.0
290
     0
  0
SCALE
  5
58
102
{ACAD_REACTORS
330
47
102
}
330
47
100
AcDbScale
 70
     0
300
100:1
140
100.0
141
1.0
290
     0
  0
SCALE
  5
59
102
{ACAD_REACTORS
330
47
102
}
330
47
100
AcDbScale
 70
     0
300
1/128" = 1'-0"
140
0.007812
141
12.0
290
     0
  0
SCALE
  5
5A
102
{ACAD_REACTORS
330
47
102
}
330
47
100
AcDbScale
 70
     0
300
1/64" = 1'-0"
140
0.015625
141
12.0
290
     0
  0
SCALE
  5
5B
102
{ACAD_REACTORS
330
47
102
}
330
47
100
AcDbScale
 70
     0
300
1/32" = 1'-0"
140
0.03125
141
12.0
290
     0
  0
SCALE
  5
5C
102
{ACAD_REACTORS
330
47
102
}
330
47
100
AcDbScale
 70
     0
300
1/16" = 1'-0"
140
0.0625
141
12.0
290
     0
  0
SCALE
  5
5D
102
{ACAD_REACTORS
330
47
102
}
330
47
100
AcDbScale
 70
     0
300
3/32" = 1'-0"
140
0.09375
141
12.0
290
     0
  0
SCALE
  5
5E
102
{ACAD_REACTORS
330
47
102
}
330
47
100
AcDbScale
 70
     0
300
1/8" = 1'-0"
140
0.125
141
12.0
290
     0
  0
SCALE
  5
5F
102
{ACAD_REACTORS
330
47
102
}
330
47
100
AcDbScale
 70
     0
300
3/16" = 1'-0"
140
0.1875
141
12.0
290
     0
  0
SCALE
  5
60
102
{ACAD_REACTORS
330
47
102
}
330
47
100
AcDbScale
 70
     0
300
1/4" = 1'-0"
140
0.25
141
12.0
290
     0
  0
SCALE
  5
61
102
{ACAD_REACTORS
330
47
102
}
330
47
100
AcDbScale
 70
     0
300
3/8" = 1'-0"
140
0.375
141
12.0
290
     0
  0
SCALE
  5
62
102
{ACAD_REACTORS
330
47
102
}
330
47
100
AcDbScale
 70
     0
300
1/2" = 1'-0"
140
0.5
141
12.0
290
     0
  0
SCALE
  5
63
102
{ACAD_REACTORS
330
47
102
}
330
47
100
AcDbScale
 70
     0
300
3/4" = 1'-0"
140
0.75
141
12.0
290
     0
  0
SCALE
  5
64
102
{ACAD_REACTORS
330
47
102
}
330
47
100
AcDbScale
 70
     0
300
1" = 1'-0"
140
1.0
141
12.0
290
     0
  0
SCALE
  5
65
102
{ACAD_REACTORS
330
47
102
}
330
47
100
AcDbScale
 70
     0
300
1-1/2" = 1'-0"
140
1.5
141
12.0
290
     0
  0
SCALE
  5
66
102
{ACAD_REACTORS
330
47
102
}
330
47
100
AcDbScale
 70
     0
300
3" = 1'-0"
140
3.0
141
12.0
290
     0
  0
SCALE
  5
67
102
{ACAD_REACTORS
330
47
102
}
330
47
100
AcDbScale
 70
     0
300
6" = 1'-0"
140
6.0
141
12.0
290
     0
  0
SCALE
  5
68
102
{ACAD_REACTORS
330
47
102
}
330
47
100
AcDbScale
 70
     0
300
1'-0" = 1'-0"
140
12.0
141
12.0
290
     0
  0
TABLESTYLE
  5
6A
102
{ACAD_REACTORS
330
69
102
}
102
{ACAD_XDICTIONARY
360
3B1
102
}
330
69
100
AcDbTableStyle
  3
Standard
 70
     0
 71
     0
 40
0.06
 41
0.06
280
     0
281
     0
  7
Standard
140
4.5
170
     2
 62
     0
 63
   257
283
     0
 90
        4
 91
        0
  1

274
    -2
284
     1
 64
     0
275
    -2
285
     1
 65
     0
276
    -2
286
     1
 66
     0
277
    -2
287
     1
 67
     0
278
    -2
288
     1
 68
     0
279
    -2
289
     1
 69
     0
  7
Standard
140
6.0
170
     5
 62
     0
 63
   257
283
     0
 90
        4
 91
        0
  1

274
    -2
284
     1
 64
     0
275
    -2
285
     1
 65
     0
276
    -2
286
     1
 66
     0
277
    -2
287
     1
 67
     0
278
    -2
288
     1
 68
     0
279
    -2
289
     1
 69
     0
  7
Standard
140
4.5
170
     5
 62
     0
 63
   257
283
     0
 90
        4
 91
        0
  1

274
    -2
284
     1
 64
     0
275
    -2
285
     1
 65
     0
276
    -2
286
     1
 66
     0
277
    -2
287
     1
 67
     0
278
    -2
288
     1
 68
     0
279
    -2
289
     1
 69
     0
  0
VISUALSTYLE
  5
2F
102
{ACAD_REACTORS
330
2A
102
}
102
{ACAD_XDICTIONARY
360
389
102
}
330
2A
100
AcDbVisualStyle
  2
2dWireframe
 70
     4
177
     2
291
     0
 71
     0
176
     1
 72
     2
176
     1
 73
     0
176
     1
 90
        0
176
     1
 40
0.6
176
     1
 41
30.0
176
     1
 62
     5
 63
     7
421
 16777215
176
     1
 74
     1
176
     1
 91
        4
176
     1
 64
     7
176
     1
 65
   257
176
     1
 75
     1
176
     1
175
     1
176
     1
 42
1.0
176
     1
 92
        0
176
     1
 66
   257
176
     1
 43
1.0
176
     1
 76
     1
176
     1
 77
     6
176
     1
 78
     2
176
     1
 67
     7
176
     1
 79
     5
176
     1
170
     0
176
     1
171
     0
176
     1
290
     0
176
     1
 93
        1
176
     1
 44
0.0
176
     1
173
     0
176
     1
  0
VISUALSTYLE
  5
32
102
{ACAD_REACTORS
330
2A
102
}
102
{ACAD_XDICTIONARY
360
38F
102
}
330
2A
100
AcDbVisualStyle
  2
Basic
 70
     7
177
     2
291
     1
 71
     1
176
     1
 72
     0
176
     1
 73
     1
176
     1
 90
        0
176
     1
 40
0.6
176
     1
 41
30.0
176
     1
 62
     5
 63
     7
421
 16777215
176
     1
 74
     0
176
     1
 91
        4
176
     1
 64
     7
176
     1
 65
   257
176
     1
 75
     1
176
     1
175
     1
176
     1
 42
1.0
176
     1
 92
        8
176
     1
 66
     7
176
     1
 43
1.0
176
     1
 76
     1
176
     1
 77
     6
176
     1
 78
     2
176
     1
 67
     7
176
     1
 79
     5
176
     1
170
     0
176
     1
171
     0
176
     1
290
     0
176
     1
 93
        1
176
     1
 44
0.0
176
     1
173
     0
176
     1
  0
VISUALSTYLE
  5
36
102
{ACAD_REACTORS
330
2A
102
}
102
{ACAD_XDICTIONARY
360
397
102
}
330
2A
100
AcDbVisualStyle
  2
Brighten
 70
    12
177
     2
291
     1
 71
     2
176
     1
 72
     2
176
     1
 73
     0
176
     1
 90
        0
176
     1
 40
0.6
176
     1
 41
30.0
176
     1
 62
     5
 63
     7
421
 16777215
176
     1
 74
     1
176
     1
 91
        4
176
     1
 64
     7
176
     1
 65
   257
176
     1
 75
     1
176
     1
175
     1
176
     1
 42
1.0
176
     1
 92
        8
176
     1
 66
     7
176
     1
 43
1.0
176
     1
 76
     1
176
     1
 77
     6
176
     1
 78
     2
176
     1
 67
     7
176
     1
 79
     5
176
     1
170
     0
176
     1
171
     0
176
     1
290
     0
176
     1
 93
        1
176
     1
 44
50.0
176
     1
173
     0
176
     1
  0
VISUALSTYLE
  5
3A
102
{ACAD_REACTORS
330
2A
102
}
102
{ACAD_XDICTIONARY
360
39F
102
}
330
2A
100
AcDbVisualStyle
  2
ColorChange
 70
    16
177
     2
291
     1
 71
     2
176
     1
 72
     2
176
     1
 73
     3
176
     1
 90
        0
176
     1
 40
0.6
176
     1
 41
30.0
176
     1
 62
     5
 63
     8
421
  8421504
176
     1
 74
     1
176
     1
 91
        4
176
     1
 64
     7
176
     1
 65
   257
176
     1
 75
     1
176
     1
175
     1
176
     1
 42
1.0
176
     1
 92
        8
176
     1
 66
     8
424
  8421504
176
     1
 43
1.0
176
     1
 76
     1
176
     1
 77
     6
176
     1
 78
     2
176
     1
 67
     7
176
     1
 79
     5
176
     1
170
     0
176
     1
171
     0
176
     1
290
     0
176
     1
 93
        1
176
     1
 44
0.0
176
     1
173
     0
176
     1
  0
VISUALSTYLE
  5
34
102
{ACAD_REACTORS
330
2A
102
}
102
{ACAD_XDICTIONARY
360
393
102
}
330
2A
100
AcDbVisualStyle
  2
Conceptual
 70
     9
177
     2
291
     0
 71
     3
176
     1
 72
     2
176
     1
 73
     0
176
     1
 90
        0
176
     1
 40
0.6
176
     1
 41
30.0
176
     1
 62
     5
 63
     7
421
 16777215
176
     1
 74
     2
176
     1
 91
        2
176
     1
 64
     7
176
     1
 65
   257
176
     1
 75
     1
176
     1
175
     1
176
     1
 42
179.0
176
     1
 92
        8
176
     1
 66
     7
176
     1
 43
1.0
176
     1
 76
     1
176
     1
 77
     6
176
     1
 78
     2
176
     1
 67
     7
176
     1
 79
     3
176
     1
170
     0
176
     1
171
     0
176
     1
290
     0
176
     1
 93
        1
176
     1
 44
0.0
176
     1
173
     0
176
     1
  0
VISUALSTYLE
  5
35
102
{ACAD_REACTORS
330
2A
102
}
102
{ACAD_XDICTIONARY
360
395
102
}
330
2A
100
AcDbVisualStyle
  2
Dim
 70
    11
177
     2
291
     1
 71
     2
176
     1
 72
     2
176
     1
 73
     0
176
     1
 90
        0
176
     1
 40
0.6
176
     1
 41
30.0
176
     1
 62
     5
 63
     7
421
 16777215
176
     1
 74
     1
176
     1
 91
        4
176
     1
 64
     7
176
     1
 65
   257
176
     1
 75
     1
176
     1
175
     1
176
     1
 42
1.0
176
     1
 92
        8
176
     1
 66
     7
176
     1
 43
1.0
176
     1
 76
     1
176
     1
 77
     6
176
     1
 78
     2
176
     1
 67
     7
176
     1
 79
     5
176
     1
170
     0
176
     1
171
     0
176
     1
290
     0
176
     1
 93
        1
176
     1
 44
-50.0
176
     1
173
     0
176
     1
  0
VISUALSTYLE
  5
3D
102
{ACAD_REACTORS
330
2A
102
}
102
{ACAD_XDICTIONARY
360
3A5
102
}
330
2A
100
AcDbVisualStyle
  2
EdgeColorOff
 70
    22
177
     2
291
     1
 71
     2
176
     0
 72
     2
176
     0
 73
     0
176
     0
 90
        0
176
     0
 40
0.6
176
     0
 41
30.0
176
     0
 62
     5
 63
     7
421
 16777215
176
     0
 74
     1
176
     0
 91
        4
176
     0
 64
     7
176
     0
 65
   257
176
     0
 75
     1
176
     0
175
     1
176
     0
 42
1.0
176
     0
 92
        8
176
     2
 66
     7
176
     0
 43
1.0
176
     0
 76
     1
176
     0
 77
     6
176
     0
 78
     2
176
     0
 67
     7
176
     0
 79
     5
176
     0
170
     0
176
     0
171
     0
176
     0
290
     0
176
     0
 93
        1
176
     0
 44
0.0
176
     0
173
     0
176
     0
  0
VISUALSTYLE
  5
39
102
{ACAD_REACTORS
330
2A
102
}
102
{ACAD_XDICTIONARY
360
39D
102
}
330
2A
100
AcDbVisualStyle
  2
Facepattern
 70
    15
177
     2
291
     1
 71
     2
176
     1
 72
     2
176
     1
 73
     0
176
     1
 90
        0
176
     1
 40
0.6
176
     1
 41
30.0
176
     1
 62
     5
 63
     7
421
 16777215
176
     1
 74
     1
176
     1
 91
        4
176
     1
 64
     7
176
     1
 65
   257
176
     1
 75
     1
176
     1
175
     1
176
     1
 42
1.0
176
     1
 92
        8
176
     1
 66
     7
176
     1
 43
1.0
176
     1
 76
     1
176
     1
 77
     6
176
     1
 78
     2
176
     1
 67
     7
176
     1
 79
     5
176
     1
170
     0
176
     1
171
     0
176
     1
290
     0
176
     1
 93
        1
176
     1
 44
0.0
176
     1
173
     0
176
     1
  0
VISUALSTYLE
  5
2B
102
{ACAD_REACTORS
330
2A
102
}
102
{ACAD_XDICTIONARY
360
381
102
}
330
2A
100
AcDbVisualStyle
  2
Flat
 70
     0
177
     2
291
     1
 71
     2
176
     1
 72
     1
176
     1
 73
     1
176
     1
 90
        2
176
     1
 40
0.6
176
     1
 41
30.0
176
     1
 62
     5
 63
     7
421
 16777215
176
     1
 74
     0
176
     1
 91
        0
176
     1
 64
     7
176
     1
 65
   257
176
     1
 75
     1
176
     1
175
     1
176
     1
 42
1.0
176
     1
 92
        8
176
     1
 66
     7
176
     1
 43
1.0
176
     1
 76
     1
176
     1
 77
     6
176
     1
 78
     2
176
     1
 67
     7
176
     1
 79
     5
176
     1
170
     0
176
     1
171
     0
176
     1
290
     0
176
     1
 93
       13
176
     1
 44
0.0
176
     1
173
     0
176
     1
  0
VISUALSTYLE
  5
2C
102
{ACAD_REACTORS
330
2A
102
}
102
{ACAD_XDICTIONARY
360
383
102
}
330
2A
100
AcDbVisualStyle
  2
FlatWithEdges
 70
     1
177
     2
291
     1
 71
     2
176
     1
 72
     1
176
     1
 73
     1
176
     1
 90
        2
176
     1
 40
0.6
176
     1
 41
30.0
176
     1
 62
     5
 63
     7
421
 16777215
176
     1
 74
     1
176
     1
 91
        0
176
     1
 64
     7
176
     1
 65
   257
176
     1
 75
     1
176
     1
175
     1
176
     1
 42
1.0
176
     1
 92
        0
176
     1
 66
   257
176
     1
 43
1.0
176
     1
 76
     1
176
     1
 77
     6
176
     1
 78
     2
176
     1
 67
     7
176
     1
 79
     5
176
     1
170
     0
176
     1
171
     0
176
     1
290
     0
176
     1
 93
       13
176
     1
 44
0.0
176
     1
173
     0
176
     1
  0
VISUALSTYLE
  5
2D
102
{ACAD_REACTORS
330
2A
102
}
102
{ACAD_XDICTIONARY
360
385
102
}
330
2A
100
AcDbVisualStyle
  2
Gouraud
 70
     2
177
     2
291
     1
 71
     2
176
     1
 72
     2
176
     1
 73
     1
176
     1
 90
        2
176
     1
 40
0.6
176
     1
 41
30.0
176
     1
 62
     5
 63
     7
421
 16777215
176
     1
 74
     0
176
     1
 91
        0
176
     1
 64
     7
176
     1
 65
   257
176
     1
 75
     1
176
     1
175
     1
176
     1
 42
1.0
176
     1
 92
        0
176
     1
 66
     7
176
     1
 43
1.0
176
     1
 76
     1
176
     1
 77
     6
176
     1
 78
     2
176
     1
 67
     7
176
     1
 79
     5
176
     1
170
     0
176
     1
171
     0
176
     1
290
     0
176
     1
 93
       13
176
     1
 44
0.0
176
     1
173
     0
176
     1
  0
VISUALSTYLE
  5
2E
102
{ACAD_REACTORS
330
2A
102
}
102
{ACAD_XDICTIONARY
360
387
102
}
330
2A
100
AcDbVisualStyle
  2
GouraudWithEdges
 70
     3
177
     2
291
     1
 71
     2
176
     1
 72
     2
176
     1
 73
     1
176
     1
 90
        2
176
     1
 40
0.6
176
     1
 41
30.0
176
     1
 62
     5
 63
     7
421
 16777215
176
     1
 74
     1
176
     1
 91
        0
176
     1
 64
     7
176
     1
 65
   257
176
     1
 75
     1
176
     1
175
     1
176
     1
 42
1.0
176
     1
 92
        0
176
     1
 66
   257
176
     1
 43
1.0
176
     1
 76
     1
176
     1
 77
     6
176
     1
 78
     2
176
     1
 67
     7
176
     1
 79
     5
176
     1
170
     0
176
     1
171
     0
176
     1
290
     0
176
     1
 93
       13
176
     1
 44
0.0
176
     1
173
     0
176
     1
  0
VISUALSTYLE
  5
31
102
{ACAD_REACTORS
330
2A
102
}
102
{ACAD_XDICTIONARY
360
38D
102
}
330
2A
100
AcDbVisualStyle
  2
Hidden
 70
     6
177
     2
291
     0
 71
     1
176
     1
 72
     2
176
     1
 73
     2
176
     1
 90
        0
176
     1
 40
0.6
176
     1
 41
30.0
176
     1
 62
     5
 63
     7
421
 16777215
176
     1
 74
     2
176
     1
 91
        2
176
     1
 64
     7
176
     1
 65
   257
176
     1
 75
     2
176
     1
175
     1
176
     1
 42
40.0
176
     1
 92
        0
176
     1
 66
   257
176
     1
 43
1.0
176
     1
 76
     1
176
     1
 77
     6
176
     1
 78
     2
176
     1
 67
     7
176
     1
 79
     3
176
     1
170
     0
176
     1
171
     0
176
     1
290
     0
176
     1
 93
        1
176
     1
 44
0.0
176
     1
173
     0
176
     1
  0
VISUALSTYLE
  5
3B
102
{ACAD_REACTORS
330
2A
102
}
102
{ACAD_XDICTIONARY
360
3A1
102
}
330
2A
100
AcDbVisualStyle
  2
JitterOff
 70
    20
177
     2
291
     1
 71
     2
176
     0
 72
     2
176
     0
 73
     0
176
     0
 90
        0
176
     0
 40
0.6
176
     0
 41
30.0
176
     0
 62
     5
 63
     7
421
 16777215
176
     0
 74
     1
176
     0
 91
        4
176
     0
 64
     7
176
     0
 65
   257
176
     0
 75
     1
176
     0
175
     1
176
     0
 42
1.0
176
     0
 92
       10
176
     2
 66
     7
176
     0
 43
1.0
176
     0
 76
     1
176
     0
 77
     6
176
     0
 78
     2
176
     0
 67
     7
176
     0
 79
     5
176
     0
170
     0
176
     0
171
     0
176
     0
290
     0
176
     0
 93
        1
176
     0
 44
0.0
176
     0
173
     0
176
     0
  0
VISUALSTYLE
  5
38
102
{ACAD_REACTORS
330
2A
102
}
102
{ACAD_XDICTIONARY
360
39B
102
}
330
2A
100
AcDbVisualStyle
  2
Linepattern
 70
    14
177
     2
291
     1
 71
     2
176
     1
 72
     2
176
     1
 73
     0
176
     1
 90
        0
176
     1
 40
0.6
176
     1
 41
30.0
176
     1
 62
     5
 63
     7
421
 16777215
176
     1
 74
     1
176
     1
 91
        4
176
     1
 64
     7
176
     1
 65
   257
176
     1
 75
     7
176
     1
175
     7
176
     1
 42
1.0
176
     1
 92
        8
176
     1
 66
     7
176
     1
 43
1.0
176
     1
 76
     1
176
     1
 77
     6
176
     1
 78
     2
176
     1
 67
     7
176
     1
 79
     5
176
     1
170
     0
176
     1
171
     0
176
     1
290
     0
176
     1
 93
        1
176
     1
 44
0.0
176
     1
173
     0
176
     1
  0
VISUALSTYLE
  5
3C
102
{ACAD_REACTORS
330
2A
102
}
102
{ACAD_XDICTIONARY
360
3A3
102
}
330
2A
100
AcDbVisualStyle
  2
OverhangOff
 70
    21
177
     2
291
     1
 71
     2
176
     0
 72
     2
176
     0
 73
     0
176
     0
 90
        0
176
     0
 40
0.6
176
     0
 41
30.0
176
     0
 62
     5
 63
     7
421
 16777215
176
     0
 74
     1
176
     0
 91
        4
176
     0
 64
     7
176
     0
 65
   257
176
     0
 75
     1
176
     0
175
     1
176
     0
 42
1.0
176
     0
 92
        9
176
     2
 66
     7
176
     0
 43
1.0
176
     0
 76
     1
176
     0
 77
     6
176
     0
 78
     2
176
     0
 67
     7
176
     0
 79
     5
176
     0
170
     0
176
     0
171
     0
176
     0
290
     0
176
     0
 93
        1
176
     0
 44
0.0
176
     0
173
     0
176
     0
  0
VISUALSTYLE
  5
33
102
{ACAD_REACTORS
330
2A
102
}
102
{ACAD_XDICTIONARY
360
391
102
}
330
2A
100
AcDbVisualStyle
  2
Realistic
 70
     8
177
     2
291
     0
 71
     2
176
     1
 72
     3
176
     1
 73
     0
176
     1
 90
        2
176
     1
 40
0.6
176
     1
 41
30.0
176
     1
 62
     5
 63
     7
421
 16777215
176
     1
 74
     0
176
     1
 91
        0
176
     1
 64
     7
176
     1
 65
   257
176
     1
 75
     1
176
     1
175
     1
176
     1
 42
1.0
176
     1
 92
        8
176
     1
 66
   257
176
     1
 43
1.0
176
     1
 76
     1
176
     1
 77
     6
176
     1
 78
     2
176
     1
 67
     7
176
     1
 79
     3
176
     1
170
     0
176
     1
171
     0
176
     1
290
     0
176
     1
 93
       13
176
     1
 44
0.0
176
     1
173
     0
176
     1
  0
VISUALSTYLE
  5
42
102
{ACAD_REACTORS
330
2A
102
}
102
{ACAD_XDICTIONARY
360
3AF
102
}
330
2A
100
AcDbVisualStyle
  2
Shaded
 70
    27
177
     2
291
     0
 71
     2
176
     1
 72
     2
176
     1
 73
     1
176
     1
 90
        2
176
     1
 40
0.6
176
     1
 41
30.0
176
     1
 62
     5
 63
     7
421
 16777215
176
     1
 74
     0
176
     1
 91
        4
176
     1
 64
     7
176
     1
 65
   257
176
     1
 75
     1
176
     1
175
     1
176
     1
 42
1.0
176
     1
 92
        8
176
     1
 66
   257
176
     1
 43
1.0
176
     1
 76
     1
176
     1
 77
     6
176
     1
 78
     2
176
     1
 67
     8
425
  7895160
176
     1
 79
     3
176
     1
170
     0
176
     1
171
     0
176
     1
290
     0
176
     1
 93
        5
176
     1
 44
0.0
176
     1
173
     0
176
     1
  0
VISUALSTYLE
  5
41
102
{ACAD_REACTORS
330
2A
102
}
102
{ACAD_XDICTIONARY
360
3AD
102
}
330
2A
100
AcDbVisualStyle
  2
Shaded with edges
 70
    26
177
     2
291
     0
 71
     2
176
     1
 72
     2
176
     1
 73
     1
176
     1
 90
        2
176
     1
 40
0.6
176
     1
 41
30.0
176
     1
 62
     5
 63
     7
421
 16777215
176
     1
 74
     1
176
     1
 91
       10
176
     1
 64
     7
176
     1
 65
   257
176
     1
 75
     2
176
     1
175
     1
176
     1
 42
1.0
176
     1
 92
        8
176
     1
 66
   257
176
     1
 43
1.0
176
     1
 76
     1
176
     1
 77
     6
176
     1
 78
     2
176
     1
 67
     7
176
     1
 79
     3
176
     1
170
     0
176
     1
171
     0
176
     1
290
     0
176
     1
 93
        5
176
     1
 44
0.0
176
     1
173
     0
176
     1
  0
VISUALSTYLE
  5
3E
102
{ACAD_REACTORS
330
2A
102
}
102
{ACAD_XDICTIONARY
360
3A7
102
}
330
2A
100
AcDbVisualStyle
  2
Shades of Gray
 70
    23
177
     2
291
     0
 71
     2
176
     1
 72
     2
176
     1
 73
     3
176
     1
 90
        0
176
     1
 40
0.6
176
     1
 41
30.0
176
     1
 62
     5
 63
     7
421
 16777215
176
     1
 74
     2
176
     1
 91
        2
176
     1
 64
     7
176
     1
 65
     7
176
     1
 75
     1
176
     1
175
     1
176
     1
 42
40.0
176
     1
 92
        8
176
     1
 66
     7
176
     1
 43
1.0
176
     1
 76
     1
176
     1
 77
     6
176
     1
 78
     2
176
     1
 67
     7
176
     1
 79
     3
176
     1
170
     0
176
     1
171
     0
176
     1
290
     0
176
     1
 93
        1
176
     1
 44
0.0
176
     1
173
     0
176
     1
  0
VISUALSTYLE
  5
3F
102
{ACAD_REACTORS
330
2A
102
}
102
{ACAD_XDICTIONARY
360
3A9
102
}
330
2A
100
AcDbVisualStyle
  2
Sketchy
 70
    24
177
     2
291
     0
 71
     1
176
     1
 72
     2
176
     1
 73
     2
176
     1
 90
        0
176
     1
 40
0.6
176
     1
 41
30.0
176
     1
 62
     5
 63
     7
421
 16777215
176
     1
 74
     2
176
     1
 91
        2
176
     1
 64
     7
176
     1
 65
     7
176
     1
 75
     1
176
     1
175
     1
176
     1
 42
40.0
176
     1
 92
       11
176
     1
 66
     7
176
     1
 43
1.0
176
     1
 76
     1
176
     1
 77
     6
176
     1
 78
     2
176
     1
 67
     7
176
     1
 79
     6
176
     1
170
     0
176
     1
171
     0
176
     1
290
     0
176
     1
 93
        1
176
     1
 44
0.0
176
     1
173
     0
176
     1
  0
VISUALSTYLE
  5
37
102
{ACAD_REACTORS
330
2A
102
}
102
{ACAD_XDICTIONARY
360
399
102
}
330
2A
100
AcDbVisualStyle
  2
Thicken
 70
    13
177
     2
291
     1
 71
     2
176
     1
 72
     2
176
     1
 73
     0
176
     1
 90
        0
176
     1
 40
0.6
176
     1
 41
30.0
176
     1
 62
     5
 63
     7
421
 16777215
176
     1
 74
     1
176
     1
 91
        4
176
     1
 64
     7
176
     1
 65
   257
176
     1
 75
     1
176
     1
175
     1
176
     1
 42
1.0
176
     1
 92
       12
176
     1
 66
     7
176
     1
 43
1.0
176
     1
 76
     1
176
     1
 77
     6
176
     1
 78
     2
176
     1
 67
     7
176
     1
 79
     5
176
     1
170
     0
176
     1
171
     0
176
     1
290
     0
176
     1
 93
        1
176
     1
 44
0.0
176
     1
173
     0
176
     1
  0
VISUALSTYLE
  5
30
102
{ACAD_REACTORS
330
2A
102
}
102
{ACAD_XDICTIONARY
360
38B
102
}
330
2A
100
AcDbVisualStyle
  2
Wireframe
 70
     5
177
     2
291
     0
 71
     0
176
     1
 72
     2
176
     1
 73
     0
176
     1
 90
        0
176
     1
 40
0.6
176
     1
 41
30.0
176
     1
 62
     5
 63
     7
421
 16777215
176
     1
 74
     1
176
     1
 91
        4
176
     1
 64
     7
176
     1
 65
   257
176
     1
 75
     1
176
     1
175
     1
176
     1
 42
1.0
176
     1
 92
        0
176
     1
 66
   257
176
     1
 43
1.0
176
     1
 76
     1
176
     1
 77
     6
176
     1
 78
     2
176
     1
 67
     7
176
     1
 79
     3
176
     1
170
     0
176
     1
171
     0
176
     1
290
     0
176
     1
 93
        1
176
     1
 44
0.0
176
     1
173
     0
176
     1
  0
VISUALSTYLE
  5
40
102
{ACAD_REACTORS
330
2A
102
}
102
{ACAD_XDICTIONARY
360
3AB
102
}
330
2A
100
AcDbVisualStyle
  2
X-Ray
 70
    25
177
     2
291
     0
 71
     2
176
     1
 72
     2
176
     1
 73
     1
176
     1
 90
        1
176
     1
 40
0.5
176
     1
 41
30.0
176
     1
 62
     5
 63
     7
421
 16777215
176
     1
 74
     1
176
     1
 91
        0
176
     1
 64
     7
176
     1
 65
   257
176
     1
 75
     1
176
     1
175
     1
176
     1
 42
1.0
176
     1
 92
        8
176
     1
 66
     7
176
     1
 43
1.0
176
     1
 76
     1
176
     1
 77
     6
176
     1
 78
     2
176
     1
 67
     7
176
     1
 79
     3
176
     1
170
     0
176
     1
171
     0
176
     1
290
     0
176
     1
 93
       13
176
     1
 44
0.0
176
     1
173
     0
176
     1
  0
DICTIONARYVAR
  5
380
102
{ACAD_REACTORS
330
37F
102
}
330
37F
100
DictionaryVariables
280
     0
  1
1:1
  0
DICTIONARYVAR
  5
3B5
102
{ACAD_REACTORS
330
37F
102
}
330
37F
100
DictionaryVariables
280
     0
  1
Standard
  0
DICTIONARYVAR
  5
3B4
102
{ACAD_REACTORS
330
37F
102
}
330
37F
100
DictionaryVariables
280
     0
  1
Standard
  0
DICTIONARY
  5
3B1
330
6A
100
AcDbDictionary
280
     1
281
     1
  3
ACAD_ROUNDTRIP_2008_TABLESTYLE_CELLSTYLEMAP
360
3B2
  0
DICTIONARY
  5
389
330
2F
100
AcDbDictionary
280
     1
281
     1
  3
ACAD_XREC_ROUNDTRIP
360
38A
  0
DICTIONARY
  5
38F
330
32
100
AcDbDictionary
280
     1
281
     1
  3
ACAD_XREC_ROUNDTRIP
360
390
  0
DICTIONARY
  5
397
330
36
100
AcDbDictionary
280
     1
281
     1
  3
ACAD_XREC_ROUNDTRIP
360
398
  0
DICTIONARY
  5
39F
330
3A
100
AcDbDictionary
280
     1
281
     1
  3
ACAD_XREC_ROUNDTRIP
360
3A0
  0
DICTIONARY
  5
393
330
34
100
AcDbDictionary
280
     1
281
     1
  3
ACAD_XREC_ROUNDTRIP
360
394
  0
DICTIONARY
  5
395
330
35
100
AcDbDictionary
280
     1
281
     1
  3
ACAD_XREC_ROUNDTRIP
360
396
  0
DICTIONARY
  5
3A5
330
3D
100
AcDbDictionary
280
     1
281
     1
  3
ACAD_XREC_ROUNDTRIP
360
3A6
  0
DICTIONARY
  5
39D
330
39
100
AcDbDictionary
280
     1
281
     1
  3
ACAD_XREC_ROUNDTRIP
360
39E
  0
DICTIONARY
  5
381
330
2B
100
AcDbDictionary
280
     1
281
     1
  3
ACAD_XREC_ROUNDTRIP
360
382
  0
DICTIONARY
  5
383
330
2C
100
AcDbDictionary
280
     1
281
     1
  3
ACAD_XREC_ROUNDTRIP
360
384
  0
DICTIONARY
  5
385
330
2D
100
AcDbDictionary
280
     1
281
     1
  3
ACAD_XREC_ROUNDTRIP
360
386
  0
DICTIONARY
  5
387
330
2E
100
AcDbDictionary
280
     1
281
     1
  3
ACAD_XREC_ROUNDTRIP
360
388
  0
DICTIONARY
  5
38D
330
31
100
AcDbDictionary
280
     1
281
     1
  3
ACAD_XREC_ROUNDTRIP
360
38E
  0
DICTIONARY
  5
3A1
330
3B
100
AcDbDictionary
280
     1
281
     1
  3
ACAD_XREC_ROUNDTRIP
360
3A2
  0
DICTIONARY
  5
39B
330
38
100
AcDbDictionary
280
     1
281
     1
  3
ACAD_XREC_ROUNDTRIP
360
39C
  0
DICTIONARY
  5
3A3
330
3C
100
AcDbDictionary
280
     1
281
     1
  3
ACAD_XREC_ROUNDTRIP
360
3A4
  0
DICTIONARY
  5
391
330
33
100
AcDbDictionary
280
     1
281
     1
  3
ACAD_XREC_ROUNDTRIP
360
392
  0
DICTIONARY
  5
3AF
330
42
100
AcDbDictionary
280
     1
281
     1
  3
ACAD_XREC_ROUNDTRIP
360
3B0
  0
DICTIONARY
  5
3AD
330
41
100
AcDbDictionary
280
     1
281
     1
  3
ACAD_XREC_ROUNDTRIP
360
3AE
  0
DICTIONARY
  5
3A7
330
3E
100
AcDbDictionary
280
     1
281
     1
  3
ACAD_XREC_ROUNDTRIP
360
3A8
  0
DICTIONARY
  5
3A9
330
3F
100
AcDbDictionary
280
     1
281
     1
  3
ACAD_XREC_ROUNDTRIP
360
3AA
  0
DICTIONARY
  5
399
330
37
100
AcDbDictionary
280
     1
281
     1
  3
ACAD_XREC_ROUNDTRIP
360
39A
  0
DICTIONARY
  5
38B
330
30
100
AcDbDictionary
280
     1
281
     1
  3
ACAD_XREC_ROUNDTRIP
360
38C
  0
DICTIONARY
  5
3AB
330
40
100
AcDbDictionary
280
     1
281
     1
  3
ACAD_XREC_ROUNDTRIP
360
3AC
  0
CELLSTYLEMAP
  5
3B2
102
{ACAD_REACTORS
330
3B1
102
}
330
3B1
100
AcDbCellStyleMap
 90
        3
300
CELLSTYLE
  1
TABLEFORMAT_BEGIN
 90
        5
170
     1
 91
        0
 92
    32768
 62
   257
 93
        1
300
CONTENTFORMAT
  1
CONTENTFORMAT_BEGIN
 90
        0
 91
        0
 92
        4
 93
        0
300

 40
0.0
140
1.0
 94
        5
 62
     0
340
11
144
6.0
309
CONTENTFORMAT_END
171
     1
301
MARGIN
  1
CELLMARGIN_BEGIN
 40
1.5
 40
1.5
 40
1.5
 40
1.5
 40
1.5
 40
1.5
309
CELLMARGIN_END
 94
        6
 95
        1
302
GRIDFORMAT
  1
GRIDFORMAT_BEGIN
 90
        0
 91
        1
 62
     0
 92
       -2
340
14
 93
        0
 40
0.045
309
GRIDFORMAT_END
 95
        2
302
GRIDFORMAT
  1
GRIDFORMAT_BEGIN
 90
        0
 91
        1
 62
     0
 92
       -2
340
14
 93
        0
 40
0.045
309
GRIDFORMAT_END
 95
        4
302
GRIDFORMAT
  1
GRIDFORMAT_BEGIN
 90
        0
 91
        1
 62
     0
 92
       -2
340
14
 93
        0
 40
0.045
309
GRIDFORMAT_END
 95
        8
302
GRIDFORMAT
  1
GRIDFORMAT_BEGIN
 90
        0
 91
        1
 62
     0
 92
       -2
340
14
 93
        0
 40
0.045
309
GRIDFORMAT_END
 95
       16
302
GRIDFORMAT
  1
GRIDFORMAT_BEGIN
 90
        0
 91
        1
 62
     0
 92
       -2
340
14
 93
        0
 40
0.045
309
GRIDFORMAT_END
 95
       32
302
GRIDFORMAT
  1
GRIDFORMAT_BEGIN
 90
        0
 91
        1
 62
     0
 92
       -2
340
14
 93
        0
 40
0.045
309
GRIDFORMAT_END
309
TABLEFORMAT_END
  1
CELLSTYLE_BEGIN
 90
        1
 91
        1
300
_TITLE
309
CELLSTYLE_END
300
CELLSTYLE
  1
TABLEFORMAT_BEGIN
 90
        5
170
     1
 91
        0
 92
        0
 62
   257
 93
        1
300
CONTENTFORMAT
  1
CONTENTFORMAT_BEGIN
 90
        0
 91
        0
 92
        4
 93
        0
300

 40
0.0
140
1.0
 94
        5
 62
     0
340
11
144
4.5
309
CONTENTFORMAT_END
171
     1
301
MARGIN
  1
CELLMARGIN_BEGIN
 40
1.5
 40
1.5
 40
1.5
 40
1.5
 40
1.5
 40
1.5
309
CELLMARGIN_END
 94
        6
 95
        1
302
GRIDFORMAT
  1
GRIDFORMAT_BEGIN
 90
        0
 91
        1
 62
     0
 92
       -2
340
14
 93
        0
 40
0.045
309
GRIDFORMAT_END
 95
        2
302
GRIDFORMAT
  1
GRIDFORMAT_BEGIN
 90
        0
 91
        1
 62
     0
 92
       -2
340
14
 93
        0
 40
0.045
309
GRIDFORMAT_END
 95
        4
302
GRIDFORMAT
  1
GRIDFORMAT_BEGIN
 90
        0
 91
        1
 62
     0
 92
       -2
340
14
 93
        0
 40
0.045
309
GRIDFORMAT_END
 95
        8
302
GRIDFORMAT
  1
GRIDFORMAT_BEGIN
 90
        0
 91
        1
 62
     0
 92
       -2
340
14
 93
        0
 40
0.045
309
GRIDFORMAT_END
 95
       16
302
GRIDFORMAT
  1
GRIDFORMAT_BEGIN
 90
        0
 91
        1
 62
     0
 92
       -2
340
14
 93
        0
 40
0.045
309
GRIDFORMAT_END
 95
       32
302
GRIDFORMAT
  1
GRIDFORMAT_BEGIN
 90
        0
 91
        1
 62
     0
 92
       -2
340
14
 93
        0
 40
0.045
309
GRIDFORMAT_END
309
TABLEFORMAT_END
  1
CELLSTYLE_BEGIN
 90
        2
 91
        1
300
_HEADER
309
CELLSTYLE_END
300
CELLSTYLE
  1
TABLEFORMAT_BEGIN
 90
        5
170
     1
 91
        0
 92
        0
 62
   257
 93
        1
300
CONTENTFORMAT
  1
CONTENTFORMAT_BEGIN
 90
        0
 91
        0
 92
        4
 93
        0
300

 40
0.0
140
1.0
 94
        2
 62
     0
340
11
144
4.5
309
CONTENTFORMAT_END
171
     1
301
MARGIN
  1
CELLMARGIN_BEGIN
 40
1.5
 40
1.5
 40
1.5
 40
1.5
 40
1.5
 40
1.5
309
CELLMARGIN_END
 94
        6
 95
        1
302
GRIDFORMAT
  1
GRIDFORMAT_BEGIN
 90
        0
 91
        1
 62
     0
 92
       -2
340
14
 93
        0
 40
0.045
309
GRIDFORMAT_END
 95
        2
302
GRIDFORMAT
  1
GRIDFORMAT_BEGIN
 90
        0
 91
        1
 62
     0
 92
       -2
340
14
 93
        0
 40
0.045
309
GRIDFORMAT_END
 95
        4
302
GRIDFORMAT
  1
GRIDFORMAT_BEGIN
 90
        0
 91
        1
 62
     0
 92
       -2
340
14
 93
        0
 40
0.045
309
GRIDFORMAT_END
 95
        8
302
GRIDFORMAT
  1
GRIDFORMAT_BEGIN
 90
        0
 91
        1
 62
     0
 92
       -2
340
14
 93
        0
 40
0.045
309
GRIDFORMAT_END
 95
       16
302
GRIDFORMAT
  1
GRIDFORMAT_BEGIN
 90
        0
 91
        1
 62
     0
 92
       -2
340
14
 93
        0
 40
0.045
309
GRIDFORMAT_END
 95
       32
302
GRIDFORMAT
  1
GRIDFORMAT_BEGIN
 90
        0
 91
        1
 62
     0
 92
       -2
340
14
 93
        0
 40
0.045
309
GRIDFORMAT_END
309
TABLEFORMAT_END
  1
CELLSTYLE_BEGIN
 90
        3
 91
        2
300
_DATA
309
CELLSTYLE_END
  0
XRECORD
  5
38A
102
{ACAD_REACTORS
330
389
102
}
330
389
100
AcDbXrecord
280
     1
102
RTVSPost2010Prop28
280
     1
102
RTVSPost2010PropOp28
 70
     1
102
RTVSPost2010Prop29
280
     1
102
RTVSPost2010PropOp29
 70
     1
102
RTVSPost2010Prop30
280
     0
102
RTVSPost2010PropOp30
 70
     1
102
RTVSPost2010Prop31
280
     0
102
RTVSPost2010PropOp31
 70
     1
102
RTVSPost2010Prop32
280
     0
102
RTVSPost2010PropOp32
 70
     1
102
RTVSPost2010Prop33
280
     0
102
RTVSPost2010PropOp33
 70
     1
102
RTVSPost2010Prop34
280
     0
102
RTVSPost2010PropOp34
 70
     1
102
RTVSPost2010Prop35
280
     0
102
RTVSPost2010PropOp35
 70
     1
102
RTVSPost2010Prop36
280
     0
102
RTVSPost2010PropOp36
 70
     1
102
RTVSPost2010Prop37
 90
       50
102
RTVSPost2010PropOp37
 70
     1
102
RTVSPost2010Prop38
140
0.0
102
RTVSPost2010PropOp38
 70
     1
102
RTVSPost2010Prop39
140
1.0
102
RTVSPost2010PropOp39
 70
     1
102
RTVSPost2010Prop40
 90
        0
102
RTVSPost2010PropOp40
 70
     1
102
RTVSPost2010Prop41ColorIndex
 90
       18
102
RTVSPost2010Prop41ColorRGB
 90
        0
102
RTVSPost2010PropOp41
 70
     1
102
RTVSPost2010Prop42
 90
       50
102
RTVSPost2010PropOp42
 70
     1
102
RTVSPost2010Prop43
 90
        3
102
RTVSPost2010PropOp43
 70
     1
102
RTVSPost2010Prop44ColorIndex
 90
        5
102
RTVSPost2010Prop44ColorRGB
 90
      255
102
RTVSPost2010PropOp44
 70
     1
102
RTVSPost2010Prop45
280
     0
102
RTVSPost2010PropOp45
 70
     1
102
RTVSPost2010Prop46
 90
       50
102
RTVSPost2010PropOp46
 70
     1
102
RTVSPost2010Prop47
 90
       50
102
RTVSPost2010PropOp47
 70
     1
102
RTVSPost2010Prop48
 90
       50
102
RTVSPost2010PropOp48
 70
     1
102
RTVSPost2010Prop49
280
     0
102
RTVSPost2010PropOp49
 70
     1
102
RTVSPost2010Prop50
 90
       50
102
RTVSPost2010PropOp50
 70
     1
102
RTVSPost2010Prop51ColorIndex
 90
      256
102
RTVSPost2010Prop51ColorRGB
 90
-16777216
102
RTVSPost2010PropOp51
 70
     0
102
RTVSPost2010Prop52
140
1.0
102
RTVSPost2010PropOp52
 70
     0
102
RTVSPost2010Prop53
 90
        2
102
RTVSPost2010PropOp53
 70
     1
102
RTVSPost2010Prop54
  1
strokes_ogs.tif
102
RTVSPost2010PropOp54
 70
     1
102
RTVSPost2010Prop55
280
     0
102
RTVSPost2010PropOp55
 70
     1
102
RTVSPost2010Prop56
140
1.0
102
RTVSPost2010PropOp56
 70
     1
102
RTVSPost2010Prop57
140
1.0
102
RTVSPost2010PropOp57
 70
     1
  0
XRECORD
  5
390
102
{ACAD_REACTORS
330
38F
102
}
330
38F
100
AcDbXrecord
280
     1
102
RTVSPost2010Prop28
280
     0
102
RTVSPost2010PropOp28
 70
     1
102
RTVSPost2010Prop29
280
     1
102
RTVSPost2010PropOp29
 70
     1
102
RTVSPost2010Prop30
280
     1
102
RTVSPost2010PropOp30
 70
     1
102
RTVSPost2010Prop31
280
     0
102
RTVSPost2010PropOp31
 70
     1
102
RTVSPost2010Prop32
280
     0
102
RTVSPost2010PropOp32
 70
     1
102
RTVSPost2010Prop33
280
     0
102
RTVSPost2010PropOp33
 70
     1
102
RTVSPost2010Prop34
280
     0
102
RTVSPost2010PropOp34
 70
     1
102
RTVSPost2010Prop35
280
     0
102
RTVSPost2010PropOp35
 70
     1
102
RTVSPost2010Prop36
280
     0
102
RTVSPost2010PropOp36
 70
     1
102
RTVSPost2010Prop37
 90
       50
102
RTVSPost2010PropOp37
 70
     1
102
RTVSPost2010Prop38
140
0.0
102
RTVSPost2010PropOp38
 70
     1
102
RTVSPost2010Prop39
140
1.0
102
RTVSPost2010PropOp39
 70
     1
102
RTVSPost2010Prop40
 90
        0
102
RTVSPost2010PropOp40
 70
     1
102
RTVSPost2010Prop41ColorIndex
 90
       18
102
RTVSPost2010Prop41ColorRGB
 90
        0
102
RTVSPost2010PropOp41
 70
     1
102
RTVSPost2010Prop42
 90
       50
102
RTVSPost2010PropOp42
 70
     1
102
RTVSPost2010Prop43
 90
        3
102
RTVSPost2010PropOp43
 70
     1
102
RTVSPost2010Prop44ColorIndex
 90
        5
102
RTVSPost2010Prop44ColorRGB
 90
      255
102
RTVSPost2010PropOp44
 70
     1
102
RTVSPost2010Prop45
280
     0
102
RTVSPost2010PropOp45
 70
     1
102
RTVSPost2010Prop46
 90
       50
102
RTVSPost2010PropOp46
 70
     1
102
RTVSPost2010Prop47
 90
       50
102
RTVSPost2010PropOp47
 70
     1
102
RTVSPost2010Prop48
 90
       50
102
RTVSPost2010PropOp48
 70
     1
102
RTVSPost2010Prop49
280
     0
102
RTVSPost2010PropOp49
 70
     1
102
RTVSPost2010Prop50
 90
       50
102
RTVSPost2010PropOp50
 70
     1
102
RTVSPost2010Prop51ColorIndex
 90
      256
102
RTVSPost2010Prop51ColorRGB
 90
-16777216
102
RTVSPost2010PropOp51
 70
     0
102
RTVSPost2010Prop52
140
1.0
102
RTVSPost2010PropOp52
 70
     0
102
RTVSPost2010Prop53
 90
        2
102
RTVSPost2010PropOp53
 70
     1
102
RTVSPost2010Prop54
  1
strokes_ogs.tif
102
RTVSPost2010PropOp54
 70
     1
102
RTVSPost2010Prop55
280
     0
102
RTVSPost2010PropOp55
 70
     1
102
RTVSPost2010Prop56
140
1.0
102
RTVSPost2010PropOp56
 70
     1
102
RTVSPost2010Prop57
140
1.0
102
RTVSPost2010PropOp57
 70
     1
  0
XRECORD
  5
398
102
{ACAD_REACTORS
330
397
102
}
330
397
100
AcDbXrecord
280
     1
102
RTVSPost2010Prop28
280
     0
102
RTVSPost2010PropOp28
 70
     1
102
RTVSPost2010Prop29
280
     1
102
RTVSPost2010PropOp29
 70
     1
102
RTVSPost2010Prop30
280
     1
102
RTVSPost2010PropOp30
 70
     1
102
RTVSPost2010Prop31
280
     0
102
RTVSPost2010PropOp31
 70
     1
102
RTVSPost2010Prop32
280
     0
102
RTVSPost2010PropOp32
 70
     1
102
RTVSPost2010Prop33
280
     0
102
RTVSPost2010PropOp33
 70
     1
102
RTVSPost2010Prop34
280
     0
102
RTVSPost2010PropOp34
 70
     1
102
RTVSPost2010Prop35
280
     0
102
RTVSPost2010PropOp35
 70
     1
102
RTVSPost2010Prop36
280
     0
102
RTVSPost2010PropOp36
 70
     1
102
RTVSPost2010Prop37
 90
       50
102
RTVSPost2010PropOp37
 70
     1
102
RTVSPost2010Prop38
140
0.0
102
RTVSPost2010PropOp38
 70
     1
102
RTVSPost2010Prop39
140
1.0
102
RTVSPost2010PropOp39
 70
     1
102
RTVSPost2010Prop40
 90
        0
102
RTVSPost2010PropOp40
 70
     1
102
RTVSPost2010Prop41ColorIndex
 90
       18
102
RTVSPost2010Prop41ColorRGB
 90
        0
102
RTVSPost2010PropOp41
 70
     1
102
RTVSPost2010Prop42
 90
       50
102
RTVSPost2010PropOp42
 70
     1
102
RTVSPost2010Prop43
 90
        3
102
RTVSPost2010PropOp43
 70
     1
102
RTVSPost2010Prop44ColorIndex
 90
        5
102
RTVSPost2010Prop44ColorRGB
 90
      255
102
RTVSPost2010PropOp44
 70
     1
102
RTVSPost2010Prop45
280
     0
102
RTVSPost2010PropOp45
 70
     1
102
RTVSPost2010Prop46
 90
       50
102
RTVSPost2010PropOp46
 70
     1
102
RTVSPost2010Prop47
 90
       50
102
RTVSPost2010PropOp47
 70
     1
102
RTVSPost2010Prop48
 90
       50
102
RTVSPost2010PropOp48
 70
     1
102
RTVSPost2010Prop49
280
     0
102
RTVSPost2010PropOp49
 70
     1
102
RTVSPost2010Prop50
 90
       50
102
RTVSPost2010PropOp50
 70
     1
102
RTVSPost2010Prop51ColorIndex
 90
      256
102
RTVSPost2010Prop51ColorRGB
 90
-16777216
102
RTVSPost2010PropOp51
 70
     0
102
RTVSPost2010Prop52
140
1.0
102
RTVSPost2010PropOp52
 70
     0
102
RTVSPost2010Prop53
 90
        2
102
RTVSPost2010PropOp53
 70
     1
102
RTVSPost2010Prop54
  1
strokes_ogs.tif
102
RTVSPost2010PropOp54
 70
     1
102
RTVSPost2010Prop55
280
     0
102
RTVSPost2010PropOp55
 70
     1
102
RTVSPost2010Prop56
140
1.0
102
RTVSPost2010PropOp56
 70
     1
102
RTVSPost2010Prop57
140
1.0
102
RTVSPost2010PropOp57
 70
     1
  0
XRECORD
  5
3A0
102
{ACAD_REACTORS
330
39F
102
}
330
39F
100
AcDbXrecord
280
     1
102
RTVSPost2010Prop28
280
     0
102
RTVSPost2010PropOp28
 70
     1
102
RTVSPost2010Prop29
280
     1
102
RTVSPost2010PropOp29
 70
     1
102
RTVSPost2010Prop30
280
     1
102
RTVSPost2010PropOp30
 70
     1
102
RTVSPost2010Prop31
280
     0
102
RTVSPost2010PropOp31
 70
     1
102
RTVSPost2010Prop32
280
     0
102
RTVSPost2010PropOp32
 70
     1
102
RTVSPost2010Prop33
280
     0
102
RTVSPost2010PropOp33
 70
     1
102
RTVSPost2010Prop34
280
     0
102
RTVSPost2010PropOp34
 70
     1
102
RTVSPost2010Prop35
280
     0
102
RTVSPost2010PropOp35
 70
     1
102
RTVSPost2010Prop36
280
     0
102
RTVSPost2010PropOp36
 70
     1
102
RTVSPost2010Prop37
 90
       50
102
RTVSPost2010PropOp37
 70
     1
102
RTVSPost2010Prop38
140
0.0
102
RTVSPost2010PropOp38
 70
     1
102
RTVSPost2010Prop39
140
1.0
102
RTVSPost2010PropOp39
 70
     1
102
RTVSPost2010Prop40
 90
        0
102
RTVSPost2010PropOp40
 70
     1
102
RTVSPost2010Prop41ColorIndex
 90
       18
102
RTVSPost2010Prop41ColorRGB
 90
        0
102
RTVSPost2010PropOp41
 70
     1
102
RTVSPost2010Prop42
 90
       50
102
RTVSPost2010PropOp42
 70
     1
102
RTVSPost2010Prop43
 90
        3
102
RTVSPost2010PropOp43
 70
     1
102
RTVSPost2010Prop44ColorIndex
 90
        5
102
RTVSPost2010Prop44ColorRGB
 90
      255
102
RTVSPost2010PropOp44
 70
     1
102
RTVSPost2010Prop45
280
     0
102
RTVSPost2010PropOp45
 70
     1
102
RTVSPost2010Prop46
 90
       50
102
RTVSPost2010PropOp46
 70
     1
102
RTVSPost2010Prop47
 90
       50
102
RTVSPost2010PropOp47
 70
     1
102
RTVSPost2010Prop48
 90
       50
102
RTVSPost2010PropOp48
 70
     1
102
RTVSPost2010Prop49
280
     0
102
RTVSPost2010PropOp49
 70
     1
102
RTVSPost2010Prop50
 90
       50
102
RTVSPost2010PropOp50
 70
     1
102
RTVSPost2010Prop51ColorIndex
 90
      256
102
RTVSPost2010Prop51ColorRGB
 90
-16777216
102
RTVSPost2010PropOp51
 70
     0
102
RTVSPost2010Prop52
140
1.0
102
RTVSPost2010PropOp52
 70
     0
102
RTVSPost2010Prop53
 90
        2
102
RTVSPost2010PropOp53
 70
     1
102
RTVSPost2010Prop54
  1
strokes_ogs.tif
102
RTVSPost2010PropOp54
 70
     1
102
RTVSPost2010Prop55
280
     0
102
RTVSPost2010PropOp55
 70
     1
102
RTVSPost2010Prop56
140
1.0
102
RTVSPost2010PropOp56
 70
     1
102
RTVSPost2010Prop57
140
1.0
102
RTVSPost2010PropOp57
 70
     1
  0
XRECORD
  5
394
102
{ACAD_REACTORS
330
393
102
}
330
393
100
AcDbXrecord
280
     1
102
RTVSPost2010Prop28
280
     0
102
RTVSPost2010PropOp28
 70
     1
102
RTVSPost2010Prop29
280
     1
102
RTVSPost2010PropOp29
 70
     1
102
RTVSPost2010Prop30
280
     1
102
RTVSPost2010PropOp30
 70
     1
102
RTVSPost2010Prop31
280
     0
102
RTVSPost2010PropOp31
 70
     1
102
RTVSPost2010Prop32
280
     0
102
RTVSPost2010PropOp32
 70
     1
102
RTVSPost2010Prop33
280
     0
102
RTVSPost2010PropOp33
 70
     1
102
RTVSPost2010Prop34
280
     0
102
RTVSPost2010PropOp34
 70
     1
102
RTVSPost2010Prop35
280
     0
102
RTVSPost2010PropOp35
 70
     1
102
RTVSPost2010Prop36
280
     0
102
RTVSPost2010PropOp36
 70
     1
102
RTVSPost2010Prop37
 90
       50
102
RTVSPost2010PropOp37
 70
     1
102
RTVSPost2010Prop38
140
0.0
102
RTVSPost2010PropOp38
 70
     1
102
RTVSPost2010Prop39
140
1.0
102
RTVSPost2010PropOp39
 70
     1
102
RTVSPost2010Prop40
 90
        0
102
RTVSPost2010PropOp40
 70
     1
102
RTVSPost2010Prop41ColorIndex
 90
       18
102
RTVSPost2010Prop41ColorRGB
 90
        0
102
RTVSPost2010PropOp41
 70
     1
102
RTVSPost2010Prop42
 90
       50
102
RTVSPost2010PropOp42
 70
     1
102
RTVSPost2010Prop43
 90
        3
102
RTVSPost2010PropOp43
 70
     1
102
RTVSPost2010Prop44ColorIndex
 90
        5
102
RTVSPost2010Prop44ColorRGB
 90
      255
102
RTVSPost2010PropOp44
 70
     1
102
RTVSPost2010Prop45
280
     0
102
RTVSPost2010PropOp45
 70
     1
102
RTVSPost2010Prop46
 90
       50
102
RTVSPost2010PropOp46
 70
     1
102
RTVSPost2010Prop47
 90
       50
102
RTVSPost2010PropOp47
 70
     1
102
RTVSPost2010Prop48
 90
       50
102
RTVSPost2010PropOp48
 70
     1
102
RTVSPost2010Prop49
280
     0
102
RTVSPost2010PropOp49
 70
     1
102
RTVSPost2010Prop50
 90
       50
102
RTVSPost2010PropOp50
 70
     1
102
RTVSPost2010Prop51ColorIndex
 90
      256
102
RTVSPost2010Prop51ColorRGB
 90
-16777216
102
RTVSPost2010PropOp51
 70
     0
102
RTVSPost2010Prop52
140
1.0
102
RTVSPost2010PropOp52
 70
     0
102
RTVSPost2010Prop53
 90
        2
102
RTVSPost2010PropOp53
 70
     1
102
RTVSPost2010Prop54
  1
strokes_ogs.tif
102
RTVSPost2010PropOp54
 70
     1
102
RTVSPost2010Prop55
280
     0
102
RTVSPost2010PropOp55
 70
     1
102
RTVSPost2010Prop56
140
1.0
102
RTVSPost2010PropOp56
 70
     1
102
RTVSPost2010Prop57
140
1.0
102
RTVSPost2010PropOp57
 70
     1
  0
XRECORD
  5
396
102
{ACAD_REACTORS
330
395
102
}
330
395
100
AcDbXrecord
280
     1
102
RTVSPost2010Prop28
280
     0
102
RTVSPost2010PropOp28
 70
     1
102
RTVSPost2010Prop29
280
     1
102
RTVSPost2010PropOp29
 70
     1
102
RTVSPost2010Prop30
280
     1
102
RTVSPost2010PropOp30
 70
     1
102
RTVSPost2010Prop31
280
     0
102
RTVSPost2010PropOp31
 70
     1
102
RTVSPost2010Prop32
280
     0
102
RTVSPost2010PropOp32
 70
     1
102
RTVSPost2010Prop33
280
     0
102
RTVSPost2010PropOp33
 70
     1
102
RTVSPost2010Prop34
280
     0
102
RTVSPost2010PropOp34
 70
     1
102
RTVSPost2010Prop35
280
     0
102
RTVSPost2010PropOp35
 70
     1
102
RTVSPost2010Prop36
280
     0
102
RTVSPost2010PropOp36
 70
     1
102
RTVSPost2010Prop37
 90
       50
102
RTVSPost2010PropOp37
 70
     1
102
RTVSPost2010Prop38
140
0.0
102
RTVSPost2010PropOp38
 70
     1
102
RTVSPost2010Prop39
140
1.0
102
RTVSPost2010PropOp39
 70
     1
102
RTVSPost2010Prop40
 90
        0
102
RTVSPost2010PropOp40
 70
     1
102
RTVSPost2010Prop41ColorIndex
 90
       18
102
RTVSPost2010Prop41ColorRGB
 90
        0
102
RTVSPost2010PropOp41
 70
     1
102
RTVSPost2010Prop42
 90
       50
102
RTVSPost2010PropOp42
 70
     1
102
RTVSPost2010Prop43
 90
        3
102
RTVSPost2010PropOp43
 70
     1
102
RTVSPost2010Prop44ColorIndex
 90
        5
102
RTVSPost2010Prop44ColorRGB
 90
      255
102
RTVSPost2010PropOp44
 70
     1
102
RTVSPost2010Prop45
280
     0
102
RTVSPost2010PropOp45
 70
     1
102
RTVSPost2010Prop46
 90
       50
102
RTVSPost2010PropOp46
 70
     1
102
RTVSPost2010Prop47
 90
       50
102
RTVSPost2010PropOp47
 70
     1
102
RTVSPost2010Prop48
 90
       50
102
RTVSPost2010PropOp48
 70
     1
102
RTVSPost2010Prop49
280
     0
102
RTVSPost2010PropOp49
 70
     1
102
RTVSPost2010Prop50
 90
       50
102
RTVSPost2010PropOp50
 70
     1
102
RTVSPost2010Prop51ColorIndex
 90
      256
102
RTVSPost2010Prop51ColorRGB
 90
-16777216
102
RTVSPost2010PropOp51
 70
     0
102
RTVSPost2010Prop52
140
1.0
102
RTVSPost2010PropOp52
 70
     0
102
RTVSPost2010Prop53
 90
        2
102
RTVSPost2010PropOp53
 70
     1
102
RTVSPost2010Prop54
  1
strokes_ogs.tif
102
RTVSPost2010PropOp54
 70
     1
102
RTVSPost2010Prop55
280
     0
102
RTVSPost2010PropOp55
 70
     1
102
RTVSPost2010Prop56
140
1.0
102
RTVSPost2010PropOp56
 70
     1
102
RTVSPost2010Prop57
140
1.0
102
RTVSPost2010PropOp57
 70
     1
  0
XRECORD
  5
3A6
102
{ACAD_REACTORS
330
3A5
102
}
330
3A5
100
AcDbXrecord
280
     1
102
RTVSPost2010Prop28
280
     0
102
RTVSPost2010PropOp28
 70
     0
102
RTVSPost2010Prop29
280
     1
102
RTVSPost2010PropOp29
 70
     0
102
RTVSPost2010Prop30
280
     1
102
RTVSPost2010PropOp30
 70
     0
102
RTVSPost2010Prop31
280
     0
102
RTVSPost2010PropOp31
 70
     0
102
RTVSPost2010Prop32
280
     0
102
RTVSPost2010PropOp32
 70
     0
102
RTVSPost2010Prop33
280
     0
102
RTVSPost2010PropOp33
 70
     0
102
RTVSPost2010Prop34
280
     0
102
RTVSPost2010PropOp34
 70
     0
102
RTVSPost2010Prop35
280
     0
102
RTVSPost2010PropOp35
 70
     0
102
RTVSPost2010Prop36
280
     0
102
RTVSPost2010PropOp36
 70
     0
102
RTVSPost2010Prop37
 90
       50
102
RTVSPost2010PropOp37
 70
     0
102
RTVSPost2010Prop38
140
0.0
102
RTVSPost2010PropOp38
 70
     0
102
RTVSPost2010Prop39
140
1.0
102
RTVSPost2010PropOp39
 70
     0
102
RTVSPost2010Prop40
 90
        0
102
RTVSPost2010PropOp40
 70
     0
102
RTVSPost2010Prop41ColorIndex
 90
       18
102
RTVSPost2010Prop41ColorRGB
 90
        0
102
RTVSPost2010PropOp41
 70
     0
102
RTVSPost2010Prop42
 90
       50
102
RTVSPost2010PropOp42
 70
     0
102
RTVSPost2010Prop43
 90
        3
102
RTVSPost2010PropOp43
 70
     0
102
RTVSPost2010Prop44ColorIndex
 90
        5
102
RTVSPost2010Prop44ColorRGB
 90
      255
102
RTVSPost2010PropOp44
 70
     0
102
RTVSPost2010Prop45
280
     0
102
RTVSPost2010PropOp45
 70
     0
102
RTVSPost2010Prop46
 90
       50
102
RTVSPost2010PropOp46
 70
     0
102
RTVSPost2010Prop47
 90
       50
102
RTVSPost2010PropOp47
 70
     0
102
RTVSPost2010Prop48
 90
       50
102
RTVSPost2010PropOp48
 70
     0
102
RTVSPost2010Prop49
280
     0
102
RTVSPost2010PropOp49
 70
     0
102
RTVSPost2010Prop50
 90
       50
102
RTVSPost2010PropOp50
 70
     0
102
RTVSPost2010Prop51ColorIndex
 90
      256
102
RTVSPost2010Prop51ColorRGB
 90
-16777216
102
RTVSPost2010PropOp51
 70
     0
102
RTVSPost2010Prop52
140
1.0
102
RTVSPost2010PropOp52
 70
     0
102
RTVSPost2010Prop53
 90
        2
102
RTVSPost2010PropOp53
 70
     0
102
RTVSPost2010Prop54
  1
strokes_ogs.tif
102
RTVSPost2010PropOp54
 70
     0
102
RTVSPost2010Prop55
280
     0
102
RTVSPost2010PropOp55
 70
     0
102
RTVSPost2010Prop56
140
1.0
102
RTVSPost2010PropOp56
 70
     0
102
RTVSPost2010Prop57
140
1.0
102
RTVSPost2010PropOp57
 70
     0
  0
XRECORD
  5
39E
102
{ACAD_REACTORS
330
39D
102
}
330
39D
100
AcDbXrecord
280
     1
102
RTVSPost2010Prop28
280
     0
102
RTVSPost2010PropOp28
 70
     1
102
RTVSPost2010Prop29
280
     1
102
RTVSPost2010PropOp29
 70
     1
102
RTVSPost2010Prop30
280
     1
102
RTVSPost2010PropOp30
 70
     1
102
RTVSPost2010Prop31
280
     0
102
RTVSPost2010PropOp31
 70
     1
102
RTVSPost2010Prop32
280
     0
102
RTVSPost2010PropOp32
 70
     1
102
RTVSPost2010Prop33
280
     0
102
RTVSPost2010PropOp33
 70
     1
102
RTVSPost2010Prop34
280
     0
102
RTVSPost2010PropOp34
 70
     1
102
RTVSPost2010Prop35
280
     0
102
RTVSPost2010PropOp35
 70
     1
102
RTVSPost2010Prop36
280
     0
102
RTVSPost2010PropOp36
 70
     1
102
RTVSPost2010Prop37
 90
       50
102
RTVSPost2010PropOp37
 70
     1
102
RTVSPost2010Prop38
140
0.0
102
RTVSPost2010PropOp38
 70
     1
102
RTVSPost2010Prop39
140
1.0
102
RTVSPost2010PropOp39
 70
     1
102
RTVSPost2010Prop40
 90
        0
102
RTVSPost2010PropOp40
 70
     1
102
RTVSPost2010Prop41ColorIndex
 90
       18
102
RTVSPost2010Prop41ColorRGB
 90
        0
102
RTVSPost2010PropOp41
 70
     1
102
RTVSPost2010Prop42
 90
       50
102
RTVSPost2010PropOp42
 70
     1
102
RTVSPost2010Prop43
 90
        3
102
RTVSPost2010PropOp43
 70
     1
102
RTVSPost2010Prop44ColorIndex
 90
        5
102
RTVSPost2010Prop44ColorRGB
 90
      255
102
RTVSPost2010PropOp44
 70
     1
102
RTVSPost2010Prop45
280
     0
102
RTVSPost2010PropOp45
 70
     1
102
RTVSPost2010Prop46
 90
       50
102
RTVSPost2010PropOp46
 70
     1
102
RTVSPost2010Prop47
 90
       50
102
RTVSPost2010PropOp47
 70
     1
102
RTVSPost2010Prop48
 90
       50
102
RTVSPost2010PropOp48
 70
     1
102
RTVSPost2010Prop49
280
     0
102
RTVSPost2010PropOp49
 70
     1
102
RTVSPost2010Prop50
 90
       50
102
RTVSPost2010PropOp50
 70
     1
102
RTVSPost2010Prop51ColorIndex
 90
      256
102
RTVSPost2010Prop51ColorRGB
 90
-16777216
102
RTVSPost2010PropOp51
 70
     0
102
RTVSPost2010Prop52
140
1.0
102
RTVSPost2010PropOp52
 70
     0
102
RTVSPost2010Prop53
 90
        2
102
RTVSPost2010PropOp53
 70
     1
102
RTVSPost2010Prop54
  1
strokes_ogs.tif
102
RTVSPost2010PropOp54
 70
     1
102
RTVSPost2010Prop55
280
     0
102
RTVSPost2010PropOp55
 70
     1
102
RTVSPost2010Prop56
140
1.0
102
RTVSPost2010PropOp56
 70
     1
102
RTVSPost2010Prop57
140
1.0
102
RTVSPost2010PropOp57
 70
     1
  0
XRECORD
  5
382
102
{ACAD_REACTORS
330
381
102
}
330
381
100
AcDbXrecord
280
     1
102
RTVSPost2010Prop28
280
     0
102
RTVSPost2010PropOp28
 70
     1
102
RTVSPost2010Prop29
280
     1
102
RTVSPost2010PropOp29
 70
     1
102
RTVSPost2010Prop30
280
     1
102
RTVSPost2010PropOp30
 70
     1
102
RTVSPost2010Prop31
280
     0
102
RTVSPost2010PropOp31
 70
     1
102
RTVSPost2010Prop32
280
     0
102
RTVSPost2010PropOp32
 70
     1
102
RTVSPost2010Prop33
280
     0
102
RTVSPost2010PropOp33
 70
     1
102
RTVSPost2010Prop34
280
     0
102
RTVSPost2010PropOp34
 70
     1
102
RTVSPost2010Prop35
280
     0
102
RTVSPost2010PropOp35
 70
     1
102
RTVSPost2010Prop36
280
     0
102
RTVSPost2010PropOp36
 70
     1
102
RTVSPost2010Prop37
 90
       50
102
RTVSPost2010PropOp37
 70
     1
102
RTVSPost2010Prop38
140
0.0
102
RTVSPost2010PropOp38
 70
     1
102
RTVSPost2010Prop39
140
1.0
102
RTVSPost2010PropOp39
 70
     1
102
RTVSPost2010Prop40
 90
        0
102
RTVSPost2010PropOp40
 70
     1
102
RTVSPost2010Prop41ColorIndex
 90
       18
102
RTVSPost2010Prop41ColorRGB
 90
        0
102
RTVSPost2010PropOp41
 70
     1
102
RTVSPost2010Prop42
 90
       50
102
RTVSPost2010PropOp42
 70
     1
102
RTVSPost2010Prop43
 90
        3
102
RTVSPost2010PropOp43
 70
     1
102
RTVSPost2010Prop44ColorIndex
 90
        5
102
RTVSPost2010Prop44ColorRGB
 90
      255
102
RTVSPost2010PropOp44
 70
     1
102
RTVSPost2010Prop45
280
     0
102
RTVSPost2010PropOp45
 70
     1
102
RTVSPost2010Prop46
 90
       50
102
RTVSPost2010PropOp46
 70
     1
102
RTVSPost2010Prop47
 90
       50
102
RTVSPost2010PropOp47
 70
     1
102
RTVSPost2010Prop48
 90
       50
102
RTVSPost2010PropOp48
 70
     1
102
RTVSPost2010Prop49
280
     0
102
RTVSPost2010PropOp49
 70
     1
102
RTVSPost2010Prop50
 90
       50
102
RTVSPost2010PropOp50
 70
     1
102
RTVSPost2010Prop51ColorIndex
 90
      256
102
RTVSPost2010Prop51ColorRGB
 90
-16777216
102
RTVSPost2010PropOp51
 70
     0
102
RTVSPost2010Prop52
140
1.0
102
RTVSPost2010PropOp52
 70
     0
102
RTVSPost2010Prop53
 90
        2
102
RTVSPost2010PropOp53
 70
     1
102
RTVSPost2010Prop54
  1
strokes_ogs.tif
102
RTVSPost2010PropOp54
 70
     1
102
RTVSPost2010Prop55
280
     0
102
RTVSPost2010PropOp55
 70
     1
102
RTVSPost2010Prop56
140
1.0
102
RTVSPost2010PropOp56
 70
     1
102
RTVSPost2010Prop57
140
1.0
102
RTVSPost2010PropOp57
 70
     1
  0
XRECORD
  5
384
102
{ACAD_REACTORS
330
383
102
}
330
383
100
AcDbXrecord
280
     1
102
RTVSPost2010Prop28
280
     0
102
RTVSPost2010PropOp28
 70
     1
102
RTVSPost2010Prop29
280
     1
102
RTVSPost2010PropOp29
 70
     1
102
RTVSPost2010Prop30
280
     1
102
RTVSPost2010PropOp30
 70
     1
102
RTVSPost2010Prop31
280
     0
102
RTVSPost2010PropOp31
 70
     1
102
RTVSPost2010Prop32
280
     0
102
RTVSPost2010PropOp32
 70
     1
102
RTVSPost2010Prop33
280
     0
102
RTVSPost2010PropOp33
 70
     1
102
RTVSPost2010Prop34
280
     0
102
RTVSPost2010PropOp34
 70
     1
102
RTVSPost2010Prop35
280
     0
102
RTVSPost2010PropOp35
 70
     1
102
RTVSPost2010Prop36
280
     0
102
RTVSPost2010PropOp36
 70
     1
102
RTVSPost2010Prop37
 90
       50
102
RTVSPost2010PropOp37
 70
     1
102
RTVSPost2010Prop38
140
0.0
102
RTVSPost2010PropOp38
 70
     1
102
RTVSPost2010Prop39
140
1.0
102
RTVSPost2010PropOp39
 70
     1
102
RTVSPost2010Prop40
 90
        0
102
RTVSPost2010PropOp40
 70
     1
102
RTVSPost2010Prop41ColorIndex
 90
       18
102
RTVSPost2010Prop41ColorRGB
 90
        0
102
RTVSPost2010PropOp41
 70
     1
102
RTVSPost2010Prop42
 90
       50
102
RTVSPost2010PropOp42
 70
     1
102
RTVSPost2010Prop43
 90
        3
102
RTVSPost2010PropOp43
 70
     1
102
RTVSPost2010Prop44ColorIndex
 90
        5
102
RTVSPost2010Prop44ColorRGB
 90
      255
102
RTVSPost2010PropOp44
 70
     1
102
RTVSPost2010Prop45
280
     0
102
RTVSPost2010PropOp45
 70
     1
102
RTVSPost2010Prop46
 90
       50
102
RTVSPost2010PropOp46
 70
     1
102
RTVSPost2010Prop47
 90
       50
102
RTVSPost2010PropOp47
 70
     1
102
RTVSPost2010Prop48
 90
       50
102
RTVSPost2010PropOp48
 70
     1
102
RTVSPost2010Prop49
280
     0
102
RTVSPost2010PropOp49
 70
     1
102
RTVSPost2010Prop50
 90
       50
102
RTVSPost2010PropOp50
 70
     1
102
RTVSPost2010Prop51ColorIndex
 90
      256
102
RTVSPost2010Prop51ColorRGB
 90
-16777216
102
RTVSPost2010PropOp51
 70
     0
102
RTVSPost2010Prop52
140
1.0
102
RTVSPost2010PropOp52
 70
     0
102
RTVSPost2010Prop53
 90
        2
102
RTVSPost2010PropOp53
 70
     1
102
RTVSPost2010Prop54
  1
strokes_ogs.tif
102
RTVSPost2010PropOp54
 70
     1
102
RTVSPost2010Prop55
280
     0
102
RTVSPost2010PropOp55
 70
     1
102
RTVSPost2010Prop56
140
1.0
102
RTVSPost2010PropOp56
 70
     1
102
RTVSPost2010Prop57
140
1.0
102
RTVSPost2010PropOp57
 70
     1
  0
XRECORD
  5
386
102
{ACAD_REACTORS
330
385
102
}
330
385
100
AcDbXrecord
280
     1
102
RTVSPost2010Prop28
280
     0
102
RTVSPost2010PropOp28
 70
     1
102
RTVSPost2010Prop29
280
     1
102
RTVSPost2010PropOp29
 70
     1
102
RTVSPost2010Prop30
280
     1
102
RTVSPost2010PropOp30
 70
     1
102
RTVSPost2010Prop31
280
     0
102
RTVSPost2010PropOp31
 70
     1
102
RTVSPost2010Prop32
280
     0
102
RTVSPost2010PropOp32
 70
     1
102
RTVSPost2010Prop33
280
     0
102
RTVSPost2010PropOp33
 70
     1
102
RTVSPost2010Prop34
280
     0
102
RTVSPost2010PropOp34
 70
     1
102
RTVSPost2010Prop35
280
     0
102
RTVSPost2010PropOp35
 70
     1
102
RTVSPost2010Prop36
280
     0
102
RTVSPost2010PropOp36
 70
     1
102
RTVSPost2010Prop37
 90
       50
102
RTVSPost2010PropOp37
 70
     1
102
RTVSPost2010Prop38
140
0.0
102
RTVSPost2010PropOp38
 70
     1
102
RTVSPost2010Prop39
140
1.0
102
RTVSPost2010PropOp39
 70
     1
102
RTVSPost2010Prop40
 90
        0
102
RTVSPost2010PropOp40
 70
     1
102
RTVSPost2010Prop41ColorIndex
 90
       18
102
RTVSPost2010Prop41ColorRGB
 90
        0
102
RTVSPost2010PropOp41
 70
     1
102
RTVSPost2010Prop42
 90
       50
102
RTVSPost2010PropOp42
 70
     1
102
RTVSPost2010Prop43
 90
        3
102
RTVSPost2010PropOp43
 70
     1
102
RTVSPost2010Prop44ColorIndex
 90
        5
102
RTVSPost2010Prop44ColorRGB
 90
      255
102
RTVSPost2010PropOp44
 70
     1
102
RTVSPost2010Prop45
280
     0
102
RTVSPost2010PropOp45
 70
     1
102
RTVSPost2010Prop46
 90
       50
102
RTVSPost2010PropOp46
 70
     1
102
RTVSPost2010Prop47
 90
       50
102
RTVSPost2010PropOp47
 70
     1
102
RTVSPost2010Prop48
 90
       50
102
RTVSPost2010PropOp48
 70
     1
102
RTVSPost2010Prop49
280
     0
102
RTVSPost2010PropOp49
 70
     1
102
RTVSPost2010Prop50
 90
       50
102
RTVSPost2010PropOp50
 70
     1
102
RTVSPost2010Prop51ColorIndex
 90
      256
102
RTVSPost2010Prop51ColorRGB
 90
-16777216
102
RTVSPost2010PropOp51
 70
     0
102
RTVSPost2010Prop52
140
1.0
102
RTVSPost2010PropOp52
 70
     0
102
RTVSPost2010Prop53
 90
        2
102
RTVSPost2010PropOp53
 70
     1
102
RTVSPost2010Prop54
  1
strokes_ogs.tif
102
RTVSPost2010PropOp54
 70
     1
102
RTVSPost2010Prop55
280
     0
102
RTVSPost2010PropOp55
 70
     1
102
RTVSPost2010Prop56
140
1.0
102
RTVSPost2010PropOp56
 70
     1
102
RTVSPost2010Prop57
140
1.0
102
RTVSPost2010PropOp57
 70
     1
  0
XRECORD
  5
388
102
{ACAD_REACTORS
330
387
102
}
330
387
100
AcDbXrecord
280
     1
102
RTVSPost2010Prop28
280
     0
102
RTVSPost2010PropOp28
 70
     1
102
RTVSPost2010Prop29
280
     1
102
RTVSPost2010PropOp29
 70
     1
102
RTVSPost2010Prop30
280
     1
102
RTVSPost2010PropOp30
 70
     1
102
RTVSPost2010Prop31
280
     0
102
RTVSPost2010PropOp31
 70
     1
102
RTVSPost2010Prop32
280
     0
102
RTVSPost2010PropOp32
 70
     1
102
RTVSPost2010Prop33
280
     0
102
RTVSPost2010PropOp33
 70
     1
102
RTVSPost2010Prop34
280
     0
102
RTVSPost2010PropOp34
 70
     1
102
RTVSPost2010Prop35
280
     0
102
RTVSPost2010PropOp35
 70
     1
102
RTVSPost2010Prop36
280
     0
102
RTVSPost2010PropOp36
 70
     1
102
RTVSPost2010Prop37
 90
       50
102
RTVSPost2010PropOp37
 70
     1
102
RTVSPost2010Prop38
140
0.0
102
RTVSPost2010PropOp38
 70
     1
102
RTVSPost2010Prop39
140
1.0
102
RTVSPost2010PropOp39
 70
     1
102
RTVSPost2010Prop40
 90
        0
102
RTVSPost2010PropOp40
 70
     1
102
RTVSPost2010Prop41ColorIndex
 90
       18
102
RTVSPost2010Prop41ColorRGB
 90
        0
102
RTVSPost2010PropOp41
 70
     1
102
RTVSPost2010Prop42
 90
       50
102
RTVSPost2010PropOp42
 70
     1
102
RTVSPost2010Prop43
 90
        3
102
RTVSPost2010PropOp43
 70
     1
102
RTVSPost2010Prop44ColorIndex
 90
        5
102
RTVSPost2010Prop44ColorRGB
 90
      255
102
RTVSPost2010PropOp44
 70
     1
102
RTVSPost2010Prop45
280
     0
102
RTVSPost2010PropOp45
 70
     1
102
RTVSPost2010Prop46
 90
       50
102
RTVSPost2010PropOp46
 70
     1
102
RTVSPost2010Prop47
 90
       50
102
RTVSPost2010PropOp47
 70
     1
102
RTVSPost2010Prop48
 90
       50
102
RTVSPost2010PropOp48
 70
     1
102
RTVSPost2010Prop49
280
     0
102
RTVSPost2010PropOp49
 70
     1
102
RTVSPost2010Prop50
 90
       50
102
RTVSPost2010PropOp50
 70
     1
102
RTVSPost2010Prop51ColorIndex
 90
      256
102
RTVSPost2010Prop51ColorRGB
 90
-16777216
102
RTVSPost2010PropOp51
 70
     0
102
RTVSPost2010Prop52
140
1.0
102
RTVSPost2010PropOp52
 70
     0
102
RTVSPost2010Prop53
 90
        2
102
RTVSPost2010PropOp53
 70
     1
102
RTVSPost2010Prop54
  1
strokes_ogs.tif
102
RTVSPost2010PropOp54
 70
     1
102
RTVSPost2010Prop55
280
     0
102
RTVSPost2010PropOp55
 70
     1
102
RTVSPost2010Prop56
140
1.0
102
RTVSPost2010PropOp56
 70
     1
102
RTVSPost2010Prop57
140
1.0
102
RTVSPost2010PropOp57
 70
     1
  0
XRECORD
  5
38E
102
{ACAD_REACTORS
330
38D
102
}
330
38D
100
AcDbXrecord
280
     1
102
RTVSPost2010Prop28
280
     0
102
RTVSPost2010PropOp28
 70
     1
102
RTVSPost2010Prop29
280
     1
102
RTVSPost2010PropOp29
 70
     1
102
RTVSPost2010Prop30
280
     1
102
RTVSPost2010PropOp30
 70
     1
102
RTVSPost2010Prop31
280
     0
102
RTVSPost2010PropOp31
 70
     1
102
RTVSPost2010Prop32
280
     0
102
RTVSPost2010PropOp32
 70
     1
102
RTVSPost2010Prop33
280
     0
102
RTVSPost2010PropOp33
 70
     1
102
RTVSPost2010Prop34
280
     0
102
RTVSPost2010PropOp34
 70
     1
102
RTVSPost2010Prop35
280
     0
102
RTVSPost2010PropOp35
 70
     1
102
RTVSPost2010Prop36
280
     0
102
RTVSPost2010PropOp36
 70
     1
102
RTVSPost2010Prop37
 90
       50
102
RTVSPost2010PropOp37
 70
     1
102
RTVSPost2010Prop38
140
0.0
102
RTVSPost2010PropOp38
 70
     1
102
RTVSPost2010Prop39
140
1.0
102
RTVSPost2010PropOp39
 70
     1
102
RTVSPost2010Prop40
 90
        0
102
RTVSPost2010PropOp40
 70
     1
102
RTVSPost2010Prop41ColorIndex
 90
       18
102
RTVSPost2010Prop41ColorRGB
 90
        0
102
RTVSPost2010PropOp41
 70
     1
102
RTVSPost2010Prop42
 90
       50
102
RTVSPost2010PropOp42
 70
     1
102
RTVSPost2010Prop43
 90
        3
102
RTVSPost2010PropOp43
 70
     1
102
RTVSPost2010Prop44ColorIndex
 90
        5
102
RTVSPost2010Prop44ColorRGB
 90
      255
102
RTVSPost2010PropOp44
 70
     1
102
RTVSPost2010Prop45
280
     0
102
RTVSPost2010PropOp45
 70
     1
102
RTVSPost2010Prop46
 90
       50
102
RTVSPost2010PropOp46
 70
     1
102
RTVSPost2010Prop47
 90
       50
102
RTVSPost2010PropOp47
 70
     1
102
RTVSPost2010Prop48
 90
       50
102
RTVSPost2010PropOp48
 70
     1
102
RTVSPost2010Prop49
280
     0
102
RTVSPost2010PropOp49
 70
     1
102
RTVSPost2010Prop50
 90
       50
102
RTVSPost2010PropOp50
 70
     1
102
RTVSPost2010Prop51ColorIndex
 90
      256
102
RTVSPost2010Prop51ColorRGB
 90
-16777216
102
RTVSPost2010PropOp51
 70
     0
102
RTVSPost2010Prop52
140
1.0
102
RTVSPost2010PropOp52
 70
     0
102
RTVSPost2010Prop53
 90
        2
102
RTVSPost2010PropOp53
 70
     1
102
RTVSPost2010Prop54
  1
strokes_ogs.tif
102
RTVSPost2010PropOp54
 70
     1
102
RTVSPost2010Prop55
280
     0
102
RTVSPost2010PropOp55
 70
     1
102
RTVSPost2010Prop56
140
1.0
102
RTVSPost2010PropOp56
 70
     1
102
RTVSPost2010Prop57
140
1.0
102
RTVSPost2010PropOp57
 70
     1
  0
XRECORD
  5
3A2
102
{ACAD_REACTORS
330
3A1
102
}
330
3A1
100
AcDbXrecord
280
     1
102
RTVSPost2010Prop28
280
     0
102
RTVSPost2010PropOp28
 70
     0
102
RTVSPost2010Prop29
280
     1
102
RTVSPost2010PropOp29
 70
     0
102
RTVSPost2010Prop30
280
     1
102
RTVSPost2010PropOp30
 70
     0
102
RTVSPost2010Prop31
280
     0
102
RTVSPost2010PropOp31
 70
     0
102
RTVSPost2010Prop32
280
     0
102
RTVSPost2010PropOp32
 70
     0
102
RTVSPost2010Prop33
280
     0
102
RTVSPost2010PropOp33
 70
     0
102
RTVSPost2010Prop34
280
     0
102
RTVSPost2010PropOp34
 70
     0
102
RTVSPost2010Prop35
280
     0
102
RTVSPost2010PropOp35
 70
     0
102
RTVSPost2010Prop36
280
     0
102
RTVSPost2010PropOp36
 70
     0
102
RTVSPost2010Prop37
 90
       50
102
RTVSPost2010PropOp37
 70
     0
102
RTVSPost2010Prop38
140
0.0
102
RTVSPost2010PropOp38
 70
     0
102
RTVSPost2010Prop39
140
1.0
102
RTVSPost2010PropOp39
 70
     0
102
RTVSPost2010Prop40
 90
        0
102
RTVSPost2010PropOp40
 70
     0
102
RTVSPost2010Prop41ColorIndex
 90
       18
102
RTVSPost2010Prop41ColorRGB
 90
        0
102
RTVSPost2010PropOp41
 70
     0
102
RTVSPost2010Prop42
 90
       50
102
RTVSPost2010PropOp42
 70
     0
102
RTVSPost2010Prop43
 90
        3
102
RTVSPost2010PropOp43
 70
     0
102
RTVSPost2010Prop44ColorIndex
 90
        5
102
RTVSPost2010Prop44ColorRGB
 90
      255
102
RTVSPost2010PropOp44
 70
     0
102
RTVSPost2010Prop45
280
     0
102
RTVSPost2010PropOp45
 70
     0
102
RTVSPost2010Prop46
 90
       50
102
RTVSPost2010PropOp46
 70
     0
102
RTVSPost2010Prop47
 90
       50
102
RTVSPost2010PropOp47
 70
     0
102
RTVSPost2010Prop48
 90
       50
102
RTVSPost2010PropOp48
 70
     0
102
RTVSPost2010Prop49
280
     0
102
RTVSPost2010PropOp49
 70
     0
102
RTVSPost2010Prop50
 90
       50
102
RTVSPost2010PropOp50
 70
     0
102
RTVSPost2010Prop51ColorIndex
 90
      256
102
RTVSPost2010Prop51ColorRGB
 90
-16777216
102
RTVSPost2010PropOp51
 70
     0
102
RTVSPost2010Prop52
140
1.0
102
RTVSPost2010PropOp52
 70
     0
102
RTVSPost2010Prop53
 90
        2
102
RTVSPost2010PropOp53
 70
     0
102
RTVSPost2010Prop54
  1
strokes_ogs.tif
102
RTVSPost2010PropOp54
 70
     0
102
RTVSPost2010Prop55
280
     0
102
RTVSPost2010PropOp55
 70
     0
102
RTVSPost2010Prop56
140
1.0
102
RTVSPost2010PropOp56
 70
     0
102
RTVSPost2010Prop57
140
1.0
102
RTVSPost2010PropOp57
 70
     0
  0
XRECORD
  5
39C
102
{ACAD_REACTORS
330
39B
102
}
330
39B
100
AcDbXrecord
280
     1
102
RTVSPost2010Prop28
280
     0
102
RTVSPost2010PropOp28
 70
     1
102
RTVSPost2010Prop29
280
     1
102
RTVSPost2010PropOp29
 70
     1
102
RTVSPost2010Prop30
280
     1
102
RTVSPost2010PropOp30
 70
     1
102
RTVSPost2010Prop31
280
     0
102
RTVSPost2010PropOp31
 70
     1
102
RTVSPost2010Prop32
280
     0
102
RTVSPost2010PropOp32
 70
     1
102
RTVSPost2010Prop33
280
     0
102
RTVSPost2010PropOp33
 70
     1
102
RTVSPost2010Prop34
280
     0
102
RTVSPost2010PropOp34
 70
     1
102
RTVSPost2010Prop35
280
     0
102
RTVSPost2010PropOp35
 70
     1
102
RTVSPost2010Prop36
280
     0
102
RTVSPost2010PropOp36
 70
     1
102
RTVSPost2010Prop37
 90
       50
102
RTVSPost2010PropOp37
 70
     1
102
RTVSPost2010Prop38
140
0.0
102
RTVSPost2010PropOp38
 70
     1
102
RTVSPost2010Prop39
140
1.0
102
RTVSPost2010PropOp39
 70
     1
102
RTVSPost2010Prop40
 90
        0
102
RTVSPost2010PropOp40
 70
     1
102
RTVSPost2010Prop41ColorIndex
 90
       18
102
RTVSPost2010Prop41ColorRGB
 90
        0
102
RTVSPost2010PropOp41
 70
     1
102
RTVSPost2010Prop42
 90
       50
102
RTVSPost2010PropOp42
 70
     1
102
RTVSPost2010Prop43
 90
        3
102
RTVSPost2010PropOp43
 70
     1
102
RTVSPost2010Prop44ColorIndex
 90
        5
102
RTVSPost2010Prop44ColorRGB
 90
      255
102
RTVSPost2010PropOp44
 70
     1
102
RTVSPost2010Prop45
280
     0
102
RTVSPost2010PropOp45
 70
     1
102
RTVSPost2010Prop46
 90
       50
102
RTVSPost2010PropOp46
 70
     1
102
RTVSPost2010Prop47
 90
       50
102
RTVSPost2010PropOp47
 70
     1
102
RTVSPost2010Prop48
 90
       50
102
RTVSPost2010PropOp48
 70
     1
102
RTVSPost2010Prop49
280
     0
102
RTVSPost2010PropOp49
 70
     1
102
RTVSPost2010Prop50
 90
       50
102
RTVSPost2010PropOp50
 70
     1
102
RTVSPost2010Prop51ColorIndex
 90
      256
102
RTVSPost2010Prop51ColorRGB
 90
-16777216
102
RTVSPost2010PropOp51
 70
     0
102
RTVSPost2010Prop52
140
1.0
102
RTVSPost2010PropOp52
 70
     0
102
RTVSPost2010Prop53
 90
        2
102
RTVSPost2010PropOp53
 70
     1
102
RTVSPost2010Prop54
  1
strokes_ogs.tif
102
RTVSPost2010PropOp54
 70
     1
102
RTVSPost2010Prop55
280
     0
102
RTVSPost2010PropOp55
 70
     1
102
RTVSPost2010Prop56
140
1.0
102
RTVSPost2010PropOp56
 70
     1
102
RTVSPost2010Prop57
140
1.0
102
RTVSPost2010PropOp57
 70
     1
  0
XRECORD
  5
3A4
102
{ACAD_REACTORS
330
3A3
102
}
330
3A3
100
AcDbXrecord
280
     1
102
RTVSPost2010Prop28
280
     0
102
RTVSPost2010PropOp28
 70
     0
102
RTVSPost2010Prop29
280
     1
102
RTVSPost2010PropOp29
 70
     0
102
RTVSPost2010Prop30
280
     1
102
RTVSPost2010PropOp30
 70
     0
102
RTVSPost2010Prop31
280
     0
102
RTVSPost2010PropOp31
 70
     0
102
RTVSPost2010Prop32
280
     0
102
RTVSPost2010PropOp32
 70
     0
102
RTVSPost2010Prop33
280
     0
102
RTVSPost2010PropOp33
 70
     0
102
RTVSPost2010Prop34
280
     0
102
RTVSPost2010PropOp34
 70
     0
102
RTVSPost2010Prop35
280
     0
102
RTVSPost2010PropOp35
 70
     0
102
RTVSPost2010Prop36
280
     0
102
RTVSPost2010PropOp36
 70
     0
102
RTVSPost2010Prop37
 90
       50
102
RTVSPost2010PropOp37
 70
     0
102
RTVSPost2010Prop38
140
0.0
102
RTVSPost2010PropOp38
 70
     0
102
RTVSPost2010Prop39
140
1.0
102
RTVSPost2010PropOp39
 70
     0
102
RTVSPost2010Prop40
 90
        0
102
RTVSPost2010PropOp40
 70
     0
102
RTVSPost2010Prop41ColorIndex
 90
       18
102
RTVSPost2010Prop41ColorRGB
 90
        0
102
RTVSPost2010PropOp41
 70
     0
102
RTVSPost2010Prop42
 90
       50
102
RTVSPost2010PropOp42
 70
     0
102
RTVSPost2010Prop43
 90
        3
102
RTVSPost2010PropOp43
 70
     0
102
RTVSPost2010Prop44ColorIndex
 90
        5
102
RTVSPost2010Prop44ColorRGB
 90
      255
102
RTVSPost2010PropOp44
 70
     0
102
RTVSPost2010Prop45
280
     0
102
RTVSPost2010PropOp45
 70
     0
102
RTVSPost2010Prop46
 90
       50
102
RTVSPost2010PropOp46
 70
     0
102
RTVSPost2010Prop47
 90
       50
102
RTVSPost2010PropOp47
 70
     0
102
RTVSPost2010Prop48
 90
       50
102
RTVSPost2010PropOp48
 70
     0
102
RTVSPost2010Prop49
280
     0
102
RTVSPost2010PropOp49
 70
     0
102
RTVSPost2010Prop50
 90
       50
102
RTVSPost2010PropOp50
 70
     0
102
RTVSPost2010Prop51ColorIndex
 90
      256
102
RTVSPost2010Prop51ColorRGB
 90
-16777216
102
RTVSPost2010PropOp51
 70
     0
102
RTVSPost2010Prop52
140
1.0
102
RTVSPost2010PropOp52
 70
     0
102
RTVSPost2010Prop53
 90
        2
102
RTVSPost2010PropOp53
 70
     0
102
RTVSPost2010Prop54
  1
strokes_ogs.tif
102
RTVSPost2010PropOp54
 70
     0
102
RTVSPost2010Prop55
280
     0
102
RTVSPost2010PropOp55
 70
     0
102
RTVSPost2010Prop56
140
1.0
102
RTVSPost2010PropOp56
 70
     0
102
RTVSPost2010Prop57
140
1.0
102
RTVSPost2010PropOp57
 70
     0
  0
XRECORD
  5
392
102
{ACAD_REACTORS
330
391
102
}
330
391
100
AcDbXrecord
280
     1
102
RTVSPost2010Prop28
280
     0
102
RTVSPost2010PropOp28
 70
     1
102
RTVSPost2010Prop29
280
     1
102
RTVSPost2010PropOp29
 70
     1
102
RTVSPost2010Prop30
280
     1
102
RTVSPost2010PropOp30
 70
     1
102
RTVSPost2010Prop31
280
     0
102
RTVSPost2010PropOp31
 70
     1
102
RTVSPost2010Prop32
280
     0
102
RTVSPost2010PropOp32
 70
     1
102
RTVSPost2010Prop33
280
     0
102
RTVSPost2010PropOp33
 70
     1
102
RTVSPost2010Prop34
280
     0
102
RTVSPost2010PropOp34
 70
     1
102
RTVSPost2010Prop35
280
     0
102
RTVSPost2010PropOp35
 70
     1
102
RTVSPost2010Prop36
280
     0
102
RTVSPost2010PropOp36
 70
     1
102
RTVSPost2010Prop37
 90
       50
102
RTVSPost2010PropOp37
 70
     1
102
RTVSPost2010Prop38
140
0.0
102
RTVSPost2010PropOp38
 70
     1
102
RTVSPost2010Prop39
140
1.0
102
RTVSPost2010PropOp39
 70
     1
102
RTVSPost2010Prop40
 90
        0
102
RTVSPost2010PropOp40
 70
     1
102
RTVSPost2010Prop41ColorIndex
 90
       18
102
RTVSPost2010Prop41ColorRGB
 90
        0
102
RTVSPost2010PropOp41
 70
     1
102
RTVSPost2010Prop42
 90
       50
102
RTVSPost2010PropOp42
 70
     1
102
RTVSPost2010Prop43
 90
        3
102
RTVSPost2010PropOp43
 70
     1
102
RTVSPost2010Prop44ColorIndex
 90
        5
102
RTVSPost2010Prop44ColorRGB
 90
      255
102
RTVSPost2010PropOp44
 70
     1
102
RTVSPost2010Prop45
280
     0
102
RTVSPost2010PropOp45
 70
     1
102
RTVSPost2010Prop46
 90
       50
102
RTVSPost2010PropOp46
 70
     1
102
RTVSPost2010Prop47
 90
       50
102
RTVSPost2010PropOp47
 70
     1
102
RTVSPost2010Prop48
 90
       50
102
RTVSPost2010PropOp48
 70
     1
102
RTVSPost2010Prop49
280
     0
102
RTVSPost2010PropOp49
 70
     1
102
RTVSPost2010Prop50
 90
       50
102
RTVSPost2010PropOp50
 70
     1
102
RTVSPost2010Prop51ColorIndex
 90
      256
102
RTVSPost2010Prop51ColorRGB
 90
-16777216
102
RTVSPost2010PropOp51
 70
     0
102
RTVSPost2010Prop52
140
1.0
102
RTVSPost2010PropOp52
 70
     0
102
RTVSPost2010Prop53
 90
        2
102
RTVSPost2010PropOp53
 70
     1
102
RTVSPost2010Prop54
  1
strokes_ogs.tif
102
RTVSPost2010PropOp54
 70
     1
102
RTVSPost2010Prop55
280
     0
102
RTVSPost2010PropOp55
 70
     1
102
RTVSPost2010Prop56
140
1.0
102
RTVSPost2010PropOp56
 70
     1
102
RTVSPost2010Prop57
140
1.0
102
RTVSPost2010PropOp57
 70
     1
  0
XRECORD
  5
3B0
102
{ACAD_REACTORS
330
3AF
102
}
330
3AF
100
AcDbXrecord
280
     1
102
RTVSPost2010Prop28
280
     0
102
RTVSPost2010PropOp28
 70
     1
102
RTVSPost2010Prop29
280
     1
102
RTVSPost2010PropOp29
 70
     1
102
RTVSPost2010Prop30
280
     1
102
RTVSPost2010PropOp30
 70
     1
102
RTVSPost2010Prop31
280
     0
102
RTVSPost2010PropOp31
 70
     1
102
RTVSPost2010Prop32
280
     0
102
RTVSPost2010PropOp32
 70
     1
102
RTVSPost2010Prop33
280
     0
102
RTVSPost2010PropOp33
 70
     1
102
RTVSPost2010Prop34
280
     0
102
RTVSPost2010PropOp34
 70
     1
102
RTVSPost2010Prop35
280
     0
102
RTVSPost2010PropOp35
 70
     1
102
RTVSPost2010Prop36
280
     0
102
RTVSPost2010PropOp36
 70
     1
102
RTVSPost2010Prop37
 90
       50
102
RTVSPost2010PropOp37
 70
     1
102
RTVSPost2010Prop38
140
0.0
102
RTVSPost2010PropOp38
 70
     1
102
RTVSPost2010Prop39
140
1.0
102
RTVSPost2010PropOp39
 70
     1
102
RTVSPost2010Prop40
 90
        0
102
RTVSPost2010PropOp40
 70
     1
102
RTVSPost2010Prop41ColorIndex
 90
       18
102
RTVSPost2010Prop41ColorRGB
 90
        0
102
RTVSPost2010PropOp41
 70
     1
102
RTVSPost2010Prop42
 90
       50
102
RTVSPost2010PropOp42
 70
     1
102
RTVSPost2010Prop43
 90
        3
102
RTVSPost2010PropOp43
 70
     1
102
RTVSPost2010Prop44ColorIndex
 90
        5
102
RTVSPost2010Prop44ColorRGB
 90
      255
102
RTVSPost2010PropOp44
 70
     1
102
RTVSPost2010Prop45
280
     0
102
RTVSPost2010PropOp45
 70
     1
102
RTVSPost2010Prop46
 90
       50
102
RTVSPost2010PropOp46
 70
     1
102
RTVSPost2010Prop47
 90
       50
102
RTVSPost2010PropOp47
 70
     1
102
RTVSPost2010Prop48
 90
       50
102
RTVSPost2010PropOp48
 70
     1
102
RTVSPost2010Prop49
280
     0
102
RTVSPost2010PropOp49
 70
     1
102
RTVSPost2010Prop50
 90
       50
102
RTVSPost2010PropOp50
 70
     1
102
RTVSPost2010Prop51ColorIndex
 90
      256
102
RTVSPost2010Prop51ColorRGB
 90
-16777216
102
RTVSPost2010PropOp51
 70
     0
102
RTVSPost2010Prop52
140
1.0
102
RTVSPost2010PropOp52
 70
     0
102
RTVSPost2010Prop53
 90
        2
102
RTVSPost2010PropOp53
 70
     1
102
RTVSPost2010Prop54
  1
strokes_ogs.tif
102
RTVSPost2010PropOp54
 70
     1
102
RTVSPost2010Prop55
280
     0
102
RTVSPost2010PropOp55
 70
     1
102
RTVSPost2010Prop56
140
1.0
102
RTVSPost2010PropOp56
 70
     1
102
RTVSPost2010Prop57
140
1.0
102
RTVSPost2010PropOp57
 70
     1
  0
XRECORD
  5
3AE
102
{ACAD_REACTORS
330
3AD
102
}
330
3AD
100
AcDbXrecord
280
     1
102
RTVSPost2010Prop28
280
     0
102
RTVSPost2010PropOp28
 70
     1
102
RTVSPost2010Prop29
280
     1
102
RTVSPost2010PropOp29
 70
     1
102
RTVSPost2010Prop30
280
     1
102
RTVSPost2010PropOp30
 70
     1
102
RTVSPost2010Prop31
280
     0
102
RTVSPost2010PropOp31
 70
     1
102
RTVSPost2010Prop32
280
     0
102
RTVSPost2010PropOp32
 70
     1
102
RTVSPost2010Prop33
280
     0
102
RTVSPost2010PropOp33
 70
     1
102
RTVSPost2010Prop34
280
     0
102
RTVSPost2010PropOp34
 70
     1
102
RTVSPost2010Prop35
280
     0
102
RTVSPost2010PropOp35
 70
     1
102
RTVSPost2010Prop36
280
     0
102
RTVSPost2010PropOp36
 70
     1
102
RTVSPost2010Prop37
 90
       50
102
RTVSPost2010PropOp37
 70
     1
102
RTVSPost2010Prop38
140
0.0
102
RTVSPost2010PropOp38
 70
     1
102
RTVSPost2010Prop39
140
1.0
102
RTVSPost2010PropOp39
 70
     1
102
RTVSPost2010Prop40
 90
        0
102
RTVSPost2010PropOp40
 70
     1
102
RTVSPost2010Prop41ColorIndex
 90
       18
102
RTVSPost2010Prop41ColorRGB
 90
        0
102
RTVSPost2010PropOp41
 70
     1
102
RTVSPost2010Prop42
 90
       50
102
RTVSPost2010PropOp42
 70
     1
102
RTVSPost2010Prop43
 90
        3
102
RTVSPost2010PropOp43
 70
     1
102
RTVSPost2010Prop44ColorIndex
 90
        5
102
RTVSPost2010Prop44ColorRGB
 90
      255
102
RTVSPost2010PropOp44
 70
     1
102
RTVSPost2010Prop45
280
     0
102
RTVSPost2010PropOp45
 70
     1
102
RTVSPost2010Prop46
 90
       50
102
RTVSPost2010PropOp46
 70
     1
102
RTVSPost2010Prop47
 90
       50
102
RTVSPost2010PropOp47
 70
     1
102
RTVSPost2010Prop48
 90
       50
102
RTVSPost2010PropOp48
 70
     1
102
RTVSPost2010Prop49
280
     0
102
RTVSPost2010PropOp49
 70
     1
102
RTVSPost2010Prop50
 90
       50
102
RTVSPost2010PropOp50
 70
     1
102
RTVSPost2010Prop51ColorIndex
 90
      256
102
RTVSPost2010Prop51ColorRGB
 90
-16777216
102
RTVSPost2010PropOp51
 70
     0
102
RTVSPost2010Prop52
140
1.0
102
RTVSPost2010PropOp52
 70
     0
102
RTVSPost2010Prop53
 90
        2
102
RTVSPost2010PropOp53
 70
     1
102
RTVSPost2010Prop54
  1
strokes_ogs.tif
102
RTVSPost2010PropOp54
 70
     1
102
RTVSPost2010Prop55
280
     0
102
RTVSPost2010PropOp55
 70
     1
102
RTVSPost2010Prop56
140
1.0
102
RTVSPost2010PropOp56
 70
     1
102
RTVSPost2010Prop57
140
1.0
102
RTVSPost2010PropOp57
 70
     1
  0
XRECORD
  5
3A8
102
{ACAD_REACTORS
330
3A7
102
}
330
3A7
100
AcDbXrecord
280
     1
102
RTVSPost2010Prop28
280
     0
102
RTVSPost2010PropOp28
 70
     1
102
RTVSPost2010Prop29
280
     1
102
RTVSPost2010PropOp29
 70
     1
102
RTVSPost2010Prop30
280
     1
102
RTVSPost2010PropOp30
 70
     1
102
RTVSPost2010Prop31
280
     0
102
RTVSPost2010PropOp31
 70
     1
102
RTVSPost2010Prop32
280
     0
102
RTVSPost2010PropOp32
 70
     1
102
RTVSPost2010Prop33
280
     0
102
RTVSPost2010PropOp33
 70
     1
102
RTVSPost2010Prop34
280
     0
102
RTVSPost2010PropOp34
 70
     1
102
RTVSPost2010Prop35
280
     0
102
RTVSPost2010PropOp35
 70
     1
102
RTVSPost2010Prop36
280
     0
102
RTVSPost2010PropOp36
 70
     1
102
RTVSPost2010Prop37
 90
       50
102
RTVSPost2010PropOp37
 70
     1
102
RTVSPost2010Prop38
140
0.0
102
RTVSPost2010PropOp38
 70
     1
102
RTVSPost2010Prop39
140
1.0
102
RTVSPost2010PropOp39
 70
     1
102
RTVSPost2010Prop40
 90
        0
102
RTVSPost2010PropOp40
 70
     1
102
RTVSPost2010Prop41ColorIndex
 90
       18
102
RTVSPost2010Prop41ColorRGB
 90
        0
102
RTVSPost2010PropOp41
 70
     1
102
RTVSPost2010Prop42
 90
       50
102
RTVSPost2010PropOp42
 70
     1
102
RTVSPost2010Prop43
 90
        3
102
RTVSPost2010PropOp43
 70
     1
102
RTVSPost2010Prop44ColorIndex
 90
        5
102
RTVSPost2010Prop44ColorRGB
 90
      255
102
RTVSPost2010PropOp44
 70
     1
102
RTVSPost2010Prop45
280
     0
102
RTVSPost2010PropOp45
 70
     1
102
RTVSPost2010Prop46
 90
       50
102
RTVSPost2010PropOp46
 70
     1
102
RTVSPost2010Prop47
 90
       50
102
RTVSPost2010PropOp47
 70
     1
102
RTVSPost2010Prop48
 90
       50
102
RTVSPost2010PropOp48
 70
     1
102
RTVSPost2010Prop49
280
     0
102
RTVSPost2010PropOp49
 70
     1
102
RTVSPost2010Prop50
 90
       50
102
RTVSPost2010PropOp50
 70
     1
102
RTVSPost2010Prop51ColorIndex
 90
      256
102
RTVSPost2010Prop51ColorRGB
 90
-16777216
102
RTVSPost2010PropOp51
 70
     0
102
RTVSPost2010Prop52
140
1.0
102
RTVSPost2010PropOp52
 70
     0
102
RTVSPost2010Prop53
 90
        2
102
RTVSPost2010PropOp53
 70
     1
102
RTVSPost2010Prop54
  1
strokes_ogs.tif
102
RTVSPost2010PropOp54
 70
     1
102
RTVSPost2010Prop55
280
     0
102
RTVSPost2010PropOp55
 70
     1
102
RTVSPost2010Prop56
140
1.0
102
RTVSPost2010PropOp56
 70
     1
102
RTVSPost2010Prop57
140
1.0
102
RTVSPost2010PropOp57
 70
     1
  0
XRECORD
  5
3AA
102
{ACAD_REACTORS
330
3A9
102
}
330
3A9
100
AcDbXrecord
280
     1
102
RTVSPost2010Prop28
280
     0
102
RTVSPost2010PropOp28
 70
     1
102
RTVSPost2010Prop29
280
     1
102
RTVSPost2010PropOp29
 70
     1
102
RTVSPost2010Prop30
280
     1
102
RTVSPost2010PropOp30
 70
     1
102
RTVSPost2010Prop31
280
     0
102
RTVSPost2010PropOp31
 70
     1
102
RTVSPost2010Prop32
280
     0
102
RTVSPost2010PropOp32
 70
     1
102
RTVSPost2010Prop33
280
     0
102
RTVSPost2010PropOp33
 70
     1
102
RTVSPost2010Prop34
280
     0
102
RTVSPost2010PropOp34
 70
     1
102
RTVSPost2010Prop35
280
     0
102
RTVSPost2010PropOp35
 70
     1
102
RTVSPost2010Prop36
280
     0
102
RTVSPost2010PropOp36
 70
     1
102
RTVSPost2010Prop37
 90
       50
102
RTVSPost2010PropOp37
 70
     1
102
RTVSPost2010Prop38
140
0.0
102
RTVSPost2010PropOp38
 70
     1
102
RTVSPost2010Prop39
140
1.0
102
RTVSPost2010PropOp39
 70
     1
102
RTVSPost2010Prop40
 90
        0
102
RTVSPost2010PropOp40
 70
     1
102
RTVSPost2010Prop41ColorIndex
 90
       18
102
RTVSPost2010Prop41ColorRGB
 90
        0
102
RTVSPost2010PropOp41
 70
     1
102
RTVSPost2010Prop42
 90
       50
102
RTVSPost2010PropOp42
 70
     1
102
RTVSPost2010Prop43
 90
        3
102
RTVSPost2010PropOp43
 70
     1
102
RTVSPost2010Prop44ColorIndex
 90
        5
102
RTVSPost2010Prop44ColorRGB
 90
      255
102
RTVSPost2010PropOp44
 70
     1
102
RTVSPost2010Prop45
280
     0
102
RTVSPost2010PropOp45
 70
     1
102
RTVSPost2010Prop46
 90
       50
102
RTVSPost2010PropOp46
 70
     1
102
RTVSPost2010Prop47
 90
       50
102
RTVSPost2010PropOp47
 70
     1
102
RTVSPost2010Prop48
 90
       50
102
RTVSPost2010PropOp48
 70
     1
102
RTVSPost2010Prop49
280
     0
102
RTVSPost2010PropOp49
 70
     1
102
RTVSPost2010Prop50
 90
       50
102
RTVSPost2010PropOp50
 70
     1
102
RTVSPost2010Prop51ColorIndex
 90
      256
102
RTVSPost2010Prop51ColorRGB
 90
-16777216
102
RTVSPost2010PropOp51
 70
     0
102
RTVSPost2010Prop52
140
1.0
102
RTVSPost2010PropOp52
 70
     0
102
RTVSPost2010Prop53
 90
        2
102
RTVSPost2010PropOp53
 70
     1
102
RTVSPost2010Prop54
  1
strokes_ogs.tif
102
RTVSPost2010PropOp54
 70
     1
102
RTVSPost2010Prop55
280
     0
102
RTVSPost2010PropOp55
 70
     1
102
RTVSPost2010Prop56
140
1.0
102
RTVSPost2010PropOp56
 70
     1
102
RTVSPost2010Prop57
140
1.0
102
RTVSPost2010PropOp57
 70
     1
  0
XRECORD
  5
39A
102
{ACAD_REACTORS
330
399
102
}
330
399
100
AcDbXrecord
280
     1
102
RTVSPost2010Prop28
280
     0
102
RTVSPost2010PropOp28
 70
     1
102
RTVSPost2010Prop29
280
     1
102
RTVSPost2010PropOp29
 70
     1
102
RTVSPost2010Prop30
280
     1
102
RTVSPost2010PropOp30
 70
     1
102
RTVSPost2010Prop31
280
     0
102
RTVSPost2010PropOp31
 70
     1
102
RTVSPost2010Prop32
280
     0
102
RTVSPost2010PropOp32
 70
     1
102
RTVSPost2010Prop33
280
     0
102
RTVSPost2010PropOp33
 70
     1
102
RTVSPost2010Prop34
280
     0
102
RTVSPost2010PropOp34
 70
     1
102
RTVSPost2010Prop35
280
     0
102
RTVSPost2010PropOp35
 70
     1
102
RTVSPost2010Prop36
280
     0
102
RTVSPost2010PropOp36
 70
     1
102
RTVSPost2010Prop37
 90
       50
102
RTVSPost2010PropOp37
 70
     1
102
RTVSPost2010Prop38
140
0.0
102
RTVSPost2010PropOp38
 70
     1
102
RTVSPost2010Prop39
140
1.0
102
RTVSPost2010PropOp39
 70
     1
102
RTVSPost2010Prop40
 90
        0
102
RTVSPost2010PropOp40
 70
     1
102
RTVSPost2010Prop41ColorIndex
 90
       18
102
RTVSPost2010Prop41ColorRGB
 90
        0
102
RTVSPost2010PropOp41
 70
     1
102
RTVSPost2010Prop42
 90
       50
102
RTVSPost2010PropOp42
 70
     1
102
RTVSPost2010Prop43
 90
        3
102
RTVSPost2010PropOp43
 70
     1
102
RTVSPost2010Prop44ColorIndex
 90
        5
102
RTVSPost2010Prop44ColorRGB
 90
      255
102
RTVSPost2010PropOp44
 70
     1
102
RTVSPost2010Prop45
280
     0
102
RTVSPost2010PropOp45
 70
     1
102
RTVSPost2010Prop46
 90
       50
102
RTVSPost2010PropOp46
 70
     1
102
RTVSPost2010Prop47
 90
       50
102
RTVSPost2010PropOp47
 70
     1
102
RTVSPost2010Prop48
 90
       50
102
RTVSPost2010PropOp48
 70
     1
102
RTVSPost2010Prop49
280
     0
102
RTVSPost2010PropOp49
 70
     1
102
RTVSPost2010Prop50
 90
       50
102
RTVSPost2010PropOp50
 70
     1
102
RTVSPost2010Prop51ColorIndex
 90
      256
102
RTVSPost2010Prop51ColorRGB
 90
-16777216
102
RTVSPost2010PropOp51
 70
     0
102
RTVSPost2010Prop52
140
1.0
102
RTVSPost2010PropOp52
 70
     0
102
RTVSPost2010Prop53
 90
        2
102
RTVSPost2010PropOp53
 70
     1
102
RTVSPost2010Prop54
  1
strokes_ogs.tif
102
RTVSPost2010PropOp54
 70
     1
102
RTVSPost2010Prop55
280
     0
102
RTVSPost2010PropOp55
 70
     1
102
RTVSPost2010Prop56
140
1.0
102
RTVSPost2010PropOp56
 70
     1
102
RTVSPost2010Prop57
140
1.0
102
RTVSPost2010PropOp57
 70
     1
  0
XRECORD
  5
38C
102
{ACAD_REACTORS
330
38B
102
}
330
38B
100
AcDbXrecord
280
     1
102
RTVSPost2010Prop28
280
     0
102
RTVSPost2010PropOp28
 70
     1
102
RTVSPost2010Prop29
280
     1
102
RTVSPost2010PropOp29
 70
     1
102
RTVSPost2010Prop30
280
     1
102
RTVSPost2010PropOp30
 70
     1
102
RTVSPost2010Prop31
280
     0
102
RTVSPost2010PropOp31
 70
     1
102
RTVSPost2010Prop32
280
     0
102
RTVSPost2010PropOp32
 70
     1
102
RTVSPost2010Prop33
280
     0
102
RTVSPost2010PropOp33
 70
     1
102
RTVSPost2010Prop34
280
     0
102
RTVSPost2010PropOp34
 70
     1
102
RTVSPost2010Prop35
280
     0
102
RTVSPost2010PropOp35
 70
     1
102
RTVSPost2010Prop36
280
     0
102
RTVSPost2010PropOp36
 70
     1
102
RTVSPost2010Prop37
 90
       50
102
RTVSPost2010PropOp37
 70
     1
102
RTVSPost2010Prop38
140
0.0
102
RTVSPost2010PropOp38
 70
     1
102
RTVSPost2010Prop39
140
1.0
102
RTVSPost2010PropOp39
 70
     1
102
RTVSPost2010Prop40
 90
        0
102
RTVSPost2010PropOp40
 70
     1
102
RTVSPost2010Prop41ColorIndex
 90
       18
102
RTVSPost2010Prop41ColorRGB
 90
        0
102
RTVSPost2010PropOp41
 70
     1
102
RTVSPost2010Prop42
 90
       50
102
RTVSPost2010PropOp42
 70
     1
102
RTVSPost2010Prop43
 90
        3
102
RTVSPost2010PropOp43
 70
     1
102
RTVSPost2010Prop44ColorIndex
 90
        5
102
RTVSPost2010Prop44ColorRGB
 90
      255
102
RTVSPost2010PropOp44
 70
     1
102
RTVSPost2010Prop45
280
     0
102
RTVSPost2010PropOp45
 70
     1
102
RTVSPost2010Prop46
 90
       50
102
RTVSPost2010PropOp46
 70
     1
102
RTVSPost2010Prop47
 90
       50
102
RTVSPost2010PropOp47
 70
     1
102
RTVSPost2010Prop48
 90
       50
102
RTVSPost2010PropOp48
 70
     1
102
RTVSPost2010Prop49
280
     0
102
RTVSPost2010PropOp49
 70
     1
102
RTVSPost2010Prop50
 90
       50
102
RTVSPost2010PropOp50
 70
     1
102
RTVSPost2010Prop51ColorIndex
 90
      256
102
RTVSPost2010Prop51ColorRGB
 90
-16777216
102
RTVSPost2010PropOp51
 70
     0
102
RTVSPost2010Prop52
140
1.0
102
RTVSPost2010PropOp52
 70
     0
102
RTVSPost2010Prop53
 90
        2
102
RTVSPost2010PropOp53
 70
     1
102
RTVSPost2010Prop54
  1
strokes_ogs.tif
102
RTVSPost2010PropOp54
 70
     1
102
RTVSPost2010Prop55
280
     0
102
RTVSPost2010PropOp55
 70
     1
102
RTVSPost2010Prop56
140
1.0
102
RTVSPost2010PropOp56
 70
     1
102
RTVSPost2010Prop57
140
1.0
102
RTVSPost2010PropOp57
 70
     1
  0
XRECORD
  5
3AC
102
{ACAD_REACTORS
330
3AB
102
}
330
3AB
100
AcDbXrecord
280
     1
102
RTVSPost2010Prop28
280
     0
102
RTVSPost2010PropOp28
 70
     1
102
RTVSPost2010Prop29
280
     1
102
RTVSPost2010PropOp29
 70
     1
102
RTVSPost2010Prop30
280
     1
102
RTVSPost2010PropOp30
 70
     1
102
RTVSPost2010Prop31
280
     0
102
RTVSPost2010PropOp31
 70
     1
102
RTVSPost2010Prop32
280
     0
102
RTVSPost2010PropOp32
 70
     1
102
RTVSPost2010Prop33
280
     0
102
RTVSPost2010PropOp33
 70
     1
102
RTVSPost2010Prop34
280
     0
102
RTVSPost2010PropOp34
 70
     1
102
RTVSPost2010Prop35
280
     0
102
RTVSPost2010PropOp35
 70
     1
102
RTVSPost2010Prop36
280
     0
102
RTVSPost2010PropOp36
 70
     1
102
RTVSPost2010Prop37
 90
       50
102
RTVSPost2010PropOp37
 70
     1
102
RTVSPost2010Prop38
140
0.0
102
RTVSPost2010PropOp38
 70
     1
102
RTVSPost2010Prop39
140
1.0
102
RTVSPost2010PropOp39
 70
     1
102
RTVSPost2010Prop40
 90
        0
102
RTVSPost2010PropOp40
 70
     1
102
RTVSPost2010Prop41ColorIndex
 90
       18
102
RTVSPost2010Prop41ColorRGB
 90
        0
102
RTVSPost2010PropOp41
 70
     1
102
RTVSPost2010Prop42
 90
       50
102
RTVSPost2010PropOp42
 70
     1
102
RTVSPost2010Prop43
 90
        3
102
RTVSPost2010PropOp43
 70
     1
102
RTVSPost2010Prop44ColorIndex
 90
        5
102
RTVSPost2010Prop44ColorRGB
 90
      255
102
RTVSPost2010PropOp44
 70
     1
102
RTVSPost2010Prop45
280
     0
102
RTVSPost2010PropOp45
 70
     1
102
RTVSPost2010Prop46
 90
       50
102
RTVSPost2010PropOp46
 70
     1
102
RTVSPost2010Prop47
 90
       50
102
RTVSPost2010PropOp47
 70
     1
102
RTVSPost2010Prop48
 90
       50
102
RTVSPost2010PropOp48
 70
     1
102
RTVSPost2010Prop49
280
     0
102
RTVSPost2010PropOp49
 70
     1
102
RTVSPost2010Prop50
 90
       50
102
RTVSPost2010PropOp50
 70
     1
102
RTVSPost2010Prop51ColorIndex
 90
      256
102
RTVSPost2010Prop51ColorRGB
 90
-16777216
102
RTVSPost2010PropOp51
 70
     0
102
RTVSPost2010Prop52
140
1.0
102
RTVSPost2010PropOp52
 70
     0
102
RTVSPost2010Prop53
 90
        2
102
RTVSPost2010PropOp53
 70
     1
102
RTVSPost2010Prop54
  1
strokes_ogs.tif
102
RTVSPost2010PropOp54
 70
     1
102
RTVSPost2010Prop55
280
     0
102
RTVSPost2010PropOp55
 70
     1
102
RTVSPost2010Prop56
140
1.0
102
RTVSPost2010PropOp56
 70
     1
102
RTVSPost2010Prop57
140
1.0
102
RTVSPost2010PropOp57
 70
     1
  0
ENDSEC
  0
EOF
