  0
SECTION
  2
HEADER
  9
$ACADVER
  1
AC1024
  9
$ACADMAINTVER
 70
     6
  9
$DWGCODEPAGE
  3
ANSI_1252
  9
$INSBASE
 10
0.0
 20
0.0
 30
0.0
  9
$EXTMIN
 10
1.000000E+20
 20
1.000000E+20
 30
1.000000E+20
  9
$EXTMAX
 10
-1.000000E+20
 20
-1.000000E+20
 30
-1.000000E+20
  9
$LIMMIN
 10
0.0
 20
0.0
  9
$LIMMAX
 10
420.0
 20
297.0
  9
$ORTHOMODE
 70
     0
  9
$REGENMODE
 70
     1
  9
$FILLMODE
 70
     1
  9
$QTEXTMODE
 70
     0
  9
$MIRRTEXT
 70
     1
  9
$LTSCALE
 40
1.0
  9
$ATTMODE
 70
     1
  9
$TEXTSIZE
 40
2.5
  9
$TRACEWID
 40
1.0
  9
$TEXTSTYLE
  7
Standard
  9
$CLAYER
  8
0
  9
$CELTYPE
  6
ByLayer
  9
$CECOLOR
 62
   256
  9
$CELTSCALE
 40
1.0
  9
$DISPSILH
 70
     0
  9
$DIMSCALE
 40
1.0
  9
$DIMASZ
 40
2.5
  9
$DIMEXO
 40
0.625
  9
$DIMDLI
 40
3.75
  9
$DIMRND
 40
0.0
  9
$DIMDLE
 40
0.0
  9
$DIMEXE
 40
1.25
  9
$DIMTP
 40
0.0
  9
$DIMTM
 40
0.0
  9
$DIMTXT
 40
2.5
  9
$DIMCEN
 40
2.5
  9
$DIMTSZ
 40
0.0
  9
$DIMTOL
 70
     0
  9
$DIMLIM
 70
     0
  9
$DIMTIH
 70
     0
  9
$DIMTOH
 70
     0
  9
$DIMSE1
 70
     0
  9
$DIMSE2
 70
     0
  9
$DIMTAD
 70
     1
  9
$DIMZIN
 70
     8
  9
$DIMBLK
  1

  9
$DIMASO
 70
     1
  9
$DIMSHO
 70
     1
  9
$DIMPOST
  1

  9
$DIMAPOST
  1

  9
$DIMALT
 70
     0
  9
$DIMALTD
 70
     3
  9
$DIMALTF
 40
0.03937
  9
$DIMLFAC
 40
1.0
  9
$DIMTOFL
 70
     1
  9
$DIMTVP
 40
0.0
  9
$DIMTIX
 70
     0
  9
$DIMSOXD
 70
     0
  9
$DIMSAH
 70
     0
  9
$DIMBLK1
  1

  9
$DIMBLK2
  1

  9
$DIMSTYLE
  2
ISO-25
  9
$DIMCLRD
 70
     0
  9
$DIMCLRE
 70
     0
  9
$DIMCLRT
 70
     0
  9
$DIMTFAC
 40
1.0
  9
$DIMGAP
 40
0.625
  9
$DIMJUST
 70
     0
  9
$DIMSD1
 70
     0
  9
$DIMSD2
 70
     0
  9
$DIMTOLJ
 70
     0
  9
$DIMTZIN
 70
     8
  9
$DIMALTZ
 70
     0
  9
$DIMALTTZ
 70
     0
  9
$DIMUPT
 70
     0
  9
$DIMDEC
 70
     2
  9
$DIMTDEC
 70
     2
  9
$DIMALTU
 70
     2
  9
$DIMALTTD
 70
     3
  9
$DIMTXSTY
  7
Standard
  9
$DIMAUNIT
 70
     0
  9
$DIMADEC
 70
     0
  9
$DIMALTRND
 40
0.0
  9
$DIMAZIN
 70
     0
  9
$DIMDSEP
 70
    44
  9
$DIMATFIT
 70
     3
  9
$DIMFRAC
 70
     0
  9
$DIMLDRBLK
  1

  9
$DIMLUNIT
 70
     2
  9
$DIMLWD
 70
    -2
  9
$DIMLWE
 70
    -2
  9
$DIMTMOVE
 70
     0
  9
$DIMFXL
 40
1.0
  9
$DIMFXLON
 70
     0
  9
$DIMJOGANG
 40
0.785398
  9
$DIMTFILL
 70
     0
  9
$DIMTFILLCLR
 70
     0
  9
$DIMARCSYM
 70
     0
  9
$DIMLTYPE
  6

  9
$DIMLTEX1
  6

  9
$DIMLTEX2
  6

  9
$DIMTXTDIRECTION
 70
     0
  9
$LUNITS
 70
     2
  9
$LUPREC
 70
     4
  9
$SKETCHINC
 40
1.0
  9
$FILLETRAD
 40
10.0
  9
$AUNITS
 70
     0
  9
$AUPREC
 70
     0
  9
$MENU
  1
.
  9
$ELEVATION
 40
0.0
  9
$PELEVATION
 40
0.0
  9
$THICKNESS
 40
0.0
  9
$LIMCHECK
 70
     0
  9
$CHAMFERA
 40
0.0
  9
$CHAMFERB
 40
0.0
  9
$CHAMFERC
 40
0.0
  9
$CHAMFERD
 40
0.0
  9
$SKPOLY
 70
     0
  9
$TDCREATE
 40
2458638.58983184
  9
$TDUCREATE
 40
2458638.506498507
  9
$TDUPDATE
 40
2458638.589832488
  9
$TDUUPDATE
 40
2458638.506499155
  9
$TDINDWG
 40
0.0000000116
  9
$TDUSRTIMER
 40
0.0000000116
  9
$USRTIMER
 70
     1
  9
$ANGBASE
 50
0.0
  9
$ANGDIR
 70
     0
  9
$PDMODE
 70
     0
  9
$PDSIZE
 40
0.0
  9
$PLINEWID
 40
0.0
  9
$SPLFRAME
 70
     0
  9
$SPLINETYPE
 70
     6
  9
$SPLINESEGS
 70
     8
  9
$HANDSEED
  5
2A0
  9
$SURFTAB1
 70
     6
  9
$SURFTAB2
 70
     6
  9
$SURFTYPE
 70
     6
  9
$SURFU
 70
     6
  9
$SURFV
 70
     6
  9
$UCSBASE
  2

  9
$UCSNAME
  2

  9
$UCSORG
 10
0.0
 20
0.0
 30
0.0
  9
$UCSXDIR
 10
1.0
 20
0.0
 30
0.0
  9
$UCSYDIR
 10
0.0
 20
1.0
 30
0.0
  9
$UCSORTHOREF
  2

  9
$UCSORTHOVIEW
 70
     0
  9
$UCSORGTOP
 10
0.0
 20
0.0
 30
0.0
  9
$UCSORGBOTTOM
 10
0.0
 20
0.0
 30
0.0
  9
$UCSORGLEFT
 10
0.0
 20
0.0
 30
0.0
  9
$UCSORGRIGHT
 10
0.0
 20
0.0
 30
0.0
  9
$UCSORGFRONT
 10
0.0
 20
0.0
 30
0.0
  9
$UCSORGBACK
 10
0.0
 20
0.0
 30
0.0
  9
$PUCSBASE
  2

  9
$PUCSNAME
  2

  9
$PUCSORG
 10
0.0
 20
0.0
 30
0.0
  9
$PUCSXDIR
 10
1.0
 20
0.0
 30
0.0
  9
$PUCSYDIR
 10
0.0
 20
1.0
 30
0.0
  9
$PUCSORTHOREF
  2

  9
$PUCSORTHOVIEW
 70
     0
  9
$PUCSORGTOP
 10
0.0
 20
0.0
 30
0.0
  9
$PUCSORGBOTTOM
 10
0.0
 20
0.0
 30
0.0
  9
$PUCSORGLEFT
 10
0.0
 20
0.0
 30
0.0
  9
$PUCSORGRIGHT
 10
0.0
 20
0.0
 30
0.0
  9
$PUCSORGFRONT
 10
0.0
 20
0.0
 30
0.0
  9
$PUCSORGBACK
 10
0.0
 20
0.0
 30
0.0
  9
$USERI1
 70
     0
  9
$USERI2
 70
     0
  9
$USERI3
 70
     0
  9
$USERI4
 70
     0
  9
$USERI5
 70
     0
  9
$USERR1
 40
0.0
  9
$USERR2
 40
0.0
  9
$USERR3
 40
0.0
  9
$USERR4
 40
0.0
  9
$USERR5
 40
0.0
  9
$WORLDVIEW
 70
     1
  9
$SHADEDGE
 70
     3
  9
$SHADEDIF
 70
    70
  9
$TILEMODE
 70
     1
  9
$MAXACTVP
 70
    64
  9
$PINSBASE
 10
0.0
 20
0.0
 30
0.0
  9
$PLIMCHECK
 70
     0
  9
$PEXTMIN
 10
1.000000E+20
 20
1.000000E+20
 30
1.000000E+20
  9
$PEXTMAX
 10
-1.000000E+20
 20
-1.000000E+20
 30
-1.000000E+20
  9
$PLIMMIN
 10
0.0
 20
0.0
  9
$PLIMMAX
 10
420.0
 20
297.0
  9
$UNITMODE
 70
     0
  9
$VISRETAIN
 70
     1
  9
$PLINEGEN
 70
     0
  9
$PSLTSCALE
 70
     1
  9
$TREEDEPTH
 70
  3020
  9
$CMLSTYLE
  2
Standard
  9
$CMLJUST
 70
     0
  9
$CMLSCALE
 40
20.0
  9
$PROXYGRAPHICS
 70
     1
  9
$MEASUREMENT
 70
     1
  9
$CELWEIGHT
370
    -1
  9
$ENDCAPS
280
     0
  9
$JOINSTYLE
280
     0
  9
$LWDISPLAY
290
     0
  9
$INSUNITS
 70
     4
  9
$HYPERLINKBASE
  1

  9
$STYLESHEET
  1

  9
$XEDIT
290
     1
  9
$CEPSNTYPE
380
     0
  9
$PSTYLEMODE
290
     1
  9
$FINGERPRINTGUID
  2
{E05A7940-D744-45FD-AF3D-9D7CECC6427E}
  9
$VERSIONGUID
  2
{FAEB1C32-E019-11D5-929B-00C0DF256EC4}
  9
$EXTNAMES
290
     1
  9
$PSVPSCALE
 40
0.0
  9
$OLESTARTUP
290
     0
  9
$SORTENTS
280
   127
  9
$INDEXCTL
280
     0
  9
$HIDETEXT
280
     1
  9
$XCLIPFRAME
280
     2
  9
$HALOGAP
280
     0
  9
$OBSCOLOR
 70
   257
  9
$OBSLTYPE
280
     0
  9
$INTERSECTIONDISPLAY
280
     0
  9
$INTERSECTIONCOLOR
 70
   257
  9
$DIMASSOC
280
     2
  9
$PROJECTNAME
  1

  9
$CAMERADISPLAY
290
     0
  9
$LENSLENGTH
 40
50.0
  9
$CAMERAHEIGHT
 40
0.0
  9
$STEPSPERSEC
 40
2.0
  9
$STEPSIZE
 40
6.0
  9
$3DDWFPREC
 40
2.0
  9
$PSOLWIDTH
 40
5.0
  9
$PSOLHEIGHT
 40
80.0
  9
$LOFTANG1
 40
1.570796
  9
$LOFTANG2
 40
1.570796
  9
$LOFTMAG1
 40
0.0
  9
$LOFTMAG2
 40
0.0
  9
$LOFTPARAM
 70
     7
  9
$LOFTNORMALS
280
     1
  9
$LATITUDE
 40
37.795
  9
$LONGITUDE
 40
-122.394
  9
$NORTHDIRECTION
 40
0.0
  9
$TIMEZONE
 70
 -8000
  9
$LIGHTGLYPHDISPLAY
280
     1
  9
$TILEMODELIGHTSYNCH
280
     1
  9
$CMATERIAL
347
44
  9
$SOLIDHIST
280
     0
  9
$SHOWHIST
280
     1
  9
$DWFFRAME
280
     2
  9
$DGNFRAME
280
     2
  9
$REALWORLDSCALE
290
     1
  9
$INTERFERECOLOR
 62
   256
  9
$CSHADOW
280
     0
  9
$SHADOWPLANELOCATION
 40
0.0
  0
ENDSEC
  0
SECTION
  2
CLASSES
  0
CLASS
  1
ACDBDICTIONARYWDFLT
  2
AcDbDictionaryWithDefault
  3
ObjectDBX Classes
 90
        0
 91
        4
280
     0
281
     0
  0
CLASS
  1
VISUALSTYLE
  2
AcDbVisualStyle
  3
ObjectDBX Classes
 90
     4095
 91
        4
280
     0
281
     0
  0
CLASS
  1
MATERIAL
  2
AcDbMaterial
  3
ObjectDBX Classes
 90
     1153
 91
        4
280
     0
281
     0
  0
CLASS
  1
SCALE
  2
AcDbScale
  3
ObjectDBX Classes
 90
     1153
 91
        4
280
     0
281
     0
  0
CLASS
  1
TABLESTYLE
  2
AcDbTableStyle
  3
ObjectDBX Classes
 90
     4095
 91
        4
280
     0
281
     0
  0
CLASS
  1
MLEADERSTYLE
  2
AcDbMLeaderStyle
  3
ACDB_MLEADERSTYLE_CLASS
 90
     4095
 91
        4
280
     0
281
     0
  0
CLASS
  1
SUN
  2
AcDbSun
  3
SCENEOE
 90
     1153
 91
        4
280
     0
281
     0
  0
CLASS
  1
DICTIONARYVAR
  2
AcDbDictionaryVar
  3
ObjectDBX Classes
 90
        0
 91
        4
280
     0
281
     0
  0
CLASS
  1
CELLSTYLEMAP
  2
AcDbCellStyleMap
  3
ObjectDBX Classes
 90
     1152
 91
        4
280
     0
281
     0
  0
ENDSEC
  0
SECTION
  2
TABLES
  0
TABLE
  2
VPORT
  5
8
330
0
100
AcDbSymbolTable
 70
     1
  0
VPORT
  5
29
330
8
100
AcDbSymbolTableRecord
100
AcDbViewportTableRecord
  2
*Active
 70
     0
 10
0.0
 20
0.0
 11
1.0
 21
1.0
 12
344.186916
 22
148.5
 13
0.0
 23
0.0
 14
10.0
 24
10.0
 15
10.0
 25
10.0
 16
0.0
 26
0.0
 36
1.0
 17
0.0
 27
0.0
 37
0.0
 40
297.0
 41
1.972973
 42
50.0
 43
0.0
 44
0.0
 50
0.0
 51
0.0
 71
     0
 72
   100
 73
     1
 74
     3
 75
     0
 76
     0
 77
     0
 78
     0
281
     0
 65
     1
110
0.0
120
0.0
130
0.0
111
1.0
121
0.0
131
0.0
112
0.0
122
1.0
132
0.0
 79
     0
146
0.0
348
2F
 60
     3
 61
     5
292
     1
282
     1
141
0.0
142
0.0
 63
   250
361
6D
  0
ENDTAB
  0
TABLE
  2
LTYPE
  5
5
330
0
100
AcDbSymbolTable
 70
     1
  0
LTYPE
  5
14
330
5
100
AcDbSymbolTableRecord
100
AcDbLinetypeTableRecord
  2
ByBlock
 70
     0
  3

 72
    65
 73
     0
 40
0.0
  0
LTYPE
  5
15
330
5
100
AcDbSymbolTableRecord
100
AcDbLinetypeTableRecord
  2
ByLayer
 70
     0
  3

 72
    65
 73
     0
 40
0.0
  0
LTYPE
  5
16
330
5
100
AcDbSymbolTableRecord
100
AcDbLinetypeTableRecord
  2
Continuous
 70
     0
  3
Solid line
 72
    65
 73
     0
 40
0.0
  0
ENDTAB
  0
TABLE
  2
LAYER
  5
2
330
0
100
AcDbSymbolTable
 70
     1
  0
LAYER
  5
10
330
2
100
AcDbSymbolTableRecord
100
AcDbLayerTableRecord
  2
0
 70
     0
 62
   106
  6
Continuous
370
     0
390
F
347
46
  0
ENDTAB
  0
TABLE
  2
STYLE
  5
3
330
0
100
AcDbSymbolTable
 70
     4
  0
STYLE
  5
11
330
3
100
AcDbSymbolTableRecord
100
AcDbTextStyleTableRecord
  2
Standard
 70
     0
 40
0.0
 41
1.0
 50
0.0
 71
     0
 42
2.5
  3
txt
  4

  0
STYLE
  5
6E
330
3
100
AcDbSymbolTableRecord
100
AcDbTextStyleTableRecord
  2
Default
 70
     0
 40
0.0
 41
1.0
 50
0.0
 71
     0
 42
2.5
  3

  4

1001
ACAD
1000
txt
1071
        0
  0
STYLE
  5
6F
330
3
100
AcDbSymbolTableRecord
100
AcDbTextStyleTableRecord
  2
ISO
 70
     0
 40
0.0
 41
1.0
 50
0.0
 71
     0
 42
2.5
  3

  4

1001
ACAD
1000
txt
1071
        0
  0
STYLE
  5
70
330
3
100
AcDbSymbolTableRecord
100
AcDbTextStyleTableRecord
  2
zucchetti
 70
     0
 40
0.0
 41
1.0
 50
0.0
 71
     0
 42
2.5
  3

  4

1001
ACAD
1000
Arial
1071
        0
  0
ENDTAB
  0
TABLE
  2
VIEW
  5
6
330
0
100
AcDbSymbolTable
 70
     0
  0
ENDTAB
  0
TABLE
  2
UCS
  5
7
330
0
100
AcDbSymbolTable
 70
     0
  0
ENDTAB
  0
TABLE
  2
APPID
  5
9
330
0
100
AcDbSymbolTable
 70
     1
  0
APPID
  5
12
330
9
100
AcDbSymbolTableRecord
100
AcDbRegAppTableRecord
  2
ACAD
 70
     0
  0
ENDTAB
  0
TABLE
  2
DIMSTYLE
  5
A
330
0
100
AcDbSymbolTable
 70
     4
100
AcDbDimStyleTable
  0
DIMSTYLE
105
27
330
A
100
AcDbSymbolTableRecord
100
AcDbDimStyleTableRecord
  2
ISO-25
 70
     0
 41
2.5
 42
0.625
 43
3.75
 44
1.25
 73
     0
 74
     0
 77
     1
 78
     8
140
2.5
141
2.5
143
0.03937
147
0.625
171
     3
172
     1
178
     0
271
     2
272
     2
274
     3
278
    44
283
     0
284
     8
340
11
  0
DIMSTYLE
105
71
330
A
100
AcDbSymbolTableRecord
100
AcDbDimStyleTableRecord
  2
Default
 70
     0
  3
<>
 41
4.375
 42
1.05
 44
2.1
 49
10.01
 73
     0
 74
     0
 77
     1
 78
     8
140
3.5
146
0.4
147
1.75
172
     1
271
     2
178
     3
271
     2
272
     3
284
     8
340
6E
341
72
342
72
  0
DIMSTYLE
105
79
330
A
100
AcDbSymbolTableRecord
100
AcDbDimStyleTableRecord
  2
ISO
 70
     0
  3
<>
 41
4.375
 42
1.05
 44
2.1
 49
10.01
 73
     0
 74
     0
 77
     1
 78
     8
140
3.5
146
0.4
147
1.75
172
     1
271
     2
178
     3
271
     2
272
     3
284
     8
340
6F
341
72
342
72
  0
DIMSTYLE
105
7A
330
A
100
AcDbSymbolTableRecord
100
AcDbDimStyleTableRecord
  2
zucchetti
 70
     0
  3
<>
 41
3.0
 42
0.9
 44
1.8
 49
8.58
 73
     0
 74
     0
 77
     1
 78
     8
140
3.0
146
0.6
147
1.5
172
     1
176
     3
177
     3
271
     2
178
     3
271
     2
272
     2
284
     8
340
70
  0
ENDTAB
  0
TABLE
  2
BLOCK_RECORD
  5
1
330
0
100
AcDbSymbolTable
 70
     6
  0
BLOCK_RECORD
  5
1F
330
1
100
AcDbSymbolTableRecord
100
AcDbBlockTableRecord
  2
*Model_Space
340
22
 70
     0
280
     1
281
     0
  0
BLOCK_RECORD
  5
1B
330
1
100
AcDbSymbolTableRecord
100
AcDbBlockTableRecord
  2
*Paper_Space
340
1E
 70
     0
280
     1
281
     0
  0
BLOCK_RECORD
  5
23
330
1
100
AcDbSymbolTableRecord
100
AcDbBlockTableRecord
  2
*Paper_Space0
340
26
 70
     0
280
     1
281
     0
  0
BLOCK_RECORD
  5
72
330
1
100
AcDbSymbolTableRecord
100
AcDbBlockTableRecord
  2
_CLOSED
340
0
 70
     0
280
     1
281
     0
  0
BLOCK_RECORD
  5
7B
330
1
100
AcDbSymbolTableRecord
100
AcDbBlockTableRecord
  2
a
340
0
102
{BLKREFS
331
12E
102
}
 70
     0
280
     1
281
     0
  0
BLOCK_RECORD
  5
12F
330
1
100
AcDbSymbolTableRecord
100
AcDbBlockTableRecord
  2
b
340
0
102
{BLKREFS
331
18D
102
}
 70
     0
280
     1
281
     0
  0
BLOCK_RECORD
  5
18E
330
1
100
AcDbSymbolTableRecord
100
AcDbBlockTableRecord
  2
c
340
0
102
{BLKREFS
331
1F9
102
}
 70
     0
280
     1
281
     0
  0
BLOCK_RECORD
  5
1FA
330
1
100
AcDbSymbolTableRecord
100
AcDbBlockTableRecord
  2
d
340
0
102
{BLKREFS
331
266
102
}
 70
     0
280
     1
281
     0
  0
ENDTAB
  0
ENDSEC
  0
SECTION
  2
BLOCKS
  0
BLOCK
  5
20
330
1F
100
AcDbEntity
  8
0
100
AcDbBlockBegin
  2
*Model_Space
 70
     0
 10
0.0
 20
0.0
 30
0.0
  3
*Model_Space
  1

  0
ENDBLK
  5
21
330
1F
100
AcDbEntity
  8
0
100
AcDbBlockEnd
  0
BLOCK
  5
1C
330
1B
100
AcDbEntity
 67
     1
  8
0
100
AcDbBlockBegin
  2
*Paper_Space
 70
     0
 10
0.0
 20
0.0
 30
0.0
  3
*Paper_Space
  1

  0
ENDBLK
  5
1D
330
1B
100
AcDbEntity
 67
     1
  8
0
100
AcDbBlockEnd
  0
BLOCK
  5
24
330
23
100
AcDbEntity
  8
0
100
AcDbBlockBegin
  2
*Paper_Space0
 70
     0
 10
0.0
 20
0.0
 30
0.0
  3
*Paper_Space0
  1

  0
ENDBLK
  5
25
330
23
100
AcDbEntity
  8
0
100
AcDbBlockEnd
  0
BLOCK
  5
73
330
72
100
AcDbEntity
  8
0
100
AcDbBlockBegin
  2
_CLOSED
 70
     0
 10
0.0
 20
0.0
 30
0.0
  3
_CLOSED
  1

  0
LINE
  5
75
330
72
100
AcDbEntity
  8
0
  6
ByBlock
 62
     0
370
    -2
100
AcDbLine
 10
-1.0
 20
0.166667
 30
0.0
 11
0.0
 21
0.0
 31
0.0
  0
LINE
  5
76
330
72
100
AcDbEntity
  8
0
  6
ByBlock
 62
     0
370
    -2
100
AcDbLine
 10
0.0
 20
0.0
 30
0.0
 11
-1.0
 21
-0.166667
 31
0.0
  0
LINE
  5
77
330
72
100
AcDbEntity
  8
0
  6
ByBlock
 62
     0
370
    -2
100
AcDbLine
 10
-1.0
 20
0.166667
 30
0.0
 11
-1.0
 21
-0.166667
 31
0.0
  0
LINE
  5
78
330
72
100
AcDbEntity
  8
0
  6
ByBlock
 62
     0
370
    -2
100
AcDbLine
 10
0.0
 20
0.0
 30
0.0
 11
-1.0
 21
0.0
 31
0.0
  0
ENDBLK
  5
74
330
72
100
AcDbEntity
  8
0
100
AcDbBlockEnd
  0
BLOCK
  5
12C
330
7B
100
AcDbEntity
  8
0
100
AcDbBlockBegin
  2
a
 70
     0
 10
266.940338
 20
79.445274
 30
0.0
  3
a
  1

  0
ARC
  5
7C
330
7B
100
AcDbEntity
  8
0
  6
Continuous
 62
     0
370
     0
100
AcDbCircle
 10
395.813535
 20
352.395484
 30
0.0
 40
0.7000135584183457
100
AcDbArc
 50
270.001896
 51
359.998104
  0
LINE
  5
7D
330
7B
100
AcDbEntity
  8
0
  6
Continuous
 62
     0
370
     0
100
AcDbLine
 10
395.813558
 20
351.69547
 30
0.0
 11
395.866985
 21
351.642043
 31
0.0
  0
ARC
  5
7E
330
7B
100
AcDbEntity
  8
0
  6
Continuous
 62
     0
370
    30
100
AcDbCircle
 10
395.867582
 20
352.341437
 30
0.0
 40
0.699393700177783
100
AcDbArc
 50
269.951097
 51
0.048903
  0
LINE
  5
7F
330
7B
100
AcDbEntity
  8
0
  6
Continuous
 62
     0
370
     0
100
AcDbLine
 10
396.566975
 20
352.342034
 30
0.0
 11
396.513548
 21
352.39546
 31
0.0
  0
LINE
  5
80
330
7B
100
AcDbEntity
  8
0
  6
Continuous
 62
     0
370
     0
100
AcDbLine
 10
295.706247
 20
352.39546
 30
0.0
 11
295.706247
 21
351.69547
 31
0.0
  0
LINE
  5
81
330
7B
100
AcDbEntity
  8
0
  6
Continuous
 62
     0
370
     0
100
AcDbLine
 10
295.706247
 20
351.69547
 30
0.0
 11
395.813558
 21
351.69547
 31
0.0
  0
LINE
  5
82
330
7B
100
AcDbEntity
  8
0
  6
Continuous
 62
     0
370
     0
100
AcDbLine
 10
395.813558
 20
351.69547
 30
0.0
 11
395.813558
 21
352.39546
 31
0.0
  0
LINE
  5
83
330
7B
100
AcDbEntity
  8
0
  6
Continuous
 62
     0
370
     0
100
AcDbLine
 10
395.813558
 20
352.39546
 30
0.0
 11
295.706247
 21
352.39546
 31
0.0
  0
LINE
  5
84
330
7B
100
AcDbEntity
  8
0
  6
Continuous
 62
     0
370
     0
100
AcDbLine
 10
395.813558
 20
469.502772
 30
0.0
 11
395.813558
 21
352.39546
 31
0.0
  0
LINE
  5
85
330
7B
100
AcDbEntity
  8
0
  6
Continuous
 62
     0
370
     0
100
AcDbLine
 10
395.813558
 20
352.39546
 30
0.0
 11
396.513548
 21
352.39546
 31
0.0
  0
LINE
  5
86
330
7B
100
AcDbEntity
  8
0
  6
Continuous
 62
     0
370
     0
100
AcDbLine
 10
396.513548
 20
352.39546
 30
0.0
 11
396.513548
 21
469.502772
 31
0.0
  0
LINE
  5
87
330
7B
100
AcDbEntity
  8
0
  6
Continuous
 62
     0
370
     0
100
AcDbLine
 10
396.513548
 20
469.502772
 30
0.0
 11
395.813558
 21
469.502772
 31
0.0
  0
LINE
  5
88
330
7B
100
AcDbEntity
  8
0
  6
Continuous
 62
     0
370
     0
100
AcDbLine
 10
396.513548
 20
469.502772
 30
0.0
 11
396.566975
 21
469.556198
 31
0.0
  0
ARC
  5
89
330
7B
100
AcDbEntity
  8
0
  6
Continuous
 62
     0
370
    30
100
AcDbCircle
 10
395.867582
 20
469.556795
 30
0.0
 40
0.6993937000953487
100
AcDbArc
 50
359.951097
 51
90.048903
  0
LINE
  5
8A
330
7B
100
AcDbEntity
  8
0
  6
Continuous
 62
     0
370
     0
100
AcDbLine
 10
395.866985
 20
470.256189
 30
0.0
 11
395.813558
 21
470.202762
 31
0.0
  0
ARC
  5
8B
330
7B
100
AcDbEntity
  8
0
  6
Continuous
 62
     0
370
     0
100
AcDbCircle
 10
395.813535
 20
469.502749
 30
0.0
 40
0.7000135584171484
100
AcDbArc
 50
0.001896
 51
89.998104
  0
LINE
  5
8C
330
7B
100
AcDbEntity
  8
0
  6
Continuous
 62
     0
370
     0
100
AcDbLine
 10
295.706247
 20
469.502772
 30
0.0
 11
395.813558
 21
469.502772
 31
0.0
  0
LINE
  5
8D
330
7B
100
AcDbEntity
  8
0
  6
Continuous
 62
     0
370
     0
100
AcDbLine
 10
395.813558
 20
469.502772
 30
0.0
 11
395.813558
 21
470.202762
 31
0.0
  0
LINE
  5
8E
330
7B
100
AcDbEntity
  8
0
  6
Continuous
 62
     0
370
     0
100
AcDbLine
 10
395.813558
 20
470.202762
 30
0.0
 11
295.706247
 21
470.202762
 31
0.0
  0
LINE
  5
8F
330
7B
100
AcDbEntity
  8
0
  6
Continuous
 62
     0
370
     0
100
AcDbLine
 10
295.706247
 20
470.202762
 30
0.0
 11
295.706247
 21
469.502772
 31
0.0
  0
LINE
  5
90
330
7B
100
AcDbEntity
  8
0
  6
Continuous
 62
     0
370
     0
100
AcDbLine
 10
295.006256
 20
352.39546
 30
0.0
 11
294.952829
 21
352.342034
 31
0.0
  0
ARC
  5
91
330
7B
100
AcDbEntity
  8
0
  6
Continuous
 62
     0
370
    30
100
AcDbCircle
 10
295.652223
 20
352.341437
 30
0.0
 40
0.6993937000974608
100
AcDbArc
 50
179.951097
 51
270.048903
  0
LINE
  5
92
330
7B
100
AcDbEntity
  8
0
  6
Continuous
 62
     0
370
     0
100
AcDbLine
 10
295.65282
 20
351.642043
 30
0.0
 11
295.706247
 21
351.69547
 31
0.0
  0
ARC
  5
93
330
7B
100
AcDbEntity
  8
0
  6
Continuous
 62
     0
370
     0
100
AcDbCircle
 10
295.70627
 20
352.395484
 30
0.0
 40
0.7000135584181183
100
AcDbArc
 50
180.001896
 51
269.998104
  0
LINE
  5
94
330
7B
100
AcDbEntity
  8
0
  6
Continuous
 62
     0
370
     0
100
AcDbLine
 10
295.706247
 20
469.502772
 30
0.0
 11
295.006256
 21
469.502772
 31
0.0
  0
LINE
  5
95
330
7B
100
AcDbEntity
  8
0
  6
Continuous
 62
     0
370
     0
100
AcDbLine
 10
295.006256
 20
469.502772
 30
0.0
 11
295.006256
 21
352.39546
 31
0.0
  0
LINE
  5
96
330
7B
100
AcDbEntity
  8
0
  6
Continuous
 62
     0
370
     0
100
AcDbLine
 10
295.006256
 20
352.39546
 30
0.0
 11
295.706247
 21
352.39546
 31
0.0
  0
LINE
  5
97
330
7B
100
AcDbEntity
  8
0
  6
Continuous
 62
     0
370
     0
100
AcDbLine
 10
295.706247
 20
352.39546
 30
0.0
 11
295.706247
 21
469.502772
 31
0.0
  0
ARC
  5
98
330
7B
100
AcDbEntity
  8
0
  6
Continuous
 62
     0
370
     0
100
AcDbCircle
 10
295.70627
 20
469.502749
 30
0.0
 40
0.7000135584175284
100
AcDbArc
 50
90.001896
 51
179.998104
  0
LINE
  5
99
330
7B
100
AcDbEntity
  8
0
  6
Continuous
 62
     0
370
     0
100
AcDbLine
 10
295.706247
 20
470.202762
 30
0.0
 11
295.65282
 21
470.256189
 31
0.0
  0
ARC
  5
9A
330
7B
100
AcDbEntity
  8
0
  6
Continuous
 62
     0
370
    30
100
AcDbCircle
 10
295.652223
 20
469.556795
 30
0.0
 40
0.6993937001768105
100
AcDbArc
 50
89.951097
 51
180.048903
  0
LINE
  5
9B
330
7B
100
AcDbEntity
  8
0
  6
Continuous
 62
     0
370
     0
100
AcDbLine
 10
294.952829
 20
469.556198
 30
0.0
 11
295.006256
 21
469.502772
 31
0.0
  0
LINE
  5
9C
330
7B
100
AcDbEntity
  8
0
  6
Continuous
 62
     0
370
    30
100
AcDbLine
 10
396.566975
 20
352.342034
 30
0.0
 11
396.566975
 21
469.556198
 31
0.0
  0
LINE
  5
9D
330
7B
100
AcDbEntity
  8
0
  6
Continuous
 62
     0
370
    30
100
AcDbLine
 10
395.866985
 20
470.256189
 30
0.0
 11
295.65282
 21
470.256189
 31
0.0
  0
LINE
  5
9E
330
7B
100
AcDbEntity
  8
0
  6
Continuous
 62
     0
370
    30
100
AcDbLine
 10
295.65282
 20
351.642043
 30
0.0
 11
395.866985
 21
351.642043
 31
0.0
  0
LWPOLYLINE
  5
9F
330
7B
100
AcDbEntity
  8
0
  6
Continuous
 62
     0
370
     0
100
AcDbPolyline
 90
       55
 70
     0
 43
0.0
 10
345.759918
 20
351.681976
 10
346.244843
 20
351.681671
 10
346.495422
 20
351.681274
 10
346.678711
 20
351.680878
 10
346.827148
 20
351.68045
 10
346.952789
 20
351.680054
 10
347.061981
 20
351.679626
 10
347.158447
 20
351.67923
 10
347.244568
 20
351.678802
 10
347.322021
 20
351.678375
 10
347.391968
 20
351.677979
 10
347.455353
 20
351.677551
 10
347.512848
 20
351.677124
 10
347.565002
 20
351.676727
 10
347.612274
 20
351.6763
 10
347.655029
 20
351.675873
 10
347.693542
 20
351.675446
 10
347.728058
 20
351.675049
 10
347.758789
 20
351.674622
 10
347.785889
 20
351.674194
 10
347.809509
 20
351.673767
 10
347.829742
 20
351.67337
 10
347.846741
 20
351.672943
 10
347.860565
 20
351.672516
 10
347.871246
 20
351.672089
 10
347.878845
 20
351.671692
 10
347.883392
 20
351.671265
 10
347.884888
 20
351.670837
 10
347.883392
 20
351.67041
 10
347.878876
 20
351.670013
 10
347.871307
 20
351.669586
 10
347.860657
 20
351.669159
 10
347.846863
 20
351.668732
 10
347.829895
 20
351.668335
 10
347.809662
 20
351.667908
 10
347.786072
 20
351.66748
 10
347.759003
 20
351.667053
 10
347.728302
 20
351.666656
 10
347.693817
 20
351.666229
 10
347.655334
 20
351.665802
 10
347.61261
 20
351.665405
 10
347.565399
 20
351.664978
 10
347.513275
 20
351.664551
 10
347.45578
 20
351.664124
 10
347.392456
 20
351.663727
 10
347.322571
 20
351.6633
 10
347.245178
 20
351.662872
 10
347.159119
 20
351.662476
 10
347.062744
 20
351.662048
 10
346.953674
 20
351.661652
 10
346.828156
 20
351.661224
 10
346.679932
 20
351.660797
 10
346.496979
 20
351.6604
 10
346.247131
 20
351.660004
 10
345.759918
 20
351.659729
  0
LWPOLYLINE
  5
A0
330
7B
100
AcDbEntity
  8
0
  6
Continuous
 62
     0
370
     0
100
AcDbPolyline
 90
       55
 70
     0
 43
0.0
 10
345.759918
 20
351.659729
 10
345.274994
 20
351.660004
 10
345.024384
 20
351.6604
 10
344.841095
 20
351.660797
 10
344.692688
 20
351.661224
 10
344.567017
 20
351.661621
 10
344.457825
 20
351.662048
 10
344.361359
 20
351.662476
 10
344.275238
 20
351.662872
 10
344.197784
 20
351.6633
 10
344.127838
 20
351.663727
 10
344.064484
 20
351.664124
 10
344.006958
 20
351.664551
 10
343.954803
 20
351.664978
 10
343.907532
 20
351.665375
 10
343.864777
 20
351.665802
 10
343.826263
 20
351.666229
 10
343.791748
 20
351.666656
 10
343.761047
 20
351.667053
 10
343.733948
 20
351.66748
 10
343.710297
 20
351.667908
 10
343.690063
 20
351.668335
 10
343.673065
 20
351.668732
 10
343.659241
 20
351.669159
 10
343.64859
 20
351.669586
 10
343.640991
 20
351.670013
 10
343.636414
 20
351.67041
 10
343.634918
 20
351.670837
 10
343.636414
 20
351.671265
 10
343.64093
 20
351.671692
 10
343.648499
 20
351.672089
 10
343.659149
 20
351.672516
 10
343.672943
 20
351.672943
 10
343.689911
 20
351.67337
 10
343.710144
 20
351.673767
 10
343.733734
 20
351.674194
 10
343.760803
 20
351.674622
 10
343.791504
 20
351.675049
 10
343.825989
 20
351.675446
 10
343.864471
 20
351.675873
 10
343.907196
 20
351.6763
 10
343.954407
 20
351.676697
 10
344.006531
 20
351.677124
 10
344.064026
 20
351.677551
 10
344.12735
 20
351.677979
 10
344.197235
 20
351.678375
 10
344.274628
 20
351.678802
 10
344.360657
 20
351.67923
 10
344.457062
 20
351.679626
 10
344.566132
 20
351.680054
 10
344.69165
 20
351.68045
 10
344.839874
 20
351.680878
 10
345.022797
 20
351.681274
 10
345.272644
 20
351.681671
 10
345.759918
 20
351.681976
  0
LINE
  5
A1
330
7B
100
AcDbEntity
  8
0
  6
Continuous
 62
     0
370
    30
100
AcDbLine
 10
294.952829
 20
469.556198
 30
0.0
 11
294.952829
 21
352.342034
 31
0.0
  0
LINE
  5
A2
330
7B
100
AcDbEntity
  8
0
  6
Continuous
 62
     0
370
    30
100
AcDbLine
 10
345.759922
 20
440.27912
 30
0.0
 11
341.809922
 21
440.27912
 31
0.0
  0
LINE
  5
A3
330
7B
100
AcDbEntity
  8
0
  6
Continuous
 62
     0
370
    30
100
AcDbLine
 10
349.709922
 20
440.27912
 30
0.0
 11
345.759922
 21
440.27912
 31
0.0
  0
LWPOLYLINE
  5
A4
330
7B
100
AcDbEntity
  8
0
  6
Continuous
 62
     0
370
    30
100
AcDbPolyline
 90
        7
 70
     0
 43
0.0
 10
348.48111
 20
432.780182
 10
348.838257
 20
432.733887
 10
349.140381
 20
432.689453
 10
349.382629
 20
432.649933
 10
349.560699
 20
432.618469
 10
349.670319
 20
432.598206
 10
349.709625
 20
432.590729
  0
LWPOLYLINE
  5
A5
330
7B
100
AcDbEntity
  8
0
  6
Continuous
 62
     0
370
    30
100
AcDbPolyline
 90
        3
 70
     0
 43
0.0
 10
345.759918
 20
432.949127
 10
345.873138
 20
432.949646
 10
346.885376
 20
432.920227
  0
LWPOLYLINE
  5
A6
330
7B
100
AcDbEntity
  8
0
  6
Continuous
 62
     0
370
    30
100
AcDbPolyline
 90
        3
 70
     0
 43
0.0
 10
344.613525
 20
432.919159
 10
344.753448
 20
432.926483
 10
345.759918
 20
432.949127
  0
LWPOLYLINE
  5
A7
330
7B
100
AcDbEntity
  8
0
  6
Continuous
 62
     0
370
    30
100
AcDbPolyline
 90
        8
 70
     0
 43
0.0
 10
341.810242
 20
432.590759
 10
341.849121
 20
432.598175
 10
341.96582
 20
432.61969
 10
342.157867
 20
432.653442
 10
342.420349
 20
432.69574
 10
342.74823
 20
432.742981
 10
343.13559
 20
432.791687
 10
343.577271
 20
432.839142
  0
LINE
  5
A8
330
7B
100
AcDbEntity
  8
0
  6
Continuous
 62
     0
370
    30
100
AcDbLine
 10
345.759922
 20
440.779119
 30
0.0
 11
349.209969
 21
440.779119
 31
0.0
  0
LINE
  5
A9
330
7B
100
AcDbEntity
  8
0
  6
Continuous
 62
     0
370
    30
100
AcDbLine
 10
342.309875
 20
440.779119
 30
0.0
 11
345.759922
 21
440.779119
 31
0.0
  0
ARC
  5
AA
330
7B
100
AcDbEntity
  8
0
  6
Continuous
 62
     0
370
    30
100
AcDbCircle
 10
345.760218
 20
410.94912
 30
0.0
 40
21.50000000203893
100
AcDbArc
 50
269.999211
 51
90.000789
  0
ARC
  5
AB
330
7B
100
AcDbEntity
  8
0
  6
Continuous
 62
     0
370
    30
100
AcDbCircle
 10
345.759629
 20
410.94912
 30
0.0
 40
21.50000000199058
100
AcDbArc
 50
89.99922
 51
270.00078
  0
LWPOLYLINE
  5
AC
330
7B
100
AcDbEntity
  8
0
  6
Continuous
 62
     0
370
    30
100
AcDbPolyline
 90
       54
 70
     0
 43
0.0
 10
345.759918
 20
388.949127
 10
347.06076
 20
388.988647
 10
348.358948
 20
389.105988
 10
349.649658
 20
389.299835
 10
350.92688
 20
389.568939
 10
352.185242
 20
389.91217
 10
353.420563
 20
390.328583
 10
354.628815
 20
390.817291
 10
355.80603
 20
391.377319
 10
356.94812
 20
392.006897
 10
358.050842
 20
392.703094
 10
359.110016
 20
393.462891
 10
360.121521
 20
394.283417
 10
361.081818
 20
395.161987
 10
361.987854
 20
396.096161
 10
362.837189
 20
397.082886
 10
363.627594
 20
398.118713
 10
364.356262
 20
399.199829
 10
365.020233
 20
400.322266
 10
365.616516
 20
401.482056
 10
366.142456
 20
402.67514
 10
366.596619
 20
403.897247
 10
366.977722
 20
405.144043
 10
367.284576
 20
406.411224
 10
367.516083
 20
407.694366
 10
367.671356
 20
408.988922
 10
367.749573
 20
410.290314
 10
367.749939
 20
411.594025
 10
367.672485
 20
412.895508
 10
367.517975
 20
414.190125
 10
367.287262
 20
415.473419
 10
366.981232
 20
416.740784
 10
366.600983
 20
417.987854
 10
366.147705
 20
419.210266
 10
365.62265
 20
420.403748
 10
365.027252
 20
421.563995
 10
364.364075
 20
422.68692
 10
363.636139
 20
423.768555
 10
362.846344
 20
424.80484
 10
361.997467
 20
425.791962
 10
361.091736
 20
426.72644
 10
360.131683
 20
427.605286
 10
359.120453
 20
428.426086
 10
358.061646
 20
429.18634
 10
356.959351
 20
429.883209
 10
355.81781
 20
430.513733
 10
354.641174
 20
431.075073
 10
353.433502
 20
431.565277
 10
352.1987
 20
431.983185
 10
350.940704
 20
432.327606
 10
349.663666
 20
432.597412
 10
348.372986
 20
432.791565
 10
347.074768
 20
432.909088
 10
345.759918
 20
432.949127
  0
LWPOLYLINE
  5
AD
330
7B
100
AcDbEntity
  8
0
  6
Continuous
 62
     0
370
    30
100
AcDbPolyline
 90
       54
 70
     0
 43
0.0
 10
345.759918
 20
432.949127
 10
344.459045
 20
432.909943
 10
343.160797
 20
432.793243
 10
341.869995
 20
432.599915
 10
340.592773
 20
432.330902
 10
339.334564
 20
431.987274
 10
338.099487
 20
431.57016
 10
336.891479
 20
431.080719
 10
335.714478
 20
430.520142
 10
334.57254
 20
429.89032
 10
333.469818
 20
429.194183
 10
332.410522
 20
428.43457
 10
331.398743
 20
427.61441
 10
330.438141
 20
426.736206
 10
329.53183
 20
425.802277
 10
328.682312
 20
424.815704
 10
327.891876
 20
423.779938
 10
327.163239
 20
422.698761
 10
326.499359
 20
421.576263
 10
325.903229
 20
420.416412
 10
325.377411
 20
419.223267
 10
324.92337
 20
418.001129
 10
324.542297
 20
416.754303
 10
324.235474
 20
415.487122
 10
324.003967
 20
414.203979
 10
323.848633
 20
412.909454
 10
323.770325
 20
411.608032
 10
323.769836
 20
410.304321
 10
323.84726
 20
409.002869
 10
324.001709
 20
407.708221
 10
324.232391
 20
406.424927
 10
324.538422
 20
405.157562
 10
324.918762
 20
403.910522
 10
325.372101
 20
402.688141
 10
325.897308
 20
401.49472
 10
326.492828
 20
400.334534
 10
327.156097
 20
399.21167
 10
327.884094
 20
398.130096
 10
328.673828
 20
397.09375
 10
329.522552
 20
396.106506
 10
330.428009
 20
395.171753
 10
331.387726
 20
394.292572
 10
332.398682
 20
393.471405
 10
333.457397
 20
392.710907
 10
334.559662
 20
392.014038
 10
335.701324
 20
391.383728
 10
336.878204
 20
390.822937
 10
338.086151
 20
390.333466
 10
339.321198
 20
389.91626
 10
340.579346
 20
389.572235
 10
341.856384
 20
389.302338
 10
343.146973
 20
389.107666
 10
344.445099
 20
388.989502
 10
345.759918
 20
388.949127
  0
ARC
  5
AE
330
7B
100
AcDbEntity
  8
0
  6
Continuous
 62
     0
370
    30
100
AcDbCircle
 10
345.759922
 20
410.94912
 30
0.0
 40
22.0
100
AcDbArc
 50
45.723999
 51
79.26029
  0
ARC
  5
AF
330
7B
100
AcDbEntity
  8
0
  6
Continuous
 62
     0
370
    30
100
AcDbCircle
 10
345.759922
 20
410.94912
 30
0.0
 40
21.99999999999999
100
AcDbArc
 50
100.739738
 51
134.27604
  0
LWPOLYLINE
  5
B0
330
7B
100
AcDbEntity
  8
0
  6
Continuous
 62
     0
370
    30
100
AcDbPolyline
 90
       14
 70
     0
 43
0.0
 10
341.010193
 20
389.467957
 10
341.045258
 20
389.460266
 10
341.148804
 20
389.437714
 10
341.31839
 20
389.401978
 10
341.551331
 20
389.355377
 10
341.844818
 20
389.300323
 10
342.194
 20
389.240021
 10
342.593475
 20
389.178162
 10
343.039917
 20
389.11792
 10
343.527222
 20
389.062714
 10
344.045471
 20
389.016022
 10
344.592041
 20
388.980255
 10
345.156708
 20
388.957428
 10
345.759918
 20
388.949127
  0
LWPOLYLINE
  5
B1
330
7B
100
AcDbEntity
  8
0
  6
Continuous
 62
     0
370
    30
100
AcDbPolyline
 90
       14
 70
     0
 43
0.0
 10
345.759918
 20
388.949127
 10
346.330627
 20
388.956543
 10
346.895935
 20
388.978607
 10
347.443909
 20
389.013641
 10
347.963837
 20
389.059784
 10
348.453094
 20
389.114594
 10
348.9021
 20
389.174652
 10
349.304352
 20
389.236511
 10
349.656525
 20
389.296997
 10
349.953369
 20
389.352448
 10
350.18985
 20
389.399597
 10
350.363098
 20
389.436005
 10
350.47052
 20
389.459351
 10
350.509644
 20
389.467957
  0
LWPOLYLINE
  5
B2
330
7B
100
AcDbEntity
  8
0
  6
Continuous
 62
     0
370
    30
100
AcDbPolyline
 90
       13
 70
     0
 43
0.0
 10
349.859558
 20
432.563751
 10
349.824188
 20
432.570435
 10
349.719635
 20
432.589905
 10
349.548706
 20
432.620514
 10
349.314148
 20
432.660126
 10
349.019531
 20
432.706299
 10
348.670807
 20
432.755707
 10
348.27301
 20
432.805115
 10
347.830414
 20
432.851471
 10
347.353882
 20
432.891327
 10
346.848114
 20
432.922119
 10
346.32196
 20
432.941895
 10
345.759949
 20
432.949127
  0
LWPOLYLINE
  5
B3
330
7B
100
AcDbEntity
  8
0
  6
Continuous
 62
     0
370
    30
100
AcDbPolyline
 90
       13
 70
     0
 43
0.0
 10
345.759949
 20
432.949127
 10
345.226868
 20
432.942627
 10
344.700043
 20
432.923492
 10
344.19281
 20
432.89325
 10
343.71463
 20
432.853821
 10
343.269867
 20
432.80777
 10
342.869476
 20
432.758423
 10
342.517975
 20
432.708923
 10
342.220215
 20
432.662476
 10
341.98233
 20
432.622467
 10
341.807892
 20
432.591339
 10
341.699677
 20
432.571198
 10
341.660278
 20
432.563751
  0
LINE
  5
B4
330
7B
100
AcDbEntity
  8
0
  6
Continuous
 62
     0
370
    30
100
AcDbLine
 10
349.209849
 20
440.779212
 30
0.0
 11
349.70998
 21
440.279083
 31
0.0
  0
LINE
  5
B5
330
7B
100
AcDbEntity
  8
0
  6
Continuous
 62
     0
370
    30
100
AcDbLine
 10
341.809864
 20
440.279083
 30
0.0
 11
342.309995
 21
440.779212
 31
0.0
  0
LINE
  5
B6
330
7B
100
AcDbEntity
  8
0
  6
Continuous
 62
     0
370
    30
100
AcDbLine
 10
341.809922
 20
440.27912
 30
0.0
 11
341.809922
 21
432.590602
 31
0.0
  0
LINE
  5
B7
330
7B
100
AcDbEntity
  8
0
  6
Continuous
 62
     0
370
    30
100
AcDbLine
 10
349.709922
 20
440.27912
 30
0.0
 11
349.709922
 21
432.590584
 31
0.0
  0
ARC
  5
B8
330
7B
100
AcDbEntity
  8
0
  6
Continuous
 62
     0
370
    30
100
AcDbCircle
 10
317.759655
 20
568.949852
 30
0.0
 40
0.5000000000074252
100
AcDbArc
 50
90.0
 51
180.0
  0
LINE
  5
B9
330
7B
100
AcDbEntity
  8
0
  6
Continuous
 62
     0
370
     0
100
AcDbLine
 10
373.759655
 20
568.949852
 30
0.0
 11
317.759655
 21
568.949852
 31
0.0
  0
LINE
  5
BA
330
7B
100
AcDbEntity
  8
0
  6
Continuous
 62
     0
370
     0
100
AcDbLine
 10
317.759655
 20
568.949852
 30
0.0
 11
317.759655
 21
512.949852
 31
0.0
  0
LINE
  5
BB
330
7B
100
AcDbEntity
  8
0
  6
Continuous
 62
     0
370
     0
100
AcDbLine
 10
317.759655
 20
512.949852
 30
0.0
 11
373.759655
 21
512.949852
 31
0.0
  0
LINE
  5
BC
330
7B
100
AcDbEntity
  8
0
  6
Continuous
 62
     0
370
     0
100
AcDbLine
 10
373.759655
 20
512.949852
 30
0.0
 11
373.759655
 21
568.949852
 31
0.0
  0
ARC
  5
BD
330
7B
100
AcDbEntity
  8
0
  6
Continuous
 62
     0
370
     0
100
AcDbCircle
 10
345.759655
 20
540.950184
 30
0.0
 40
24.40000000225906
100
AcDbArc
 50
359.99922
 51
180.00078
  0
ARC
  5
BE
330
7B
100
AcDbEntity
  8
0
  6
Continuous
 62
     0
370
     0
100
AcDbCircle
 10
345.759655
 20
540.94952
 30
0.0
 40
24.40000000225906
100
AcDbArc
 50
179.99922
 51
0.00078
  0
LINE
  5
BF
330
7B
100
AcDbEntity
  8
0
  6
Continuous
 62
     0
370
    30
100
AcDbLine
 10
317.259655
 20
512.949852
 30
0.0
 11
317.259655
 21
568.949852
 31
0.0
  0
ARC
  5
C0
330
7B
100
AcDbEntity
  8
0
  6
Continuous
 62
     0
370
    30
100
AcDbCircle
 10
317.759655
 20
512.949852
 30
0.0
 40
0.4999999999993872
100
AcDbArc
 50
180.0
 51
270.0
  0
LINE
  5
C1
330
7B
100
AcDbEntity
  8
0
  6
Continuous
 62
     0
370
    30
100
AcDbLine
 10
373.759655
 20
512.449852
 30
0.0
 11
317.759655
 21
512.449852
 31
0.0
  0
ARC
  5
C2
330
7B
100
AcDbEntity
  8
0
  6
Continuous
 62
     0
370
    30
100
AcDbCircle
 10
373.759655
 20
512.949852
 30
0.0
 40
0.5000000000010765
100
AcDbArc
 50
270.0
 51
360.0
  0
LINE
  5
C3
330
7B
100
AcDbEntity
  8
0
  6
Continuous
 62
     0
370
    30
100
AcDbLine
 10
374.259655
 20
568.949852
 30
0.0
 11
374.259655
 21
512.949852
 31
0.0
  0
ARC
  5
C4
330
7B
100
AcDbEntity
  8
0
  6
Continuous
 62
     0
370
    30
100
AcDbCircle
 10
373.759655
 20
568.949852
 30
0.0
 40
0.4999999999957634
100
AcDbArc
 50
360.0
 51
90.0
  0
LINE
  5
C5
330
7B
100
AcDbEntity
  8
0
  6
Continuous
 62
     0
370
    30
100
AcDbLine
 10
317.759655
 20
569.449852
 30
0.0
 11
373.759655
 21
569.449852
 31
0.0
  0
LINE
  5
C6
330
7B
100
AcDbEntity
  8
0
  6
Continuous
 62
     0
370
     0
100
AcDbLine
 10
317.759655
 20
569.449852
 30
0.0
 11
317.759655
 21
568.949852
 31
0.0
  0
LINE
  5
C7
330
7B
100
AcDbEntity
  8
0
  6
Continuous
 62
     0
370
     0
100
AcDbLine
 10
373.759655
 20
568.949852
 30
0.0
 11
373.759655
 21
569.449852
 31
0.0
  0
LINE
  5
C8
330
7B
100
AcDbEntity
  8
0
  6
Continuous
 62
     0
370
     0
100
AcDbLine
 10
373.759655
 20
568.949852
 30
0.0
 11
374.259655
 21
568.949852
 31
0.0
  0
LINE
  5
C9
330
7B
100
AcDbEntity
  8
0
  6
Continuous
 62
     0
370
     0
100
AcDbLine
 10
373.759655
 20
512.949852
 30
0.0
 11
374.259655
 21
512.949852
 31
0.0
  0
LINE
  5
CA
330
7B
100
AcDbEntity
  8
0
  6
Continuous
 62
     0
370
     0
100
AcDbLine
 10
373.759655
 20
512.949852
 30
0.0
 11
373.759655
 21
512.449852
 31
0.0
  0
LINE
  5
CB
330
7B
100
AcDbEntity
  8
0
  6
Continuous
 62
     0
370
     0
100
AcDbLine
 10
317.759655
 20
512.949852
 30
0.0
 11
317.759655
 21
512.449852
 31
0.0
  0
LINE
  5
CC
330
7B
100
AcDbEntity
  8
0
  6
Continuous
 62
     0
370
     0
100
AcDbLine
 10
317.759655
 20
512.949852
 30
0.0
 11
317.259655
 21
512.949852
 31
0.0
  0
LINE
  5
CD
330
7B
100
AcDbEntity
  8
0
  6
Continuous
 62
     0
370
     0
100
AcDbLine
 10
317.759655
 20
568.949852
 30
0.0
 11
317.259655
 21
568.949852
 31
0.0
  0
LWPOLYLINE
  5
CE
330
7B
100
AcDbEntity
  8
0
  6
Continuous
 62
     0
370
     0
100
AcDbPolyline
 90
        4
 70
     0
 43
0.0
 10
365.437317
 20
535.270081
 10
359.226349
 20
535.27179
 10
353.006256
 20
535.272156
 10
345.759644
 20
535.272522
  0
LINE
  5
CF
330
7B
100
AcDbEntity
  8
0
  6
Continuous
 62
     0
370
     0
100
AcDbLine
 10
345.759652
 20
535.272496
 30
0.0
 11
345.759652
 21
527.903674
 31
0.0
  0
LWPOLYLINE
  5
D0
330
7B
100
AcDbEntity
  8
0
  6
Continuous
 62
     0
370
     0
100
AcDbPolyline
 90
        3
 70
     0
 43
0.0
 10
345.759644
 20
527.903687
 10
354.361542
 20
527.881714
 10
364.910522
 20
527.845154
  0
LINE
  5
D1
330
7B
100
AcDbEntity
  8
0
  6
Continuous
 62
     0
370
     0
100
AcDbLine
 10
364.910533
 20
527.845175
 30
0.0
 11
365.528872
 21
527.843485
 31
0.0
  0
LWPOLYLINE
  5
D2
330
7B
100
AcDbEntity
  8
0
  6
Continuous
 62
     0
370
     0
100
AcDbPolyline
 90
       17
 70
     0
 43
0.0
 10
365.52887
 20
527.843506
 10
365.527039
 20
528.565796
 10
365.52478
 20
529.282288
 10
365.522064
 20
529.984558
 10
365.518921
 20
530.66571
 10
365.515259
 20
531.319641
 10
365.511047
 20
531.940491
 10
365.506226
 20
532.5224
 10
365.500763
 20
533.059937
 10
365.494629
 20
533.548218
 10
365.487732
 20
533.982727
 10
365.480164
 20
534.359192
 10
365.471954
 20
534.673828
 10
365.463562
 20
534.923767
 10
365.455627
 20
535.107422
 10
365.447968
 20
535.223267
 10
365.437317
 20
535.270081
  0
LWPOLYLINE
  5
D3
330
7B
100
AcDbEntity
  8
0
  6
Continuous
 62
     0
370
     0
100
AcDbPolyline
 90
       17
 70
     0
 43
0.0
 10
365.437317
 20
546.629578
 10
365.447449
 20
546.671326
 10
365.45517
 20
546.782715
 10
365.463013
 20
546.962097
 10
365.471436
 20
547.207825
 10
365.479645
 20
547.518311
 10
365.487274
 20
547.89093
 10
365.494202
 20
548.321838
 10
365.500397
 20
548.806824
 10
365.50589
 20
549.341309
 10
365.510742
 20
549.920532
 10
365.514984
 20
550.539001
 10
365.518707
 20
551.190979
 10
365.521881
 20
551.870544
 10
365.524628
 20
552.571655
 10
365.526917
 20
553.287476
 10
365.52887
 20
554.056213
  0
LINE
  5
D4
330
7B
100
AcDbEntity
  8
0
  6
Continuous
 62
     0
370
     0
100
AcDbLine
 10
365.528872
 20
554.056219
 30
0.0
 11
364.910533
 21
554.054529
 31
0.0
  0
LWPOLYLINE
  5
D5
330
7B
100
AcDbEntity
  8
0
  6
Continuous
 62
     0
370
     0
100
AcDbPolyline
 90
        3
 70
     0
 43
0.0
 10
364.910522
 20
554.054504
 10
356.309265
 20
554.025635
 10
345.759644
 20
553.996033
  0
LINE
  5
D6
330
7B
100
AcDbEntity
  8
0
  6
Continuous
 62
     0
370
     0
100
AcDbLine
 10
345.759652
 20
553.99603
 30
0.0
 11
345.759652
 21
546.627208
 31
0.0
  0
LWPOLYLINE
  5
D7
330
7B
100
AcDbEntity
  8
0
  6
Continuous
 62
     0
370
     0
100
AcDbPolyline
 90
        4
 70
     0
 43
0.0
 10
345.759644
 20
546.627197
 10
351.995239
 20
546.627441
 10
358.217407
 20
546.627808
 10
365.437317
 20
546.629578
  0
LINE
  5
D8
330
7B
100
AcDbEntity
  8
0
  6
Continuous
 62
     0
370
     0
100
AcDbLine
 10
365.437323
 20
546.628809
 30
0.0
 11
365.268341
 21
546.458503
 31
0.0
  0
ARC
  5
D9
330
7B
100
AcDbEntity
  8
0
  6
Continuous
 62
     0
370
     0
100
AcDbCircle
 10
365.268249
 20
545.458449
 30
0.0
 40
1.000053852840551
100
AcDbArc
 50
0.005267
 51
89.994733
  0
LINE
  5
DA
330
7B
100
AcDbEntity
  8
0
  6
Continuous
 62
     0
370
     0
100
AcDbLine
 10
366.268302
 20
545.458541
 30
0.0
 11
366.43861
 21
545.629182
 31
0.0
  0
ARC
  5
DB
330
7B
100
AcDbEntity
  8
0
  6
Continuous
 62
     0
370
     0
100
AcDbCircle
 10
365.438887
 20
545.629087
 30
0.0
 40
0.9997233858698441
100
AcDbArc
 50
0.005446
 51
90.089649
  0
LINE
  5
DC
330
7B
100
AcDbEntity
  8
0
  6
Continuous
 62
     0
370
     0
100
AcDbLine
 10
365.268341
 20
546.458503
 30
0.0
 11
365.268341
 21
545.458541
 31
0.0
  0
LINE
  5
DD
330
7B
100
AcDbEntity
  8
0
  6
Continuous
 62
     0
370
     0
100
AcDbLine
 10
365.268341
 20
545.458541
 30
0.0
 11
366.268302
 21
545.458541
 31
0.0
  0
LINE
  5
DE
330
7B
100
AcDbEntity
  8
0
  6
Continuous
 62
     0
370
     0
100
AcDbLine
 10
365.268341
 20
545.458541
 30
0.0
 11
365.268341
 21
536.441163
 31
0.0
  0
LINE
  5
DF
330
7B
100
AcDbEntity
  8
0
  6
Continuous
 62
     0
370
     0
100
AcDbLine
 10
365.268341
 20
536.441163
 30
0.0
 11
366.268302
 21
536.441163
 31
0.0
  0
LINE
  5
E0
330
7B
100
AcDbEntity
  8
0
  6
Continuous
 62
     0
370
     0
100
AcDbLine
 10
366.268302
 20
536.441163
 30
0.0
 11
366.268302
 21
545.458541
 31
0.0
  0
LINE
  5
E1
330
7B
100
AcDbEntity
  8
0
  6
Continuous
 62
     0
370
     0
100
AcDbLine
 10
365.268341
 20
536.441163
 30
0.0
 11
365.268341
 21
535.441201
 31
0.0
  0
ARC
  5
E2
330
7B
100
AcDbEntity
  8
0
  6
Continuous
 62
     0
370
     0
100
AcDbCircle
 10
365.268249
 20
536.441255
 30
0.0
 40
1.000053852845581
100
AcDbArc
 50
270.005267
 51
359.994733
  0
LINE
  5
E3
330
7B
100
AcDbEntity
  8
0
  6
Continuous
 62
     0
370
     0
100
AcDbLine
 10
365.268341
 20
535.441201
 30
0.0
 11
365.437322
 21
535.270895
 31
0.0
  0
ARC
  5
E4
330
7B
100
AcDbEntity
  8
0
  6
Continuous
 62
     0
370
     0
100
AcDbCircle
 10
365.438887
 20
536.270617
 30
0.0
 40
0.999723376077706
100
AcDbArc
 50
269.910348
 51
359.994554
  0
LINE
  5
E5
330
7B
100
AcDbEntity
  8
0
  6
Continuous
 62
     0
370
     0
100
AcDbLine
 10
366.43861
 20
536.270522
 30
0.0
 11
366.268302
 21
536.441163
 31
0.0
  0
LWPOLYLINE
  5
E6
330
7B
100
AcDbEntity
  8
0
  6
Continuous
 62
     0
370
     0
100
AcDbPolyline
 90
        9
 70
     0
 43
0.0
 10
365.52887
 20
527.843506
 10
365.688873
 20
528.514832
 10
365.846436
 20
529.185425
 10
365.998566
 20
529.853821
 10
366.141357
 20
530.519409
 10
366.269958
 20
531.182861
 10
366.378906
 20
531.844788
 10
366.458344
 20
532.505554
 10
366.494507
 20
533.240295
  0
LWPOLYLINE
  5
E7
330
7B
100
AcDbEntity
  8
0
  6
Continuous
 62
     0
370
     0
100
AcDbPolyline
 90
       10
 70
     0
 43
0.0
 10
366.494507
 20
533.240295
 10
366.48996
 20
533.835693
 10
366.484772
 20
534.377014
 10
366.479004
 20
534.858521
 10
366.47287
 20
535.27478
 10
366.4664
 20
535.622253
 10
366.459686
 20
535.897888
 10
366.452789
 20
536.098877
 10
366.44577
 20
536.223206
 10
366.438599
 20
536.270508
  0
LINE
  5
E8
330
7B
100
AcDbEntity
  8
0
  6
Continuous
 62
     0
370
     0
100
AcDbLine
 10
366.494752
 20
533.240316
 30
0.0
 11
366.494664
 21
535.201983
 31
0.0
  0
LINE
  5
E9
330
7B
100
AcDbEntity
  8
0
  6
Continuous
 62
     0
370
     0
100
AcDbLine
 10
366.494664
 20
535.201983
 30
0.0
 11
366.49455
 21
540.949852
 31
0.0
  0
LINE
  5
EA
330
7B
100
AcDbEntity
  8
0
  6
Continuous
 62
     0
370
     0
100
AcDbLine
 10
366.49455
 20
540.949852
 30
0.0
 11
366.494664
 21
546.697721
 31
0.0
  0
LINE
  5
EB
330
7B
100
AcDbEntity
  8
0
  6
Continuous
 62
     0
370
     0
100
AcDbLine
 10
366.494664
 20
546.697721
 30
0.0
 11
366.494752
 21
548.659389
 31
0.0
  0
LWPOLYLINE
  5
EC
330
7B
100
AcDbEntity
  8
0
  6
Continuous
 62
     0
370
     0
100
AcDbPolyline
 90
       12
 70
     0
 43
0.0
 10
366.494751
 20
548.659363
 10
366.491547
 20
548.251099
 10
366.488037
 20
547.855774
 10
366.484131
 20
547.476135
 10
366.479889
 20
547.115723
 10
366.47522
 20
546.778809
 10
366.470154
 20
546.470886
 10
366.464661
 20
546.198608
 10
366.45874
 20
545.96991
 10
366.452484
 20
545.793518
 10
366.445892
 20
545.67804
 10
366.438599
 20
545.629211
  0
LWPOLYLINE
  5
ED
330
7B
100
AcDbEntity
  8
0
  6
Continuous
 62
     0
370
     0
100
AcDbPolyline
 90
        9
 70
     0
 43
0.0
 10
366.494507
 20
548.659363
 10
366.464935
 20
549.31897
 10
366.389648
 20
549.979675
 10
366.283447
 20
550.641418
 10
366.156799
 20
551.304688
 10
366.01535
 20
551.970032
 10
365.864075
 20
552.638123
 10
365.70697
 20
553.308472
 10
365.52887
 20
554.056213
  0
LINE
  5
EE
330
7B
100
AcDbEntity
  8
0
  6
Continuous
 62
     0
370
     0
100
AcDbLine
 10
366.49455
 20
540.949852
 30
0.0
 11
367.477059
 21
540.949852
 31
0.0
  0
LINE
  5
EF
330
7B
100
AcDbEntity
  8
0
  6
Continuous
 62
     0
370
     0
100
AcDbLine
 10
367.477059
 20
540.949852
 30
0.0
 11
367.477702
 21
546.45626
 31
0.0
  0
LINE
  5
F0
330
7B
100
AcDbEntity
  8
0
  6
Continuous
 62
     0
370
     0
100
AcDbLine
 10
367.477702
 20
546.45626
 30
0.0
 11
367.477753
 21
546.693259
 31
0.0
  0
ARC
  5
F1
330
7B
100
AcDbEntity
  8
0
  6
Continuous
 62
     0
370
     0
100
AcDbCircle
 10
367.239706
 20
602.547921
 30
0.0
 40
55.85516932582097
100
AcDbArc
 50
269.235719
 51
270.244188
  0
LINE
  5
F2
330
7B
100
AcDbEntity
  8
0
  6
Continuous
 62
     0
370
     0
100
AcDbLine
 10
367.477753
 20
546.693259
 30
0.0
 11
367.478266
 21
548.653555
 31
0.0
  0
ARC
  5
F3
330
7B
100
AcDbEntity
  8
0
  6
Continuous
 62
     0
370
     0
100
AcDbCircle
 10
367.240056
 20
591.398046
 30
0.0
 40
42.74515518924301
100
AcDbArc
 50
269.000941
 51
270.319298
  0
LWPOLYLINE
  5
F4
330
7B
100
AcDbEntity
  8
0
  6
Continuous
 62
     0
370
     0
100
AcDbPolyline
 90
       10
 70
     0
 43
0.0
 10
367.478271
 20
548.653564
 10
367.43866
 20
549.296082
 10
367.329926
 20
549.930847
 10
367.164948
 20
550.552979
 10
366.954926
 20
551.161438
 10
366.710175
 20
551.756714
 10
366.439087
 20
552.340454
 10
366.14859
 20
552.914734
 10
365.845093
 20
553.4823
 10
365.52887
 20
554.056213
  0
ARC
  5
F5
330
7B
100
AcDbEntity
  8
0
  6
Continuous
 62
     0
370
     0
100
AcDbCircle
 10
367.239706
 20
479.351783
 30
0.0
 40
55.85516932430372
100
AcDbArc
 50
89.755812
 51
90.764281
  0
LINE
  5
F6
330
7B
100
AcDbEntity
  8
0
  6
Continuous
 62
     0
370
     0
100
AcDbLine
 10
367.477753
 20
535.206445
 30
0.0
 11
367.477702
 21
535.443444
 31
0.0
  0
LINE
  5
F7
330
7B
100
AcDbEntity
  8
0
  6
Continuous
 62
     0
370
     0
100
AcDbLine
 10
367.477702
 20
535.443444
 30
0.0
 11
367.477059
 21
540.949852
 31
0.0
  0
ARC
  5
F8
330
7B
100
AcDbEntity
  8
0
  6
Continuous
 62
     0
370
     0
100
AcDbCircle
 10
367.240056
 20
490.501658
 30
0.0
 40
42.74515541340432
100
AcDbArc
 50
89.680702
 51
90.999059
  0
LINE
  5
F9
330
7B
100
AcDbEntity
  8
0
  6
Continuous
 62
     0
370
     0
100
AcDbLine
 10
367.478266
 20
533.24615
 30
0.0
 11
367.477753
 21
535.206445
 31
0.0
  0
LWPOLYLINE
  5
FA
330
7B
100
AcDbEntity
  8
0
  6
Continuous
 62
     0
370
     0
100
AcDbPolyline
 90
       10
 70
     0
 43
0.0
 10
365.52887
 20
527.843506
 10
365.839508
 20
528.407166
 10
366.143158
 20
528.974609
 10
366.43396
 20
529.548767
 10
366.705444
 20
530.132263
 10
366.950775
 20
530.727356
 10
367.161499
 20
531.335571
 10
367.327393
 20
531.957397
 10
367.437256
 20
532.592041
 10
367.478271
 20
533.246155
  0
LWPOLYLINE
  5
FB
330
7B
100
AcDbEntity
  8
0
  6
Continuous
 62
     0
370
     0
100
AcDbPolyline
 90
       17
 70
     0
 43
0.0
 10
326.082001
 20
535.270081
 10
326.071869
 20
535.228333
 10
326.064148
 20
535.117004
 10
326.056274
 20
534.937622
 10
326.047882
 20
534.691895
 10
326.039642
 20
534.381348
 10
326.032043
 20
534.008728
 10
326.025116
 20
533.577881
 10
326.018921
 20
533.092896
 10
326.013397
 20
532.558411
 10
326.008545
 20
531.979187
 10
326.004303
 20
531.360718
 10
326.00061
 20
530.70874
 10
325.997406
 20
530.029175
 10
325.99469
 20
529.328064
 10
325.992401
 20
528.612244
 10
325.990417
 20
527.843506
  0
LINE
  5
FC
330
7B
100
AcDbEntity
  8
0
  6
Continuous
 62
     0
370
     0
100
AcDbLine
 10
325.990432
 20
527.843485
 30
0.0
 11
326.60877
 21
527.845175
 31
0.0
  0
LWPOLYLINE
  5
FD
330
7B
100
AcDbEntity
  8
0
  6
Continuous
 62
     0
370
     0
100
AcDbPolyline
 90
        3
 70
     0
 43
0.0
 10
326.608765
 20
527.845154
 10
335.210022
 20
527.874084
 10
345.759644
 20
527.903687
  0
LWPOLYLINE
  5
FE
330
7B
100
AcDbEntity
  8
0
  6
Continuous
 62
     0
370
     0
100
AcDbPolyline
 90
        4
 70
     0
 43
0.0
 10
345.759644
 20
535.272522
 10
339.523987
 20
535.272278
 10
333.301727
 20
535.271912
 10
326.082001
 20
535.270081
  0
LWPOLYLINE
  5
FF
330
7B
100
AcDbEntity
  8
0
  6
Continuous
 62
     0
370
     0
100
AcDbPolyline
 90
        4
 70
     0
 43
0.0
 10
326.082001
 20
546.629578
 10
332.292877
 20
546.62793
 10
338.512878
 20
546.627502
 10
345.759644
 20
546.627197
  0
LWPOLYLINE
  5
100
330
7B
100
AcDbEntity
  8
0
  6
Continuous
 62
     0
370
     0
100
AcDbPolyline
 90
        3
 70
     0
 43
0.0
 10
345.759644
 20
553.996033
 10
337.157745
 20
554.018005
 10
326.608765
 20
554.054504
  0
LINE
  5
101
330
7B
100
AcDbEntity
  8
0
  6
Continuous
 62
     0
370
     0
100
AcDbLine
 10
326.60877
 20
554.054529
 30
0.0
 11
325.990432
 21
554.056219
 31
0.0
  0
LWPOLYLINE
  5
102
330
7B
100
AcDbEntity
  8
0
  6
Continuous
 62
     0
370
     0
100
AcDbPolyline
 90
       17
 70
     0
 43
0.0
 10
325.990417
 20
554.056213
 10
325.992249
 20
553.333862
 10
325.994537
 20
552.617432
 10
325.997223
 20
551.915161
 10
326.000397
 20
551.234009
 10
326.004059
 20
550.580078
 10
326.00827
 20
549.959229
 10
326.013062
 20
549.377319
 10
326.018524
 20
548.839783
 10
326.024689
 20
548.351501
 10
326.031555
 20
547.916992
 10
326.039154
 20
547.540527
 10
326.047333
 20
547.225891
 10
326.055756
 20
546.975952
 10
326.06366
 20
546.792236
 10
326.07132
 20
546.676453
 10
326.082001
 20
546.629578
  0
ARC
  5
103
330
7B
100
AcDbEntity
  8
0
  6
Continuous
 62
     0
370
     0
100
AcDbCircle
 10
326.080417
 20
545.629087
 30
0.0
 40
0.9997233858643751
100
AcDbArc
 50
89.910351
 51
179.994554
  0
LINE
  5
104
330
7B
100
AcDbEntity
  8
0
  6
Continuous
 62
     0
370
     0
100
AcDbLine
 10
325.080693
 20
545.629182
 30
0.0
 11
325.251001
 21
545.458541
 31
0.0
  0
ARC
  5
105
330
7B
100
AcDbEntity
  8
0
  6
Continuous
 62
     0
370
     0
100
AcDbCircle
 10
326.251055
 20
545.458449
 30
0.0
 40
1.000053852844579
100
AcDbArc
 50
90.005267
 51
179.994733
  0
LINE
  5
106
330
7B
100
AcDbEntity
  8
0
  6
Continuous
 62
     0
370
     0
100
AcDbLine
 10
326.250963
 20
546.458503
 30
0.0
 11
326.081981
 21
546.628809
 31
0.0
  0
LINE
  5
107
330
7B
100
AcDbEntity
  8
0
  6
Continuous
 62
     0
370
     0
100
AcDbLine
 10
325.251001
 20
545.458541
 30
0.0
 11
326.250963
 21
545.458541
 31
0.0
  0
LINE
  5
108
330
7B
100
AcDbEntity
  8
0
  6
Continuous
 62
     0
370
     0
100
AcDbLine
 10
326.250963
 20
545.458541
 30
0.0
 11
326.250963
 21
546.458503
 31
0.0
  0
LINE
  5
109
330
7B
100
AcDbEntity
  8
0
  6
Continuous
 62
     0
370
     0
100
AcDbLine
 10
325.251001
 20
545.458541
 30
0.0
 11
325.251001
 21
536.441163
 31
0.0
  0
LINE
  5
10A
330
7B
100
AcDbEntity
  8
0
  6
Continuous
 62
     0
370
     0
100
AcDbLine
 10
325.251001
 20
536.441163
 30
0.0
 11
326.250963
 21
536.441163
 31
0.0
  0
LINE
  5
10B
330
7B
100
AcDbEntity
  8
0
  6
Continuous
 62
     0
370
     0
100
AcDbLine
 10
326.250963
 20
536.441163
 30
0.0
 11
326.250963
 21
545.458541
 31
0.0
  0
ARC
  5
10C
330
7B
100
AcDbEntity
  8
0
  6
Continuous
 62
     0
370
     0
100
AcDbCircle
 10
326.251055
 20
536.441255
 30
0.0
 40
1.000053852844337
100
AcDbArc
 50
180.005267
 51
269.994733
  0
LINE
  5
10D
330
7B
100
AcDbEntity
  8
0
  6
Continuous
 62
     0
370
     0
100
AcDbLine
 10
326.250963
 20
535.441201
 30
0.0
 11
326.250963
 21
536.441163
 31
0.0
  0
LINE
  5
10E
330
7B
100
AcDbEntity
  8
0
  6
Continuous
 62
     0
370
     0
100
AcDbLine
 10
325.251001
 20
536.441163
 30
0.0
 11
325.080693
 21
536.270522
 31
0.0
  0
ARC
  5
10F
330
7B
100
AcDbEntity
  8
0
  6
Continuous
 62
     0
370
     0
100
AcDbCircle
 10
326.080417
 20
536.270617
 30
0.0
 40
0.9997233760785886
100
AcDbArc
 50
180.005446
 51
270.089652
  0
LINE
  5
110
330
7B
100
AcDbEntity
  8
0
  6
Continuous
 62
     0
370
     0
100
AcDbLine
 10
326.081981
 20
535.270895
 30
0.0
 11
326.250963
 21
535.441201
 31
0.0
  0
LWPOLYLINE
  5
111
330
7B
100
AcDbEntity
  8
0
  6
Continuous
 62
     0
370
     0
100
AcDbPolyline
 90
       10
 70
     0
 43
0.0
 10
325.080688
 20
536.270508
 10
325.073639
 20
536.224243
 10
325.06662
 20
536.10083
 10
325.059723
 20
535.900818
 10
325.052979
 20
535.626099
 10
325.046509
 20
535.27948
 10
325.040375
 20
534.864014
 10
325.034607
 20
534.383301
 10
325.029419
 20
533.842712
 10
325.024811
 20
533.240295
  0
LWPOLYLINE
  5
112
330
7B
100
AcDbEntity
  8
0
  6
Continuous
 62
     0
370
     0
100
AcDbPolyline
 90
        9
 70
     0
 43
0.0
 10
325.024811
 20
533.240295
 10
325.054352
 20
532.58075
 10
325.129639
 20
531.919983
 10
325.23584
 20
531.25824
 10
325.362488
 20
530.595032
 10
325.503937
 20
529.929688
 10
325.655243
 20
529.261597
 10
325.812317
 20
528.591248
 10
325.990417
 20
527.843506
  0
LWPOLYLINE
  5
113
330
7B
100
AcDbEntity
  8
0
  6
Continuous
 62
     0
370
     0
100
AcDbPolyline
 90
       12
 70
     0
 43
0.0
 10
325.080688
 20
545.629211
 10
325.073944
 20
545.671753
 10
325.067352
 20
545.782043
 10
325.061035
 20
545.953979
 10
325.055084
 20
546.178833
 10
325.049561
 20
546.447998
 10
325.044464
 20
546.753357
 10
325.039764
 20
547.088196
 10
325.035492
 20
547.44696
 10
325.031586
 20
547.825195
 10
325.028015
 20
548.219421
 10
325.024536
 20
548.659363
  0
LINE
  5
114
330
7B
100
AcDbEntity
  8
0
  6
Continuous
 62
     0
370
     0
100
AcDbLine
 10
325.024551
 20
548.659389
 30
0.0
 11
325.02464
 21
546.697721
 31
0.0
  0
LINE
  5
115
330
7B
100
AcDbEntity
  8
0
  6
Continuous
 62
     0
370
     0
100
AcDbLine
 10
325.02464
 20
546.697721
 30
0.0
 11
325.024754
 21
540.949852
 31
0.0
  0
LINE
  5
116
330
7B
100
AcDbEntity
  8
0
  6
Continuous
 62
     0
370
     0
100
AcDbLine
 10
325.024754
 20
540.949852
 30
0.0
 11
325.02464
 21
535.201983
 31
0.0
  0
LINE
  5
117
330
7B
100
AcDbEntity
  8
0
  6
Continuous
 62
     0
370
     0
100
AcDbLine
 10
325.02464
 20
535.201983
 30
0.0
 11
325.024551
 21
533.240316
 31
0.0
  0
LWPOLYLINE
  5
118
330
7B
100
AcDbEntity
  8
0
  6
Continuous
 62
     0
370
     0
100
AcDbPolyline
 90
        9
 70
     0
 43
0.0
 10
325.990417
 20
554.056213
 10
325.830414
 20
553.384827
 10
325.672882
 20
552.714294
 10
325.520752
 20
552.045898
 10
325.37793
 20
551.380249
 10
325.249359
 20
550.716797
 10
325.140411
 20
550.054932
 10
325.060974
 20
549.394104
 10
325.024811
 20
548.659363
  0
ARC
  5
119
330
7B
100
AcDbEntity
  8
0
  6
Continuous
 62
     0
370
     0
100
AcDbCircle
 10
324.279598
 20
602.547921
 30
0.0
 40
55.85516932923599
100
AcDbArc
 50
269.755812
 51
270.764281
  0
LINE
  5
11A
330
7B
100
AcDbEntity
  8
0
  6
Continuous
 62
     0
370
     0
100
AcDbLine
 10
324.04155
 20
546.693259
 30
0.0
 11
324.041602
 21
546.45626
 31
0.0
  0
LINE
  5
11B
330
7B
100
AcDbEntity
  8
0
  6
Continuous
 62
     0
370
     0
100
AcDbLine
 10
324.041602
 20
546.45626
 30
0.0
 11
324.042244
 21
540.949852
 31
0.0
  0
LINE
  5
11C
330
7B
100
AcDbEntity
  8
0
  6
Continuous
 62
     0
370
     0
100
AcDbLine
 10
324.042244
 20
540.949852
 30
0.0
 11
325.024754
 21
540.949852
 31
0.0
  0
ARC
  5
11D
330
7B
100
AcDbEntity
  8
0
  6
Continuous
 62
     0
370
     0
100
AcDbCircle
 10
324.279247
 20
591.398049
 30
0.0
 40
42.74515844440148
100
AcDbArc
 50
269.680702
 51
270.999059
  0
LINE
  5
11E
330
7B
100
AcDbEntity
  8
0
  6
Continuous
 62
     0
370
     0
100
AcDbLine
 10
324.041038
 20
548.653555
 30
0.0
 11
324.04155
 21
546.693259
 31
0.0
  0
LWPOLYLINE
  5
11F
330
7B
100
AcDbEntity
  8
0
  6
Continuous
 62
     0
370
     0
100
AcDbPolyline
 90
       10
 70
     0
 43
0.0
 10
325.990417
 20
554.056213
 10
325.67981
 20
553.492554
 10
325.376129
 20
552.92511
 10
325.085327
 20
552.350952
 10
324.813843
 20
551.767395
 10
324.568542
 20
551.172363
 10
324.357788
 20
550.564148
 10
324.191895
 20
549.942261
 10
324.082031
 20
549.307678
 10
324.041046
 20
548.653564
  0
ARC
  5
120
330
7B
100
AcDbEntity
  8
0
  6
Continuous
 62
     0
370
     0
100
AcDbCircle
 10
324.279598
 20
479.351783
 30
0.0
 40
55.85516932714924
100
AcDbArc
 50
89.235719
 51
90.244188
  0
LINE
  5
121
330
7B
100
AcDbEntity
  8
0
  6
Continuous
 62
     0
370
     0
100
AcDbLine
 10
324.042244
 20
540.949852
 30
0.0
 11
324.041602
 21
535.443444
 31
0.0
  0
LINE
  5
122
330
7B
100
AcDbEntity
  8
0
  6
Continuous
 62
     0
370
     0
100
AcDbLine
 10
324.041602
 20
535.443444
 30
0.0
 11
324.04155
 21
535.206445
 31
0.0
  0
LINE
  5
123
330
7B
100
AcDbEntity
  8
0
  6
Continuous
 62
     0
370
     0
100
AcDbLine
 10
324.04155
 20
535.206445
 30
0.0
 11
324.041038
 21
533.24615
 31
0.0
  0
ARC
  5
124
330
7B
100
AcDbEntity
  8
0
  6
Continuous
 62
     0
370
     0
100
AcDbCircle
 10
324.279247
 20
490.501658
 30
0.0
 40
42.7451554127173
100
AcDbArc
 50
89.000941
 51
90.319298
  0
LWPOLYLINE
  5
125
330
7B
100
AcDbEntity
  8
0
  6
Continuous
 62
     0
370
     0
100
AcDbPolyline
 90
       10
 70
     0
 43
0.0
 10
324.041046
 20
533.246155
 10
324.080627
 20
532.603638
 10
324.189362
 20
531.968872
 10
324.35434
 20
531.346741
 10
324.564362
 20
530.738281
 10
324.809143
 20
530.143005
 10
325.0802
 20
529.559265
 10
325.370728
 20
528.984924
 10
325.674225
 20
528.417419
 10
325.990417
 20
527.843506
  0
LINE
  5
126
330
7B
100
AcDbEntity
  8
0
  6
Continuous
 62
     0
370
     0
100
AcDbLine
 10
365.268341
 20
535.441201
 30
0.0
 11
326.250963
 21
535.441201
 31
0.0
  0
LINE
  5
127
330
7B
100
AcDbEntity
  8
0
  6
Continuous
 62
     0
370
     0
100
AcDbLine
 10
365.268341
 20
536.441163
 30
0.0
 11
326.250963
 21
536.441163
 31
0.0
  0
LINE
  5
128
330
7B
100
AcDbEntity
  8
0
  6
Continuous
 62
     0
370
     0
100
AcDbLine
 10
365.268341
 20
545.458541
 30
0.0
 11
326.250963
 21
545.458541
 31
0.0
  0
LINE
  5
129
330
7B
100
AcDbEntity
  8
0
  6
Continuous
 62
     0
370
     0
100
AcDbLine
 10
365.268341
 20
546.458503
 30
0.0
 11
326.250963
 21
546.458503
 31
0.0
  0
ARC
  5
12A
330
7B
100
AcDbEntity
  8
0
  6
Continuous
 62
     0
370
    30
100
AcDbCircle
 10
345.759638
 20
540.949865
 30
0.0
 40
24.0000134889005
100
AcDbArc
 50
269.999954
 51
359.999968
  0
ARC
  5
12B
330
7B
100
AcDbEntity
  8
0
  6
Continuous
 62
     0
370
    30
100
AcDbCircle
 10
345.759652
 20
540.949852
 30
0.0
 40
24.00000000003323
100
AcDbArc
 50
0.0
 51
269.999922
  0
ENDBLK
  5
12D
330
7B
100
AcDbEntity
  8
0
100
AcDbBlockEnd
  0
BLOCK
  5
18B
330
12F
100
AcDbEntity
  8
0
100
AcDbBlockBegin
  2
b
 70
     0
 10
266.940369
 20
201.249428
 30
0.0
  3
b
  1

  0
ARC
  5
130
330
12F
100
AcDbEntity
  8
0
  6
Continuous
 62
     0
370
    30
100
AcDbCircle
 10
395.813588
 20
253.274292
 30
0.0
 40
0.6999999880795758
100
AcDbArc
 50
270.0
 51
359.7
  0
LINE
  5
131
330
12F
100
AcDbEntity
  8
0
  6
Continuous
 62
     0
370
    30
100
AcDbLine
 10
396.513579
 20
253.270627
 30
0.0
 11
396.567005
 21
263.474292
 31
0.0
  0
LWPOLYLINE
  5
132
330
12F
100
AcDbEntity
  8
0
  6
Continuous
 62
     0
370
    30
100
AcDbPolyline
 90
        6
 70
     0
 43
0.0
 10
396.567017
 20
263.474304
 10
396.533966
 20
263.474304
 10
396.437927
 20
263.474304
 10
396.288513
 20
263.474304
 10
396.097778
 20
263.474304
 10
395.867004
 20
263.474304
  0
LINE
  5
133
330
12F
100
AcDbEntity
  8
0
  6
Continuous
 62
     0
370
     0
100
AcDbLine
 10
395.867015
 20
263.474292
 30
0.0
 11
395.813588
 21
253.270627
 31
0.0
  0
ARC
  5
134
330
12F
100
AcDbEntity
  8
0
  6
Continuous
 62
     0
370
     0
100
AcDbCircle
 10
396.163582
 20
286.693575
 30
0.0
 40
33.42478041267238
100
AcDbArc
 50
269.40004
 51
270.599965
  0
LINE
  5
135
330
12F
100
AcDbEntity
  8
0
  6
Continuous
 62
     0
370
    30
100
AcDbLine
 10
366.574611
 20
252.574292
 30
0.0
 11
395.813588
 21
252.574292
 31
0.0
  0
LINE
  5
136
330
12F
100
AcDbEntity
  8
0
  6
Continuous
 62
     0
370
    30
100
AcDbLine
 10
295.706277
 20
252.574292
 30
0.0
 11
324.944753
 21
252.574292
 31
0.0
  0
LWPOLYLINE
  5
137
330
12F
100
AcDbEntity
  8
0
  6
Continuous
 62
     0
370
     0
100
AcDbPolyline
 90
        6
 70
     0
 43
0.0
 10
395.813599
 20
252.574295
 10
395.813599
 20
252.610992
 10
395.813599
 20
252.710327
 10
395.813599
 20
252.851349
 10
395.813599
 20
253.040359
 10
395.813599
 20
253.27063
  0
LINE
  5
138
330
12F
100
AcDbEntity
  8
0
  6
Continuous
 62
     0
370
     0
100
AcDbLine
 10
321.759682
 20
253.270627
 30
0.0
 11
295.706277
 21
253.270627
 31
0.0
  0
LINE
  5
139
330
12F
100
AcDbEntity
  8
0
  6
Continuous
 62
     0
370
     0
100
AcDbLine
 10
395.813588
 20
253.270627
 30
0.0
 11
369.759682
 21
253.270627
 31
0.0
  0
LINE
  5
13A
330
12F
100
AcDbEntity
  8
0
  6
Continuous
 62
     0
370
     0
100
AcDbLine
 10
295.706277
 20
253.270627
 30
0.0
 11
295.706277
 21
252.574292
 31
0.0
  0
ARC
  5
13B
330
12F
100
AcDbEntity
  8
0
  6
Continuous
 62
     0
370
    30
100
AcDbCircle
 10
295.706277
 20
253.274292
 30
0.0
 40
0.6999999880786458
100
AcDbArc
 50
180.3
 51
270.0
  0
ARC
  5
13C
330
12F
100
AcDbEntity
  8
0
  6
Continuous
 62
     0
370
     0
100
AcDbCircle
 10
295.356283
 20
286.693575
 30
0.0
 40
33.42478041273749
100
AcDbArc
 50
269.400035
 51
270.59996
  0
LINE
  5
13D
330
12F
100
AcDbEntity
  8
0
  6
Continuous
 62
     0
370
     0
100
AcDbLine
 10
295.706277
 20
253.270627
 30
0.0
 11
295.65285
 21
263.474292
 31
0.0
  0
LINE
  5
13E
330
12F
100
AcDbEntity
  8
0
  6
Continuous
 62
     0
370
    30
100
AcDbLine
 10
295.65285
 20
263.474292
 30
0.0
 11
294.95286
 21
263.474292
 31
0.0
  0
LINE
  5
13F
330
12F
100
AcDbEntity
  8
0
  6
Continuous
 62
     0
370
    30
100
AcDbLine
 10
294.95286
 20
263.474292
 30
0.0
 11
295.006287
 21
253.270627
 31
0.0
  0
LINE
  5
140
330
12F
100
AcDbEntity
  8
0
  6
Continuous
 62
     0
370
    30
100
AcDbLine
 10
317.259686
 20
263.474292
 30
0.0
 11
295.65285
 21
263.474292
 31
0.0
  0
LINE
  5
141
330
12F
100
AcDbEntity
  8
0
  6
Continuous
 62
     0
370
    30
100
AcDbLine
 10
395.867015
 20
263.474292
 30
0.0
 11
374.259686
 21
263.474292
 31
0.0
  0
ARC
  5
142
330
12F
100
AcDbEntity
  8
0
  6
Continuous
 62
     0
370
    30
100
AcDbCircle
 10
345.759953
 20
208.354293
 30
0.0
 40
3.950000000000013
100
AcDbArc
 50
90.0
 51
269.999997
  0
ARC
  5
143
330
12F
100
AcDbEntity
  8
0
  6
Continuous
 62
     0
370
    30
100
AcDbCircle
 10
345.759953
 20
208.354293
 30
0.0
 40
3.949999999999978
100
AcDbArc
 50
269.999997
 51
90.0
  0
ARC
  5
144
330
12F
100
AcDbEntity
  8
0
  6
Continuous
 62
     0
370
    30
100
AcDbCircle
 10
345.759999
 20
208.354293
 30
0.0
 40
3.450000000319434
100
AcDbArc
 50
269.99922
 51
90.00078
  0
ARC
  5
145
330
12F
100
AcDbEntity
  8
0
  6
Continuous
 62
     0
370
    30
100
AcDbCircle
 10
345.759906
 20
208.354293
 30
0.0
 40
3.450000000319427
100
AcDbArc
 50
89.99922
 51
270.00078
  0
LINE
  5
146
330
12F
100
AcDbEntity
  8
0
  6
Continuous
 62
     0
370
    30
100
AcDbLine
 10
367.260249
 20
199.354294
 30
0.0
 11
345.759953
 21
199.354293
 31
0.0
  0
LINE
  5
147
330
12F
100
AcDbEntity
  8
0
  6
Continuous
 62
     0
370
    30
100
AcDbLine
 10
345.759953
 20
199.354293
 30
0.0
 11
324.25966
 21
199.354294
 31
0.0
  0
LWPOLYLINE
  5
148
330
12F
100
AcDbEntity
  8
0
  6
Continuous
 62
     0
370
    30
100
AcDbPolyline
 90
       28
 70
     0
 43
0.0
 10
367.759552
 20
199.853912
 10
367.722015
 20
199.853836
 10
367.610016
 20
199.853668
 10
367.424347
 20
199.853439
 10
367.165802
 20
199.853195
 10
366.835266
 20
199.852982
 10
366.433868
 20
199.852844
 10
365.962769
 20
199.852753
 10
365.423065
 20
199.852768
 10
364.816528
 20
199.852859
 10
364.145782
 20
199.853043
 10
363.413666
 20
199.853287
 10
362.622894
 20
199.853561
 10
361.77594
 20
199.853867
 10
360.874908
 20
199.854126
 10
359.922333
 20
199.854279
 10
358.921204
 20
199.854218
 10
357.875092
 20
199.853989
 10
356.787933
 20
199.853638
 10
355.663605
 20
199.853287
 10
354.506104
 20
199.852982
 10
353.319153
 20
199.852798
 10
352.106506
 20
199.852753
 10
350.871887
 20
199.852875
 10
349.619141
 20
199.853195
 10
348.353516
 20
199.853607
 10
347.080719
 20
199.854004
 10
345.759949
 20
199.854294
  0
LWPOLYLINE
  5
149
330
12F
100
AcDbEntity
  8
0
  6
Continuous
 62
     0
370
    30
100
AcDbPolyline
 90
       28
 70
     0
 43
0.0
 10
345.759949
 20
199.854294
 10
344.484589
 20
199.854019
 10
343.211639
 20
199.853622
 10
341.945679
 20
199.85321
 10
340.692383
 20
199.85289
 10
339.457001
 20
199.852753
 10
338.24353
 20
199.852798
 10
337.055603
 20
199.852982
 10
335.896973
 20
199.853271
 10
334.771423
 20
199.853638
 10
333.682861
 20
199.853973
 10
332.635223
 20
199.854218
 10
331.632416
 20
199.854279
 10
330.67804
 20
199.854126
 10
329.775146
 20
199.853882
 10
328.926239
 20
199.853577
 10
328.133423
 20
199.853287
 10
327.39917
 20
199.853043
 10
326.726196
 20
199.852859
 10
326.11731
 20
199.852768
 10
325.575195
 20
199.852753
 10
325.101624
 20
199.852829
 10
324.697723
 20
199.852982
 10
324.364655
 20
199.85318
 10
324.103546
 20
199.853424
 10
323.915253
 20
199.853653
 10
323.800598
 20
199.853836
 10
323.760345
 20
199.853912
  0
LINE
  5
14A
330
12F
100
AcDbEntity
  8
0
  6
Continuous
 62
     0
370
    30
100
AcDbLine
 10
367.759953
 20
249.354294
 30
0.0
 11
366.469826
 21
249.354294
 31
0.0
  0
LINE
  5
14B
330
12F
100
AcDbEntity
  8
0
  6
Continuous
 62
     0
370
    30
100
AcDbLine
 10
325.049539
 20
249.354294
 30
0.0
 11
323.759953
 21
249.354294
 31
0.0
  0
LWPOLYLINE
  5
14C
330
12F
100
AcDbEntity
  8
0
  6
Continuous
 62
     0
370
     0
100
AcDbPolyline
 90
       25
 70
     0
 43
0.0
 10
345.759949
 20
212.4543
 10
346.294647
 20
212.418732
 10
346.822968
 20
212.312469
 10
347.331512
 20
212.139297
 10
347.810822
 20
211.904678
 10
348.256409
 20
211.611389
 10
348.657288
 20
211.258865
 10
349.00885
 20
210.857086
 10
349.306213
 20
210.413788
 10
349.543213
 20
209.933228
 10
349.716309
 20
209.4245
 10
349.822662
 20
208.898254
 10
349.859589
 20
208.364136
 10
349.825256
 20
207.82988
 10
349.721344
 20
207.303207
 10
349.550598
 20
206.793686
 10
349.315826
 20
206.31192
 10
349.020569
 20
205.867172
 10
348.670898
 20
205.46376
 10
348.27182
 20
205.109177
 10
347.827728
 20
204.813614
 10
347.349518
 20
204.576797
 10
346.841949
 20
204.401291
 10
346.314056
 20
204.292618
 10
345.759979
 20
204.254684
  0
LWPOLYLINE
  5
14D
330
12F
100
AcDbEntity
  8
0
  6
Continuous
 62
     0
370
     0
100
AcDbPolyline
 90
       25
 70
     0
 43
0.0
 10
345.759979
 20
204.254684
 10
345.225281
 20
204.290009
 10
344.696899
 20
204.396164
 10
344.188354
 20
204.569321
 10
343.709045
 20
204.804001
 10
343.263489
 20
205.097351
 10
342.86264
 20
205.449921
 10
342.511078
 20
205.851746
 10
342.213745
 20
206.295044
 10
341.976746
 20
206.77562
 10
341.80365
 20
207.284363
 10
341.697266
 20
207.810593
 10
341.660309
 20
208.344727
 10
341.694611
 20
208.878983
 10
341.798584
 20
209.405655
 10
341.969421
 20
209.915161
 10
342.204285
 20
210.396912
 10
342.499512
 20
210.84166
 10
342.849152
 20
211.245102
 10
343.24823
 20
211.599701
 10
343.692352
 20
211.895233
 10
344.170593
 20
212.131958
 10
344.678192
 20
212.307404
 10
345.206085
 20
212.416153
 10
345.759949
 20
212.4543
  0
LINE
  5
14E
330
12F
100
AcDbEntity
  8
0
  6
Continuous
 62
     0
370
    30
100
AcDbLine
 10
367.759953
 20
249.354294
 30
0.0
 11
367.759953
 21
199.854293
 31
0.0
  0
LINE
  5
14F
330
12F
100
AcDbEntity
  8
0
  6
Continuous
 62
     0
370
    30
100
AcDbLine
 10
323.759953
 20
249.354294
 30
0.0
 11
323.759953
 21
199.854293
 31
0.0
  0
LINE
  5
150
330
12F
100
AcDbEntity
  8
0
  6
Continuous
 62
     0
370
    30
100
AcDbLine
 10
324.259566
 20
199.354681
 30
0.0
 11
323.760251
 21
199.853996
 31
0.0
  0
LINE
  5
151
330
12F
100
AcDbEntity
  8
0
  6
Continuous
 62
     0
370
    30
100
AcDbLine
 10
367.260341
 20
199.354682
 30
0.0
 11
367.759654
 21
199.853996
 31
0.0
  0
LINE
  5
152
330
12F
100
AcDbEntity
  8
0
  6
Continuous
 62
     0
370
    30
100
AcDbLine
 10
317.259686
 20
263.594253
 30
0.0
 11
317.259686
 21
253.874253
 31
0.0
  0
LINE
  5
153
330
12F
100
AcDbEntity
  8
0
  6
Continuous
 62
     0
370
     0
100
AcDbLine
 10
317.259686
 20
253.874253
 30
0.0
 11
317.759686
 21
253.874253
 31
0.0
  0
LINE
  5
154
330
12F
100
AcDbEntity
  8
0
  6
Continuous
 62
     0
370
     0
100
AcDbLine
 10
317.759686
 20
253.874253
 30
0.0
 11
317.759686
 21
263.594253
 31
0.0
  0
LINE
  5
155
330
12F
100
AcDbEntity
  8
0
  6
Continuous
 62
     0
370
    30
100
AcDbLine
 10
317.759686
 20
263.594253
 30
0.0
 11
317.259686
 21
263.594253
 31
0.0
  0
LINE
  5
156
330
12F
100
AcDbEntity
  8
0
  6
Continuous
 62
     0
370
    30
100
AcDbLine
 10
373.759686
 20
253.374253
 30
0.0
 11
317.759686
 21
253.374253
 31
0.0
  0
LINE
  5
157
330
12F
100
AcDbEntity
  8
0
  6
Continuous
 62
     0
370
    30
100
AcDbLine
 10
374.259686
 20
263.594253
 30
0.0
 11
374.259686
 21
253.874253
 31
0.0
  0
LINE
  5
158
330
12F
100
AcDbEntity
  8
0
  6
Continuous
 62
     0
370
     0
100
AcDbLine
 10
373.759686
 20
263.594253
 30
0.0
 11
373.759686
 21
253.874253
 31
0.0
  0
LINE
  5
159
330
12F
100
AcDbEntity
  8
0
  6
Continuous
 62
     0
370
     0
100
AcDbLine
 10
373.759686
 20
253.874253
 30
0.0
 11
374.259686
 21
253.874253
 31
0.0
  0
LINE
  5
15A
330
12F
100
AcDbEntity
  8
0
  6
Continuous
 62
     0
370
    30
100
AcDbLine
 10
374.259686
 20
263.594253
 30
0.0
 11
373.759686
 21
263.594253
 31
0.0
  0
LINE
  5
15B
330
12F
100
AcDbEntity
  8
0
  6
Continuous
 62
     0
370
    30
100
AcDbLine
 10
373.759686
 20
263.594253
 30
0.0
 11
317.759686
 21
263.594253
 31
0.0
  0
LINE
  5
15C
330
12F
100
AcDbEntity
  8
0
  6
Continuous
 62
     0
370
     0
100
AcDbLine
 10
317.759686
 20
253.874253
 30
0.0
 11
373.759686
 21
253.874253
 31
0.0
  0
LINE
  5
15D
330
12F
100
AcDbEntity
  8
0
  6
Continuous
 62
     0
370
     0
100
AcDbLine
 10
317.759686
 20
253.874253
 30
0.0
 11
317.759686
 21
253.374253
 31
0.0
  0
LWPOLYLINE
  5
15E
330
12F
100
AcDbEntity
  8
0
  6
Continuous
 62
     0
370
     0
100
AcDbPolyline
 90
        6
 70
     0
 43
0.0
 10
373.759674
 20
253.374252
 10
373.759674
 20
253.398315
 10
373.759674
 20
253.464005
 10
373.759674
 20
253.557327
 10
373.759674
 20
253.681595
 10
373.759674
 20
253.874252
  0
ARC
  5
15F
330
12F
100
AcDbEntity
  8
0
  6
Continuous
 62
     0
370
    30
100
AcDbCircle
 10
373.759686
 20
253.874253
 30
0.0
 40
0.5000000000003517
100
AcDbArc
 50
270.0
 51
360.0
  0
ARC
  5
160
330
12F
100
AcDbEntity
  8
0
  6
Continuous
 62
     0
370
    30
100
AcDbCircle
 10
317.759686
 20
253.874253
 30
0.0
 40
0.5000000000000142
100
AcDbArc
 50
180.0
 51
270.0
  0
LWPOLYLINE
  5
161
330
12F
100
AcDbEntity
  8
0
  6
Continuous
 62
     0
370
     0
100
AcDbPolyline
 90
       17
 70
     0
 43
0.0
 10
365.437347
 20
245.781082
 10
365.447479
 20
246.503357
 10
365.45517
 20
247.219864
 10
365.463043
 20
247.922302
 10
365.471466
 20
248.603653
 10
365.479675
 20
249.257935
 10
365.487305
 20
249.879227
 10
365.494232
 20
250.461731
 10
365.500427
 20
250.999939
 10
365.50592
 20
251.489014
 10
365.510773
 20
251.924347
 10
365.515015
 20
252.301727
 10
365.518707
 20
252.617218
 10
365.521912
 20
252.868057
 10
365.524658
 20
253.052597
 10
365.526947
 20
253.16925
 10
365.5289
 20
253.216995
  0
LINE
  5
162
330
12F
100
AcDbEntity
  8
0
  6
Continuous
 62
     0
370
     0
100
AcDbLine
 10
365.528902
 20
253.216988
 30
0.0
 11
364.910564
 21
253.208035
 31
0.0
  0
LWPOLYLINE
  5
163
330
12F
100
AcDbEntity
  8
0
  6
Continuous
 62
     0
370
     0
100
AcDbPolyline
 90
        4
 70
     0
 43
0.0
 10
364.910553
 20
253.208038
 10
359.233002
 20
253.130646
 10
353.555267
 20
253.068542
 10
345.759674
 20
253.030685
  0
LINE
  5
164
330
12F
100
AcDbEntity
  8
0
  6
Continuous
 62
     0
370
     0
100
AcDbLine
 10
345.759682
 20
253.03069
 30
0.0
 11
345.759682
 21
245.597289
 31
0.0
  0
LWPOLYLINE
  5
165
330
12F
100
AcDbEntity
  8
0
  6
Continuous
 62
     0
370
     0
100
AcDbPolyline
 90
        4
 70
     0
 43
0.0
 10
345.759674
 20
245.59729
 10
351.753113
 20
245.619965
 10
357.734161
 20
245.677994
 10
365.437347
 20
245.781082
  0
LINE
  5
166
330
12F
100
AcDbEntity
  8
0
  6
Continuous
 62
     0
370
     0
100
AcDbLine
 10
365.437353
 20
245.780662
 30
0.0
 11
365.268371
 21
226.265529
 31
0.0
  0
LWPOLYLINE
  5
167
330
12F
100
AcDbEntity
  8
0
  6
Continuous
 62
     0
370
     0
100
AcDbPolyline
 90
        7
 70
     0
 43
0.0
 10
365.268372
 20
226.265533
 10
365.522888
 20
226.263596
 10
365.76123
 20
226.26236
 10
365.966614
 20
226.261917
 10
366.125885
 20
226.262283
 10
366.228668
 20
226.263443
 10
366.268341
 20
226.265533
  0
LINE
  5
168
330
12F
100
AcDbEntity
  8
0
  6
Continuous
 62
     0
370
    30
100
AcDbLine
 10
366.268333
 20
226.265529
 30
0.0
 11
366.438641
 21
245.780858
 31
0.0
  0
LWPOLYLINE
  5
169
330
12F
100
AcDbEntity
  8
0
  6
Continuous
 62
     0
370
     0
100
AcDbPolyline
 90
        7
 70
     0
 43
0.0
 10
366.438629
 20
245.780853
 10
366.405487
 20
245.77887
 10
366.308411
 20
245.777588
 10
366.153839
 20
245.7771
 10
365.951996
 20
245.777435
 10
365.71582
 20
245.77858
 10
365.437347
 20
245.780655
  0
LINE
  5
16A
330
12F
100
AcDbEntity
  8
0
  6
Continuous
 62
     0
370
     0
100
AcDbLine
 10
365.268371
 20
226.265529
 30
0.0
 11
365.268371
 21
225.274256
 31
0.0
  0
ARC
  5
16B
330
12F
100
AcDbEntity
  8
0
  6
Continuous
 62
     0
370
    30
100
AcDbCircle
 10
365.268371
 20
226.274256
 30
0.0
 40
1.00000000000067
100
AcDbArc
 50
270.0
 51
359.5
  0
LINE
  5
16C
330
12F
100
AcDbEntity
  8
0
  6
Continuous
 62
     0
370
    30
100
AcDbLine
 10
366.494783
 20
252.214089
 30
0.0
 11
366.438641
 21
245.780858
 31
0.0
  0
LWPOLYLINE
  5
16D
330
12F
100
AcDbEntity
  8
0
  6
Continuous
 62
     0
370
     0
100
AcDbPolyline
 90
        9
 70
     0
 43
0.0
 10
366.494537
 20
252.214096
 10
366.464935
 20
252.416748
 10
366.389496
 20
252.606339
 10
366.283142
 20
252.776978
 10
366.156281
 20
252.923325
 10
366.014648
 20
253.042679
 10
365.863159
 20
253.13269
 10
365.705902
 20
253.191208
 10
365.5289
 20
253.216995
  0
ARC
  5
16E
330
12F
100
AcDbEntity
  8
0
  6
Continuous
 62
     0
370
    30
100
AcDbCircle
 10
367.494539
 20
252.182209
 30
0.0
 40
0.9999907688789995
100
AcDbArc
 50
90.999833
 51
178.173569
  0
ARC
  5
16F
330
12F
100
AcDbEntity
  8
0
  6
Continuous
 62
     0
370
    30
100
AcDbCircle
 10
367.49465
 20
252.195241
 30
0.0
 40
0.9999929687385973
100
AcDbArc
 50
90.966432
 51
178.92004
  0
LINE
  5
170
330
12F
100
AcDbEntity
  8
0
  6
Continuous
 62
     0
370
     0
100
AcDbLine
 10
367.477784
 20
253.195092
 30
0.0
 11
367.478296
 21
253.205211
 31
0.0
  0
ARC
  5
171
330
12F
100
AcDbEntity
  8
0
  6
Continuous
 62
     0
370
    30
100
AcDbCircle
 10
367.494735
 20
252.205355
 30
0.0
 40
0.9999909637107879
100
AcDbArc
 50
90.941952
 51
179.499529
  0
LWPOLYLINE
  5
172
330
12F
100
AcDbEntity
  8
0
  6
Continuous
 62
     0
370
     0
100
AcDbPolyline
 90
       10
 70
     0
 43
0.0
 10
367.478302
 20
253.205215
 10
367.43869
 20
253.20845
 10
367.329956
 20
253.210815
 10
367.164978
 20
253.212479
 10
366.954956
 20
253.213638
 10
366.710205
 20
253.214447
 10
366.439148
 20
253.215057
 10
366.148621
 20
253.215607
 10
365.845123
 20
253.216217
 10
365.5289
 20
253.216995
  0
LWPOLYLINE
  5
173
330
12F
100
AcDbEntity
  8
0
  6
Continuous
 62
     0
370
     0
100
AcDbPolyline
 90
        4
 70
     0
 43
0.0
 10
326.082031
 20
245.781082
 10
332.051331
 20
245.699097
 10
338.028809
 20
245.633957
 10
345.759674
 20
245.59729
  0
LWPOLYLINE
  5
174
330
12F
100
AcDbEntity
  8
0
  6
Continuous
 62
     0
370
     0
100
AcDbPolyline
 90
        4
 70
     0
 43
0.0
 10
345.759674
 20
253.030685
 10
340.081604
 20
253.051468
 10
334.403748
 20
253.105194
 10
326.608795
 20
253.208038
  0
LINE
  5
175
330
12F
100
AcDbEntity
  8
0
  6
Continuous
 62
     0
370
     0
100
AcDbLine
 10
326.608801
 20
253.208035
 30
0.0
 11
325.990462
 21
253.216988
 31
0.0
  0
LWPOLYLINE
  5
176
330
12F
100
AcDbEntity
  8
0
  6
Continuous
 62
     0
370
     0
100
AcDbPolyline
 90
       17
 70
     0
 43
0.0
 10
325.990448
 20
253.216995
 10
325.992279
 20
253.174469
 10
325.994568
 20
253.062302
 10
325.997253
 20
252.882141
 10
326.000427
 20
252.635574
 10
326.004089
 20
252.324249
 10
326.008301
 20
251.95079
 10
326.013092
 20
251.519119
 10
326.018555
 20
251.033417
 10
326.024719
 20
250.498276
 10
326.031586
 20
249.918503
 10
326.039154
 20
249.299561
 10
326.047363
 20
248.647263
 10
326.055786
 20
247.967484
 10
326.06369
 20
247.266235
 10
326.07135
 20
246.550385
 10
326.082031
 20
245.781082
  0
LWPOLYLINE
  5
177
330
12F
100
AcDbEntity
  8
0
  6
Continuous
 62
     0
370
     0
100
AcDbPolyline
 90
        7
 70
     0
 43
0.0
 10
326.082001
 20
245.780655
 10
325.827209
 20
245.778732
 10
325.588531
 20
245.777512
 10
325.382843
 20
245.7771
 10
325.223297
 20
245.777512
 10
325.120392
 20
245.778717
 10
325.080719
 20
245.780853
  0
LINE
  5
178
330
12F
100
AcDbEntity
  8
0
  6
Continuous
 62
     0
370
    30
100
AcDbLine
 10
325.080724
 20
245.780858
 30
0.0
 11
325.251032
 21
226.265529
 31
0.0
  0
LWPOLYLINE
  5
179
330
12F
100
AcDbEntity
  8
0
  6
Continuous
 62
     0
370
     0
100
AcDbPolyline
 90
        7
 70
     0
 43
0.0
 10
325.251038
 20
226.265533
 10
325.284119
 20
226.263596
 10
325.380981
 20
226.26236
 10
325.535248
 20
226.261917
 10
325.736725
 20
226.262283
 10
325.972565
 20
226.263443
 10
326.251007
 20
226.265533
  0
LINE
  5
17A
330
12F
100
AcDbEntity
  8
0
  6
Continuous
 62
     0
370
     0
100
AcDbLine
 10
326.250993
 20
226.265529
 30
0.0
 11
326.082011
 21
245.780662
 31
0.0
  0
ARC
  5
17B
330
12F
100
AcDbEntity
  8
0
  6
Continuous
 62
     0
370
    30
100
AcDbCircle
 10
326.250993
 20
226.274256
 30
0.0
 40
0.999999999999181
100
AcDbArc
 50
180.5
 51
270.0
  0
LWPOLYLINE
  5
17C
330
12F
100
AcDbEntity
  8
0
  6
Continuous
 62
     0
370
     0
100
AcDbPolyline
 90
        7
 70
     0
 43
0.0
 10
326.251007
 20
225.274261
 10
326.251007
 20
225.30661
 10
326.251007
 20
225.401978
 10
326.251007
 20
225.554581
 10
326.251007
 20
225.754379
 10
326.251007
 20
225.987137
 10
326.251007
 20
226.265533
  0
LINE
  5
17D
330
12F
100
AcDbEntity
  8
0
  6
Continuous
 62
     0
370
    30
100
AcDbLine
 10
325.080724
 20
245.780858
 30
0.0
 11
325.024582
 21
252.214089
 31
0.0
  0
LWPOLYLINE
  5
17E
330
12F
100
AcDbEntity
  8
0
  6
Continuous
 62
     0
370
     0
100
AcDbPolyline
 90
        9
 70
     0
 43
0.0
 10
325.990448
 20
253.216995
 10
325.830292
 20
253.19548
 10
325.672607
 20
253.140396
 10
325.520325
 20
253.053619
 10
325.377411
 20
252.937256
 10
325.248779
 20
252.793655
 10
325.139862
 20
252.625381
 10
325.060577
 20
252.437485
 10
325.024841
 20
252.214096
  0
ARC
  5
17F
330
12F
100
AcDbEntity
  8
0
  6
Continuous
 62
     0
370
    30
100
AcDbCircle
 10
324.024714
 20
252.195241
 30
0.0
 40
0.9999929687685087
100
AcDbArc
 50
1.079956
 51
89.033568
  0
ARC
  5
180
330
12F
100
AcDbEntity
  8
0
  6
Continuous
 62
     0
370
    30
100
AcDbCircle
 10
324.024825
 20
252.182209
 30
0.0
 40
0.9999907689435045
100
AcDbArc
 50
1.826426
 51
89.000167
  0
ARC
  5
181
330
12F
100
AcDbEntity
  8
0
  6
Continuous
 62
     0
370
    30
100
AcDbCircle
 10
324.024629
 20
252.205355
 30
0.0
 40
0.999990963711401
100
AcDbArc
 50
0.500471
 51
89.058051
  0
LINE
  5
182
330
12F
100
AcDbEntity
  8
0
  6
Continuous
 62
     0
370
     0
100
AcDbLine
 10
324.041068
 20
253.205211
 30
0.0
 11
324.041581
 21
253.195092
 31
0.0
  0
LWPOLYLINE
  5
183
330
12F
100
AcDbEntity
  8
0
  6
Continuous
 62
     0
370
     0
100
AcDbPolyline
 90
       10
 70
     0
 43
0.0
 10
325.990448
 20
253.216995
 10
325.67984
 20
253.216217
 10
325.37616
 20
253.215622
 10
325.085388
 20
253.215073
 10
324.813904
 20
253.214462
 10
324.568573
 20
253.213654
 10
324.357849
 20
253.212509
 10
324.191956
 20
253.210846
 10
324.082062
 20
253.208496
 10
324.041077
 20
253.205215
  0
LINE
  5
184
330
12F
100
AcDbEntity
  8
0
  6
Continuous
 62
     0
370
    30
100
AcDbLine
 10
365.268371
 20
225.274256
 30
0.0
 11
326.250993
 21
225.274256
 31
0.0
  0
LINE
  5
185
330
12F
100
AcDbEntity
  8
0
  6
Continuous
 62
     0
370
     0
100
AcDbLine
 10
365.268371
 20
226.265529
 30
0.0
 11
326.250993
 21
226.265529
 31
0.0
  0
LINE
  5
186
330
12F
100
AcDbEntity
  8
0
  6
Continuous
 62
     0
370
    30
100
AcDbLine
 10
369.759682
 20
253.221891
 30
0.0
 11
321.759682
 21
253.221891
 31
0.0
  0
LINE
  5
187
330
12F
100
AcDbEntity
  8
0
  6
Continuous
 62
     0
370
    30
100
AcDbLine
 10
369.759682
 20
253.221891
 30
0.0
 11
369.759682
 21
253.374254
 31
0.0
  0
LINE
  5
188
330
12F
100
AcDbEntity
  8
0
  6
Continuous
 62
     0
370
    30
100
AcDbLine
 10
321.759682
 20
253.221891
 30
0.0
 11
321.759682
 21
253.374254
 31
0.0
  0
LINE
  5
189
330
12F
100
AcDbEntity
  8
0
  6
Continuous
 62
     0
370
    30
100
AcDbLine
 10
367.47709
 20
253.182048
 30
0.0
 11
369.759682
 21
253.221891
 31
0.0
  0
LINE
  5
18A
330
12F
100
AcDbEntity
  8
0
  6
Continuous
 62
     0
370
    30
100
AcDbLine
 10
321.759682
 20
253.221891
 30
0.0
 11
324.042275
 21
253.182048
 31
0.0
  0
ENDBLK
  5
18C
330
12F
100
AcDbEntity
  8
0
100
AcDbBlockEnd
  0
BLOCK
  5
1F7
330
18E
100
AcDbEntity
  8
0
100
AcDbBlockBegin
  2
c
 70
     0
 10
266.940338
 20
79.445274
 30
0.0
  3
c
  1

  0
ARC
  5
18F
330
18E
100
AcDbEntity
  8
0
  6
Continuous
 62
     0
370
    30
100
AcDbCircle
 10
483.402194
 20
352.39543
 30
0.0
 40
0.6999999880787424
100
AcDbArc
 50
270.3
 51
0.0
  0
ARC
  5
190
330
18E
100
AcDbEntity
  8
0
  6
Continuous
 62
     0
370
    30
100
AcDbCircle
 10
483.402194
 20
469.502741
 30
0.0
 40
0.6999999880784751
100
AcDbArc
 50
0.0
 51
89.7
  0
LINE
  5
191
330
18E
100
AcDbEntity
  8
0
  6
Continuous
 62
     0
370
     0
100
AcDbLine
 10
483.405859
 20
352.39543
 30
0.0
 11
473.202194
 21
352.342003
 31
0.0
  0
LINE
  5
192
330
18E
100
AcDbEntity
  8
0
  6
Continuous
 62
     0
370
    30
100
AcDbLine
 10
473.202194
 20
352.342003
 30
0.0
 11
473.202194
 21
351.642013
 31
0.0
  0
LINE
  5
193
330
18E
100
AcDbEntity
  8
0
  6
Continuous
 62
     0
370
    30
100
AcDbLine
 10
473.202194
 20
351.642013
 30
0.0
 11
483.405859
 21
351.695439
 31
0.0
  0
ARC
  5
194
330
18E
100
AcDbEntity
  8
0
  6
Continuous
 62
     0
370
     0
100
AcDbCircle
 10
449.982911
 20
352.045436
 30
0.0
 40
33.42478041334619
100
AcDbArc
 50
359.400035
 51
0.59996
  0
LWPOLYLINE
  5
195
330
18E
100
AcDbEntity
  8
0
  6
Continuous
 62
     0
370
     0
100
AcDbPolyline
 90
        6
 70
     0
 43
0.0
 10
484.102203
 20
469.502747
 10
484.065491
 20
469.502747
 10
483.966156
 20
469.502747
 10
483.825134
 20
469.502747
 10
483.636139
 20
469.502747
 10
483.405853
 20
469.502747
  0
LINE
  5
196
330
18E
100
AcDbEntity
  8
0
  6
Continuous
 62
     0
370
     0
100
AcDbLine
 10
483.405859
 20
469.502741
 30
0.0
 11
483.405859
 21
352.39543
 31
0.0
  0
LINE
  5
197
330
18E
100
AcDbEntity
  8
0
  6
Continuous
 62
     0
370
     0
100
AcDbLine
 10
483.405859
 20
352.39543
 30
0.0
 11
484.102194
 21
352.39543
 31
0.0
  0
LINE
  5
198
330
18E
100
AcDbEntity
  8
0
  6
Continuous
 62
     0
370
    30
100
AcDbLine
 10
484.102194
 20
352.39543
 30
0.0
 11
484.102194
 21
469.502741
 31
0.0
  0
ARC
  5
199
330
18E
100
AcDbEntity
  8
0
  6
Continuous
 62
     0
370
     0
100
AcDbCircle
 10
449.982911
 20
469.852735
 30
0.0
 40
33.42478041298378
100
AcDbArc
 50
359.40004
 51
0.599965
  0
LINE
  5
19A
330
18E
100
AcDbEntity
  8
0
  6
Continuous
 62
     0
370
    30
100
AcDbLine
 10
483.405859
 20
470.202732
 30
0.0
 11
473.202194
 21
470.256158
 31
0.0
  0
LWPOLYLINE
  5
19B
330
18E
100
AcDbEntity
  8
0
  6
Continuous
 62
     0
370
    30
100
AcDbPolyline
 90
        6
 70
     0
 43
0.0
 10
473.202179
 20
470.256165
 10
473.202209
 20
470.223145
 10
473.202179
 20
470.127106
 10
473.202179
 20
469.977661
 10
473.202209
 20
469.786926
 10
473.202179
 20
469.556183
  0
LINE
  5
19C
330
18E
100
AcDbEntity
  8
0
  6
Continuous
 62
     0
370
     0
100
AcDbLine
 10
473.202194
 20
469.556168
 30
0.0
 11
483.405859
 21
469.502741
 31
0.0
  0
LINE
  5
19D
330
18E
100
AcDbEntity
  8
0
  6
Continuous
 62
     0
370
    30
100
AcDbLine
 10
473.202194
 20
469.556168
 30
0.0
 11
473.202194
 21
352.342003
 31
0.0
  0
LINE
  5
19E
330
18E
100
AcDbEntity
  8
0
  6
Continuous
 62
     0
370
    30
100
AcDbLine
 10
484.102192
 20
429.949318
 30
0.0
 11
487.322193
 21
429.949318
 31
0.0
  0
LINE
  5
19F
330
18E
100
AcDbEntity
  8
0
  6
Continuous
 62
     0
370
    30
100
AcDbLine
 10
484.102192
 20
391.949318
 30
0.0
 11
487.322193
 21
391.949318
 31
0.0
  0
LINE
  5
1A0
330
18E
100
AcDbEntity
  8
0
  6
Continuous
 62
     0
370
    30
100
AcDbLine
 10
532.272193
 20
440.279089
 30
0.0
 11
524.372193
 21
440.279089
 31
0.0
  0
LINE
  5
1A1
330
18E
100
AcDbEntity
  8
0
  6
Continuous
 62
     0
370
    30
100
AcDbLine
 10
532.272193
 20
440.279089
 30
0.0
 11
532.272193
 21
432.949089
 31
0.0
  0
LWPOLYLINE
  5
1A2
330
18E
100
AcDbEntity
  8
0
  6
Continuous
 62
     0
370
    30
100
AcDbPolyline
 90
       24
 70
     0
 43
0.0
 10
524.372192
 20
432.951599
 10
524.409241
 20
432.943817
 10
524.518921
 20
432.922424
 10
524.698853
 20
432.890564
 10
524.946411
 20
432.851227
 10
525.256592
 20
432.807007
 10
525.623108
 20
432.760376
 10
526.039795
 20
432.713715
 10
526.499207
 20
432.669983
 10
526.992554
 20
432.632874
 10
527.510742
 20
432.606018
 10
528.044495
 20
432.592407
 10
528.583557
 20
432.592438
 10
529.117676
 20
432.605896
 10
529.636536
 20
432.632172
 10
530.130798
 20
432.668579
 10
530.591431
 20
432.711761
 10
531.009338
 20
432.758331
 10
531.377319
 20
432.80542
 10
531.689209
 20
432.850342
 10
531.939087
 20
432.890442
 10
532.121643
 20
432.922821
 10
532.233459
 20
432.943787
 10
532.272217
 20
432.949097
  0
LWPOLYLINE
  5
1A3
330
18E
100
AcDbEntity
  8
0
  6
Continuous
 62
     0
370
    30
100
AcDbPolyline
 90
       22
 70
     0
 43
0.0
 10
524.872192
 20
440.779083
 10
524.910645
 20
440.779083
 10
525.025085
 20
440.779083
 10
525.213196
 20
440.779083
 10
525.470459
 20
440.779083
 10
525.791382
 20
440.779083
 10
526.16864
 20
440.779083
 10
526.593994
 20
440.779083
 10
527.0578
 20
440.779083
 10
527.549805
 20
440.779083
 10
528.059082
 20
440.779083
 10
528.574158
 20
440.779083
 10
529.083618
 20
440.779083
 10
529.576172
 20
440.779083
 10
530.04071
 20
440.779083
 10
530.46698
 20
440.779083
 10
530.845398
 20
440.779083
 10
531.167603
 20
440.779083
 10
531.426331
 20
440.779083
 10
531.615967
 20
440.779083
 10
531.732056
 20
440.779083
 10
531.772217
 20
440.779083
  0
LINE
  5
1A4
330
18E
100
AcDbEntity
  8
0
  6
Continuous
 62
     0
370
    30
100
AcDbLine
 10
531.772193
 20
440.779089
 30
0.0
 11
532.272193
 21
440.279089
 31
0.0
  0
LWPOLYLINE
  5
1A5
330
18E
100
AcDbEntity
  8
0
  6
Continuous
 62
     0
370
    30
100
AcDbPolyline
 90
       53
 70
     0
 43
0.0
 10
537.322205
 20
432.449097
 10
537.322205
 20
432.409943
 10
537.322205
 20
432.292328
 10
537.322205
 20
432.096954
 10
537.322205
 20
431.824707
 10
537.322205
 20
431.476318
 10
537.322205
 20
431.052734
 10
537.322205
 20
430.555664
 10
537.322205
 20
429.987305
 10
537.322205
 20
429.349792
 10
537.322205
 20
428.645264
 10
537.322205
 20
427.875916
 10
537.322205
 20
427.044586
 10
537.322205
 20
426.154633
 10
537.322205
 20
425.209442
 10
537.322205
 20
424.212372
 10
537.322205
 20
423.166809
 10
537.322205
 20
422.076447
 10
537.322205
 20
420.945557
 10
537.322205
 20
419.77832
 10
537.322205
 20
418.57901
 10
537.322205
 20
417.351837
 10
537.322205
 20
416.101196
 10
537.322205
 20
414.831726
 10
537.322205
 20
413.548126
 10
537.322205
 20
412.255096
 10
537.322205
 20
410.957336
 10
537.322205
 20
409.659546
 10
537.322205
 20
408.366425
 10
537.322205
 20
407.082672
 10
537.322205
 20
405.812988
 10
537.322205
 20
404.562073
 10
537.322205
 20
403.334595
 10
537.322205
 20
402.134888
 10
537.322205
 20
400.967224
 10
537.322205
 20
399.835846
 10
537.322205
 20
398.744965
 10
537.322205
 20
397.698792
 10
537.322205
 20
396.70108
 10
537.322205
 20
395.755219
 10
537.322205
 20
394.864532
 10
537.322205
 20
394.03244
 10
537.322205
 20
393.262299
 10
537.322205
 20
392.556915
 10
537.322205
 20
391.918549
 10
537.322205
 20
391.349274
 10
537.322205
 20
390.851318
 10
537.322205
 20
390.426758
 10
537.322205
 20
390.077423
 10
537.322205
 20
389.804199
 10
537.322205
 20
389.607849
 10
537.322205
 20
389.489227
 10
537.322205
 20
389.449097
  0
LINE
  5
1A6
330
18E
100
AcDbEntity
  8
0
  6
Continuous
 62
     0
370
    30
100
AcDbLine
 10
537.322193
 20
389.449089
 30
0.0
 11
536.822193
 21
388.949089
 31
0.0
  0
LWPOLYLINE
  5
1A7
330
18E
100
AcDbEntity
  8
0
  6
Continuous
 62
     0
370
    30
100
AcDbPolyline
 90
       54
 70
     0
 43
0.0
 10
536.822205
 20
432.949097
 10
536.822449
 20
432.909912
 10
536.822876
 20
432.793274
 10
536.823303
 20
432.599976
 10
536.823608
 20
432.331055
 10
536.82373
 20
431.987549
 10
536.823669
 20
431.570587
 10
536.823486
 20
431.081299
 10
536.823181
 20
430.520905
 10
536.822815
 20
429.891296
 10
536.822449
 20
429.195374
 10
536.822266
 20
428.436005
 10
536.822205
 20
427.616089
 10
536.822388
 20
426.738129
 10
536.822693
 20
425.804504
 10
536.822998
 20
424.818207
 10
536.823303
 20
423.782715
 10
536.823486
 20
422.701843
 10
536.823669
 20
421.579651
 10
536.82373
 20
420.420074
 10
536.82373
 20
419.227234
 10
536.823608
 20
418.005402
 10
536.823425
 20
416.75885
 10
536.823181
 20
415.491974
 10
536.822937
 20
414.209106
 10
536.822754
 20
412.914795
 10
536.822571
 20
411.613647
 10
536.822632
 20
410.31015
 10
536.822754
 20
409.008881
 10
536.822937
 20
407.714417
 10
536.823242
 20
406.431274
 10
536.823425
 20
405.164032
 10
536.823608
 20
403.917053
 10
536.82373
 20
402.694733
 10
536.823792
 20
401.501312
 10
536.823669
 20
400.341156
 10
536.823547
 20
399.218231
 10
536.823303
 20
398.136566
 10
536.822998
 20
397.100128
 10
536.822693
 20
396.112701
 10
536.822449
 20
395.177734
 10
536.822266
 20
394.298309
 10
536.822205
 20
393.476898
 10
536.822388
 20
392.716095
 10
536.822693
 20
392.01886
 10
536.823059
 20
391.388153
 10
536.823364
 20
390.826904
 10
536.823547
 20
390.336975
 10
536.823608
 20
389.919281
 10
536.823547
 20
389.574707
 10
536.823242
 20
389.30423
 10
536.822876
 20
389.108978
 10
536.822449
 20
388.990173
 10
536.822205
 20
388.949097
  0
LINE
  5
1A8
330
18E
100
AcDbEntity
  8
0
  6
Continuous
 62
     0
370
    30
100
AcDbLine
 10
523.572193
 20
388.949089
 30
0.0
 11
487.322193
 21
388.949089
 31
0.0
  0
LINE
  5
1A9
330
18E
100
AcDbEntity
  8
0
  6
Continuous
 62
     0
370
    30
100
AcDbLine
 10
487.322193
 20
432.949089
 30
0.0
 11
487.322193
 21
388.949089
 31
0.0
  0
LWPOLYLINE
  5
1AA
330
18E
100
AcDbEntity
  8
0
  6
Continuous
 62
     0
370
     0
100
AcDbPolyline
 90
       26
 70
     0
 43
0.0
 10
523.572205
 20
388.949097
 10
523.610229
 20
388.957214
 10
523.724304
 20
388.981171
 10
523.910339
 20
389.019165
 10
524.16272
 20
389.068878
 10
524.477478
 20
389.127533
 10
524.856384
 20
389.190979
 10
525.290833
 20
389.255493
 10
525.771057
 20
389.317322
 10
526.293091
 20
389.372314
 10
526.849426
 20
389.417114
 10
527.429077
 20
389.449097
 10
528.021484
 20
389.46579
 10
528.617798
 20
389.465851
 10
529.210266
 20
389.44931
 10
529.7901
 20
389.41745
 10
530.346619
 20
389.372742
 10
530.869019
 20
389.317841
 10
531.349609
 20
389.256042
 10
531.784485
 20
389.191528
 10
532.16394
 20
389.128052
 10
532.479248
 20
389.069366
 10
532.732178
 20
389.019531
 10
532.918823
 20
388.981445
 10
533.033447
 20
388.957336
 10
533.072205
 20
388.949097
  0
LINE
  5
1AB
330
18E
100
AcDbEntity
  8
0
  6
Continuous
 62
     0
370
    30
100
AcDbLine
 10
533.072193
 20
388.949089
 30
0.0
 11
536.822193
 21
388.949089
 31
0.0
  0
LWPOLYLINE
  5
1AC
330
18E
100
AcDbEntity
  8
0
  6
Continuous
 62
     0
370
     0
100
AcDbPolyline
 90
       24
 70
     0
 43
0.0
 10
532.421814
 20
432.949097
 10
532.38324
 20
432.941956
 10
532.267395
 20
432.92099
 10
532.078979
 20
432.888062
 10
531.824158
 20
432.845337
 10
531.504761
 20
432.796021
 10
531.122559
 20
432.743988
 10
530.689514
 20
432.692719
 10
530.212463
 20
432.646118
 10
529.697754
 20
432.607727
 10
529.157043
 20
432.580109
 10
528.602173
 20
432.565582
 10
528.04303
 20
432.565582
 10
527.488159
 20
432.580048
 10
526.947449
 20
432.607666
 10
526.432739
 20
432.646088
 10
525.955566
 20
432.692657
 10
525.522461
 20
432.743896
 10
525.140076
 20
432.795929
 10
524.820557
 20
432.845276
 10
524.565674
 20
432.88797
 10
524.377136
 20
432.920959
 10
524.261108
 20
432.941925
 10
524.222168
 20
432.949097
  0
LINE
  5
1AD
330
18E
100
AcDbEntity
  8
0
  6
Continuous
 62
     0
370
    30
100
AcDbLine
 10
523.572193
 20
388.949089
 30
0.0
 11
533.072193
 21
388.949089
 31
0.0
  0
LINE
  5
1AE
330
18E
100
AcDbEntity
  8
0
  6
Continuous
 62
     0
370
    30
100
AcDbLine
 10
532.272193
 20
432.949089
 30
0.0
 11
532.421796
 21
432.949089
 31
0.0
  0
LINE
  5
1AF
330
18E
100
AcDbEntity
  8
0
  6
Continuous
 62
     0
370
    30
100
AcDbLine
 10
487.322193
 20
432.949089
 30
0.0
 11
524.222193
 21
432.949089
 31
0.0
  0
LINE
  5
1B0
330
18E
100
AcDbEntity
  8
0
  6
Continuous
 62
     0
370
    30
100
AcDbLine
 10
536.822194
 20
432.949089
 30
0.0
 11
532.421796
 21
432.949089
 31
0.0
  0
LINE
  5
1B1
330
18E
100
AcDbEntity
  8
0
  6
Continuous
 62
     0
370
    30
100
AcDbLine
 10
537.322193
 20
432.449089
 30
0.0
 11
536.822193
 21
432.949089
 31
0.0
  0
LINE
  5
1B2
330
18E
100
AcDbEntity
  8
0
  6
Continuous
 62
     0
370
    30
100
AcDbLine
 10
524.872193
 20
440.779089
 30
0.0
 11
524.372193
 21
440.279089
 31
0.0
  0
LINE
  5
1B3
330
18E
100
AcDbEntity
  8
0
  6
Continuous
 62
     0
370
    30
100
AcDbLine
 10
524.372193
 20
440.279089
 30
0.0
 11
524.372193
 21
432.951609
 31
0.0
  0
LINE
  5
1B4
330
18E
100
AcDbEntity
  8
0
  6
Continuous
 62
     0
370
     0
100
AcDbLine
 10
473.082228
 20
568.949821
 30
0.0
 11
482.802228
 21
568.949821
 31
0.0
  0
LINE
  5
1B5
330
18E
100
AcDbEntity
  8
0
  6
Continuous
 62
     0
370
     0
100
AcDbLine
 10
482.802228
 20
568.949821
 30
0.0
 11
482.802228
 21
569.449821
 31
0.0
  0
LINE
  5
1B6
330
18E
100
AcDbEntity
  8
0
  6
Continuous
 62
     0
370
    30
100
AcDbLine
 10
482.802228
 20
569.449821
 30
0.0
 11
473.082228
 21
569.449821
 31
0.0
  0
LINE
  5
1B7
330
18E
100
AcDbEntity
  8
0
  6
Continuous
 62
     0
370
    30
100
AcDbLine
 10
473.082228
 20
569.449821
 30
0.0
 11
473.082228
 21
568.949821
 31
0.0
  0
LINE
  5
1B8
330
18E
100
AcDbEntity
  8
0
  6
Continuous
 62
     0
370
    30
100
AcDbLine
 10
483.302228
 20
568.949821
 30
0.0
 11
483.302228
 21
512.949821
 31
0.0
  0
LINE
  5
1B9
330
18E
100
AcDbEntity
  8
0
  6
Continuous
 62
     0
370
    30
100
AcDbLine
 10
473.082228
 20
568.949821
 30
0.0
 11
473.082228
 21
512.949821
 31
0.0
  0
LINE
  5
1BA
330
18E
100
AcDbEntity
  8
0
  6
Continuous
 62
     0
370
     0
100
AcDbLine
 10
473.082228
 20
512.949821
 30
0.0
 11
482.802228
 21
512.949821
 31
0.0
  0
LINE
  5
1BB
330
18E
100
AcDbEntity
  8
0
  6
Continuous
 62
     0
370
     0
100
AcDbLine
 10
482.802228
 20
512.949821
 30
0.0
 11
482.802228
 21
568.949821
 31
0.0
  0
LINE
  5
1BC
330
18E
100
AcDbEntity
  8
0
  6
Continuous
 62
     0
370
    30
100
AcDbLine
 10
473.082228
 20
512.449821
 30
0.0
 11
482.802228
 21
512.449821
 31
0.0
  0
LINE
  5
1BD
330
18E
100
AcDbEntity
  8
0
  6
Continuous
 62
     0
370
     0
100
AcDbLine
 10
482.802228
 20
512.449821
 30
0.0
 11
482.802228
 21
512.949821
 31
0.0
  0
LINE
  5
1BE
330
18E
100
AcDbEntity
  8
0
  6
Continuous
 62
     0
370
    30
100
AcDbLine
 10
473.082228
 20
512.949821
 30
0.0
 11
473.082228
 21
512.449821
 31
0.0
  0
ARC
  5
1BF
330
18E
100
AcDbEntity
  8
0
  6
Continuous
 62
     0
370
    30
100
AcDbCircle
 10
482.802228
 20
568.949821
 30
0.0
 40
0.4999999999963904
100
AcDbArc
 50
360.0
 51
90.0
  0
ARC
  5
1C0
330
18E
100
AcDbEntity
  8
0
  6
Continuous
 62
     0
370
    30
100
AcDbCircle
 10
482.802228
 20
512.949821
 30
0.0
 40
0.4999999999993676
100
AcDbArc
 50
270.0
 51
0.0
  0
LWPOLYLINE
  5
1C1
330
18E
100
AcDbEntity
  8
0
  6
Continuous
 62
     0
370
     0
100
AcDbPolyline
 90
        5
 70
     0
 43
0.0
 10
483.302216
 20
512.949829
 10
483.264587
 20
512.949829
 10
483.157349
 20
512.949829
 10
482.996674
 20
512.949829
 10
482.802216
 20
512.949829
  0
LWPOLYLINE
  5
1C2
330
18E
100
AcDbEntity
  8
0
  6
Continuous
 62
     0
370
     0
100
AcDbPolyline
 90
        6
 70
     0
 43
0.0
 10
483.302216
 20
568.949829
 10
483.278168
 20
568.949829
 10
483.212463
 20
568.949829
 10
483.119141
 20
568.949829
 10
482.994904
 20
568.949829
 10
482.802216
 20
568.949829
  0
ARC
  5
1C3
330
18E
100
AcDbEntity
  8
0
  6
Continuous
 62
     0
370
    30
100
AcDbCircle
 10
491.144624
 20
527.772761
 30
0.0
 40
7.499975632288471
100
AcDbArc
 50
91.210815
 51
179.00008
  0
ARC
  5
1C4
330
18E
100
AcDbEntity
  8
0
  6
Continuous
 62
     0
370
    30
100
AcDbCircle
 10
491.144624
 20
554.126882
 30
0.0
 40
7.499975597602836
100
AcDbArc
 50
180.99992
 51
268.788577
  0
ARC
  5
1C5
330
18E
100
AcDbEntity
  8
0
  6
Continuous
 62
     0
370
     0
100
AcDbCircle
 10
490.961189
 20
527.768284
 30
0.0
 40
7.502072584505338
100
AcDbArc
 50
90.502514
 51
179.425895
  0
LINE
  5
1C6
330
18E
100
AcDbEntity
  8
0
  6
Continuous
 62
     0
370
     0
100
AcDbLine
 10
483.459493
 20
527.843454
 30
0.0
 11
483.468446
 21
527.845144
 31
0.0
  0
ARC
  5
1C7
330
18E
100
AcDbEntity
  8
0
  6
Continuous
 62
     0
370
     0
100
AcDbCircle
 10
483.389069
 20
528.384218
 30
0.0
 40
0.5448863562406616
100
AcDbArc
 50
278.376499
 51
297.90689
  0
ARC
  5
1C8
330
18E
100
AcDbEntity
  8
0
  6
Continuous
 62
     0
370
     0
100
AcDbCircle
 10
483.389069
 20
553.515425
 30
0.0
 40
0.5448863436092073
100
AcDbArc
 50
62.09311
 51
81.623501
  0
LINE
  5
1C9
330
18E
100
AcDbEntity
  8
0
  6
Continuous
 62
     0
370
     0
100
AcDbLine
 10
483.468446
 20
554.054499
 30
0.0
 11
483.459493
 21
554.056189
 31
0.0
  0
ARC
  5
1CA
330
18E
100
AcDbEntity
  8
0
  6
Continuous
 62
     0
370
     0
100
AcDbCircle
 10
490.961189
 20
554.131359
 30
0.0
 40
7.502072687835125
100
AcDbArc
 50
180.574105
 51
269.497486
  0
LWPOLYLINE
  5
1CB
330
18E
100
AcDbEntity
  8
0
  6
Continuous
 62
     0
370
     0
100
AcDbPolyline
 90
        7
 70
     0
 43
0.0
 10
490.895813
 20
546.628784
 10
490.897736
 20
546.596069
 10
490.898956
 20
546.49939
 10
490.899384
 20
546.345154
 10
490.898987
 20
546.143555
 10
490.897766
 20
545.907532
 10
490.89563
 20
545.62915
  0
LINE
  5
1CC
330
18E
100
AcDbEntity
  8
0
  6
Continuous
 62
     0
370
     0
100
AcDbLine
 10
490.895624
 20
545.629151
 30
0.0
 11
510.410953
 21
545.45851
 31
0.0
  0
LWPOLYLINE
  5
1CD
330
18E
100
AcDbEntity
  8
0
  6
Continuous
 62
     0
370
     0
100
AcDbPolyline
 90
        7
 70
     0
 43
0.0
 10
510.41095
 20
545.458496
 10
510.412872
 20
545.713013
 10
510.414124
 20
545.951355
 10
510.414581
 20
546.156738
 10
510.414185
 20
546.31604
 10
510.413025
 20
546.418823
 10
510.41095
 20
546.458496
  0
LINE
  5
1CE
330
18E
100
AcDbEntity
  8
0
  6
Continuous
 62
     0
370
    30
100
AcDbLine
 10
510.410953
 20
546.458472
 30
0.0
 11
498.300052
 21
546.564162
 31
0.0
  0
LINE
  5
1CF
330
18E
100
AcDbEntity
  8
0
  6
Continuous
 62
     0
370
     0
100
AcDbLine
 10
510.410953
 20
545.45851
 30
0.0
 11
511.402226
 21
545.45851
 31
0.0
  0
ARC
  5
1D0
330
18E
100
AcDbEntity
  8
0
  6
Continuous
 62
     0
370
    30
100
AcDbCircle
 10
510.402226
 20
545.45851
 30
0.0
 40
1.000000000829806
100
AcDbArc
 50
0.0
 51
89.5
  0
LINE
  5
1D1
330
18E
100
AcDbEntity
  8
0
  6
Continuous
 62
     0
370
     0
100
AcDbLine
 10
510.410953
 20
545.45851
 30
0.0
 11
510.410953
 21
536.441133
 31
0.0
  0
LINE
  5
1D2
330
18E
100
AcDbEntity
  8
0
  6
Continuous
 62
     0
370
     0
100
AcDbLine
 10
510.410953
 20
536.441133
 30
0.0
 11
511.402226
 21
536.441133
 31
0.0
  0
LINE
  5
1D3
330
18E
100
AcDbEntity
  8
0
  6
Continuous
 62
     0
370
    30
100
AcDbLine
 10
511.402226
 20
536.441133
 30
0.0
 11
511.402226
 21
545.45851
 31
0.0
  0
LWPOLYLINE
  5
1D4
330
18E
100
AcDbEntity
  8
0
  6
Continuous
 62
     0
370
     0
100
AcDbPolyline
 90
        7
 70
     0
 43
0.0
 10
510.41095
 20
536.441162
 10
510.412872
 20
536.186646
 10
510.414124
 20
535.948242
 10
510.414581
 20
535.742859
 10
510.414185
 20
535.583618
 10
510.413025
 20
535.480835
 10
510.41095
 20
535.441162
  0
ARC
  5
1D5
330
18E
100
AcDbEntity
  8
0
  6
Continuous
 62
     0
370
    30
100
AcDbCircle
 10
510.402226
 20
536.441133
 30
0.0
 40
1.000000000830615
100
AcDbArc
 50
270.5
 51
360.0
  0
LINE
  5
1D6
330
18E
100
AcDbEntity
  8
0
  6
Continuous
 62
     0
370
     0
100
AcDbLine
 10
510.410953
 20
536.441133
 30
0.0
 11
490.895624
 21
536.270492
 31
0.0
  0
LWPOLYLINE
  5
1D7
330
18E
100
AcDbEntity
  8
0
  6
Continuous
 62
     0
370
     0
100
AcDbPolyline
 90
        7
 70
     0
 43
0.0
 10
490.89563
 20
536.270508
 10
490.897614
 20
536.015747
 10
490.898895
 20
535.777222
 10
490.899384
 20
535.571777
 10
490.899048
 20
535.412598
 10
490.897888
 20
535.310059
 10
490.895813
 20
535.270874
  0
LINE
  5
1D8
330
18E
100
AcDbEntity
  8
0
  6
Continuous
 62
     0
370
    30
100
AcDbLine
 10
498.300052
 20
535.335481
 30
0.0
 11
510.410953
 21
535.441171
 31
0.0
  0
ARC
  5
1D9
330
18E
100
AcDbEntity
  8
0
  6
Continuous
 62
     0
370
     0
100
AcDbCircle
 10
490.975084
 20
527.757704
 30
0.0
 40
8.513159052409382
100
AcDbArc
 50
90.534798
 51
139.908316
  0
LWPOLYLINE
  5
1DA
330
18E
100
AcDbEntity
  8
0
  6
Continuous
 62
     0
370
     0
100
AcDbPolyline
 90
        7
 70
     0
 43
0.0
 10
484.462402
 20
533.240295
 10
484.197906
 20
532.370239
 10
483.959229
 20
531.498413
 10
483.759583
 20
530.624268
 10
483.606567
 20
529.746521
 10
483.505524
 20
528.864075
 10
483.459503
 20
527.843445
  0
ARC
  5
1DB
330
18E
100
AcDbEntity
  8
0
  6
Continuous
 62
     0
370
     0
100
AcDbCircle
 10
490.971247
 20
554.133787
 30
0.0
 40
8.504972239059136
100
AcDbArc
 50
220.066323
 51
269.490541
  0
LINE
  5
1DC
330
18E
100
AcDbEntity
  8
0
  6
Continuous
 62
     0
370
     0
100
AcDbLine
 10
484.462392
 20
548.659358
 30
0.0
 11
484.472512
 21
546.69769
 31
0.0
  0
ARC
  5
1DD
330
18E
100
AcDbEntity
  8
0
  6
Continuous
 62
     0
370
     0
100
AcDbCircle
 10
-798.335384
 20
540.912584
 30
0.0
 40
1282.820940124787
100
AcDbArc
 50
0.001663
 51
0.258386
  0
ARC
  5
1DE
330
18E
100
AcDbEntity
  8
0
  6
Continuous
 62
     0
370
     0
100
AcDbCircle
 10
-798.335384
 20
540.987059
 30
0.0
 40
1282.82094012924
100
AcDbArc
 50
359.741614
 51
359.998337
  0
LINE
  5
1DF
330
18E
100
AcDbEntity
  8
0
  6
Continuous
 62
     0
370
     0
100
AcDbLine
 10
484.472512
 20
535.201953
 30
0.0
 11
484.462392
 21
533.240285
 31
0.0
  0
LWPOLYLINE
  5
1E0
330
18E
100
AcDbEntity
  8
0
  6
Continuous
 62
     0
370
     0
100
AcDbPolyline
 90
        7
 70
     0
 43
0.0
 10
483.459503
 20
554.056213
 10
483.494934
 20
553.171021
 10
483.587616
 20
552.287964
 10
483.733002
 20
551.409546
 10
483.925842
 20
550.534912
 10
484.159363
 20
549.662781
 10
484.462402
 20
548.659363
  0
LINE
  5
1E1
330
18E
100
AcDbEntity
  8
0
  6
Continuous
 62
     0
370
     0
100
AcDbLine
 10
484.472512
 20
546.69769
 30
0.0
 11
483.48139
 21
546.693228
 31
0.0
  0
LINE
  5
1E2
330
18E
100
AcDbEntity
  8
0
  6
Continuous
 62
     0
370
     0
100
AcDbLine
 10
483.48139
 20
546.693228
 30
0.0
 11
483.482377
 21
546.45623
 31
0.0
  0
ARC
  5
1E3
330
18E
100
AcDbEntity
  8
0
  6
Continuous
 62
     0
370
     0
100
AcDbCircle
 10
-782.893389
 20
540.929984
 30
0.0
 40
1266.387823895492
100
AcDbArc
 50
0.000898
 51
0.250027
  0
LINE
  5
1E4
330
18E
100
AcDbEntity
  8
0
  6
Continuous
 62
     0
370
     0
100
AcDbLine
 10
483.494434
 20
540.949821
 30
0.0
 11
484.485556
 21
540.949821
 31
0.0
  0
LINE
  5
1E5
330
18E
100
AcDbEntity
  8
0
  6
Continuous
 62
     0
370
     0
100
AcDbLine
 10
484.462392
 20
548.659358
 30
0.0
 11
483.471271
 21
548.653524
 31
0.0
  0
LINE
  5
1E6
330
18E
100
AcDbEntity
  8
0
  6
Continuous
 62
     0
370
     0
100
AcDbLine
 10
483.471271
 20
548.653524
 30
0.0
 11
483.48139
 21
546.693228
 31
0.0
  0
LWPOLYLINE
  5
1E7
330
18E
100
AcDbEntity
  8
0
  6
Continuous
 62
     0
370
     0
100
AcDbPolyline
 90
        5
 70
     0
 43
0.0
 10
483.459503
 20
554.056213
 10
483.460968
 20
552.807983
 10
483.462311
 20
551.52478
 10
483.464935
 20
550.183044
 10
483.471283
 20
548.653503
  0
LINE
  5
1E8
330
18E
100
AcDbEntity
  8
0
  6
Continuous
 62
     0
370
     0
100
AcDbLine
 10
483.48139
 20
535.206415
 30
0.0
 11
484.472512
 21
535.201953
 31
0.0
  0
ARC
  5
1E9
330
18E
100
AcDbEntity
  8
0
  6
Continuous
 62
     0
370
     0
100
AcDbCircle
 10
-782.893389
 20
540.969659
 30
0.0
 40
1266.387823831354
100
AcDbArc
 50
359.749973
 51
359.999102
  0
LINE
  5
1EA
330
18E
100
AcDbEntity
  8
0
  6
Continuous
 62
     0
370
     0
100
AcDbLine
 10
483.482377
 20
535.443413
 30
0.0
 11
483.48139
 21
535.206415
 31
0.0
  0
LINE
  5
1EB
330
18E
100
AcDbEntity
  8
0
  6
Continuous
 62
     0
370
     0
100
AcDbLine
 10
483.48139
 20
535.206415
 30
0.0
 11
483.471271
 21
533.246119
 31
0.0
  0
LINE
  5
1EC
330
18E
100
AcDbEntity
  8
0
  6
Continuous
 62
     0
370
     0
100
AcDbLine
 10
483.471271
 20
533.246119
 30
0.0
 11
484.462392
 21
533.240285
 31
0.0
  0
LWPOLYLINE
  5
1ED
330
18E
100
AcDbEntity
  8
0
  6
Continuous
 62
     0
370
     0
100
AcDbPolyline
 90
        5
 70
     0
 43
0.0
 10
483.471283
 20
533.246094
 10
483.465271
 20
531.840149
 10
483.462494
 20
530.492554
 10
483.46109
 20
529.204895
 10
483.459503
 20
527.843445
  0
LINE
  5
1EE
330
18E
100
AcDbEntity
  8
0
  6
Continuous
 62
     0
370
    30
100
AcDbLine
 10
483.64579
 20
527.903643
 30
0.0
 11
483.454591
 21
516.949821
 31
0.0
  0
LWPOLYLINE
  5
1EF
330
18E
100
AcDbEntity
  8
0
  6
Continuous
 62
     0
370
    30
100
AcDbPolyline
 90
       57
 70
     0
 43
0.0
 10
483.45459
 20
564.949829
 10
483.45459
 20
564.918579
 10
483.45459
 20
564.82251
 10
483.45459
 20
564.658142
 10
483.45459
 20
564.422485
 10
483.45459
 20
564.113037
 10
483.45459
 20
563.727844
 10
483.45459
 20
563.265686
 10
483.45459
 20
562.72583
 10
483.45459
 20
562.108582
 10
483.45459
 20
561.414856
 10
483.45459
 20
560.646484
 10
483.45459
 20
559.806152
 10
483.45459
 20
558.897278
 10
483.45459
 20
557.924072
 10
483.45459
 20
556.891602
 10
483.45459
 20
555.805237
 10
483.45459
 20
554.671204
 10
483.45459
 20
553.495911
 10
483.45459
 20
552.286133
 10
483.45459
 20
551.048889
 10
483.45459
 20
549.791138
 10
483.45459
 20
548.519714
 10
483.45459
 20
547.241455
 10
483.45459
 20
545.962769
 10
483.45459
 20
544.689758
 10
483.45459
 20
543.42804
 10
483.45459
 20
542.182861
 10
483.45459
 20
540.958801
 10
483.45459
 20
539.735107
 10
483.45459
 20
538.490173
 10
483.45459
 20
537.228638
 10
483.45459
 20
535.95575
 10
483.45459
 20
534.677124
 10
483.45459
 20
533.398804
 10
483.45459
 20
532.127258
 10
483.45459
 20
530.869202
 10
483.45459
 20
529.631592
 10
483.45459
 20
528.421387
 10
483.45459
 20
527.245544
 10
483.45459
 20
526.11084
 10
483.45459
 20
525.023743
 10
483.45459
 20
523.990417
 10
483.45459
 20
523.016296
 10
483.45459
 20
522.106445
 10
483.45459
 20
521.265076
 10
483.45459
 20
520.495605
 10
483.45459
 20
519.800781
 10
483.45459
 20
519.182373
 10
483.45459
 20
518.641418
 10
483.45459
 20
518.17804
 10
483.45459
 20
517.791748
 10
483.45459
 20
517.481201
 10
483.45459
 20
517.244507
 10
483.45459
 20
517.079102
 10
483.45459
 20
516.981995
 10
483.45459
 20
516.949829
  0
LINE
  5
1F0
330
18E
100
AcDbEntity
  8
0
  6
Continuous
 62
     0
370
    30
100
AcDbLine
 10
483.454591
 20
564.949821
 30
0.0
 11
483.302227
 21
564.949821
 31
0.0
  0
LINE
  5
1F1
330
18E
100
AcDbEntity
  8
0
  6
Continuous
 62
     0
370
    30
100
AcDbLine
 10
483.302227
 20
516.949821
 30
0.0
 11
483.454591
 21
516.949821
 31
0.0
  0
LINE
  5
1F2
330
18E
100
AcDbEntity
  8
0
  6
Continuous
 62
     0
370
    30
100
AcDbLine
 10
483.454591
 20
564.949821
 30
0.0
 11
483.64579
 21
553.996006
 31
0.0
  0
ARC
  5
1F3
330
18E
100
AcDbEntity
  8
0
  6
Continuous
 62
     0
370
    30
100
AcDbCircle
 10
490.961656
 20
554.1311
 30
0.0
 40
7.501943201533289
100
AcDbArc
 50
267.493924
 51
269.494525
  0
ARC
  5
1F4
330
18E
100
AcDbEntity
  8
0
  6
Continuous
 62
     0
370
    30
100
AcDbCircle
 10
490.961656
 20
527.768543
 30
0.0
 40
7.501943357475946
100
AcDbArc
 50
90.505476
 51
92.506092
  0
LINE
  5
1F5
330
18E
100
AcDbEntity
  8
0
  6
Continuous
 62
     0
370
    30
100
AcDbLine
 10
490.895834
 20
535.270864
 30
0.0
 11
498.300052
 21
535.33548
 31
0.0
  0
LINE
  5
1F6
330
18E
100
AcDbEntity
  8
0
  6
Continuous
 62
     0
370
    30
100
AcDbLine
 10
490.895834
 20
546.628779
 30
0.0
 11
498.300052
 21
546.564163
 31
0.0
  0
ENDBLK
  5
1F8
330
18E
100
AcDbEntity
  8
0
100
AcDbBlockEnd
  0
BLOCK
  5
264
330
1FA
100
AcDbEntity
  8
0
100
AcDbBlockBegin
  2
d
 70
     0
 10
239.262421
 20
0.0
 30
0.0
  3
d
  1

  0
ARC
  5
1FB
330
1FA
100
AcDbEntity
  8
0
  6
Continuous
 62
     0
370
     0
100
AcDbCircle
 10
230.210765
 20
352.045444
 30
0.0
 40
33.42478041239015
100
AcDbArc
 50
179.40004
 51
180.599965
  0
LINE
  5
1FC
330
1FA
100
AcDbEntity
  8
0
  6
Continuous
 62
     0
370
    30
100
AcDbLine
 10
196.787817
 20
351.695447
 30
0.0
 11
206.991482
 21
351.64202
 31
0.0
  0
LWPOLYLINE
  5
1FD
330
1FA
100
AcDbEntity
  8
0
  6
Continuous
 62
     0
370
    30
100
AcDbPolyline
 90
        6
 70
     0
 43
0.0
 10
206.991486
 20
351.642029
 10
206.991486
 20
351.675049
 10
206.991486
 20
351.771088
 10
206.991486
 20
351.920532
 10
206.991486
 20
352.111267
 10
206.991486
 20
352.34201
  0
LINE
  5
1FE
330
1FA
100
AcDbEntity
  8
0
  6
Continuous
 62
     0
370
     0
100
AcDbLine
 10
206.991482
 20
352.342011
 30
0.0
 11
196.787817
 21
352.395437
 31
0.0
  0
ARC
  5
1FF
330
1FA
100
AcDbEntity
  8
0
  6
Continuous
 62
     0
370
    30
100
AcDbCircle
 10
196.791482
 20
352.395437
 30
0.0
 40
0.6999999880789235
100
AcDbArc
 50
180.0
 51
269.7
  0
LINE
  5
200
330
1FA
100
AcDbEntity
  8
0
  6
Continuous
 62
     0
370
    30
100
AcDbLine
 10
196.091482
 20
469.502749
 30
0.0
 11
196.091482
 21
352.395437
 31
0.0
  0
LWPOLYLINE
  5
201
330
1FA
100
AcDbEntity
  8
0
  6
Continuous
 62
     0
370
     0
100
AcDbPolyline
 90
        6
 70
     0
 43
0.0
 10
196.091476
 20
352.395447
 10
196.128174
 20
352.395447
 10
196.227524
 20
352.395447
 10
196.368546
 20
352.395447
 10
196.557541
 20
352.395447
 10
196.787811
 20
352.395447
  0
LINE
  5
202
330
1FA
100
AcDbEntity
  8
0
  6
Continuous
 62
     0
370
     0
100
AcDbLine
 10
196.787817
 20
352.395437
 30
0.0
 11
196.787817
 21
469.502749
 31
0.0
  0
LINE
  5
203
330
1FA
100
AcDbEntity
  8
0
  6
Continuous
 62
     0
370
     0
100
AcDbLine
 10
196.787817
 20
469.502749
 30
0.0
 11
196.091482
 21
469.502749
 31
0.0
  0
LINE
  5
204
330
1FA
100
AcDbEntity
  8
0
  6
Continuous
 62
     0
370
     0
100
AcDbLine
 10
196.787817
 20
469.502749
 30
0.0
 11
206.991482
 21
469.556176
 31
0.0
  0
LINE
  5
205
330
1FA
100
AcDbEntity
  8
0
  6
Continuous
 62
     0
370
    30
100
AcDbLine
 10
206.991482
 20
469.556176
 30
0.0
 11
206.991482
 21
470.256166
 31
0.0
  0
LINE
  5
206
330
1FA
100
AcDbEntity
  8
0
  6
Continuous
 62
     0
370
    30
100
AcDbLine
 10
206.991482
 20
470.256166
 30
0.0
 11
196.787817
 21
470.202739
 31
0.0
  0
ARC
  5
207
330
1FA
100
AcDbEntity
  8
0
  6
Continuous
 62
     0
370
     0
100
AcDbCircle
 10
230.210765
 20
469.852743
 30
0.0
 40
33.42478041252156
100
AcDbArc
 50
179.400035
 51
180.59996
  0
ARC
  5
208
330
1FA
100
AcDbEntity
  8
0
  6
Continuous
 62
     0
370
    30
100
AcDbCircle
 10
196.791482
 20
469.502749
 30
0.0
 40
0.6999999880791743
100
AcDbArc
 50
90.3
 51
180.0
  0
LINE
  5
209
330
1FA
100
AcDbEntity
  8
0
  6
Continuous
 62
     0
370
    30
100
AcDbLine
 10
206.991482
 20
352.342011
 30
0.0
 11
206.991482
 21
469.556176
 31
0.0
  0
LINE
  5
20A
330
1FA
100
AcDbEntity
  8
0
  6
Continuous
 62
     0
370
    30
100
AcDbLine
 10
196.091484
 20
429.949325
 30
0.0
 11
192.871483
 21
429.949325
 31
0.0
  0
LINE
  5
20B
330
1FA
100
AcDbEntity
  8
0
  6
Continuous
 62
     0
370
    30
100
AcDbLine
 10
196.091484
 20
391.949325
 30
0.0
 11
192.871483
 21
391.949325
 31
0.0
  0
LINE
  5
20C
330
1FA
100
AcDbEntity
  8
0
  6
Continuous
 62
     0
370
    30
100
AcDbLine
 10
155.821483
 20
440.279097
 30
0.0
 11
147.921483
 21
440.279097
 31
0.0
  0
LINE
  5
20D
330
1FA
100
AcDbEntity
  8
0
  6
Continuous
 62
     0
370
    30
100
AcDbLine
 10
147.921483
 20
440.279097
 30
0.0
 11
147.921483
 21
432.949097
 31
0.0
  0
LWPOLYLINE
  5
20E
330
1FA
100
AcDbEntity
  8
0
  6
Continuous
 62
     0
370
    30
100
AcDbPolyline
 90
       24
 70
     0
 43
0.0
 10
147.921478
 20
432.949097
 10
147.957962
 20
432.944153
 10
148.067596
 20
432.923553
 10
148.248093
 20
432.89151
 10
148.496002
 20
432.851624
 10
148.806122
 20
432.806854
 10
149.172455
 20
432.759827
 10
149.588989
 20
432.713165
 10
150.048447
 20
432.66983
 10
150.54184
 20
432.633148
 10
151.060089
 20
432.606506
 10
151.593857
 20
432.592621
 10
152.13295
 20
432.592194
 10
152.666992
 20
432.605408
 10
153.185776
 20
432.631897
 10
153.679993
 20
432.668762
 10
154.14061
 20
432.712341
 10
154.558685
 20
432.758942
 10
154.926804
 20
432.805634
 10
155.238739
 20
432.849945
 10
155.488312
 20
432.889465
 10
155.670349
 20
432.9216
 10
155.78215
 20
432.943329
 10
155.821487
 20
432.95163
  0
LWPOLYLINE
  5
20F
330
1FA
100
AcDbEntity
  8
0
  6
Continuous
 62
     0
370
    30
100
AcDbPolyline
 90
       22
 70
     0
 43
0.0
 10
148.421478
 20
440.779083
 10
148.459961
 20
440.779083
 10
148.574402
 20
440.779083
 10
148.762482
 20
440.779083
 10
149.01973
 20
440.779083
 10
149.340652
 20
440.779083
 10
149.717926
 20
440.779083
 10
150.14325
 20
440.779083
 10
150.607086
 20
440.779083
 10
151.099091
 20
440.779083
 10
151.608337
 20
440.779083
 10
152.123428
 20
440.779083
 10
152.632935
 20
440.779083
 10
153.125443
 20
440.779083
 10
153.589996
 20
440.779083
 10
154.016266
 20
440.779083
 10
154.394669
 20
440.779083
 10
154.716919
 20
440.779083
 10
154.975601
 20
440.779083
 10
155.165237
 20
440.779083
 10
155.281311
 20
440.779083
 10
155.321487
 20
440.779083
  0
LINE
  5
210
330
1FA
100
AcDbEntity
  8
0
  6
Continuous
 62
     0
370
    30
100
AcDbLine
 10
148.421483
 20
440.779097
 30
0.0
 11
147.921483
 21
440.279097
 31
0.0
  0
LWPOLYLINE
  5
211
330
1FA
100
AcDbEntity
  8
0
  6
Continuous
 62
     0
370
    30
100
AcDbPolyline
 90
       53
 70
     0
 43
0.0
 10
142.87149
 20
389.449097
 10
142.871475
 20
389.48822
 10
142.871475
 20
389.605865
 10
142.871475
 20
389.801208
 10
142.871475
 20
390.073486
 10
142.871475
 20
390.421875
 10
142.871475
 20
390.845459
 10
142.871475
 20
391.342529
 10
142.871475
 20
391.910889
 10
142.871475
 20
392.548401
 10
142.871475
 20
393.25293
 10
142.871475
 20
394.022278
 10
142.871475
 20
394.853607
 10
142.871475
 20
395.743561
 10
142.871475
 20
396.688751
 10
142.871475
 20
397.685822
 10
142.871475
 20
398.731384
 10
142.871475
 20
399.821716
 10
142.871475
 20
400.952606
 10
142.871475
 20
402.119843
 10
142.871475
 20
403.319153
 10
142.871475
 20
404.546295
 10
142.871475
 20
405.796967
 10
142.871475
 20
407.066437
 10
142.871475
 20
408.350037
 10
142.871475
 20
409.643097
 10
142.871475
 20
410.940857
 10
142.871475
 20
412.238647
 10
142.871475
 20
413.531769
 10
142.871475
 20
414.815521
 10
142.871475
 20
416.085205
 10
142.871475
 20
417.336121
 10
142.871475
 20
418.563629
 10
142.871475
 20
419.763306
 10
142.871475
 20
420.930969
 10
142.871475
 20
422.062347
 10
142.871475
 20
423.153229
 10
142.871475
 20
424.199402
 10
142.871475
 20
425.197113
 10
142.871475
 20
426.142975
 10
142.871475
 20
427.03363
 10
142.871475
 20
427.865723
 10
142.871475
 20
428.635895
 10
142.871475
 20
429.341248
 10
142.871475
 20
429.979645
 10
142.871475
 20
430.548889
 10
142.871475
 20
431.046875
 10
142.871475
 20
431.471405
 10
142.871475
 20
431.82077
 10
142.871475
 20
432.093994
 10
142.871475
 20
432.290314
 10
142.871475
 20
432.408966
 10
142.87149
 20
432.449097
  0
LINE
  5
212
330
1FA
100
AcDbEntity
  8
0
  6
Continuous
 62
     0
370
    30
100
AcDbLine
 10
142.871483
 20
389.449097
 30
0.0
 11
143.371483
 21
388.949097
 31
0.0
  0
LWPOLYLINE
  5
213
330
1FA
100
AcDbEntity
  8
0
  6
Continuous
 62
     0
370
    30
100
AcDbPolyline
 90
       54
 70
     0
 43
0.0
 10
143.37149
 20
388.949097
 10
143.371216
 20
388.988617
 10
143.370834
 20
389.105927
 10
143.370438
 20
389.299713
 10
143.370148
 20
389.568726
 10
143.370041
 20
389.911835
 10
143.370102
 20
390.328125
 10
143.3703
 20
390.81665
 10
143.370605
 20
391.376526
 10
143.370941
 20
392.00589
 10
143.371262
 20
392.701843
 10
143.371445
 20
393.461426
 10
143.371445
 20
394.281708
 10
143.371246
 20
395.160034
 10
143.370972
 20
396.093933
 10
143.370667
 20
397.080353
 10
143.370377
 20
398.115875
 10
143.370148
 20
399.196686
 10
143.36998
 20
400.318848
 10
143.369904
 20
401.478333
 10
143.369934
 20
402.671112
 10
143.370041
 20
403.892914
 10
143.370224
 20
405.139435
 10
143.370453
 20
406.406342
 10
143.370697
 20
407.689209
 10
143.370926
 20
408.98349
 10
143.371078
 20
410.284668
 10
143.371078
 20
411.588165
 10
143.370956
 20
412.889435
 10
143.370728
 20
414.183899
 10
143.370483
 20
415.467041
 10
143.370255
 20
416.734283
 10
143.370071
 20
417.981262
 10
143.369965
 20
419.203613
 10
143.369934
 20
420.397064
 10
143.37001
 20
421.557343
 10
143.370163
 20
422.680298
 10
143.370392
 20
423.762024
 10
143.370667
 20
424.798431
 10
143.370972
 20
425.785706
 10
143.371262
 20
426.720398
 10
143.371445
 20
427.599457
 10
143.371445
 20
428.420563
 10
143.371231
 20
429.181122
 10
143.370895
 20
429.878326
 10
143.370529
 20
430.509247
 10
143.370209
 20
431.071014
 10
143.369995
 20
431.561707
 10
143.369934
 20
431.980103
 10
143.370056
 20
432.325073
 10
143.370361
 20
432.595459
 10
143.370789
 20
432.790222
 10
143.371201
 20
432.908386
 10
143.37149
 20
432.949097
  0
LINE
  5
214
330
1FA
100
AcDbEntity
  8
0
  6
Continuous
 62
     0
370
    30
100
AcDbLine
 10
156.621483
 20
388.949097
 30
0.0
 11
192.871483
 21
388.949097
 31
0.0
  0
LWPOLYLINE
  5
215
330
1FA
100
AcDbEntity
  8
0
  6
Continuous
 62
     0
370
    30
100
AcDbPolyline
 90
       54
 70
     0
 43
0.0
 10
192.87149
 20
388.949097
 10
192.87149
 20
388.98111
 10
192.87149
 20
389.079742
 10
192.87149
 20
389.248627
 10
192.87149
 20
389.490967
 10
192.87149
 20
389.809357
 10
192.87149
 20
390.205688
 10
192.87149
 20
390.681213
 10
192.87149
 20
391.236206
 10
192.87149
 20
391.870117
 10
192.87149
 20
392.581482
 10
192.871475
 20
393.367798
 10
192.871475
 20
394.225677
 10
192.871475
 20
395.150818
 10
192.871475
 20
396.138123
 10
192.871475
 20
397.181732
 10
192.871475
 20
398.275116
 10
192.871475
 20
399.411346
 10
192.871475
 20
400.583099
 10
192.871475
 20
401.782867
 10
192.871475
 20
403.003082
 10
192.871475
 20
404.236237
 10
192.871475
 20
405.475159
 10
192.871475
 20
406.712921
 10
192.871475
 20
407.943054
 10
192.871475
 20
409.159637
 10
192.871475
 20
410.357239
 10
192.871475
 20
411.537537
 10
192.871475
 20
412.735077
 10
192.871475
 20
413.951599
 10
192.871475
 20
415.181702
 10
192.871475
 20
416.419434
 10
192.871475
 20
417.658356
 10
192.871475
 20
418.891571
 10
192.871475
 20
420.111816
 10
192.871475
 20
421.311646
 10
192.871475
 20
422.48349
 10
192.871475
 20
423.619843
 10
192.871475
 20
424.713379
 10
192.871475
 20
425.757111
 10
192.871475
 20
426.744598
 10
192.871475
 20
427.669952
 10
192.871475
 20
428.528015
 10
192.87149
 20
429.314545
 10
192.87149
 20
430.026123
 10
192.87149
 20
430.660278
 10
192.87149
 20
431.215485
 10
192.87149
 20
431.691223
 10
192.87149
 20
432.08783
 10
192.87149
 20
432.406403
 10
192.87149
 20
432.648956
 10
192.87149
 20
432.818085
 10
192.87149
 20
432.916901
 10
192.87149
 20
432.949097
  0
LINE
  5
216
330
1FA
100
AcDbEntity
  8
0
  6
Continuous
 62
     0
370
    30
100
AcDbLine
 10
147.121483
 20
388.949097
 30
0.0
 11
143.371483
 21
388.949097
 31
0.0
  0
LWPOLYLINE
  5
217
330
1FA
100
AcDbEntity
  8
0
  6
Continuous
 62
     0
370
     0
100
AcDbPolyline
 90
       26
 70
     0
 43
0.0
 10
147.12149
 20
388.949097
 10
147.159561
 20
388.957214
 10
147.27359
 20
388.981171
 10
147.459625
 20
389.019165
 10
147.712021
 20
389.068909
 10
148.026749
 20
389.127533
 10
148.405685
 20
389.190979
 10
148.840134
 20
389.255524
 10
149.320358
 20
389.317352
 10
149.842407
 20
389.372314
 10
150.398712
 20
389.417114
 10
150.978378
 20
389.449097
 10
151.570755
 20
389.46579
 10
152.167114
 20
389.465851
 10
152.759552
 20
389.44931
 10
153.339386
 20
389.41745
 10
153.895935
 20
389.372742
 10
154.41832
 20
389.317841
 10
154.898911
 20
389.256073
 10
155.333771
 20
389.191528
 10
155.713242
 20
389.128052
 10
156.028519
 20
389.069366
 10
156.281464
 20
389.019531
 10
156.468109
 20
388.981445
 10
156.582764
 20
388.957336
 10
156.62149
 20
388.949097
  0
LWPOLYLINE
  5
218
330
1FA
100
AcDbEntity
  8
0
  6
Continuous
 62
     0
370
     0
100
AcDbPolyline
 90
       24
 70
     0
 43
0.0
 10
155.971481
 20
432.949097
 10
155.932648
 20
432.941956
 10
155.816742
 20
432.921021
 10
155.628281
 20
432.888062
 10
155.37352
 20
432.845337
 10
155.054184
 20
432.796021
 10
154.671982
 20
432.743988
 10
154.238998
 20
432.692719
 10
153.761948
 20
432.646118
 10
153.247238
 20
432.607727
 10
152.706482
 20
432.580109
 10
152.151627
 20
432.565613
 10
151.592453
 20
432.565582
 10
151.037598
 20
432.580048
 10
150.496826
 20
432.607666
 10
149.982086
 20
432.646057
 10
149.504974
 20
432.692657
 10
149.071884
 20
432.743896
 10
148.689529
 20
432.795959
 10
148.37001
 20
432.845276
 10
148.115082
 20
432.888
 10
147.926498
 20
432.920959
 10
147.810562
 20
432.941925
 10
147.771881
 20
432.949097
  0
LINE
  5
219
330
1FA
100
AcDbEntity
  8
0
  6
Continuous
 62
     0
370
    30
100
AcDbLine
 10
156.621483
 20
388.949097
 30
0.0
 11
147.121483
 21
388.949097
 31
0.0
  0
LINE
  5
21A
330
1FA
100
AcDbEntity
  8
0
  6
Continuous
 62
     0
370
    30
100
AcDbLine
 10
147.921483
 20
432.949097
 30
0.0
 11
147.77188
 21
432.949097
 31
0.0
  0
LINE
  5
21B
330
1FA
100
AcDbEntity
  8
0
  6
Continuous
 62
     0
370
    30
100
AcDbLine
 10
192.871483
 20
432.949097
 30
0.0
 11
155.971483
 21
432.949097
 31
0.0
  0
LINE
  5
21C
330
1FA
100
AcDbEntity
  8
0
  6
Continuous
 62
     0
370
    30
100
AcDbLine
 10
143.371482
 20
432.949097
 30
0.0
 11
147.77188
 21
432.949097
 31
0.0
  0
LINE
  5
21D
330
1FA
100
AcDbEntity
  8
0
  6
Continuous
 62
     0
370
    30
100
AcDbLine
 10
142.871483
 20
432.449097
 30
0.0
 11
143.371483
 21
432.949097
 31
0.0
  0
LINE
  5
21E
330
1FA
100
AcDbEntity
  8
0
  6
Continuous
 62
     0
370
    30
100
AcDbLine
 10
155.321483
 20
440.779097
 30
0.0
 11
155.821483
 21
440.279097
 31
0.0
  0
LINE
  5
21F
330
1FA
100
AcDbEntity
  8
0
  6
Continuous
 62
     0
370
    30
100
AcDbLine
 10
155.821483
 20
440.279097
 30
0.0
 11
155.821483
 21
432.951616
 31
0.0
  0
LINE
  5
220
330
1FA
100
AcDbEntity
  8
0
  6
Continuous
 62
     0
370
    30
100
AcDbLine
 10
196.891448
 20
512.949829
 30
0.0
 11
196.891448
 21
568.949829
 31
0.0
  0
LINE
  5
221
330
1FA
100
AcDbEntity
  8
0
  6
Continuous
 62
     0
370
    30
100
AcDbLine
 10
207.111448
 20
512.449829
 30
0.0
 11
197.391448
 21
512.449829
 31
0.0
  0
LINE
  5
222
330
1FA
100
AcDbEntity
  8
0
  6
Continuous
 62
     0
370
     0
100
AcDbLine
 10
207.111448
 20
512.949829
 30
0.0
 11
197.391448
 21
512.949829
 31
0.0
  0
LINE
  5
223
330
1FA
100
AcDbEntity
  8
0
  6
Continuous
 62
     0
370
     0
100
AcDbLine
 10
197.391448
 20
512.949829
 30
0.0
 11
197.391448
 21
512.449829
 31
0.0
  0
LINE
  5
224
330
1FA
100
AcDbEntity
  8
0
  6
Continuous
 62
     0
370
    30
100
AcDbLine
 10
207.111448
 20
512.449829
 30
0.0
 11
207.111448
 21
512.949829
 31
0.0
  0
LINE
  5
225
330
1FA
100
AcDbEntity
  8
0
  6
Continuous
 62
     0
370
    30
100
AcDbLine
 10
207.111448
 20
512.949829
 30
0.0
 11
207.111448
 21
568.949829
 31
0.0
  0
LINE
  5
226
330
1FA
100
AcDbEntity
  8
0
  6
Continuous
 62
     0
370
     0
100
AcDbLine
 10
207.111448
 20
568.949829
 30
0.0
 11
197.391448
 21
568.949829
 31
0.0
  0
LINE
  5
227
330
1FA
100
AcDbEntity
  8
0
  6
Continuous
 62
     0
370
     0
100
AcDbLine
 10
197.391448
 20
568.949829
 30
0.0
 11
197.391448
 21
512.949829
 31
0.0
  0
LINE
  5
228
330
1FA
100
AcDbEntity
  8
0
  6
Continuous
 62
     0
370
    30
100
AcDbLine
 10
207.111448
 20
569.449829
 30
0.0
 11
197.391448
 21
569.449829
 31
0.0
  0
LINE
  5
229
330
1FA
100
AcDbEntity
  8
0
  6
Continuous
 62
     0
370
     0
100
AcDbLine
 10
197.391448
 20
569.449829
 30
0.0
 11
197.391448
 21
568.949829
 31
0.0
  0
LINE
  5
22A
330
1FA
100
AcDbEntity
  8
0
  6
Continuous
 62
     0
370
    30
100
AcDbLine
 10
207.111448
 20
568.949829
 30
0.0
 11
207.111448
 21
569.449829
 31
0.0
  0
ARC
  5
22B
330
1FA
100
AcDbEntity
  8
0
  6
Continuous
 62
     0
370
    30
100
AcDbCircle
 10
197.391448
 20
568.949829
 30
0.0
 40
0.4999999999964295
100
AcDbArc
 50
90.0
 51
180.0
  0
LWPOLYLINE
  5
22C
330
1FA
100
AcDbEntity
  8
0
  6
Continuous
 62
     0
370
     0
100
AcDbPolyline
 90
        5
 70
     0
 43
0.0
 10
196.891449
 20
568.949829
 10
196.929077
 20
568.949829
 10
197.036316
 20
568.949829
 10
197.197006
 20
568.949829
 10
197.391449
 20
568.949829
  0
LWPOLYLINE
  5
22D
330
1FA
100
AcDbEntity
  8
0
  6
Continuous
 62
     0
370
     0
100
AcDbPolyline
 90
        6
 70
     0
 43
0.0
 10
196.891449
 20
512.949829
 10
196.915512
 20
512.949829
 10
196.981201
 20
512.949829
 10
197.074524
 20
512.949829
 10
197.198776
 20
512.949829
 10
197.391449
 20
512.949829
  0
ARC
  5
22E
330
1FA
100
AcDbEntity
  8
0
  6
Continuous
 62
     0
370
    30
100
AcDbCircle
 10
197.391448
 20
512.949829
 30
0.0
 40
0.4999999999957438
100
AcDbArc
 50
180.0
 51
270.0
  0
ARC
  5
22F
330
1FA
100
AcDbEntity
  8
0
  6
Continuous
 62
     0
370
    30
100
AcDbCircle
 10
189.049052
 20
527.772769
 30
0.0
 40
7.499975597599938
100
AcDbArc
 50
0.99992
 51
88.788577
  0
ARC
  5
230
330
1FA
100
AcDbEntity
  8
0
  6
Continuous
 62
     0
370
     0
100
AcDbCircle
 10
196.804607
 20
528.384226
 30
0.0
 40
0.5448863600685225
100
AcDbArc
 50
242.09311
 51
261.623501
  0
LINE
  5
231
330
1FA
100
AcDbEntity
  8
0
  6
Continuous
 62
     0
370
     0
100
AcDbLine
 10
196.72523
 20
527.845152
 30
0.0
 11
196.734183
 21
527.843462
 31
0.0
  0
ARC
  5
232
330
1FA
100
AcDbEntity
  8
0
  6
Continuous
 62
     0
370
     0
100
AcDbCircle
 10
189.232487
 20
527.768292
 30
0.0
 40
7.502072584504965
100
AcDbArc
 50
0.574105
 51
89.497486
  0
ARC
  5
233
330
1FA
100
AcDbEntity
  8
0
  6
Continuous
 62
     0
370
     0
100
AcDbCircle
 10
189.232486
 20
554.131366
 30
0.0
 40
7.502072687835314
100
AcDbArc
 50
270.502514
 51
359.425895
  0
LINE
  5
234
330
1FA
100
AcDbEntity
  8
0
  6
Continuous
 62
     0
370
     0
100
AcDbLine
 10
196.734183
 20
554.056196
 30
0.0
 11
196.72523
 21
554.054506
 31
0.0
  0
ARC
  5
235
330
1FA
100
AcDbEntity
  8
0
  6
Continuous
 62
     0
370
     0
100
AcDbCircle
 10
196.804607
 20
553.515433
 30
0.0
 40
0.5448863418483441
100
AcDbArc
 50
98.376499
 51
117.90689
  0
ARC
  5
236
330
1FA
100
AcDbEntity
  8
0
  6
Continuous
 62
     0
370
    30
100
AcDbCircle
 10
189.049052
 20
554.126889
 30
0.0
 40
7.499975632285179
100
AcDbArc
 50
271.210815
 51
359.00008
  0
LINE
  5
237
330
1FA
100
AcDbEntity
  8
0
  6
Continuous
 62
     0
370
    30
100
AcDbLine
 10
181.893624
 20
546.56417
 30
0.0
 11
169.782723
 21
546.45848
 31
0.0
  0
LWPOLYLINE
  5
238
330
1FA
100
AcDbEntity
  8
0
  6
Continuous
 62
     0
370
     0
100
AcDbPolyline
 90
        7
 70
     0
 43
0.0
 10
169.78273
 20
546.458496
 10
169.780792
 20
546.425415
 10
169.779556
 20
546.328552
 10
169.779114
 20
546.174255
 10
169.77948
 20
545.972778
 10
169.78064
 20
545.736938
 10
169.78273
 20
545.458496
  0
LINE
  5
239
330
1FA
100
AcDbEntity
  8
0
  6
Continuous
 62
     0
370
     0
100
AcDbLine
 10
169.782723
 20
545.458518
 30
0.0
 11
189.298052
 21
545.629159
 31
0.0
  0
LWPOLYLINE
  5
23A
330
1FA
100
AcDbEntity
  8
0
  6
Continuous
 62
     0
370
     0
100
AcDbPolyline
 90
        7
 70
     0
 43
0.0
 10
189.29805
 20
545.62915
 10
189.296066
 20
545.883911
 10
189.294785
 20
546.122437
 10
189.294296
 20
546.327881
 10
189.294632
 20
546.487061
 10
189.295776
 20
546.5896
 10
189.297852
 20
546.628784
  0
ARC
  5
23B
330
1FA
100
AcDbEntity
  8
0
  6
Continuous
 62
     0
370
    30
100
AcDbCircle
 10
169.79145
 20
545.458518
 30
0.0
 40
1.000000000828288
100
AcDbArc
 50
90.5
 51
180.0
  0
LWPOLYLINE
  5
23C
330
1FA
100
AcDbEntity
  8
0
  6
Continuous
 62
     0
370
     0
100
AcDbPolyline
 90
        7
 70
     0
 43
0.0
 10
168.791443
 20
545.458496
 10
168.824066
 20
545.458496
 10
168.919662
 20
545.458496
 10
169.072006
 20
545.458496
 10
169.271164
 20
545.458496
 10
169.504623
 20
545.458496
 10
169.78273
 20
545.458496
  0
LINE
  5
23D
330
1FA
100
AcDbEntity
  8
0
  6
Continuous
 62
     0
370
    30
100
AcDbLine
 10
168.79145
 20
545.458518
 30
0.0
 11
168.79145
 21
536.44114
 31
0.0
  0
LWPOLYLINE
  5
23E
330
1FA
100
AcDbEntity
  8
0
  6
Continuous
 62
     0
370
     0
100
AcDbPolyline
 90
        7
 70
     0
 43
0.0
 10
168.791443
 20
536.441162
 10
168.827988
 20
536.441162
 10
168.929947
 20
536.441162
 10
169.07811
 20
536.441162
 10
169.267838
 20
536.441162
 10
169.505295
 20
536.441162
 10
169.78273
 20
536.441162
  0
LINE
  5
23F
330
1FA
100
AcDbEntity
  8
0
  6
Continuous
 62
     0
370
     0
100
AcDbLine
 10
169.782723
 20
536.44114
 30
0.0
 11
169.782723
 21
545.458518
 31
0.0
  0
ARC
  5
240
330
1FA
100
AcDbEntity
  8
0
  6
Continuous
 62
     0
370
    30
100
AcDbCircle
 10
169.79145
 20
536.44114
 30
0.0
 40
1.000000000829122
100
AcDbArc
 50
180.0
 51
269.5
  0
LWPOLYLINE
  5
241
330
1FA
100
AcDbEntity
  8
0
  6
Continuous
 62
     0
370
     0
100
AcDbPolyline
 90
        7
 70
     0
 43
0.0
 10
169.78273
 20
535.441162
 10
169.780792
 20
535.474243
 10
169.779556
 20
535.571106
 10
169.779114
 20
535.725403
 10
169.77948
 20
535.92688
 10
169.78064
 20
536.16272
 10
169.78273
 20
536.441162
  0
LINE
  5
242
330
1FA
100
AcDbEntity
  8
0
  6
Continuous
 62
     0
370
    30
100
AcDbLine
 10
169.782723
 20
535.441178
 30
0.0
 11
181.893624
 21
535.335488
 31
0.0
  0
LWPOLYLINE
  5
243
330
1FA
100
AcDbEntity
  8
0
  6
Continuous
 62
     0
370
     0
100
AcDbPolyline
 90
        7
 70
     0
 43
0.0
 10
189.297852
 20
535.270874
 10
189.295929
 20
535.303589
 10
189.294708
 20
535.400269
 10
189.294296
 20
535.554504
 10
189.294693
 20
535.756104
 10
189.295914
 20
535.992126
 10
189.29805
 20
536.270508
  0
LINE
  5
244
330
1FA
100
AcDbEntity
  8
0
  6
Continuous
 62
     0
370
     0
100
AcDbLine
 10
189.298052
 20
536.2705
 30
0.0
 11
169.782723
 21
536.44114
 31
0.0
  0
LWPOLYLINE
  5
245
330
1FA
100
AcDbEntity
  8
0
  6
Continuous
 62
     0
370
     0
100
AcDbPolyline
 90
        7
 70
     0
 43
0.0
 10
196.734177
 20
527.843445
 10
196.698746
 20
528.728638
 10
196.606064
 20
529.611694
 10
196.460678
 20
530.490112
 10
196.267822
 20
531.364685
 10
196.034317
 20
532.236877
 10
195.731293
 20
533.240295
  0
ARC
  5
246
330
1FA
100
AcDbEntity
  8
0
  6
Continuous
 62
     0
370
     0
100
AcDbCircle
 10
189.218592
 20
527.757711
 30
0.0
 40
8.513159052810273
100
AcDbArc
 50
40.091684
 51
89.465202
  0
LINE
  5
247
330
1FA
100
AcDbEntity
  8
0
  6
Continuous
 62
     0
370
     0
100
AcDbLine
 10
195.731283
 20
533.240293
 30
0.0
 11
195.721164
 21
535.20196
 31
0.0
  0
ARC
  5
248
330
1FA
100
AcDbEntity
  8
0
  6
Continuous
 62
     0
370
     0
100
AcDbCircle
 10
1478.52906
 20
540.987066
 30
0.0
 40
1282.820940123519
100
AcDbArc
 50
180.001663
 51
180.258386
  0
ARC
  5
249
330
1FA
100
AcDbEntity
  8
0
  6
Continuous
 62
     0
370
     0
100
AcDbCircle
 10
1478.52906
 20
540.912592
 30
0.0
 40
1282.820940131807
100
AcDbArc
 50
179.741614
 51
179.998337
  0
LINE
  5
24A
330
1FA
100
AcDbEntity
  8
0
  6
Continuous
 62
     0
370
     0
100
AcDbLine
 10
195.721164
 20
546.697698
 30
0.0
 11
195.731284
 21
548.659366
 31
0.0
  0
ARC
  5
24B
330
1FA
100
AcDbEntity
  8
0
  6
Continuous
 62
     0
370
     0
100
AcDbCircle
 10
189.222429
 20
554.133795
 30
0.0
 40
8.504972238959535
100
AcDbArc
 50
270.509459
 51
319.933678
  0
LWPOLYLINE
  5
24C
330
1FA
100
AcDbEntity
  8
0
  6
Continuous
 62
     0
370
     0
100
AcDbPolyline
 90
        7
 70
     0
 43
0.0
 10
195.731293
 20
548.659363
 10
195.995773
 20
549.529419
 10
196.234436
 20
550.401245
 10
196.434097
 20
551.275391
 10
196.587097
 20
552.153137
 10
196.688156
 20
553.035583
 10
196.734177
 20
554.056213
  0
LINE
  5
24D
330
1FA
100
AcDbEntity
  8
0
  6
Continuous
 62
     0
370
     0
100
AcDbLine
 10
195.70812
 20
540.949829
 30
0.0
 11
196.699242
 21
540.949829
 31
0.0
  0
ARC
  5
24E
330
1FA
100
AcDbEntity
  8
0
  6
Continuous
 62
     0
370
     0
100
AcDbCircle
 10
1463.087065
 20
540.929992
 30
0.0
 40
1266.387823857844
100
AcDbArc
 50
179.749973
 51
179.999102
  0
LINE
  5
24F
330
1FA
100
AcDbEntity
  8
0
  6
Continuous
 62
     0
370
     0
100
AcDbLine
 10
196.711299
 20
546.456238
 30
0.0
 11
196.712286
 21
546.693236
 31
0.0
  0
LINE
  5
250
330
1FA
100
AcDbEntity
  8
0
  6
Continuous
 62
     0
370
     0
100
AcDbLine
 10
196.712286
 20
546.693236
 30
0.0
 11
195.721164
 21
546.697698
 31
0.0
  0
LINE
  5
251
330
1FA
100
AcDbEntity
  8
0
  6
Continuous
 62
     0
370
     0
100
AcDbLine
 10
196.712286
 20
546.693236
 30
0.0
 11
196.722405
 21
548.653532
 31
0.0
  0
LINE
  5
252
330
1FA
100
AcDbEntity
  8
0
  6
Continuous
 62
     0
370
     0
100
AcDbLine
 10
196.722405
 20
548.653532
 30
0.0
 11
195.731284
 21
548.659366
 31
0.0
  0
LWPOLYLINE
  5
253
330
1FA
100
AcDbEntity
  8
0
  6
Continuous
 62
     0
370
     0
100
AcDbPolyline
 90
        5
 70
     0
 43
0.0
 10
196.722412
 20
548.653503
 10
196.728394
 20
550.059509
 10
196.731186
 20
551.407104
 10
196.73259
 20
552.694763
 10
196.734177
 20
554.056213
  0
LINE
  5
254
330
1FA
100
AcDbEntity
  8
0
  6
Continuous
 62
     0
370
     0
100
AcDbLine
 10
195.721164
 20
535.20196
 30
0.0
 11
196.712286
 21
535.206422
 31
0.0
  0
LINE
  5
255
330
1FA
100
AcDbEntity
  8
0
  6
Continuous
 62
     0
370
     0
100
AcDbLine
 10
196.712286
 20
535.206422
 30
0.0
 11
196.711299
 21
535.443421
 31
0.0
  0
ARC
  5
256
330
1FA
100
AcDbEntity
  8
0
  6
Continuous
 62
     0
370
     0
100
AcDbCircle
 10
1463.087065
 20
540.969666
 30
0.0
 40
1266.387823844653
100
AcDbArc
 50
180.000898
 51
180.250027
  0
LINE
  5
257
330
1FA
100
AcDbEntity
  8
0
  6
Continuous
 62
     0
370
     0
100
AcDbLine
 10
195.731284
 20
533.240292
 30
0.0
 11
196.722405
 21
533.246127
 31
0.0
  0
LINE
  5
258
330
1FA
100
AcDbEntity
  8
0
  6
Continuous
 62
     0
370
     0
100
AcDbLine
 10
196.722405
 20
533.246127
 30
0.0
 11
196.712286
 21
535.206422
 31
0.0
  0
LWPOLYLINE
  5
259
330
1FA
100
AcDbEntity
  8
0
  6
Continuous
 62
     0
370
     0
100
AcDbPolyline
 90
        5
 70
     0
 43
0.0
 10
196.734177
 20
527.843445
 10
196.732712
 20
529.091675
 10
196.731354
 20
530.374878
 10
196.728745
 20
531.716553
 10
196.722412
 20
533.246155
  0
LINE
  5
25A
330
1FA
100
AcDbEntity
  8
0
  6
Continuous
 62
     0
370
    30
100
AcDbLine
 10
196.547886
 20
527.903651
 30
0.0
 11
196.739085
 21
516.949829
 31
0.0
  0
LWPOLYLINE
  5
25B
330
1FA
100
AcDbEntity
  8
0
  6
Continuous
 62
     0
370
    30
100
AcDbPolyline
 90
       29
 70
     0
 43
0.0
 10
196.73909
 20
516.949829
 10
196.73909
 20
516.981018
 10
196.73909
 20
517.077087
 10
196.73909
 20
517.241394
 10
196.73909
 20
517.476868
 10
196.73909
 20
517.786133
 10
196.73909
 20
518.171082
 10
196.73909
 20
518.632996
 10
196.73909
 20
519.172546
 10
196.73909
 20
519.789429
 10
196.73909
 20
520.482788
 10
196.73909
 20
521.250732
 10
196.73909
 20
522.090637
 10
196.73909
 20
522.999023
 10
196.73909
 20
523.97168
 10
196.73909
 20
525.003723
 10
196.73909
 20
526.089539
 10
196.73909
 20
527.223083
 10
196.73909
 20
528.397888
 10
196.73909
 20
529.607117
 10
196.73909
 20
530.843933
 10
196.73909
 20
532.101257
 10
196.73909
 20
533.372253
 10
196.73909
 20
534.650146
 10
196.73909
 20
535.928528
 10
196.73909
 20
537.201233
 10
196.73909
 20
538.462708
 10
196.73909
 20
539.707703
 10
196.73909
 20
540.949829
  0
LINE
  5
25C
330
1FA
100
AcDbEntity
  8
0
  6
Continuous
 62
     0
370
    30
100
AcDbLine
 10
196.739084
 20
540.949829
 30
0.0
 11
196.739085
 21
564.949829
 31
0.0
  0
LINE
  5
25D
330
1FA
100
AcDbEntity
  8
0
  6
Continuous
 62
     0
370
    30
100
AcDbLine
 10
196.739085
 20
564.949829
 30
0.0
 11
196.891449
 21
564.949829
 31
0.0
  0
LINE
  5
25E
330
1FA
100
AcDbEntity
  8
0
  6
Continuous
 62
     0
370
    30
100
AcDbLine
 10
196.891449
 20
516.949829
 30
0.0
 11
196.739085
 21
516.949829
 31
0.0
  0
LINE
  5
25F
330
1FA
100
AcDbEntity
  8
0
  6
Continuous
 62
     0
370
    30
100
AcDbLine
 10
196.739085
 20
564.949829
 30
0.0
 11
196.547886
 21
553.996014
 31
0.0
  0
ARC
  5
260
330
1FA
100
AcDbEntity
  8
0
  6
Continuous
 62
     0
370
    30
100
AcDbCircle
 10
189.23202
 20
554.131108
 30
0.0
 40
7.501943201925092
100
AcDbArc
 50
270.505475
 51
272.506076
  0
ARC
  5
261
330
1FA
100
AcDbEntity
  8
0
  6
Continuous
 62
     0
370
    30
100
AcDbCircle
 10
189.23202
 20
527.76855
 30
0.0
 40
7.501943358176774
100
AcDbArc
 50
87.493908
 51
89.494524
  0
LINE
  5
262
330
1FA
100
AcDbEntity
  8
0
  6
Continuous
 62
     0
370
    30
100
AcDbLine
 10
189.297842
 20
535.270871
 30
0.0
 11
181.893624
 21
535.335488
 31
0.0
  0
LINE
  5
263
330
1FA
100
AcDbEntity
  8
0
  6
Continuous
 62
     0
370
    30
100
AcDbLine
 10
189.297842
 20
546.628787
 30
0.0
 11
181.893624
 21
546.564171
 31
0.0
  0
ENDBLK
  5
265
330
1FA
100
AcDbEntity
  8
0
100
AcDbBlockEnd
  0
ENDSEC
  0
SECTION
  2
ENTITIES
  0
INSERT
  5
12E
330
1F
100
AcDbEntity
  8
0
  6
Continuous
 62
     7
420
 16250871
370
     0
100
AcDbBlockReference
  2
a
 10
266.940338
 20
79.445274
 30
0.0
  0
INSERT
  5
18D
330
1F
100
AcDbEntity
  8
0
  6
Continuous
 62
     7
420
 16250871
370
     0
100
AcDbBlockReference
  2
b
 10
266.940369
 20
201.249428
 30
0.0
  0
INSERT
  5
1F9
330
1F
100
AcDbEntity
  8
0
  6
Continuous
 62
     7
420
 16250871
370
     0
100
AcDbBlockReference
  2
c
 10
266.940338
 20
79.445274
 30
0.0
  0
INSERT
  5
266
330
1F
100
AcDbEntity
  8
0
  6
Continuous
 62
     7
420
 16250871
370
     0
100
AcDbBlockReference
  2
d
 10
239.262421
 20
0.0
 30
0.0
  0
ENDSEC
  0
SECTION
  2
OBJECTS
  0
DICTIONARY
  5
C
330
0
100
AcDbDictionary
281
     1
  3
ACAD_DETAILVIEWSTYLE
350
29E
  3
ACAD_GROUP
350
D
  3
ACAD_LAYOUT
350
1A
  3
ACAD_MATERIAL
350
43
  3
ACAD_MLEADERSTYLE
350
6B
  3
ACAD_MLINESTYLE
350
17
  3
ACAD_PLOTSETTINGS
350
19
  3
ACAD_PLOTSTYLENAME
350
E
  3
ACAD_SCALELIST
350
47
  3
ACAD_SECTIONVIEWSTYLE
350
29F
  3
ACAD_TABLESTYLE
350
69
  3
ACAD_VISUALSTYLE
350
2A
  3
ACDB_RECOMPOSE_DATA
350
29B
  3
AcDbVariableDictionary
350
267
  0
SUN
  5
6D
330
29
100
AcDbSun
 90
        1
290
     0
 63
     7
421
 16777215
 40
1.0
291
     1
 91
  2455826
 92
 54000000
292
     0
 70
     2
 71
   256
280
     1
  0
DICTIONARY
  5
29E
102
{ACAD_REACTORS
330
C
102
}
330
C
100
AcDbDictionary
281
     1
  0
DICTIONARY
  5
D
102
{ACAD_REACTORS
330
C
102
}
330
C
100
AcDbDictionary
281
     1
  0
DICTIONARY
  5
1A
102
{ACAD_REACTORS
330
C
102
}
330
C
100
AcDbDictionary
281
     1
  3
Layout1
350
1E
  3
Layout2
350
26
  3
Model
350
22
  0
DICTIONARY
  5
43
102
{ACAD_REACTORS
330
C
102
}
330
C
100
AcDbDictionary
281
     1
  3
ByBlock
350
45
  3
ByLayer
350
44
  3
Global
350
46
  0
DICTIONARY
  5
6B
102
{ACAD_REACTORS
330
C
102
}
330
C
100
AcDbDictionary
281
     1
  3
Standard
350
6C
  0
DICTIONARY
  5
17
102
{ACAD_REACTORS
330
C
102
}
330
C
100
AcDbDictionary
281
     1
  3
Standard
350
18
  0
DICTIONARY
  5
19
102
{ACAD_REACTORS
330
C
102
}
330
C
100
AcDbDictionary
281
     1
  0
ACDBDICTIONARYWDFLT
  5
E
102
{ACAD_REACTORS
330
C
102
}
330
C
100
AcDbDictionary
281
     1
  3
Normal
350
F
100
AcDbDictionaryWithDefault
340
F
  0
DICTIONARY
  5
47
102
{ACAD_REACTORS
330
C
102
}
330
C
100
AcDbDictionary
281
     1
  3
A0
350
48
  3
A1
350
49
  3
A2
350
4A
  3
A3
350
4B
  3
A4
350
4C
  3
A5
350
4D
  3
A6
350
4E
  3
A7
350
4F
  3
A8
350
50
  3
A9
350
51
  3
B0
350
52
  3
B1
350
53
  3
B2
350
54
  3
B3
350
55
  3
B4
350
56
  3
B5
350
57
  3
B6
350
58
  3
B7
350
59
  3
B8
350
5A
  3
B9
350
5B
  3
C0
350
5C
  3
C1
350
5D
  3
C2
350
5E
  3
C3
350
5F
  3
C4
350
60
  3
C5
350
61
  3
C6
350
62
  3
C7
350
63
  3
C8
350
64
  3
C9
350
65
  3
D0
350
66
  3
D1
350
67
  3
D2
350
68
  0
DICTIONARY
  5
29F
102
{ACAD_REACTORS
330
C
102
}
330
C
100
AcDbDictionary
281
     1
  0
DICTIONARY
  5
69
102
{ACAD_REACTORS
330
C
102
}
330
C
100
AcDbDictionary
281
     1
  3
Standard
350
6A
  0
DICTIONARY
  5
2A
102
{ACAD_REACTORS
330
C
102
}
330
C
100
AcDbDictionary
281
     1
  3
2dWireframe
350
2F
  3
Basic
350
32
  3
Brighten
350
36
  3
ColorChange
350
3A
  3
Conceptual
350
34
  3
Dim
350
35
  3
EdgeColorOff
350
3D
  3
Facepattern
350
39
  3
Flat
350
2B
  3
FlatWithEdges
350
2C
  3
Gouraud
350
2D
  3
GouraudWithEdges
350
2E
  3
Hidden
350
31
  3
JitterOff
350
3B
  3
Linepattern
350
38
  3
OverhangOff
350
3C
  3
Realistic
350
33
  3
Shaded
350
42
  3
Shaded with edges
350
41
  3
Shades of Gray
350
3E
  3
Sketchy
350
3F
  3
Thicken
350
37
  3
Wireframe
350
30
  3
X-Ray
350
40
  0
XRECORD
  5
29B
102
{ACAD_REACTORS
330
C
102
}
330
C
100
AcDbXrecord
280
     1
 90
        1
330
6A
  0
DICTIONARY
  5
267
102
{ACAD_REACTORS
330
C
102
}
330
C
100
AcDbDictionary
281
     1
  3
CANNOSCALE
350
268
  3
CMLEADERSTYLE
350
29D
  3
CTABLESTYLE
350
29C
  0
LAYOUT
  5
1E
102
{ACAD_REACTORS
330
1A
102
}
330
1A
100
AcDbPlotSettings
  1

  2
none_device
  4

  6

 40
0.0
 41
0.0
 42
0.0
 43
0.0
 44
0.0
 45
0.0
 46
0.0
 47
0.0
 48
0.0
 49
0.0
140
0.0
141
0.0
142
1.0
143
1.0
 70
   688
 72
     1
 73
     0
 74
     5
  7

 75
    16
 76
     0
 77
     2
 78
   300
147
1.0
148
0.0
149
0.0
100
AcDbLayout
  1
Layout1
 70
     1
 71
     1
 10
0.0
 20
0.0
 11
420.0
 21
297.0
 12
0.0
 22
0.0
 32
0.0
 14
1.000000E+20
 24
1.000000E+20
 34
1.000000E+20
 15
-1.000000E+20
 25
-1.000000E+20
 35
-1.000000E+20
146
0.0
 13
0.0
 23
0.0
 33
0.0
 16
1.0
 26
0.0
 36
0.0
 17
0.0
 27
1.0
 37
0.0
 76
     0
330
1B
  0
LAYOUT
  5
26
102
{ACAD_REACTORS
330
1A
102
}
330
1A
100
AcDbPlotSettings
  1

  2
none_device
  4

  6

 40
0.0
 41
0.0
 42
0.0
 43
0.0
 44
0.0
 45
0.0
 46
0.0
 47
0.0
 48
0.0
 49
0.0
140
0.0
141
0.0
142
1.0
143
1.0
 70
   688
 72
     1
 73
     0
 74
     5
  7

 75
    16
 76
     0
 77
     2
 78
   300
147
1.0
148
0.0
149
0.0
100
AcDbLayout
  1
Layout2
 70
     1
 71
     2
 10
0.0
 20
0.0
 11
0.0
 21
0.0
 12
0.0
 22
0.0
 32
0.0
 14
0.0
 24
0.0
 34
0.0
 15
0.0
 25
0.0
 35
0.0
146
0.0
 13
0.0
 23
0.0
 33
0.0
 16
1.0
 26
0.0
 36
0.0
 17
0.0
 27
1.0
 37
0.0
 76
     0
330
23
  0
LAYOUT
  5
22
102
{ACAD_REACTORS
330
1A
102
}
330
1A
100
AcDbPlotSettings
  1

  2
none_device
  4
Letter_(8.50_x_11.00_Inches)
  6

 40
6.35
 41
6.35
 42
6.350005
 43
6.350005
 44
215.9
 45
279.4
 46
0.0
 47
0.0
 48
0.0
 49
0.0
140
0.0
141
0.0
142
1.0
143
1.0
 70
  1712
 72
     1
 73
     0
 74
     0
  7

 75
     0
 76
     0
 77
     2
 78
   300
147
1.0
148
0.0
149
0.0
100
AcDbLayout
  1
Model
 70
     1
 71
     0
 10
0.0
 20
0.0
 11
420.0
 21
297.0
 12
0.0
 22
0.0
 32
0.0
 14
1.000000E+20
 24
1.000000E+20
 34
1.000000E+20
 15
-1.000000E+20
 25
-1.000000E+20
 35
-1.000000E+20
146
0.0
 13
0.0
 23
0.0
 33
0.0
 16
1.0
 26
0.0
 36
0.0
 17
0.0
 27
1.0
 37
0.0
 76
     0
330
1F
331
29
  0
MATERIAL
  5
45
102
{ACAD_REACTORS
330
43
102
}
330
43
100
AcDbMaterial
  1
ByBlock
 72
     1
 94
      127
  0
MATERIAL
  5
44
102
{ACAD_REACTORS
330
43
102
}
330
43
100
AcDbMaterial
  1
ByLayer
 72
     1
 94
      127
  0
MATERIAL
  5
46
102
{ACAD_REACTORS
330
43
102
}
330
43
100
AcDbMaterial
  1
Global
 72
     1
 94
      127
  0
MLEADERSTYLE
  5
6C
102
{ACAD_REACTORS
330
6B
102
}
330
6B
100
AcDbMLeaderStyle
179
     2
170
     2
171
     1
172
     0
 90
        2
 40
0.0
 41
0.0
173
     1
 91
-1056964608
340
14
 92
       -2
290
     1
 42
2.0
291
     1
 43
8.0
  3
Standard
341
0
 44
4.0
300

342
11
174
     1
178
     6
175
     1
176
     0
 93
-1056964608
 45
4.0
292
     0
297
     0
 46
4.0
343
0
 94
-1056964608
 47
1.0
 49
1.0
140
1.0
293
     1
141
0.0
294
     1
177
     0
142
1.0
295
     0
296
     0
143
3.75
271
     0
272
     9
273
     9
  0
MLINESTYLE
  5
18
102
{ACAD_REACTORS
330
17
102
}
330
17
100
AcDbMlineStyle
  2
Standard
 70
     0
  3

 62
   256
 51
90.0
 52
90.0
 71
     2
 49
0.5
 62
   256
  6
BYLAYER
 49
-0.5
 62
   256
  6
BYLAYER
  0
ACDBPLACEHOLDER
  5
F
102
{ACAD_REACTORS
330
E
102
}
330
E
  0
SCALE
  5
48
102
{ACAD_REACTORS
330
47
102
}
330
47
100
AcDbScale
 70
     0
300
1:1
140
1.0
141
1.0
290
     1
  0
SCALE
  5
49
102
{ACAD_REACTORS
330
47
102
}
330
47
100
AcDbScale
 70
     0
300
1:2
140
1.0
141
2.0
290
     0
  0
SCALE
  5
4A
102
{ACAD_REACTORS
330
47
102
}
330
47
100
AcDbScale
 70
     0
300
1:4
140
1.0
141
4.0
290
     0
  0
SCALE
  5
4B
102
{ACAD_REACTORS
330
47
102
}
330
47
100
AcDbScale
 70
     0
300
1:5
140
1.0
141
5.0
290
     0
  0
SCALE
  5
4C
102
{ACAD_REACTORS
330
47
102
}
330
47
100
AcDbScale
 70
     0
300
1:8
140
1.0
141
8.0
290
     0
  0
SCALE
  5
4D
102
{ACAD_REACTORS
330
47
102
}
330
47
100
AcDbScale
 70
     0
300
1:10
140
1.0
141
10.0
290
     0
  0
SCALE
  5
4E
102
{ACAD_REACTORS
330
47
102
}
330
47
100
AcDbScale
 70
     0
300
1:16
140
1.0
141
16.0
290
     0
  0
SCALE
  5
4F
102
{ACAD_REACTORS
330
47
102
}
330
47
100
AcDbScale
 70
     0
300
1:20
140
1.0
141
20.0
290
     0
  0
SCALE
  5
50
102
{ACAD_REACTORS
330
47
102
}
330
47
100
AcDbScale
 70
     0
300
1:30
140
1.0
141
30.0
290
     0
  0
SCALE
  5
51
102
{ACAD_REACTORS
330
47
102
}
330
47
100
AcDbScale
 70
     0
300
1:40
140
1.0
141
40.0
290
     0
  0
SCALE
  5
52
102
{ACAD_REACTORS
330
47
102
}
330
47
100
AcDbScale
 70
     0
300
1:50
140
1.0
141
50.0
290
     0
  0
SCALE
  5
53
102
{ACAD_REACTORS
330
47
102
}
330
47
100
AcDbScale
 70
     0
300
1:100
140
1.0
141
100.0
290
     0
  0
SCALE
  5
54
102
{ACAD_REACTORS
330
47
102
}
330
47
100
AcDbScale
 70
     0
300
2:1
140
2.0
141
1.0
290
     0
  0
SCALE
  5
55
102
{ACAD_REACTORS
330
47
102
}
330
47
100
AcDbScale
 70
     0
300
4:1
140
4.0
141
1.0
290
     0
  0
SCALE
  5
56
102
{ACAD_REACTORS
330
47
102
}
330
47
100
AcDbScale
 70
     0
300
8:1
140
8.0
141
1.0
290
     0
  0
SCALE
  5
57
102
{ACAD_REACTORS
330
47
102
}
330
47
100
AcDbScale
 70
     0
300
10:1
140
10.0
141
1.0
290
     0
  0
SCALE
  5
58
102
{ACAD_REACTORS
330
47
102
}
330
47
100
AcDbScale
 70
     0
300
100:1
140
100.0
141
1.0
290
     0
  0
SCALE
  5
59
102
{ACAD_REACTORS
330
47
102
}
330
47
100
AcDbScale
 70
     0
300
1/128" = 1'-0"
140
0.007812
141
12.0
290
     0
  0
SCALE
  5
5A
102
{ACAD_REACTORS
330
47
102
}
330
47
100
AcDbScale
 70
     0
300
1/64" = 1'-0"
140
0.015625
141
12.0
290
     0
  0
SCALE
  5
5B
102
{ACAD_REACTORS
330
47
102
}
330
47
100
AcDbScale
 70
     0
300
1/32" = 1'-0"
140
0.03125
141
12.0
290
     0
  0
SCALE
  5
5C
102
{ACAD_REACTORS
330
47
102
}
330
47
100
AcDbScale
 70
     0
300
1/16" = 1'-0"
140
0.0625
141
12.0
290
     0
  0
SCALE
  5
5D
102
{ACAD_REACTORS
330
47
102
}
330
47
100
AcDbScale
 70
     0
300
3/32" = 1'-0"
140
0.09375
141
12.0
290
     0
  0
SCALE
  5
5E
102
{ACAD_REACTORS
330
47
102
}
330
47
100
AcDbScale
 70
     0
300
1/8" = 1'-0"
140
0.125
141
12.0
290
     0
  0
SCALE
  5
5F
102
{ACAD_REACTORS
330
47
102
}
330
47
100
AcDbScale
 70
     0
300
3/16" = 1'-0"
140
0.1875
141
12.0
290
     0
  0
SCALE
  5
60
102
{ACAD_REACTORS
330
47
102
}
330
47
100
AcDbScale
 70
     0
300
1/4" = 1'-0"
140
0.25
141
12.0
290
     0
  0
SCALE
  5
61
102
{ACAD_REACTORS
330
47
102
}
330
47
100
AcDbScale
 70
     0
300
3/8" = 1'-0"
140
0.375
141
12.0
290
     0
  0
SCALE
  5
62
102
{ACAD_REACTORS
330
47
102
}
330
47
100
AcDbScale
 70
     0
300
1/2" = 1'-0"
140
0.5
141
12.0
290
     0
  0
SCALE
  5
63
102
{ACAD_REACTORS
330
47
102
}
330
47
100
AcDbScale
 70
     0
300
3/4" = 1'-0"
140
0.75
141
12.0
290
     0
  0
SCALE
  5
64
102
{ACAD_REACTORS
330
47
102
}
330
47
100
AcDbScale
 70
     0
300
1" = 1'-0"
140
1.0
141
12.0
290
     0
  0
SCALE
  5
65
102
{ACAD_REACTORS
330
47
102
}
330
47
100
AcDbScale
 70
     0
300
1-1/2" = 1'-0"
140
1.5
141
12.0
290
     0
  0
SCALE
  5
66
102
{ACAD_REACTORS
330
47
102
}
330
47
100
AcDbScale
 70
     0
300
3" = 1'-0"
140
3.0
141
12.0
290
     0
  0
SCALE
  5
67
102
{ACAD_REACTORS
330
47
102
}
330
47
100
AcDbScale
 70
     0
300
6" = 1'-0"
140
6.0
141
12.0
290
     0
  0
SCALE
  5
68
102
{ACAD_REACTORS
330
47
102
}
330
47
100
AcDbScale
 70
     0
300
1'-0" = 1'-0"
140
12.0
141
12.0
290
     0
  0
TABLESTYLE
  5
6A
102
{ACAD_REACTORS
330
69
102
}
102
{ACAD_XDICTIONARY
360
299
102
}
330
69
100
AcDbTableStyle
  3
Standard
 70
     0
 71
     0
 40
0.06
 41
0.06
280
     0
281
     0
  7
Standard
140
4.5
170
     2
 62
     0
 63
   257
283
     0
 90
        4
 91
        0
  1

274
    -2
284
     1
 64
     0
275
    -2
285
     1
 65
     0
276
    -2
286
     1
 66
     0
277
    -2
287
     1
 67
     0
278
    -2
288
     1
 68
     0
279
    -2
289
     1
 69
     0
  7
Standard
140
6.0
170
     5
 62
     0
 63
   257
283
     0
 90
        4
 91
        0
  1

274
    -2
284
     1
 64
     0
275
    -2
285
     1
 65
     0
276
    -2
286
     1
 66
     0
277
    -2
287
     1
 67
     0
278
    -2
288
     1
 68
     0
279
    -2
289
     1
 69
     0
  7
Standard
140
4.5
170
     5
 62
     0
 63
   257
283
     0
 90
        4
 91
        0
  1

274
    -2
284
     1
 64
     0
275
    -2
285
     1
 65
     0
276
    -2
286
     1
 66
     0
277
    -2
287
     1
 67
     0
278
    -2
288
     1
 68
     0
279
    -2
289
     1
 69
     0
  0
VISUALSTYLE
  5
2F
102
{ACAD_REACTORS
330
2A
102
}
102
{ACAD_XDICTIONARY
360
271
102
}
330
2A
100
AcDbVisualStyle
  2
2dWireframe
 70
     4
177
     2
291
     0
 71
     0
176
     1
 72
     2
176
     1
 73
     0
176
     1
 90
        0
176
     1
 40
0.6
176
     1
 41
30.0
176
     1
 62
     5
 63
     7
421
 16777215
176
     1
 74
     1
176
     1
 91
        4
176
     1
 64
     7
176
     1
 65
   257
176
     1
 75
     1
176
     1
175
     1
176
     1
 42
1.0
176
     1
 92
        0
176
     1
 66
   257
176
     1
 43
1.0
176
     1
 76
     1
176
     1
 77
     6
176
     1
 78
     2
176
     1
 67
     7
176
     1
 79
     5
176
     1
170
     0
176
     1
171
     0
176
     1
290
     0
176
     1
 93
        1
176
     1
 44
0.0
176
     1
173
     0
176
     1
  0
VISUALSTYLE
  5
32
102
{ACAD_REACTORS
330
2A
102
}
102
{ACAD_XDICTIONARY
360
277
102
}
330
2A
100
AcDbVisualStyle
  2
Basic
 70
     7
177
     2
291
     1
 71
     1
176
     1
 72
     0
176
     1
 73
     1
176
     1
 90
        0
176
     1
 40
0.6
176
     1
 41
30.0
176
     1
 62
     5
 63
     7
421
 16777215
176
     1
 74
     0
176
     1
 91
        4
176
     1
 64
     7
176
     1
 65
   257
176
     1
 75
     1
176
     1
175
     1
176
     1
 42
1.0
176
     1
 92
        8
176
     1
 66
     7
176
     1
 43
1.0
176
     1
 76
     1
176
     1
 77
     6
176
     1
 78
     2
176
     1
 67
     7
176
     1
 79
     5
176
     1
170
     0
176
     1
171
     0
176
     1
290
     0
176
     1
 93
        1
176
     1
 44
0.0
176
     1
173
     0
176
     1
  0
VISUALSTYLE
  5
36
102
{ACAD_REACTORS
330
2A
102
}
102
{ACAD_XDICTIONARY
360
27F
102
}
330
2A
100
AcDbVisualStyle
  2
Brighten
 70
    12
177
     2
291
     1
 71
     2
176
     1
 72
     2
176
     1
 73
     0
176
     1
 90
        0
176
     1
 40
0.6
176
     1
 41
30.0
176
     1
 62
     5
 63
     7
421
 16777215
176
     1
 74
     1
176
     1
 91
        4
176
     1
 64
     7
176
     1
 65
   257
176
     1
 75
     1
176
     1
175
     1
176
     1
 42
1.0
176
     1
 92
        8
176
     1
 66
     7
176
     1
 43
1.0
176
     1
 76
     1
176
     1
 77
     6
176
     1
 78
     2
176
     1
 67
     7
176
     1
 79
     5
176
     1
170
     0
176
     1
171
     0
176
     1
290
     0
176
     1
 93
        1
176
     1
 44
50.0
176
     1
173
     0
176
     1
  0
VISUALSTYLE
  5
3A
102
{ACAD_REACTORS
330
2A
102
}
102
{ACAD_XDICTIONARY
360
287
102
}
330
2A
100
AcDbVisualStyle
  2
ColorChange
 70
    16
177
     2
291
     1
 71
     2
176
     1
 72
     2
176
     1
 73
     3
176
     1
 90
        0
176
     1
 40
0.6
176
     1
 41
30.0
176
     1
 62
     5
 63
     8
421
  8421504
176
     1
 74
     1
176
     1
 91
        4
176
     1
 64
     7
176
     1
 65
   257
176
     1
 75
     1
176
     1
175
     1
176
     1
 42
1.0
176
     1
 92
        8
176
     1
 66
     8
424
  8421504
176
     1
 43
1.0
176
     1
 76
     1
176
     1
 77
     6
176
     1
 78
     2
176
     1
 67
     7
176
     1
 79
     5
176
     1
170
     0
176
     1
171
     0
176
     1
290
     0
176
     1
 93
        1
176
     1
 44
0.0
176
     1
173
     0
176
     1
  0
VISUALSTYLE
  5
34
102
{ACAD_REACTORS
330
2A
102
}
102
{ACAD_XDICTIONARY
360
27B
102
}
330
2A
100
AcDbVisualStyle
  2
Conceptual
 70
     9
177
     2
291
     0
 71
     3
176
     1
 72
     2
176
     1
 73
     0
176
     1
 90
        0
176
     1
 40
0.6
176
     1
 41
30.0
176
     1
 62
     5
 63
     7
421
 16777215
176
     1
 74
     2
176
     1
 91
        2
176
     1
 64
     7
176
     1
 65
   257
176
     1
 75
     1
176
     1
175
     1
176
     1
 42
179.0
176
     1
 92
        8
176
     1
 66
     7
176
     1
 43
1.0
176
     1
 76
     1
176
     1
 77
     6
176
     1
 78
     2
176
     1
 67
     7
176
     1
 79
     3
176
     1
170
     0
176
     1
171
     0
176
     1
290
     0
176
     1
 93
        1
176
     1
 44
0.0
176
     1
173
     0
176
     1
  0
VISUALSTYLE
  5
35
102
{ACAD_REACTORS
330
2A
102
}
102
{ACAD_XDICTIONARY
360
27D
102
}
330
2A
100
AcDbVisualStyle
  2
Dim
 70
    11
177
     2
291
     1
 71
     2
176
     1
 72
     2
176
     1
 73
     0
176
     1
 90
        0
176
     1
 40
0.6
176
     1
 41
30.0
176
     1
 62
     5
 63
     7
421
 16777215
176
     1
 74
     1
176
     1
 91
        4
176
     1
 64
     7
176
     1
 65
   257
176
     1
 75
     1
176
     1
175
     1
176
     1
 42
1.0
176
     1
 92
        8
176
     1
 66
     7
176
     1
 43
1.0
176
     1
 76
     1
176
     1
 77
     6
176
     1
 78
     2
176
     1
 67
     7
176
     1
 79
     5
176
     1
170
     0
176
     1
171
     0
176
     1
290
     0
176
     1
 93
        1
176
     1
 44
-50.0
176
     1
173
     0
176
     1
  0
VISUALSTYLE
  5
3D
102
{ACAD_REACTORS
330
2A
102
}
102
{ACAD_XDICTIONARY
360
28D
102
}
330
2A
100
AcDbVisualStyle
  2
EdgeColorOff
 70
    22
177
     2
291
     1
 71
     2
176
     0
 72
     2
176
     0
 73
     0
176
     0
 90
        0
176
     0
 40
0.6
176
     0
 41
30.0
176
     0
 62
     5
 63
     7
421
 16777215
176
     0
 74
     1
176
     0
 91
        4
176
     0
 64
     7
176
     0
 65
   257
176
     0
 75
     1
176
     0
175
     1
176
     0
 42
1.0
176
     0
 92
        8
176
     2
 66
     7
176
     0
 43
1.0
176
     0
 76
     1
176
     0
 77
     6
176
     0
 78
     2
176
     0
 67
     7
176
     0
 79
     5
176
     0
170
     0
176
     0
171
     0
176
     0
290
     0
176
     0
 93
        1
176
     0
 44
0.0
176
     0
173
     0
176
     0
  0
VISUALSTYLE
  5
39
102
{ACAD_REACTORS
330
2A
102
}
102
{ACAD_XDICTIONARY
360
285
102
}
330
2A
100
AcDbVisualStyle
  2
Facepattern
 70
    15
177
     2
291
     1
 71
     2
176
     1
 72
     2
176
     1
 73
     0
176
     1
 90
        0
176
     1
 40
0.6
176
     1
 41
30.0
176
     1
 62
     5
 63
     7
421
 16777215
176
     1
 74
     1
176
     1
 91
        4
176
     1
 64
     7
176
     1
 65
   257
176
     1
 75
     1
176
     1
175
     1
176
     1
 42
1.0
176
     1
 92
        8
176
     1
 66
     7
176
     1
 43
1.0
176
     1
 76
     1
176
     1
 77
     6
176
     1
 78
     2
176
     1
 67
     7
176
     1
 79
     5
176
     1
170
     0
176
     1
171
     0
176
     1
290
     0
176
     1
 93
        1
176
     1
 44
0.0
176
     1
173
     0
176
     1
  0
VISUALSTYLE
  5
2B
102
{ACAD_REACTORS
330
2A
102
}
102
{ACAD_XDICTIONARY
360
269
102
}
330
2A
100
AcDbVisualStyle
  2
Flat
 70
     0
177
     2
291
     1
 71
     2
176
     1
 72
     1
176
     1
 73
     1
176
     1
 90
        2
176
     1
 40
0.6
176
     1
 41
30.0
176
     1
 62
     5
 63
     7
421
 16777215
176
     1
 74
     0
176
     1
 91
        0
176
     1
 64
     7
176
     1
 65
   257
176
     1
 75
     1
176
     1
175
     1
176
     1
 42
1.0
176
     1
 92
        8
176
     1
 66
     7
176
     1
 43
1.0
176
     1
 76
     1
176
     1
 77
     6
176
     1
 78
     2
176
     1
 67
     7
176
     1
 79
     5
176
     1
170
     0
176
     1
171
     0
176
     1
290
     0
176
     1
 93
       13
176
     1
 44
0.0
176
     1
173
     0
176
     1
  0
VISUALSTYLE
  5
2C
102
{ACAD_REACTORS
330
2A
102
}
102
{ACAD_XDICTIONARY
360
26B
102
}
330
2A
100
AcDbVisualStyle
  2
FlatWithEdges
 70
     1
177
     2
291
     1
 71
     2
176
     1
 72
     1
176
     1
 73
     1
176
     1
 90
        2
176
     1
 40
0.6
176
     1
 41
30.0
176
     1
 62
     5
 63
     7
421
 16777215
176
     1
 74
     1
176
     1
 91
        0
176
     1
 64
     7
176
     1
 65
   257
176
     1
 75
     1
176
     1
175
     1
176
     1
 42
1.0
176
     1
 92
        0
176
     1
 66
   257
176
     1
 43
1.0
176
     1
 76
     1
176
     1
 77
     6
176
     1
 78
     2
176
     1
 67
     7
176
     1
 79
     5
176
     1
170
     0
176
     1
171
     0
176
     1
290
     0
176
     1
 93
       13
176
     1
 44
0.0
176
     1
173
     0
176
     1
  0
VISUALSTYLE
  5
2D
102
{ACAD_REACTORS
330
2A
102
}
102
{ACAD_XDICTIONARY
360
26D
102
}
330
2A
100
AcDbVisualStyle
  2
Gouraud
 70
     2
177
     2
291
     1
 71
     2
176
     1
 72
     2
176
     1
 73
     1
176
     1
 90
        2
176
     1
 40
0.6
176
     1
 41
30.0
176
     1
 62
     5
 63
     7
421
 16777215
176
     1
 74
     0
176
     1
 91
        0
176
     1
 64
     7
176
     1
 65
   257
176
     1
 75
     1
176
     1
175
     1
176
     1
 42
1.0
176
     1
 92
        0
176
     1
 66
     7
176
     1
 43
1.0
176
     1
 76
     1
176
     1
 77
     6
176
     1
 78
     2
176
     1
 67
     7
176
     1
 79
     5
176
     1
170
     0
176
     1
171
     0
176
     1
290
     0
176
     1
 93
       13
176
     1
 44
0.0
176
     1
173
     0
176
     1
  0
VISUALSTYLE
  5
2E
102
{ACAD_REACTORS
330
2A
102
}
102
{ACAD_XDICTIONARY
360
26F
102
}
330
2A
100
AcDbVisualStyle
  2
GouraudWithEdges
 70
     3
177
     2
291
     1
 71
     2
176
     1
 72
     2
176
     1
 73
     1
176
     1
 90
        2
176
     1
 40
0.6
176
     1
 41
30.0
176
     1
 62
     5
 63
     7
421
 16777215
176
     1
 74
     1
176
     1
 91
        0
176
     1
 64
     7
176
     1
 65
   257
176
     1
 75
     1
176
     1
175
     1
176
     1
 42
1.0
176
     1
 92
        0
176
     1
 66
   257
176
     1
 43
1.0
176
     1
 76
     1
176
     1
 77
     6
176
     1
 78
     2
176
     1
 67
     7
176
     1
 79
     5
176
     1
170
     0
176
     1
171
     0
176
     1
290
     0
176
     1
 93
       13
176
     1
 44
0.0
176
     1
173
     0
176
     1
  0
VISUALSTYLE
  5
31
102
{ACAD_REACTORS
330
2A
102
}
102
{ACAD_XDICTIONARY
360
275
102
}
330
2A
100
AcDbVisualStyle
  2
Hidden
 70
     6
177
     2
291
     0
 71
     1
176
     1
 72
     2
176
     1
 73
     2
176
     1
 90
        0
176
     1
 40
0.6
176
     1
 41
30.0
176
     1
 62
     5
 63
     7
421
 16777215
176
     1
 74
     2
176
     1
 91
        2
176
     1
 64
     7
176
     1
 65
   257
176
     1
 75
     2
176
     1
175
     1
176
     1
 42
40.0
176
     1
 92
        0
176
     1
 66
   257
176
     1
 43
1.0
176
     1
 76
     1
176
     1
 77
     6
176
     1
 78
     2
176
     1
 67
     7
176
     1
 79
     3
176
     1
170
     0
176
     1
171
     0
176
     1
290
     0
176
     1
 93
        1
176
     1
 44
0.0
176
     1
173
     0
176
     1
  0
VISUALSTYLE
  5
3B
102
{ACAD_REACTORS
330
2A
102
}
102
{ACAD_XDICTIONARY
360
289
102
}
330
2A
100
AcDbVisualStyle
  2
JitterOff
 70
    20
177
     2
291
     1
 71
     2
176
     0
 72
     2
176
     0
 73
     0
176
     0
 90
        0
176
     0
 40
0.6
176
     0
 41
30.0
176
     0
 62
     5
 63
     7
421
 16777215
176
     0
 74
     1
176
     0
 91
        4
176
     0
 64
     7
176
     0
 65
   257
176
     0
 75
     1
176
     0
175
     1
176
     0
 42
1.0
176
     0
 92
       10
176
     2
 66
     7
176
     0
 43
1.0
176
     0
 76
     1
176
     0
 77
     6
176
     0
 78
     2
176
     0
 67
     7
176
     0
 79
     5
176
     0
170
     0
176
     0
171
     0
176
     0
290
     0
176
     0
 93
        1
176
     0
 44
0.0
176
     0
173
     0
176
     0
  0
VISUALSTYLE
  5
38
102
{ACAD_REACTORS
330
2A
102
}
102
{ACAD_XDICTIONARY
360
283
102
}
330
2A
100
AcDbVisualStyle
  2
Linepattern
 70
    14
177
     2
291
     1
 71
     2
176
     1
 72
     2
176
     1
 73
     0
176
     1
 90
        0
176
     1
 40
0.6
176
     1
 41
30.0
176
     1
 62
     5
 63
     7
421
 16777215
176
     1
 74
     1
176
     1
 91
        4
176
     1
 64
     7
176
     1
 65
   257
176
     1
 75
     7
176
     1
175
     7
176
     1
 42
1.0
176
     1
 92
        8
176
     1
 66
     7
176
     1
 43
1.0
176
     1
 76
     1
176
     1
 77
     6
176
     1
 78
     2
176
     1
 67
     7
176
     1
 79
     5
176
     1
170
     0
176
     1
171
     0
176
     1
290
     0
176
     1
 93
        1
176
     1
 44
0.0
176
     1
173
     0
176
     1
  0
VISUALSTYLE
  5
3C
102
{ACAD_REACTORS
330
2A
102
}
102
{ACAD_XDICTIONARY
360
28B
102
}
330
2A
100
AcDbVisualStyle
  2
OverhangOff
 70
    21
177
     2
291
     1
 71
     2
176
     0
 72
     2
176
     0
 73
     0
176
     0
 90
        0
176
     0
 40
0.6
176
     0
 41
30.0
176
     0
 62
     5
 63
     7
421
 16777215
176
     0
 74
     1
176
     0
 91
        4
176
     0
 64
     7
176
     0
 65
   257
176
     0
 75
     1
176
     0
175
     1
176
     0
 42
1.0
176
     0
 92
        9
176
     2
 66
     7
176
     0
 43
1.0
176
     0
 76
     1
176
     0
 77
     6
176
     0
 78
     2
176
     0
 67
     7
176
     0
 79
     5
176
     0
170
     0
176
     0
171
     0
176
     0
290
     0
176
     0
 93
        1
176
     0
 44
0.0
176
     0
173
     0
176
     0
  0
VISUALSTYLE
  5
33
102
{ACAD_REACTORS
330
2A
102
}
102
{ACAD_XDICTIONARY
360
279
102
}
330
2A
100
AcDbVisualStyle
  2
Realistic
 70
     8
177
     2
291
     0
 71
     2
176
     1
 72
     3
176
     1
 73
     0
176
     1
 90
        2
176
     1
 40
0.6
176
     1
 41
30.0
176
     1
 62
     5
 63
     7
421
 16777215
176
     1
 74
     0
176
     1
 91
        0
176
     1
 64
     7
176
     1
 65
   257
176
     1
 75
     1
176
     1
175
     1
176
     1
 42
1.0
176
     1
 92
        8
176
     1
 66
   257
176
     1
 43
1.0
176
     1
 76
     1
176
     1
 77
     6
176
     1
 78
     2
176
     1
 67
     7
176
     1
 79
     3
176
     1
170
     0
176
     1
171
     0
176
     1
290
     0
176
     1
 93
       13
176
     1
 44
0.0
176
     1
173
     0
176
     1
  0
VISUALSTYLE
  5
42
102
{ACAD_REACTORS
330
2A
102
}
102
{ACAD_XDICTIONARY
360
297
102
}
330
2A
100
AcDbVisualStyle
  2
Shaded
 70
    27
177
     2
291
     0
 71
     2
176
     1
 72
     2
176
     1
 73
     1
176
     1
 90
        2
176
     1
 40
0.6
176
     1
 41
30.0
176
     1
 62
     5
 63
     7
421
 16777215
176
     1
 74
     0
176
     1
 91
        4
176
     1
 64
     7
176
     1
 65
   257
176
     1
 75
     1
176
     1
175
     1
176
     1
 42
1.0
176
     1
 92
        8
176
     1
 66
   257
176
     1
 43
1.0
176
     1
 76
     1
176
     1
 77
     6
176
     1
 78
     2
176
     1
 67
     8
425
  7895160
176
     1
 79
     3
176
     1
170
     0
176
     1
171
     0
176
     1
290
     0
176
     1
 93
        5
176
     1
 44
0.0
176
     1
173
     0
176
     1
  0
VISUALSTYLE
  5
41
102
{ACAD_REACTORS
330
2A
102
}
102
{ACAD_XDICTIONARY
360
295
102
}
330
2A
100
AcDbVisualStyle
  2
Shaded with edges
 70
    26
177
     2
291
     0
 71
     2
176
     1
 72
     2
176
     1
 73
     1
176
     1
 90
        2
176
     1
 40
0.6
176
     1
 41
30.0
176
     1
 62
     5
 63
     7
421
 16777215
176
     1
 74
     1
176
     1
 91
       10
176
     1
 64
     7
176
     1
 65
   257
176
     1
 75
     2
176
     1
175
     1
176
     1
 42
1.0
176
     1
 92
        8
176
     1
 66
   257
176
     1
 43
1.0
176
     1
 76
     1
176
     1
 77
     6
176
     1
 78
     2
176
     1
 67
     7
176
     1
 79
     3
176
     1
170
     0
176
     1
171
     0
176
     1
290
     0
176
     1
 93
        5
176
     1
 44
0.0
176
     1
173
     0
176
     1
  0
VISUALSTYLE
  5
3E
102
{ACAD_REACTORS
330
2A
102
}
102
{ACAD_XDICTIONARY
360
28F
102
}
330
2A
100
AcDbVisualStyle
  2
Shades of Gray
 70
    23
177
     2
291
     0
 71
     2
176
     1
 72
     2
176
     1
 73
     3
176
     1
 90
        0
176
     1
 40
0.6
176
     1
 41
30.0
176
     1
 62
     5
 63
     7
421
 16777215
176
     1
 74
     2
176
     1
 91
        2
176
     1
 64
     7
176
     1
 65
     7
176
     1
 75
     1
176
     1
175
     1
176
     1
 42
40.0
176
     1
 92
        8
176
     1
 66
     7
176
     1
 43
1.0
176
     1
 76
     1
176
     1
 77
     6
176
     1
 78
     2
176
     1
 67
     7
176
     1
 79
     3
176
     1
170
     0
176
     1
171
     0
176
     1
290
     0
176
     1
 93
        1
176
     1
 44
0.0
176
     1
173
     0
176
     1
  0
VISUALSTYLE
  5
3F
102
{ACAD_REACTORS
330
2A
102
}
102
{ACAD_XDICTIONARY
360
291
102
}
330
2A
100
AcDbVisualStyle
  2
Sketchy
 70
    24
177
     2
291
     0
 71
     1
176
     1
 72
     2
176
     1
 73
     2
176
     1
 90
        0
176
     1
 40
0.6
176
     1
 41
30.0
176
     1
 62
     5
 63
     7
421
 16777215
176
     1
 74
     2
176
     1
 91
        2
176
     1
 64
     7
176
     1
 65
     7
176
     1
 75
     1
176
     1
175
     1
176
     1
 42
40.0
176
     1
 92
       11
176
     1
 66
     7
176
     1
 43
1.0
176
     1
 76
     1
176
     1
 77
     6
176
     1
 78
     2
176
     1
 67
     7
176
     1
 79
     6
176
     1
170
     0
176
     1
171
     0
176
     1
290
     0
176
     1
 93
        1
176
     1
 44
0.0
176
     1
173
     0
176
     1
  0
VISUALSTYLE
  5
37
102
{ACAD_REACTORS
330
2A
102
}
102
{ACAD_XDICTIONARY
360
281
102
}
330
2A
100
AcDbVisualStyle
  2
Thicken
 70
    13
177
     2
291
     1
 71
     2
176
     1
 72
     2
176
     1
 73
     0
176
     1
 90
        0
176
     1
 40
0.6
176
     1
 41
30.0
176
     1
 62
     5
 63
     7
421
 16777215
176
     1
 74
     1
176
     1
 91
        4
176
     1
 64
     7
176
     1
 65
   257
176
     1
 75
     1
176
     1
175
     1
176
     1
 42
1.0
176
     1
 92
       12
176
     1
 66
     7
176
     1
 43
1.0
176
     1
 76
     1
176
     1
 77
     6
176
     1
 78
     2
176
     1
 67
     7
176
     1
 79
     5
176
     1
170
     0
176
     1
171
     0
176
     1
290
     0
176
     1
 93
        1
176
     1
 44
0.0
176
     1
173
     0
176
     1
  0
VISUALSTYLE
  5
30
102
{ACAD_REACTORS
330
2A
102
}
102
{ACAD_XDICTIONARY
360
273
102
}
330
2A
100
AcDbVisualStyle
  2
Wireframe
 70
     5
177
     2
291
     0
 71
     0
176
     1
 72
     2
176
     1
 73
     0
176
     1
 90
        0
176
     1
 40
0.6
176
     1
 41
30.0
176
     1
 62
     5
 63
     7
421
 16777215
176
     1
 74
     1
176
     1
 91
        4
176
     1
 64
     7
176
     1
 65
   257
176
     1
 75
     1
176
     1
175
     1
176
     1
 42
1.0
176
     1
 92
        0
176
     1
 66
   257
176
     1
 43
1.0
176
     1
 76
     1
176
     1
 77
     6
176
     1
 78
     2
176
     1
 67
     7
176
     1
 79
     3
176
     1
170
     0
176
     1
171
     0
176
     1
290
     0
176
     1
 93
        1
176
     1
 44
0.0
176
     1
173
     0
176
     1
  0
VISUALSTYLE
  5
40
102
{ACAD_REACTORS
330
2A
102
}
102
{ACAD_XDICTIONARY
360
293
102
}
330
2A
100
AcDbVisualStyle
  2
X-Ray
 70
    25
177
     2
291
     0
 71
     2
176
     1
 72
     2
176
     1
 73
     1
176
     1
 90
        1
176
     1
 40
0.5
176
     1
 41
30.0
176
     1
 62
     5
 63
     7
421
 16777215
176
     1
 74
     1
176
     1
 91
        0
176
     1
 64
     7
176
     1
 65
   257
176
     1
 75
     1
176
     1
175
     1
176
     1
 42
1.0
176
     1
 92
        8
176
     1
 66
     7
176
     1
 43
1.0
176
     1
 76
     1
176
     1
 77
     6
176
     1
 78
     2
176
     1
 67
     7
176
     1
 79
     3
176
     1
170
     0
176
     1
171
     0
176
     1
290
     0
176
     1
 93
       13
176
     1
 44
0.0
176
     1
173
     0
176
     1
  0
DICTIONARYVAR
  5
268
102
{ACAD_REACTORS
330
267
102
}
330
267
100
DictionaryVariables
280
     0
  1
1:1
  0
DICTIONARYVAR
  5
29D
102
{ACAD_REACTORS
330
267
102
}
330
267
100
DictionaryVariables
280
     0
  1
Standard
  0
DICTIONARYVAR
  5
29C
102
{ACAD_REACTORS
330
267
102
}
330
267
100
DictionaryVariables
280
     0
  1
Standard
  0
DICTIONARY
  5
299
330
6A
100
AcDbDictionary
280
     1
281
     1
  3
ACAD_ROUNDTRIP_2008_TABLESTYLE_CELLSTYLEMAP
360
29A
  0
DICTIONARY
  5
271
330
2F
100
AcDbDictionary
280
     1
281
     1
  3
ACAD_XREC_ROUNDTRIP
360
272
  0
DICTIONARY
  5
277
330
32
100
AcDbDictionary
280
     1
281
     1
  3
ACAD_XREC_ROUNDTRIP
360
278
  0
DICTIONARY
  5
27F
330
36
100
AcDbDictionary
280
     1
281
     1
  3
ACAD_XREC_ROUNDTRIP
360
280
  0
DICTIONARY
  5
287
330
3A
100
AcDbDictionary
280
     1
281
     1
  3
ACAD_XREC_ROUNDTRIP
360
288
  0
DICTIONARY
  5
27B
330
34
100
AcDbDictionary
280
     1
281
     1
  3
ACAD_XREC_ROUNDTRIP
360
27C
  0
DICTIONARY
  5
27D
330
35
100
AcDbDictionary
280
     1
281
     1
  3
ACAD_XREC_ROUNDTRIP
360
27E
  0
DICTIONARY
  5
28D
330
3D
100
AcDbDictionary
280
     1
281
     1
  3
ACAD_XREC_ROUNDTRIP
360
28E
  0
DICTIONARY
  5
285
330
39
100
AcDbDictionary
280
     1
281
     1
  3
ACAD_XREC_ROUNDTRIP
360
286
  0
DICTIONARY
  5
269
330
2B
100
AcDbDictionary
280
     1
281
     1
  3
ACAD_XREC_ROUNDTRIP
360
26A
  0
DICTIONARY
  5
26B
330
2C
100
AcDbDictionary
280
     1
281
     1
  3
ACAD_XREC_ROUNDTRIP
360
26C
  0
DICTIONARY
  5
26D
330
2D
100
AcDbDictionary
280
     1
281
     1
  3
ACAD_XREC_ROUNDTRIP
360
26E
  0
DICTIONARY
  5
26F
330
2E
100
AcDbDictionary
280
     1
281
     1
  3
ACAD_XREC_ROUNDTRIP
360
270
  0
DICTIONARY
  5
275
330
31
100
AcDbDictionary
280
     1
281
     1
  3
ACAD_XREC_ROUNDTRIP
360
276
  0
DICTIONARY
  5
289
330
3B
100
AcDbDictionary
280
     1
281
     1
  3
ACAD_XREC_ROUNDTRIP
360
28A
  0
DICTIONARY
  5
283
330
38
100
AcDbDictionary
280
     1
281
     1
  3
ACAD_XREC_ROUNDTRIP
360
284
  0
DICTIONARY
  5
28B
330
3C
100
AcDbDictionary
280
     1
281
     1
  3
ACAD_XREC_ROUNDTRIP
360
28C
  0
DICTIONARY
  5
279
330
33
100
AcDbDictionary
280
     1
281
     1
  3
ACAD_XREC_ROUNDTRIP
360
27A
  0
DICTIONARY
  5
297
330
42
100
AcDbDictionary
280
     1
281
     1
  3
ACAD_XREC_ROUNDTRIP
360
298
  0
DICTIONARY
  5
295
330
41
100
AcDbDictionary
280
     1
281
     1
  3
ACAD_XREC_ROUNDTRIP
360
296
  0
DICTIONARY
  5
28F
330
3E
100
AcDbDictionary
280
     1
281
     1
  3
ACAD_XREC_ROUNDTRIP
360
290
  0
DICTIONARY
  5
291
330
3F
100
AcDbDictionary
280
     1
281
     1
  3
ACAD_XREC_ROUNDTRIP
360
292
  0
DICTIONARY
  5
281
330
37
100
AcDbDictionary
280
     1
281
     1
  3
ACAD_XREC_ROUNDTRIP
360
282
  0
DICTIONARY
  5
273
330
30
100
AcDbDictionary
280
     1
281
     1
  3
ACAD_XREC_ROUNDTRIP
360
274
  0
DICTIONARY
  5
293
330
40
100
AcDbDictionary
280
     1
281
     1
  3
ACAD_XREC_ROUNDTRIP
360
294
  0
CELLSTYLEMAP
  5
29A
102
{ACAD_REACTORS
330
299
102
}
330
299
100
AcDbCellStyleMap
 90
        3
300
CELLSTYLE
  1
TABLEFORMAT_BEGIN
 90
        5
170
     1
 91
        0
 92
    32768
 62
   257
 93
        1
300
CONTENTFORMAT
  1
CONTENTFORMAT_BEGIN
 90
        0
 91
        0
 92
        4
 93
        0
300

 40
0.0
140
1.0
 94
        5
 62
     0
340
11
144
6.0
309
CONTENTFORMAT_END
171
     1
301
MARGIN
  1
CELLMARGIN_BEGIN
 40
1.5
 40
1.5
 40
1.5
 40
1.5
 40
1.5
 40
1.5
309
CELLMARGIN_END
 94
        6
 95
        1
302
GRIDFORMAT
  1
GRIDFORMAT_BEGIN
 90
        0
 91
        1
 62
     0
 92
       -2
340
14
 93
        0
 40
0.045
309
GRIDFORMAT_END
 95
        2
302
GRIDFORMAT
  1
GRIDFORMAT_BEGIN
 90
        0
 91
        1
 62
     0
 92
       -2
340
14
 93
        0
 40
0.045
309
GRIDFORMAT_END
 95
        4
302
GRIDFORMAT
  1
GRIDFORMAT_BEGIN
 90
        0
 91
        1
 62
     0
 92
       -2
340
14
 93
        0
 40
0.045
309
GRIDFORMAT_END
 95
        8
302
GRIDFORMAT
  1
GRIDFORMAT_BEGIN
 90
        0
 91
        1
 62
     0
 92
       -2
340
14
 93
        0
 40
0.045
309
GRIDFORMAT_END
 95
       16
302
GRIDFORMAT
  1
GRIDFORMAT_BEGIN
 90
        0
 91
        1
 62
     0
 92
       -2
340
14
 93
        0
 40
0.045
309
GRIDFORMAT_END
 95
       32
302
GRIDFORMAT
  1
GRIDFORMAT_BEGIN
 90
        0
 91
        1
 62
     0
 92
       -2
340
14
 93
        0
 40
0.045
309
GRIDFORMAT_END
309
TABLEFORMAT_END
  1
CELLSTYLE_BEGIN
 90
        1
 91
        1
300
_TITLE
309
CELLSTYLE_END
300
CELLSTYLE
  1
TABLEFORMAT_BEGIN
 90
        5
170
     1
 91
        0
 92
        0
 62
   257
 93
        1
300
CONTENTFORMAT
  1
CONTENTFORMAT_BEGIN
 90
        0
 91
        0
 92
        4
 93
        0
300

 40
0.0
140
1.0
 94
        5
 62
     0
340
11
144
4.5
309
CONTENTFORMAT_END
171
     1
301
MARGIN
  1
CELLMARGIN_BEGIN
 40
1.5
 40
1.5
 40
1.5
 40
1.5
 40
1.5
 40
1.5
309
CELLMARGIN_END
 94
        6
 95
        1
302
GRIDFORMAT
  1
GRIDFORMAT_BEGIN
 90
        0
 91
        1
 62
     0
 92
       -2
340
14
 93
        0
 40
0.045
309
GRIDFORMAT_END
 95
        2
302
GRIDFORMAT
  1
GRIDFORMAT_BEGIN
 90
        0
 91
        1
 62
     0
 92
       -2
340
14
 93
        0
 40
0.045
309
GRIDFORMAT_END
 95
        4
302
GRIDFORMAT
  1
GRIDFORMAT_BEGIN
 90
        0
 91
        1
 62
     0
 92
       -2
340
14
 93
        0
 40
0.045
309
GRIDFORMAT_END
 95
        8
302
GRIDFORMAT
  1
GRIDFORMAT_BEGIN
 90
        0
 91
        1
 62
     0
 92
       -2
340
14
 93
        0
 40
0.045
309
GRIDFORMAT_END
 95
       16
302
GRIDFORMAT
  1
GRIDFORMAT_BEGIN
 90
        0
 91
        1
 62
     0
 92
       -2
340
14
 93
        0
 40
0.045
309
GRIDFORMAT_END
 95
       32
302
GRIDFORMAT
  1
GRIDFORMAT_BEGIN
 90
        0
 91
        1
 62
     0
 92
       -2
340
14
 93
        0
 40
0.045
309
GRIDFORMAT_END
309
TABLEFORMAT_END
  1
CELLSTYLE_BEGIN
 90
        2
 91
        1
300
_HEADER
309
CELLSTYLE_END
300
CELLSTYLE
  1
TABLEFORMAT_BEGIN
 90
        5
170
     1
 91
        0
 92
        0
 62
   257
 93
        1
300
CONTENTFORMAT
  1
CONTENTFORMAT_BEGIN
 90
        0
 91
        0
 92
        4
 93
        0
300

 40
0.0
140
1.0
 94
        2
 62
     0
340
11
144
4.5
309
CONTENTFORMAT_END
171
     1
301
MARGIN
  1
CELLMARGIN_BEGIN
 40
1.5
 40
1.5
 40
1.5
 40
1.5
 40
1.5
 40
1.5
309
CELLMARGIN_END
 94
        6
 95
        1
302
GRIDFORMAT
  1
GRIDFORMAT_BEGIN
 90
        0
 91
        1
 62
     0
 92
       -2
340
14
 93
        0
 40
0.045
309
GRIDFORMAT_END
 95
        2
302
GRIDFORMAT
  1
GRIDFORMAT_BEGIN
 90
        0
 91
        1
 62
     0
 92
       -2
340
14
 93
        0
 40
0.045
309
GRIDFORMAT_END
 95
        4
302
GRIDFORMAT
  1
GRIDFORMAT_BEGIN
 90
        0
 91
        1
 62
     0
 92
       -2
340
14
 93
        0
 40
0.045
309
GRIDFORMAT_END
 95
        8
302
GRIDFORMAT
  1
GRIDFORMAT_BEGIN
 90
        0
 91
        1
 62
     0
 92
       -2
340
14
 93
        0
 40
0.045
309
GRIDFORMAT_END
 95
       16
302
GRIDFORMAT
  1
GRIDFORMAT_BEGIN
 90
        0
 91
        1
 62
     0
 92
       -2
340
14
 93
        0
 40
0.045
309
GRIDFORMAT_END
 95
       32
302
GRIDFORMAT
  1
GRIDFORMAT_BEGIN
 90
        0
 91
        1
 62
     0
 92
       -2
340
14
 93
        0
 40
0.045
309
GRIDFORMAT_END
309
TABLEFORMAT_END
  1
CELLSTYLE_BEGIN
 90
        3
 91
        2
300
_DATA
309
CELLSTYLE_END
  0
XRECORD
  5
272
102
{ACAD_REACTORS
330
271
102
}
330
271
100
AcDbXrecord
280
     1
102
RTVSPost2010Prop28
280
     1
102
RTVSPost2010PropOp28
 70
     1
102
RTVSPost2010Prop29
280
     1
102
RTVSPost2010PropOp29
 70
     1
102
RTVSPost2010Prop30
280
     0
102
RTVSPost2010PropOp30
 70
     1
102
RTVSPost2010Prop31
280
     0
102
RTVSPost2010PropOp31
 70
     1
102
RTVSPost2010Prop32
280
     0
102
RTVSPost2010PropOp32
 70
     1
102
RTVSPost2010Prop33
280
     0
102
RTVSPost2010PropOp33
 70
     1
102
RTVSPost2010Prop34
280
     0
102
RTVSPost2010PropOp34
 70
     1
102
RTVSPost2010Prop35
280
     0
102
RTVSPost2010PropOp35
 70
     1
102
RTVSPost2010Prop36
280
     0
102
RTVSPost2010PropOp36
 70
     1
102
RTVSPost2010Prop37
 90
       50
102
RTVSPost2010PropOp37
 70
     1
102
RTVSPost2010Prop38
140
0.0
102
RTVSPost2010PropOp38
 70
     1
102
RTVSPost2010Prop39
140
1.0
102
RTVSPost2010PropOp39
 70
     1
102
RTVSPost2010Prop40
 90
        0
102
RTVSPost2010PropOp40
 70
     1
102
RTVSPost2010Prop41ColorIndex
 90
       18
102
RTVSPost2010Prop41ColorRGB
 90
        0
102
RTVSPost2010PropOp41
 70
     1
102
RTVSPost2010Prop42
 90
       50
102
RTVSPost2010PropOp42
 70
     1
102
RTVSPost2010Prop43
 90
        3
102
RTVSPost2010PropOp43
 70
     1
102
RTVSPost2010Prop44ColorIndex
 90
        5
102
RTVSPost2010Prop44ColorRGB
 90
      255
102
RTVSPost2010PropOp44
 70
     1
102
RTVSPost2010Prop45
280
     0
102
RTVSPost2010PropOp45
 70
     1
102
RTVSPost2010Prop46
 90
       50
102
RTVSPost2010PropOp46
 70
     1
102
RTVSPost2010Prop47
 90
       50
102
RTVSPost2010PropOp47
 70
     1
102
RTVSPost2010Prop48
 90
       50
102
RTVSPost2010PropOp48
 70
     1
102
RTVSPost2010Prop49
280
     0
102
RTVSPost2010PropOp49
 70
     1
102
RTVSPost2010Prop50
 90
       50
102
RTVSPost2010PropOp50
 70
     1
102
RTVSPost2010Prop51ColorIndex
 90
      256
102
RTVSPost2010Prop51ColorRGB
 90
-16777216
102
RTVSPost2010PropOp51
 70
     0
102
RTVSPost2010Prop52
140
1.0
102
RTVSPost2010PropOp52
 70
     0
102
RTVSPost2010Prop53
 90
        2
102
RTVSPost2010PropOp53
 70
     1
102
RTVSPost2010Prop54
  1
strokes_ogs.tif
102
RTVSPost2010PropOp54
 70
     1
102
RTVSPost2010Prop55
280
     0
102
RTVSPost2010PropOp55
 70
     1
102
RTVSPost2010Prop56
140
1.0
102
RTVSPost2010PropOp56
 70
     1
102
RTVSPost2010Prop57
140
1.0
102
RTVSPost2010PropOp57
 70
     1
  0
XRECORD
  5
278
102
{ACAD_REACTORS
330
277
102
}
330
277
100
AcDbXrecord
280
     1
102
RTVSPost2010Prop28
280
     0
102
RTVSPost2010PropOp28
 70
     1
102
RTVSPost2010Prop29
280
     1
102
RTVSPost2010PropOp29
 70
     1
102
RTVSPost2010Prop30
280
     1
102
RTVSPost2010PropOp30
 70
     1
102
RTVSPost2010Prop31
280
     0
102
RTVSPost2010PropOp31
 70
     1
102
RTVSPost2010Prop32
280
     0
102
RTVSPost2010PropOp32
 70
     1
102
RTVSPost2010Prop33
280
     0
102
RTVSPost2010PropOp33
 70
     1
102
RTVSPost2010Prop34
280
     0
102
RTVSPost2010PropOp34
 70
     1
102
RTVSPost2010Prop35
280
     0
102
RTVSPost2010PropOp35
 70
     1
102
RTVSPost2010Prop36
280
     0
102
RTVSPost2010PropOp36
 70
     1
102
RTVSPost2010Prop37
 90
       50
102
RTVSPost2010PropOp37
 70
     1
102
RTVSPost2010Prop38
140
0.0
102
RTVSPost2010PropOp38
 70
     1
102
RTVSPost2010Prop39
140
1.0
102
RTVSPost2010PropOp39
 70
     1
102
RTVSPost2010Prop40
 90
        0
102
RTVSPost2010PropOp40
 70
     1
102
RTVSPost2010Prop41ColorIndex
 90
       18
102
RTVSPost2010Prop41ColorRGB
 90
        0
102
RTVSPost2010PropOp41
 70
     1
102
RTVSPost2010Prop42
 90
       50
102
RTVSPost2010PropOp42
 70
     1
102
RTVSPost2010Prop43
 90
        3
102
RTVSPost2010PropOp43
 70
     1
102
RTVSPost2010Prop44ColorIndex
 90
        5
102
RTVSPost2010Prop44ColorRGB
 90
      255
102
RTVSPost2010PropOp44
 70
     1
102
RTVSPost2010Prop45
280
     0
102
RTVSPost2010PropOp45
 70
     1
102
RTVSPost2010Prop46
 90
       50
102
RTVSPost2010PropOp46
 70
     1
102
RTVSPost2010Prop47
 90
       50
102
RTVSPost2010PropOp47
 70
     1
102
RTVSPost2010Prop48
 90
       50
102
RTVSPost2010PropOp48
 70
     1
102
RTVSPost2010Prop49
280
     0
102
RTVSPost2010PropOp49
 70
     1
102
RTVSPost2010Prop50
 90
       50
102
RTVSPost2010PropOp50
 70
     1
102
RTVSPost2010Prop51ColorIndex
 90
      256
102
RTVSPost2010Prop51ColorRGB
 90
-16777216
102
RTVSPost2010PropOp51
 70
     0
102
RTVSPost2010Prop52
140
1.0
102
RTVSPost2010PropOp52
 70
     0
102
RTVSPost2010Prop53
 90
        2
102
RTVSPost2010PropOp53
 70
     1
102
RTVSPost2010Prop54
  1
strokes_ogs.tif
102
RTVSPost2010PropOp54
 70
     1
102
RTVSPost2010Prop55
280
     0
102
RTVSPost2010PropOp55
 70
     1
102
RTVSPost2010Prop56
140
1.0
102
RTVSPost2010PropOp56
 70
     1
102
RTVSPost2010Prop57
140
1.0
102
RTVSPost2010PropOp57
 70
     1
  0
XRECORD
  5
280
102
{ACAD_REACTORS
330
27F
102
}
330
27F
100
AcDbXrecord
280
     1
102
RTVSPost2010Prop28
280
     0
102
RTVSPost2010PropOp28
 70
     1
102
RTVSPost2010Prop29
280
     1
102
RTVSPost2010PropOp29
 70
     1
102
RTVSPost2010Prop30
280
     1
102
RTVSPost2010PropOp30
 70
     1
102
RTVSPost2010Prop31
280
     0
102
RTVSPost2010PropOp31
 70
     1
102
RTVSPost2010Prop32
280
     0
102
RTVSPost2010PropOp32
 70
     1
102
RTVSPost2010Prop33
280
     0
102
RTVSPost2010PropOp33
 70
     1
102
RTVSPost2010Prop34
280
     0
102
RTVSPost2010PropOp34
 70
     1
102
RTVSPost2010Prop35
280
     0
102
RTVSPost2010PropOp35
 70
     1
102
RTVSPost2010Prop36
280
     0
102
RTVSPost2010PropOp36
 70
     1
102
RTVSPost2010Prop37
 90
       50
102
RTVSPost2010PropOp37
 70
     1
102
RTVSPost2010Prop38
140
0.0
102
RTVSPost2010PropOp38
 70
     1
102
RTVSPost2010Prop39
140
1.0
102
RTVSPost2010PropOp39
 70
     1
102
RTVSPost2010Prop40
 90
        0
102
RTVSPost2010PropOp40
 70
     1
102
RTVSPost2010Prop41ColorIndex
 90
       18
102
RTVSPost2010Prop41ColorRGB
 90
        0
102
RTVSPost2010PropOp41
 70
     1
102
RTVSPost2010Prop42
 90
       50
102
RTVSPost2010PropOp42
 70
     1
102
RTVSPost2010Prop43
 90
        3
102
RTVSPost2010PropOp43
 70
     1
102
RTVSPost2010Prop44ColorIndex
 90
        5
102
RTVSPost2010Prop44ColorRGB
 90
      255
102
RTVSPost2010PropOp44
 70
     1
102
RTVSPost2010Prop45
280
     0
102
RTVSPost2010PropOp45
 70
     1
102
RTVSPost2010Prop46
 90
       50
102
RTVSPost2010PropOp46
 70
     1
102
RTVSPost2010Prop47
 90
       50
102
RTVSPost2010PropOp47
 70
     1
102
RTVSPost2010Prop48
 90
       50
102
RTVSPost2010PropOp48
 70
     1
102
RTVSPost2010Prop49
280
     0
102
RTVSPost2010PropOp49
 70
     1
102
RTVSPost2010Prop50
 90
       50
102
RTVSPost2010PropOp50
 70
     1
102
RTVSPost2010Prop51ColorIndex
 90
      256
102
RTVSPost2010Prop51ColorRGB
 90
-16777216
102
RTVSPost2010PropOp51
 70
     0
102
RTVSPost2010Prop52
140
1.0
102
RTVSPost2010PropOp52
 70
     0
102
RTVSPost2010Prop53
 90
        2
102
RTVSPost2010PropOp53
 70
     1
102
RTVSPost2010Prop54
  1
strokes_ogs.tif
102
RTVSPost2010PropOp54
 70
     1
102
RTVSPost2010Prop55
280
     0
102
RTVSPost2010PropOp55
 70
     1
102
RTVSPost2010Prop56
140
1.0
102
RTVSPost2010PropOp56
 70
     1
102
RTVSPost2010Prop57
140
1.0
102
RTVSPost2010PropOp57
 70
     1
  0
XRECORD
  5
288
102
{ACAD_REACTORS
330
287
102
}
330
287
100
AcDbXrecord
280
     1
102
RTVSPost2010Prop28
280
     0
102
RTVSPost2010PropOp28
 70
     1
102
RTVSPost2010Prop29
280
     1
102
RTVSPost2010PropOp29
 70
     1
102
RTVSPost2010Prop30
280
     1
102
RTVSPost2010PropOp30
 70
     1
102
RTVSPost2010Prop31
280
     0
102
RTVSPost2010PropOp31
 70
     1
102
RTVSPost2010Prop32
280
     0
102
RTVSPost2010PropOp32
 70
     1
102
RTVSPost2010Prop33
280
     0
102
RTVSPost2010PropOp33
 70
     1
102
RTVSPost2010Prop34
280
     0
102
RTVSPost2010PropOp34
 70
     1
102
RTVSPost2010Prop35
280
     0
102
RTVSPost2010PropOp35
 70
     1
102
RTVSPost2010Prop36
280
     0
102
RTVSPost2010PropOp36
 70
     1
102
RTVSPost2010Prop37
 90
       50
102
RTVSPost2010PropOp37
 70
     1
102
RTVSPost2010Prop38
140
0.0
102
RTVSPost2010PropOp38
 70
     1
102
RTVSPost2010Prop39
140
1.0
102
RTVSPost2010PropOp39
 70
     1
102
RTVSPost2010Prop40
 90
        0
102
RTVSPost2010PropOp40
 70
     1
102
RTVSPost2010Prop41ColorIndex
 90
       18
102
RTVSPost2010Prop41ColorRGB
 90
        0
102
RTVSPost2010PropOp41
 70
     1
102
RTVSPost2010Prop42
 90
       50
102
RTVSPost2010PropOp42
 70
     1
102
RTVSPost2010Prop43
 90
        3
102
RTVSPost2010PropOp43
 70
     1
102
RTVSPost2010Prop44ColorIndex
 90
        5
102
RTVSPost2010Prop44ColorRGB
 90
      255
102
RTVSPost2010PropOp44
 70
     1
102
RTVSPost2010Prop45
280
     0
102
RTVSPost2010PropOp45
 70
     1
102
RTVSPost2010Prop46
 90
       50
102
RTVSPost2010PropOp46
 70
     1
102
RTVSPost2010Prop47
 90
       50
102
RTVSPost2010PropOp47
 70
     1
102
RTVSPost2010Prop48
 90
       50
102
RTVSPost2010PropOp48
 70
     1
102
RTVSPost2010Prop49
280
     0
102
RTVSPost2010PropOp49
 70
     1
102
RTVSPost2010Prop50
 90
       50
102
RTVSPost2010PropOp50
 70
     1
102
RTVSPost2010Prop51ColorIndex
 90
      256
102
RTVSPost2010Prop51ColorRGB
 90
-16777216
102
RTVSPost2010PropOp51
 70
     0
102
RTVSPost2010Prop52
140
1.0
102
RTVSPost2010PropOp52
 70
     0
102
RTVSPost2010Prop53
 90
        2
102
RTVSPost2010PropOp53
 70
     1
102
RTVSPost2010Prop54
  1
strokes_ogs.tif
102
RTVSPost2010PropOp54
 70
     1
102
RTVSPost2010Prop55
280
     0
102
RTVSPost2010PropOp55
 70
     1
102
RTVSPost2010Prop56
140
1.0
102
RTVSPost2010PropOp56
 70
     1
102
RTVSPost2010Prop57
140
1.0
102
RTVSPost2010PropOp57
 70
     1
  0
XRECORD
  5
27C
102
{ACAD_REACTORS
330
27B
102
}
330
27B
100
AcDbXrecord
280
     1
102
RTVSPost2010Prop28
280
     0
102
RTVSPost2010PropOp28
 70
     1
102
RTVSPost2010Prop29
280
     1
102
RTVSPost2010PropOp29
 70
     1
102
RTVSPost2010Prop30
280
     1
102
RTVSPost2010PropOp30
 70
     1
102
RTVSPost2010Prop31
280
     0
102
RTVSPost2010PropOp31
 70
     1
102
RTVSPost2010Prop32
280
     0
102
RTVSPost2010PropOp32
 70
     1
102
RTVSPost2010Prop33
280
     0
102
RTVSPost2010PropOp33
 70
     1
102
RTVSPost2010Prop34
280
     0
102
RTVSPost2010PropOp34
 70
     1
102
RTVSPost2010Prop35
280
     0
102
RTVSPost2010PropOp35
 70
     1
102
RTVSPost2010Prop36
280
     0
102
RTVSPost2010PropOp36
 70
     1
102
RTVSPost2010Prop37
 90
       50
102
RTVSPost2010PropOp37
 70
     1
102
RTVSPost2010Prop38
140
0.0
102
RTVSPost2010PropOp38
 70
     1
102
RTVSPost2010Prop39
140
1.0
102
RTVSPost2010PropOp39
 70
     1
102
RTVSPost2010Prop40
 90
        0
102
RTVSPost2010PropOp40
 70
     1
102
RTVSPost2010Prop41ColorIndex
 90
       18
102
RTVSPost2010Prop41ColorRGB
 90
        0
102
RTVSPost2010PropOp41
 70
     1
102
RTVSPost2010Prop42
 90
       50
102
RTVSPost2010PropOp42
 70
     1
102
RTVSPost2010Prop43
 90
        3
102
RTVSPost2010PropOp43
 70
     1
102
RTVSPost2010Prop44ColorIndex
 90
        5
102
RTVSPost2010Prop44ColorRGB
 90
      255
102
RTVSPost2010PropOp44
 70
     1
102
RTVSPost2010Prop45
280
     0
102
RTVSPost2010PropOp45
 70
     1
102
RTVSPost2010Prop46
 90
       50
102
RTVSPost2010PropOp46
 70
     1
102
RTVSPost2010Prop47
 90
       50
102
RTVSPost2010PropOp47
 70
     1
102
RTVSPost2010Prop48
 90
       50
102
RTVSPost2010PropOp48
 70
     1
102
RTVSPost2010Prop49
280
     0
102
RTVSPost2010PropOp49
 70
     1
102
RTVSPost2010Prop50
 90
       50
102
RTVSPost2010PropOp50
 70
     1
102
RTVSPost2010Prop51ColorIndex
 90
      256
102
RTVSPost2010Prop51ColorRGB
 90
-16777216
102
RTVSPost2010PropOp51
 70
     0
102
RTVSPost2010Prop52
140
1.0
102
RTVSPost2010PropOp52
 70
     0
102
RTVSPost2010Prop53
 90
        2
102
RTVSPost2010PropOp53
 70
     1
102
RTVSPost2010Prop54
  1
strokes_ogs.tif
102
RTVSPost2010PropOp54
 70
     1
102
RTVSPost2010Prop55
280
     0
102
RTVSPost2010PropOp55
 70
     1
102
RTVSPost2010Prop56
140
1.0
102
RTVSPost2010PropOp56
 70
     1
102
RTVSPost2010Prop57
140
1.0
102
RTVSPost2010PropOp57
 70
     1
  0
XRECORD
  5
27E
102
{ACAD_REACTORS
330
27D
102
}
330
27D
100
AcDbXrecord
280
     1
102
RTVSPost2010Prop28
280
     0
102
RTVSPost2010PropOp28
 70
     1
102
RTVSPost2010Prop29
280
     1
102
RTVSPost2010PropOp29
 70
     1
102
RTVSPost2010Prop30
280
     1
102
RTVSPost2010PropOp30
 70
     1
102
RTVSPost2010Prop31
280
     0
102
RTVSPost2010PropOp31
 70
     1
102
RTVSPost2010Prop32
280
     0
102
RTVSPost2010PropOp32
 70
     1
102
RTVSPost2010Prop33
280
     0
102
RTVSPost2010PropOp33
 70
     1
102
RTVSPost2010Prop34
280
     0
102
RTVSPost2010PropOp34
 70
     1
102
RTVSPost2010Prop35
280
     0
102
RTVSPost2010PropOp35
 70
     1
102
RTVSPost2010Prop36
280
     0
102
RTVSPost2010PropOp36
 70
     1
102
RTVSPost2010Prop37
 90
       50
102
RTVSPost2010PropOp37
 70
     1
102
RTVSPost2010Prop38
140
0.0
102
RTVSPost2010PropOp38
 70
     1
102
RTVSPost2010Prop39
140
1.0
102
RTVSPost2010PropOp39
 70
     1
102
RTVSPost2010Prop40
 90
        0
102
RTVSPost2010PropOp40
 70
     1
102
RTVSPost2010Prop41ColorIndex
 90
       18
102
RTVSPost2010Prop41ColorRGB
 90
        0
102
RTVSPost2010PropOp41
 70
     1
102
RTVSPost2010Prop42
 90
       50
102
RTVSPost2010PropOp42
 70
     1
102
RTVSPost2010Prop43
 90
        3
102
RTVSPost2010PropOp43
 70
     1
102
RTVSPost2010Prop44ColorIndex
 90
        5
102
RTVSPost2010Prop44ColorRGB
 90
      255
102
RTVSPost2010PropOp44
 70
     1
102
RTVSPost2010Prop45
280
     0
102
RTVSPost2010PropOp45
 70
     1
102
RTVSPost2010Prop46
 90
       50
102
RTVSPost2010PropOp46
 70
     1
102
RTVSPost2010Prop47
 90
       50
102
RTVSPost2010PropOp47
 70
     1
102
RTVSPost2010Prop48
 90
       50
102
RTVSPost2010PropOp48
 70
     1
102
RTVSPost2010Prop49
280
     0
102
RTVSPost2010PropOp49
 70
     1
102
RTVSPost2010Prop50
 90
       50
102
RTVSPost2010PropOp50
 70
     1
102
RTVSPost2010Prop51ColorIndex
 90
      256
102
RTVSPost2010Prop51ColorRGB
 90
-16777216
102
RTVSPost2010PropOp51
 70
     0
102
RTVSPost2010Prop52
140
1.0
102
RTVSPost2010PropOp52
 70
     0
102
RTVSPost2010Prop53
 90
        2
102
RTVSPost2010PropOp53
 70
     1
102
RTVSPost2010Prop54
  1
strokes_ogs.tif
102
RTVSPost2010PropOp54
 70
     1
102
RTVSPost2010Prop55
280
     0
102
RTVSPost2010PropOp55
 70
     1
102
RTVSPost2010Prop56
140
1.0
102
RTVSPost2010PropOp56
 70
     1
102
RTVSPost2010Prop57
140
1.0
102
RTVSPost2010PropOp57
 70
     1
  0
XRECORD
  5
28E
102
{ACAD_REACTORS
330
28D
102
}
330
28D
100
AcDbXrecord
280
     1
102
RTVSPost2010Prop28
280
     0
102
RTVSPost2010PropOp28
 70
     0
102
RTVSPost2010Prop29
280
     1
102
RTVSPost2010PropOp29
 70
     0
102
RTVSPost2010Prop30
280
     1
102
RTVSPost2010PropOp30
 70
     0
102
RTVSPost2010Prop31
280
     0
102
RTVSPost2010PropOp31
 70
     0
102
RTVSPost2010Prop32
280
     0
102
RTVSPost2010PropOp32
 70
     0
102
RTVSPost2010Prop33
280
     0
102
RTVSPost2010PropOp33
 70
     0
102
RTVSPost2010Prop34
280
     0
102
RTVSPost2010PropOp34
 70
     0
102
RTVSPost2010Prop35
280
     0
102
RTVSPost2010PropOp35
 70
     0
102
RTVSPost2010Prop36
280
     0
102
RTVSPost2010PropOp36
 70
     0
102
RTVSPost2010Prop37
 90
       50
102
RTVSPost2010PropOp37
 70
     0
102
RTVSPost2010Prop38
140
0.0
102
RTVSPost2010PropOp38
 70
     0
102
RTVSPost2010Prop39
140
1.0
102
RTVSPost2010PropOp39
 70
     0
102
RTVSPost2010Prop40
 90
        0
102
RTVSPost2010PropOp40
 70
     0
102
RTVSPost2010Prop41ColorIndex
 90
       18
102
RTVSPost2010Prop41ColorRGB
 90
        0
102
RTVSPost2010PropOp41
 70
     0
102
RTVSPost2010Prop42
 90
       50
102
RTVSPost2010PropOp42
 70
     0
102
RTVSPost2010Prop43
 90
        3
102
RTVSPost2010PropOp43
 70
     0
102
RTVSPost2010Prop44ColorIndex
 90
        5
102
RTVSPost2010Prop44ColorRGB
 90
      255
102
RTVSPost2010PropOp44
 70
     0
102
RTVSPost2010Prop45
280
     0
102
RTVSPost2010PropOp45
 70
     0
102
RTVSPost2010Prop46
 90
       50
102
RTVSPost2010PropOp46
 70
     0
102
RTVSPost2010Prop47
 90
       50
102
RTVSPost2010PropOp47
 70
     0
102
RTVSPost2010Prop48
 90
       50
102
RTVSPost2010PropOp48
 70
     0
102
RTVSPost2010Prop49
280
     0
102
RTVSPost2010PropOp49
 70
     0
102
RTVSPost2010Prop50
 90
       50
102
RTVSPost2010PropOp50
 70
     0
102
RTVSPost2010Prop51ColorIndex
 90
      256
102
RTVSPost2010Prop51ColorRGB
 90
-16777216
102
RTVSPost2010PropOp51
 70
     0
102
RTVSPost2010Prop52
140
1.0
102
RTVSPost2010PropOp52
 70
     0
102
RTVSPost2010Prop53
 90
        2
102
RTVSPost2010PropOp53
 70
     0
102
RTVSPost2010Prop54
  1
strokes_ogs.tif
102
RTVSPost2010PropOp54
 70
     0
102
RTVSPost2010Prop55
280
     0
102
RTVSPost2010PropOp55
 70
     0
102
RTVSPost2010Prop56
140
1.0
102
RTVSPost2010PropOp56
 70
     0
102
RTVSPost2010Prop57
140
1.0
102
RTVSPost2010PropOp57
 70
     0
  0
XRECORD
  5
286
102
{ACAD_REACTORS
330
285
102
}
330
285
100
AcDbXrecord
280
     1
102
RTVSPost2010Prop28
280
     0
102
RTVSPost2010PropOp28
 70
     1
102
RTVSPost2010Prop29
280
     1
102
RTVSPost2010PropOp29
 70
     1
102
RTVSPost2010Prop30
280
     1
102
RTVSPost2010PropOp30
 70
     1
102
RTVSPost2010Prop31
280
     0
102
RTVSPost2010PropOp31
 70
     1
102
RTVSPost2010Prop32
280
     0
102
RTVSPost2010PropOp32
 70
     1
102
RTVSPost2010Prop33
280
     0
102
RTVSPost2010PropOp33
 70
     1
102
RTVSPost2010Prop34
280
     0
102
RTVSPost2010PropOp34
 70
     1
102
RTVSPost2010Prop35
280
     0
102
RTVSPost2010PropOp35
 70
     1
102
RTVSPost2010Prop36
280
     0
102
RTVSPost2010PropOp36
 70
     1
102
RTVSPost2010Prop37
 90
       50
102
RTVSPost2010PropOp37
 70
     1
102
RTVSPost2010Prop38
140
0.0
102
RTVSPost2010PropOp38
 70
     1
102
RTVSPost2010Prop39
140
1.0
102
RTVSPost2010PropOp39
 70
     1
102
RTVSPost2010Prop40
 90
        0
102
RTVSPost2010PropOp40
 70
     1
102
RTVSPost2010Prop41ColorIndex
 90
       18
102
RTVSPost2010Prop41ColorRGB
 90
        0
102
RTVSPost2010PropOp41
 70
     1
102
RTVSPost2010Prop42
 90
       50
102
RTVSPost2010PropOp42
 70
     1
102
RTVSPost2010Prop43
 90
        3
102
RTVSPost2010PropOp43
 70
     1
102
RTVSPost2010Prop44ColorIndex
 90
        5
102
RTVSPost2010Prop44ColorRGB
 90
      255
102
RTVSPost2010PropOp44
 70
     1
102
RTVSPost2010Prop45
280
     0
102
RTVSPost2010PropOp45
 70
     1
102
RTVSPost2010Prop46
 90
       50
102
RTVSPost2010PropOp46
 70
     1
102
RTVSPost2010Prop47
 90
       50
102
RTVSPost2010PropOp47
 70
     1
102
RTVSPost2010Prop48
 90
       50
102
RTVSPost2010PropOp48
 70
     1
102
RTVSPost2010Prop49
280
     0
102
RTVSPost2010PropOp49
 70
     1
102
RTVSPost2010Prop50
 90
       50
102
RTVSPost2010PropOp50
 70
     1
102
RTVSPost2010Prop51ColorIndex
 90
      256
102
RTVSPost2010Prop51ColorRGB
 90
-16777216
102
RTVSPost2010PropOp51
 70
     0
102
RTVSPost2010Prop52
140
1.0
102
RTVSPost2010PropOp52
 70
     0
102
RTVSPost2010Prop53
 90
        2
102
RTVSPost2010PropOp53
 70
     1
102
RTVSPost2010Prop54
  1
strokes_ogs.tif
102
RTVSPost2010PropOp54
 70
     1
102
RTVSPost2010Prop55
280
     0
102
RTVSPost2010PropOp55
 70
     1
102
RTVSPost2010Prop56
140
1.0
102
RTVSPost2010PropOp56
 70
     1
102
RTVSPost2010Prop57
140
1.0
102
RTVSPost2010PropOp57
 70
     1
  0
XRECORD
  5
26A
102
{ACAD_REACTORS
330
269
102
}
330
269
100
AcDbXrecord
280
     1
102
RTVSPost2010Prop28
280
     0
102
RTVSPost2010PropOp28
 70
     1
102
RTVSPost2010Prop29
280
     1
102
RTVSPost2010PropOp29
 70
     1
102
RTVSPost2010Prop30
280
     1
102
RTVSPost2010PropOp30
 70
     1
102
RTVSPost2010Prop31
280
     0
102
RTVSPost2010PropOp31
 70
     1
102
RTVSPost2010Prop32
280
     0
102
RTVSPost2010PropOp32
 70
     1
102
RTVSPost2010Prop33
280
     0
102
RTVSPost2010PropOp33
 70
     1
102
RTVSPost2010Prop34
280
     0
102
RTVSPost2010PropOp34
 70
     1
102
RTVSPost2010Prop35
280
     0
102
RTVSPost2010PropOp35
 70
     1
102
RTVSPost2010Prop36
280
     0
102
RTVSPost2010PropOp36
 70
     1
102
RTVSPost2010Prop37
 90
       50
102
RTVSPost2010PropOp37
 70
     1
102
RTVSPost2010Prop38
140
0.0
102
RTVSPost2010PropOp38
 70
     1
102
RTVSPost2010Prop39
140
1.0
102
RTVSPost2010PropOp39
 70
     1
102
RTVSPost2010Prop40
 90
        0
102
RTVSPost2010PropOp40
 70
     1
102
RTVSPost2010Prop41ColorIndex
 90
       18
102
RTVSPost2010Prop41ColorRGB
 90
        0
102
RTVSPost2010PropOp41
 70
     1
102
RTVSPost2010Prop42
 90
       50
102
RTVSPost2010PropOp42
 70
     1
102
RTVSPost2010Prop43
 90
        3
102
RTVSPost2010PropOp43
 70
     1
102
RTVSPost2010Prop44ColorIndex
 90
        5
102
RTVSPost2010Prop44ColorRGB
 90
      255
102
RTVSPost2010PropOp44
 70
     1
102
RTVSPost2010Prop45
280
     0
102
RTVSPost2010PropOp45
 70
     1
102
RTVSPost2010Prop46
 90
       50
102
RTVSPost2010PropOp46
 70
     1
102
RTVSPost2010Prop47
 90
       50
102
RTVSPost2010PropOp47
 70
     1
102
RTVSPost2010Prop48
 90
       50
102
RTVSPost2010PropOp48
 70
     1
102
RTVSPost2010Prop49
280
     0
102
RTVSPost2010PropOp49
 70
     1
102
RTVSPost2010Prop50
 90
       50
102
RTVSPost2010PropOp50
 70
     1
102
RTVSPost2010Prop51ColorIndex
 90
      256
102
RTVSPost2010Prop51ColorRGB
 90
-16777216
102
RTVSPost2010PropOp51
 70
     0
102
RTVSPost2010Prop52
140
1.0
102
RTVSPost2010PropOp52
 70
     0
102
RTVSPost2010Prop53
 90
        2
102
RTVSPost2010PropOp53
 70
     1
102
RTVSPost2010Prop54
  1
strokes_ogs.tif
102
RTVSPost2010PropOp54
 70
     1
102
RTVSPost2010Prop55
280
     0
102
RTVSPost2010PropOp55
 70
     1
102
RTVSPost2010Prop56
140
1.0
102
RTVSPost2010PropOp56
 70
     1
102
RTVSPost2010Prop57
140
1.0
102
RTVSPost2010PropOp57
 70
     1
  0
XRECORD
  5
26C
102
{ACAD_REACTORS
330
26B
102
}
330
26B
100
AcDbXrecord
280
     1
102
RTVSPost2010Prop28
280
     0
102
RTVSPost2010PropOp28
 70
     1
102
RTVSPost2010Prop29
280
     1
102
RTVSPost2010PropOp29
 70
     1
102
RTVSPost2010Prop30
280
     1
102
RTVSPost2010PropOp30
 70
     1
102
RTVSPost2010Prop31
280
     0
102
RTVSPost2010PropOp31
 70
     1
102
RTVSPost2010Prop32
280
     0
102
RTVSPost2010PropOp32
 70
     1
102
RTVSPost2010Prop33
280
     0
102
RTVSPost2010PropOp33
 70
     1
102
RTVSPost2010Prop34
280
     0
102
RTVSPost2010PropOp34
 70
     1
102
RTVSPost2010Prop35
280
     0
102
RTVSPost2010PropOp35
 70
     1
102
RTVSPost2010Prop36
280
     0
102
RTVSPost2010PropOp36
 70
     1
102
RTVSPost2010Prop37
 90
       50
102
RTVSPost2010PropOp37
 70
     1
102
RTVSPost2010Prop38
140
0.0
102
RTVSPost2010PropOp38
 70
     1
102
RTVSPost2010Prop39
140
1.0
102
RTVSPost2010PropOp39
 70
     1
102
RTVSPost2010Prop40
 90
        0
102
RTVSPost2010PropOp40
 70
     1
102
RTVSPost2010Prop41ColorIndex
 90
       18
102
RTVSPost2010Prop41ColorRGB
 90
        0
102
RTVSPost2010PropOp41
 70
     1
102
RTVSPost2010Prop42
 90
       50
102
RTVSPost2010PropOp42
 70
     1
102
RTVSPost2010Prop43
 90
        3
102
RTVSPost2010PropOp43
 70
     1
102
RTVSPost2010Prop44ColorIndex
 90
        5
102
RTVSPost2010Prop44ColorRGB
 90
      255
102
RTVSPost2010PropOp44
 70
     1
102
RTVSPost2010Prop45
280
     0
102
RTVSPost2010PropOp45
 70
     1
102
RTVSPost2010Prop46
 90
       50
102
RTVSPost2010PropOp46
 70
     1
102
RTVSPost2010Prop47
 90
       50
102
RTVSPost2010PropOp47
 70
     1
102
RTVSPost2010Prop48
 90
       50
102
RTVSPost2010PropOp48
 70
     1
102
RTVSPost2010Prop49
280
     0
102
RTVSPost2010PropOp49
 70
     1
102
RTVSPost2010Prop50
 90
       50
102
RTVSPost2010PropOp50
 70
     1
102
RTVSPost2010Prop51ColorIndex
 90
      256
102
RTVSPost2010Prop51ColorRGB
 90
-16777216
102
RTVSPost2010PropOp51
 70
     0
102
RTVSPost2010Prop52
140
1.0
102
RTVSPost2010PropOp52
 70
     0
102
RTVSPost2010Prop53
 90
        2
102
RTVSPost2010PropOp53
 70
     1
102
RTVSPost2010Prop54
  1
strokes_ogs.tif
102
RTVSPost2010PropOp54
 70
     1
102
RTVSPost2010Prop55
280
     0
102
RTVSPost2010PropOp55
 70
     1
102
RTVSPost2010Prop56
140
1.0
102
RTVSPost2010PropOp56
 70
     1
102
RTVSPost2010Prop57
140
1.0
102
RTVSPost2010PropOp57
 70
     1
  0
XRECORD
  5
26E
102
{ACAD_REACTORS
330
26D
102
}
330
26D
100
AcDbXrecord
280
     1
102
RTVSPost2010Prop28
280
     0
102
RTVSPost2010PropOp28
 70
     1
102
RTVSPost2010Prop29
280
     1
102
RTVSPost2010PropOp29
 70
     1
102
RTVSPost2010Prop30
280
     1
102
RTVSPost2010PropOp30
 70
     1
102
RTVSPost2010Prop31
280
     0
102
RTVSPost2010PropOp31
 70
     1
102
RTVSPost2010Prop32
280
     0
102
RTVSPost2010PropOp32
 70
     1
102
RTVSPost2010Prop33
280
     0
102
RTVSPost2010PropOp33
 70
     1
102
RTVSPost2010Prop34
280
     0
102
RTVSPost2010PropOp34
 70
     1
102
RTVSPost2010Prop35
280
     0
102
RTVSPost2010PropOp35
 70
     1
102
RTVSPost2010Prop36
280
     0
102
RTVSPost2010PropOp36
 70
     1
102
RTVSPost2010Prop37
 90
       50
102
RTVSPost2010PropOp37
 70
     1
102
RTVSPost2010Prop38
140
0.0
102
RTVSPost2010PropOp38
 70
     1
102
RTVSPost2010Prop39
140
1.0
102
RTVSPost2010PropOp39
 70
     1
102
RTVSPost2010Prop40
 90
        0
102
RTVSPost2010PropOp40
 70
     1
102
RTVSPost2010Prop41ColorIndex
 90
       18
102
RTVSPost2010Prop41ColorRGB
 90
        0
102
RTVSPost2010PropOp41
 70
     1
102
RTVSPost2010Prop42
 90
       50
102
RTVSPost2010PropOp42
 70
     1
102
RTVSPost2010Prop43
 90
        3
102
RTVSPost2010PropOp43
 70
     1
102
RTVSPost2010Prop44ColorIndex
 90
        5
102
RTVSPost2010Prop44ColorRGB
 90
      255
102
RTVSPost2010PropOp44
 70
     1
102
RTVSPost2010Prop45
280
     0
102
RTVSPost2010PropOp45
 70
     1
102
RTVSPost2010Prop46
 90
       50
102
RTVSPost2010PropOp46
 70
     1
102
RTVSPost2010Prop47
 90
       50
102
RTVSPost2010PropOp47
 70
     1
102
RTVSPost2010Prop48
 90
       50
102
RTVSPost2010PropOp48
 70
     1
102
RTVSPost2010Prop49
280
     0
102
RTVSPost2010PropOp49
 70
     1
102
RTVSPost2010Prop50
 90
       50
102
RTVSPost2010PropOp50
 70
     1
102
RTVSPost2010Prop51ColorIndex
 90
      256
102
RTVSPost2010Prop51ColorRGB
 90
-16777216
102
RTVSPost2010PropOp51
 70
     0
102
RTVSPost2010Prop52
140
1.0
102
RTVSPost2010PropOp52
 70
     0
102
RTVSPost2010Prop53
 90
        2
102
RTVSPost2010PropOp53
 70
     1
102
RTVSPost2010Prop54
  1
strokes_ogs.tif
102
RTVSPost2010PropOp54
 70
     1
102
RTVSPost2010Prop55
280
     0
102
RTVSPost2010PropOp55
 70
     1
102
RTVSPost2010Prop56
140
1.0
102
RTVSPost2010PropOp56
 70
     1
102
RTVSPost2010Prop57
140
1.0
102
RTVSPost2010PropOp57
 70
     1
  0
XRECORD
  5
270
102
{ACAD_REACTORS
330
26F
102
}
330
26F
100
AcDbXrecord
280
     1
102
RTVSPost2010Prop28
280
     0
102
RTVSPost2010PropOp28
 70
     1
102
RTVSPost2010Prop29
280
     1
102
RTVSPost2010PropOp29
 70
     1
102
RTVSPost2010Prop30
280
     1
102
RTVSPost2010PropOp30
 70
     1
102
RTVSPost2010Prop31
280
     0
102
RTVSPost2010PropOp31
 70
     1
102
RTVSPost2010Prop32
280
     0
102
RTVSPost2010PropOp32
 70
     1
102
RTVSPost2010Prop33
280
     0
102
RTVSPost2010PropOp33
 70
     1
102
RTVSPost2010Prop34
280
     0
102
RTVSPost2010PropOp34
 70
     1
102
RTVSPost2010Prop35
280
     0
102
RTVSPost2010PropOp35
 70
     1
102
RTVSPost2010Prop36
280
     0
102
RTVSPost2010PropOp36
 70
     1
102
RTVSPost2010Prop37
 90
       50
102
RTVSPost2010PropOp37
 70
     1
102
RTVSPost2010Prop38
140
0.0
102
RTVSPost2010PropOp38
 70
     1
102
RTVSPost2010Prop39
140
1.0
102
RTVSPost2010PropOp39
 70
     1
102
RTVSPost2010Prop40
 90
        0
102
RTVSPost2010PropOp40
 70
     1
102
RTVSPost2010Prop41ColorIndex
 90
       18
102
RTVSPost2010Prop41ColorRGB
 90
        0
102
RTVSPost2010PropOp41
 70
     1
102
RTVSPost2010Prop42
 90
       50
102
RTVSPost2010PropOp42
 70
     1
102
RTVSPost2010Prop43
 90
        3
102
RTVSPost2010PropOp43
 70
     1
102
RTVSPost2010Prop44ColorIndex
 90
        5
102
RTVSPost2010Prop44ColorRGB
 90
      255
102
RTVSPost2010PropOp44
 70
     1
102
RTVSPost2010Prop45
280
     0
102
RTVSPost2010PropOp45
 70
     1
102
RTVSPost2010Prop46
 90
       50
102
RTVSPost2010PropOp46
 70
     1
102
RTVSPost2010Prop47
 90
       50
102
RTVSPost2010PropOp47
 70
     1
102
RTVSPost2010Prop48
 90
       50
102
RTVSPost2010PropOp48
 70
     1
102
RTVSPost2010Prop49
280
     0
102
RTVSPost2010PropOp49
 70
     1
102
RTVSPost2010Prop50
 90
       50
102
RTVSPost2010PropOp50
 70
     1
102
RTVSPost2010Prop51ColorIndex
 90
      256
102
RTVSPost2010Prop51ColorRGB
 90
-16777216
102
RTVSPost2010PropOp51
 70
     0
102
RTVSPost2010Prop52
140
1.0
102
RTVSPost2010PropOp52
 70
     0
102
RTVSPost2010Prop53
 90
        2
102
RTVSPost2010PropOp53
 70
     1
102
RTVSPost2010Prop54
  1
strokes_ogs.tif
102
RTVSPost2010PropOp54
 70
     1
102
RTVSPost2010Prop55
280
     0
102
RTVSPost2010PropOp55
 70
     1
102
RTVSPost2010Prop56
140
1.0
102
RTVSPost2010PropOp56
 70
     1
102
RTVSPost2010Prop57
140
1.0
102
RTVSPost2010PropOp57
 70
     1
  0
XRECORD
  5
276
102
{ACAD_REACTORS
330
275
102
}
330
275
100
AcDbXrecord
280
     1
102
RTVSPost2010Prop28
280
     0
102
RTVSPost2010PropOp28
 70
     1
102
RTVSPost2010Prop29
280
     1
102
RTVSPost2010PropOp29
 70
     1
102
RTVSPost2010Prop30
280
     1
102
RTVSPost2010PropOp30
 70
     1
102
RTVSPost2010Prop31
280
     0
102
RTVSPost2010PropOp31
 70
     1
102
RTVSPost2010Prop32
280
     0
102
RTVSPost2010PropOp32
 70
     1
102
RTVSPost2010Prop33
280
     0
102
RTVSPost2010PropOp33
 70
     1
102
RTVSPost2010Prop34
280
     0
102
RTVSPost2010PropOp34
 70
     1
102
RTVSPost2010Prop35
280
     0
102
RTVSPost2010PropOp35
 70
     1
102
RTVSPost2010Prop36
280
     0
102
RTVSPost2010PropOp36
 70
     1
102
RTVSPost2010Prop37
 90
       50
102
RTVSPost2010PropOp37
 70
     1
102
RTVSPost2010Prop38
140
0.0
102
RTVSPost2010PropOp38
 70
     1
102
RTVSPost2010Prop39
140
1.0
102
RTVSPost2010PropOp39
 70
     1
102
RTVSPost2010Prop40
 90
        0
102
RTVSPost2010PropOp40
 70
     1
102
RTVSPost2010Prop41ColorIndex
 90
       18
102
RTVSPost2010Prop41ColorRGB
 90
        0
102
RTVSPost2010PropOp41
 70
     1
102
RTVSPost2010Prop42
 90
       50
102
RTVSPost2010PropOp42
 70
     1
102
RTVSPost2010Prop43
 90
        3
102
RTVSPost2010PropOp43
 70
     1
102
RTVSPost2010Prop44ColorIndex
 90
        5
102
RTVSPost2010Prop44ColorRGB
 90
      255
102
RTVSPost2010PropOp44
 70
     1
102
RTVSPost2010Prop45
280
     0
102
RTVSPost2010PropOp45
 70
     1
102
RTVSPost2010Prop46
 90
       50
102
RTVSPost2010PropOp46
 70
     1
102
RTVSPost2010Prop47
 90
       50
102
RTVSPost2010PropOp47
 70
     1
102
RTVSPost2010Prop48
 90
       50
102
RTVSPost2010PropOp48
 70
     1
102
RTVSPost2010Prop49
280
     0
102
RTVSPost2010PropOp49
 70
     1
102
RTVSPost2010Prop50
 90
       50
102
RTVSPost2010PropOp50
 70
     1
102
RTVSPost2010Prop51ColorIndex
 90
      256
102
RTVSPost2010Prop51ColorRGB
 90
-16777216
102
RTVSPost2010PropOp51
 70
     0
102
RTVSPost2010Prop52
140
1.0
102
RTVSPost2010PropOp52
 70
     0
102
RTVSPost2010Prop53
 90
        2
102
RTVSPost2010PropOp53
 70
     1
102
RTVSPost2010Prop54
  1
strokes_ogs.tif
102
RTVSPost2010PropOp54
 70
     1
102
RTVSPost2010Prop55
280
     0
102
RTVSPost2010PropOp55
 70
     1
102
RTVSPost2010Prop56
140
1.0
102
RTVSPost2010PropOp56
 70
     1
102
RTVSPost2010Prop57
140
1.0
102
RTVSPost2010PropOp57
 70
     1
  0
XRECORD
  5
28A
102
{ACAD_REACTORS
330
289
102
}
330
289
100
AcDbXrecord
280
     1
102
RTVSPost2010Prop28
280
     0
102
RTVSPost2010PropOp28
 70
     0
102
RTVSPost2010Prop29
280
     1
102
RTVSPost2010PropOp29
 70
     0
102
RTVSPost2010Prop30
280
     1
102
RTVSPost2010PropOp30
 70
     0
102
RTVSPost2010Prop31
280
     0
102
RTVSPost2010PropOp31
 70
     0
102
RTVSPost2010Prop32
280
     0
102
RTVSPost2010PropOp32
 70
     0
102
RTVSPost2010Prop33
280
     0
102
RTVSPost2010PropOp33
 70
     0
102
RTVSPost2010Prop34
280
     0
102
RTVSPost2010PropOp34
 70
     0
102
RTVSPost2010Prop35
280
     0
102
RTVSPost2010PropOp35
 70
     0
102
RTVSPost2010Prop36
280
     0
102
RTVSPost2010PropOp36
 70
     0
102
RTVSPost2010Prop37
 90
       50
102
RTVSPost2010PropOp37
 70
     0
102
RTVSPost2010Prop38
140
0.0
102
RTVSPost2010PropOp38
 70
     0
102
RTVSPost2010Prop39
140
1.0
102
RTVSPost2010PropOp39
 70
     0
102
RTVSPost2010Prop40
 90
        0
102
RTVSPost2010PropOp40
 70
     0
102
RTVSPost2010Prop41ColorIndex
 90
       18
102
RTVSPost2010Prop41ColorRGB
 90
        0
102
RTVSPost2010PropOp41
 70
     0
102
RTVSPost2010Prop42
 90
       50
102
RTVSPost2010PropOp42
 70
     0
102
RTVSPost2010Prop43
 90
        3
102
RTVSPost2010PropOp43
 70
     0
102
RTVSPost2010Prop44ColorIndex
 90
        5
102
RTVSPost2010Prop44ColorRGB
 90
      255
102
RTVSPost2010PropOp44
 70
     0
102
RTVSPost2010Prop45
280
     0
102
RTVSPost2010PropOp45
 70
     0
102
RTVSPost2010Prop46
 90
       50
102
RTVSPost2010PropOp46
 70
     0
102
RTVSPost2010Prop47
 90
       50
102
RTVSPost2010PropOp47
 70
     0
102
RTVSPost2010Prop48
 90
       50
102
RTVSPost2010PropOp48
 70
     0
102
RTVSPost2010Prop49
280
     0
102
RTVSPost2010PropOp49
 70
     0
102
RTVSPost2010Prop50
 90
       50
102
RTVSPost2010PropOp50
 70
     0
102
RTVSPost2010Prop51ColorIndex
 90
      256
102
RTVSPost2010Prop51ColorRGB
 90
-16777216
102
RTVSPost2010PropOp51
 70
     0
102
RTVSPost2010Prop52
140
1.0
102
RTVSPost2010PropOp52
 70
     0
102
RTVSPost2010Prop53
 90
        2
102
RTVSPost2010PropOp53
 70
     0
102
RTVSPost2010Prop54
  1
strokes_ogs.tif
102
RTVSPost2010PropOp54
 70
     0
102
RTVSPost2010Prop55
280
     0
102
RTVSPost2010PropOp55
 70
     0
102
RTVSPost2010Prop56
140
1.0
102
RTVSPost2010PropOp56
 70
     0
102
RTVSPost2010Prop57
140
1.0
102
RTVSPost2010PropOp57
 70
     0
  0
XRECORD
  5
284
102
{ACAD_REACTORS
330
283
102
}
330
283
100
AcDbXrecord
280
     1
102
RTVSPost2010Prop28
280
     0
102
RTVSPost2010PropOp28
 70
     1
102
RTVSPost2010Prop29
280
     1
102
RTVSPost2010PropOp29
 70
     1
102
RTVSPost2010Prop30
280
     1
102
RTVSPost2010PropOp30
 70
     1
102
RTVSPost2010Prop31
280
     0
102
RTVSPost2010PropOp31
 70
     1
102
RTVSPost2010Prop32
280
     0
102
RTVSPost2010PropOp32
 70
     1
102
RTVSPost2010Prop33
280
     0
102
RTVSPost2010PropOp33
 70
     1
102
RTVSPost2010Prop34
280
     0
102
RTVSPost2010PropOp34
 70
     1
102
RTVSPost2010Prop35
280
     0
102
RTVSPost2010PropOp35
 70
     1
102
RTVSPost2010Prop36
280
     0
102
RTVSPost2010PropOp36
 70
     1
102
RTVSPost2010Prop37
 90
       50
102
RTVSPost2010PropOp37
 70
     1
102
RTVSPost2010Prop38
140
0.0
102
RTVSPost2010PropOp38
 70
     1
102
RTVSPost2010Prop39
140
1.0
102
RTVSPost2010PropOp39
 70
     1
102
RTVSPost2010Prop40
 90
        0
102
RTVSPost2010PropOp40
 70
     1
102
RTVSPost2010Prop41ColorIndex
 90
       18
102
RTVSPost2010Prop41ColorRGB
 90
        0
102
RTVSPost2010PropOp41
 70
     1
102
RTVSPost2010Prop42
 90
       50
102
RTVSPost2010PropOp42
 70
     1
102
RTVSPost2010Prop43
 90
        3
102
RTVSPost2010PropOp43
 70
     1
102
RTVSPost2010Prop44ColorIndex
 90
        5
102
RTVSPost2010Prop44ColorRGB
 90
      255
102
RTVSPost2010PropOp44
 70
     1
102
RTVSPost2010Prop45
280
     0
102
RTVSPost2010PropOp45
 70
     1
102
RTVSPost2010Prop46
 90
       50
102
RTVSPost2010PropOp46
 70
     1
102
RTVSPost2010Prop47
 90
       50
102
RTVSPost2010PropOp47
 70
     1
102
RTVSPost2010Prop48
 90
       50
102
RTVSPost2010PropOp48
 70
     1
102
RTVSPost2010Prop49
280
     0
102
RTVSPost2010PropOp49
 70
     1
102
RTVSPost2010Prop50
 90
       50
102
RTVSPost2010PropOp50
 70
     1
102
RTVSPost2010Prop51ColorIndex
 90
      256
102
RTVSPost2010Prop51ColorRGB
 90
-16777216
102
RTVSPost2010PropOp51
 70
     0
102
RTVSPost2010Prop52
140
1.0
102
RTVSPost2010PropOp52
 70
     0
102
RTVSPost2010Prop53
 90
        2
102
RTVSPost2010PropOp53
 70
     1
102
RTVSPost2010Prop54
  1
strokes_ogs.tif
102
RTVSPost2010PropOp54
 70
     1
102
RTVSPost2010Prop55
280
     0
102
RTVSPost2010PropOp55
 70
     1
102
RTVSPost2010Prop56
140
1.0
102
RTVSPost2010PropOp56
 70
     1
102
RTVSPost2010Prop57
140
1.0
102
RTVSPost2010PropOp57
 70
     1
  0
XRECORD
  5
28C
102
{ACAD_REACTORS
330
28B
102
}
330
28B
100
AcDbXrecord
280
     1
102
RTVSPost2010Prop28
280
     0
102
RTVSPost2010PropOp28
 70
     0
102
RTVSPost2010Prop29
280
     1
102
RTVSPost2010PropOp29
 70
     0
102
RTVSPost2010Prop30
280
     1
102
RTVSPost2010PropOp30
 70
     0
102
RTVSPost2010Prop31
280
     0
102
RTVSPost2010PropOp31
 70
     0
102
RTVSPost2010Prop32
280
     0
102
RTVSPost2010PropOp32
 70
     0
102
RTVSPost2010Prop33
280
     0
102
RTVSPost2010PropOp33
 70
     0
102
RTVSPost2010Prop34
280
     0
102
RTVSPost2010PropOp34
 70
     0
102
RTVSPost2010Prop35
280
     0
102
RTVSPost2010PropOp35
 70
     0
102
RTVSPost2010Prop36
280
     0
102
RTVSPost2010PropOp36
 70
     0
102
RTVSPost2010Prop37
 90
       50
102
RTVSPost2010PropOp37
 70
     0
102
RTVSPost2010Prop38
140
0.0
102
RTVSPost2010PropOp38
 70
     0
102
RTVSPost2010Prop39
140
1.0
102
RTVSPost2010PropOp39
 70
     0
102
RTVSPost2010Prop40
 90
        0
102
RTVSPost2010PropOp40
 70
     0
102
RTVSPost2010Prop41ColorIndex
 90
       18
102
RTVSPost2010Prop41ColorRGB
 90
        0
102
RTVSPost2010PropOp41
 70
     0
102
RTVSPost2010Prop42
 90
       50
102
RTVSPost2010PropOp42
 70
     0
102
RTVSPost2010Prop43
 90
        3
102
RTVSPost2010PropOp43
 70
     0
102
RTVSPost2010Prop44ColorIndex
 90
        5
102
RTVSPost2010Prop44ColorRGB
 90
      255
102
RTVSPost2010PropOp44
 70
     0
102
RTVSPost2010Prop45
280
     0
102
RTVSPost2010PropOp45
 70
     0
102
RTVSPost2010Prop46
 90
       50
102
RTVSPost2010PropOp46
 70
     0
102
RTVSPost2010Prop47
 90
       50
102
RTVSPost2010PropOp47
 70
     0
102
RTVSPost2010Prop48
 90
       50
102
RTVSPost2010PropOp48
 70
     0
102
RTVSPost2010Prop49
280
     0
102
RTVSPost2010PropOp49
 70
     0
102
RTVSPost2010Prop50
 90
       50
102
RTVSPost2010PropOp50
 70
     0
102
RTVSPost2010Prop51ColorIndex
 90
      256
102
RTVSPost2010Prop51ColorRGB
 90
-16777216
102
RTVSPost2010PropOp51
 70
     0
102
RTVSPost2010Prop52
140
1.0
102
RTVSPost2010PropOp52
 70
     0
102
RTVSPost2010Prop53
 90
        2
102
RTVSPost2010PropOp53
 70
     0
102
RTVSPost2010Prop54
  1
strokes_ogs.tif
102
RTVSPost2010PropOp54
 70
     0
102
RTVSPost2010Prop55
280
     0
102
RTVSPost2010PropOp55
 70
     0
102
RTVSPost2010Prop56
140
1.0
102
RTVSPost2010PropOp56
 70
     0
102
RTVSPost2010Prop57
140
1.0
102
RTVSPost2010PropOp57
 70
     0
  0
XRECORD
  5
27A
102
{ACAD_REACTORS
330
279
102
}
330
279
100
AcDbXrecord
280
     1
102
RTVSPost2010Prop28
280
     0
102
RTVSPost2010PropOp28
 70
     1
102
RTVSPost2010Prop29
280
     1
102
RTVSPost2010PropOp29
 70
     1
102
RTVSPost2010Prop30
280
     1
102
RTVSPost2010PropOp30
 70
     1
102
RTVSPost2010Prop31
280
     0
102
RTVSPost2010PropOp31
 70
     1
102
RTVSPost2010Prop32
280
     0
102
RTVSPost2010PropOp32
 70
     1
102
RTVSPost2010Prop33
280
     0
102
RTVSPost2010PropOp33
 70
     1
102
RTVSPost2010Prop34
280
     0
102
RTVSPost2010PropOp34
 70
     1
102
RTVSPost2010Prop35
280
     0
102
RTVSPost2010PropOp35
 70
     1
102
RTVSPost2010Prop36
280
     0
102
RTVSPost2010PropOp36
 70
     1
102
RTVSPost2010Prop37
 90
       50
102
RTVSPost2010PropOp37
 70
     1
102
RTVSPost2010Prop38
140
0.0
102
RTVSPost2010PropOp38
 70
     1
102
RTVSPost2010Prop39
140
1.0
102
RTVSPost2010PropOp39
 70
     1
102
RTVSPost2010Prop40
 90
        0
102
RTVSPost2010PropOp40
 70
     1
102
RTVSPost2010Prop41ColorIndex
 90
       18
102
RTVSPost2010Prop41ColorRGB
 90
        0
102
RTVSPost2010PropOp41
 70
     1
102
RTVSPost2010Prop42
 90
       50
102
RTVSPost2010PropOp42
 70
     1
102
RTVSPost2010Prop43
 90
        3
102
RTVSPost2010PropOp43
 70
     1
102
RTVSPost2010Prop44ColorIndex
 90
        5
102
RTVSPost2010Prop44ColorRGB
 90
      255
102
RTVSPost2010PropOp44
 70
     1
102
RTVSPost2010Prop45
280
     0
102
RTVSPost2010PropOp45
 70
     1
102
RTVSPost2010Prop46
 90
       50
102
RTVSPost2010PropOp46
 70
     1
102
RTVSPost2010Prop47
 90
       50
102
RTVSPost2010PropOp47
 70
     1
102
RTVSPost2010Prop48
 90
       50
102
RTVSPost2010PropOp48
 70
     1
102
RTVSPost2010Prop49
280
     0
102
RTVSPost2010PropOp49
 70
     1
102
RTVSPost2010Prop50
 90
       50
102
RTVSPost2010PropOp50
 70
     1
102
RTVSPost2010Prop51ColorIndex
 90
      256
102
RTVSPost2010Prop51ColorRGB
 90
-16777216
102
RTVSPost2010PropOp51
 70
     0
102
RTVSPost2010Prop52
140
1.0
102
RTVSPost2010PropOp52
 70
     0
102
RTVSPost2010Prop53
 90
        2
102
RTVSPost2010PropOp53
 70
     1
102
RTVSPost2010Prop54
  1
strokes_ogs.tif
102
RTVSPost2010PropOp54
 70
     1
102
RTVSPost2010Prop55
280
     0
102
RTVSPost2010PropOp55
 70
     1
102
RTVSPost2010Prop56
140
1.0
102
RTVSPost2010PropOp56
 70
     1
102
RTVSPost2010Prop57
140
1.0
102
RTVSPost2010PropOp57
 70
     1
  0
XRECORD
  5
298
102
{ACAD_REACTORS
330
297
102
}
330
297
100
AcDbXrecord
280
     1
102
RTVSPost2010Prop28
280
     0
102
RTVSPost2010PropOp28
 70
     1
102
RTVSPost2010Prop29
280
     1
102
RTVSPost2010PropOp29
 70
     1
102
RTVSPost2010Prop30
280
     1
102
RTVSPost2010PropOp30
 70
     1
102
RTVSPost2010Prop31
280
     0
102
RTVSPost2010PropOp31
 70
     1
102
RTVSPost2010Prop32
280
     0
102
RTVSPost2010PropOp32
 70
     1
102
RTVSPost2010Prop33
280
     0
102
RTVSPost2010PropOp33
 70
     1
102
RTVSPost2010Prop34
280
     0
102
RTVSPost2010PropOp34
 70
     1
102
RTVSPost2010Prop35
280
     0
102
RTVSPost2010PropOp35
 70
     1
102
RTVSPost2010Prop36
280
     0
102
RTVSPost2010PropOp36
 70
     1
102
RTVSPost2010Prop37
 90
       50
102
RTVSPost2010PropOp37
 70
     1
102
RTVSPost2010Prop38
140
0.0
102
RTVSPost2010PropOp38
 70
     1
102
RTVSPost2010Prop39
140
1.0
102
RTVSPost2010PropOp39
 70
     1
102
RTVSPost2010Prop40
 90
        0
102
RTVSPost2010PropOp40
 70
     1
102
RTVSPost2010Prop41ColorIndex
 90
       18
102
RTVSPost2010Prop41ColorRGB
 90
        0
102
RTVSPost2010PropOp41
 70
     1
102
RTVSPost2010Prop42
 90
       50
102
RTVSPost2010PropOp42
 70
     1
102
RTVSPost2010Prop43
 90
        3
102
RTVSPost2010PropOp43
 70
     1
102
RTVSPost2010Prop44ColorIndex
 90
        5
102
RTVSPost2010Prop44ColorRGB
 90
      255
102
RTVSPost2010PropOp44
 70
     1
102
RTVSPost2010Prop45
280
     0
102
RTVSPost2010PropOp45
 70
     1
102
RTVSPost2010Prop46
 90
       50
102
RTVSPost2010PropOp46
 70
     1
102
RTVSPost2010Prop47
 90
       50
102
RTVSPost2010PropOp47
 70
     1
102
RTVSPost2010Prop48
 90
       50
102
RTVSPost2010PropOp48
 70
     1
102
RTVSPost2010Prop49
280
     0
102
RTVSPost2010PropOp49
 70
     1
102
RTVSPost2010Prop50
 90
       50
102
RTVSPost2010PropOp50
 70
     1
102
RTVSPost2010Prop51ColorIndex
 90
      256
102
RTVSPost2010Prop51ColorRGB
 90
-16777216
102
RTVSPost2010PropOp51
 70
     0
102
RTVSPost2010Prop52
140
1.0
102
RTVSPost2010PropOp52
 70
     0
102
RTVSPost2010Prop53
 90
        2
102
RTVSPost2010PropOp53
 70
     1
102
RTVSPost2010Prop54
  1
strokes_ogs.tif
102
RTVSPost2010PropOp54
 70
     1
102
RTVSPost2010Prop55
280
     0
102
RTVSPost2010PropOp55
 70
     1
102
RTVSPost2010Prop56
140
1.0
102
RTVSPost2010PropOp56
 70
     1
102
RTVSPost2010Prop57
140
1.0
102
RTVSPost2010PropOp57
 70
     1
  0
XRECORD
  5
296
102
{ACAD_REACTORS
330
295
102
}
330
295
100
AcDbXrecord
280
     1
102
RTVSPost2010Prop28
280
     0
102
RTVSPost2010PropOp28
 70
     1
102
RTVSPost2010Prop29
280
     1
102
RTVSPost2010PropOp29
 70
     1
102
RTVSPost2010Prop30
280
     1
102
RTVSPost2010PropOp30
 70
     1
102
RTVSPost2010Prop31
280
     0
102
RTVSPost2010PropOp31
 70
     1
102
RTVSPost2010Prop32
280
     0
102
RTVSPost2010PropOp32
 70
     1
102
RTVSPost2010Prop33
280
     0
102
RTVSPost2010PropOp33
 70
     1
102
RTVSPost2010Prop34
280
     0
102
RTVSPost2010PropOp34
 70
     1
102
RTVSPost2010Prop35
280
     0
102
RTVSPost2010PropOp35
 70
     1
102
RTVSPost2010Prop36
280
     0
102
RTVSPost2010PropOp36
 70
     1
102
RTVSPost2010Prop37
 90
       50
102
RTVSPost2010PropOp37
 70
     1
102
RTVSPost2010Prop38
140
0.0
102
RTVSPost2010PropOp38
 70
     1
102
RTVSPost2010Prop39
140
1.0
102
RTVSPost2010PropOp39
 70
     1
102
RTVSPost2010Prop40
 90
        0
102
RTVSPost2010PropOp40
 70
     1
102
RTVSPost2010Prop41ColorIndex
 90
       18
102
RTVSPost2010Prop41ColorRGB
 90
        0
102
RTVSPost2010PropOp41
 70
     1
102
RTVSPost2010Prop42
 90
       50
102
RTVSPost2010PropOp42
 70
     1
102
RTVSPost2010Prop43
 90
        3
102
RTVSPost2010PropOp43
 70
     1
102
RTVSPost2010Prop44ColorIndex
 90
        5
102
RTVSPost2010Prop44ColorRGB
 90
      255
102
RTVSPost2010PropOp44
 70
     1
102
RTVSPost2010Prop45
280
     0
102
RTVSPost2010PropOp45
 70
     1
102
RTVSPost2010Prop46
 90
       50
102
RTVSPost2010PropOp46
 70
     1
102
RTVSPost2010Prop47
 90
       50
102
RTVSPost2010PropOp47
 70
     1
102
RTVSPost2010Prop48
 90
       50
102
RTVSPost2010PropOp48
 70
     1
102
RTVSPost2010Prop49
280
     0
102
RTVSPost2010PropOp49
 70
     1
102
RTVSPost2010Prop50
 90
       50
102
RTVSPost2010PropOp50
 70
     1
102
RTVSPost2010Prop51ColorIndex
 90
      256
102
RTVSPost2010Prop51ColorRGB
 90
-16777216
102
RTVSPost2010PropOp51
 70
     0
102
RTVSPost2010Prop52
140
1.0
102
RTVSPost2010PropOp52
 70
     0
102
RTVSPost2010Prop53
 90
        2
102
RTVSPost2010PropOp53
 70
     1
102
RTVSPost2010Prop54
  1
strokes_ogs.tif
102
RTVSPost2010PropOp54
 70
     1
102
RTVSPost2010Prop55
280
     0
102
RTVSPost2010PropOp55
 70
     1
102
RTVSPost2010Prop56
140
1.0
102
RTVSPost2010PropOp56
 70
     1
102
RTVSPost2010Prop57
140
1.0
102
RTVSPost2010PropOp57
 70
     1
  0
XRECORD
  5
290
102
{ACAD_REACTORS
330
28F
102
}
330
28F
100
AcDbXrecord
280
     1
102
RTVSPost2010Prop28
280
     0
102
RTVSPost2010PropOp28
 70
     1
102
RTVSPost2010Prop29
280
     1
102
RTVSPost2010PropOp29
 70
     1
102
RTVSPost2010Prop30
280
     1
102
RTVSPost2010PropOp30
 70
     1
102
RTVSPost2010Prop31
280
     0
102
RTVSPost2010PropOp31
 70
     1
102
RTVSPost2010Prop32
280
     0
102
RTVSPost2010PropOp32
 70
     1
102
RTVSPost2010Prop33
280
     0
102
RTVSPost2010PropOp33
 70
     1
102
RTVSPost2010Prop34
280
     0
102
RTVSPost2010PropOp34
 70
     1
102
RTVSPost2010Prop35
280
     0
102
RTVSPost2010PropOp35
 70
     1
102
RTVSPost2010Prop36
280
     0
102
RTVSPost2010PropOp36
 70
     1
102
RTVSPost2010Prop37
 90
       50
102
RTVSPost2010PropOp37
 70
     1
102
RTVSPost2010Prop38
140
0.0
102
RTVSPost2010PropOp38
 70
     1
102
RTVSPost2010Prop39
140
1.0
102
RTVSPost2010PropOp39
 70
     1
102
RTVSPost2010Prop40
 90
        0
102
RTVSPost2010PropOp40
 70
     1
102
RTVSPost2010Prop41ColorIndex
 90
       18
102
RTVSPost2010Prop41ColorRGB
 90
        0
102
RTVSPost2010PropOp41
 70
     1
102
RTVSPost2010Prop42
 90
       50
102
RTVSPost2010PropOp42
 70
     1
102
RTVSPost2010Prop43
 90
        3
102
RTVSPost2010PropOp43
 70
     1
102
RTVSPost2010Prop44ColorIndex
 90
        5
102
RTVSPost2010Prop44ColorRGB
 90
      255
102
RTVSPost2010PropOp44
 70
     1
102
RTVSPost2010Prop45
280
     0
102
RTVSPost2010PropOp45
 70
     1
102
RTVSPost2010Prop46
 90
       50
102
RTVSPost2010PropOp46
 70
     1
102
RTVSPost2010Prop47
 90
       50
102
RTVSPost2010PropOp47
 70
     1
102
RTVSPost2010Prop48
 90
       50
102
RTVSPost2010PropOp48
 70
     1
102
RTVSPost2010Prop49
280
     0
102
RTVSPost2010PropOp49
 70
     1
102
RTVSPost2010Prop50
 90
       50
102
RTVSPost2010PropOp50
 70
     1
102
RTVSPost2010Prop51ColorIndex
 90
      256
102
RTVSPost2010Prop51ColorRGB
 90
-16777216
102
RTVSPost2010PropOp51
 70
     0
102
RTVSPost2010Prop52
140
1.0
102
RTVSPost2010PropOp52
 70
     0
102
RTVSPost2010Prop53
 90
        2
102
RTVSPost2010PropOp53
 70
     1
102
RTVSPost2010Prop54
  1
strokes_ogs.tif
102
RTVSPost2010PropOp54
 70
     1
102
RTVSPost2010Prop55
280
     0
102
RTVSPost2010PropOp55
 70
     1
102
RTVSPost2010Prop56
140
1.0
102
RTVSPost2010PropOp56
 70
     1
102
RTVSPost2010Prop57
140
1.0
102
RTVSPost2010PropOp57
 70
     1
  0
XRECORD
  5
292
102
{ACAD_REACTORS
330
291
102
}
330
291
100
AcDbXrecord
280
     1
102
RTVSPost2010Prop28
280
     0
102
RTVSPost2010PropOp28
 70
     1
102
RTVSPost2010Prop29
280
     1
102
RTVSPost2010PropOp29
 70
     1
102
RTVSPost2010Prop30
280
     1
102
RTVSPost2010PropOp30
 70
     1
102
RTVSPost2010Prop31
280
     0
102
RTVSPost2010PropOp31
 70
     1
102
RTVSPost2010Prop32
280
     0
102
RTVSPost2010PropOp32
 70
     1
102
RTVSPost2010Prop33
280
     0
102
RTVSPost2010PropOp33
 70
     1
102
RTVSPost2010Prop34
280
     0
102
RTVSPost2010PropOp34
 70
     1
102
RTVSPost2010Prop35
280
     0
102
RTVSPost2010PropOp35
 70
     1
102
RTVSPost2010Prop36
280
     0
102
RTVSPost2010PropOp36
 70
     1
102
RTVSPost2010Prop37
 90
       50
102
RTVSPost2010PropOp37
 70
     1
102
RTVSPost2010Prop38
140
0.0
102
RTVSPost2010PropOp38
 70
     1
102
RTVSPost2010Prop39
140
1.0
102
RTVSPost2010PropOp39
 70
     1
102
RTVSPost2010Prop40
 90
        0
102
RTVSPost2010PropOp40
 70
     1
102
RTVSPost2010Prop41ColorIndex
 90
       18
102
RTVSPost2010Prop41ColorRGB
 90
        0
102
RTVSPost2010PropOp41
 70
     1
102
RTVSPost2010Prop42
 90
       50
102
RTVSPost2010PropOp42
 70
     1
102
RTVSPost2010Prop43
 90
        3
102
RTVSPost2010PropOp43
 70
     1
102
RTVSPost2010Prop44ColorIndex
 90
        5
102
RTVSPost2010Prop44ColorRGB
 90
      255
102
RTVSPost2010PropOp44
 70
     1
102
RTVSPost2010Prop45
280
     0
102
RTVSPost2010PropOp45
 70
     1
102
RTVSPost2010Prop46
 90
       50
102
RTVSPost2010PropOp46
 70
     1
102
RTVSPost2010Prop47
 90
       50
102
RTVSPost2010PropOp47
 70
     1
102
RTVSPost2010Prop48
 90
       50
102
RTVSPost2010PropOp48
 70
     1
102
RTVSPost2010Prop49
280
     0
102
RTVSPost2010PropOp49
 70
     1
102
RTVSPost2010Prop50
 90
       50
102
RTVSPost2010PropOp50
 70
     1
102
RTVSPost2010Prop51ColorIndex
 90
      256
102
RTVSPost2010Prop51ColorRGB
 90
-16777216
102
RTVSPost2010PropOp51
 70
     0
102
RTVSPost2010Prop52
140
1.0
102
RTVSPost2010PropOp52
 70
     0
102
RTVSPost2010Prop53
 90
        2
102
RTVSPost2010PropOp53
 70
     1
102
RTVSPost2010Prop54
  1
strokes_ogs.tif
102
RTVSPost2010PropOp54
 70
     1
102
RTVSPost2010Prop55
280
     0
102
RTVSPost2010PropOp55
 70
     1
102
RTVSPost2010Prop56
140
1.0
102
RTVSPost2010PropOp56
 70
     1
102
RTVSPost2010Prop57
140
1.0
102
RTVSPost2010PropOp57
 70
     1
  0
XRECORD
  5
282
102
{ACAD_REACTORS
330
281
102
}
330
281
100
AcDbXrecord
280
     1
102
RTVSPost2010Prop28
280
     0
102
RTVSPost2010PropOp28
 70
     1
102
RTVSPost2010Prop29
280
     1
102
RTVSPost2010PropOp29
 70
     1
102
RTVSPost2010Prop30
280
     1
102
RTVSPost2010PropOp30
 70
     1
102
RTVSPost2010Prop31
280
     0
102
RTVSPost2010PropOp31
 70
     1
102
RTVSPost2010Prop32
280
     0
102
RTVSPost2010PropOp32
 70
     1
102
RTVSPost2010Prop33
280
     0
102
RTVSPost2010PropOp33
 70
     1
102
RTVSPost2010Prop34
280
     0
102
RTVSPost2010PropOp34
 70
     1
102
RTVSPost2010Prop35
280
     0
102
RTVSPost2010PropOp35
 70
     1
102
RTVSPost2010Prop36
280
     0
102
RTVSPost2010PropOp36
 70
     1
102
RTVSPost2010Prop37
 90
       50
102
RTVSPost2010PropOp37
 70
     1
102
RTVSPost2010Prop38
140
0.0
102
RTVSPost2010PropOp38
 70
     1
102
RTVSPost2010Prop39
140
1.0
102
RTVSPost2010PropOp39
 70
     1
102
RTVSPost2010Prop40
 90
        0
102
RTVSPost2010PropOp40
 70
     1
102
RTVSPost2010Prop41ColorIndex
 90
       18
102
RTVSPost2010Prop41ColorRGB
 90
        0
102
RTVSPost2010PropOp41
 70
     1
102
RTVSPost2010Prop42
 90
       50
102
RTVSPost2010PropOp42
 70
     1
102
RTVSPost2010Prop43
 90
        3
102
RTVSPost2010PropOp43
 70
     1
102
RTVSPost2010Prop44ColorIndex
 90
        5
102
RTVSPost2010Prop44ColorRGB
 90
      255
102
RTVSPost2010PropOp44
 70
     1
102
RTVSPost2010Prop45
280
     0
102
RTVSPost2010PropOp45
 70
     1
102
RTVSPost2010Prop46
 90
       50
102
RTVSPost2010PropOp46
 70
     1
102
RTVSPost2010Prop47
 90
       50
102
RTVSPost2010PropOp47
 70
     1
102
RTVSPost2010Prop48
 90
       50
102
RTVSPost2010PropOp48
 70
     1
102
RTVSPost2010Prop49
280
     0
102
RTVSPost2010PropOp49
 70
     1
102
RTVSPost2010Prop50
 90
       50
102
RTVSPost2010PropOp50
 70
     1
102
RTVSPost2010Prop51ColorIndex
 90
      256
102
RTVSPost2010Prop51ColorRGB
 90
-16777216
102
RTVSPost2010PropOp51
 70
     0
102
RTVSPost2010Prop52
140
1.0
102
RTVSPost2010PropOp52
 70
     0
102
RTVSPost2010Prop53
 90
        2
102
RTVSPost2010PropOp53
 70
     1
102
RTVSPost2010Prop54
  1
strokes_ogs.tif
102
RTVSPost2010PropOp54
 70
     1
102
RTVSPost2010Prop55
280
     0
102
RTVSPost2010PropOp55
 70
     1
102
RTVSPost2010Prop56
140
1.0
102
RTVSPost2010PropOp56
 70
     1
102
RTVSPost2010Prop57
140
1.0
102
RTVSPost2010PropOp57
 70
     1
  0
XRECORD
  5
274
102
{ACAD_REACTORS
330
273
102
}
330
273
100
AcDbXrecord
280
     1
102
RTVSPost2010Prop28
280
     0
102
RTVSPost2010PropOp28
 70
     1
102
RTVSPost2010Prop29
280
     1
102
RTVSPost2010PropOp29
 70
     1
102
RTVSPost2010Prop30
280
     1
102
RTVSPost2010PropOp30
 70
     1
102
RTVSPost2010Prop31
280
     0
102
RTVSPost2010PropOp31
 70
     1
102
RTVSPost2010Prop32
280
     0
102
RTVSPost2010PropOp32
 70
     1
102
RTVSPost2010Prop33
280
     0
102
RTVSPost2010PropOp33
 70
     1
102
RTVSPost2010Prop34
280
     0
102
RTVSPost2010PropOp34
 70
     1
102
RTVSPost2010Prop35
280
     0
102
RTVSPost2010PropOp35
 70
     1
102
RTVSPost2010Prop36
280
     0
102
RTVSPost2010PropOp36
 70
     1
102
RTVSPost2010Prop37
 90
       50
102
RTVSPost2010PropOp37
 70
     1
102
RTVSPost2010Prop38
140
0.0
102
RTVSPost2010PropOp38
 70
     1
102
RTVSPost2010Prop39
140
1.0
102
RTVSPost2010PropOp39
 70
     1
102
RTVSPost2010Prop40
 90
        0
102
RTVSPost2010PropOp40
 70
     1
102
RTVSPost2010Prop41ColorIndex
 90
       18
102
RTVSPost2010Prop41ColorRGB
 90
        0
102
RTVSPost2010PropOp41
 70
     1
102
RTVSPost2010Prop42
 90
       50
102
RTVSPost2010PropOp42
 70
     1
102
RTVSPost2010Prop43
 90
        3
102
RTVSPost2010PropOp43
 70
     1
102
RTVSPost2010Prop44ColorIndex
 90
        5
102
RTVSPost2010Prop44ColorRGB
 90
      255
102
RTVSPost2010PropOp44
 70
     1
102
RTVSPost2010Prop45
280
     0
102
RTVSPost2010PropOp45
 70
     1
102
RTVSPost2010Prop46
 90
       50
102
RTVSPost2010PropOp46
 70
     1
102
RTVSPost2010Prop47
 90
       50
102
RTVSPost2010PropOp47
 70
     1
102
RTVSPost2010Prop48
 90
       50
102
RTVSPost2010PropOp48
 70
     1
102
RTVSPost2010Prop49
280
     0
102
RTVSPost2010PropOp49
 70
     1
102
RTVSPost2010Prop50
 90
       50
102
RTVSPost2010PropOp50
 70
     1
102
RTVSPost2010Prop51ColorIndex
 90
      256
102
RTVSPost2010Prop51ColorRGB
 90
-16777216
102
RTVSPost2010PropOp51
 70
     0
102
RTVSPost2010Prop52
140
1.0
102
RTVSPost2010PropOp52
 70
     0
102
RTVSPost2010Prop53
 90
        2
102
RTVSPost2010PropOp53
 70
     1
102
RTVSPost2010Prop54
  1
strokes_ogs.tif
102
RTVSPost2010PropOp54
 70
     1
102
RTVSPost2010Prop55
280
     0
102
RTVSPost2010PropOp55
 70
     1
102
RTVSPost2010Prop56
140
1.0
102
RTVSPost2010PropOp56
 70
     1
102
RTVSPost2010Prop57
140
1.0
102
RTVSPost2010PropOp57
 70
     1
  0
XRECORD
  5
294
102
{ACAD_REACTORS
330
293
102
}
330
293
100
AcDbXrecord
280
     1
102
RTVSPost2010Prop28
280
     0
102
RTVSPost2010PropOp28
 70
     1
102
RTVSPost2010Prop29
280
     1
102
RTVSPost2010PropOp29
 70
     1
102
RTVSPost2010Prop30
280
     1
102
RTVSPost2010PropOp30
 70
     1
102
RTVSPost2010Prop31
280
     0
102
RTVSPost2010PropOp31
 70
     1
102
RTVSPost2010Prop32
280
     0
102
RTVSPost2010PropOp32
 70
     1
102
RTVSPost2010Prop33
280
     0
102
RTVSPost2010PropOp33
 70
     1
102
RTVSPost2010Prop34
280
     0
102
RTVSPost2010PropOp34
 70
     1
102
RTVSPost2010Prop35
280
     0
102
RTVSPost2010PropOp35
 70
     1
102
RTVSPost2010Prop36
280
     0
102
RTVSPost2010PropOp36
 70
     1
102
RTVSPost2010Prop37
 90
       50
102
RTVSPost2010PropOp37
 70
     1
102
RTVSPost2010Prop38
140
0.0
102
RTVSPost2010PropOp38
 70
     1
102
RTVSPost2010Prop39
140
1.0
102
RTVSPost2010PropOp39
 70
     1
102
RTVSPost2010Prop40
 90
        0
102
RTVSPost2010PropOp40
 70
     1
102
RTVSPost2010Prop41ColorIndex
 90
       18
102
RTVSPost2010Prop41ColorRGB
 90
        0
102
RTVSPost2010PropOp41
 70
     1
102
RTVSPost2010Prop42
 90
       50
102
RTVSPost2010PropOp42
 70
     1
102
RTVSPost2010Prop43
 90
        3
102
RTVSPost2010PropOp43
 70
     1
102
RTVSPost2010Prop44ColorIndex
 90
        5
102
RTVSPost2010Prop44ColorRGB
 90
      255
102
RTVSPost2010PropOp44
 70
     1
102
RTVSPost2010Prop45
280
     0
102
RTVSPost2010PropOp45
 70
     1
102
RTVSPost2010Prop46
 90
       50
102
RTVSPost2010PropOp46
 70
     1
102
RTVSPost2010Prop47
 90
       50
102
RTVSPost2010PropOp47
 70
     1
102
RTVSPost2010Prop48
 90
       50
102
RTVSPost2010PropOp48
 70
     1
102
RTVSPost2010Prop49
280
     0
102
RTVSPost2010PropOp49
 70
     1
102
RTVSPost2010Prop50
 90
       50
102
RTVSPost2010PropOp50
 70
     1
102
RTVSPost2010Prop51ColorIndex
 90
      256
102
RTVSPost2010Prop51ColorRGB
 90
-16777216
102
RTVSPost2010PropOp51
 70
     0
102
RTVSPost2010Prop52
140
1.0
102
RTVSPost2010PropOp52
 70
     0
102
RTVSPost2010Prop53
 90
        2
102
RTVSPost2010PropOp53
 70
     1
102
RTVSPost2010Prop54
  1
strokes_ogs.tif
102
RTVSPost2010PropOp54
 70
     1
102
RTVSPost2010Prop55
280
     0
102
RTVSPost2010PropOp55
 70
     1
102
RTVSPost2010Prop56
140
1.0
102
RTVSPost2010PropOp56
 70
     1
102
RTVSPost2010Prop57
140
1.0
102
RTVSPost2010PropOp57
 70
     1
  0
ENDSEC
  0
EOF
