  0
SECTION
  2
HEADER
  9
$ACADVER
  1
AC1024
  9
$ACADMAINTVER
 70
     6
  9
$DWGCODEPAGE
  3
ANSI_1252
  9
$INSBASE
 10
0.0
 20
0.0
 30
0.0
  9
$EXTMIN
 10
1.000000E+20
 20
1.000000E+20
 30
1.000000E+20
  9
$EXTMAX
 10
-1.000000E+20
 20
-1.000000E+20
 30
-1.000000E+20
  9
$LIMMIN
 10
0.0
 20
0.0
  9
$LIMMAX
 10
420.0
 20
297.0
  9
$ORTHOMODE
 70
     0
  9
$REGENMODE
 70
     1
  9
$FILLMODE
 70
     1
  9
$QTEXTMODE
 70
     0
  9
$MIRRTEXT
 70
     1
  9
$LTSCALE
 40
1.0
  9
$ATTMODE
 70
     1
  9
$TEXTSIZE
 40
2.5
  9
$TRACEWID
 40
1.0
  9
$TEXTSTYLE
  7
Standard
  9
$CLAYER
  8
0
  9
$CELTYPE
  6
ByLayer
  9
$CECOLOR
 62
   256
  9
$CELTSCALE
 40
1.0
  9
$DISPSILH
 70
     0
  9
$DIMSCALE
 40
1.0
  9
$DIMASZ
 40
2.5
  9
$DIMEXO
 40
0.625
  9
$DIMDLI
 40
3.75
  9
$DIMRND
 40
0.0
  9
$DIMDLE
 40
0.0
  9
$DIMEXE
 40
1.25
  9
$DIMTP
 40
0.0
  9
$DIMTM
 40
0.0
  9
$DIMTXT
 40
2.5
  9
$DIMCEN
 40
2.5
  9
$DIMTSZ
 40
0.0
  9
$DIMTOL
 70
     0
  9
$DIMLIM
 70
     0
  9
$DIMTIH
 70
     0
  9
$DIMTOH
 70
     0
  9
$DIMSE1
 70
     0
  9
$DIMSE2
 70
     0
  9
$DIMTAD
 70
     1
  9
$DIMZIN
 70
     8
  9
$DIMBLK
  1

  9
$DIMASO
 70
     1
  9
$DIMSHO
 70
     1
  9
$DIMPOST
  1

  9
$DIMAPOST
  1

  9
$DIMALT
 70
     0
  9
$DIMALTD
 70
     3
  9
$DIMALTF
 40
0.03937
  9
$DIMLFAC
 40
1.0
  9
$DIMTOFL
 70
     1
  9
$DIMTVP
 40
0.0
  9
$DIMTIX
 70
     0
  9
$DIMSOXD
 70
     0
  9
$DIMSAH
 70
     0
  9
$DIMBLK1
  1

  9
$DIMBLK2
  1

  9
$DIMSTYLE
  2
ISO-25
  9
$DIMCLRD
 70
     0
  9
$DIMCLRE
 70
     0
  9
$DIMCLRT
 70
     0
  9
$DIMTFAC
 40
1.0
  9
$DIMGAP
 40
0.625
  9
$DIMJUST
 70
     0
  9
$DIMSD1
 70
     0
  9
$DIMSD2
 70
     0
  9
$DIMTOLJ
 70
     0
  9
$DIMTZIN
 70
     8
  9
$DIMALTZ
 70
     0
  9
$DIMALTTZ
 70
     0
  9
$DIMUPT
 70
     0
  9
$DIMDEC
 70
     2
  9
$DIMTDEC
 70
     2
  9
$DIMALTU
 70
     2
  9
$DIMALTTD
 70
     3
  9
$DIMTXSTY
  7
Standard
  9
$DIMAUNIT
 70
     0
  9
$DIMADEC
 70
     0
  9
$DIMALTRND
 40
0.0
  9
$DIMAZIN
 70
     0
  9
$DIMDSEP
 70
    44
  9
$DIMATFIT
 70
     3
  9
$DIMFRAC
 70
     0
  9
$DIMLDRBLK
  1

  9
$DIMLUNIT
 70
     2
  9
$DIMLWD
 70
    -2
  9
$DIMLWE
 70
    -2
  9
$DIMTMOVE
 70
     0
  9
$DIMFXL
 40
1.0
  9
$DIMFXLON
 70
     0
  9
$DIMJOGANG
 40
0.785398
  9
$DIMTFILL
 70
     0
  9
$DIMTFILLCLR
 70
     0
  9
$DIMARCSYM
 70
     0
  9
$DIMLTYPE
  6

  9
$DIMLTEX1
  6

  9
$DIMLTEX2
  6

  9
$DIMTXTDIRECTION
 70
     0
  9
$LUNITS
 70
     2
  9
$LUPREC
 70
     4
  9
$SKETCHINC
 40
1.0
  9
$FILLETRAD
 40
10.0
  9
$AUNITS
 70
     0
  9
$AUPREC
 70
     0
  9
$MENU
  1
.
  9
$ELEVATION
 40
0.0
  9
$PELEVATION
 40
0.0
  9
$THICKNESS
 40
0.0
  9
$LIMCHECK
 70
     0
  9
$CHAMFERA
 40
0.0
  9
$CHAMFERB
 40
0.0
  9
$CHAMFERC
 40
0.0
  9
$CHAMFERD
 40
0.0
  9
$SKPOLY
 70
     0
  9
$TDCREATE
 40
2457813.486797072
  9
$TDUCREATE
 40
2457813.445130405
  9
$TDUPDATE
 40
2457813.48679779
  9
$TDUUPDATE
 40
2457813.445131123
  9
$TDINDWG
 40
0.0000000116
  9
$TDUSRTIMER
 40
0.0000000116
  9
$USRTIMER
 70
     1
  9
$ANGBASE
 50
0.0
  9
$ANGDIR
 70
     0
  9
$PDMODE
 70
     0
  9
$PDSIZE
 40
0.0
  9
$PLINEWID
 40
0.0
  9
$SPLFRAME
 70
     0
  9
$SPLINETYPE
 70
     6
  9
$SPLINESEGS
 70
     8
  9
$HANDSEED
  5
243
  9
$SURFTAB1
 70
     6
  9
$SURFTAB2
 70
     6
  9
$SURFTYPE
 70
     6
  9
$SURFU
 70
     6
  9
$SURFV
 70
     6
  9
$UCSBASE
  2

  9
$UCSNAME
  2

  9
$UCSORG
 10
0.0
 20
0.0
 30
0.0
  9
$UCSXDIR
 10
1.0
 20
0.0
 30
0.0
  9
$UCSYDIR
 10
0.0
 20
1.0
 30
0.0
  9
$UCSORTHOREF
  2

  9
$UCSORTHOVIEW
 70
     0
  9
$UCSORGTOP
 10
0.0
 20
0.0
 30
0.0
  9
$UCSORGBOTTOM
 10
0.0
 20
0.0
 30
0.0
  9
$UCSORGLEFT
 10
0.0
 20
0.0
 30
0.0
  9
$UCSORGRIGHT
 10
0.0
 20
0.0
 30
0.0
  9
$UCSORGFRONT
 10
0.0
 20
0.0
 30
0.0
  9
$UCSORGBACK
 10
0.0
 20
0.0
 30
0.0
  9
$PUCSBASE
  2

  9
$PUCSNAME
  2

  9
$PUCSORG
 10
0.0
 20
0.0
 30
0.0
  9
$PUCSXDIR
 10
1.0
 20
0.0
 30
0.0
  9
$PUCSYDIR
 10
0.0
 20
1.0
 30
0.0
  9
$PUCSORTHOREF
  2

  9
$PUCSORTHOVIEW
 70
     0
  9
$PUCSORGTOP
 10
0.0
 20
0.0
 30
0.0
  9
$PUCSORGBOTTOM
 10
0.0
 20
0.0
 30
0.0
  9
$PUCSORGLEFT
 10
0.0
 20
0.0
 30
0.0
  9
$PUCSORGRIGHT
 10
0.0
 20
0.0
 30
0.0
  9
$PUCSORGFRONT
 10
0.0
 20
0.0
 30
0.0
  9
$PUCSORGBACK
 10
0.0
 20
0.0
 30
0.0
  9
$USERI1
 70
     0
  9
$USERI2
 70
     0
  9
$USERI3
 70
     0
  9
$USERI4
 70
     0
  9
$USERI5
 70
     0
  9
$USERR1
 40
0.0
  9
$USERR2
 40
0.0
  9
$USERR3
 40
0.0
  9
$USERR4
 40
0.0
  9
$USERR5
 40
0.0
  9
$WORLDVIEW
 70
     1
  9
$SHADEDGE
 70
     3
  9
$SHADEDIF
 70
    70
  9
$TILEMODE
 70
     1
  9
$MAXACTVP
 70
    64
  9
$PINSBASE
 10
0.0
 20
0.0
 30
0.0
  9
$PLIMCHECK
 70
     0
  9
$PEXTMIN
 10
1.000000E+20
 20
1.000000E+20
 30
1.000000E+20
  9
$PEXTMAX
 10
-1.000000E+20
 20
-1.000000E+20
 30
-1.000000E+20
  9
$PLIMMIN
 10
0.0
 20
0.0
  9
$PLIMMAX
 10
420.0
 20
297.0
  9
$UNITMODE
 70
     0
  9
$VISRETAIN
 70
     1
  9
$PLINEGEN
 70
     0
  9
$PSLTSCALE
 70
     1
  9
$TREEDEPTH
 70
  3020
  9
$CMLSTYLE
  2
Standard
  9
$CMLJUST
 70
     0
  9
$CMLSCALE
 40
20.0
  9
$PROXYGRAPHICS
 70
     1
  9
$MEASUREMENT
 70
     1
  9
$CELWEIGHT
370
    -1
  9
$ENDCAPS
280
     0
  9
$JOINSTYLE
280
     0
  9
$LWDISPLAY
290
     0
  9
$INSUNITS
 70
     4
  9
$HYPERLINKBASE
  1

  9
$STYLESHEET
  1

  9
$XEDIT
290
     1
  9
$CEPSNTYPE
380
     0
  9
$PSTYLEMODE
290
     1
  9
$FINGERPRINTGUID
  2
{762136BD-B4CD-4B2A-A32E-9423CDF26599}
  9
$VERSIONGUID
  2
{FAEB1C32-E019-11D5-929B-00C0DF256EC4}
  9
$EXTNAMES
290
     1
  9
$PSVPSCALE
 40
0.0
  9
$OLESTARTUP
290
     0
  9
$SORTENTS
280
   127
  9
$INDEXCTL
280
     0
  9
$HIDETEXT
280
     1
  9
$XCLIPFRAME
280
     2
  9
$HALOGAP
280
     0
  9
$OBSCOLOR
 70
   257
  9
$OBSLTYPE
280
     0
  9
$INTERSECTIONDISPLAY
280
     0
  9
$INTERSECTIONCOLOR
 70
   257
  9
$DIMASSOC
280
     2
  9
$PROJECTNAME
  1

  9
$CAMERADISPLAY
290
     0
  9
$LENSLENGTH
 40
50.0
  9
$CAMERAHEIGHT
 40
0.0
  9
$STEPSPERSEC
 40
2.0
  9
$STEPSIZE
 40
6.0
  9
$3DDWFPREC
 40
2.0
  9
$PSOLWIDTH
 40
5.0
  9
$PSOLHEIGHT
 40
80.0
  9
$LOFTANG1
 40
1.570796
  9
$LOFTANG2
 40
1.570796
  9
$LOFTMAG1
 40
0.0
  9
$LOFTMAG2
 40
0.0
  9
$LOFTPARAM
 70
     7
  9
$LOFTNORMALS
280
     1
  9
$LATITUDE
 40
37.795
  9
$LONGITUDE
 40
-122.394
  9
$NORTHDIRECTION
 40
0.0
  9
$TIMEZONE
 70
 -8000
  9
$LIGHTGLYPHDISPLAY
280
     1
  9
$TILEMODELIGHTSYNCH
280
     1
  9
$CMATERIAL
347
44
  9
$SOLIDHIST
280
     0
  9
$SHOWHIST
280
     1
  9
$DWFFRAME
280
     2
  9
$DGNFRAME
280
     2
  9
$REALWORLDSCALE
290
     1
  9
$INTERFERECOLOR
 62
   256
  9
$CSHADOW
280
     0
  9
$SHADOWPLANELOCATION
 40
0.0
  0
ENDSEC
  0
SECTION
  2
CLASSES
  0
CLASS
  1
ACDBDICTIONARYWDFLT
  2
AcDbDictionaryWithDefault
  3
ObjectDBX Classes
 90
        0
 91
        4
280
     0
281
     0
  0
CLASS
  1
VISUALSTYLE
  2
AcDbVisualStyle
  3
ObjectDBX Classes
 90
     4095
 91
        4
280
     0
281
     0
  0
CLASS
  1
MATERIAL
  2
AcDbMaterial
  3
ObjectDBX Classes
 90
     1153
 91
        4
280
     0
281
     0
  0
CLASS
  1
SCALE
  2
AcDbScale
  3
ObjectDBX Classes
 90
     1153
 91
        4
280
     0
281
     0
  0
CLASS
  1
TABLESTYLE
  2
AcDbTableStyle
  3
ObjectDBX Classes
 90
     4095
 91
        4
280
     0
281
     0
  0
CLASS
  1
MLEADERSTYLE
  2
AcDbMLeaderStyle
  3
ACDB_MLEADERSTYLE_CLASS
 90
     4095
 91
        4
280
     0
281
     0
  0
CLASS
  1
SUN
  2
AcDbSun
  3
SCENEOE
 90
     1153
 91
        4
280
     0
281
     0
  0
CLASS
  1
DICTIONARYVAR
  2
AcDbDictionaryVar
  3
ObjectDBX Classes
 90
        0
 91
        4
280
     0
281
     0
  0
CLASS
  1
CELLSTYLEMAP
  2
AcDbCellStyleMap
  3
ObjectDBX Classes
 90
     1152
 91
        4
280
     0
281
     0
  0
ENDSEC
  0
SECTION
  2
TABLES
  0
TABLE
  2
VPORT
  5
8
330
0
100
AcDbSymbolTable
 70
     1
  0
VPORT
  5
29
330
8
100
AcDbSymbolTableRecord
100
AcDbViewportTableRecord
  2
*Active
 70
     0
 10
0.0
 20
0.0
 11
1.0
 21
1.0
 12
344.186916
 22
148.5
 13
0.0
 23
0.0
 14
10.0
 24
10.0
 15
10.0
 25
10.0
 16
0.0
 26
0.0
 36
1.0
 17
0.0
 27
0.0
 37
0.0
 40
297.0
 41
1.972973
 42
50.0
 43
0.0
 44
0.0
 50
0.0
 51
0.0
 71
     0
 72
   100
 73
     1
 74
     3
 75
     0
 76
     0
 77
     0
 78
     0
281
     0
 65
     1
110
0.0
120
0.0
130
0.0
111
1.0
121
0.0
131
0.0
112
0.0
122
1.0
132
0.0
 79
     0
146
0.0
348
2F
 60
     3
 61
     5
292
     1
282
     1
141
0.0
142
0.0
 63
   250
361
6D
  0
ENDTAB
  0
TABLE
  2
LTYPE
  5
5
330
0
100
AcDbSymbolTable
 70
     1
  0
LTYPE
  5
14
330
5
100
AcDbSymbolTableRecord
100
AcDbLinetypeTableRecord
  2
ByBlock
 70
     0
  3

 72
    65
 73
     0
 40
0.0
  0
LTYPE
  5
15
330
5
100
AcDbSymbolTableRecord
100
AcDbLinetypeTableRecord
  2
ByLayer
 70
     0
  3

 72
    65
 73
     0
 40
0.0
  0
LTYPE
  5
16
330
5
100
AcDbSymbolTableRecord
100
AcDbLinetypeTableRecord
  2
Continuous
 70
     0
  3
Solid line
 72
    65
 73
     0
 40
0.0
  0
ENDTAB
  0
TABLE
  2
LAYER
  5
2
330
0
100
AcDbSymbolTable
 70
     1
  0
LAYER
  5
10
330
2
100
AcDbSymbolTableRecord
100
AcDbLayerTableRecord
  2
0
 70
     0
 62
   106
  6
Continuous
370
     0
390
F
347
46
  0
ENDTAB
  0
TABLE
  2
STYLE
  5
3
330
0
100
AcDbSymbolTable
 70
     4
  0
STYLE
  5
11
330
3
100
AcDbSymbolTableRecord
100
AcDbTextStyleTableRecord
  2
Standard
 70
     0
 40
0.0
 41
1.0
 50
0.0
 71
     0
 42
2.5
  3
txt
  4

  0
STYLE
  5
6E
330
3
100
AcDbSymbolTableRecord
100
AcDbTextStyleTableRecord
  2
Default
 70
     0
 40
0.0
 41
1.0
 50
0.0
 71
     0
 42
2.5
  3

  4

1001
ACAD
1000
txt
1071
        0
  0
STYLE
  5
6F
330
3
100
AcDbSymbolTableRecord
100
AcDbTextStyleTableRecord
  2
ISO
 70
     0
 40
0.0
 41
1.0
 50
0.0
 71
     0
 42
2.5
  3

  4

1001
ACAD
1000
txt
1071
        0
  0
STYLE
  5
70
330
3
100
AcDbSymbolTableRecord
100
AcDbTextStyleTableRecord
  2
zucchetti
 70
     0
 40
0.0
 41
1.0
 50
0.0
 71
     0
 42
2.5
  3

  4

1001
ACAD
1000
Arial
1071
        0
  0
ENDTAB
  0
TABLE
  2
VIEW
  5
6
330
0
100
AcDbSymbolTable
 70
     0
  0
ENDTAB
  0
TABLE
  2
UCS
  5
7
330
0
100
AcDbSymbolTable
 70
     0
  0
ENDTAB
  0
TABLE
  2
APPID
  5
9
330
0
100
AcDbSymbolTable
 70
     1
  0
APPID
  5
12
330
9
100
AcDbSymbolTableRecord
100
AcDbRegAppTableRecord
  2
ACAD
 70
     0
  0
ENDTAB
  0
TABLE
  2
DIMSTYLE
  5
A
330
0
100
AcDbSymbolTable
 70
     4
100
AcDbDimStyleTable
  0
DIMSTYLE
105
27
330
A
100
AcDbSymbolTableRecord
100
AcDbDimStyleTableRecord
  2
ISO-25
 70
     0
 41
2.5
 42
0.625
 43
3.75
 44
1.25
 73
     0
 74
     0
 77
     1
 78
     8
140
2.5
141
2.5
143
0.03937
147
0.625
171
     3
172
     1
178
     0
271
     2
272
     2
274
     3
278
    44
283
     0
284
     8
340
11
  0
DIMSTYLE
105
71
330
A
100
AcDbSymbolTableRecord
100
AcDbDimStyleTableRecord
  2
Default
 70
     0
  3
<>
 41
4.375
 42
1.05
 44
2.1
 49
10.01
 73
     0
 74
     0
 77
     1
 78
     8
140
3.5
146
0.4
147
1.75
172
     1
271
     2
178
     3
271
     2
272
     3
284
     8
340
6E
341
72
342
72
  0
DIMSTYLE
105
79
330
A
100
AcDbSymbolTableRecord
100
AcDbDimStyleTableRecord
  2
ISO
 70
     0
  3
<>
 41
4.375
 42
1.05
 44
2.1
 49
10.01
 73
     0
 74
     0
 77
     1
 78
     8
140
3.5
146
0.4
147
1.75
172
     1
271
     2
178
     3
271
     2
272
     3
284
     8
340
6F
341
72
342
72
  0
DIMSTYLE
105
7A
330
A
100
AcDbSymbolTableRecord
100
AcDbDimStyleTableRecord
  2
zucchetti
 70
     0
  3
<>
 41
3.0
 42
0.9
 44
1.8
 49
8.58
 73
     0
 74
     0
 77
     1
 78
     8
140
3.0
146
0.6
147
1.5
172
     1
176
     3
177
     3
271
     2
178
     3
271
     2
272
     2
284
     8
340
70
  0
ENDTAB
  0
TABLE
  2
BLOCK_RECORD
  5
1
330
0
100
AcDbSymbolTable
 70
     7
  0
BLOCK_RECORD
  5
1F
330
1
100
AcDbSymbolTableRecord
100
AcDbBlockTableRecord
  2
*Model_Space
340
22
 70
     0
280
     1
281
     0
  0
BLOCK_RECORD
  5
1B
330
1
100
AcDbSymbolTableRecord
100
AcDbBlockTableRecord
  2
*Paper_Space
340
1E
 70
     0
280
     1
281
     0
  0
BLOCK_RECORD
  5
23
330
1
100
AcDbSymbolTableRecord
100
AcDbBlockTableRecord
  2
*Paper_Space0
340
26
 70
     0
280
     1
281
     0
  0
BLOCK_RECORD
  5
72
330
1
100
AcDbSymbolTableRecord
100
AcDbBlockTableRecord
  2
_CLOSED
340
0
 70
     0
280
     1
281
     0
  0
BLOCK_RECORD
  5
7B
330
1
100
AcDbSymbolTableRecord
100
AcDbBlockTableRecord
  2
a
340
0
102
{BLKREFS
331
D7
102
}
 70
     0
280
     1
281
     0
  0
BLOCK_RECORD
  5
D8
330
1
100
AcDbSymbolTableRecord
100
AcDbBlockTableRecord
  2
b
340
0
102
{BLKREFS
331
128
102
}
 70
     0
280
     1
281
     0
  0
BLOCK_RECORD
  5
129
330
1
100
AcDbSymbolTableRecord
100
AcDbBlockTableRecord
  2
c
340
0
102
{BLKREFS
331
15A
102
}
 70
     0
280
     1
281
     0
  0
BLOCK_RECORD
  5
15B
330
1
100
AcDbSymbolTableRecord
100
AcDbBlockTableRecord
  2
d
340
0
102
{BLKREFS
331
1AB
102
}
 70
     0
280
     1
281
     0
  0
BLOCK_RECORD
  5
1AC
330
1
100
AcDbSymbolTableRecord
100
AcDbBlockTableRecord
  2
e
340
0
102
{BLKREFS
331
209
102
}
 70
     0
280
     1
281
     0
  0
ENDTAB
  0
ENDSEC
  0
SECTION
  2
BLOCKS
  0
BLOCK
  5
20
330
1F
100
AcDbEntity
  8
0
100
AcDbBlockBegin
  2
*Model_Space
 70
     0
 10
0.0
 20
0.0
 30
0.0
  3
*Model_Space
  1

  0
ENDBLK
  5
21
330
1F
100
AcDbEntity
  8
0
100
AcDbBlockEnd
  0
BLOCK
  5
1C
330
1B
100
AcDbEntity
 67
     1
  8
0
100
AcDbBlockBegin
  2
*Paper_Space
 70
     0
 10
0.0
 20
0.0
 30
0.0
  3
*Paper_Space
  1

  0
ENDBLK
  5
1D
330
1B
100
AcDbEntity
 67
     1
  8
0
100
AcDbBlockEnd
  0
BLOCK
  5
24
330
23
100
AcDbEntity
  8
0
100
AcDbBlockBegin
  2
*Paper_Space0
 70
     0
 10
0.0
 20
0.0
 30
0.0
  3
*Paper_Space0
  1

  0
ENDBLK
  5
25
330
23
100
AcDbEntity
  8
0
100
AcDbBlockEnd
  0
BLOCK
  5
73
330
72
100
AcDbEntity
  8
0
100
AcDbBlockBegin
  2
_CLOSED
 70
     0
 10
0.0
 20
0.0
 30
0.0
  3
_CLOSED
  1

  0
LINE
  5
75
330
72
100
AcDbEntity
  8
0
  6
ByBlock
 62
     0
370
    -2
100
AcDbLine
 10
-1.0
 20
0.166667
 30
0.0
 11
0.0
 21
0.0
 31
0.0
  0
LINE
  5
76
330
72
100
AcDbEntity
  8
0
  6
ByBlock
 62
     0
370
    -2
100
AcDbLine
 10
0.0
 20
0.0
 30
0.0
 11
-1.0
 21
-0.166667
 31
0.0
  0
LINE
  5
77
330
72
100
AcDbEntity
  8
0
  6
ByBlock
 62
     0
370
    -2
100
AcDbLine
 10
-1.0
 20
0.166667
 30
0.0
 11
-1.0
 21
-0.166667
 31
0.0
  0
LINE
  5
78
330
72
100
AcDbEntity
  8
0
  6
ByBlock
 62
     0
370
    -2
100
AcDbLine
 10
0.0
 20
0.0
 30
0.0
 11
-1.0
 21
0.0
 31
0.0
  0
ENDBLK
  5
74
330
72
100
AcDbEntity
  8
0
100
AcDbBlockEnd
  0
BLOCK
  5
D5
330
7B
100
AcDbEntity
  8
0
100
AcDbBlockBegin
  2
a
 70
     0
 10
44.73317
 20
77.957184
 30
0.0
  3
a
  1

  0
LWPOLYLINE
  5
7C
330
7B
100
AcDbEntity
  8
0
  6
Continuous
 62
     0
370
     0
100
AcDbPolyline
 90
       24
 70
     0
 43
0.0
 10
105.112701
 20
377.154297
 10
105.357964
 20
377.939423
 10
105.610649
 20
378.659851
 10
105.869873
 20
379.313049
 10
106.134743
 20
379.896759
 10
106.404327
 20
380.408966
 10
106.677696
 20
380.84787
 10
106.953888
 20
381.211945
 10
107.231956
 20
381.499908
 10
107.510918
 20
381.710785
 10
107.78981
 20
381.843842
 10
108.067665
 20
381.89859
 10
108.343506
 20
381.874847
 10
108.616386
 20
381.772705
 10
108.885338
 20
381.592529
 10
109.149437
 20
381.3349
 10
109.407768
 20
381.000763
 10
109.659424
 20
380.591278
 10
109.903526
 20
380.107819
 10
110.139229
 20
379.552155
 10
110.365723
 20
378.926147
 10
110.582199
 20
378.231995
 10
110.787918
 20
377.472107
 10
110.983902
 20
376.641266
  0
LWPOLYLINE
  5
7D
330
7B
100
AcDbEntity
  8
0
  6
Continuous
 62
     0
370
     0
100
AcDbPolyline
 90
       28
 70
     0
 43
0.0
 10
110.983902
 20
376.641266
 10
111.46254
 20
376.043457
 10
111.913826
 20
375.431366
 10
112.333687
 20
374.804047
 10
112.72467
 20
374.163666
 10
113.110382
 20
373.520844
 10
113.524681
 20
372.890747
 10
113.971466
 20
372.27594
 10
114.452896
 20
371.678986
 10
114.989853
 20
371.11438
 10
115.589005
 20
370.590118
 10
116.236122
 20
370.100281
 10
116.911575
 20
369.633484
 10
117.606567
 20
369.184204
 10
118.322205
 20
368.754028
 10
119.060463
 20
368.345917
 10
119.822609
 20
367.962738
 10
120.609215
 20
367.607239
 10
121.420197
 20
367.28183
 10
122.254852
 20
366.988678
 10
123.111908
 20
366.729309
 10
123.989555
 20
366.504761
 10
124.885551
 20
366.315308
 10
125.797417
 20
366.160583
 10
126.722588
 20
366.039642
 10
127.658676
 20
365.951294
 10
128.603195
 20
365.893402
 10
129.587219
 20
365.857849
  0
LWPOLYLINE
  5
7E
330
7B
100
AcDbEntity
  8
0
  6
Continuous
 62
     0
370
     0
100
AcDbPolyline
 90
       11
 70
     0
 43
0.0
 10
111.908577
 20
370.144348
 10
111.08625
 20
370.659943
 10
110.310936
 20
371.217163
 10
109.586006
 20
371.813385
 10
108.896576
 20
372.433167
 10
108.23394
 20
373.068634
 10
107.600746
 20
373.720032
 10
106.970024
 20
374.372803
 10
106.315979
 20
375.013367
 10
105.63385
 20
375.638092
 10
104.872299
 20
376.29425
  0
LWPOLYLINE
  5
7F
330
7B
100
AcDbEntity
  8
0
  6
Continuous
 62
     0
370
     0
100
AcDbPolyline
 90
       24
 70
     0
 43
0.0
 10
109.868423
 20
341.544464
 10
109.623161
 20
340.759308
 10
109.370483
 20
340.03891
 10
109.111259
 20
339.385681
 10
108.84639
 20
338.801971
 10
108.576805
 20
338.289764
 10
108.303436
 20
337.850861
 10
108.027237
 20
337.486786
 10
107.749176
 20
337.198822
 10
107.470207
 20
336.987946
 10
107.191315
 20
336.854889
 10
106.913467
 20
336.80014
 10
106.637619
 20
336.823883
 10
106.364746
 20
336.926025
 10
106.095795
 20
337.106232
 10
105.831688
 20
337.363831
 10
105.573364
 20
337.697968
 10
105.321709
 20
338.107483
 10
105.077606
 20
338.590912
 10
104.841896
 20
339.146606
 10
104.61541
 20
339.772614
 10
104.398933
 20
340.466766
 10
104.193214
 20
341.226624
 10
103.997231
 20
342.057465
  0
LWPOLYLINE
  5
80
330
7B
100
AcDbEntity
  8
0
  6
Continuous
 62
     0
370
     0
100
AcDbPolyline
 90
       11
 70
     0
 43
0.0
 10
103.997231
 20
342.057465
 10
104.723663
 20
342.63092
 10
105.427864
 20
343.220703
 10
106.106026
 20
343.827972
 10
106.76062
 20
344.449982
 10
107.412933
 20
345.073456
 10
108.090698
 20
345.681122
 10
108.794487
 20
346.271545
 10
109.528099
 20
346.839844
 10
110.30661
 20
347.369476
 10
111.207695
 20
347.896454
  0
LWPOLYLINE
  5
81
330
7B
100
AcDbEntity
  8
0
  6
Continuous
 62
     0
370
     0
100
AcDbPolyline
 90
       28
 70
     0
 43
0.0
 10
129.219223
 20
351.744232
 10
128.26947
 20
351.768311
 10
127.32386
 20
351.769836
 10
126.385078
 20
351.741547
 10
125.455482
 20
351.681152
 10
124.537399
 20
351.587341
 10
123.633301
 20
351.458984
 10
122.745674
 20
351.295593
 10
121.876762
 20
351.09726
 10
121.028435
 20
350.864777
 10
120.202065
 20
350.599609
 10
119.398476
 20
350.303711
 10
118.617889
 20
349.979401
 10
117.859894
 20
349.629395
 10
117.123398
 20
349.25647
 10
116.406593
 20
348.863647
 10
115.708321
 20
348.452637
 10
115.03656
 20
348.017883
 10
114.410149
 20
347.547211
 10
113.843498
 20
347.0336
 10
113.331207
 20
346.484619
 10
112.853165
 20
345.91568
 10
112.406395
 20
345.329926
 10
111.988297
 20
344.729553
 10
111.566277
 20
344.130951
 10
111.116501
 20
343.546356
 10
110.635956
 20
342.97818
 10
110.108833
 20
342.40448
  0
LINE
  5
82
330
7B
100
AcDbEntity
  8
0
  6
Continuous
 62
     0
370
     0
100
AcDbLine
 10
110.108832
 20
342.40448
 30
0.0
 11
109.868424
 21
341.544451
 31
0.0
  0
ARC
  5
83
330
7B
100
AcDbEntity
  8
0
  6
Continuous
 62
     0
370
     0
100
AcDbCircle
 10
15.139236
 20
362.082245
 30
0.0
 40
97.0775024656836
100
AcDbArc
 50
349.789826
 51
6.569378
  0
LWPOLYLINE
  5
84
330
7B
100
AcDbEntity
  8
0
  6
Continuous
 62
     0
370
     0
100
AcDbPolyline
 90
       27
 70
     0
 43
0.0
 10
110.679436
 20
344.874329
 10
111.187187
 20
345.362183
 10
111.665466
 20
345.864227
 10
112.109848
 20
346.381531
 10
112.525093
 20
346.911224
 10
112.940681
 20
347.440643
 10
113.390625
 20
347.955048
 10
113.873466
 20
348.454254
 10
114.399162
 20
348.931793
 10
114.988846
 20
349.373199
 10
115.641281
 20
349.775574
 10
116.336052
 20
350.148743
 10
117.055092
 20
350.50296
 10
117.794899
 20
350.840027
 10
118.557755
 20
351.157288
 10
119.345413
 20
351.451935
 10
120.158775
 20
351.721405
 10
120.997986
 20
351.963257
 10
121.862473
 20
352.175446
 10
122.750961
 20
352.356445
 10
123.661545
 20
352.50531
 10
124.591827
 20
352.621765
 10
125.539047
 20
352.706146
 10
126.500374
 20
352.759521
 10
127.473129
 20
352.783081
 10
128.454605
 20
352.778961
 10
129.453278
 20
352.753326
  0
LINE
  5
85
330
7B
100
AcDbEntity
  8
0
  6
Continuous
 62
     0
370
    30
100
AcDbLine
 10
129.453277
 20
352.753338
 30
0.0
 11
129.769247
 21
364.867845
 31
0.0
  0
LWPOLYLINE
  5
86
330
7B
100
AcDbEntity
  8
0
  6
Continuous
 62
     0
370
     0
100
AcDbPolyline
 90
       27
 70
     0
 43
0.0
 10
129.769241
 20
364.867859
 10
128.781937
 20
364.902771
 10
127.801147
 20
364.959442
 10
126.830475
 20
365.044556
 10
125.872719
 20
365.160034
 10
124.930641
 20
365.306976
 10
124.007126
 20
365.486267
 10
123.104942
 20
365.69809
 10
122.226501
 20
365.942017
 10
121.37365
 20
366.216888
 10
120.547585
 20
366.521057
 10
119.748802
 20
366.852325
 10
118.977036
 20
367.208221
 10
118.231247
 20
367.586029
 10
117.509567
 20
367.982941
 10
116.809563
 20
368.396301
 10
116.134697
 20
368.827698
 10
115.503433
 20
369.286591
 10
114.936783
 20
369.781891
 10
114.436119
 20
370.310699
 10
113.979675
 20
370.859314
 10
113.556862
 20
371.421448
 10
113.169357
 20
371.996887
 10
112.782661
 20
372.572479
 10
112.366394
 20
373.13681
 10
111.915482
 20
373.687103
 10
111.429718
 20
374.229126
  0
LINE
  5
87
330
7B
100
AcDbEntity
  8
0
  6
Continuous
 62
     0
370
     0
100
AcDbLine
 10
111.429719
 20
374.229126
 30
0.0
 11
111.579332
 21
373.188515
 31
0.0
  0
LINE
  5
88
330
7B
100
AcDbEntity
  8
0
  6
Continuous
 62
     0
370
     0
100
AcDbLine
 10
129.219226
 20
351.744491
 30
0.0
 11
129.453271
 21
352.753091
 31
0.0
  0
LINE
  5
89
330
7B
100
AcDbEntity
  8
0
  6
Continuous
 62
     0
370
     0
100
AcDbLine
 10
110.679433
 20
344.874333
 30
0.0
 11
110.108832
 21
342.40448
 31
0.0
  0
LINE
  5
8A
330
7B
100
AcDbEntity
  8
0
  6
Continuous
 62
     0
370
     0
100
AcDbLine
 10
129.769247
 20
364.867845
 30
0.0
 11
129.587284
 21
365.85809
 31
0.0
  0
LINE
  5
8B
330
7B
100
AcDbEntity
  8
0
  6
Continuous
 62
     0
370
     0
100
AcDbLine
 10
110.983899
 20
376.641268
 30
0.0
 11
111.429719
 21
374.229126
 31
0.0
  0
ELLIPSE
  5
8C
330
7B
100
AcDbEntity
  8
0
  6
Continuous
 62
     0
370
     0
100
AcDbEllipse
 10
84.12954
 20
360.033311
 30
0.0
 11
1.024207589250315
 21
34.9790494080214
 31
0.0
210
0.0
220
0.0
230
-1.0
 40
0.207696
 41
0.0230577364149449
 42
0.6216603344119087
  0
ELLIPSE
  5
8D
330
7B
100
AcDbEntity
  8
0
  6
Continuous
 62
     0
370
     0
100
AcDbEllipse
 10
84.12954
 20
360.033311
 30
0.0
 11
1.024207589250315
 21
34.9790494080214
 31
0.0
210
0.0
220
0.0
230
-1.0
 40
0.207696
 41
0.6216603344119087
 42
0.9187672379375844
  0
ELLIPSE
  5
8E
330
7B
100
AcDbEntity
  8
0
  6
Continuous
 62
     0
370
     0
100
AcDbEllipse
 10
84.12954
 20
360.033311
 30
0.0
 11
1.024207589250315
 21
34.9790494080214
 31
0.0
210
0.0
220
0.0
230
-1.0
 40
0.207696
 41
0.9187672379375844
 42
1.555408484026529
  0
ELLIPSE
  5
8F
330
7B
100
AcDbEntity
  8
0
  6
Continuous
 62
     0
370
     0
100
AcDbEllipse
 10
84.12954
 20
360.033311
 30
0.0
 11
1.024207589250315
 21
34.9790494080214
 31
0.0
210
0.0
220
0.0
230
-1.0
 40
0.207696
 41
1.555408484026529
 42
2.192454843861136
  0
ELLIPSE
  5
90
330
7B
100
AcDbEntity
  8
0
  6
Continuous
 62
     0
370
     0
100
AcDbEllipse
 10
84.12954
 20
360.033311
 30
0.0
 11
1.024207589250315
 21
34.9790494080214
 31
0.0
210
0.0
220
0.0
230
-1.0
 40
0.207696
 41
2.192454843861136
 42
2.489562747627482
  0
ELLIPSE
  5
91
330
7B
100
AcDbEntity
  8
0
  6
Continuous
 62
     0
370
     0
100
AcDbEllipse
 10
84.12954
 20
360.033311
 30
0.0
 11
1.024207589250315
 21
34.9790494080214
 31
0.0
210
0.0
220
0.0
230
-1.0
 40
0.207696
 41
2.489562747627482
 42
3.126204803105114
  0
ELLIPSE
  5
92
330
7B
100
AcDbEntity
  8
0
  6
Continuous
 62
     0
370
     0
100
AcDbEllipse
 10
83.046143
 20
360.06503
 30
0.0
 11
0.9951122332555332
 21
33.98539813672198
 31
0.0
210
0.0
220
0.0
230
-1.0
 40
0.207695
 41
1.555408594627743
 42
4.697001248217537
  0
ELLIPSE
  5
93
330
7B
100
AcDbEntity
  8
0
  6
Continuous
 62
     0
370
     0
100
AcDbEllipse
 10
83.046143
 20
360.06503
 30
0.0
 11
0.9951122332555332
 21
33.98539813672198
 31
0.0
210
0.0
220
0.0
230
-1.0
 40
0.207695
 41
4.697001248217537
 42
7.83859390180733
  0
ELLIPSE
  5
94
330
7B
100
AcDbEntity
  8
0
  6
Continuous
 62
     0
370
     0
100
AcDbEllipse
 10
83.046142
 20
360.065033
 30
0.0
 11
-0.9731622657288957
 21
-33.23575567374028
 31
0.0
210
0.0
220
0.0
230
1.0
 40
0.207695
 41
1.58618405896205
 42
4.727776712551842
  0
ELLIPSE
  5
95
330
7B
100
AcDbEntity
  8
0
  6
Continuous
 62
     0
370
     0
100
AcDbEllipse
 10
83.046142
 20
360.065033
 30
0.0
 11
-0.9731622657288957
 21
-33.23575567374028
 31
0.0
210
0.0
220
0.0
230
1.0
 40
0.207695
 41
4.727776712551844
 42
7.869369366141636
  0
ARC
  5
96
330
7B
100
AcDbEntity
  8
0
  6
Continuous
 62
     0
370
     0
100
AcDbCircle
 10
136.673092
 20
682.47567
 30
0.0
 40
316.6978420474528
100
AcDbArc
 50
268.717918
 51
271.934038
  0
ARC
  5
97
330
7B
100
AcDbEntity
  8
0
  6
Continuous
 62
     0
370
     0
100
AcDbCircle
 10
137.435448
 20
622.471006
 30
0.0
 40
257.7196910606478
100
AcDbArc
 50
268.295257
 51
277.080199
  0
ARC
  5
98
330
7B
100
AcDbEntity
  8
0
  6
Continuous
 62
     0
370
    30
100
AcDbCircle
 10
170.131239
 20
366.756257
 30
0.0
 40
0.930492056113212
100
AcDbArc
 50
92.336768
 51
182.446863
  0
LINE
  5
99
330
7B
100
AcDbEntity
  8
0
  6
Continuous
 62
     0
370
     0
100
AcDbLine
 10
127.32858
 20
351.60949
 30
0.0
 11
155.672681
 21
350.073411
 31
0.0
  0
ARC
  5
9A
330
7B
100
AcDbEntity
  8
0
  6
Continuous
 62
     0
370
     0
100
AcDbCircle
 10
108.351582
 20
-192.696854
 30
0.0
 40
544.8413617240886
100
AcDbArc
 50
83.56241
 51
87.805035
  0
ARC
  5
9B
330
7B
100
AcDbEntity
  8
0
  6
Continuous
 62
     0
370
    30
100
AcDbCircle
 10
169.760717
 20
349.661719
 30
0.0
 40
1.004259787825231
100
AcDbArc
 50
176.430734
 51
245.623996
  0
ARC
  5
9C
330
7B
100
AcDbEntity
  8
0
  6
Continuous
 62
     0
370
    30
100
AcDbCircle
 10
110.85263
 20
-144.852988
 30
0.0
 40
497.9555322657782
100
AcDbArc
 50
83.322135
 51
87.859342
  0
LINE
  5
9D
330
7B
100
AcDbEntity
  8
0
  6
Continuous
 62
     0
370
     0
100
AcDbLine
 10
168.758385
 20
349.724239
 30
0.0
 11
169.201596
 21
366.716532
 31
0.0
  0
ARC
  5
9E
330
7B
100
AcDbEntity
  8
0
  6
Continuous
 62
     0
370
     0
100
AcDbCircle
 10
214.109826
 20
442.767321
 30
0.0
 40
98.6976605413718
100
AcDbArc
 50
262.2399
 51
268.664059
  0
ARC
  5
9F
330
7B
100
AcDbEntity
  8
0
  6
Continuous
 62
     0
370
     0
100
AcDbCircle
 10
192.674502
 20
369.912495
 30
0.0
 40
1.861118538955395
100
AcDbArc
 50
92.350998
 51
182.456225
  0
ARC
  5
A0
330
7B
100
AcDbEntity
  8
0
  6
Continuous
 62
     0
370
     0
100
AcDbCircle
 10
187.525199
 20
316.16061
 30
0.0
 40
53.77285904110212
100
AcDbArc
 50
86.492379
 51
109.924919
  0
ARC
  5
A1
330
7B
100
AcDbEntity
  8
0
  6
Continuous
 62
     0
370
     0
100
AcDbCircle
 10
186.69811
 20
402.009253
 30
0.0
 40
55.27851544835028
100
AcDbArc
 50
251.06431
 51
273.652428
  0
ARC
  5
A2
330
7B
100
AcDbEntity
  8
0
  6
Continuous
 62
     0
370
     0
100
AcDbCircle
 10
192.111979
 20
346.672257
 30
0.0
 40
1.900109559945039
100
AcDbArc
 50
174.844005
 51
263.565835
  0
ARC
  5
A3
330
7B
100
AcDbEntity
  8
0
  6
Continuous
 62
     0
370
     0
100
AcDbCircle
 10
190.53662
 20
222.30004
 30
0.0
 40
149.6347892597751
100
AcDbArc
 50
78.032564
 51
85.965795
  0
LINE
  5
A4
330
7B
100
AcDbEntity
  8
0
  6
Continuous
 62
     0
370
     0
100
AcDbLine
 10
221.564285
 20
368.682601
 30
0.0
 11
232.953152
 21
368.28926
 31
0.0
  0
ARC
  5
A5
330
7B
100
AcDbEntity
  8
0
  6
Continuous
 62
     0
370
     0
100
AcDbCircle
 10
215.197134
 20
314.583666
 30
0.0
 40
56.56471475319114
100
AcDbArc
 50
71.705223
 51
92.725072
  0
ARC
  5
A6
330
7B
100
AcDbEntity
  8
0
  6
Continuous
 62
     0
370
     0
100
AcDbCircle
 10
184.50943
 20
259.190671
 30
0.0
 40
110.8216025564786
100
AcDbArc
 50
72.400522
 51
86.738153
  0
ARC
  5
A7
330
7B
100
AcDbEntity
  8
0
  6
Continuous
 62
     0
370
     0
100
AcDbCircle
 10
221.764774
 20
364.939021
 30
0.0
 40
3.748953651194355
100
AcDbArc
 50
93.066116
 51
181.741291
  0
ARC
  5
A8
330
7B
100
AcDbEntity
  8
0
  6
Continuous
 62
     0
370
     0
100
AcDbCircle
 10
183.327563
 20
466.449273
 30
0.0
 40
119.8046561353065
100
AcDbArc
 50
273.297872
 51
286.661152
  0
LINE
  5
A9
330
7B
100
AcDbEntity
  8
0
  6
Continuous
 62
     0
370
     0
100
AcDbLine
 10
217.676912
 20
351.674372
 30
0.0
 11
218.017574
 21
364.825094
 31
0.0
  0
ARC
  5
AA
330
7B
100
AcDbEntity
  8
0
  6
Continuous
 62
     0
370
     0
100
AcDbCircle
 10
192.820403
 20
488.268626
 30
0.0
 40
143.4874678144044
100
AcDbArc
 50
269.632093
 51
281.333133
  0
ARC
  5
AB
330
7B
100
AcDbEntity
  8
0
  6
Continuous
 62
     0
370
     0
100
AcDbCircle
 10
221.495879
 20
351.37938
 30
0.0
 40
3.83036572663327
100
AcDbArc
 50
175.583195
 51
262.826769
  0
ARC
  5
AC
330
7B
100
AcDbEntity
  8
0
  6
Continuous
 62
     0
370
     0
100
AcDbCircle
 10
214.216678
 20
398.255802
 30
0.0
 40
54.21281346734638
100
AcDbArc
 50
267.45429
 51
289.604492
  0
LINE
  5
AD
330
7B
100
AcDbEntity
  8
0
  6
Continuous
 62
     0
370
     0
100
AcDbLine
 10
221.017611
 20
347.578992
 30
0.0
 11
232.406475
 21
347.185651
 31
0.0
  0
ARC
  5
AE
330
7B
100
AcDbEntity
  8
0
  6
Continuous
 62
     0
370
     0
100
AcDbCircle
 10
232.454984
 20
350.470187
 30
0.0
 40
3.284892637825536
100
AcDbArc
 50
269.153519
 51
324.968072
  0
ARC
  5
AF
330
7B
100
AcDbEntity
  8
0
  6
Continuous
 62
     0
370
     0
100
AcDbCircle
 10
232.76632
 20
364.949185
 30
0.0
 40
3.345301331760126
100
AcDbArc
 50
31.916953
 51
86.798755
  0
ELLIPSE
  5
B0
330
7B
100
AcDbEntity
  8
0
  6
Continuous
 62
     0
370
     0
100
AcDbEllipse
 10
232.90861
 20
367.793582
 30
0.0
 11
-0.01688298660785894
 21
-0.4997148834717752
 31
0.0
210
0.0
220
0.0
230
1.0
 40
0.499785
 41
1.587677312473653
 42
3.030160074801416
  0
ARC
  5
B1
330
7B
100
AcDbEntity
  8
0
  6
Continuous
 62
     0
370
     0
100
AcDbCircle
 10
232.956109
 20
364.797913
 30
0.0
 40
3.002504010847289
100
AcDbArc
 50
22.861625
 51
86.132831
  0
ARC
  5
B2
330
7B
100
AcDbEntity
  8
0
  6
Continuous
 62
     0
370
     0
100
AcDbCircle
 10
232.617112
 20
350.704117
 30
0.0
 40
3.022869144229787
100
AcDbArc
 50
270.388569
 51
342.108138
  0
ELLIPSE
  5
B3
330
7B
100
AcDbEntity
  8
0
  6
Continuous
 62
     0
370
     0
100
AcDbEllipse
 10
232.387613
 20
347.681318
 30
0.0
 11
0.01763376474565516
 21
0.4996889535911184
 31
0.0
210
0.0
220
0.0
230
-1.0
 40
0.499766
 41
1.553164452660359
 42
2.99564998541261
  0
LINE
  5
B4
330
7B
100
AcDbEntity
  8
0
  6
Continuous
 62
     0
370
     0
100
AcDbLine
 10
221.248457
 20
348.074659
 30
0.0
 11
232.637612
 21
347.681308
 31
0.0
  0
ELLIPSE
  5
B5
330
7B
100
AcDbEntity
  8
0
  6
Continuous
 62
     0
370
     0
100
AcDbEllipse
 10
220.998458
 20
348.07466
 30
0.0
 11
-0.01725838304178843
 21
-0.4997020594462043
 31
0.0
210
0.0
220
0.0
230
1.0
 40
0.499775
 41
0.1454577474855112
 42
1.588052762850653
  0
ARC
  5
B6
330
7B
100
AcDbEntity
  8
0
  6
Continuous
 62
     0
370
     0
100
AcDbCircle
 10
221.620036
 20
351.362866
 30
0.0
 40
3.309147613333967
100
AcDbArc
 50
174.861905
 51
263.547935
  0
LINE
  5
B7
330
7B
100
AcDbEntity
  8
0
  6
Continuous
 62
     0
370
     0
100
AcDbLine
 10
217.676767
 20
351.669742
 30
0.0
 11
218.324011
 21
351.652611
 31
0.0
  0
LINE
  5
B8
330
7B
100
AcDbEntity
  8
0
  6
Continuous
 62
     0
370
     0
100
AcDbLine
 10
218.324174
 20
351.659222
 30
0.0
 11
218.664844
 21
364.810267
 31
0.0
  0
LINE
  5
B9
330
7B
100
AcDbEntity
  8
0
  6
Continuous
 62
     0
370
     0
100
AcDbLine
 10
218.664677
 20
364.803796
 30
0.0
 11
218.017457
 21
364.820562
 31
0.0
  0
ARC
  5
BA
330
7B
100
AcDbEntity
  8
0
  6
Continuous
 62
     0
370
     0
100
AcDbCircle
 10
221.903161
 20
364.948481
 30
0.0
 40
3.241230616107143
100
AcDbArc
 50
92.369123
 51
182.438099
  0
ELLIPSE
  5
BB
330
7B
100
AcDbEntity
  8
0
  6
Continuous
 62
     0
370
     0
100
AcDbEllipse
 10
221.519178
 20
368.186943
 30
0.0
 11
-0.01763376474571002
 21
-0.4996889535910535
 31
0.0
210
0.0
220
0.0
230
1.0
 40
0.499766
 41
1.588428200929599
 42
3.031021042859578
  0
LINE
  5
BC
330
7B
100
AcDbEntity
  8
0
  6
Continuous
 62
     0
370
     0
100
AcDbLine
 10
221.769178
 20
368.186941
 30
0.0
 11
233.158609
 21
367.79358
 31
0.0
  0
ELLIPSE
  5
BD
330
7B
100
AcDbEntity
  8
0
  6
Continuous
 62
     0
370
    30
100
AcDbEllipse
 10
227.203389
 20
357.934125
 30
0.0
 11
-4.981207677328051E-5
 21
-9.000000103602696
 31
0.0
210
0.0
220
0.0
230
-1.0
 40
0.866026
 41
6.283180512943613
 42
7.88408456353659
  0
ELLIPSE
  5
BE
330
7B
100
AcDbEntity
  8
0
  6
Continuous
 62
     0
370
    30
100
AcDbEllipse
 10
227.203389
 20
357.934125
 30
0.0
 11
-4.981207677328051E-5
 21
-9.000000103602696
 31
0.0
210
0.0
220
0.0
230
-1.0
 40
0.866026
 41
1.600899256357004
 42
3.14158785935382
  0
ELLIPSE
  5
BF
330
7B
100
AcDbEntity
  8
0
  6
Continuous
 62
     0
370
    30
100
AcDbEllipse
 10
232.203389
 20
357.934125
 30
0.0
 11
1.104922453792479E-8
 21
-9.000000103740543
 31
0.0
210
0.0
220
0.0
230
-1.0
 40
0.866025
 41
4.742496704179371
 42
7.884089357769164
  0
ELLIPSE
  5
C0
330
7B
100
AcDbEntity
  8
0
  6
Continuous
 62
     0
370
    30
100
AcDbEllipse
 10
232.203389
 20
357.934125
 30
0.0
 11
1.104922453792479E-8
 21
-9.000000103740543
 31
0.0
210
0.0
220
0.0
230
-1.0
 40
0.866025
 41
1.600904050589578
 42
4.742496704179366
  0
LINE
  5
C1
330
7B
100
AcDbEntity
  8
0
  6
Continuous
 62
     0
370
    30
100
AcDbLine
 10
232.203389
 20
348.934124
 30
0.0
 11
227.203389
 21
348.934124
 31
0.0
  0
LINE
  5
C2
330
7B
100
AcDbEntity
  8
0
  6
Continuous
 62
     0
370
    30
100
AcDbLine
 10
232.203389
 20
366.934125
 30
0.0
 11
227.203389
 21
366.934125
 31
0.0
  0
LINE
  5
C3
330
7B
100
AcDbEntity
  8
0
  6
Continuous
 62
     0
370
    30
100
AcDbLine
 10
235.832251
 20
349.969088
 30
0.0
 11
235.153541
 21
348.578074
 31
0.0
  0
LINE
  5
C4
330
7B
100
AcDbEntity
  8
0
  6
Continuous
 62
     0
370
    30
100
AcDbLine
 10
233.605738
 20
347.389982
 30
0.0
 11
233.774026
 21
347.459744
 31
0.0
  0
LINE
  5
C5
330
7B
100
AcDbEntity
  8
0
  6
Continuous
 62
     0
370
    30
100
AcDbLine
 10
236.107839
 20
365.723457
 30
0.0
 11
235.616511
 21
366.724816
 31
0.0
  0
LINE
  5
C6
330
7B
100
AcDbEntity
  8
0
  6
Continuous
 62
     0
370
    30
100
AcDbLine
 10
233.888556
 20
368.10613
 30
0.0
 11
234.057912
 21
368.039727
 31
0.0
  0
LINE
  5
C7
330
7B
100
AcDbEntity
  8
0
  6
Continuous
 62
     0
370
    30
100
AcDbLine
 10
217.093643
 20
371.055757
 30
0.0
 11
215.687456
 21
371.095387
 31
0.0
  0
LINE
  5
C8
330
7B
100
AcDbEntity
  8
0
  6
Continuous
 62
     0
370
    30
100
AcDbLine
 10
191.898736
 20
344.775038
 30
0.0
 11
210.570414
 21
344.130168
 31
0.0
  0
LINE
  5
C9
330
7B
100
AcDbEntity
  8
0
  6
Continuous
 62
     0
370
    30
100
AcDbLine
 10
201.063726
 20
371.56407
 30
0.0
 11
197.671474
 21
371.731189
 31
0.0
  0
LINE
  5
CA
330
7B
100
AcDbEntity
  8
0
  6
Continuous
 62
     0
370
    30
100
AcDbLine
 10
192.517857
 20
371.77267
 30
0.0
 11
201.063726
 21
371.56407
 31
0.0
  0
LINE
  5
CB
330
7B
100
AcDbEntity
  8
0
  6
Continuous
 62
     0
370
    30
100
AcDbLine
 10
201.065434
 20
371.613515
 30
0.0
 11
217.093784
 21
371.059939
 31
0.0
  0
ARC
  5
CC
330
7B
100
AcDbEntity
  8
0
  6
Continuous
 62
     0
370
    30
100
AcDbCircle
 10
191.522899
 20
409.130613
 30
0.0
 40
64.3283406680192
100
AcDbArc
 50
249.833572
 51
269.637038
  0
ARC
  5
CD
330
7B
100
AcDbEntity
  8
0
  6
Continuous
 62
     0
370
    30
100
AcDbCircle
 10
192.195058
 20
309.091868
 30
0.0
 40
62.6816721840583
100
AcDbArc
 50
89.703418
 51
110.956635
  0
LWPOLYLINE
  5
CE
330
7B
100
AcDbEntity
  8
0
  6
Continuous
 62
     0
370
    30
100
AcDbPolyline
 90
       25
 70
     0
 43
0.0
 10
169.882538
 20
367.670593
 10
169.284622
 20
367.60434
 10
168.664352
 20
367.535309
 10
168.022736
 20
367.463745
 10
167.360718
 20
367.389893
 10
166.678757
 20
367.313995
 10
165.972214
 20
367.23645
 10
165.233887
 20
367.157684
 10
164.456619
 20
367.078125
 10
163.638214
 20
366.998169
 10
162.782486
 20
366.918091
 10
161.893631
 20
366.838196
 10
160.974838
 20
366.758728
 10
160.026443
 20
366.680023
 10
159.048599
 20
366.602356
 10
158.043015
 20
366.526001
 10
157.0121
 20
366.451294
 10
155.959366
 20
366.378357
 10
154.886826
 20
366.307434
 10
153.752594
 20
366.240082
 10
152.554749
 20
366.176788
 10
151.323318
 20
366.116425
 10
150.061218
 20
366.05957
 10
148.739609
 20
366.009796
 10
147.361298
 20
365.958252
  0
LWPOLYLINE
  5
CF
330
7B
100
AcDbEntity
  8
0
  6
Continuous
 62
     0
370
    30
100
AcDbPolyline
 90
       42
 70
     0
 43
0.0
 10
75.951187
 20
359.746185
 10
75.991943
 20
361.095856
 10
76.043762
 20
362.444916
 10
76.10656
 20
363.790924
 10
76.180229
 20
365.131409
 10
76.264671
 20
366.463959
 10
76.359756
 20
367.786407
 10
76.465309
 20
369.09671
 10
76.581161
 20
370.393005
 10
76.70713
 20
371.673309
 10
76.843056
 20
372.935669
 10
76.988754
 20
374.178131
 10
77.14402
 20
375.398895
 10
77.308601
 20
376.596161
 10
77.482239
 20
377.76825
 10
77.66468
 20
378.913391
 10
77.855667
 20
380.029877
 10
78.054939
 20
381.115997
 10
78.262253
 20
382.170013
 10
78.477348
 20
383.190216
 10
78.699905
 20
384.175232
 10
78.929619
 20
385.12384
 10
79.166168
 20
386.03476
 10
79.409233
 20
386.906738
 10
79.658524
 20
387.738617
 10
79.913971
 20
388.529419
 10
80.175598
 20
389.278412
 10
80.443436
 20
389.984802
 10
80.717514
 20
390.647797
 10
80.997856
 20
391.266632
 10
81.284592
 20
391.840942
 10
81.578049
 20
392.371429
 10
81.878601
 20
392.858856
 10
82.186981
 20
393.303741
 10
82.50676
 20
393.704651
 10
82.842827
 20
394.059204
 10
83.200096
 20
394.36496
 10
83.583458
 20
394.619568
 10
83.994461
 20
394.818909
 10
84.426292
 20
394.954529
 10
84.870811
 20
395.017365
 10
85.320984
 20
394.99823
  0
LWPOLYLINE
  5
D0
330
7B
100
AcDbEntity
  8
0
  6
Continuous
 62
     0
370
    30
100
AcDbPolyline
 90
       42
 70
     0
 43
0.0
 10
83.273109
 20
325.058594
 10
82.831161
 20
325.064636
 10
82.397217
 20
325.149017
 10
81.980286
 20
325.302704
 10
81.589371
 20
325.516632
 10
81.229301
 20
325.783539
 10
80.896301
 20
326.09967
 10
80.58548
 20
326.461731
 10
80.291969
 20
326.866425
 10
80.011536
 20
327.311188
 10
79.74247
 20
327.796448
 10
79.483688
 20
328.323273
 10
79.234215
 20
328.892548
 10
78.993607
 20
329.504059
 10
78.761589
 20
330.15741
 10
78.537872
 20
330.852081
 10
78.322189
 20
331.587646
 10
78.114487
 20
332.363342
 10
77.914955
 20
333.178345
 10
77.723755
 20
334.031738
 10
77.541061
 20
334.922607
 10
77.367065
 20
335.850006
 10
77.201935
 20
336.812592
 10
77.045845
 20
337.80896
 10
76.898979
 20
338.837616
 10
76.76152
 20
339.897095
 10
76.633636
 20
340.985992
 10
76.515511
 20
342.102783
 10
76.407326
 20
343.246033
 10
76.309219
 20
344.414215
 10
76.221306
 20
345.605499
 10
76.143661
 20
346.818176
 10
76.076401
 20
348.050446
 10
76.019615
 20
349.300598
 10
75.973396
 20
350.566772
 10
75.937843
 20
351.84729
 10
75.913055
 20
353.14032
 10
75.89904
 20
354.443817
 10
75.895798
 20
355.755432
 10
75.90329
 20
357.072937
 10
75.921501
 20
358.394012
 10
75.951187
 20
359.746185
  0
LWPOLYLINE
  5
D1
330
7B
100
AcDbEntity
  8
0
  6
Continuous
 62
     0
370
    30
100
AcDbPolyline
 90
       20
 70
     0
 43
0.0
 10
85.294418
 20
395.001648
 10
86.779976
 20
394.796204
 10
88.260178
 20
394.549469
 10
89.732834
 20
394.25
 10
91.1922
 20
393.888306
 10
92.633347
 20
393.460083
 10
94.052582
 20
392.964478
 10
95.44735
 20
392.4039
 10
96.81414
 20
391.778595
 10
98.149498
 20
391.088928
 10
99.450829
 20
390.336884
 10
100.715805
 20
389.524902
 10
101.942055
 20
388.655426
 10
103.127129
 20
387.730591
 10
104.268585
 20
386.752655
 10
105.364304
 20
385.723907
 10
106.413177
 20
384.646973
 10
107.414497
 20
383.524994
 10
108.369141
 20
382.365387
 10
109.329689
 20
381.106903
  0
LWPOLYLINE
  5
D2
330
7B
100
AcDbEntity
  8
0
  6
Continuous
 62
     0
370
    30
100
AcDbPolyline
 90
       20
 70
     0
 43
0.0
 10
83.246384
 20
325.056702
 10
84.741432
 20
325.174896
 10
86.233536
 20
325.334595
 10
87.721191
 20
325.547394
 10
89.199226
 20
325.82309
 10
90.662964
 20
326.16626
 10
92.108772
 20
326.577972
 10
93.533958
 20
327.056
 10
94.935005
 20
327.60025
 10
96.308434
 20
328.210602
 10
97.651535
 20
328.885223
 10
98.961861
 20
329.621796
 10
100.236885
 20
330.41806
 10
101.474045
 20
331.271942
 10
102.670776
 20
332.181427
 10
103.824806
 20
333.144318
 10
104.934898
 20
334.158051
 10
106.000153
 20
335.219513
 10
107.021011
 20
336.321289
 10
108.053543
 20
337.521423
  0
LWPOLYLINE
  5
D3
330
7B
100
AcDbEntity
  8
0
  6
Continuous
 62
     0
370
    30
100
AcDbPolyline
 90
       69
 70
     0
 43
0.0
 10
108.103737
 20
337.579773
 10
108.36618
 20
337.913422
 10
108.624222
 20
338.250549
 10
108.87735
 20
338.59079
 10
109.125069
 20
338.933685
 10
109.367065
 20
339.279205
 10
109.603462
 20
339.627625
 10
109.834435
 20
339.979401
 10
110.06015
 20
340.33493
 10
110.281189
 20
340.694611
 10
110.498718
 20
341.058289
 10
110.708511
 20
341.415375
 10
110.892555
 20
341.728638
 10
111.042633
 20
341.980286
 10
111.168938
 20
342.185089
 10
111.307396
 20
342.400635
 10
111.481339
 20
342.664032
 10
111.680634
 20
342.959473
 10
111.880875
 20
343.250458
 10
112.064148
 20
343.509888
 10
112.230492
 20
343.736603
 10
112.390572
 20
343.944305
 10
112.556046
 20
344.14798
 10
112.734634
 20
344.355957
 10
112.931587
 20
344.572235
 10
113.152107
 20
344.800751
 10
113.398628
 20
345.043365
 10
113.667084
 20
345.297058
 10
113.952484
 20
345.558075
 10
114.250061
 20
345.822876
 10
114.556168
 20
346.088928
 10
114.867424
 20
346.354004
 10
115.18074
 20
346.615967
 10
115.495689
 20
346.874084
 10
115.813309
 20
347.128448
 10
116.134331
 20
347.378906
 10
116.459015
 20
347.625183
 10
116.787537
 20
347.866913
 10
117.119995
 20
348.10376
 10
117.456444
 20
348.335419
 10
117.796921
 20
348.561584
 10
118.141487
 20
348.781891
 10
118.490181
 20
348.996063
 10
118.843063
 20
349.203735
 10
119.200188
 20
349.404633
 10
119.561592
 20
349.598419
 10
119.92733
 20
349.78479
 10
120.297447
 20
349.963379
 10
120.672012
 20
350.133881
 10
121.050964
 20
350.296051
 10
121.434044
 20
350.449646
 10
121.820946
 20
350.594482
 10
122.211357
 20
350.730377
 10
122.604988
 20
350.857178
 10
123.001602
 20
350.974823
 10
123.400986
 20
351.083252
 10
123.802925
 20
351.182434
 10
124.207115
 20
351.272369
 10
124.612
 20
351.352966
 10
125.015137
 20
351.424103
 10
125.414055
 20
351.485718
 10
125.806107
 20
351.537689
 10
126.182465
 20
351.579956
 10
126.526749
 20
351.612396
 10
126.823158
 20
351.635437
 10
127.058411
 20
351.650513
 10
127.219765
 20
351.659363
 10
127.305595
 20
351.663574
 10
127.330803
 20
351.664581
  0
LWPOLYLINE
  5
D4
330
7B
100
AcDbEntity
  8
0
  6
Continuous
 62
     0
370
    30
100
AcDbPolyline
 90
       66
 70
     0
 43
0.0
 10
109.378052
 20
381.043518
 10
109.631203
 20
380.679016
 10
109.879303
 20
380.311066
 10
110.121826
 20
379.940125
 10
110.358253
 20
379.566589
 10
110.588303
 20
379.190613
 10
110.812035
 20
378.811981
 10
111.029533
 20
378.430481
 10
111.240967
 20
378.045776
 10
111.448135
 20
377.65564
 10
111.65239
 20
377.260315
 10
111.841156
 20
376.891113
 10
112.000648
 20
376.581696
 10
112.129341
 20
376.338501
 10
112.251595
 20
376.117737
 10
112.40255
 20
375.855072
 10
112.586624
 20
375.543182
 10
112.779541
 20
375.223816
 10
112.959206
 20
374.934601
 10
113.124924
 20
374.677216
 10
113.280891
 20
374.445831
 10
113.437729
 20
374.227142
 10
113.608055
 20
374.005585
 10
113.802132
 20
373.768555
 10
114.021011
 20
373.515137
 10
114.263466
 20
373.247345
 10
114.528305
 20
372.967194
 10
114.813995
 20
372.676849
 10
115.114578
 20
372.380524
 10
115.422401
 20
372.083313
 10
115.734169
 20
371.788147
 10
116.049088
 20
371.496246
 10
116.36747
 20
371.207947
 10
116.689636
 20
370.923615
 10
117.015923
 20
370.643616
 10
117.346611
 20
370.368225
 10
117.682007
 20
370.097809
 10
118.022408
 20
369.832703
 10
118.36805
 20
369.573212
 10
118.71907
 20
369.319763
 10
119.075569
 20
369.072754
 10
119.437622
 20
368.832581
 10
119.805344
 20
368.59967
 10
120.17881
 20
368.37439
 10
120.558128
 20
368.157196
 10
120.94339
 20
367.948456
 10
121.33461
 20
367.748535
 10
121.731537
 20
367.5578
 10
122.133873
 20
367.376465
 10
122.541313
 20
367.204895
 10
122.953552
 20
367.043304
 10
123.370285
 20
366.892059
 10
123.791054
 20
366.751343
 10
124.214813
 20
366.62149
 10
124.640396
 20
366.502625
 10
125.066643
 20
366.39502
 10
125.492188
 20
366.298859
 10
125.914047
 20
366.213928
 10
126.328506
 20
366.139923
 10
126.73188
 20
366.076508
 10
127.120438
 20
366.023376
 10
127.49054
 20
365.980164
 10
127.839684
 20
365.946106
 10
128.166626
 20
365.920013
 10
128.470184
 20
365.900665
 10
128.750641
 20
365.88678
  0
ENDBLK
  5
D6
330
7B
100
AcDbEntity
  8
0
100
AcDbBlockEnd
  0
BLOCK
  5
126
330
D8
100
AcDbEntity
  8
0
100
AcDbBlockBegin
  2
b
 70
     0
 10
44.73317
 20
77.957184
 30
0.0
  3
b
  1

  0
ARC
  5
D9
330
D8
100
AcDbEntity
  8
0
  6
Continuous
 62
     0
370
     0
100
AcDbCircle
 10
-576.942529
 20
59.188157
 30
0.0
 40
700.3402677135664
100
AcDbArc
 50
10.80388
 51
13.121408
  0
LWPOLYLINE
  5
DA
330
D8
100
AcDbEntity
  8
0
  6
Continuous
 62
     0
370
     0
100
AcDbPolyline
 90
       26
 70
     0
 43
0.0
 10
110.983902
 20
190.465424
 10
111.50016
 20
191.113571
 10
111.984085
 20
191.769745
 10
112.43087
 20
192.433899
 10
112.848457
 20
193.103622
 10
113.273582
 20
193.77179
 10
113.738457
 20
194.431732
 10
114.238838
 20
195.083252
 10
114.79361
 20
195.71907
 10
115.421082
 20
196.329391
 10
116.110527
 20
196.91423
 10
116.837029
 20
197.480835
 10
117.586899
 20
198.033966
 10
118.360825
 20
198.57254
 10
119.16127
 20
199.093857
 10
119.989746
 20
199.595123
 10
120.84684
 20
200.073608
 10
121.732246
 20
200.526672
 10
122.644821
 20
200.952072
 10
123.582664
 20
201.348022
 10
124.543205
 20
201.713348
 10
125.523407
 20
202.047623
 10
126.520042
 20
202.351074
 10
127.530037
 20
202.62442
 10
128.550308
 20
202.869125
 10
129.587219
 20
203.093643
  0
LINE
  5
DB
330
D8
100
AcDbEntity
  8
0
  6
Continuous
 62
     0
370
    30
100
AcDbLine
 10
129.587226
 20
203.093641
 30
0.0
 11
127.065867
 21
214.947942
 31
0.0
  0
LWPOLYLINE
  5
DC
330
D8
100
AcDbEntity
  8
0
  6
Continuous
 62
     0
370
     0
100
AcDbPolyline
 90
       26
 70
     0
 43
0.0
 10
127.065865
 20
214.947937
 10
126.036674
 20
214.736084
 10
125.004158
 20
214.548004
 10
123.969147
 20
214.391205
 10
122.933861
 20
214.268234
 10
121.900818
 20
214.181015
 10
120.872864
 20
214.131088
 10
119.852974
 20
214.119232
 10
118.843964
 20
214.145432
 10
117.848328
 20
214.208771
 10
116.86805
 20
214.307571
 10
115.904495
 20
214.439484
 10
114.958275
 20
214.601685
 10
114.029182
 20
214.790909
 10
113.116066
 20
215.003601
 10
112.218742
 20
215.238388
 10
111.347603
 20
215.505203
 10
110.522438
 20
215.821014
 10
109.753189
 20
216.190384
 10
109.027351
 20
216.596756
 10
108.330513
 20
217.025375
 10
107.666687
 20
217.477783
 10
107.009476
 20
217.934723
 10
106.328102
 20
218.374298
 10
105.616165
 20
218.790863
 10
104.872299
 20
219.18927
  0
LINE
  5
DD
330
D8
100
AcDbEntity
  8
0
  6
Continuous
 62
     0
370
     0
100
AcDbLine
 10
104.872297
 20
219.189266
 30
0.0
 11
105.112705
 21
218.176044
 31
0.0
  0
LWPOLYLINE
  5
DE
330
D8
100
AcDbEntity
  8
0
  6
Continuous
 62
     0
370
     0
100
AcDbPolyline
 90
       24
 70
     0
 43
0.0
 10
103.401779
 20
221.868652
 10
103.268669
 20
222.643341
 10
103.150253
 20
223.35498
 10
103.046951
 20
224.001083
 10
102.959114
 20
224.579407
 10
102.887047
 20
225.087921
 10
102.831001
 20
225.524887
 10
102.791176
 20
225.888763
 10
102.767708
 20
226.178299
 10
102.760674
 20
226.392471
 10
102.770111
 20
226.530533
 10
102.795975
 20
226.59201
 10
102.838173
 20
226.576706
 10
102.896568
 20
226.484634
 10
102.970955
 20
226.316147
 10
103.061073
 20
226.071823
 10
103.166611
 20
225.752518
 10
103.287193
 20
225.359329
 10
103.422409
 20
224.893631
 10
103.571785
 20
224.35704
 10
103.734795
 20
223.751434
 10
103.910881
 20
223.078918
 10
104.099434
 20
222.341843
 10
104.301697
 20
221.535034
  0
LWPOLYLINE
  5
DF
330
D8
100
AcDbEntity
  8
0
  6
Continuous
 62
     0
370
     0
100
AcDbPolyline
 90
       27
 70
     0
 43
0.0
 10
104.301697
 20
221.535034
 10
105.031609
 20
221.073196
 10
105.738068
 20
220.589783
 10
106.417061
 20
220.082825
 10
107.072113
 20
219.556427
 10
107.727409
 20
219.030121
 10
108.410927
 20
218.526657
 10
109.121147
 20
218.046051
 10
109.865196
 20
217.59729
 10
110.658119
 20
217.200531
 10
111.497475
 20
216.858948
 10
112.366951
 20
216.557892
 10
113.252701
 20
216.282562
 10
114.151939
 20
216.030243
 10
115.065788
 20
215.804352
 10
115.994774
 20
215.608337
 10
116.93866
 20
215.445404
 10
117.896538
 20
215.318283
 10
118.866898
 20
215.229202
 10
119.847778
 20
215.179733
 10
120.836838
 20
215.170624
 10
121.83149
 20
215.201797
 10
122.829124
 20
215.272369
 10
123.827286
 20
215.380753
 10
124.823814
 20
215.52504
 10
125.816841
 20
215.702515
 10
126.83181
 20
215.910721
  0
LINE
  5
E0
330
D8
100
AcDbEntity
  8
0
  6
Continuous
 62
     0
370
     0
100
AcDbLine
 10
104.575355
 20
220.41001
 30
0.0
 11
103.551411
 21
221.020766
 31
0.0
  0
LINE
  5
E1
330
D8
100
AcDbEntity
  8
0
  6
Continuous
 62
     0
370
     0
100
AcDbLine
 10
127.06586
 20
214.947938
 30
0.0
 11
126.831816
 21
215.910723
 31
0.0
  0
LINE
  5
E2
330
D8
100
AcDbEntity
  8
0
  6
Continuous
 62
     0
370
     0
100
AcDbLine
 10
104.301697
 20
221.535033
 30
0.0
 11
104.872297
 21
219.189266
 31
0.0
  0
LWPOLYLINE
  5
E3
330
D8
100
AcDbEntity
  8
0
  6
Continuous
 62
     0
370
     0
100
AcDbPolyline
 90
       24
 70
     0
 43
0.0
 10
111.57933
 20
187.186356
 10
111.71244
 20
186.411652
 10
111.830856
 20
185.699997
 10
111.934166
 20
185.053894
 10
112.022011
 20
184.475555
 10
112.094078
 20
183.967026
 10
112.150124
 20
183.530045
 10
112.189949
 20
183.166153
 10
112.213425
 20
182.876617
 10
112.220451
 20
182.662445
 10
112.211021
 20
182.524368
 10
112.185158
 20
182.462875
 10
112.14296
 20
182.478195
 10
112.084564
 20
182.570251
 10
112.010178
 20
182.738724
 10
111.920059
 20
182.983047
 10
111.814522
 20
183.302368
 10
111.693939
 20
183.695557
 10
111.558723
 20
184.161255
 10
111.409348
 20
184.697845
 10
111.246338
 20
185.303452
 10
111.070244
 20
185.975967
 10
110.881699
 20
186.713058
 10
110.679436
 20
187.519852
  0
LINE
  5
E4
330
D8
100
AcDbEntity
  8
0
  6
Continuous
 62
     0
370
     0
100
AcDbLine
 10
129.007861
 20
201.822351
 30
0.0
 11
129.453277
 21
201.91785
 31
0.0
  0
LINE
  5
E5
330
D8
100
AcDbEntity
  8
0
  6
Continuous
 62
     0
370
     0
100
AcDbLine
 10
110.679433
 20
187.519859
 30
0.0
 11
111.347142
 21
188.484466
 31
0.0
  0
LWPOLYLINE
  5
E6
330
D8
100
AcDbEntity
  8
0
  6
Continuous
 62
     0
370
     0
100
AcDbPolyline
 90
       27
 70
     0
 43
0.0
 10
129.769241
 20
202.100281
 10
128.782654
 20
201.886292
 10
127.802559
 20
201.648453
 10
126.832558
 20
201.379623
 10
125.875458
 20
201.078094
 10
124.934006
 20
200.742981
 10
124.01107
 20
200.37384
 10
123.109436
 20
199.970871
 10
122.231491
 20
199.535004
 10
121.379097
 20
199.067841
 10
120.553444
 20
198.571518
 10
119.755028
 20
198.04863
 10
118.983597
 20
197.501984
 10
118.238121
 20
196.934479
 10
117.516731
 20
196.34903
 10
116.817017
 20
195.74826
 10
116.142273
 20
195.130997
 10
115.510811
 20
194.489594
 10
114.943687
 20
193.817307
 10
114.442612
 20
193.117569
 10
113.986038
 20
192.402374
 10
113.56295
 20
191.677246
 10
113.175385
 20
190.942612
 10
112.789261
 20
190.207489
 10
112.373901
 20
189.479858
 10
111.923882
 20
188.76207
 10
111.429718
 20
188.034134
  0
LINE
  5
E7
330
D8
100
AcDbEntity
  8
0
  6
Continuous
 62
     0
370
     0
100
AcDbLine
 10
111.429719
 20
188.034128
 30
0.0
 11
111.579332
 21
187.186349
 31
0.0
  0
LINE
  5
E8
330
D8
100
AcDbEntity
  8
0
  6
Continuous
 62
     0
370
     0
100
AcDbLine
 10
129.769247
 20
202.100274
 30
0.0
 11
129.587284
 21
203.093403
 31
0.0
  0
LINE
  5
E9
330
D8
100
AcDbEntity
  8
0
  6
Continuous
 62
     0
370
     0
100
AcDbLine
 10
110.983899
 20
190.465423
 30
0.0
 11
111.429719
 21
188.034128
 31
0.0
  0
ELLIPSE
  5
EA
330
D8
100
AcDbEntity
  8
0
  6
Continuous
 62
     0
370
     0
100
AcDbEllipse
 10
84.12954
 20
199.565194
 30
0.0
 11
-7.271109208153527
 21
34.23030630242425
 31
0.0
210
0.0
220
0.0
230
-1.0
 40
0.02863
 41
6.273878908905019
 42
6.910930223035212
  0
ELLIPSE
  5
EB
330
D8
100
AcDbEntity
  8
0
  6
Continuous
 62
     0
370
     0
100
AcDbEllipse
 10
84.12954
 20
199.565194
 30
0.0
 11
-7.271109208153527
 21
34.23030630242425
 31
0.0
210
0.0
220
0.0
230
-1.0
 40
0.02863
 41
0.6277449158556263
 42
0.9248522136394791
  0
ELLIPSE
  5
EC
330
D8
100
AcDbEntity
  8
0
  6
Continuous
 62
     0
370
     0
100
AcDbEllipse
 10
84.12954
 20
199.565194
 30
0.0
 11
-7.271109208153527
 21
34.23030630242425
 31
0.0
210
0.0
220
0.0
230
-1.0
 40
0.02863
 41
0.9248522136394791
 42
1.561489928518863
  0
ELLIPSE
  5
ED
330
D8
100
AcDbEntity
  8
0
  6
Continuous
 62
     0
370
     0
100
AcDbEllipse
 10
84.12954
 20
199.565194
 30
0.0
 11
-7.271109208153527
 21
34.23030630242425
 31
0.0
210
0.0
220
0.0
230
-1.0
 40
0.02863
 41
1.561489928518863
 42
2.19853809798279
  0
ELLIPSE
  5
EE
330
D8
100
AcDbEntity
  8
0
  6
Continuous
 62
     0
370
     0
100
AcDbEllipse
 10
84.12954
 20
199.565194
 30
0.0
 11
-7.271109208153527
 21
34.23030630242425
 31
0.0
210
0.0
220
0.0
230
-1.0
 40
0.02863
 41
2.19853809798279
 42
2.495645001508466
  0
ELLIPSE
  5
EF
330
D8
100
AcDbEntity
  8
0
  6
Continuous
 62
     0
370
     0
100
AcDbEllipse
 10
84.12954
 20
199.565194
 30
0.0
 11
-7.271109208153527
 21
34.23030630242425
 31
0.0
210
0.0
220
0.0
230
-1.0
 40
0.02863
 41
2.495645001508466
 42
3.132286247597414
  0
ELLIPSE
  5
F0
330
D8
100
AcDbEntity
  8
0
  6
Continuous
 62
     0
370
     0
100
AcDbEllipse
 10
83.046143
 20
199.335061
 30
0.0
 11
-7.064518119248514
 21
33.25793316805917
 31
0.0
210
0.0
220
0.0
230
-1.0
 40
0.02863
 41
3.132286319461477
 42
6.273878973051276
  0
ELLIPSE
  5
F1
330
D8
100
AcDbEntity
  8
0
  6
Continuous
 62
     0
370
     0
100
AcDbEllipse
 10
83.046143
 20
199.335061
 30
0.0
 11
-7.064518119248514
 21
33.25793316805917
 31
0.0
210
0.0
220
0.0
230
-1.0
 40
0.02863
 41
6.273878973051276
 42
9.415471626641065
  0
ELLIPSE
  5
F2
330
D8
100
AcDbEntity
  8
0
  6
Continuous
 62
     0
370
     0
100
AcDbEllipse
 10
83.046142
 20
199.335069
 30
0.0
 11
6.908690527016486
 21
-32.52433696790622
 31
0.0
210
0.0
220
0.0
230
1.0
 40
0.02863
 41
3.150898987718126
 42
6.292491641307921
  0
LWPOLYLINE
  5
F3
330
D8
100
AcDbEntity
  8
0
  6
Continuous
 62
     0
370
     0
100
AcDbPolyline
 90
       54
 70
     0
 43
0.0
 10
170.093307
 20
173.635605
 10
169.692307
 20
174.58313
 10
169.273926
 20
175.522949
 10
168.83992
 20
176.455704
 10
168.397751
 20
177.384537
 10
167.947464
 20
178.309402
 10
167.488815
 20
179.230087
 10
167.021774
 20
180.146484
 10
166.546295
 20
181.058487
 10
166.057938
 20
181.963547
 10
165.55014
 20
182.857803
 10
165.020798
 20
183.739594
 10
164.472366
 20
184.609619
 10
163.907455
 20
185.468964
 10
163.327515
 20
186.318237
 10
162.733612
 20
187.157791
 10
162.125626
 20
187.987198
 10
161.502457
 20
188.805267
 10
160.863388
 20
189.610992
 10
160.208954
 20
190.404327
 10
159.540573
 20
191.186005
 10
158.859695
 20
191.956848
 10
158.167511
 20
192.717606
 10
157.46521
 20
193.469086
 10
156.752502
 20
194.210754
 10
156.032303
 20
194.94519
 10
155.287033
 20
195.654282
 10
154.539078
 20
196.360611
 10
153.750946
 20
197.020508
 10
152.930115
 20
197.64093
 10
152.094498
 20
198.241364
 10
151.243561
 20
198.819992
 10
150.37674
 20
199.37468
 10
149.493607
 20
199.903122
 10
148.593765
 20
200.402695
 10
147.676712
 20
200.869919
 10
146.742081
 20
201.300827
 10
145.791046
 20
201.694534
 10
144.826385
 20
202.054047
 10
143.850723
 20
202.382828
 10
142.86525
 20
202.681122
 10
141.870316
 20
202.946243
 10
140.866165
 20
203.174118
 10
139.853333
 20
203.359756
 10
138.83284
 20
203.497223
 10
137.806488
 20
203.579391
 10
136.777344
 20
203.616898
 10
135.747543
 20
203.627167
 10
134.717804
 20
203.613022
 10
133.688736
 20
203.573853
 10
132.660919
 20
203.510132
 10
131.634338
 20
203.425201
 10
130.613907
 20
203.293411
 10
129.587082
 20
203.094284
  0
LINE
  5
F4
330
D8
100
AcDbEntity
  8
0
  6
Continuous
 62
     0
370
    30
100
AcDbLine
 10
184.80907
 20
182.131742
 30
0.0
 11
170.0933
 21
173.635611
 31
0.0
  0
LWPOLYLINE
  5
F5
330
D8
100
AcDbEntity
  8
0
  6
Continuous
 62
     0
370
     0
100
AcDbPolyline
 90
       52
 70
     0
 43
0.0
 10
127.066292
 20
214.945511
 10
128.430969
 20
215.188995
 10
129.802521
 20
215.390594
 10
131.178543
 20
215.5578
 10
132.558838
 20
215.686707
 10
133.942169
 20
215.778152
 10
135.327515
 20
215.830368
 10
136.713791
 20
215.84523
 10
138.099838
 20
215.817535
 10
139.483627
 20
215.738327
 10
140.862411
 20
215.600006
 10
142.234192
 20
215.403549
 10
143.598969
 20
215.161041
 10
144.957489
 20
214.884979
 10
146.309326
 20
214.577942
 10
147.653336
 20
214.238403
 10
148.988419
 20
213.865417
 10
150.313126
 20
213.457352
 10
151.61998
 20
212.995483
 10
152.903305
 20
212.471832
 10
154.159546
 20
211.886475
 10
155.384445
 20
211.238205
 10
156.574661
 20
210.528336
 10
157.725235
 20
209.755966
 10
158.848434
 20
208.944046
 10
159.961502
 20
208.118698
 10
161.059525
 20
207.273239
 10
162.144363
 20
206.410995
 10
163.214981
 20
205.531235
 10
164.274536
 20
204.638184
 10
165.301056
 20
203.707626
 10
166.319183
 20
202.767685
 10
167.314072
 20
201.803375
 10
168.296143
 20
200.825836
 10
169.274475
 20
199.844635
 10
170.245331
 20
198.856079
 10
171.207214
 20
197.858749
 10
172.16011
 20
196.852829
 10
173.102798
 20
195.837326
 10
174.036377
 20
194.813446
 10
174.962845
 20
193.783096
 10
175.883957
 20
192.74794
 10
176.800339
 20
191.708557
 10
177.711517
 20
190.664597
 10
178.616623
 20
189.615341
 10
179.514999
 20
188.560257
 10
180.407333
 20
187.500031
 10
181.297379
 20
186.43782
 10
182.183975
 20
185.372696
 10
183.063995
 20
184.302078
 10
183.935013
 20
183.224091
 10
184.809067
 20
182.131744
  0
LINE
  5
F6
330
D8
100
AcDbEntity
  8
0
  6
Continuous
 62
     0
370
    30
100
AcDbLine
 10
184.80907
 20
182.131742
 30
0.0
 11
185.650294
 21
182.617424
 31
0.0
  0
LWPOLYLINE
  5
F7
330
D8
100
AcDbEntity
  8
0
  6
Continuous
 62
     0
370
     0
100
AcDbPolyline
 90
       52
 70
     0
 43
0.0
 10
185.648636
 20
182.61647
 10
184.762024
 20
183.709885
 10
183.870041
 20
184.798889
 10
182.968796
 20
185.880173
 10
182.060715
 20
186.955688
 10
181.148987
 20
188.028076
 10
180.234741
 20
189.098282
 10
179.314331
 20
190.163116
 10
178.387024
 20
191.221939
 10
177.453568
 20
192.275314
 10
176.514801
 20
193.323929
 10
175.571259
 20
194.36821
 10
174.622299
 20
195.407562
 10
173.666229
 20
196.440369
 10
172.701111
 20
197.464706
 10
171.725815
 20
198.479355
 10
170.741592
 20
199.485352
 10
169.748398
 20
200.482452
 10
168.74765
 20
201.472
 10
167.743744
 20
202.45842
 10
166.727127
 20
203.43158
 10
165.687378
 20
204.380173
 10
164.640182
 20
205.320358
 10
163.559723
 20
206.222366
 10
162.46788
 20
207.11058
 10
161.362335
 20
207.98175
 10
160.243805
 20
208.836227
 10
159.10997
 20
209.670105
 10
157.966904
 20
210.491684
 10
156.798126
 20
211.275986
 10
155.589722
 20
211.997849
 10
154.346786
 20
212.658554
 10
153.072495
 20
213.256714
 10
151.770859
 20
213.792892
 10
150.445465
 20
214.267487
 10
149.102173
 20
214.689072
 10
147.748138
 20
215.074966
 10
146.384598
 20
215.425995
 10
145.012833
 20
215.743637
 10
143.63443
 20
216.031052
 10
142.249603
 20
216.285019
 10
140.85762
 20
216.49379
 10
139.458328
 20
216.644943
 10
138.053528
 20
216.736191
 10
136.646011
 20
216.774353
 10
135.23793
 20
216.768494
 10
133.830551
 20
216.724152
 10
132.424988
 20
216.63974
 10
131.022354
 20
216.516479
 10
129.623962
 20
216.353424
 10
128.230057
 20
216.15451
 10
126.83194
 20
215.910004
  0
LWPOLYLINE
  5
F8
330
D8
100
AcDbEntity
  8
0
  6
Continuous
 62
     0
370
     0
100
AcDbPolyline
 90
       53
 70
     0
 43
0.0
 10
129.768539
 20
202.103424
 10
130.778229
 20
202.301331
 10
131.797821
 20
202.436356
 10
132.823563
 20
202.525436
 10
133.850723
 20
202.593124
 10
134.879211
 20
202.63649
 10
135.908463
 20
202.655106
 10
136.937881
 20
202.649277
 10
137.966751
 20
202.615845
 10
138.992844
 20
202.535873
 10
140.013062
 20
202.399551
 10
141.025558
 20
202.214401
 10
142.029205
 20
201.986237
 10
143.023407
 20
201.720078
 10
144.007874
 20
201.420029
 10
144.982178
 20
201.088547
 10
145.944702
 20
200.72467
 10
146.892395
 20
200.32428
 10
147.822464
 20
199.88472
 10
148.7341
 20
199.407959
 10
149.627792
 20
198.898422
 10
150.503937
 20
198.359436
 10
151.362961
 20
197.793655
 10
152.205322
 20
197.203491
 10
153.031601
 20
196.59111
 10
153.842453
 20
195.958557
 10
154.59845
 20
195.262543
 10
155.340134
 20
194.5504
 10
156.066025
 20
193.822342
 10
156.774353
 20
193.077164
 10
157.473114
 20
192.323059
 10
158.161179
 20
191.559235
 10
158.83783
 20
190.785355
 10
159.501709
 20
190.000519
 10
160.151459
 20
189.203979
 10
160.785431
 20
188.394897
 10
161.402649
 20
187.572968
 10
162.00351
 20
186.739029
 10
162.589279
 20
185.894394
 10
163.160507
 20
185.039871
 10
163.716354
 20
184.175247
 10
164.255402
 20
183.299988
 10
164.775192
 20
182.413132
 10
165.273026
 20
181.51384
 10
165.750076
 20
180.603348
 10
166.21286
 20
179.68541
 10
166.666824
 20
178.763016
 10
167.112473
 20
177.836502
 10
167.549744
 20
176.905945
 10
167.978989
 20
175.971603
 10
168.400284
 20
175.033554
 10
168.806549
 20
174.088943
 10
169.201599
 20
173.120789
  0
LINE
  5
F9
330
D8
100
AcDbEntity
  8
0
  6
Continuous
 62
     0
370
    30
100
AcDbLine
 10
169.201596
 20
173.12079
 30
0.0
 11
170.0933
 21
173.635611
 31
0.0
  0
LWPOLYLINE
  5
FA
330
D8
100
AcDbEntity
  8
0
  6
Continuous
 62
     0
370
    30
100
AcDbPolyline
 90
      103
 70
     0
 43
0.0
 10
140.950943
 20
201.970413
 10
141.351395
 20
201.879471
 10
141.750336
 20
201.782166
 10
142.147751
 20
201.678848
 10
142.54361
 20
201.569794
 10
142.937912
 20
201.455231
 10
143.330627
 20
201.335403
 10
143.721741
 20
201.21048
 10
144.111221
 20
201.080582
 10
144.499008
 20
200.945724
 10
144.884979
 20
200.805801
 10
145.268967
 20
200.660583
 10
145.650772
 20
200.509781
 10
146.030151
 20
200.353104
 10
146.406921
 20
200.190262
 10
146.780869
 20
200.021118
 10
147.151917
 20
199.845657
 10
147.519974
 20
199.664001
 10
147.885071
 20
199.476395
 10
148.247238
 20
199.283173
 10
148.606506
 20
199.084625
 10
148.962936
 20
198.881012
 10
149.316544
 20
198.672531
 10
149.667328
 20
198.459351
 10
150.015335
 20
198.241669
 10
150.36058
 20
198.019653
 10
150.703094
 20
197.793442
 10
151.042908
 20
197.563202
 10
151.380066
 20
197.329071
 10
151.714584
 20
197.091217
 10
152.046524
 20
196.849762
 10
152.375916
 20
196.604843
 10
152.702759
 20
196.356537
 10
153.02713
 20
196.105026
 10
153.348938
 20
195.85025
 10
153.668289
 20
195.592392
 10
153.964188
 20
195.307861
 10
154.259048
 20
195.022202
 10
154.553955
 20
194.736618
 10
154.849258
 20
194.451477
 10
155.144241
 20
194.16597
 10
155.434036
 20
193.875214
 10
155.717941
 20
193.57869
 10
156.000183
 20
193.280563
 10
156.281982
 20
192.982025
 10
156.562119
 20
192.681946
 10
156.840378
 20
192.380096
 10
157.116882
 20
192.07666
 10
157.391724
 20
191.771698
 10
157.664856
 20
191.465225
 10
157.936234
 20
191.157181
 10
158.205704
 20
190.847488
 10
158.473221
 20
190.536072
 10
158.738693
 20
190.222916
 10
159.002029
 20
189.907959
 10
159.263168
 20
189.591156
 10
159.521973
 20
189.272461
 10
159.778366
 20
188.951797
 10
160.032242
 20
188.62912
 10
160.283478
 20
188.304398
 10
160.532028
 20
187.9776
 10
160.777893
 20
187.648758
 10
161.021072
 20
187.317917
 10
161.261642
 20
186.985168
 10
161.499695
 20
186.650589
 10
161.735306
 20
186.31427
 10
161.968567
 20
185.976303
 10
162.199509
 20
185.636734
 10
162.428162
 20
185.295624
 10
162.65448
 20
184.952927
 10
162.878387
 20
184.608643
 10
163.099792
 20
184.262726
 10
163.318619
 20
183.915161
 10
163.534775
 20
183.565903
 10
163.748138
 20
183.214905
 10
163.958527
 20
182.862091
 10
164.165756
 20
182.507401
 10
164.369583
 20
182.150726
 10
164.56987
 20
181.792053
 10
164.766541
 20
181.431396
 10
164.959717
 20
181.068832
 10
165.149704
 20
180.704575
 10
165.336945
 20
180.338867
 10
165.521957
 20
179.972015
 10
165.705231
 20
179.604263
 10
165.8871
 20
179.235794
 10
166.067688
 20
178.866684
 10
166.247009
 20
178.496948
 10
166.425003
 20
178.126556
 10
166.601639
 20
177.755508
 10
166.776932
 20
177.383789
 10
166.950928
 20
177.011459
 10
167.123627
 20
176.638519
 10
167.29509
 20
176.264984
 10
167.465271
 20
175.890854
 10
167.634186
 20
175.516144
 10
167.801926
 20
175.140884
 10
167.968262
 20
174.764984
 10
168.132248
 20
174.388062
 10
168.292725
 20
174.009628
 10
168.449524
 20
173.629639
 10
168.603836
 20
173.248581
 10
168.758408
 20
172.864899
  0
LINE
  5
FB
330
D8
100
AcDbEntity
  8
0
  6
Continuous
 62
     0
370
     0
100
AcDbLine
 10
168.758385
 20
172.864957
 30
0.0
 11
169.201596
 21
173.12079
 31
0.0
  0
ARC
  5
FC
330
D8
100
AcDbEntity
  8
0
  6
Continuous
 62
     0
370
     0
100
AcDbCircle
 10
-56.943398
 20
-8.359093
 30
0.0
 40
307.7821468262647
100
AcDbArc
 50
28.900425
 51
38.23668
  0
LWPOLYLINE
  5
FD
330
D8
100
AcDbEntity
  8
0
  6
Continuous
 62
     0
370
     0
100
AcDbPolyline
 90
        9
 70
     0
 43
0.0
 10
214.187347
 20
141.358261
 10
214.164322
 20
141.344971
 10
214.076019
 20
141.293976
 10
213.925781
 20
141.207245
 10
213.71936
 20
141.088058
 10
213.464661
 20
140.94101
 10
213.171402
 20
140.771698
 10
212.8508
 20
140.586594
 10
212.507843
 20
140.388596
  0
LINE
  5
FE
330
D8
100
AcDbEntity
  8
0
  6
Continuous
 62
     0
370
     0
100
AcDbLine
 10
190.815093
 20
127.864316
 30
0.0
 11
192.598156
 21
128.893759
 31
0.0
  0
ARC
  5
FF
330
D8
100
AcDbEntity
  8
0
  6
Continuous
 62
     0
370
     0
100
AcDbCircle
 10
469.914759
 20
296.427447
 30
0.0
 40
323.9938806417944
100
AcDbArc
 50
202.271594
 51
211.137192
  0
ARC
  5
100
330
D8
100
AcDbEntity
  8
0
  6
Continuous
 62
     0
370
     0
100
AcDbCircle
 10
515.976712
 20
310.907394
 30
0.0
 40
373.1418589819005
100
AcDbArc
 50
203.459585
 51
209.376445
  0
LINE
  5
101
330
D8
100
AcDbEntity
  8
0
  6
Continuous
 62
     0
370
     0
100
AcDbLine
 10
169.200029
 20
173.119873
 30
0.0
 11
171.716297
 21
166.959816
 31
0.0
  0
ARC
  5
102
330
D8
100
AcDbEntity
  8
0
  6
Continuous
 62
     0
370
     0
100
AcDbCircle
 10
495.357387
 20
299.67808
 30
0.0
 40
350.3531174313547
100
AcDbArc
 50
201.220353
 51
209.431514
  0
ARC
  5
103
330
D8
100
AcDbEntity
  8
0
  6
Continuous
 62
     0
370
     0
100
AcDbCircle
 10
470.876292
 20
297.27241
 30
0.0
 40
325.2538837794441
100
AcDbArc
 50
211.17701
 51
219.958021
  0
LINE
  5
104
330
D8
100
AcDbEntity
  8
0
  6
Continuous
 62
     0
370
     0
100
AcDbLine
 10
221.564285
 20
88.38581
 30
0.0
 11
232.953152
 21
94.961157
 31
0.0
  0
ARC
  5
105
330
D8
100
AcDbEntity
  8
0
  6
Continuous
 62
     0
370
     0
100
AcDbCircle
 10
-58.162238
 20
-8.745147
 30
0.0
 40
309.0358678450229
100
AcDbArc
 50
19.607831
 51
28.853875
  0
ARC
  5
106
330
D8
100
AcDbEntity
  8
0
  6
Continuous
 62
     0
370
     0
100
AcDbCircle
 10
514.190848
 20
310.024772
 30
0.0
 40
371.1526784431741
100
AcDbArc
 50
209.39295
 51
217.062145
  0
LINE
  5
107
330
D8
100
AcDbEntity
  8
0
  6
Continuous
 62
     0
370
     0
100
AcDbLine
 10
218.017551
 20
86.338186
 30
0.0
 11
221.564249
 21
88.385854
 31
0.0
  0
ARC
  5
108
330
D8
100
AcDbEntity
  8
0
  6
Continuous
 62
     0
370
     0
100
AcDbCircle
 10
492.376868
 20
298.219752
 30
0.0
 40
347.0407073094175
100
AcDbArc
 50
209.463618
 51
217.669424
  0
LINE
  5
109
330
D8
100
AcDbEntity
  8
0
  6
Continuous
 62
     0
370
     0
100
AcDbLine
 10
217.676912
 20
86.141496
 30
0.0
 11
218.017574
 21
86.338134
 31
0.0
  0
LWPOLYLINE
  5
10A
330
D8
100
AcDbEntity
  8
0
  6
Continuous
 62
     0
370
     0
100
AcDbPolyline
 90
       13
 70
     0
 43
0.0
 10
236.293823
 20
96.889969
 10
236.282501
 20
96.87085
 10
236.212479
 20
96.819878
 10
236.085144
 20
96.737999
 10
235.902771
 20
96.626602
 10
235.668503
 20
96.487587
 10
235.386276
 20
96.323341
 10
235.060837
 20
96.136589
 10
234.697525
 20
95.930389
 10
234.302567
 20
95.708244
 10
233.882309
 20
95.47374
 10
233.443268
 20
95.230583
 10
232.953125
 20
94.961212
  0
LINE
  5
10B
330
D8
100
AcDbEntity
  8
0
  6
Continuous
 62
     0
370
     0
100
AcDbLine
 10
233.158609
 20
94.576308
 30
0.0
 11
232.940601
 21
94.953911
 31
0.0
  0
LWPOLYLINE
  5
10C
330
D8
100
AcDbEntity
  8
0
  6
Continuous
 62
     0
370
    30
100
AcDbPolyline
 90
       12
 70
     0
 43
0.0
 10
236.082611
 20
96.264481
 10
236.06517
 20
96.254417
 10
235.98732
 20
96.209465
 10
235.850327
 20
96.130371
 10
235.657639
 20
96.019127
 10
235.41333
 20
95.878067
 10
235.121674
 20
95.709686
 10
234.788727
 20
95.517456
 10
234.421234
 20
95.305283
 10
234.026047
 20
95.077118
 10
233.611267
 20
94.837654
 10
233.158615
 20
94.576309
  0
ARC
  5
10D
330
D8
100
AcDbEntity
  8
0
  6
Continuous
 62
     0
370
    30
100
AcDbCircle
 10
235.832605
 20
96.697497
 30
0.0
 40
0.500000000000053
100
AcDbArc
 50
299.99654
 51
22.644712
  0
ARC
  5
10E
330
D8
100
AcDbEntity
  8
0
  6
Continuous
 62
     0
370
    30
100
AcDbCircle
 10
218.074186
 20
86.44474
 30
0.0
 40
0.499999999999973
100
AcDbArc
 50
217.348764
 51
300.003324
  0
ARC
  5
10F
330
D8
100
AcDbEntity
  8
0
  6
Continuous
 62
     0
370
    30
100
AcDbCircle
 10
218.414845
 20
86.641376
 30
0.0
 40
0.500000000000004
100
AcDbArc
 50
217.354994
 51
300.003184
  0
LINE
  5
110
330
D8
100
AcDbEntity
  8
0
  6
Continuous
 62
     0
370
    30
100
AcDbLine
 10
218.664865
 20
86.208375
 30
0.0
 11
221.769178
 21
88.000635
 31
0.0
  0
LINE
  5
111
330
D8
100
AcDbEntity
  8
0
  6
Continuous
 62
     0
370
     0
100
AcDbLine
 10
221.769178
 20
88.000635
 30
0.0
 11
221.551142
 21
88.378285
 31
0.0
  0
LINE
  5
112
330
D8
100
AcDbEntity
  8
0
  6
Continuous
 62
     0
370
    30
100
AcDbLine
 10
221.769178
 20
88.000635
 30
0.0
 11
233.158609
 21
94.576308
 31
0.0
  0
LINE
  5
113
330
D8
100
AcDbEntity
  8
0
  6
Continuous
 62
     0
370
    30
100
AcDbLine
 10
224.412693
 20
77.979887
 30
0.0
 11
239.997618
 21
86.977848
 31
0.0
  0
LINE
  5
114
330
D8
100
AcDbEntity
  8
0
  6
Continuous
 62
     0
370
    30
100
AcDbLine
 10
224.40916
 20
77.977848
 30
0.0
 11
219.409155
 21
86.638111
 31
0.0
  0
LINE
  5
115
330
D8
100
AcDbEntity
  8
0
  6
Continuous
 62
     0
370
    30
100
AcDbLine
 10
239.997618
 20
86.977848
 30
0.0
 11
234.997623
 21
95.638093
 31
0.0
  0
ARC
  5
116
330
D8
100
AcDbEntity
  8
0
  6
Continuous
 62
     0
370
    30
100
AcDbCircle
 10
-83.694225
 20
-34.462897
 30
0.0
 40
345.9005659384885
100
AcDbArc
 50
22.317396
 51
30.384938
  0
LINE
  5
117
330
D8
100
AcDbEntity
  8
0
  6
Continuous
 62
     0
370
    30
100
AcDbLine
 10
171.327002
 20
167.893091
 30
0.0
 11
173.702319
 21
162.303114
 31
0.0
  0
LINE
  5
118
330
D8
100
AcDbEntity
  8
0
  6
Continuous
 62
     0
370
    30
100
AcDbLine
 10
183.682382
 20
141.173
 30
0.0
 11
183.132135
 21
142.237104
 31
0.0
  0
LINE
  5
119
330
D8
100
AcDbEntity
  8
0
  6
Continuous
 62
     0
370
    30
100
AcDbLine
 10
185.953959
 20
136.780076
 30
0.0
 11
185.223445
 21
138.192792
 31
0.0
  0
ARC
  5
11A
330
D8
100
AcDbEntity
  8
0
  6
Continuous
 62
     0
370
    30
100
AcDbCircle
 10
-86.092253
 20
-35.866741
 30
0.0
 40
348.6791615817877
100
AcDbArc
 50
30.5491
 51
38.799766
  0
ARC
  5
11B
330
D8
100
AcDbEntity
  8
0
  6
Continuous
 62
     0
370
    30
100
AcDbCircle
 10
135.350759
 20
170.377352
 30
0.0
 40
32.0860810849222
100
AcDbArc
 50
79.948125
 51
100.583212
  0
LINE
  5
11C
330
D8
100
AcDbEntity
  8
0
  6
Continuous
 62
     0
370
    30
100
AcDbLine
 10
129.452381
 20
201.920935
 30
0.0
 11
131.801656
 21
202.283297
 31
0.0
  0
LINE
  5
11D
330
D8
100
AcDbEntity
  8
0
  6
Continuous
 62
     0
370
    30
100
AcDbLine
 10
185.650294
 20
182.617424
 30
0.0
 11
180.01372
 21
189.357689
 31
0.0
  0
LINE
  5
11E
330
D8
100
AcDbEntity
  8
0
  6
Continuous
 62
     0
370
    30
100
AcDbLine
 10
76.861501
 20
233.796055
 30
0.0
 11
76.450845
 21
233.663392
 31
0.0
  0
LWPOLYLINE
  5
11F
330
D8
100
AcDbEntity
  8
0
  6
Continuous
 62
     0
370
    30
100
AcDbPolyline
 90
       13
 70
     0
 43
0.0
 10
91.403595
 20
165.335602
 10
91.144394
 20
165.291092
 10
90.887863
 20
165.30957
 10
90.66423
 20
165.372131
 10
90.495277
 20
165.460495
 10
90.373672
 20
165.558655
 10
90.285858
 20
165.651169
 10
90.22084
 20
165.729767
 10
90.171837
 20
165.797913
 10
90.132469
 20
165.860184
 10
90.097565
 20
165.920273
 10
90.065674
 20
165.979385
 10
90.03537
 20
166.03952
  0
ARC
  5
120
330
D8
100
AcDbEntity
  8
0
  6
Continuous
 62
     0
370
    30
100
AcDbCircle
 10
81.803582
 20
201.240027
 30
0.0
 40
32.92894781552172
100
AcDbArc
 50
50.325238
 51
98.632595
  0
ARC
  5
121
330
D8
100
AcDbEntity
  8
0
  6
Continuous
 62
     0
370
    30
100
AcDbCircle
 10
82.685231
 20
197.089484
 30
0.0
 40
32.92894128678662
100
AcDbArc
 50
285.352133
 51
333.659434
  0
LINE
  5
122
330
D8
100
AcDbEntity
  8
0
  6
Continuous
 62
     0
370
    30
100
AcDbLine
 10
129.453025
 20
201.917752
 30
0.0
 11
129.038307
 21
201.828971
 31
0.0
  0
LWPOLYLINE
  5
123
330
D8
100
AcDbEntity
  8
0
  6
Continuous
 62
     0
370
    30
100
AcDbPolyline
 90
       67
 70
     0
 43
0.0
 10
112.197701
 20
182.478714
 10
112.407234
 20
182.90274
 10
112.610695
 20
183.329788
 10
112.807465
 20
183.76001
 10
112.996918
 20
184.193527
 10
113.178436
 20
184.630524
 10
113.351387
 20
185.071106
 10
113.515358
 20
185.515335
 10
113.672569
 20
185.961945
 10
113.827232
 20
186.408722
 10
113.983536
 20
186.853455
 10
114.143906
 20
187.295334
 10
114.308678
 20
187.735153
 10
114.478111
 20
188.173843
 10
114.652863
 20
188.611542
 10
114.834473
 20
189.046844
 10
115.02462
 20
189.478134
 10
115.22493
 20
189.903915
 10
115.43676
 20
190.323395
 10
115.661392
 20
190.736053
 10
115.900063
 20
191.141342
 10
116.152206
 20
191.539536
 10
116.414902
 20
191.931885
 10
116.685059
 20
192.319748
 10
116.959938
 20
192.7043
 10
117.238815
 20
193.085861
 10
117.521637
 20
193.464478
 10
117.808365
 20
193.840149
 10
118.099174
 20
194.212708
 10
118.394501
 20
194.581696
 10
118.694794
 20
194.94664
 10
119.000504
 20
195.307068
 10
119.311951
 20
195.662567
 10
119.629387
 20
196.012695
 10
119.953072
 20
196.357056
 10
120.283226
 20
196.695221
 10
120.619987
 20
197.026794
 10
120.963463
 20
197.351318
 10
121.313774
 20
197.668396
 10
121.671021
 20
197.977554
 10
122.035316
 20
198.278412
 10
122.406784
 20
198.570496
 10
122.785515
 20
198.853424
 10
123.171364
 20
199.126801
 10
123.563866
 20
199.390381
 10
123.962509
 20
199.64389
 10
124.366814
 20
199.887054
 10
124.776276
 20
200.119614
 10
125.190399
 20
200.341309
 10
125.608688
 20
200.55188
 10
126.03054
 20
200.751038
 10
126.45417
 20
200.938324
 10
126.876358
 20
201.112961
 10
127.28788
 20
201.272217
 10
127.675644
 20
201.412354
 10
128.019318
 20
201.529144
 10
128.296707
 20
201.618546
 10
128.505371
 20
201.682495
 10
128.65741
 20
201.727203
 10
128.7659
 20
201.758194
 10
128.844711
 20
201.78006
 10
128.904541
 20
201.796249
 10
128.949051
 20
201.807953
 10
128.981064
 20
201.81601
 10
129.003342
 20
201.82132
 10
129.018677
 20
201.824738
 10
129.030014
 20
201.827164
  0
LINE
  5
124
330
D8
100
AcDbEntity
  8
0
  6
Continuous
 62
     0
370
    30
100
AcDbLine
 10
126.83206
 20
215.910816
 30
0.0
 11
126.403941
 21
215.820625
 31
0.0
  0
LWPOLYLINE
  5
125
330
D8
100
AcDbEntity
  8
0
  6
Continuous
 62
     0
370
    30
100
AcDbPolyline
 90
       56
 70
     0
 43
0.0
 10
102.828606
 20
226.58577
 10
103.252945
 20
226.232315
 10
103.671295
 20
225.871613
 10
104.08284
 20
225.503082
 10
104.486755
 20
225.126114
 10
104.882233
 20
224.740097
 10
105.2686
 20
224.344589
 10
105.647926
 20
223.94249
 10
106.024834
 20
223.539703
 10
106.403687
 20
223.141647
 10
106.786522
 20
222.749069
 10
107.174339
 20
222.360809
 10
107.568199
 20
221.976501
 10
107.969368
 20
221.598938
 10
108.379181
 20
221.231583
 10
108.799019
 20
220.877411
 10
109.230423
 20
220.538254
 10
109.674942
 20
220.215744
 10
110.132629
 20
219.909851
 10
110.600151
 20
219.616852
 10
111.073753
 20
219.33255
 10
111.550781
 20
219.054077
 10
112.03112
 20
218.781509
 10
112.514946
 20
218.515366
 10
113.00248
 20
218.256134
 10
113.493919
 20
218.004318
 10
113.989464
 20
217.760437
 10
114.489288
 20
217.525055
 10
114.993462
 20
217.298996
 10
115.502052
 20
217.08313
 10
116.015106
 20
216.878342
 10
116.532692
 20
216.685471
 10
117.054863
 20
216.505417
 10
117.58165
 20
216.33902
 10
118.112823
 20
216.186859
 10
118.647964
 20
216.049362
 10
119.186676
 20
215.926941
 10
119.728523
 20
215.820007
 10
120.273109
 20
215.729004
 10
120.820023
 20
215.654327
 10
121.368553
 20
215.596268
 10
121.917099
 20
215.554626
 10
122.463844
 20
215.529129
 10
123.006844
 20
215.519516
 10
123.542809
 20
215.525635
 10
124.063927
 20
215.546463
 10
124.549591
 20
215.577942
 10
124.976608
 20
215.615402
 10
125.328354
 20
215.653976
 10
125.602699
 20
215.688751
 10
125.812508
 20
215.718292
 10
125.977486
 20
215.74353
 10
126.109901
 20
215.765381
 10
126.21981
 20
215.784805
 10
126.313576
 20
215.802429
 10
126.395515
 20
215.818878
  0
ENDBLK
  5
127
330
D8
100
AcDbEntity
  8
0
100
AcDbBlockEnd
  0
BLOCK
  5
158
330
129
100
AcDbEntity
  8
0
100
AcDbBlockBegin
  2
c
 70
     0
 10
44.73317
 20
77.957184
 30
0.0
  3
c
  1

  0
ELLIPSE
  5
12A
330
129
100
AcDbEntity
  8
0
  6
Continuous
 62
     0
370
     0
100
AcDbEllipse
 10
333.917015
 20
360.033326
 30
0.0
 11
4.778557039531464
 21
-34.66624137824325
 31
0.0
210
0.0
220
0.0
230
-1.0
 40
0.977774
 41
1.058824985696249
 42
1.695463517670229
  0
ELLIPSE
  5
12B
330
129
100
AcDbEntity
  8
0
  6
Continuous
 62
     0
370
     0
100
AcDbEllipse
 10
333.917015
 20
360.033326
 30
0.0
 11
4.778557039531464
 21
-34.66624137824325
 31
0.0
210
0.0
220
0.0
230
-1.0
 40
0.977774
 41
1.695463517670229
 42
2.332514831800437
  0
ELLIPSE
  5
12C
330
129
100
AcDbEntity
  8
0
  6
Continuous
 62
     0
370
     0
100
AcDbEllipse
 10
333.917015
 20
360.033326
 30
0.0
 11
4.778557039531464
 21
-34.66624137824325
 31
0.0
210
0.0
220
0.0
230
-1.0
 40
0.977774
 41
2.332514831800437
 42
2.610408646553213
  0
ELLIPSE
  5
12D
330
129
100
AcDbEntity
  8
0
  6
Continuous
 62
     0
370
     0
100
AcDbEllipse
 10
333.917015
 20
360.033326
 30
0.0
 11
4.778557039531464
 21
-34.66624137824325
 31
0.0
210
0.0
220
0.0
230
-1.0
 40
0.977774
 41
0.5311823702741951
 42
0.7617166876664573
  0
ELLIPSE
  5
12E
330
129
100
AcDbEntity
  8
0
  6
Continuous
 62
     0
370
     0
100
AcDbEllipse
 10
333.917015
 20
360.033326
 30
0.0
 11
4.778557039531464
 21
-34.66624137824325
 31
0.0
210
0.0
220
0.0
230
-1.0
 40
0.977774
 41
0.7617166876664573
 42
1.058824985696244
  0
ELLIPSE
  5
12F
330
129
100
AcDbEntity
  8
0
  6
Continuous
 62
     0
370
     0
100
AcDbEllipse
 10
334.147147
 20
360.065045
 30
0.0
 11
4.642836625477047
 21
-33.68147269549551
 31
0.0
210
0.0
220
0.0
230
-1.0
 40
0.977775
 41
4.837056974202969
 42
7.978649627792763
  0
ELLIPSE
  5
130
330
129
100
AcDbEntity
  8
0
  6
Continuous
 62
     0
370
     0
100
AcDbEllipse
 10
334.147147
 20
360.065045
 30
0.0
 11
4.642836625477047
 21
-33.68147269549551
 31
0.0
210
0.0
220
0.0
230
-1.0
 40
0.977775
 41
1.695464320613177
 42
4.837056974202969
  0
ELLIPSE
  5
131
330
129
100
AcDbEntity
  8
0
  6
Continuous
 62
     0
370
     0
100
AcDbEllipse
 10
334.147139
 20
360.065048
 30
0.0
 11
-4.540425952836331
 21
32.93853415328023
 31
0.0
210
0.0
220
0.0
230
1.0
 40
0.977775
 41
4.58772098656641
 42
7.729313640156203
  0
ELLIPSE
  5
132
330
129
100
AcDbEntity
  8
0
  6
Continuous
 62
     0
370
     0
100
AcDbEllipse
 10
334.147139
 20
360.065048
 30
0.0
 11
-4.540425952836331
 21
32.93853415328023
 31
0.0
210
0.0
220
0.0
230
1.0
 40
0.977775
 41
1.446128332976618
 42
4.58772098656641
  0
ARC
  5
133
330
129
100
AcDbEntity
  8
0
  6
Continuous
 62
     0
370
     0
100
AcDbCircle
 10
395.478139
 20
116.518914
 30
0.0
 40
254.5644976193918
100
AcDbArc
 50
92.165053
 51
96.451758
  0
ARC
  5
134
330
129
100
AcDbEntity
  8
0
  6
Continuous
 62
     0
370
     0
100
AcDbCircle
 10
395.776515
 20
587.418685
 30
0.0
 40
243.3328573969314
100
AcDbArc
 50
262.827776
 51
269.463287
  0
ARC
  5
135
330
129
100
AcDbEntity
  8
0
  6
Continuous
 62
     0
370
     0
100
AcDbCircle
 10
403.952566
 20
370.191635
 30
0.0
 40
1.703552719339298
100
AcDbArc
 50
347.838476
 51
68.082834
  0
LINE
  5
136
330
129
100
AcDbEntity
  8
0
  6
Continuous
 62
     0
370
     0
100
AcDbLine
 10
369.015762
 20
369.066543
 30
0.0
 11
367.056315
 21
368.793035
 31
0.0
  0
ARC
  5
137
330
129
100
AcDbEntity
  8
0
  6
Continuous
 62
     0
370
     0
100
AcDbCircle
 10
408.35526
 20
87.907641
 30
0.0
 40
283.889412353971
100
AcDbArc
 50
90.760257
 51
97.34698
  0
ARC
  5
138
330
129
100
AcDbEntity
  8
0
  6
Continuous
 62
     0
370
     0
100
AcDbCircle
 10
400.604312
 20
115.185357
 30
0.0
 40
254.6967423478782
100
AcDbArc
 50
88.872089
 51
97.508667
  0
ARC
  5
139
330
129
100
AcDbEntity
  8
0
  6
Continuous
 62
     0
370
     0
100
AcDbCircle
 10
400.495092
 20
616.883119
 30
0.0
 40
270.0954131462609
100
AcDbArc
 50
262.767557
 51
271.159708
  0
ARC
  5
13A
330
129
100
AcDbEntity
  8
0
  6
Continuous
 62
     0
370
     0
100
AcDbCircle
 10
409.809492
 20
657.454055
 30
0.0
 40
312.7070349220855
100
AcDbArc
 50
261.966797
 51
269.117277
  0
ARC
  5
13B
330
129
100
AcDbEntity
  8
0
  6
Continuous
 62
     0
370
     0
100
AcDbCircle
 10
404.124738
 20
346.450355
 30
0.0
 40
1.878409006882365
100
AcDbArc
 50
297.496386
 51
12.066513
  0
ARC
  5
13C
330
129
100
AcDbEntity
  8
0
  6
Continuous
 62
     0
370
     0
100
AcDbCircle
 10
401.591946
 20
161.764381
 30
0.0
 40
208.1073144242182
100
AcDbArc
 50
77.356294
 51
88.891515
  0
LWPOLYLINE
  5
13D
330
129
100
AcDbEntity
  8
0
  6
Continuous
 62
     0
370
     0
100
AcDbPolyline
 90
       12
 70
     0
 43
0.0
 10
447.144012
 20
364.825104
 10
447.128082
 20
365.34317
 10
447.076752
 20
365.851105
 10
446.99118
 20
366.338623
 10
446.872864
 20
366.798004
 10
446.723907
 20
367.221649
 10
446.546844
 20
367.602234
 10
446.344666
 20
367.93338
 10
446.12085
 20
368.209381
 10
445.879242
 20
368.425537
 10
445.62381
 20
368.578064
 10
445.33609
 20
368.668335
  0
ARC
  5
13E
330
129
100
AcDbEntity
  8
0
  6
Continuous
 62
     0
370
     0
100
AcDbCircle
 10
401.6671
 20
563.239712
 30
0.0
 40
216.4392875858984
100
AcDbArc
 50
271.136926
 51
282.182282
  0
LINE
  5
13F
330
129
100
AcDbEntity
  8
0
  6
Continuous
 62
     0
370
     0
100
AcDbLine
 10
447.340707
 20
351.674387
 30
0.0
 11
447.144069
 21
364.825109
 31
0.0
  0
LINE
  5
140
330
129
100
AcDbEntity
  8
0
  6
Continuous
 62
     0
370
     0
100
AcDbLine
 10
413.649387
 20
344.81567
 30
0.0
 11
404.991986
 21
344.784131
 31
0.0
  0
LINE
  5
141
330
129
100
AcDbEntity
  8
0
  6
Continuous
 62
     0
370
     0
100
AcDbLine
 10
426.274674
 20
345.38923
 30
0.0
 11
417.907741
 21
344.936992
 31
0.0
  0
LWPOLYLINE
  5
142
330
129
100
AcDbEntity
  8
0
  6
Continuous
 62
     0
370
     0
100
AcDbPolyline
 90
       13
 70
     0
 43
0.0
 10
447.340668
 20
351.674377
 10
447.340393
 20
351.159271
 10
447.305237
 20
350.650024
 10
447.235901
 20
350.156738
 10
447.133667
 20
349.687195
 10
447.000305
 20
349.248901
 10
446.838043
 20
348.849335
 10
446.649567
 20
348.495087
 10
446.438049
 20
348.192078
 10
446.207092
 20
347.945404
 10
445.960388
 20
347.759338
 10
445.701782
 20
347.636993
 10
445.411896
 20
347.57901
  0
ARC
  5
143
330
129
100
AcDbEntity
  8
0
  6
Continuous
 62
     0
370
     0
100
AcDbCircle
 10
396.341573
 20
623.599697
 30
0.0
 40
279.5176632761663
100
AcDbArc
 50
269.416938
 51
273.470015
  0
LINE
  5
144
330
129
100
AcDbEntity
  8
0
  6
Continuous
 62
     0
370
     0
100
AcDbLine
 10
447.340817
 20
351.663873
 30
0.0
 11
447.537405
 21
351.666877
 31
0.0
  0
LINE
  5
145
330
129
100
AcDbEntity
  8
0
  6
Continuous
 62
     0
370
     0
100
AcDbLine
 10
447.34077
 20
364.817759
 30
0.0
 11
447.144223
 21
364.81482
 31
0.0
  0
ELLIPSE
  5
146
330
129
100
AcDbEntity
  8
0
  6
Continuous
 62
     0
370
    30
100
AcDbEllipse
 10
451.004354
 20
357.93414
 30
0.0
 11
6.379272922189349E-9
 21
-9.000000103740543
 31
0.0
210
0.0
220
0.0
230
1.0
 40
0.5
 41
-0.0000000000000009
 42
1.600904049171961
  0
ELLIPSE
  5
147
330
129
100
AcDbEntity
  8
0
  6
Continuous
 62
     0
370
    30
100
AcDbEllipse
 10
451.004354
 20
357.93414
 30
0.0
 11
6.379272922189349E-9
 21
-9.000000103740543
 31
0.0
210
0.0
220
0.0
230
1.0
 40
0.5
 41
1.600904049171961
 42
3.141592653589793
  0
LINE
  5
148
330
129
100
AcDbEntity
  8
0
  6
Continuous
 62
     0
370
    30
100
AcDbLine
 10
451.004354
 20
348.93414
 30
0.0
 11
447.007338
 21
348.93414
 31
0.0
  0
LINE
  5
149
330
129
100
AcDbEntity
  8
0
  6
Continuous
 62
     0
370
    30
100
AcDbLine
 10
451.004354
 20
366.93414
 30
0.0
 11
446.974876
 21
366.93414
 31
0.0
  0
LINE
  5
14A
330
129
100
AcDbEntity
  8
0
  6
Continuous
 62
     0
370
    30
100
AcDbLine
 10
445.332992
 20
368.668314
 30
0.0
 11
445.464024
 21
368.639299
 31
0.0
  0
ARC
  5
14B
330
129
100
AcDbEntity
  8
0
  6
Continuous
 62
     0
370
    30
100
AcDbCircle
 10
443.691353
 20
365.363631
 30
0.0
 40
3.68997418421715
100
AcDbArc
 50
351.495417
 51
63.583594
  0
LINE
  5
14C
330
129
100
AcDbEntity
  8
0
  6
Continuous
 62
     0
370
    30
100
AcDbLine
 10
447.537414
 20
351.666714
 30
0.0
 11
447.34077
 21
364.817759
 31
0.0
  0
ARC
  5
14D
330
129
100
AcDbEntity
  8
0
  6
Continuous
 62
     0
370
    30
100
AcDbCircle
 10
443.800579
 20
350.981898
 30
0.0
 40
3.799077389804935
100
AcDbArc
 50
296.775851
 51
10.387266
  0
LINE
  5
14E
330
129
100
AcDbEntity
  8
0
  6
Continuous
 62
     0
370
    30
100
AcDbLine
 10
393.46168
 20
344.09564
 30
0.0
 11
398.842725
 21
344.090223
 31
0.0
  0
LINE
  5
14F
330
129
100
AcDbEntity
  8
0
  6
Continuous
 62
     0
370
    30
100
AcDbLine
 10
418.374146
 20
344.900445
 30
0.0
 11
413.225907
 21
344.592474
 31
0.0
  0
ARC
  5
150
330
129
100
AcDbEntity
  8
0
  6
Continuous
 62
     0
370
    30
100
AcDbCircle
 10
410.690941
 20
566.651238
 30
0.0
 40
221.8115505804981
100
AcDbArc
 50
274.028754
 51
279.032879
  0
LINE
  5
151
330
129
100
AcDbEntity
  8
0
  6
Continuous
 62
     0
370
    30
100
AcDbLine
 10
413.266722
 20
344.808251
 30
0.0
 11
418.370928
 21
344.954239
 31
0.0
  0
ARC
  5
152
330
129
100
AcDbEntity
  8
0
  6
Continuous
 62
     0
370
    30
100
AcDbCircle
 10
408.054335
 20
148.275626
 30
0.0
 40
223.5237956355605
100
AcDbArc
 50
80.398705
 51
90.882232
  0
LINE
  5
153
330
129
100
AcDbEntity
  8
0
  6
Continuous
 62
     0
370
    30
100
AcDbLine
 10
404.612864
 20
371.772926
 30
0.0
 11
399.318538
 21
371.660499
 31
0.0
  0
LINE
  5
154
330
129
100
AcDbEntity
  8
0
  6
Continuous
 62
     0
370
    30
100
AcDbLine
 10
367.632253
 20
368.874681
 30
0.0
 11
373.168415
 21
369.606135
 31
0.0
  0
LWPOLYLINE
  5
155
330
129
100
AcDbEntity
  8
0
  6
Continuous
 62
     0
370
    30
100
AcDbPolyline
 90
       90
 70
     0
 43
0.0
 10
312.626801
 20
387.556091
 10
313.916351
 20
388.544861
 10
315.251465
 20
389.470795
 10
316.628693
 20
390.33136
 10
318.044586
 20
391.124084
 10
319.495758
 20
391.847137
 10
320.978973
 20
392.499207
 10
322.490936
 20
393.079041
 10
324.028351
 20
393.585297
 10
325.587982
 20
394.016724
 10
327.166443
 20
394.37207
 10
328.760223
 20
394.650696
 10
330.365662
 20
394.852203
 10
331.979095
 20
394.976166
 10
333.596832
 20
395.022156
 10
335.21521
 20
394.989777
 10
336.830658
 20
394.879059
 10
338.439575
 20
394.690613
 10
340.038422
 20
394.42511
 10
341.623688
 20
394.083221
 10
343.191772
 20
393.665558
 10
344.739166
 20
393.172852
 10
346.26236
 20
392.605804
 10
347.757965
 20
391.965912
 10
349.222809
 20
391.254852
 10
350.653595
 20
390.474365
 10
352.047089
 20
389.62616
 10
353.400085
 20
388.711975
 10
354.70932
 20
387.733551
 10
355.971832
 20
386.692932
 10
357.18512
 20
385.592773
 10
358.346741
 20
384.435822
 10
359.454315
 20
383.224823
 10
360.505371
 20
381.962494
 10
361.497467
 20
380.651581
 10
362.428192
 20
379.294769
 10
363.295135
 20
377.894867
 10
364.096161
 20
376.454803
 10
364.829803
 20
374.977997
 10
365.494598
 20
373.467834
 10
366.089111
 20
371.927765
 10
366.611908
 20
370.361206
 10
367.061829
 20
368.771667
 10
367.438019
 20
367.16275
 10
367.739502
 20
365.537964
 10
367.965393
 20
363.90094
 10
368.11499
 20
362.255249
 10
368.188354
 20
360.604584
 10
368.185608
 20
358.952606
 10
368.106934
 20
357.30304
 10
367.952454
 20
355.659576
 10
367.722351
 20
354.025848
 10
367.416779
 20
352.405609
 10
367.036041
 20
350.80249
 10
366.581329
 20
349.219971
 10
366.053894
 20
347.661499
 10
365.455078
 20
346.130524
 10
364.786133
 20
344.630463
 10
364.048431
 20
343.164795
 10
363.243256
 20
341.736908
 10
362.372345
 20
340.350037
 10
361.437988
 20
339.006989
 10
360.442444
 20
337.710602
 10
359.388092
 20
336.463623
 10
358.277191
 20
335.268951
 10
357.112061
 20
334.129333
 10
355.89505
 20
333.047638
 10
354.628632
 20
332.026398
 10
353.315826
 20
331.067719
 10
351.959778
 20
330.173553
 10
350.563538
 20
329.345886
 10
349.130219
 20
328.58667
 10
347.662903
 20
327.897858
 10
346.164764
 20
327.281311
 10
344.639221
 20
326.738129
 10
343.089813
 20
326.269073
 10
341.520081
 20
325.875
 10
339.933563
 20
325.556671
 10
338.333832
 20
325.31488
 10
336.724365
 20
325.150513
 10
335.108765
 20
325.06427
 10
333.49054
 20
325.056671
 10
331.87326
 20
325.12735
 10
330.260468
 20
325.275879
 10
328.655762
 20
325.501801
 10
327.062653
 20
325.804688
 10
325.484741
 20
326.184113
 10
323.925659
 20
326.639313
 10
322.389343
 20
327.168976
 10
320.867096
 20
327.776917
  0
ARC
  5
156
330
129
100
AcDbEntity
  8
0
  6
Continuous
 62
     0
370
    30
100
AcDbCircle
 10
334.390091
 20
360.102766
 30
0.0
 40
35.04033713314579
100
AcDbArc
 50
128.405226
 51
216.654999
  0
ARC
  5
157
330
129
100
AcDbEntity
  8
0
  6
Continuous
 62
     0
370
    30
100
AcDbCircle
 10
334.403488
 20
360.137958
 30
0.0
 40
35.07210026649892
100
AcDbArc
 50
216.688055
 51
234.295418
  0
ENDBLK
  5
159
330
129
100
AcDbEntity
  8
0
100
AcDbBlockEnd
  0
BLOCK
  5
1A9
330
15B
100
AcDbEntity
  8
0
100
AcDbBlockBegin
  2
d
 70
     0
 10
44.73317
 20
77.957184
 30
0.0
  3
d
  1

  0
ARC
  5
15C
330
15B
100
AcDbEntity
  8
0
  6
Continuous
 62
     0
370
     0
100
AcDbCircle
 10
401.957543
 20
120.855859
 30
0.0
 40
70.88670719800321
100
AcDbArc
 50
128.399336
 51
134.042013
  0
LINE
  5
15D
330
15B
100
AcDbEntity
  8
0
  6
Continuous
 62
     0
370
     0
100
AcDbLine
 10
353.702024
 20
172.464228
 30
0.0
 11
352.678133
 21
171.811356
 31
0.0
  0
LINE
  5
15E
330
15B
100
AcDbEntity
  8
0
  6
Continuous
 62
     0
370
    30
100
AcDbLine
 10
357.927066
 20
176.409817
 30
0.0
 11
347.761939
 21
180.127919
 31
0.0
  0
LINE
  5
15F
330
15B
100
AcDbEntity
  8
0
  6
Continuous
 62
     0
370
     0
100
AcDbLine
 10
347.761939
 20
180.127919
 30
0.0
 11
346.623497
 21
179.228191
 31
0.0
  0
ARC
  5
160
330
15B
100
AcDbEntity
  8
0
  6
Continuous
 62
     0
370
     0
100
AcDbCircle
 10
347.486567
 20
179.626959
 30
0.0
 40
0.5714742256252092
100
AcDbArc
 50
61.193076
 51
182.533183
  0
LINE
  5
161
330
15B
100
AcDbEntity
  8
0
  6
Continuous
 62
     0
370
     0
100
AcDbLine
 10
358.554457
 20
165.083139
 30
0.0
 11
358.66376
 21
165.175339
 31
0.0
  0
LINE
  5
162
330
15B
100
AcDbEntity
  8
0
  6
Continuous
 62
     0
370
    30
100
AcDbLine
 10
358.66376
 20
165.175339
 30
0.0
 11
358.758191
 21
175.270262
 31
0.0
  0
LWPOLYLINE
  5
163
330
15B
100
AcDbEntity
  8
0
  6
Continuous
 62
     0
370
     0
100
AcDbPolyline
 90
       11
 70
     0
 43
0.0
 10
354.069458
 20
169.915192
 10
354.14563
 20
169.833908
 10
354.270508
 20
169.784515
 10
354.427399
 20
169.756378
 10
354.606598
 20
169.743179
 10
354.812286
 20
169.74794
 10
355.030426
 20
169.761063
 10
355.23764
 20
169.766541
 10
355.421997
 20
169.756241
 10
355.582977
 20
169.729919
 10
355.73645
 20
169.684158
  0
ARC
  5
164
330
15B
100
AcDbEntity
  8
0
  6
Continuous
 62
     0
370
     0
100
AcDbCircle
 10
375.868414
 20
153.399254
 30
0.0
 40
27.76870063728026
100
AcDbArc
 50
128.03694
 51
139.563938
  0
LINE
  5
165
330
15B
100
AcDbEntity
  8
0
  6
Continuous
 62
     0
370
     0
100
AcDbLine
 10
358.46512
 20
164.713832
 30
0.0
 11
358.663758
 21
165.175133
 31
0.0
  0
ARC
  5
166
330
15B
100
AcDbEntity
  8
0
  6
Continuous
 62
     0
370
     0
100
AcDbCircle
 10
357.45029
 20
175.189451
 30
0.0
 40
1.310394466356679
100
AcDbArc
 50
3.535635
 51
68.653891
  0
ELLIPSE
  5
167
330
15B
100
AcDbEntity
  8
0
  6
Continuous
 62
     0
370
     0
100
AcDbEllipse
 10
328.278617
 20
151.655606
 30
0.0
 11
-22.5994433980776
 21
26.71793511429667
 31
0.0
210
0.0
220
0.0
230
-1.0
 40
0.700961
 41
0.1069577832244602
 42
0.2514482746185573
  0
ELLIPSE
  5
168
330
15B
100
AcDbEntity
  8
0
  6
Continuous
 62
     0
370
     0
100
AcDbEllipse
 10
328.278617
 20
151.655606
 30
0.0
 11
-22.5994433980776
 21
26.71793511429667
 31
0.0
210
0.0
220
0.0
230
-1.0
 40
0.700961
 41
0.2514482746185573
 42
0.8880859894979349
  0
ELLIPSE
  5
169
330
15B
100
AcDbEntity
  8
0
  6
Continuous
 62
     0
370
     0
100
AcDbEllipse
 10
328.278617
 20
151.655606
 30
0.0
 11
-22.5994433980776
 21
26.71793511429667
 31
0.0
210
0.0
220
0.0
230
-1.0
 40
0.700961
 41
0.8880859894979348
 42
1.525134158961869
  0
ELLIPSE
  5
16A
330
15B
100
AcDbEntity
  8
0
  6
Continuous
 62
     0
370
     0
100
AcDbEllipse
 10
328.278617
 20
151.655606
 30
0.0
 11
-22.5994433980776
 21
26.71793511429667
 31
0.0
210
0.0
220
0.0
230
-1.0
 40
0.700961
 41
1.525134158961869
 42
1.822241062487544
  0
ELLIPSE
  5
16B
330
15B
100
AcDbEntity
  8
0
  6
Continuous
 62
     0
370
     0
100
AcDbEllipse
 10
328.278617
 20
151.655606
 30
0.0
 11
-22.5994433980776
 21
26.71793511429667
 31
0.0
210
0.0
220
0.0
230
-1.0
 40
0.700961
 41
1.822241062487544
 42
2.45888230857649
  0
ELLIPSE
  5
16C
330
15B
100
AcDbEntity
  8
0
  6
Continuous
 62
     0
370
     0
100
AcDbEllipse
 10
328.278617
 20
151.655606
 30
0.0
 11
-22.5994433980776
 21
26.71793511429667
 31
0.0
210
0.0
220
0.0
230
-1.0
 40
0.700961
 41
2.45888230857649
 42
3.034638560192667
  0
ELLIPSE
  5
16D
330
15B
100
AcDbEntity
  8
0
  6
Continuous
 62
     0
370
     0
100
AcDbEllipse
 10
327.675268
 20
151.145258
 30
0.0
 11
-21.95742579852163
 21
25.95898663605145
 31
0.0
210
0.0
220
0.0
230
-1.0
 40
0.700961
 41
2.458881489436206
 42
5.600474143025999
  0
ELLIPSE
  5
16E
330
15B
100
AcDbEntity
  8
0
  6
Continuous
 62
     0
370
     0
100
AcDbEllipse
 10
327.675268
 20
151.145258
 30
0.0
 11
-21.95742579852163
 21
25.95898663605145
 31
0.0
210
0.0
220
0.0
230
-1.0
 40
0.700961
 41
5.600474143026
 42
8.742066796615791
  0
ELLIPSE
  5
16F
330
15B
100
AcDbEntity
  8
0
  6
Continuous
 62
     0
370
     0
100
AcDbEllipse
 10
327.675262
 20
151.145264
 30
0.0
 11
21.47309371301471
 21
-25.38638899867577
 31
0.0
210
0.0
220
0.0
230
1.0
 40
0.700961
 41
0.6827111641535879
 42
3.82430381774338
  0
ELLIPSE
  5
170
330
15B
100
AcDbEntity
  8
0
  6
Continuous
 62
     0
370
     0
100
AcDbEllipse
 10
327.675262
 20
151.145264
 30
0.0
 11
21.47309371301471
 21
-25.38638899867577
 31
0.0
210
0.0
220
0.0
230
1.0
 40
0.700961
 41
3.824303817743381
 42
6.965896471333174
  0
LWPOLYLINE
  5
171
330
15B
100
AcDbEntity
  8
0
  6
Continuous
 62
     0
370
     0
100
AcDbPolyline
 90
       50
 70
     0
 43
0.0
 10
407.39917
 20
182.412827
 10
406.367584
 20
182.61441
 10
405.327759
 20
182.802231
 10
404.281738
 20
182.979202
 10
403.232269
 20
183.149246
 10
402.179382
 20
183.312332
 10
401.123016
 20
183.468323
 10
400.063354
 20
183.617523
 10
398.999695
 20
183.758377
 10
397.929535
 20
183.885818
 10
396.851807
 20
183.996765
 10
395.76767
 20
184.092331
 10
394.678619
 20
184.174591
 10
393.58551
 20
184.24472
 10
392.488861
 20
184.303513
 10
391.389008
 20
184.350693
 10
390.28598
 20
184.385193
 10
389.180145
 20
184.406494
 10
388.072083
 20
184.415329
 10
386.962372
 20
184.412964
 10
385.851471
 20
184.400513
 10
384.739807
 20
184.37915
 10
383.627594
 20
184.349045
 10
382.515076
 20
184.312439
 10
381.40274
 20
184.255188
 10
380.290527
 20
184.194183
 10
379.183624
 20
184.093414
 10
378.08194
 20
183.96402
 10
376.984772
 20
183.819244
 10
375.89328
 20
183.657944
 10
374.809052
 20
183.478867
 10
373.733765
 20
183.280685
 10
372.669769
 20
183.061813
 10
371.620148
 20
182.820068
 10
370.587402
 20
182.554718
 10
369.571808
 20
182.268097
 10
368.572601
 20
181.96347
 10
367.590454
 20
181.641968
 10
366.62796
 20
181.302582
 10
365.689056
 20
180.943481
 10
364.7789
 20
180.562622
 10
363.904297
 20
180.157501
 10
363.070465
 20
179.727585
 10
362.264893
 20
179.282883
 10
361.479675
 20
178.829086
 10
360.71521
 20
178.36676
 10
359.97226
 20
177.896286
 10
359.248749
 20
177.419098
 10
358.561371
 20
176.929398
 10
357.926514
 20
176.409424
  0
LINE
  5
172
330
15B
100
AcDbEntity
  8
0
  6
Continuous
 62
     0
370
    30
100
AcDbLine
 10
411.797107
 20
191.471204
 30
0.0
 11
407.399158
 21
182.412831
 31
0.0
  0
LWPOLYLINE
  5
173
330
15B
100
AcDbEntity
  8
0
  6
Continuous
 62
     0
370
     0
100
AcDbPolyline
 90
       40
 70
     0
 43
0.0
 10
347.763947
 20
180.124466
 10
348.808502
 20
180.955383
 10
349.906311
 20
181.768936
 10
351.054565
 20
182.564636
 10
352.252136
 20
183.340973
 10
353.498535
 20
184.0961
 10
354.793243
 20
184.828094
 10
356.146179
 20
185.528091
 10
357.564117
 20
186.187378
 10
359.037598
 20
186.808609
 10
360.547241
 20
187.403458
 10
362.086365
 20
187.974915
 10
363.655396
 20
188.520554
 10
365.254059
 20
189.038193
 10
366.895172
 20
189.509827
 10
368.580994
 20
189.924561
 10
370.306519
 20
190.277954
 10
372.065125
 20
190.567001
 10
373.848907
 20
190.790985
 10
375.640259
 20
190.990372
 10
377.437256
 20
191.168442
 10
379.238617
 20
191.326935
 10
381.043396
 20
191.466583
 10
382.852539
 20
191.569992
 10
384.66333
 20
191.655334
 10
386.47522
 20
191.711884
 10
388.28717
 20
191.759995
 10
390.098969
 20
191.799026
 10
391.910431
 20
191.82608
 10
393.721252
 20
191.839752
 10
395.531219
 20
191.840805
 10
397.340424
 20
191.832458
 10
399.149017
 20
191.816849
 10
400.956848
 20
191.793564
 10
402.763763
 20
191.761093
 10
404.569519
 20
191.718658
 10
406.374725
 20
191.67041
 10
408.17923
 20
191.615601
 10
409.982086
 20
191.548889
 10
411.797119
 20
191.471207
  0
ARC
  5
174
330
15B
100
AcDbEntity
  8
0
  6
Continuous
 62
     0
370
    30
100
AcDbCircle
 10
411.909422
 20
191.510389
 30
0.0
 40
0.1189537879365224
100
AcDbArc
 50
346.613737
 51
199.232874
  0
LWPOLYLINE
  5
175
330
15B
100
AcDbEntity
  8
0
  6
Continuous
 62
     0
370
     0
100
AcDbPolyline
 90
       49
 70
     0
 43
0.0
 10
358.755463
 20
175.269257
 10
359.378998
 20
175.782166
 10
360.06427
 20
176.273758
 10
360.785248
 20
176.753189
 10
361.525909
 20
177.225983
 10
362.288025
 20
177.690842
 10
363.070862
 20
178.147324
 10
363.87439
 20
178.594757
 10
364.707458
 20
179.02681
 10
365.582764
 20
179.433289
 10
366.49411
 20
179.815292
 10
367.434692
 20
180.175156
 10
368.399323
 20
180.514938
 10
369.384033
 20
180.836426
 10
370.386261
 20
181.140411
 10
371.405762
 20
181.425171
 10
372.443359
 20
181.686935
 10
373.498291
 20
181.923798
 10
374.567352
 20
182.137238
 10
375.647461
 20
182.329422
 10
376.736328
 20
182.501892
 10
377.832123
 20
182.656006
 10
378.933289
 20
182.793106
 10
380.038635
 20
182.914291
 10
381.150513
 20
182.987259
 10
382.264221
 20
183.044525
 10
383.37796
 20
183.085663
 10
384.491333
 20
183.114532
 10
385.604095
 20
183.134567
 10
386.715973
 20
183.145538
 10
387.826538
 20
183.146378
 10
388.935364
 20
183.135895
 10
390.041809
 20
183.112808
 10
391.145172
 20
183.076004
 10
392.244995
 20
183.025604
 10
393.341187
 20
182.962784
 10
394.433502
 20
182.888184
 10
395.521484
 20
182.801254
 10
396.604218
 20
182.700836
 10
397.680328
 20
182.584976
 10
398.748352
 20
182.452164
 10
399.809021
 20
182.304871
 10
400.865082
 20
182.148453
 10
401.917725
 20
181.985184
 10
402.966766
 20
181.814819
 10
404.012299
 20
181.637527
 10
405.054321
 20
181.453354
 10
406.09024
 20
181.258713
 10
407.13266
 20
181.047073
  0
LINE
  5
176
330
15B
100
AcDbEntity
  8
0
  6
Continuous
 62
     0
370
    30
100
AcDbLine
 10
407.132662
 20
181.047072
 30
0.0
 11
407.399158
 21
182.412831
 31
0.0
  0
ARC
  5
177
330
15B
100
AcDbEntity
  8
0
  6
Continuous
 62
     0
370
    30
100
AcDbCircle
 10
407.048879
 20
166.673276
 30
0.0
 40
0.2197073699346401
100
AcDbArc
 50
102.796258
 51
337.00768
  0
LWPOLYLINE
  5
178
330
15B
100
AcDbEntity
  8
0
  6
Continuous
 62
     0
370
    30
100
AcDbPolyline
 90
       50
 70
     0
 43
0.0
 10
358.661072
 20
165.177795
 10
359.271301
 20
165.669586
 10
359.940521
 20
166.133209
 10
360.64563
 20
166.577682
 10
361.369415
 20
167.009827
 10
362.113678
 20
167.428574
 10
362.877899
 20
167.833817
 10
363.661713
 20
168.225327
 10
364.471619
 20
168.598526
 10
365.321472
 20
168.942795
 10
366.207367
 20
169.258209
 10
367.122437
 20
169.547546
 10
368.061584
 20
169.813126
 10
369.020752
 20
170.057022
 10
369.997162
 20
170.280594
 10
370.98999
 20
170.483215
 10
371.999939
 20
170.661804
 10
373.027008
 20
170.813843
 10
374.068878
 20
170.940018
 10
375.122284
 20
171.042725
 10
376.184814
 20
171.123749
 10
377.254669
 20
171.184631
 10
378.330292
 20
171.226807
 10
379.41037
 20
171.251587
 10
380.494995
 20
171.250229
 10
381.585083
 20
171.202438
 10
382.67511
 20
171.151215
 10
383.764954
 20
171.077942
 10
384.854401
 20
170.996994
 10
385.943085
 20
170.906448
 10
387.030792
 20
170.806396
 10
388.117126
 20
170.695923
 10
389.201538
 20
170.574173
 10
390.283447
 20
170.440155
 10
391.362213
 20
170.293365
 10
392.437531
 20
170.134567
 10
393.509338
 20
169.965027
 10
394.577362
 20
169.785248
 10
395.641052
 20
169.594757
 10
396.699493
 20
169.392639
 10
397.751251
 20
169.177261
 10
398.795166
 20
168.947983
 10
399.832428
 20
168.707901
 10
400.865601
 20
168.461945
 10
401.895508
 20
168.211823
 10
402.921997
 20
167.957535
 10
403.94516
 20
167.699463
 10
404.964966
 20
167.437897
 10
405.978729
 20
167.169571
 10
407.000214
 20
166.887527
  0
LINE
  5
179
330
15B
100
AcDbEntity
  8
0
  6
Continuous
 62
     0
370
     0
100
AcDbLine
 10
407.000166
 20
166.887539
 30
0.0
 11
407.132662
 21
181.047072
 31
0.0
  0
ARC
  5
17A
330
15B
100
AcDbEntity
  8
0
  6
Continuous
 62
     0
370
     0
100
AcDbCircle
 10
424.085602
 20
-46.736673
 30
0.0
 40
238.5250713607138
100
AcDbArc
 50
81.121382
 51
92.953226
  0
ARC
  5
17B
330
15B
100
AcDbEntity
  8
0
  6
Continuous
 62
     0
370
     0
100
AcDbCircle
 10
461.151522
 20
188.986353
 30
0.0
 40
0.25773105183197
100
AcDbArc
 50
329.382973
 51
192.56631
  0
ARC
  5
17C
330
15B
100
AcDbEntity
  8
0
  6
Continuous
 62
     0
370
     0
100
AcDbCircle
 10
462.134876
 20
173.851404
 30
0.0
 40
7.71850420607237
100
AcDbArc
 50
158.574707
 51
179.347991
  0
ARC
  5
17D
330
15B
100
AcDbEntity
  8
0
  6
Continuous
 62
     0
370
     0
100
AcDbCircle
 10
221.260447
 20
-1559.588177
 30
0.0
 40
1751.91501133823
100
AcDbArc
 50
82.334423
 51
83.900902
  0
ARC
  5
17E
330
15B
100
AcDbEntity
  8
0
  6
Continuous
 62
     0
370
     0
100
AcDbCircle
 10
301.74034
 20
-681.214835
 30
0.0
 40
868.6763550186981
100
AcDbArc
 50
79.877247
 51
83.031441
  0
ARC
  5
17F
330
15B
100
AcDbEntity
  8
0
  6
Continuous
 62
     0
370
     0
100
AcDbCircle
 10
486.635262
 20
379.481856
 30
0.0
 40
227.0205277356889
100
AcDbArc
 50
249.464872
 51
261.795734
  0
LWPOLYLINE
  5
180
330
15B
100
AcDbEntity
  8
0
  6
Continuous
 62
     0
370
     0
100
AcDbPolyline
 90
        9
 70
     0
 43
0.0
 10
454.238831
 20
154.784744
 10
454.245728
 20
154.481033
 10
454.272095
 20
154.229675
 10
454.317017
 20
154.040283
 10
454.378693
 20
153.920105
 10
454.454803
 20
153.873734
 10
454.54245
 20
153.902924
 10
454.638275
 20
154.006577
 10
454.740753
 20
154.185165
  0
ARC
  5
181
330
15B
100
AcDbEntity
  8
0
  6
Continuous
 62
     0
370
     0
100
AcDbCircle
 10
189.031817
 20
-1799.458106
 30
0.0
 40
1993.940349790285
100
AcDbArc
 50
80.909146
 51
82.336027
  0
LINE
  5
182
330
15B
100
AcDbEntity
  8
0
  6
Continuous
 62
     0
370
     0
100
AcDbLine
 10
504.075353
 20
169.436428
 30
0.0
 11
507.479026
 21
176.449126
 31
0.0
  0
ARC
  5
183
330
15B
100
AcDbEntity
  8
0
  6
Continuous
 62
     0
370
     0
100
AcDbCircle
 10
425.040247
 20
-38.052524
 30
0.0
 40
229.7979767936177
100
AcDbArc
 50
68.976898
 51
81.022367
  0
ARC
  5
184
330
15B
100
AcDbEntity
  8
0
  6
Continuous
 62
     0
370
     0
100
AcDbCircle
 10
280.35087
 20
-801.230636
 30
0.0
 40
990.5832889734596
100
AcDbArc
 50
77.009987
 51
79.879398
  0
LWPOLYLINE
  5
185
330
15B
100
AcDbEntity
  8
0
  6
Continuous
 62
     0
370
     0
100
AcDbPolyline
 90
       12
 70
     0
 43
0.0
 10
503.01532
 20
164.002914
 10
503.041656
 20
164.488953
 10
503.086182
 20
165.008575
 10
503.148041
 20
165.549911
 10
503.225983
 20
166.102798
 10
503.318451
 20
166.656326
 10
503.423553
 20
167.199493
 10
503.539307
 20
167.721619
 10
503.663391
 20
168.212357
 10
503.793365
 20
168.661896
 10
503.926819
 20
169.061676
 10
504.075287
 20
169.436432
  0
ARC
  5
186
330
15B
100
AcDbEntity
  8
0
  6
Continuous
 62
     0
370
     0
100
AcDbCircle
 10
486.775826
 20
383.459005
 30
0.0
 40
230.9774251874694
100
AcDbArc
 50
261.902008
 51
274.006337
  0
LINE
  5
187
330
15B
100
AcDbEntity
  8
0
  6
Continuous
 62
     0
370
     0
100
AcDbLine
 10
502.913536
 20
153.046017
 30
0.0
 11
503.015376
 21
164.002888
 31
0.0
  0
LWPOLYLINE
  5
188
330
15B
100
AcDbEntity
  8
0
  6
Continuous
 62
     0
370
     0
100
AcDbPolyline
 90
        9
 70
     0
 43
0.0
 10
502.913483
 20
153.046021
 10
502.929138
 20
152.632431
 10
502.960541
 20
152.261642
 10
503.007141
 20
151.941071
 10
503.068146
 20
151.675659
 10
503.142517
 20
151.469574
 10
503.228943
 20
151.326401
 10
503.325958
 20
151.248489
 10
503.441864
 20
151.239441
  0
LWPOLYLINE
  5
189
330
15B
100
AcDbEntity
  8
0
  6
Continuous
 62
     0
370
     0
100
AcDbPolyline
 90
        6
 70
     0
 43
0.0
 10
508.158051
 20
177.03125
 10
508.043915
 20
177.05835
 10
507.917297
 20
177.013702
 10
507.780426
 20
176.897919
 10
507.63562
 20
176.712723
 10
507.478973
 20
176.449142
  0
ARC
  5
18A
330
15B
100
AcDbEntity
  8
0
  6
Continuous
 62
     0
370
     0
100
AcDbCircle
 10
507.364885
 20
175.928206
 30
0.0
 40
0.5332839601599058
100
AcDbArc
 50
4.620952
 51
77.640852
  0
LWPOLYLINE
  5
18B
330
15B
100
AcDbEntity
  8
0
  6
Continuous
 62
     0
370
     0
100
AcDbPolyline
 90
       12
 70
     0
 43
0.0
 10
508.770294
 20
174.927307
 10
508.765076
 20
175.318253
 10
508.741852
 20
175.664871
 10
508.700958
 20
175.958755
 10
508.643433
 20
176.194626
 10
508.570526
 20
176.367996
 10
508.483459
 20
176.474762
 10
508.384033
 20
176.513367
 10
508.274323
 20
176.483444
 10
508.156342
 20
176.384628
 10
508.032471
 20
176.218643
 10
507.896423
 20
175.971176
  0
ELLIPSE
  5
18C
330
15B
100
AcDbEntity
  8
0
  6
Continuous
 62
     0
370
     0
100
AcDbEllipse
 10
508.287329
 20
175.002029
 30
0.0
 11
0.4999774731449095
 21
-0.00474619296745302
 31
0.0
210
0.0
220
0.0
230
-1.0
 40
0.552989
 41
6.018094234896745
 42
6.539619826767622
  0
LINE
  5
18D
330
15B
100
AcDbEntity
  8
0
  6
Continuous
 62
     0
370
     0
100
AcDbLine
 10
508.750386
 20
172.785723
 30
0.0
 11
508.770291
 21
174.927313
 31
0.0
  0
LINE
  5
18E
330
15B
100
AcDbEntity
  8
0
  6
Continuous
 62
     0
370
     0
100
AcDbLine
 10
504.336927
 20
152.201222
 30
0.0
 11
505.715302
 21
155.041135
 31
0.0
  0
ELLIPSE
  5
18F
330
15B
100
AcDbEntity
  8
0
  6
Continuous
 62
     0
370
     0
100
AcDbEllipse
 10
503.853964
 20
152.275938
 30
0.0
 11
0.4498169644310515
 21
-0.2183224645107076
 31
0.0
210
0.0
220
0.0
230
1.0
 40
0.805583
 41
0.0000000295897529
 42
0.3647073891892871
  0
LWPOLYLINE
  5
190
330
15B
100
AcDbEntity
  8
0
  6
Continuous
 62
     0
370
     0
100
AcDbPolyline
 90
       12
 70
     0
 43
0.0
 10
503.462982
 20
153.244919
 10
503.468201
 20
152.853973
 10
503.491425
 20
152.507355
 10
503.532318
 20
152.21347
 10
503.589844
 20
151.9776
 10
503.66275
 20
151.80423
 10
503.749817
 20
151.697464
 10
503.849243
 20
151.658859
 10
503.958954
 20
151.688797
 10
504.076935
 20
151.787598
 10
504.200806
 20
151.953583
 10
504.336853
 20
152.201065
  0
ELLIPSE
  5
191
330
15B
100
AcDbEntity
  8
0
  6
Continuous
 62
     0
370
     0
100
AcDbEllipse
 10
502.980025
 20
153.319633
 30
0.0
 11
-0.4999774731448291
 21
0.004746192967504025
 31
0.0
210
0.0
220
0.0
230
1.0
 40
0.552989
 41
1.442563909707477
 42
2.885158134001914
  0
LINE
  5
192
330
15B
100
AcDbEntity
  8
0
  6
Continuous
 62
     0
370
     0
100
AcDbLine
 10
503.462984
 20
153.24491
 30
0.0
 11
503.564827
 21
164.20205
 31
0.0
  0
ELLIPSE
  5
193
330
15B
100
AcDbEntity
  8
0
  6
Continuous
 62
     0
370
     0
100
AcDbEllipse
 10
503.081864
 20
164.276766
 30
0.0
 11
0.499978403960304
 21
-0.004647103755144831
 31
0.0
210
0.0
220
0.0
230
-1.0
 40
0.553514
 41
0.2565441669823116
 42
1.699027201881383
  0
ARC
  5
194
330
15B
100
AcDbEntity
  8
0
  6
Continuous
 62
     0
370
     0
100
AcDbCircle
 10
517.007852
 20
164.048253
 30
0.0
 40
13.44390224680762
100
AcDbArc
 50
158.579385
 51
179.343314
  0
ARC
  5
195
330
15B
100
AcDbEntity
  8
0
  6
Continuous
 62
     0
370
     0
100
AcDbCircle
 10
503.961044
 20
168.915578
 30
0.0
 40
0.5332503245208053
100
AcDbArc
 50
4.57624
 51
77.627505
  0
LINE
  5
196
330
15B
100
AcDbEntity
  8
0
  6
Continuous
 62
     0
370
     0
100
AcDbLine
 10
504.492594
 20
168.958124
 30
0.0
 11
507.896435
 21
175.97117
 31
0.0
  0
ELLIPSE
  5
197
330
15B
100
AcDbEntity
  8
0
  6
Continuous
 62
     0
370
    30
100
AcDbEllipse
 10
506.116638
 20
164.086107
 30
0.0
 11
-1.375964669272765
 21
-8.894196034282293
 31
0.0
210
0.0
220
0.0
230
-1.0
 40
0.211324
 41
6.283184687846341
 42
7.252174400307978
  0
ELLIPSE
  5
198
330
15B
100
AcDbEntity
  8
0
  6
Continuous
 62
     0
370
    30
100
AcDbEllipse
 10
506.116638
 20
164.086107
 30
0.0
 11
-1.375964669272765
 21
-8.894196034282293
 31
0.0
210
0.0
220
0.0
230
-1.0
 40
0.211324
 41
0.9689890931283914
 42
3.141592034256549
  0
ELLIPSE
  5
199
330
15B
100
AcDbEntity
  8
0
  6
Continuous
 62
     0
370
    30
100
AcDbEllipse
 10
515.775896
 20
162.591815
 30
0.0
 11
-1.375937559192238
 21
-8.894200228268641
 31
0.0
210
0.0
220
0.0
230
-1.0
 40
0.211325
 41
4.110582390847219
 42
7.252175044437012
  0
ELLIPSE
  5
19A
330
15B
100
AcDbEntity
  8
0
  6
Continuous
 62
     0
370
    30
100
AcDbEllipse
 10
515.775896
 20
162.591815
 30
0.0
 11
-1.375937559192238
 21
-8.894200228268641
 31
0.0
210
0.0
220
0.0
230
-1.0
 40
0.211325
 41
0.968989737257426
 42
4.110582390847214
  0
LINE
  5
19B
330
15B
100
AcDbEntity
  8
0
  6
Continuous
 62
     0
370
    30
100
AcDbLine
 10
514.399959
 20
153.697615
 30
0.0
 11
504.740696
 21
155.191908
 31
0.0
  0
LINE
  5
19C
330
15B
100
AcDbEntity
  8
0
  6
Continuous
 62
     0
370
    30
100
AcDbLine
 10
517.151834
 20
171.486015
 30
0.0
 11
507.492579
 21
172.980307
 31
0.0
  0
ARC
  5
19D
330
15B
100
AcDbEntity
  8
0
  6
Continuous
 62
     0
370
    30
100
AcDbCircle
 10
503.132944
 20
152.432818
 30
0.0
 40
1.229447417639592
100
AcDbArc
 50
282.76703
 51
342.219993
  0
ARC
  5
19E
330
15B
100
AcDbEntity
  8
0
  6
Continuous
 62
     0
370
    30
100
AcDbCircle
 10
506.69589
 20
175.453605
 30
0.0
 40
2.140541083734687
100
AcDbArc
 50
347.696838
 51
48.092564
  0
ARC
  5
19F
330
15B
100
AcDbEntity
  8
0
  6
Continuous
 62
     0
370
    30
100
AcDbCircle
 10
427.111196
 20
-38.349726
 30
0.0
 40
230.1282106693151
100
AcDbArc
 50
69.387818
 51
81.484018
  0
ARC
  5
1A0
330
15B
100
AcDbEntity
  8
0
  6
Continuous
 62
     0
370
    30
100
AcDbCircle
 10
491.642775
 20
388.283149
 30
0.0
 40
237.3410625665101
100
AcDbArc
 50
260.984252
 51
272.840495
  0
ARC
  5
1A1
330
15B
100
AcDbEntity
  8
0
  6
Continuous
 62
     0
370
    30
100
AcDbCircle
 10
489.936849
 20
383.212626
 30
0.0
 40
232.0675636381038
100
AcDbArc
 50
249.086163
 51
261.204176
  0
ARC
  5
1A2
330
15B
100
AcDbEntity
  8
0
  6
Continuous
 62
     0
370
    30
100
AcDbCircle
 10
425.135451
 20
-45.411583
 30
0.0
 40
237.4065249287176
100
AcDbArc
 50
81.264711
 51
93.188089
  0
LWPOLYLINE
  5
1A3
330
15B
100
AcDbEntity
  8
0
  6
Continuous
 62
     0
370
    30
100
AcDbPolyline
 90
       47
 70
     0
 43
0.0
 10
358.652649
 20
164.872894
 10
359.292267
 20
165.370422
 10
360.005463
 20
165.842194
 10
360.762268
 20
166.299179
 10
361.536957
 20
166.745178
 10
362.330444
 20
167.178162
 10
363.145355
 20
167.595398
 10
363.990204
 20
167.990692
 10
364.875946
 20
168.356354
 10
365.805389
 20
168.690186
 10
366.77121
 20
168.996201
 10
367.767578
 20
169.276535
 10
368.78894
 20
169.532974
 10
369.830109
 20
169.767075
 10
370.889679
 20
169.977402
 10
371.969086
 20
170.160339
 10
373.068054
 20
170.314026
 10
374.183228
 20
170.439911
 10
375.310852
 20
170.539948
 10
376.448181
 20
170.617096
 10
377.593048
 20
170.674896
 10
378.743713
 20
170.713104
 10
379.900116
 20
170.720154
 10
381.061249
 20
170.694504
 10
382.225372
 20
170.643051
 10
383.390656
 20
170.5728
 10
384.55542
 20
170.490677
 10
385.718628
 20
170.399887
 10
386.880432
 20
170.299042
 10
388.040894
 20
170.186417
 10
389.199554
 20
170.060913
 10
390.355438
 20
169.921799
 10
391.50766
 20
169.768539
 10
392.655975
 20
169.602005
 10
393.800507
 20
169.423706
 10
394.94104
 20
169.234482
 10
396.075928
 20
169.03244
 10
397.203247
 20
168.815018
 10
398.322113
 20
168.581711
 10
399.434113
 20
168.336365
 10
400.540955
 20
168.083176
 10
401.643463
 20
167.824249
 10
402.741302
 20
167.559494
 10
403.834137
 20
167.288773
 10
404.921692
 20
167.011902
 10
406.003571
 20
166.728729
 10
407.101074
 20
166.433182
  0
LWPOLYLINE
  5
1A4
330
15B
100
AcDbEntity
  8
0
  6
Continuous
 62
     0
370
    30
100
AcDbPolyline
 90
       39
 70
     0
 43
0.0
 10
411.937317
 20
191.627014
 10
410.070679
 20
191.704071
 10
408.202576
 20
191.770035
 10
406.333221
 20
191.825516
 10
404.462677
 20
191.871109
 10
402.591095
 20
191.907394
 10
400.718597
 20
191.934967
 10
398.845337
 20
191.954437
 10
396.971405
 20
191.965897
 10
395.096863
 20
191.96817
 10
393.221802
 20
191.959915
 10
391.346252
 20
191.939728
 10
389.470306
 20
191.906342
 10
387.593964
 20
191.860168
 10
385.717255
 20
191.803146
 10
383.84079
 20
191.732941
 10
381.966583
 20
191.638855
 10
380.096313
 20
191.511765
 10
378.22998
 20
191.355057
 10
376.367035
 20
191.175888
 10
374.507019
 20
190.980942
 10
372.654816
 20
190.761414
 10
370.821014
 20
190.491028
 10
369.016571
 20
190.150513
 10
367.250916
 20
189.742477
 10
365.528412
 20
189.274384
 10
363.8508
 20
188.754669
 10
362.211761
 20
188.195969
 10
360.602539
 20
187.611557
 10
359.023132
 20
187.002228
 10
357.479034
 20
186.361374
 10
355.981354
 20
185.683609
 10
354.546448
 20
184.964844
 10
353.178925
 20
184.207062
 10
351.865021
 20
183.421432
 10
350.600098
 20
182.614639
 10
349.389099
 20
181.787445
 10
348.227142
 20
180.933716
 10
347.118164
 20
180.061935
  0
ARC
  5
1A5
330
15B
100
AcDbEntity
  8
0
  6
Continuous
 62
     0
370
    30
100
AcDbCircle
 10
319.006462
 20
162.953133
 30
0.0
 40
20.32287704994403
100
AcDbArc
 50
123.438893
 51
182.559643
  0
LWPOLYLINE
  5
1A6
330
15B
100
AcDbEntity
  8
0
  6
Continuous
 62
     0
370
    30
100
AcDbPolyline
 90
       56
 70
     0
 43
0.0
 10
352.74823
 20
126.781364
 10
351.948273
 20
125.921852
 10
351.095123
 20
125.118324
 10
350.191071
 20
124.373207
 10
349.238525
 20
123.688759
 10
348.23996
 20
123.066475
 10
347.197937
 20
122.50753
 10
346.115021
 20
122.013115
 10
344.993774
 20
121.584404
 10
343.836731
 20
121.222588
 10
342.646545
 20
120.928459
 10
341.425995
 20
120.702087
 10
340.177856
 20
120.543472
 10
338.904999
 20
120.452621
 10
337.610168
 20
120.42952
 10
336.296143
 20
120.474174
 10
334.96579
 20
120.586578
 10
333.621857
 20
120.766731
 10
332.267212
 20
121.014236
 10
330.904663
 20
121.328094
 10
329.537048
 20
121.707245
 10
328.167267
 20
122.150627
 10
326.798157
 20
122.657196
 10
325.432587
 20
123.225876
 10
324.073395
 20
123.855614
 10
322.723419
 20
124.545349
 10
321.385468
 20
125.293633
 10
320.062347
 20
126.098526
 10
318.756805
 20
126.958061
 10
317.471558
 20
127.870247
 10
316.209412
 20
128.833115
 10
314.973083
 20
129.844696
 10
313.76535
 20
130.903
 10
312.588989
 20
132.006058
 10
311.446533
 20
133.151657
 10
310.340179
 20
134.337097
 10
309.272034
 20
135.559555
 10
308.244171
 20
136.816238
 10
307.258728
 20
138.104355
 10
306.31781
 20
139.421127
 10
305.423553
 20
140.763733
 10
304.578003
 20
142.129395
 10
303.783295
 20
143.515305
 10
303.041534
 20
144.918671
 10
302.35437
 20
146.336594
 10
301.722931
 20
147.766068
 10
301.148346
 20
149.204086
 10
300.631714
 20
150.647629
 10
300.174164
 20
152.093674
 10
299.776764
 20
153.539215
 10
299.440643
 20
154.981247
 10
299.16684
 20
156.416718
 10
298.955872
 20
157.84227
 10
298.808136
 20
159.254501
 10
298.723938
 20
160.649979
 10
298.703857
 20
162.045532
  0
ARC
  5
1A7
330
15B
100
AcDbEntity
  8
0
  6
Continuous
 62
     0
370
    30
100
AcDbCircle
 10
326.670944
 20
150.295829
 30
0.0
 40
35.11627151772992
100
AcDbArc
 50
317.958323
 51
122.494122
  0
LINE
  5
1A8
330
15B
100
AcDbEntity
  8
0
  6
Continuous
 62
     0
370
    30
100
AcDbLine
 10
347.102937
 20
180.053402
 30
0.0
 11
346.342247
 21
179.42264
 31
0.0
  0
ENDBLK
  5
1AA
330
15B
100
AcDbEntity
  8
0
100
AcDbBlockEnd
  0
BLOCK
  5
207
330
1AC
100
AcDbEntity
  8
0
100
AcDbBlockBegin
  2
e
 70
     0
 10
32.697037
 20
0.0
 30
0.0
  3
e
  1

  0
ARC
  5
1AD
330
1AC
100
AcDbEntity
  8
0
  6
Continuous
 62
     0
370
     0
100
AcDbCircle
 10
-35.707769
 20
360.192318
 30
0.0
 40
21.70721087929376
100
AcDbArc
 50
51.388692
 51
130.732556
  0
LWPOLYLINE
  5
1AE
330
1AC
100
AcDbEntity
  8
0
  6
Continuous
 62
     0
370
     0
100
AcDbPolyline
 90
       18
 70
     0
 43
0.0
 10
-49.872356
 20
376.641266
 10
-49.102375
 20
375.871857
 10
-48.32106
 20
375.078522
 10
-47.529285
 20
374.261383
 10
-46.734768
 20
373.437378
 10
-45.949986
 20
372.634827
 10
-45.177383
 20
371.857513
 10
-44.428867
 20
371.125732
 10
-43.717358
 20
370.458984
 10
-43.037006
 20
369.843781
 10
-42.377102
 20
369.260498
 10
-41.737324
 20
368.707977
 10
-41.122051
 20
368.192261
 10
-40.535931
 20
367.719391
 10
-39.983498
 20
367.294769
 10
-39.468845
 20
366.923035
 10
-38.995201
 20
366.60733
 10
-38.560692
 20
366.347015
  0
LWPOLYLINE
  5
1AF
330
1AC
100
AcDbEntity
  8
0
  6
Continuous
 62
     0
370
     0
100
AcDbPolyline
 90
       25
 70
     0
 43
0.0
 10
-25.389839
 20
365.745087
 10
-25.610096
 20
365.782074
 10
-25.804094
 20
365.84903
 10
-25.963852
 20
365.95459
 10
-26.086626
 20
366.101166
 10
-26.17029
 20
366.290344
 10
-26.213251
 20
366.523041
 10
-26.214808
 20
366.799225
 10
-26.17528
 20
367.117706
 10
-26.095974
 20
367.476349
 10
-25.979073
 20
367.872253
 10
-25.827461
 20
368.30191
 10
-25.644566
 20
368.761444
 10
-25.434238
 20
369.246796
 10
-25.200087
 20
369.754333
 10
-24.937368
 20
370.288025
 10
-24.628027
 20
370.862701
 10
-24.259745
 20
371.487488
 10
-23.844587
 20
372.150635
 10
-23.403427
 20
372.834229
 10
-22.936134
 20
373.537689
 10
-22.459162
 20
374.248566
 10
-21.998877
 20
374.947327
 10
-21.563494
 20
375.627502
 10
-21.148514
 20
376.29425
  0
LINE
  5
1B0
330
1AC
100
AcDbEntity
  8
0
  6
Continuous
 62
     0
370
     0
100
AcDbLine
 10
-21.148513
 20
376.294246
 30
0.0
 11
-22.161735
 21
377.154274
 31
0.0
  0
ARC
  5
1B1
330
1AC
100
AcDbEntity
  8
0
  6
Continuous
 62
     0
370
     0
100
AcDbCircle
 10
-36.672375
 20
359.454852
 30
0.0
 40
22.9304893662983
100
AcDbArc
 50
322.546293
 51
38.803869
  0
LWPOLYLINE
  5
1B2
330
1AC
100
AcDbEntity
  8
0
  6
Continuous
 62
     0
370
     0
100
AcDbPolyline
 90
       18
 70
     0
 43
0.0
 10
-18.802744
 20
373.824402
 10
-19.298288
 20
373.262787
 10
-19.818758
 20
372.686646
 10
-20.366211
 20
372.095123
 10
-20.932535
 20
371.493134
 10
-21.490053
 20
370.896301
 10
-22.01919
 20
370.315887
 10
-22.520903
 20
369.751862
 10
-22.9737
 20
369.218079
 10
-23.361868
 20
368.725739
 10
-23.696375
 20
368.26889
 10
-23.997482
 20
367.83493
 10
-24.27244
 20
367.41925
 10
-24.517704
 20
367.024536
 10
-24.728943
 20
366.654083
 10
-24.902252
 20
366.311157
 10
-25.034269
 20
365.998718
 10
-25.122377
 20
365.719086
  0
ARC
  5
1B3
330
1AC
100
AcDbEntity
  8
0
  6
Continuous
 62
     0
370
     0
100
AcDbCircle
 10
13.937282
 20
378.26976
 30
0.0
 40
47.41623160877995
100
AcDbArc
 50
215.163534
 51
225.466411
  0
LINE
  5
1B4
330
1AC
100
AcDbEntity
  8
0
  6
Continuous
 62
     0
370
     0
100
AcDbLine
 10
-19.317015
 20
344.4696
 30
0.0
 11
-18.469122
 21
345.510358
 31
0.0
  0
ARC
  5
1B5
330
1AC
100
AcDbEntity
  8
0
  6
Continuous
 62
     0
370
     0
100
AcDbCircle
 10
-35.912897
 20
358.506392
 30
0.0
 40
21.70721088066666
100
AcDbArc
 50
231.388694
 51
310.732556
  0
LWPOLYLINE
  5
1B6
330
1AC
100
AcDbEntity
  8
0
  6
Continuous
 62
     0
370
     0
100
AcDbPolyline
 90
       17
 70
     0
 43
0.0
 10
-21.748312
 20
342.057465
 10
-22.125778
 20
342.670837
 10
-22.523802
 20
343.302979
 10
-22.94429
 20
343.955048
 10
-23.381514
 20
344.621765
 10
-23.813492
 20
345.28418
 10
-24.221577
 20
345.926056
 10
-24.607307
 20
346.548279
 10
-24.95542
 20
347.136169
 10
-25.250235
 20
347.673798
 10
-25.497345
 20
348.165283
 10
-25.713715
 20
348.62619
 10
-25.908421
 20
349.065063
 10
-26.079718
 20
349.479919
 10
-26.224129
 20
349.866852
 10
-26.338518
 20
350.222198
 10
-26.421658
 20
350.54953
  0
ARC
  5
1B7
330
1AC
100
AcDbEntity
  8
0
  6
Continuous
 62
     0
370
     0
100
AcDbCircle
 10
19.269063
 20
270.548367
 30
0.0
 40
100.1355878946567
100
AcDbArc
 50
128.379095
 51
134.1443
  0
LINE
  5
1B8
330
1AC
100
AcDbEntity
  8
0
  6
Continuous
 62
     0
370
     0
100
AcDbLine
 10
-50.472153
 20
342.404465
 30
0.0
 11
-49.458931
 21
341.544436
 31
0.0
  0
LINE
  5
1B9
330
1AC
100
AcDbEntity
  8
0
  6
Continuous
 62
     0
370
     0
100
AcDbLine
 10
-25.389843
 20
365.74483
 30
0.0
 11
-25.289888
 21
365.738611
 31
0.0
  0
LINE
  5
1BA
330
1AC
100
AcDbEntity
  8
0
  6
Continuous
 62
     0
370
     0
100
AcDbLine
 10
-18.802746
 20
373.824392
 30
0.0
 11
-21.148513
 21
376.294246
 31
0.0
  0
LINE
  5
1BB
330
1AC
100
AcDbEntity
  8
0
  6
Continuous
 62
     0
370
     0
100
AcDbLine
 10
-21.74831
 20
342.057457
 30
0.0
 11
-19.317015
 21
344.4696
 31
0.0
  0
ARC
  5
1BC
330
1AC
100
AcDbEntity
  8
0
  6
Continuous
 62
     0
370
     0
100
AcDbCircle
 10
-35.445624
 20
358.9961
 30
0.0
 40
22.38797428447024
100
AcDbArc
 50
208.434147
 51
219.107345
  0
ARC
  5
1BD
330
1AC
100
AcDbEntity
  8
0
  6
Continuous
 62
     0
370
     0
100
AcDbCircle
 10
-34.998601
 20
359.283943
 30
0.0
 40
22.8661737958753
100
AcDbArc
 50
142.548901
 51
159.824361
  0
LINE
  5
1BE
330
1AC
100
AcDbEntity
  8
0
  6
Continuous
 62
     0
370
     0
100
AcDbLine
 10
-52.817921
 20
344.874319
 30
0.0
 11
-47.140192
 21
348.777651
 31
0.0
  0
ARC
  5
1BF
330
1AC
100
AcDbEntity
  8
0
  6
Continuous
 62
     0
370
     0
100
AcDbCircle
 10
21.831541
 20
464.502039
 30
0.0
 40
116.8127927507864
100
AcDbArc
 50
230.605999
 51
237.033157
  0
LINE
  5
1C0
330
1AC
100
AcDbEntity
  8
0
  6
Continuous
 62
     0
370
     0
100
AcDbLine
 10
-52.303652
 20
374.22911
 30
0.0
 11
-53.15143
 21
373.1885
 31
0.0
  0
LINE
  5
1C1
330
1AC
100
AcDbEntity
  8
0
  6
Continuous
 62
     0
370
     0
100
AcDbLine
 10
-52.81792
 20
344.874318
 30
0.0
 11
-50.472153
 21
342.404465
 31
0.0
  0
LINE
  5
1C2
330
1AC
100
AcDbEntity
  8
0
  6
Continuous
 62
     0
370
     0
100
AcDbLine
 10
-49.872356
 20
376.641253
 30
0.0
 11
-52.303652
 21
374.22911
 31
0.0
  0
ELLIPSE
  5
1C3
330
1AC
100
AcDbEntity
  8
0
  6
Continuous
 62
     0
370
     0
100
AcDbEllipse
 10
-40.772585
 20
360.033295
 30
0.0
 11
4.778558969529637
 21
34.66624111220321
 31
0.0
210
0.0
220
0.0
230
1.0
 40
0.977774
 41
5.47410754232945
 42
5.771214840113301
  0
ELLIPSE
  5
1C4
330
1AC
100
AcDbEntity
  8
0
  6
Continuous
 62
     0
370
     0
100
AcDbEllipse
 10
-40.772585
 20
360.033295
 30
0.0
 11
4.778558969529637
 21
34.66624111220321
 31
0.0
210
0.0
220
0.0
230
1.0
 40
0.977774
 41
5.843264808383716
 42
6.407852554992679
  0
ELLIPSE
  5
1C5
330
1AC
100
AcDbEntity
  8
0
  6
Continuous
 62
     0
370
     0
100
AcDbEllipse
 10
-40.772585
 20
360.033295
 30
0.0
 11
4.778558969529637
 21
34.66624111220321
 31
0.0
210
0.0
220
0.0
230
1.0
 40
0.977774
 41
0.1246672478130924
 42
0.761715417277026
  0
ELLIPSE
  5
1C6
330
1AC
100
AcDbEntity
  8
0
  6
Continuous
 62
     0
370
     0
100
AcDbEllipse
 10
-40.772585
 20
360.033295
 30
0.0
 11
4.778558969529637
 21
34.66624111220321
 31
0.0
210
0.0
220
0.0
230
1.0
 40
0.977774
 41
0.761715417277026
 42
1.058822320802702
  0
ELLIPSE
  5
1C7
330
1AC
100
AcDbEntity
  8
0
  6
Continuous
 62
     0
370
     0
100
AcDbEllipse
 10
-40.772585
 20
360.033295
 30
0.0
 11
4.778558969529637
 21
34.66624111220321
 31
0.0
210
0.0
220
0.0
230
1.0
 40
0.977774
 41
1.058822320802702
 42
1.431615649293432
  0
ELLIPSE
  5
1C8
330
1AC
100
AcDbEntity
  8
0
  6
Continuous
 62
     0
370
     0
100
AcDbEllipse
 10
-40.772585
 20
360.033295
 30
0.0
 11
4.778558969529637
 21
34.66624111220321
 31
0.0
210
0.0
220
0.0
230
1.0
 40
0.977774
 41
2.118128853351806
 42
2.332509926726254
  0
ELLIPSE
  5
1C9
330
1AC
100
AcDbEntity
  8
0
  6
Continuous
 62
     0
370
     0
100
AcDbEllipse
 10
-40.772585
 20
360.033295
 30
0.0
 11
4.778558969529637
 21
34.66624111220321
 31
0.0
210
0.0
220
0.0
230
1.0
 40
0.977774
 41
2.332509926726254
 42
2.629617830492601
  0
ELLIPSE
  5
1CA
330
1AC
100
AcDbEntity
  8
0
  6
Continuous
 62
     0
370
     0
100
AcDbEllipse
 10
-40.772585
 20
360.033295
 30
0.0
 11
4.778558969529637
 21
34.66624111220321
 31
0.0
210
0.0
220
0.0
230
1.0
 40
0.977774
 41
2.629617830492601
 42
3.266259885970233
  0
ELLIPSE
  5
1CB
330
1AC
100
AcDbEntity
  8
0
  6
Continuous
 62
     0
370
     0
100
AcDbEllipse
 10
-40.772585
 20
360.033295
 30
0.0
 11
4.778558969529637
 21
34.66624111220321
 31
0.0
210
0.0
220
0.0
230
1.0
 40
0.977774
 41
3.266259885970232
 42
3.581513216434677
  0
LINE
  5
1CC
330
1AC
100
AcDbEntity
  8
0
  6
Continuous
 62
     0
370
     0
100
AcDbLine
 10
-24.500926
 20
365.652436
 30
0.0
 11
-58.206041
 21
367.174206
 31
0.0
  0
ARC
  5
1CD
330
1AC
100
AcDbEntity
  8
0
  6
Continuous
 62
     0
370
    30
100
AcDbCircle
 10
-58.640074
 20
366.340958
 30
0.0
 40
0.9395141614827054
100
AcDbArc
 50
347.933522
 51
62.485293
  0
LINE
  5
1CE
330
1AC
100
AcDbEntity
  8
0
  6
Continuous
 62
     0
370
     0
100
AcDbLine
 10
-57.721318
 20
366.144556
 30
0.0
 11
-23.560902
 21
364.644976
 31
0.0
  0
LWPOLYLINE
  5
1CF
330
1AC
100
AcDbEntity
  8
0
  6
Continuous
 62
     0
370
    30
100
AcDbPolyline
 90
       48
 70
     0
 43
0.0
 10
-57.977203
 20
349.152252
 10
-56.789753
 20
349.204468
 10
-55.607841
 20
349.259003
 10
-54.434856
 20
349.315948
 10
-53.267765
 20
349.374969
 10
-52.103481
 20
349.435699
 10
-50.943153
 20
349.498077
 10
-49.789902
 20
349.562164
 10
-48.643318
 20
349.627808
 10
-47.502567
 20
349.694794
 10
-46.36694
 20
349.762939
 10
-45.236908
 20
349.832123
 10
-44.114426
 20
349.902344
 10
-43.001934
 20
349.973633
 10
-41.900753
 20
350.045929
 10
-40.80946
 20
350.118988
 10
-39.729584
 20
350.19281
 10
-38.653969
 20
350.266785
 10
-37.587585
 20
350.341064
 10
-36.547543
 20
350.416595
 10
-35.516582
 20
350.492218
 10
-34.529232
 20
350.569824
 10
-33.561329
 20
350.647858
 10
-32.612762
 20
350.726135
 10
-31.683847
 20
350.804565
 10
-30.778893
 20
350.88324
 10
-29.888943
 20
350.961548
 10
-29.053183
 20
351.041351
 10
-28.290323
 20
351.12326
 10
-27.600225
 20
351.206909
 10
-26.983524
 20
351.292023
 10
-26.439758
 20
351.378235
 10
-25.963776
 20
351.465118
 10
-25.535267
 20
351.551727
 10
-25.146507
 20
351.637726
 10
-24.798002
 20
351.722931
 10
-24.48518
 20
351.807007
 10
-24.212456
 20
351.889893
 10
-23.995415
 20
351.971741
 10
-23.847862
 20
352.052612
 10
-23.769053
 20
352.132202
 10
-23.748529
 20
352.210022
 10
-23.775757
 20
352.285675
 10
-23.849312
 20
352.358826
 10
-23.969313
 20
352.42923
 10
-24.135754
 20
352.496674
 10
-24.345915
 20
352.560822
 10
-24.610182
 20
352.622437
  0
ARC
  5
1D0
330
1AC
100
AcDbEntity
  8
0
  6
Continuous
 62
     0
370
    30
100
AcDbCircle
 10
-58.809582
 20
348.972874
 30
0.0
 40
0.8514883688007229
100
AcDbArc
 50
291.896845
 51
12.161688
  0
LINE
  5
1D1
330
1AC
100
AcDbEntity
  8
0
  6
Continuous
 62
     0
370
    30
100
AcDbLine
 10
-57.977161
 20
349.152262
 30
0.0
 11
-57.721318
 21
366.144556
 31
0.0
  0
ARC
  5
1D2
330
1AC
100
AcDbEntity
  8
0
  6
Continuous
 62
     0
370
     0
100
AcDbCircle
 10
-93.193823
 20
154.874765
 30
0.0
 40
214.2288805263595
100
AcDbArc
 50
80.469169
 51
91.547583
  0
ARC
  5
1D3
330
1AC
100
AcDbEntity
  8
0
  6
Continuous
 62
     0
370
     0
100
AcDbCircle
 10
-102.127553
 20
122.958203
 30
0.0
 40
248.1357628224787
100
AcDbArc
 50
79.804812
 51
89.496998
  0
ARC
  5
1D4
330
1AC
100
AcDbEntity
  8
0
  6
Continuous
 62
     0
370
     0
100
AcDbCircle
 10
-100.816437
 20
369.41818
 30
0.0
 40
1.878409164818968
100
AcDbArc
 50
347.933489
 51
62.503607
  0
ARC
  5
1D5
330
1AC
100
AcDbEntity
  8
0
  6
Continuous
 62
     0
370
     0
100
AcDbCircle
 10
-100.988609
 20
345.6769
 30
0.0
 40
1.703552824301013
100
AcDbArc
 50
291.917172
 51
12.161523
  0
ARC
  5
1D6
330
1AC
100
AcDbEntity
  8
0
  6
Continuous
 62
     0
370
     0
100
AcDbCircle
 10
-93.970818
 20
550.73848
 30
0.0
 40
204.7726596115393
100
AcDbArc
 50
268.502198
 51
280.123933
  0
LINE
  5
1D7
330
1AC
100
AcDbEntity
  8
0
  6
Continuous
 62
     0
370
     0
100
AcDbLine
 10
-111.444024
 20
371.772032
 30
0.0
 11
-98.49325
 21
371.307551
 31
0.0
  0
ARC
  5
1D8
330
1AC
100
AcDbEntity
  8
0
  6
Continuous
 62
     0
370
     0
100
AcDbCircle
 10
-114.784084
 20
148.456561
 30
0.0
 40
223.3404437431178
100
AcDbArc
 50
89.143108
 51
99.579613
  0
LINE
  5
1D9
330
1AC
100
AcDbEntity
  8
0
  6
Continuous
 62
     0
370
     0
100
AcDbLine
 10
-151.951975
 20
368.682586
 30
0.0
 11
-145.376628
 21
368.289244
 31
0.0
  0
ARC
  5
1DA
330
1AC
100
AcDbEntity
  8
0
  6
Continuous
 62
     0
370
     0
100
AcDbCircle
 10
-102.807102
 20
46.986318
 30
0.0
 40
324.1106828477409
100
AcDbArc
 50
89.494776
 51
97.547171
  0
LWPOLYLINE
  5
1DB
330
1AC
100
AcDbEntity
  8
0
  6
Continuous
 62
     0
370
     0
100
AcDbPolyline
 90
        8
 70
     0
 43
0.0
 10
-153.535049
 20
367.327301
 10
-153.363159
 20
367.673889
 10
-153.169785
 20
367.975891
 10
-152.957809
 20
368.22879
 10
-152.730484
 20
368.428711
 10
-152.491074
 20
368.572601
 10
-152.242859
 20
368.658173
 10
-151.951935
 20
368.682587
  0
ARC
  5
1DC
330
1AC
100
AcDbEntity
  8
0
  6
Continuous
 62
     0
370
     0
100
AcDbCircle
 10
-116.893615
 20
571.584018
 30
0.0
 40
226.7808809647282
100
AcDbArc
 50
261.026213
 51
267.649174
  0
LINE
  5
1DD
330
1AC
100
AcDbEntity
  8
0
  6
Continuous
 62
     0
370
     0
100
AcDbLine
 10
-152.589007
 20
347.648238
 30
0.0
 11
-152.267479
 21
347.578979
 31
0.0
  0
ARC
  5
1DE
330
1AC
100
AcDbEntity
  8
0
  6
Continuous
 62
     0
370
     0
100
AcDbCircle
 10
-102.5691
 20
645.834027
 30
0.0
 40
301.7456904035383
100
AcDbArc
 50
261.783623
 51
270.42085
  0
LINE
  5
1DF
330
1AC
100
AcDbEntity
  8
0
  6
Continuous
 62
     0
370
     0
100
AcDbLine
 10
-152.267529
 20
347.578977
 30
0.0
 11
-145.692183
 21
347.185636
 31
0.0
  0
ARC
  5
1E0
330
1AC
100
AcDbEntity
  8
0
  6
Continuous
 62
     0
370
     0
100
AcDbCircle
 10
-92.387664
 20
606.076117
 30
0.0
 40
260.132806609004
100
AcDbArc
 50
258.636019
 51
268.472207
  0
LWPOLYLINE
  5
1E1
330
1AC
100
AcDbEntity
  8
0
  6
Continuous
 62
     0
370
     0
100
AcDbPolyline
 90
       13
 70
     0
 43
0.0
 10
-143.644455
 20
351.043152
 10
-143.678955
 20
350.530121
 10
-143.745056
 20
350.026886
 10
-143.841537
 20
349.543518
 10
-143.966782
 20
349.087555
 10
-144.118637
 20
348.666321
 10
-144.29454
 20
348.286957
 10
-144.491531
 20
347.95578
 10
-144.706406
 20
347.678284
 10
-144.935516
 20
347.459167
 10
-145.175156
 20
347.302185
 10
-145.421509
 20
347.210083
 10
-145.692123
 20
347.185638
  0
ARC
  5
1E2
330
1AC
100
AcDbEntity
  8
0
  6
Continuous
 62
     0
370
     0
100
AcDbCircle
 10
-91.430566
 20
92.49832
 30
0.0
 40
276.6302012749279
100
AcDbArc
 50
91.563739
 51
100.838361
  0
LINE
  5
1E3
330
1AC
100
AcDbEntity
  8
0
  6
Continuous
 62
     0
370
     0
100
AcDbLine
 10
-143.644507
 20
351.043152
 30
0.0
 11
-143.447869
 21
364.193864
 31
0.0
  0
LWPOLYLINE
  5
1E4
330
1AC
100
AcDbEntity
  8
0
  6
Continuous
 62
     0
370
     0
100
AcDbPolyline
 90
       13
 70
     0
 43
0.0
 10
-143.447815
 20
364.193878
 10
-143.466934
 20
364.708923
 10
-143.517899
 20
365.21817
 10
-143.599762
 20
365.711426
 10
-143.711136
 20
366.180969
 10
-143.850128
 20
366.619232
 10
-144.014343
 20
367.018799
 10
-144.201065
 20
367.373047
 10
-144.407227
 20
367.676056
 10
-144.629349
 20
367.922729
 10
-144.863815
 20
368.108826
 10
-145.106934
 20
368.231201
 10
-145.376572
 20
368.289246
  0
ARC
  5
1E5
330
1AC
100
AcDbEntity
  8
0
  6
Continuous
 62
     0
370
     0
100
AcDbCircle
 10
-145.271877
 20
367.810674
 30
0.0
 40
0.4898983628681628
100
AcDbArc
 50
102.345739
 51
182.001388
  0
ARC
  5
1E6
330
1AC
100
AcDbEntity
  8
0
  6
Continuous
 62
     0
370
     0
100
AcDbCircle
 10
-147.272883
 20
364.891951
 30
0.0
 40
3.271653443380676
100
AcDbArc
 50
347.9514
 51
62.485694
  0
LINE
  5
1E7
330
1AC
100
AcDbEntity
  8
0
  6
Continuous
 62
     0
370
     0
100
AcDbLine
 10
-143.447682
 20
364.20608
 30
0.0
 11
-144.0732
 21
364.215637
 31
0.0
  0
LINE
  5
1E8
330
1AC
100
AcDbEntity
  8
0
  6
Continuous
 62
     0
370
     0
100
AcDbLine
 10
-144.269945
 20
351.057967
 30
0.0
 11
-144.073301
 21
364.209021
 31
0.0
  0
LINE
  5
1E9
330
1AC
100
AcDbEntity
  8
0
  6
Continuous
 62
     0
370
     0
100
AcDbLine
 10
-143.644327
 20
351.055089
 30
0.0
 11
-144.269848
 21
351.064442
 31
0.0
  0
LWPOLYLINE
  5
1EA
330
1AC
100
AcDbEntity
  8
0
  6
Continuous
 62
     0
370
     0
100
AcDbPolyline
 90
       12
 70
     0
 43
0.0
 10
-144.269943
 20
351.057648
 10
-144.294724
 20
350.566864
 10
-144.354126
 20
350.086945
 10
-144.447083
 20
349.62912
 10
-144.57132
 20
349.202332
 10
-144.724243
 20
348.814972
 10
-144.903122
 20
348.475159
 10
-145.104294
 20
348.189117
 10
-145.323654
 20
347.962158
 10
-145.557114
 20
347.799652
 10
-145.799866
 20
347.705292
 10
-146.06221
 20
347.681305
  0
ARC
  5
1EB
330
1AC
100
AcDbEntity
  8
0
  6
Continuous
 62
     0
370
     0
100
AcDbCircle
 10
-145.591169
 20
347.647005
 30
0.0
 40
0.4722877680564207
100
AcDbArc
 50
175.835562
 51
257.650714
  0
LINE
  5
1EC
330
1AC
100
AcDbEntity
  8
0
  6
Continuous
 62
     0
370
     0
100
AcDbLine
 10
-152.637723
 20
348.074643
 30
0.0
 11
-146.06221
 21
347.681292
 31
0.0
  0
ARC
  5
1ED
330
1AC
100
AcDbEntity
  8
0
  6
Continuous
 62
     0
370
     0
100
AcDbCircle
 10
-152.166485
 20
348.040521
 30
0.0
 40
0.4724720388825799
100
AcDbArc
 50
175.858375
 51
257.656945
  0
ARC
  5
1EE
330
1AC
100
AcDbEntity
  8
0
  6
Continuous
 62
     0
370
     0
100
AcDbCircle
 10
-152.387695
 20
349.518461
 30
0.0
 40
1.465314644450874
100
AcDbArc
 50
203.502496
 51
260.169164
  0
ARC
  5
1EF
330
1AC
100
AcDbEntity
  8
0
  6
Continuous
 62
     0
370
     0
100
AcDbCircle
 10
-152.134441
 20
366.564684
 30
0.0
 40
1.634857370743389
100
AcDbArc
 50
97.122524
 51
166.940211
  0
ARC
  5
1F0
330
1AC
100
AcDbEntity
  8
0
  6
Continuous
 62
     0
370
     0
100
AcDbCircle
 10
-151.847168
 20
368.203648
 30
0.0
 40
0.4902668899334908
100
AcDbArc
 50
102.337767
 51
181.954647
  0
LINE
  5
1F1
330
1AC
100
AcDbEntity
  8
0
  6
Continuous
 62
     0
370
     0
100
AcDbLine
 10
-152.33715
 20
368.186926
 30
0.0
 11
-145.761477
 21
367.793565
 31
0.0
  0
ELLIPSE
  5
1F2
330
1AC
100
AcDbEntity
  8
0
  6
Continuous
 62
     0
370
    30
100
AcDbEllipse
 10
-149.199683
 20
357.934109
 30
0.0
 11
-2.875893135442178E-5
 21
9.000000103694594
 31
0.0
210
0.0
220
0.0
230
-1.0
 40
0.499999
 41
1.600905647244544
 42
3.141594251658971
  0
ELLIPSE
  5
1F3
330
1AC
100
AcDbEntity
  8
0
  6
Continuous
 62
     0
370
    30
100
AcDbEllipse
 10
-149.199683
 20
357.934109
 30
0.0
 11
-2.875893135442178E-5
 21
9.000000103694594
 31
0.0
210
0.0
220
0.0
230
-1.0
 40
0.499999
 41
0.0000015980691785
 42
1.60090564724454
  0
ELLIPSE
  5
1F4
330
1AC
100
AcDbEntity
  8
0
  6
Continuous
 62
     0
370
    30
100
AcDbEllipse
 10
-157.859937
 20
357.934109
 30
0.0
 11
6.379272600204719E-9
 21
9.000000103740543
 31
0.0
210
0.0
220
0.0
230
-1.0
 40
0.5
 41
1.600904049171961
 42
4.742496702761755
  0
ELLIPSE
  5
1F5
330
1AC
100
AcDbEntity
  8
0
  6
Continuous
 62
     0
370
    30
100
AcDbEllipse
 10
-157.859937
 20
357.934109
 30
0.0
 11
6.379272600204719E-9
 21
9.000000103740543
 31
0.0
210
0.0
220
0.0
230
-1.0
 40
0.5
 41
4.742496702761755
 42
7.884089356351543
  0
LINE
  5
1F6
330
1AC
100
AcDbEntity
  8
0
  6
Continuous
 62
     0
370
    30
100
AcDbLine
 10
-157.859937
 20
348.934109
 30
0.0
 11
-149.199683
 21
348.934109
 31
0.0
  0
LINE
  5
1F7
330
1AC
100
AcDbEntity
  8
0
  6
Continuous
 62
     0
370
    30
100
AcDbLine
 10
-157.859937
 20
366.934109
 30
0.0
 11
-149.199683
 21
366.934109
 31
0.0
  0
LINE
  5
1F8
330
1AC
100
AcDbEntity
  8
0
  6
Continuous
 62
     0
370
    30
100
AcDbLine
 10
-152.188574
 20
368.668284
 30
0.0
 11
-152.319607
 21
368.639269
 31
0.0
  0
ARC
  5
1F9
330
1AC
100
AcDbEntity
  8
0
  6
Continuous
 62
     0
370
    30
100
AcDbCircle
 10
-151.486365
 20
366.359104
 30
0.0
 40
2.413588034223638
100
AcDbArc
 50
106.914226
 51
166.217515
  0
ARC
  5
1FA
330
1AC
100
AcDbEntity
  8
0
  6
Continuous
 62
     0
370
    30
100
AcDbCircle
 10
-151.822749
 20
349.700177
 30
0.0
 40
2.179256915600613
100
AcDbArc
 50
200.580756
 51
255.520103
  0
LINE
  5
1FB
330
1AC
100
AcDbEntity
  8
0
  6
Continuous
 62
     0
370
    30
100
AcDbLine
 10
-131.811963
 20
345.522279
 30
0.0
 11
-126.194618
 21
345.020425
 31
0.0
  0
LINE
  5
1FC
330
1AC
100
AcDbEntity
  8
0
  6
Continuous
 62
     0
370
    30
100
AcDbLine
 10
-100.317261
 20
344.09561
 30
0.0
 11
-105.698307
 21
344.090192
 31
0.0
  0
LINE
  5
1FD
330
1AC
100
AcDbEntity
  8
0
  6
Continuous
 62
     0
370
    30
100
AcDbLine
 10
-130.357309
 20
345.20715
 30
0.0
 11
-126.19833
 21
344.958357
 31
0.0
  0
LINE
  5
1FE
330
1AC
100
AcDbEntity
  8
0
  6
Continuous
 62
     0
370
    30
100
AcDbLine
 10
-111.468444
 20
371.772896
 30
0.0
 11
-106.174117
 21
371.660469
 31
0.0
  0
ARC
  5
1FF
330
1AC
100
AcDbEntity
  8
0
  6
Continuous
 62
     0
370
    30
100
AcDbCircle
 10
-101.881094
 20
576.497302
 30
0.0
 40
232.4069546724814
100
AcDbArc
 50
270.385476
 51
280.776042
  0
LINE
  5
200
330
1AC
100
AcDbEntity
  8
0
  6
Continuous
 62
     0
370
    30
100
AcDbLine
 10
-23.748313
 20
352.199856
 30
0.0
 11
-23.560902
 21
364.644973
 31
0.0
  0
LWPOLYLINE
  5
201
330
1AC
100
AcDbEntity
  8
0
  6
Continuous
 62
     0
370
    30
100
AcDbPolyline
 90
       76
 70
     0
 43
0.0
 10
-58.466305
 20
348.182587
 10
-57.820889
 20
348.210602
 10
-57.17762
 20
348.239349
 10
-56.536396
 20
348.268829
 10
-55.897118
 20
348.299011
 10
-55.259697
 20
348.329865
 10
-54.624027
 20
348.361359
 10
-53.990013
 20
348.393463
 10
-53.357559
 20
348.426147
 10
-52.72657
 20
348.459381
 10
-52.096943
 20
348.493103
 10
-51.46859
 20
348.527344
 10
-50.84153
 20
348.562042
 10
-50.215893
 20
348.597198
 10
-49.591812
 20
348.632812
 10
-48.969429
 20
348.668823
 10
-48.348881
 20
348.705231
 10
-47.730301
 20
348.742065
 10
-47.113827
 20
348.779266
 10
-46.499596
 20
348.816803
 10
-45.887741
 20
348.854706
 10
-45.278404
 20
348.892944
 10
-44.6717
 20
348.931519
 10
-44.067646
 20
348.970367
 10
-43.46624
 20
349.009521
 10
-42.867477
 20
349.048889
 10
-42.271355
 20
349.088531
 10
-41.677868
 20
349.128357
 10
-41.087013
 20
349.168365
 10
-40.498787
 20
349.208588
 10
-39.913189
 20
349.248932
 10
-39.330208
 20
349.289398
 10
-38.749874
 20
349.329956
 10
-38.172958
 20
349.370667
 10
-37.601051
 20
349.411591
 10
-37.035793
 20
349.452789
 10
-36.478817
 20
349.494324
 10
-35.931755
 20
349.536285
 10
-35.395084
 20
349.578705
 10
-34.866795
 20
349.621368
 10
-34.344631
 20
349.664185
 10
-33.827557
 20
349.707001
 10
-33.315536
 20
349.749847
 10
-32.808556
 20
349.792694
 10
-32.306595
 20
349.835541
 10
-31.809666
 20
349.878387
 10
-31.318983
 20
349.921265
 10
-30.837667
 20
349.964294
 10
-30.368999
 20
350.00769
 10
-29.916264
 20
350.051575
 10
-29.482744
 20
350.096069
 10
-29.071033
 20
350.141327
 10
-28.681488
 20
350.187286
 10
-28.314013
 20
350.233948
 10
-27.968517
 20
350.281189
 10
-27.644907
 20
350.32901
 10
-27.342747
 20
350.377289
 10
-27.06031
 20
350.425964
 10
-26.795565
 20
350.474884
 10
-26.546474
 20
350.523895
 10
-26.311005
 20
350.572876
 10
-26.087505
 20
350.621735
 10
-25.875277
 20
350.670532
 10
-25.673759
 20
350.719299
 10
-25.482395
 20
350.768066
 10
-25.300625
 20
350.816895
 10
-25.127726
 20
350.866058
 10
-24.962078
 20
350.916779
 10
-24.801771
 20
350.970703
 10
-24.644403
 20
351.030762
 10
-24.48592
 20
351.104248
 10
-24.321968
 20
351.199951
 10
-24.149078
 20
351.335815
 10
-23.973604
 20
351.535522
 10
-23.823994
 20
351.819885
 10
-23.748484
 20
352.195374
  0
LWPOLYLINE
  5
202
330
1AC
100
AcDbEntity
  8
0
  6
Continuous
 62
     0
370
    30
100
AcDbPolyline
 90
       38
 70
     0
 43
0.0
 10
-24.499943
 20
365.652435
 10
-24.465643
 20
365.648804
 10
-24.403902
 20
365.641113
 10
-24.343016
 20
365.633728
 10
-24.311277
 20
365.631012
 10
-24.336628
 20
365.637207
 10
-24.379627
 20
365.644836
 10
-24.396048
 20
365.646912
 10
-24.411901
 20
365.649048
 10
-24.427313
 20
365.651062
 10
-24.442286
 20
365.652832
 10
-24.457199
 20
365.65448
 10
-24.472433
 20
365.656067
 10
-24.488371
 20
365.657654
 10
-24.50539
 20
365.659332
 10
-24.523853
 20
365.661133
 10
-24.54388
 20
365.663147
 10
-24.565422
 20
365.665283
 10
-24.588434
 20
365.667542
 10
-24.612873
 20
365.669952
 10
-24.638723
 20
365.672455
 10
-24.66597
 20
365.67511
 10
-24.694599
 20
365.677887
 10
-24.7246
 20
365.680786
 10
-24.755976
 20
365.683807
 10
-24.788853
 20
365.686981
 10
-24.823399
 20
365.690277
 10
-24.859777
 20
365.693787
 10
-24.898157
 20
365.697479
 10
-24.938679
 20
365.701355
 10
-24.981192
 20
365.705444
 10
-25.025326
 20
365.709686
 10
-25.070717
 20
365.714081
 10
-25.116995
 20
365.718567
 10
-25.163794
 20
365.723114
 10
-25.210741
 20
365.727722
 10
-25.257469
 20
365.732361
 10
-25.30476
 20
365.737091
  0
LWPOLYLINE
  5
203
330
1AC
100
AcDbEntity
  8
0
  6
Continuous
 62
     0
370
    30
100
AcDbPolyline
 90
       36
 70
     0
 43
0.0
 10
-23.560902
 20
364.644989
 10
-23.573603
 20
364.790009
 10
-23.604231
 20
364.93335
 10
-23.652958
 20
365.071503
 10
-23.719954
 20
365.201019
 10
-23.804928
 20
365.318756
 10
-23.906141
 20
365.422607
 10
-24.021694
 20
365.51062
 10
-24.152115
 20
365.579468
 10
-24.272013
 20
365.622101
 10
-24.329361
 20
365.635712
 10
-24.357662
 20
365.641052
 10
-24.375147
 20
365.644073
 10
-24.389299
 20
365.646423
 10
-24.400969
 20
365.648285
 10
-24.410578
 20
365.64975
 10
-24.418552
 20
365.650909
 10
-24.425318
 20
365.651764
 10
-24.431293
 20
365.652435
 10
-24.436909
 20
365.652954
 10
-24.442585
 20
365.653442
 10
-24.448748
 20
365.6539
 10
-24.455818
 20
365.654449
 10
-24.464226
 20
365.655121
 10
-24.474358
 20
365.656006
 10
-24.486128
 20
365.657104
 10
-24.499062
 20
365.658325
 10
-24.51268
 20
365.659668
 10
-24.526505
 20
365.661041
 10
-24.540052
 20
365.662415
 10
-24.552847
 20
365.663727
 10
-24.564404
 20
365.664948
 10
-24.574244
 20
365.665955
 10
-24.581888
 20
365.666779
 10
-24.586855
 20
365.667328
 10
-24.588665
 20
365.667542
  0
LINE
  5
204
330
1AC
100
AcDbEntity
  8
0
  6
Continuous
 62
     0
370
    30
100
AcDbLine
 10
-47.912603
 20
366.779505
 30
0.0
 11
-47.445071
 21
366.758496
 31
0.0
  0
ARC
  5
205
330
1AC
100
AcDbEntity
  8
0
  6
Continuous
 62
     0
370
    30
100
AcDbCircle
 10
-41.270489
 20
360.107231
 30
0.0
 40
35.06294069742761
100
AcDbArc
 50
323.363328
 51
56.687829
  0
ARC
  5
206
330
1AC
100
AcDbEntity
  8
0
  6
Continuous
 62
     0
370
    30
100
AcDbCircle
 10
-41.451909
 20
360.334884
 30
0.0
 40
35.34444591990501
100
AcDbArc
 50
287.776553
 51
323.242693
  0
ENDBLK
  5
208
330
1AC
100
AcDbEntity
  8
0
100
AcDbBlockEnd
  0
ENDSEC
  0
SECTION
  2
ENTITIES
  0
INSERT
  5
D7
330
1F
100
AcDbEntity
  8
0
  6
Continuous
 62
     7
420
 16250871
370
     0
100
AcDbBlockReference
  2
a
 10
44.73317
 20
77.957184
 30
0.0
  0
INSERT
  5
128
330
1F
100
AcDbEntity
  8
0
  6
Continuous
 62
     7
420
 16250871
370
     0
100
AcDbBlockReference
  2
b
 10
44.73317
 20
77.957184
 30
0.0
  0
INSERT
  5
15A
330
1F
100
AcDbEntity
  8
0
  6
Continuous
 62
     7
420
 16250871
370
     0
100
AcDbBlockReference
  2
c
 10
44.73317
 20
77.957184
 30
0.0
  0
INSERT
  5
1AB
330
1F
100
AcDbEntity
  8
0
  6
Continuous
 62
     7
420
 16250871
370
     0
100
AcDbBlockReference
  2
d
 10
44.73317
 20
77.957184
 30
0.0
  0
INSERT
  5
209
330
1F
100
AcDbEntity
  8
0
  6
Continuous
 62
     7
420
 16250871
370
     0
100
AcDbBlockReference
  2
e
 10
32.697037
 20
0.0
 30
0.0
  0
ENDSEC
  0
SECTION
  2
OBJECTS
  0
DICTIONARY
  5
C
330
0
100
AcDbDictionary
281
     1
  3
ACAD_DETAILVIEWSTYLE
350
241
  3
ACAD_GROUP
350
D
  3
ACAD_LAYOUT
350
1A
  3
ACAD_MATERIAL
350
43
  3
ACAD_MLEADERSTYLE
350
6B
  3
ACAD_MLINESTYLE
350
17
  3
ACAD_PLOTSETTINGS
350
19
  3
ACAD_PLOTSTYLENAME
350
E
  3
ACAD_SCALELIST
350
47
  3
ACAD_SECTIONVIEWSTYLE
350
242
  3
ACAD_TABLESTYLE
350
69
  3
ACAD_VISUALSTYLE
350
2A
  3
ACDB_RECOMPOSE_DATA
350
23E
  3
AcDbVariableDictionary
350
20A
  0
SUN
  5
6D
330
29
100
AcDbSun
 90
        1
290
     0
 63
     7
421
 16777215
 40
1.0
291
     1
 91
  2455826
 92
 54000000
292
     0
 70
     2
 71
   256
280
     1
  0
DICTIONARY
  5
241
102
{ACAD_REACTORS
330
C
102
}
330
C
100
AcDbDictionary
281
     1
  0
DICTIONARY
  5
D
102
{ACAD_REACTORS
330
C
102
}
330
C
100
AcDbDictionary
281
     1
  0
DICTIONARY
  5
1A
102
{ACAD_REACTORS
330
C
102
}
330
C
100
AcDbDictionary
281
     1
  3
Layout1
350
1E
  3
Layout2
350
26
  3
Model
350
22
  0
DICTIONARY
  5
43
102
{ACAD_REACTORS
330
C
102
}
330
C
100
AcDbDictionary
281
     1
  3
ByBlock
350
45
  3
ByLayer
350
44
  3
Global
350
46
  0
DICTIONARY
  5
6B
102
{ACAD_REACTORS
330
C
102
}
330
C
100
AcDbDictionary
281
     1
  3
Standard
350
6C
  0
DICTIONARY
  5
17
102
{ACAD_REACTORS
330
C
102
}
330
C
100
AcDbDictionary
281
     1
  3
Standard
350
18
  0
DICTIONARY
  5
19
102
{ACAD_REACTORS
330
C
102
}
330
C
100
AcDbDictionary
281
     1
  0
ACDBDICTIONARYWDFLT
  5
E
102
{ACAD_REACTORS
330
C
102
}
330
C
100
AcDbDictionary
281
     1
  3
Normal
350
F
100
AcDbDictionaryWithDefault
340
F
  0
DICTIONARY
  5
47
102
{ACAD_REACTORS
330
C
102
}
330
C
100
AcDbDictionary
281
     1
  3
A0
350
48
  3
A1
350
49
  3
A2
350
4A
  3
A3
350
4B
  3
A4
350
4C
  3
A5
350
4D
  3
A6
350
4E
  3
A7
350
4F
  3
A8
350
50
  3
A9
350
51
  3
B0
350
52
  3
B1
350
53
  3
B2
350
54
  3
B3
350
55
  3
B4
350
56
  3
B5
350
57
  3
B6
350
58
  3
B7
350
59
  3
B8
350
5A
  3
B9
350
5B
  3
C0
350
5C
  3
C1
350
5D
  3
C2
350
5E
  3
C3
350
5F
  3
C4
350
60
  3
C5
350
61
  3
C6
350
62
  3
C7
350
63
  3
C8
350
64
  3
C9
350
65
  3
D0
350
66
  3
D1
350
67
  3
D2
350
68
  0
DICTIONARY
  5
242
102
{ACAD_REACTORS
330
C
102
}
330
C
100
AcDbDictionary
281
     1
  0
DICTIONARY
  5
69
102
{ACAD_REACTORS
330
C
102
}
330
C
100
AcDbDictionary
281
     1
  3
Standard
350
6A
  0
DICTIONARY
  5
2A
102
{ACAD_REACTORS
330
C
102
}
330
C
100
AcDbDictionary
281
     1
  3
2dWireframe
350
2F
  3
Basic
350
32
  3
Brighten
350
36
  3
ColorChange
350
3A
  3
Conceptual
350
34
  3
Dim
350
35
  3
EdgeColorOff
350
3D
  3
Facepattern
350
39
  3
Flat
350
2B
  3
FlatWithEdges
350
2C
  3
Gouraud
350
2D
  3
GouraudWithEdges
350
2E
  3
Hidden
350
31
  3
JitterOff
350
3B
  3
Linepattern
350
38
  3
OverhangOff
350
3C
  3
Realistic
350
33
  3
Shaded
350
42
  3
Shaded with edges
350
41
  3
Shades of Gray
350
3E
  3
Sketchy
350
3F
  3
Thicken
350
37
  3
Wireframe
350
30
  3
X-Ray
350
40
  0
XRECORD
  5
23E
102
{ACAD_REACTORS
330
C
102
}
330
C
100
AcDbXrecord
280
     1
 90
        1
330
6A
  0
DICTIONARY
  5
20A
102
{ACAD_REACTORS
330
C
102
}
330
C
100
AcDbDictionary
281
     1
  3
CANNOSCALE
350
20B
  3
CMLEADERSTYLE
350
240
  3
CTABLESTYLE
350
23F
  0
LAYOUT
  5
1E
102
{ACAD_REACTORS
330
1A
102
}
330
1A
100
AcDbPlotSettings
  1

  2
none_device
  4

  6

 40
0.0
 41
0.0
 42
0.0
 43
0.0
 44
0.0
 45
0.0
 46
0.0
 47
0.0
 48
0.0
 49
0.0
140
0.0
141
0.0
142
1.0
143
1.0
 70
   688
 72
     1
 73
     0
 74
     5
  7

 75
    16
 76
     0
 77
     2
 78
   300
147
1.0
148
0.0
149
0.0
100
AcDbLayout
  1
Layout1
 70
     1
 71
     1
 10
0.0
 20
0.0
 11
420.0
 21
297.0
 12
0.0
 22
0.0
 32
0.0
 14
1.000000E+20
 24
1.000000E+20
 34
1.000000E+20
 15
-1.000000E+20
 25
-1.000000E+20
 35
-1.000000E+20
146
0.0
 13
0.0
 23
0.0
 33
0.0
 16
1.0
 26
0.0
 36
0.0
 17
0.0
 27
1.0
 37
0.0
 76
     0
330
1B
  0
LAYOUT
  5
26
102
{ACAD_REACTORS
330
1A
102
}
330
1A
100
AcDbPlotSettings
  1

  2
none_device
  4

  6

 40
0.0
 41
0.0
 42
0.0
 43
0.0
 44
0.0
 45
0.0
 46
0.0
 47
0.0
 48
0.0
 49
0.0
140
0.0
141
0.0
142
1.0
143
1.0
 70
   688
 72
     1
 73
     0
 74
     5
  7

 75
    16
 76
     0
 77
     2
 78
   300
147
1.0
148
0.0
149
0.0
100
AcDbLayout
  1
Layout2
 70
     1
 71
     2
 10
0.0
 20
0.0
 11
0.0
 21
0.0
 12
0.0
 22
0.0
 32
0.0
 14
0.0
 24
0.0
 34
0.0
 15
0.0
 25
0.0
 35
0.0
146
0.0
 13
0.0
 23
0.0
 33
0.0
 16
1.0
 26
0.0
 36
0.0
 17
0.0
 27
1.0
 37
0.0
 76
     0
330
23
  0
LAYOUT
  5
22
102
{ACAD_REACTORS
330
1A
102
}
330
1A
100
AcDbPlotSettings
  1

  2
none_device
  4
Letter_(8.50_x_11.00_Inches)
  6

 40
6.35
 41
6.35
 42
6.350005
 43
6.350005
 44
215.9
 45
279.4
 46
0.0
 47
0.0
 48
0.0
 49
0.0
140
0.0
141
0.0
142
1.0
143
1.0
 70
  1712
 72
     1
 73
     0
 74
     0
  7

 75
     0
 76
     0
 77
     2
 78
   300
147
1.0
148
0.0
149
0.0
100
AcDbLayout
  1
Model
 70
     1
 71
     0
 10
0.0
 20
0.0
 11
420.0
 21
297.0
 12
0.0
 22
0.0
 32
0.0
 14
1.000000E+20
 24
1.000000E+20
 34
1.000000E+20
 15
-1.000000E+20
 25
-1.000000E+20
 35
-1.000000E+20
146
0.0
 13
0.0
 23
0.0
 33
0.0
 16
1.0
 26
0.0
 36
0.0
 17
0.0
 27
1.0
 37
0.0
 76
     0
330
1F
331
29
  0
MATERIAL
  5
45
102
{ACAD_REACTORS
330
43
102
}
330
43
100
AcDbMaterial
  1
ByBlock
 72
     1
 94
      127
  0
MATERIAL
  5
44
102
{ACAD_REACTORS
330
43
102
}
330
43
100
AcDbMaterial
  1
ByLayer
 72
     1
 94
      127
  0
MATERIAL
  5
46
102
{ACAD_REACTORS
330
43
102
}
330
43
100
AcDbMaterial
  1
Global
 72
     1
 94
      127
  0
MLEADERSTYLE
  5
6C
102
{ACAD_REACTORS
330
6B
102
}
330
6B
100
AcDbMLeaderStyle
179
     2
170
     2
171
     1
172
     0
 90
        2
 40
0.0
 41
0.0
173
     1
 91
-1056964608
340
14
 92
       -2
290
     1
 42
2.0
291
     1
 43
8.0
  3
Standard
341
0
 44
4.0
300

342
11
174
     1
178
     6
175
     1
176
     0
 93
-1056964608
 45
4.0
292
     0
297
     0
 46
4.0
343
0
 94
-1056964608
 47
1.0
 49
1.0
140
1.0
293
     1
141
0.0
294
     1
177
     0
142
1.0
295
     0
296
     0
143
3.75
271
     0
272
     9
273
     9
  0
MLINESTYLE
  5
18
102
{ACAD_REACTORS
330
17
102
}
330
17
100
AcDbMlineStyle
  2
Standard
 70
     0
  3

 62
   256
 51
90.0
 52
90.0
 71
     2
 49
0.5
 62
   256
  6
BYLAYER
 49
-0.5
 62
   256
  6
BYLAYER
  0
ACDBPLACEHOLDER
  5
F
102
{ACAD_REACTORS
330
E
102
}
330
E
  0
SCALE
  5
48
102
{ACAD_REACTORS
330
47
102
}
330
47
100
AcDbScale
 70
     0
300
1:1
140
1.0
141
1.0
290
     1
  0
SCALE
  5
49
102
{ACAD_REACTORS
330
47
102
}
330
47
100
AcDbScale
 70
     0
300
1:2
140
1.0
141
2.0
290
     0
  0
SCALE
  5
4A
102
{ACAD_REACTORS
330
47
102
}
330
47
100
AcDbScale
 70
     0
300
1:4
140
1.0
141
4.0
290
     0
  0
SCALE
  5
4B
102
{ACAD_REACTORS
330
47
102
}
330
47
100
AcDbScale
 70
     0
300
1:5
140
1.0
141
5.0
290
     0
  0
SCALE
  5
4C
102
{ACAD_REACTORS
330
47
102
}
330
47
100
AcDbScale
 70
     0
300
1:8
140
1.0
141
8.0
290
     0
  0
SCALE
  5
4D
102
{ACAD_REACTORS
330
47
102
}
330
47
100
AcDbScale
 70
     0
300
1:10
140
1.0
141
10.0
290
     0
  0
SCALE
  5
4E
102
{ACAD_REACTORS
330
47
102
}
330
47
100
AcDbScale
 70
     0
300
1:16
140
1.0
141
16.0
290
     0
  0
SCALE
  5
4F
102
{ACAD_REACTORS
330
47
102
}
330
47
100
AcDbScale
 70
     0
300
1:20
140
1.0
141
20.0
290
     0
  0
SCALE
  5
50
102
{ACAD_REACTORS
330
47
102
}
330
47
100
AcDbScale
 70
     0
300
1:30
140
1.0
141
30.0
290
     0
  0
SCALE
  5
51
102
{ACAD_REACTORS
330
47
102
}
330
47
100
AcDbScale
 70
     0
300
1:40
140
1.0
141
40.0
290
     0
  0
SCALE
  5
52
102
{ACAD_REACTORS
330
47
102
}
330
47
100
AcDbScale
 70
     0
300
1:50
140
1.0
141
50.0
290
     0
  0
SCALE
  5
53
102
{ACAD_REACTORS
330
47
102
}
330
47
100
AcDbScale
 70
     0
300
1:100
140
1.0
141
100.0
290
     0
  0
SCALE
  5
54
102
{ACAD_REACTORS
330
47
102
}
330
47
100
AcDbScale
 70
     0
300
2:1
140
2.0
141
1.0
290
     0
  0
SCALE
  5
55
102
{ACAD_REACTORS
330
47
102
}
330
47
100
AcDbScale
 70
     0
300
4:1
140
4.0
141
1.0
290
     0
  0
SCALE
  5
56
102
{ACAD_REACTORS
330
47
102
}
330
47
100
AcDbScale
 70
     0
300
8:1
140
8.0
141
1.0
290
     0
  0
SCALE
  5
57
102
{ACAD_REACTORS
330
47
102
}
330
47
100
AcDbScale
 70
     0
300
10:1
140
10.0
141
1.0
290
     0
  0
SCALE
  5
58
102
{ACAD_REACTORS
330
47
102
}
330
47
100
AcDbScale
 70
     0
300
100:1
140
100.0
141
1.0
290
     0
  0
SCALE
  5
59
102
{ACAD_REACTORS
330
47
102
}
330
47
100
AcDbScale
 70
     0
300
1/128" = 1'-0"
140
0.007812
141
12.0
290
     0
  0
SCALE
  5
5A
102
{ACAD_REACTORS
330
47
102
}
330
47
100
AcDbScale
 70
     0
300
1/64" = 1'-0"
140
0.015625
141
12.0
290
     0
  0
SCALE
  5
5B
102
{ACAD_REACTORS
330
47
102
}
330
47
100
AcDbScale
 70
     0
300
1/32" = 1'-0"
140
0.03125
141
12.0
290
     0
  0
SCALE
  5
5C
102
{ACAD_REACTORS
330
47
102
}
330
47
100
AcDbScale
 70
     0
300
1/16" = 1'-0"
140
0.0625
141
12.0
290
     0
  0
SCALE
  5
5D
102
{ACAD_REACTORS
330
47
102
}
330
47
100
AcDbScale
 70
     0
300
3/32" = 1'-0"
140
0.09375
141
12.0
290
     0
  0
SCALE
  5
5E
102
{ACAD_REACTORS
330
47
102
}
330
47
100
AcDbScale
 70
     0
300
1/8" = 1'-0"
140
0.125
141
12.0
290
     0
  0
SCALE
  5
5F
102
{ACAD_REACTORS
330
47
102
}
330
47
100
AcDbScale
 70
     0
300
3/16" = 1'-0"
140
0.1875
141
12.0
290
     0
  0
SCALE
  5
60
102
{ACAD_REACTORS
330
47
102
}
330
47
100
AcDbScale
 70
     0
300
1/4" = 1'-0"
140
0.25
141
12.0
290
     0
  0
SCALE
  5
61
102
{ACAD_REACTORS
330
47
102
}
330
47
100
AcDbScale
 70
     0
300
3/8" = 1'-0"
140
0.375
141
12.0
290
     0
  0
SCALE
  5
62
102
{ACAD_REACTORS
330
47
102
}
330
47
100
AcDbScale
 70
     0
300
1/2" = 1'-0"
140
0.5
141
12.0
290
     0
  0
SCALE
  5
63
102
{ACAD_REACTORS
330
47
102
}
330
47
100
AcDbScale
 70
     0
300
3/4" = 1'-0"
140
0.75
141
12.0
290
     0
  0
SCALE
  5
64
102
{ACAD_REACTORS
330
47
102
}
330
47
100
AcDbScale
 70
     0
300
1" = 1'-0"
140
1.0
141
12.0
290
     0
  0
SCALE
  5
65
102
{ACAD_REACTORS
330
47
102
}
330
47
100
AcDbScale
 70
     0
300
1-1/2" = 1'-0"
140
1.5
141
12.0
290
     0
  0
SCALE
  5
66
102
{ACAD_REACTORS
330
47
102
}
330
47
100
AcDbScale
 70
     0
300
3" = 1'-0"
140
3.0
141
12.0
290
     0
  0
SCALE
  5
67
102
{ACAD_REACTORS
330
47
102
}
330
47
100
AcDbScale
 70
     0
300
6" = 1'-0"
140
6.0
141
12.0
290
     0
  0
SCALE
  5
68
102
{ACAD_REACTORS
330
47
102
}
330
47
100
AcDbScale
 70
     0
300
1'-0" = 1'-0"
140
12.0
141
12.0
290
     0
  0
TABLESTYLE
  5
6A
102
{ACAD_REACTORS
330
69
102
}
102
{ACAD_XDICTIONARY
360
23C
102
}
330
69
100
AcDbTableStyle
  3
Standard
 70
     0
 71
     0
 40
0.06
 41
0.06
280
     0
281
     0
  7
Standard
140
4.5
170
     2
 62
     0
 63
   257
283
     0
 90
        4
 91
        0
  1

274
    -2
284
     1
 64
     0
275
    -2
285
     1
 65
     0
276
    -2
286
     1
 66
     0
277
    -2
287
     1
 67
     0
278
    -2
288
     1
 68
     0
279
    -2
289
     1
 69
     0
  7
Standard
140
6.0
170
     5
 62
     0
 63
   257
283
     0
 90
        4
 91
        0
  1

274
    -2
284
     1
 64
     0
275
    -2
285
     1
 65
     0
276
    -2
286
     1
 66
     0
277
    -2
287
     1
 67
     0
278
    -2
288
     1
 68
     0
279
    -2
289
     1
 69
     0
  7
Standard
140
4.5
170
     5
 62
     0
 63
   257
283
     0
 90
        4
 91
        0
  1

274
    -2
284
     1
 64
     0
275
    -2
285
     1
 65
     0
276
    -2
286
     1
 66
     0
277
    -2
287
     1
 67
     0
278
    -2
288
     1
 68
     0
279
    -2
289
     1
 69
     0
  0
VISUALSTYLE
  5
2F
102
{ACAD_REACTORS
330
2A
102
}
102
{ACAD_XDICTIONARY
360
214
102
}
330
2A
100
AcDbVisualStyle
  2
2dWireframe
 70
     4
177
     2
291
     0
 71
     0
176
     1
 72
     2
176
     1
 73
     0
176
     1
 90
        0
176
     1
 40
0.6
176
     1
 41
30.0
176
     1
 62
     5
 63
     7
421
 16777215
176
     1
 74
     1
176
     1
 91
        4
176
     1
 64
     7
176
     1
 65
   257
176
     1
 75
     1
176
     1
175
     1
176
     1
 42
1.0
176
     1
 92
        0
176
     1
 66
   257
176
     1
 43
1.0
176
     1
 76
     1
176
     1
 77
     6
176
     1
 78
     2
176
     1
 67
     7
176
     1
 79
     5
176
     1
170
     0
176
     1
171
     0
176
     1
290
     0
176
     1
 93
        1
176
     1
 44
0.0
176
     1
173
     0
176
     1
  0
VISUALSTYLE
  5
32
102
{ACAD_REACTORS
330
2A
102
}
102
{ACAD_XDICTIONARY
360
21A
102
}
330
2A
100
AcDbVisualStyle
  2
Basic
 70
     7
177
     2
291
     1
 71
     1
176
     1
 72
     0
176
     1
 73
     1
176
     1
 90
        0
176
     1
 40
0.6
176
     1
 41
30.0
176
     1
 62
     5
 63
     7
421
 16777215
176
     1
 74
     0
176
     1
 91
        4
176
     1
 64
     7
176
     1
 65
   257
176
     1
 75
     1
176
     1
175
     1
176
     1
 42
1.0
176
     1
 92
        8
176
     1
 66
     7
176
     1
 43
1.0
176
     1
 76
     1
176
     1
 77
     6
176
     1
 78
     2
176
     1
 67
     7
176
     1
 79
     5
176
     1
170
     0
176
     1
171
     0
176
     1
290
     0
176
     1
 93
        1
176
     1
 44
0.0
176
     1
173
     0
176
     1
  0
VISUALSTYLE
  5
36
102
{ACAD_REACTORS
330
2A
102
}
102
{ACAD_XDICTIONARY
360
222
102
}
330
2A
100
AcDbVisualStyle
  2
Brighten
 70
    12
177
     2
291
     1
 71
     2
176
     1
 72
     2
176
     1
 73
     0
176
     1
 90
        0
176
     1
 40
0.6
176
     1
 41
30.0
176
     1
 62
     5
 63
     7
421
 16777215
176
     1
 74
     1
176
     1
 91
        4
176
     1
 64
     7
176
     1
 65
   257
176
     1
 75
     1
176
     1
175
     1
176
     1
 42
1.0
176
     1
 92
        8
176
     1
 66
     7
176
     1
 43
1.0
176
     1
 76
     1
176
     1
 77
     6
176
     1
 78
     2
176
     1
 67
     7
176
     1
 79
     5
176
     1
170
     0
176
     1
171
     0
176
     1
290
     0
176
     1
 93
        1
176
     1
 44
50.0
176
     1
173
     0
176
     1
  0
VISUALSTYLE
  5
3A
102
{ACAD_REACTORS
330
2A
102
}
102
{ACAD_XDICTIONARY
360
22A
102
}
330
2A
100
AcDbVisualStyle
  2
ColorChange
 70
    16
177
     2
291
     1
 71
     2
176
     1
 72
     2
176
     1
 73
     3
176
     1
 90
        0
176
     1
 40
0.6
176
     1
 41
30.0
176
     1
 62
     5
 63
     8
421
  8421504
176
     1
 74
     1
176
     1
 91
        4
176
     1
 64
     7
176
     1
 65
   257
176
     1
 75
     1
176
     1
175
     1
176
     1
 42
1.0
176
     1
 92
        8
176
     1
 66
     8
424
  8421504
176
     1
 43
1.0
176
     1
 76
     1
176
     1
 77
     6
176
     1
 78
     2
176
     1
 67
     7
176
     1
 79
     5
176
     1
170
     0
176
     1
171
     0
176
     1
290
     0
176
     1
 93
        1
176
     1
 44
0.0
176
     1
173
     0
176
     1
  0
VISUALSTYLE
  5
34
102
{ACAD_REACTORS
330
2A
102
}
102
{ACAD_XDICTIONARY
360
21E
102
}
330
2A
100
AcDbVisualStyle
  2
Conceptual
 70
     9
177
     2
291
     0
 71
     3
176
     1
 72
     2
176
     1
 73
     0
176
     1
 90
        0
176
     1
 40
0.6
176
     1
 41
30.0
176
     1
 62
     5
 63
     7
421
 16777215
176
     1
 74
     2
176
     1
 91
        2
176
     1
 64
     7
176
     1
 65
   257
176
     1
 75
     1
176
     1
175
     1
176
     1
 42
179.0
176
     1
 92
        8
176
     1
 66
     7
176
     1
 43
1.0
176
     1
 76
     1
176
     1
 77
     6
176
     1
 78
     2
176
     1
 67
     7
176
     1
 79
     3
176
     1
170
     0
176
     1
171
     0
176
     1
290
     0
176
     1
 93
        1
176
     1
 44
0.0
176
     1
173
     0
176
     1
  0
VISUALSTYLE
  5
35
102
{ACAD_REACTORS
330
2A
102
}
102
{ACAD_XDICTIONARY
360
220
102
}
330
2A
100
AcDbVisualStyle
  2
Dim
 70
    11
177
     2
291
     1
 71
     2
176
     1
 72
     2
176
     1
 73
     0
176
     1
 90
        0
176
     1
 40
0.6
176
     1
 41
30.0
176
     1
 62
     5
 63
     7
421
 16777215
176
     1
 74
     1
176
     1
 91
        4
176
     1
 64
     7
176
     1
 65
   257
176
     1
 75
     1
176
     1
175
     1
176
     1
 42
1.0
176
     1
 92
        8
176
     1
 66
     7
176
     1
 43
1.0
176
     1
 76
     1
176
     1
 77
     6
176
     1
 78
     2
176
     1
 67
     7
176
     1
 79
     5
176
     1
170
     0
176
     1
171
     0
176
     1
290
     0
176
     1
 93
        1
176
     1
 44
-50.0
176
     1
173
     0
176
     1
  0
VISUALSTYLE
  5
3D
102
{ACAD_REACTORS
330
2A
102
}
102
{ACAD_XDICTIONARY
360
230
102
}
330
2A
100
AcDbVisualStyle
  2
EdgeColorOff
 70
    22
177
     2
291
     1
 71
     2
176
     0
 72
     2
176
     0
 73
     0
176
     0
 90
        0
176
     0
 40
0.6
176
     0
 41
30.0
176
     0
 62
     5
 63
     7
421
 16777215
176
     0
 74
     1
176
     0
 91
        4
176
     0
 64
     7
176
     0
 65
   257
176
     0
 75
     1
176
     0
175
     1
176
     0
 42
1.0
176
     0
 92
        8
176
     2
 66
     7
176
     0
 43
1.0
176
     0
 76
     1
176
     0
 77
     6
176
     0
 78
     2
176
     0
 67
     7
176
     0
 79
     5
176
     0
170
     0
176
     0
171
     0
176
     0
290
     0
176
     0
 93
        1
176
     0
 44
0.0
176
     0
173
     0
176
     0
  0
VISUALSTYLE
  5
39
102
{ACAD_REACTORS
330
2A
102
}
102
{ACAD_XDICTIONARY
360
228
102
}
330
2A
100
AcDbVisualStyle
  2
Facepattern
 70
    15
177
     2
291
     1
 71
     2
176
     1
 72
     2
176
     1
 73
     0
176
     1
 90
        0
176
     1
 40
0.6
176
     1
 41
30.0
176
     1
 62
     5
 63
     7
421
 16777215
176
     1
 74
     1
176
     1
 91
        4
176
     1
 64
     7
176
     1
 65
   257
176
     1
 75
     1
176
     1
175
     1
176
     1
 42
1.0
176
     1
 92
        8
176
     1
 66
     7
176
     1
 43
1.0
176
     1
 76
     1
176
     1
 77
     6
176
     1
 78
     2
176
     1
 67
     7
176
     1
 79
     5
176
     1
170
     0
176
     1
171
     0
176
     1
290
     0
176
     1
 93
        1
176
     1
 44
0.0
176
     1
173
     0
176
     1
  0
VISUALSTYLE
  5
2B
102
{ACAD_REACTORS
330
2A
102
}
102
{ACAD_XDICTIONARY
360
20C
102
}
330
2A
100
AcDbVisualStyle
  2
Flat
 70
     0
177
     2
291
     1
 71
     2
176
     1
 72
     1
176
     1
 73
     1
176
     1
 90
        2
176
     1
 40
0.6
176
     1
 41
30.0
176
     1
 62
     5
 63
     7
421
 16777215
176
     1
 74
     0
176
     1
 91
        0
176
     1
 64
     7
176
     1
 65
   257
176
     1
 75
     1
176
     1
175
     1
176
     1
 42
1.0
176
     1
 92
        8
176
     1
 66
     7
176
     1
 43
1.0
176
     1
 76
     1
176
     1
 77
     6
176
     1
 78
     2
176
     1
 67
     7
176
     1
 79
     5
176
     1
170
     0
176
     1
171
     0
176
     1
290
     0
176
     1
 93
       13
176
     1
 44
0.0
176
     1
173
     0
176
     1
  0
VISUALSTYLE
  5
2C
102
{ACAD_REACTORS
330
2A
102
}
102
{ACAD_XDICTIONARY
360
20E
102
}
330
2A
100
AcDbVisualStyle
  2
FlatWithEdges
 70
     1
177
     2
291
     1
 71
     2
176
     1
 72
     1
176
     1
 73
     1
176
     1
 90
        2
176
     1
 40
0.6
176
     1
 41
30.0
176
     1
 62
     5
 63
     7
421
 16777215
176
     1
 74
     1
176
     1
 91
        0
176
     1
 64
     7
176
     1
 65
   257
176
     1
 75
     1
176
     1
175
     1
176
     1
 42
1.0
176
     1
 92
        0
176
     1
 66
   257
176
     1
 43
1.0
176
     1
 76
     1
176
     1
 77
     6
176
     1
 78
     2
176
     1
 67
     7
176
     1
 79
     5
176
     1
170
     0
176
     1
171
     0
176
     1
290
     0
176
     1
 93
       13
176
     1
 44
0.0
176
     1
173
     0
176
     1
  0
VISUALSTYLE
  5
2D
102
{ACAD_REACTORS
330
2A
102
}
102
{ACAD_XDICTIONARY
360
210
102
}
330
2A
100
AcDbVisualStyle
  2
Gouraud
 70
     2
177
     2
291
     1
 71
     2
176
     1
 72
     2
176
     1
 73
     1
176
     1
 90
        2
176
     1
 40
0.6
176
     1
 41
30.0
176
     1
 62
     5
 63
     7
421
 16777215
176
     1
 74
     0
176
     1
 91
        0
176
     1
 64
     7
176
     1
 65
   257
176
     1
 75
     1
176
     1
175
     1
176
     1
 42
1.0
176
     1
 92
        0
176
     1
 66
     7
176
     1
 43
1.0
176
     1
 76
     1
176
     1
 77
     6
176
     1
 78
     2
176
     1
 67
     7
176
     1
 79
     5
176
     1
170
     0
176
     1
171
     0
176
     1
290
     0
176
     1
 93
       13
176
     1
 44
0.0
176
     1
173
     0
176
     1
  0
VISUALSTYLE
  5
2E
102
{ACAD_REACTORS
330
2A
102
}
102
{ACAD_XDICTIONARY
360
212
102
}
330
2A
100
AcDbVisualStyle
  2
GouraudWithEdges
 70
     3
177
     2
291
     1
 71
     2
176
     1
 72
     2
176
     1
 73
     1
176
     1
 90
        2
176
     1
 40
0.6
176
     1
 41
30.0
176
     1
 62
     5
 63
     7
421
 16777215
176
     1
 74
     1
176
     1
 91
        0
176
     1
 64
     7
176
     1
 65
   257
176
     1
 75
     1
176
     1
175
     1
176
     1
 42
1.0
176
     1
 92
        0
176
     1
 66
   257
176
     1
 43
1.0
176
     1
 76
     1
176
     1
 77
     6
176
     1
 78
     2
176
     1
 67
     7
176
     1
 79
     5
176
     1
170
     0
176
     1
171
     0
176
     1
290
     0
176
     1
 93
       13
176
     1
 44
0.0
176
     1
173
     0
176
     1
  0
VISUALSTYLE
  5
31
102
{ACAD_REACTORS
330
2A
102
}
102
{ACAD_XDICTIONARY
360
218
102
}
330
2A
100
AcDbVisualStyle
  2
Hidden
 70
     6
177
     2
291
     0
 71
     1
176
     1
 72
     2
176
     1
 73
     2
176
     1
 90
        0
176
     1
 40
0.6
176
     1
 41
30.0
176
     1
 62
     5
 63
     7
421
 16777215
176
     1
 74
     2
176
     1
 91
        2
176
     1
 64
     7
176
     1
 65
   257
176
     1
 75
     2
176
     1
175
     1
176
     1
 42
40.0
176
     1
 92
        0
176
     1
 66
   257
176
     1
 43
1.0
176
     1
 76
     1
176
     1
 77
     6
176
     1
 78
     2
176
     1
 67
     7
176
     1
 79
     3
176
     1
170
     0
176
     1
171
     0
176
     1
290
     0
176
     1
 93
        1
176
     1
 44
0.0
176
     1
173
     0
176
     1
  0
VISUALSTYLE
  5
3B
102
{ACAD_REACTORS
330
2A
102
}
102
{ACAD_XDICTIONARY
360
22C
102
}
330
2A
100
AcDbVisualStyle
  2
JitterOff
 70
    20
177
     2
291
     1
 71
     2
176
     0
 72
     2
176
     0
 73
     0
176
     0
 90
        0
176
     0
 40
0.6
176
     0
 41
30.0
176
     0
 62
     5
 63
     7
421
 16777215
176
     0
 74
     1
176
     0
 91
        4
176
     0
 64
     7
176
     0
 65
   257
176
     0
 75
     1
176
     0
175
     1
176
     0
 42
1.0
176
     0
 92
       10
176
     2
 66
     7
176
     0
 43
1.0
176
     0
 76
     1
176
     0
 77
     6
176
     0
 78
     2
176
     0
 67
     7
176
     0
 79
     5
176
     0
170
     0
176
     0
171
     0
176
     0
290
     0
176
     0
 93
        1
176
     0
 44
0.0
176
     0
173
     0
176
     0
  0
VISUALSTYLE
  5
38
102
{ACAD_REACTORS
330
2A
102
}
102
{ACAD_XDICTIONARY
360
226
102
}
330
2A
100
AcDbVisualStyle
  2
Linepattern
 70
    14
177
     2
291
     1
 71
     2
176
     1
 72
     2
176
     1
 73
     0
176
     1
 90
        0
176
     1
 40
0.6
176
     1
 41
30.0
176
     1
 62
     5
 63
     7
421
 16777215
176
     1
 74
     1
176
     1
 91
        4
176
     1
 64
     7
176
     1
 65
   257
176
     1
 75
     7
176
     1
175
     7
176
     1
 42
1.0
176
     1
 92
        8
176
     1
 66
     7
176
     1
 43
1.0
176
     1
 76
     1
176
     1
 77
     6
176
     1
 78
     2
176
     1
 67
     7
176
     1
 79
     5
176
     1
170
     0
176
     1
171
     0
176
     1
290
     0
176
     1
 93
        1
176
     1
 44
0.0
176
     1
173
     0
176
     1
  0
VISUALSTYLE
  5
3C
102
{ACAD_REACTORS
330
2A
102
}
102
{ACAD_XDICTIONARY
360
22E
102
}
330
2A
100
AcDbVisualStyle
  2
OverhangOff
 70
    21
177
     2
291
     1
 71
     2
176
     0
 72
     2
176
     0
 73
     0
176
     0
 90
        0
176
     0
 40
0.6
176
     0
 41
30.0
176
     0
 62
     5
 63
     7
421
 16777215
176
     0
 74
     1
176
     0
 91
        4
176
     0
 64
     7
176
     0
 65
   257
176
     0
 75
     1
176
     0
175
     1
176
     0
 42
1.0
176
     0
 92
        9
176
     2
 66
     7
176
     0
 43
1.0
176
     0
 76
     1
176
     0
 77
     6
176
     0
 78
     2
176
     0
 67
     7
176
     0
 79
     5
176
     0
170
     0
176
     0
171
     0
176
     0
290
     0
176
     0
 93
        1
176
     0
 44
0.0
176
     0
173
     0
176
     0
  0
VISUALSTYLE
  5
33
102
{ACAD_REACTORS
330
2A
102
}
102
{ACAD_XDICTIONARY
360
21C
102
}
330
2A
100
AcDbVisualStyle
  2
Realistic
 70
     8
177
     2
291
     0
 71
     2
176
     1
 72
     3
176
     1
 73
     0
176
     1
 90
        2
176
     1
 40
0.6
176
     1
 41
30.0
176
     1
 62
     5
 63
     7
421
 16777215
176
     1
 74
     0
176
     1
 91
        0
176
     1
 64
     7
176
     1
 65
   257
176
     1
 75
     1
176
     1
175
     1
176
     1
 42
1.0
176
     1
 92
        8
176
     1
 66
   257
176
     1
 43
1.0
176
     1
 76
     1
176
     1
 77
     6
176
     1
 78
     2
176
     1
 67
     7
176
     1
 79
     3
176
     1
170
     0
176
     1
171
     0
176
     1
290
     0
176
     1
 93
       13
176
     1
 44
0.0
176
     1
173
     0
176
     1
  0
VISUALSTYLE
  5
42
102
{ACAD_REACTORS
330
2A
102
}
102
{ACAD_XDICTIONARY
360
23A
102
}
330
2A
100
AcDbVisualStyle
  2
Shaded
 70
    27
177
     2
291
     0
 71
     2
176
     1
 72
     2
176
     1
 73
     1
176
     1
 90
        2
176
     1
 40
0.6
176
     1
 41
30.0
176
     1
 62
     5
 63
     7
421
 16777215
176
     1
 74
     0
176
     1
 91
        4
176
     1
 64
     7
176
     1
 65
   257
176
     1
 75
     1
176
     1
175
     1
176
     1
 42
1.0
176
     1
 92
        8
176
     1
 66
   257
176
     1
 43
1.0
176
     1
 76
     1
176
     1
 77
     6
176
     1
 78
     2
176
     1
 67
     8
425
  7895160
176
     1
 79
     3
176
     1
170
     0
176
     1
171
     0
176
     1
290
     0
176
     1
 93
        5
176
     1
 44
0.0
176
     1
173
     0
176
     1
  0
VISUALSTYLE
  5
41
102
{ACAD_REACTORS
330
2A
102
}
102
{ACAD_XDICTIONARY
360
238
102
}
330
2A
100
AcDbVisualStyle
  2
Shaded with edges
 70
    26
177
     2
291
     0
 71
     2
176
     1
 72
     2
176
     1
 73
     1
176
     1
 90
        2
176
     1
 40
0.6
176
     1
 41
30.0
176
     1
 62
     5
 63
     7
421
 16777215
176
     1
 74
     1
176
     1
 91
       10
176
     1
 64
     7
176
     1
 65
   257
176
     1
 75
     2
176
     1
175
     1
176
     1
 42
1.0
176
     1
 92
        8
176
     1
 66
   257
176
     1
 43
1.0
176
     1
 76
     1
176
     1
 77
     6
176
     1
 78
     2
176
     1
 67
     7
176
     1
 79
     3
176
     1
170
     0
176
     1
171
     0
176
     1
290
     0
176
     1
 93
        5
176
     1
 44
0.0
176
     1
173
     0
176
     1
  0
VISUALSTYLE
  5
3E
102
{ACAD_REACTORS
330
2A
102
}
102
{ACAD_XDICTIONARY
360
232
102
}
330
2A
100
AcDbVisualStyle
  2
Shades of Gray
 70
    23
177
     2
291
     0
 71
     2
176
     1
 72
     2
176
     1
 73
     3
176
     1
 90
        0
176
     1
 40
0.6
176
     1
 41
30.0
176
     1
 62
     5
 63
     7
421
 16777215
176
     1
 74
     2
176
     1
 91
        2
176
     1
 64
     7
176
     1
 65
     7
176
     1
 75
     1
176
     1
175
     1
176
     1
 42
40.0
176
     1
 92
        8
176
     1
 66
     7
176
     1
 43
1.0
176
     1
 76
     1
176
     1
 77
     6
176
     1
 78
     2
176
     1
 67
     7
176
     1
 79
     3
176
     1
170
     0
176
     1
171
     0
176
     1
290
     0
176
     1
 93
        1
176
     1
 44
0.0
176
     1
173
     0
176
     1
  0
VISUALSTYLE
  5
3F
102
{ACAD_REACTORS
330
2A
102
}
102
{ACAD_XDICTIONARY
360
234
102
}
330
2A
100
AcDbVisualStyle
  2
Sketchy
 70
    24
177
     2
291
     0
 71
     1
176
     1
 72
     2
176
     1
 73
     2
176
     1
 90
        0
176
     1
 40
0.6
176
     1
 41
30.0
176
     1
 62
     5
 63
     7
421
 16777215
176
     1
 74
     2
176
     1
 91
        2
176
     1
 64
     7
176
     1
 65
     7
176
     1
 75
     1
176
     1
175
     1
176
     1
 42
40.0
176
     1
 92
       11
176
     1
 66
     7
176
     1
 43
1.0
176
     1
 76
     1
176
     1
 77
     6
176
     1
 78
     2
176
     1
 67
     7
176
     1
 79
     6
176
     1
170
     0
176
     1
171
     0
176
     1
290
     0
176
     1
 93
        1
176
     1
 44
0.0
176
     1
173
     0
176
     1
  0
VISUALSTYLE
  5
37
102
{ACAD_REACTORS
330
2A
102
}
102
{ACAD_XDICTIONARY
360
224
102
}
330
2A
100
AcDbVisualStyle
  2
Thicken
 70
    13
177
     2
291
     1
 71
     2
176
     1
 72
     2
176
     1
 73
     0
176
     1
 90
        0
176
     1
 40
0.6
176
     1
 41
30.0
176
     1
 62
     5
 63
     7
421
 16777215
176
     1
 74
     1
176
     1
 91
        4
176
     1
 64
     7
176
     1
 65
   257
176
     1
 75
     1
176
     1
175
     1
176
     1
 42
1.0
176
     1
 92
       12
176
     1
 66
     7
176
     1
 43
1.0
176
     1
 76
     1
176
     1
 77
     6
176
     1
 78
     2
176
     1
 67
     7
176
     1
 79
     5
176
     1
170
     0
176
     1
171
     0
176
     1
290
     0
176
     1
 93
        1
176
     1
 44
0.0
176
     1
173
     0
176
     1
  0
VISUALSTYLE
  5
30
102
{ACAD_REACTORS
330
2A
102
}
102
{ACAD_XDICTIONARY
360
216
102
}
330
2A
100
AcDbVisualStyle
  2
Wireframe
 70
     5
177
     2
291
     0
 71
     0
176
     1
 72
     2
176
     1
 73
     0
176
     1
 90
        0
176
     1
 40
0.6
176
     1
 41
30.0
176
     1
 62
     5
 63
     7
421
 16777215
176
     1
 74
     1
176
     1
 91
        4
176
     1
 64
     7
176
     1
 65
   257
176
     1
 75
     1
176
     1
175
     1
176
     1
 42
1.0
176
     1
 92
        0
176
     1
 66
   257
176
     1
 43
1.0
176
     1
 76
     1
176
     1
 77
     6
176
     1
 78
     2
176
     1
 67
     7
176
     1
 79
     3
176
     1
170
     0
176
     1
171
     0
176
     1
290
     0
176
     1
 93
        1
176
     1
 44
0.0
176
     1
173
     0
176
     1
  0
VISUALSTYLE
  5
40
102
{ACAD_REACTORS
330
2A
102
}
102
{ACAD_XDICTIONARY
360
236
102
}
330
2A
100
AcDbVisualStyle
  2
X-Ray
 70
    25
177
     2
291
     0
 71
     2
176
     1
 72
     2
176
     1
 73
     1
176
     1
 90
        1
176
     1
 40
0.5
176
     1
 41
30.0
176
     1
 62
     5
 63
     7
421
 16777215
176
     1
 74
     1
176
     1
 91
        0
176
     1
 64
     7
176
     1
 65
   257
176
     1
 75
     1
176
     1
175
     1
176
     1
 42
1.0
176
     1
 92
        8
176
     1
 66
     7
176
     1
 43
1.0
176
     1
 76
     1
176
     1
 77
     6
176
     1
 78
     2
176
     1
 67
     7
176
     1
 79
     3
176
     1
170
     0
176
     1
171
     0
176
     1
290
     0
176
     1
 93
       13
176
     1
 44
0.0
176
     1
173
     0
176
     1
  0
DICTIONARYVAR
  5
20B
102
{ACAD_REACTORS
330
20A
102
}
330
20A
100
DictionaryVariables
280
     0
  1
1:1
  0
DICTIONARYVAR
  5
240
102
{ACAD_REACTORS
330
20A
102
}
330
20A
100
DictionaryVariables
280
     0
  1
Standard
  0
DICTIONARYVAR
  5
23F
102
{ACAD_REACTORS
330
20A
102
}
330
20A
100
DictionaryVariables
280
     0
  1
Standard
  0
DICTIONARY
  5
23C
330
6A
100
AcDbDictionary
280
     1
281
     1
  3
ACAD_ROUNDTRIP_2008_TABLESTYLE_CELLSTYLEMAP
360
23D
  0
DICTIONARY
  5
214
330
2F
100
AcDbDictionary
280
     1
281
     1
  3
ACAD_XREC_ROUNDTRIP
360
215
  0
DICTIONARY
  5
21A
330
32
100
AcDbDictionary
280
     1
281
     1
  3
ACAD_XREC_ROUNDTRIP
360
21B
  0
DICTIONARY
  5
222
330
36
100
AcDbDictionary
280
     1
281
     1
  3
ACAD_XREC_ROUNDTRIP
360
223
  0
DICTIONARY
  5
22A
330
3A
100
AcDbDictionary
280
     1
281
     1
  3
ACAD_XREC_ROUNDTRIP
360
22B
  0
DICTIONARY
  5
21E
330
34
100
AcDbDictionary
280
     1
281
     1
  3
ACAD_XREC_ROUNDTRIP
360
21F
  0
DICTIONARY
  5
220
330
35
100
AcDbDictionary
280
     1
281
     1
  3
ACAD_XREC_ROUNDTRIP
360
221
  0
DICTIONARY
  5
230
330
3D
100
AcDbDictionary
280
     1
281
     1
  3
ACAD_XREC_ROUNDTRIP
360
231
  0
DICTIONARY
  5
228
330
39
100
AcDbDictionary
280
     1
281
     1
  3
ACAD_XREC_ROUNDTRIP
360
229
  0
DICTIONARY
  5
20C
330
2B
100
AcDbDictionary
280
     1
281
     1
  3
ACAD_XREC_ROUNDTRIP
360
20D
  0
DICTIONARY
  5
20E
330
2C
100
AcDbDictionary
280
     1
281
     1
  3
ACAD_XREC_ROUNDTRIP
360
20F
  0
DICTIONARY
  5
210
330
2D
100
AcDbDictionary
280
     1
281
     1
  3
ACAD_XREC_ROUNDTRIP
360
211
  0
DICTIONARY
  5
212
330
2E
100
AcDbDictionary
280
     1
281
     1
  3
ACAD_XREC_ROUNDTRIP
360
213
  0
DICTIONARY
  5
218
330
31
100
AcDbDictionary
280
     1
281
     1
  3
ACAD_XREC_ROUNDTRIP
360
219
  0
DICTIONARY
  5
22C
330
3B
100
AcDbDictionary
280
     1
281
     1
  3
ACAD_XREC_ROUNDTRIP
360
22D
  0
DICTIONARY
  5
226
330
38
100
AcDbDictionary
280
     1
281
     1
  3
ACAD_XREC_ROUNDTRIP
360
227
  0
DICTIONARY
  5
22E
330
3C
100
AcDbDictionary
280
     1
281
     1
  3
ACAD_XREC_ROUNDTRIP
360
22F
  0
DICTIONARY
  5
21C
330
33
100
AcDbDictionary
280
     1
281
     1
  3
ACAD_XREC_ROUNDTRIP
360
21D
  0
DICTIONARY
  5
23A
330
42
100
AcDbDictionary
280
     1
281
     1
  3
ACAD_XREC_ROUNDTRIP
360
23B
  0
DICTIONARY
  5
238
330
41
100
AcDbDictionary
280
     1
281
     1
  3
ACAD_XREC_ROUNDTRIP
360
239
  0
DICTIONARY
  5
232
330
3E
100
AcDbDictionary
280
     1
281
     1
  3
ACAD_XREC_ROUNDTRIP
360
233
  0
DICTIONARY
  5
234
330
3F
100
AcDbDictionary
280
     1
281
     1
  3
ACAD_XREC_ROUNDTRIP
360
235
  0
DICTIONARY
  5
224
330
37
100
AcDbDictionary
280
     1
281
     1
  3
ACAD_XREC_ROUNDTRIP
360
225
  0
DICTIONARY
  5
216
330
30
100
AcDbDictionary
280
     1
281
     1
  3
ACAD_XREC_ROUNDTRIP
360
217
  0
DICTIONARY
  5
236
330
40
100
AcDbDictionary
280
     1
281
     1
  3
ACAD_XREC_ROUNDTRIP
360
237
  0
CELLSTYLEMAP
  5
23D
102
{ACAD_REACTORS
330
23C
102
}
330
23C
100
AcDbCellStyleMap
 90
        3
300
CELLSTYLE
  1
TABLEFORMAT_BEGIN
 90
        5
170
     1
 91
        0
 92
    32768
 62
   257
 93
        1
300
CONTENTFORMAT
  1
CONTENTFORMAT_BEGIN
 90
        0
 91
        0
 92
        4
 93
        0
300

 40
0.0
140
1.0
 94
        5
 62
     0
340
11
144
6.0
309
CONTENTFORMAT_END
171
     1
301
MARGIN
  1
CELLMARGIN_BEGIN
 40
1.5
 40
1.5
 40
1.5
 40
1.5
 40
1.5
 40
1.5
309
CELLMARGIN_END
 94
        6
 95
        1
302
GRIDFORMAT
  1
GRIDFORMAT_BEGIN
 90
        0
 91
        1
 62
     0
 92
       -2
340
14
 93
        0
 40
0.045
309
GRIDFORMAT_END
 95
        2
302
GRIDFORMAT
  1
GRIDFORMAT_BEGIN
 90
        0
 91
        1
 62
     0
 92
       -2
340
14
 93
        0
 40
0.045
309
GRIDFORMAT_END
 95
        4
302
GRIDFORMAT
  1
GRIDFORMAT_BEGIN
 90
        0
 91
        1
 62
     0
 92
       -2
340
14
 93
        0
 40
0.045
309
GRIDFORMAT_END
 95
        8
302
GRIDFORMAT
  1
GRIDFORMAT_BEGIN
 90
        0
 91
        1
 62
     0
 92
       -2
340
14
 93
        0
 40
0.045
309
GRIDFORMAT_END
 95
       16
302
GRIDFORMAT
  1
GRIDFORMAT_BEGIN
 90
        0
 91
        1
 62
     0
 92
       -2
340
14
 93
        0
 40
0.045
309
GRIDFORMAT_END
 95
       32
302
GRIDFORMAT
  1
GRIDFORMAT_BEGIN
 90
        0
 91
        1
 62
     0
 92
       -2
340
14
 93
        0
 40
0.045
309
GRIDFORMAT_END
309
TABLEFORMAT_END
  1
CELLSTYLE_BEGIN
 90
        1
 91
        1
300
_TITLE
309
CELLSTYLE_END
300
CELLSTYLE
  1
TABLEFORMAT_BEGIN
 90
        5
170
     1
 91
        0
 92
        0
 62
   257
 93
        1
300
CONTENTFORMAT
  1
CONTENTFORMAT_BEGIN
 90
        0
 91
        0
 92
        4
 93
        0
300

 40
0.0
140
1.0
 94
        5
 62
     0
340
11
144
4.5
309
CONTENTFORMAT_END
171
     1
301
MARGIN
  1
CELLMARGIN_BEGIN
 40
1.5
 40
1.5
 40
1.5
 40
1.5
 40
1.5
 40
1.5
309
CELLMARGIN_END
 94
        6
 95
        1
302
GRIDFORMAT
  1
GRIDFORMAT_BEGIN
 90
        0
 91
        1
 62
     0
 92
       -2
340
14
 93
        0
 40
0.045
309
GRIDFORMAT_END
 95
        2
302
GRIDFORMAT
  1
GRIDFORMAT_BEGIN
 90
        0
 91
        1
 62
     0
 92
       -2
340
14
 93
        0
 40
0.045
309
GRIDFORMAT_END
 95
        4
302
GRIDFORMAT
  1
GRIDFORMAT_BEGIN
 90
        0
 91
        1
 62
     0
 92
       -2
340
14
 93
        0
 40
0.045
309
GRIDFORMAT_END
 95
        8
302
GRIDFORMAT
  1
GRIDFORMAT_BEGIN
 90
        0
 91
        1
 62
     0
 92
       -2
340
14
 93
        0
 40
0.045
309
GRIDFORMAT_END
 95
       16
302
GRIDFORMAT
  1
GRIDFORMAT_BEGIN
 90
        0
 91
        1
 62
     0
 92
       -2
340
14
 93
        0
 40
0.045
309
GRIDFORMAT_END
 95
       32
302
GRIDFORMAT
  1
GRIDFORMAT_BEGIN
 90
        0
 91
        1
 62
     0
 92
       -2
340
14
 93
        0
 40
0.045
309
GRIDFORMAT_END
309
TABLEFORMAT_END
  1
CELLSTYLE_BEGIN
 90
        2
 91
        1
300
_HEADER
309
CELLSTYLE_END
300
CELLSTYLE
  1
TABLEFORMAT_BEGIN
 90
        5
170
     1
 91
        0
 92
        0
 62
   257
 93
        1
300
CONTENTFORMAT
  1
CONTENTFORMAT_BEGIN
 90
        0
 91
        0
 92
        4
 93
        0
300

 40
0.0
140
1.0
 94
        2
 62
     0
340
11
144
4.5
309
CONTENTFORMAT_END
171
     1
301
MARGIN
  1
CELLMARGIN_BEGIN
 40
1.5
 40
1.5
 40
1.5
 40
1.5
 40
1.5
 40
1.5
309
CELLMARGIN_END
 94
        6
 95
        1
302
GRIDFORMAT
  1
GRIDFORMAT_BEGIN
 90
        0
 91
        1
 62
     0
 92
       -2
340
14
 93
        0
 40
0.045
309
GRIDFORMAT_END
 95
        2
302
GRIDFORMAT
  1
GRIDFORMAT_BEGIN
 90
        0
 91
        1
 62
     0
 92
       -2
340
14
 93
        0
 40
0.045
309
GRIDFORMAT_END
 95
        4
302
GRIDFORMAT
  1
GRIDFORMAT_BEGIN
 90
        0
 91
        1
 62
     0
 92
       -2
340
14
 93
        0
 40
0.045
309
GRIDFORMAT_END
 95
        8
302
GRIDFORMAT
  1
GRIDFORMAT_BEGIN
 90
        0
 91
        1
 62
     0
 92
       -2
340
14
 93
        0
 40
0.045
309
GRIDFORMAT_END
 95
       16
302
GRIDFORMAT
  1
GRIDFORMAT_BEGIN
 90
        0
 91
        1
 62
     0
 92
       -2
340
14
 93
        0
 40
0.045
309
GRIDFORMAT_END
 95
       32
302
GRIDFORMAT
  1
GRIDFORMAT_BEGIN
 90
        0
 91
        1
 62
     0
 92
       -2
340
14
 93
        0
 40
0.045
309
GRIDFORMAT_END
309
TABLEFORMAT_END
  1
CELLSTYLE_BEGIN
 90
        3
 91
        2
300
_DATA
309
CELLSTYLE_END
  0
XRECORD
  5
215
102
{ACAD_REACTORS
330
214
102
}
330
214
100
AcDbXrecord
280
     1
102
RTVSPost2010Prop28
280
     1
102
RTVSPost2010PropOp28
 70
     1
102
RTVSPost2010Prop29
280
     1
102
RTVSPost2010PropOp29
 70
     1
102
RTVSPost2010Prop30
280
     0
102
RTVSPost2010PropOp30
 70
     1
102
RTVSPost2010Prop31
280
     0
102
RTVSPost2010PropOp31
 70
     1
102
RTVSPost2010Prop32
280
     0
102
RTVSPost2010PropOp32
 70
     1
102
RTVSPost2010Prop33
280
     0
102
RTVSPost2010PropOp33
 70
     1
102
RTVSPost2010Prop34
280
     0
102
RTVSPost2010PropOp34
 70
     1
102
RTVSPost2010Prop35
280
     0
102
RTVSPost2010PropOp35
 70
     1
102
RTVSPost2010Prop36
280
     0
102
RTVSPost2010PropOp36
 70
     1
102
RTVSPost2010Prop37
 90
       50
102
RTVSPost2010PropOp37
 70
     1
102
RTVSPost2010Prop38
140
0.0
102
RTVSPost2010PropOp38
 70
     1
102
RTVSPost2010Prop39
140
1.0
102
RTVSPost2010PropOp39
 70
     1
102
RTVSPost2010Prop40
 90
        0
102
RTVSPost2010PropOp40
 70
     1
102
RTVSPost2010Prop41ColorIndex
 90
       18
102
RTVSPost2010Prop41ColorRGB
 90
        0
102
RTVSPost2010PropOp41
 70
     1
102
RTVSPost2010Prop42
 90
       50
102
RTVSPost2010PropOp42
 70
     1
102
RTVSPost2010Prop43
 90
        3
102
RTVSPost2010PropOp43
 70
     1
102
RTVSPost2010Prop44ColorIndex
 90
        5
102
RTVSPost2010Prop44ColorRGB
 90
      255
102
RTVSPost2010PropOp44
 70
     1
102
RTVSPost2010Prop45
280
     0
102
RTVSPost2010PropOp45
 70
     1
102
RTVSPost2010Prop46
 90
       50
102
RTVSPost2010PropOp46
 70
     1
102
RTVSPost2010Prop47
 90
       50
102
RTVSPost2010PropOp47
 70
     1
102
RTVSPost2010Prop48
 90
       50
102
RTVSPost2010PropOp48
 70
     1
102
RTVSPost2010Prop49
280
     0
102
RTVSPost2010PropOp49
 70
     1
102
RTVSPost2010Prop50
 90
       50
102
RTVSPost2010PropOp50
 70
     1
102
RTVSPost2010Prop51ColorIndex
 90
      256
102
RTVSPost2010Prop51ColorRGB
 90
-16777216
102
RTVSPost2010PropOp51
 70
     0
102
RTVSPost2010Prop52
140
1.0
102
RTVSPost2010PropOp52
 70
     0
102
RTVSPost2010Prop53
 90
        2
102
RTVSPost2010PropOp53
 70
     1
102
RTVSPost2010Prop54
  1
strokes_ogs.tif
102
RTVSPost2010PropOp54
 70
     1
102
RTVSPost2010Prop55
280
     0
102
RTVSPost2010PropOp55
 70
     1
102
RTVSPost2010Prop56
140
1.0
102
RTVSPost2010PropOp56
 70
     1
102
RTVSPost2010Prop57
140
1.0
102
RTVSPost2010PropOp57
 70
     1
  0
XRECORD
  5
21B
102
{ACAD_REACTORS
330
21A
102
}
330
21A
100
AcDbXrecord
280
     1
102
RTVSPost2010Prop28
280
     0
102
RTVSPost2010PropOp28
 70
     1
102
RTVSPost2010Prop29
280
     1
102
RTVSPost2010PropOp29
 70
     1
102
RTVSPost2010Prop30
280
     1
102
RTVSPost2010PropOp30
 70
     1
102
RTVSPost2010Prop31
280
     0
102
RTVSPost2010PropOp31
 70
     1
102
RTVSPost2010Prop32
280
     0
102
RTVSPost2010PropOp32
 70
     1
102
RTVSPost2010Prop33
280
     0
102
RTVSPost2010PropOp33
 70
     1
102
RTVSPost2010Prop34
280
     0
102
RTVSPost2010PropOp34
 70
     1
102
RTVSPost2010Prop35
280
     0
102
RTVSPost2010PropOp35
 70
     1
102
RTVSPost2010Prop36
280
     0
102
RTVSPost2010PropOp36
 70
     1
102
RTVSPost2010Prop37
 90
       50
102
RTVSPost2010PropOp37
 70
     1
102
RTVSPost2010Prop38
140
0.0
102
RTVSPost2010PropOp38
 70
     1
102
RTVSPost2010Prop39
140
1.0
102
RTVSPost2010PropOp39
 70
     1
102
RTVSPost2010Prop40
 90
        0
102
RTVSPost2010PropOp40
 70
     1
102
RTVSPost2010Prop41ColorIndex
 90
       18
102
RTVSPost2010Prop41ColorRGB
 90
        0
102
RTVSPost2010PropOp41
 70
     1
102
RTVSPost2010Prop42
 90
       50
102
RTVSPost2010PropOp42
 70
     1
102
RTVSPost2010Prop43
 90
        3
102
RTVSPost2010PropOp43
 70
     1
102
RTVSPost2010Prop44ColorIndex
 90
        5
102
RTVSPost2010Prop44ColorRGB
 90
      255
102
RTVSPost2010PropOp44
 70
     1
102
RTVSPost2010Prop45
280
     0
102
RTVSPost2010PropOp45
 70
     1
102
RTVSPost2010Prop46
 90
       50
102
RTVSPost2010PropOp46
 70
     1
102
RTVSPost2010Prop47
 90
       50
102
RTVSPost2010PropOp47
 70
     1
102
RTVSPost2010Prop48
 90
       50
102
RTVSPost2010PropOp48
 70
     1
102
RTVSPost2010Prop49
280
     0
102
RTVSPost2010PropOp49
 70
     1
102
RTVSPost2010Prop50
 90
       50
102
RTVSPost2010PropOp50
 70
     1
102
RTVSPost2010Prop51ColorIndex
 90
      256
102
RTVSPost2010Prop51ColorRGB
 90
-16777216
102
RTVSPost2010PropOp51
 70
     0
102
RTVSPost2010Prop52
140
1.0
102
RTVSPost2010PropOp52
 70
     0
102
RTVSPost2010Prop53
 90
        2
102
RTVSPost2010PropOp53
 70
     1
102
RTVSPost2010Prop54
  1
strokes_ogs.tif
102
RTVSPost2010PropOp54
 70
     1
102
RTVSPost2010Prop55
280
     0
102
RTVSPost2010PropOp55
 70
     1
102
RTVSPost2010Prop56
140
1.0
102
RTVSPost2010PropOp56
 70
     1
102
RTVSPost2010Prop57
140
1.0
102
RTVSPost2010PropOp57
 70
     1
  0
XRECORD
  5
223
102
{ACAD_REACTORS
330
222
102
}
330
222
100
AcDbXrecord
280
     1
102
RTVSPost2010Prop28
280
     0
102
RTVSPost2010PropOp28
 70
     1
102
RTVSPost2010Prop29
280
     1
102
RTVSPost2010PropOp29
 70
     1
102
RTVSPost2010Prop30
280
     1
102
RTVSPost2010PropOp30
 70
     1
102
RTVSPost2010Prop31
280
     0
102
RTVSPost2010PropOp31
 70
     1
102
RTVSPost2010Prop32
280
     0
102
RTVSPost2010PropOp32
 70
     1
102
RTVSPost2010Prop33
280
     0
102
RTVSPost2010PropOp33
 70
     1
102
RTVSPost2010Prop34
280
     0
102
RTVSPost2010PropOp34
 70
     1
102
RTVSPost2010Prop35
280
     0
102
RTVSPost2010PropOp35
 70
     1
102
RTVSPost2010Prop36
280
     0
102
RTVSPost2010PropOp36
 70
     1
102
RTVSPost2010Prop37
 90
       50
102
RTVSPost2010PropOp37
 70
     1
102
RTVSPost2010Prop38
140
0.0
102
RTVSPost2010PropOp38
 70
     1
102
RTVSPost2010Prop39
140
1.0
102
RTVSPost2010PropOp39
 70
     1
102
RTVSPost2010Prop40
 90
        0
102
RTVSPost2010PropOp40
 70
     1
102
RTVSPost2010Prop41ColorIndex
 90
       18
102
RTVSPost2010Prop41ColorRGB
 90
        0
102
RTVSPost2010PropOp41
 70
     1
102
RTVSPost2010Prop42
 90
       50
102
RTVSPost2010PropOp42
 70
     1
102
RTVSPost2010Prop43
 90
        3
102
RTVSPost2010PropOp43
 70
     1
102
RTVSPost2010Prop44ColorIndex
 90
        5
102
RTVSPost2010Prop44ColorRGB
 90
      255
102
RTVSPost2010PropOp44
 70
     1
102
RTVSPost2010Prop45
280
     0
102
RTVSPost2010PropOp45
 70
     1
102
RTVSPost2010Prop46
 90
       50
102
RTVSPost2010PropOp46
 70
     1
102
RTVSPost2010Prop47
 90
       50
102
RTVSPost2010PropOp47
 70
     1
102
RTVSPost2010Prop48
 90
       50
102
RTVSPost2010PropOp48
 70
     1
102
RTVSPost2010Prop49
280
     0
102
RTVSPost2010PropOp49
 70
     1
102
RTVSPost2010Prop50
 90
       50
102
RTVSPost2010PropOp50
 70
     1
102
RTVSPost2010Prop51ColorIndex
 90
      256
102
RTVSPost2010Prop51ColorRGB
 90
-16777216
102
RTVSPost2010PropOp51
 70
     0
102
RTVSPost2010Prop52
140
1.0
102
RTVSPost2010PropOp52
 70
     0
102
RTVSPost2010Prop53
 90
        2
102
RTVSPost2010PropOp53
 70
     1
102
RTVSPost2010Prop54
  1
strokes_ogs.tif
102
RTVSPost2010PropOp54
 70
     1
102
RTVSPost2010Prop55
280
     0
102
RTVSPost2010PropOp55
 70
     1
102
RTVSPost2010Prop56
140
1.0
102
RTVSPost2010PropOp56
 70
     1
102
RTVSPost2010Prop57
140
1.0
102
RTVSPost2010PropOp57
 70
     1
  0
XRECORD
  5
22B
102
{ACAD_REACTORS
330
22A
102
}
330
22A
100
AcDbXrecord
280
     1
102
RTVSPost2010Prop28
280
     0
102
RTVSPost2010PropOp28
 70
     1
102
RTVSPost2010Prop29
280
     1
102
RTVSPost2010PropOp29
 70
     1
102
RTVSPost2010Prop30
280
     1
102
RTVSPost2010PropOp30
 70
     1
102
RTVSPost2010Prop31
280
     0
102
RTVSPost2010PropOp31
 70
     1
102
RTVSPost2010Prop32
280
     0
102
RTVSPost2010PropOp32
 70
     1
102
RTVSPost2010Prop33
280
     0
102
RTVSPost2010PropOp33
 70
     1
102
RTVSPost2010Prop34
280
     0
102
RTVSPost2010PropOp34
 70
     1
102
RTVSPost2010Prop35
280
     0
102
RTVSPost2010PropOp35
 70
     1
102
RTVSPost2010Prop36
280
     0
102
RTVSPost2010PropOp36
 70
     1
102
RTVSPost2010Prop37
 90
       50
102
RTVSPost2010PropOp37
 70
     1
102
RTVSPost2010Prop38
140
0.0
102
RTVSPost2010PropOp38
 70
     1
102
RTVSPost2010Prop39
140
1.0
102
RTVSPost2010PropOp39
 70
     1
102
RTVSPost2010Prop40
 90
        0
102
RTVSPost2010PropOp40
 70
     1
102
RTVSPost2010Prop41ColorIndex
 90
       18
102
RTVSPost2010Prop41ColorRGB
 90
        0
102
RTVSPost2010PropOp41
 70
     1
102
RTVSPost2010Prop42
 90
       50
102
RTVSPost2010PropOp42
 70
     1
102
RTVSPost2010Prop43
 90
        3
102
RTVSPost2010PropOp43
 70
     1
102
RTVSPost2010Prop44ColorIndex
 90
        5
102
RTVSPost2010Prop44ColorRGB
 90
      255
102
RTVSPost2010PropOp44
 70
     1
102
RTVSPost2010Prop45
280
     0
102
RTVSPost2010PropOp45
 70
     1
102
RTVSPost2010Prop46
 90
       50
102
RTVSPost2010PropOp46
 70
     1
102
RTVSPost2010Prop47
 90
       50
102
RTVSPost2010PropOp47
 70
     1
102
RTVSPost2010Prop48
 90
       50
102
RTVSPost2010PropOp48
 70
     1
102
RTVSPost2010Prop49
280
     0
102
RTVSPost2010PropOp49
 70
     1
102
RTVSPost2010Prop50
 90
       50
102
RTVSPost2010PropOp50
 70
     1
102
RTVSPost2010Prop51ColorIndex
 90
      256
102
RTVSPost2010Prop51ColorRGB
 90
-16777216
102
RTVSPost2010PropOp51
 70
     0
102
RTVSPost2010Prop52
140
1.0
102
RTVSPost2010PropOp52
 70
     0
102
RTVSPost2010Prop53
 90
        2
102
RTVSPost2010PropOp53
 70
     1
102
RTVSPost2010Prop54
  1
strokes_ogs.tif
102
RTVSPost2010PropOp54
 70
     1
102
RTVSPost2010Prop55
280
     0
102
RTVSPost2010PropOp55
 70
     1
102
RTVSPost2010Prop56
140
1.0
102
RTVSPost2010PropOp56
 70
     1
102
RTVSPost2010Prop57
140
1.0
102
RTVSPost2010PropOp57
 70
     1
  0
XRECORD
  5
21F
102
{ACAD_REACTORS
330
21E
102
}
330
21E
100
AcDbXrecord
280
     1
102
RTVSPost2010Prop28
280
     0
102
RTVSPost2010PropOp28
 70
     1
102
RTVSPost2010Prop29
280
     1
102
RTVSPost2010PropOp29
 70
     1
102
RTVSPost2010Prop30
280
     1
102
RTVSPost2010PropOp30
 70
     1
102
RTVSPost2010Prop31
280
     0
102
RTVSPost2010PropOp31
 70
     1
102
RTVSPost2010Prop32
280
     0
102
RTVSPost2010PropOp32
 70
     1
102
RTVSPost2010Prop33
280
     0
102
RTVSPost2010PropOp33
 70
     1
102
RTVSPost2010Prop34
280
     0
102
RTVSPost2010PropOp34
 70
     1
102
RTVSPost2010Prop35
280
     0
102
RTVSPost2010PropOp35
 70
     1
102
RTVSPost2010Prop36
280
     0
102
RTVSPost2010PropOp36
 70
     1
102
RTVSPost2010Prop37
 90
       50
102
RTVSPost2010PropOp37
 70
     1
102
RTVSPost2010Prop38
140
0.0
102
RTVSPost2010PropOp38
 70
     1
102
RTVSPost2010Prop39
140
1.0
102
RTVSPost2010PropOp39
 70
     1
102
RTVSPost2010Prop40
 90
        0
102
RTVSPost2010PropOp40
 70
     1
102
RTVSPost2010Prop41ColorIndex
 90
       18
102
RTVSPost2010Prop41ColorRGB
 90
        0
102
RTVSPost2010PropOp41
 70
     1
102
RTVSPost2010Prop42
 90
       50
102
RTVSPost2010PropOp42
 70
     1
102
RTVSPost2010Prop43
 90
        3
102
RTVSPost2010PropOp43
 70
     1
102
RTVSPost2010Prop44ColorIndex
 90
        5
102
RTVSPost2010Prop44ColorRGB
 90
      255
102
RTVSPost2010PropOp44
 70
     1
102
RTVSPost2010Prop45
280
     0
102
RTVSPost2010PropOp45
 70
     1
102
RTVSPost2010Prop46
 90
       50
102
RTVSPost2010PropOp46
 70
     1
102
RTVSPost2010Prop47
 90
       50
102
RTVSPost2010PropOp47
 70
     1
102
RTVSPost2010Prop48
 90
       50
102
RTVSPost2010PropOp48
 70
     1
102
RTVSPost2010Prop49
280
     0
102
RTVSPost2010PropOp49
 70
     1
102
RTVSPost2010Prop50
 90
       50
102
RTVSPost2010PropOp50
 70
     1
102
RTVSPost2010Prop51ColorIndex
 90
      256
102
RTVSPost2010Prop51ColorRGB
 90
-16777216
102
RTVSPost2010PropOp51
 70
     0
102
RTVSPost2010Prop52
140
1.0
102
RTVSPost2010PropOp52
 70
     0
102
RTVSPost2010Prop53
 90
        2
102
RTVSPost2010PropOp53
 70
     1
102
RTVSPost2010Prop54
  1
strokes_ogs.tif
102
RTVSPost2010PropOp54
 70
     1
102
RTVSPost2010Prop55
280
     0
102
RTVSPost2010PropOp55
 70
     1
102
RTVSPost2010Prop56
140
1.0
102
RTVSPost2010PropOp56
 70
     1
102
RTVSPost2010Prop57
140
1.0
102
RTVSPost2010PropOp57
 70
     1
  0
XRECORD
  5
221
102
{ACAD_REACTORS
330
220
102
}
330
220
100
AcDbXrecord
280
     1
102
RTVSPost2010Prop28
280
     0
102
RTVSPost2010PropOp28
 70
     1
102
RTVSPost2010Prop29
280
     1
102
RTVSPost2010PropOp29
 70
     1
102
RTVSPost2010Prop30
280
     1
102
RTVSPost2010PropOp30
 70
     1
102
RTVSPost2010Prop31
280
     0
102
RTVSPost2010PropOp31
 70
     1
102
RTVSPost2010Prop32
280
     0
102
RTVSPost2010PropOp32
 70
     1
102
RTVSPost2010Prop33
280
     0
102
RTVSPost2010PropOp33
 70
     1
102
RTVSPost2010Prop34
280
     0
102
RTVSPost2010PropOp34
 70
     1
102
RTVSPost2010Prop35
280
     0
102
RTVSPost2010PropOp35
 70
     1
102
RTVSPost2010Prop36
280
     0
102
RTVSPost2010PropOp36
 70
     1
102
RTVSPost2010Prop37
 90
       50
102
RTVSPost2010PropOp37
 70
     1
102
RTVSPost2010Prop38
140
0.0
102
RTVSPost2010PropOp38
 70
     1
102
RTVSPost2010Prop39
140
1.0
102
RTVSPost2010PropOp39
 70
     1
102
RTVSPost2010Prop40
 90
        0
102
RTVSPost2010PropOp40
 70
     1
102
RTVSPost2010Prop41ColorIndex
 90
       18
102
RTVSPost2010Prop41ColorRGB
 90
        0
102
RTVSPost2010PropOp41
 70
     1
102
RTVSPost2010Prop42
 90
       50
102
RTVSPost2010PropOp42
 70
     1
102
RTVSPost2010Prop43
 90
        3
102
RTVSPost2010PropOp43
 70
     1
102
RTVSPost2010Prop44ColorIndex
 90
        5
102
RTVSPost2010Prop44ColorRGB
 90
      255
102
RTVSPost2010PropOp44
 70
     1
102
RTVSPost2010Prop45
280
     0
102
RTVSPost2010PropOp45
 70
     1
102
RTVSPost2010Prop46
 90
       50
102
RTVSPost2010PropOp46
 70
     1
102
RTVSPost2010Prop47
 90
       50
102
RTVSPost2010PropOp47
 70
     1
102
RTVSPost2010Prop48
 90
       50
102
RTVSPost2010PropOp48
 70
     1
102
RTVSPost2010Prop49
280
     0
102
RTVSPost2010PropOp49
 70
     1
102
RTVSPost2010Prop50
 90
       50
102
RTVSPost2010PropOp50
 70
     1
102
RTVSPost2010Prop51ColorIndex
 90
      256
102
RTVSPost2010Prop51ColorRGB
 90
-16777216
102
RTVSPost2010PropOp51
 70
     0
102
RTVSPost2010Prop52
140
1.0
102
RTVSPost2010PropOp52
 70
     0
102
RTVSPost2010Prop53
 90
        2
102
RTVSPost2010PropOp53
 70
     1
102
RTVSPost2010Prop54
  1
strokes_ogs.tif
102
RTVSPost2010PropOp54
 70
     1
102
RTVSPost2010Prop55
280
     0
102
RTVSPost2010PropOp55
 70
     1
102
RTVSPost2010Prop56
140
1.0
102
RTVSPost2010PropOp56
 70
     1
102
RTVSPost2010Prop57
140
1.0
102
RTVSPost2010PropOp57
 70
     1
  0
XRECORD
  5
231
102
{ACAD_REACTORS
330
230
102
}
330
230
100
AcDbXrecord
280
     1
102
RTVSPost2010Prop28
280
     0
102
RTVSPost2010PropOp28
 70
     0
102
RTVSPost2010Prop29
280
     1
102
RTVSPost2010PropOp29
 70
     0
102
RTVSPost2010Prop30
280
     1
102
RTVSPost2010PropOp30
 70
     0
102
RTVSPost2010Prop31
280
     0
102
RTVSPost2010PropOp31
 70
     0
102
RTVSPost2010Prop32
280
     0
102
RTVSPost2010PropOp32
 70
     0
102
RTVSPost2010Prop33
280
     0
102
RTVSPost2010PropOp33
 70
     0
102
RTVSPost2010Prop34
280
     0
102
RTVSPost2010PropOp34
 70
     0
102
RTVSPost2010Prop35
280
     0
102
RTVSPost2010PropOp35
 70
     0
102
RTVSPost2010Prop36
280
     0
102
RTVSPost2010PropOp36
 70
     0
102
RTVSPost2010Prop37
 90
       50
102
RTVSPost2010PropOp37
 70
     0
102
RTVSPost2010Prop38
140
0.0
102
RTVSPost2010PropOp38
 70
     0
102
RTVSPost2010Prop39
140
1.0
102
RTVSPost2010PropOp39
 70
     0
102
RTVSPost2010Prop40
 90
        0
102
RTVSPost2010PropOp40
 70
     0
102
RTVSPost2010Prop41ColorIndex
 90
       18
102
RTVSPost2010Prop41ColorRGB
 90
        0
102
RTVSPost2010PropOp41
 70
     0
102
RTVSPost2010Prop42
 90
       50
102
RTVSPost2010PropOp42
 70
     0
102
RTVSPost2010Prop43
 90
        3
102
RTVSPost2010PropOp43
 70
     0
102
RTVSPost2010Prop44ColorIndex
 90
        5
102
RTVSPost2010Prop44ColorRGB
 90
      255
102
RTVSPost2010PropOp44
 70
     0
102
RTVSPost2010Prop45
280
     0
102
RTVSPost2010PropOp45
 70
     0
102
RTVSPost2010Prop46
 90
       50
102
RTVSPost2010PropOp46
 70
     0
102
RTVSPost2010Prop47
 90
       50
102
RTVSPost2010PropOp47
 70
     0
102
RTVSPost2010Prop48
 90
       50
102
RTVSPost2010PropOp48
 70
     0
102
RTVSPost2010Prop49
280
     0
102
RTVSPost2010PropOp49
 70
     0
102
RTVSPost2010Prop50
 90
       50
102
RTVSPost2010PropOp50
 70
     0
102
RTVSPost2010Prop51ColorIndex
 90
      256
102
RTVSPost2010Prop51ColorRGB
 90
-16777216
102
RTVSPost2010PropOp51
 70
     0
102
RTVSPost2010Prop52
140
1.0
102
RTVSPost2010PropOp52
 70
     0
102
RTVSPost2010Prop53
 90
        2
102
RTVSPost2010PropOp53
 70
     0
102
RTVSPost2010Prop54
  1
strokes_ogs.tif
102
RTVSPost2010PropOp54
 70
     0
102
RTVSPost2010Prop55
280
     0
102
RTVSPost2010PropOp55
 70
     0
102
RTVSPost2010Prop56
140
1.0
102
RTVSPost2010PropOp56
 70
     0
102
RTVSPost2010Prop57
140
1.0
102
RTVSPost2010PropOp57
 70
     0
  0
XRECORD
  5
229
102
{ACAD_REACTORS
330
228
102
}
330
228
100
AcDbXrecord
280
     1
102
RTVSPost2010Prop28
280
     0
102
RTVSPost2010PropOp28
 70
     1
102
RTVSPost2010Prop29
280
     1
102
RTVSPost2010PropOp29
 70
     1
102
RTVSPost2010Prop30
280
     1
102
RTVSPost2010PropOp30
 70
     1
102
RTVSPost2010Prop31
280
     0
102
RTVSPost2010PropOp31
 70
     1
102
RTVSPost2010Prop32
280
     0
102
RTVSPost2010PropOp32
 70
     1
102
RTVSPost2010Prop33
280
     0
102
RTVSPost2010PropOp33
 70
     1
102
RTVSPost2010Prop34
280
     0
102
RTVSPost2010PropOp34
 70
     1
102
RTVSPost2010Prop35
280
     0
102
RTVSPost2010PropOp35
 70
     1
102
RTVSPost2010Prop36
280
     0
102
RTVSPost2010PropOp36
 70
     1
102
RTVSPost2010Prop37
 90
       50
102
RTVSPost2010PropOp37
 70
     1
102
RTVSPost2010Prop38
140
0.0
102
RTVSPost2010PropOp38
 70
     1
102
RTVSPost2010Prop39
140
1.0
102
RTVSPost2010PropOp39
 70
     1
102
RTVSPost2010Prop40
 90
        0
102
RTVSPost2010PropOp40
 70
     1
102
RTVSPost2010Prop41ColorIndex
 90
       18
102
RTVSPost2010Prop41ColorRGB
 90
        0
102
RTVSPost2010PropOp41
 70
     1
102
RTVSPost2010Prop42
 90
       50
102
RTVSPost2010PropOp42
 70
     1
102
RTVSPost2010Prop43
 90
        3
102
RTVSPost2010PropOp43
 70
     1
102
RTVSPost2010Prop44ColorIndex
 90
        5
102
RTVSPost2010Prop44ColorRGB
 90
      255
102
RTVSPost2010PropOp44
 70
     1
102
RTVSPost2010Prop45
280
     0
102
RTVSPost2010PropOp45
 70
     1
102
RTVSPost2010Prop46
 90
       50
102
RTVSPost2010PropOp46
 70
     1
102
RTVSPost2010Prop47
 90
       50
102
RTVSPost2010PropOp47
 70
     1
102
RTVSPost2010Prop48
 90
       50
102
RTVSPost2010PropOp48
 70
     1
102
RTVSPost2010Prop49
280
     0
102
RTVSPost2010PropOp49
 70
     1
102
RTVSPost2010Prop50
 90
       50
102
RTVSPost2010PropOp50
 70
     1
102
RTVSPost2010Prop51ColorIndex
 90
      256
102
RTVSPost2010Prop51ColorRGB
 90
-16777216
102
RTVSPost2010PropOp51
 70
     0
102
RTVSPost2010Prop52
140
1.0
102
RTVSPost2010PropOp52
 70
     0
102
RTVSPost2010Prop53
 90
        2
102
RTVSPost2010PropOp53
 70
     1
102
RTVSPost2010Prop54
  1
strokes_ogs.tif
102
RTVSPost2010PropOp54
 70
     1
102
RTVSPost2010Prop55
280
     0
102
RTVSPost2010PropOp55
 70
     1
102
RTVSPost2010Prop56
140
1.0
102
RTVSPost2010PropOp56
 70
     1
102
RTVSPost2010Prop57
140
1.0
102
RTVSPost2010PropOp57
 70
     1
  0
XRECORD
  5
20D
102
{ACAD_REACTORS
330
20C
102
}
330
20C
100
AcDbXrecord
280
     1
102
RTVSPost2010Prop28
280
     0
102
RTVSPost2010PropOp28
 70
     1
102
RTVSPost2010Prop29
280
     1
102
RTVSPost2010PropOp29
 70
     1
102
RTVSPost2010Prop30
280
     1
102
RTVSPost2010PropOp30
 70
     1
102
RTVSPost2010Prop31
280
     0
102
RTVSPost2010PropOp31
 70
     1
102
RTVSPost2010Prop32
280
     0
102
RTVSPost2010PropOp32
 70
     1
102
RTVSPost2010Prop33
280
     0
102
RTVSPost2010PropOp33
 70
     1
102
RTVSPost2010Prop34
280
     0
102
RTVSPost2010PropOp34
 70
     1
102
RTVSPost2010Prop35
280
     0
102
RTVSPost2010PropOp35
 70
     1
102
RTVSPost2010Prop36
280
     0
102
RTVSPost2010PropOp36
 70
     1
102
RTVSPost2010Prop37
 90
       50
102
RTVSPost2010PropOp37
 70
     1
102
RTVSPost2010Prop38
140
0.0
102
RTVSPost2010PropOp38
 70
     1
102
RTVSPost2010Prop39
140
1.0
102
RTVSPost2010PropOp39
 70
     1
102
RTVSPost2010Prop40
 90
        0
102
RTVSPost2010PropOp40
 70
     1
102
RTVSPost2010Prop41ColorIndex
 90
       18
102
RTVSPost2010Prop41ColorRGB
 90
        0
102
RTVSPost2010PropOp41
 70
     1
102
RTVSPost2010Prop42
 90
       50
102
RTVSPost2010PropOp42
 70
     1
102
RTVSPost2010Prop43
 90
        3
102
RTVSPost2010PropOp43
 70
     1
102
RTVSPost2010Prop44ColorIndex
 90
        5
102
RTVSPost2010Prop44ColorRGB
 90
      255
102
RTVSPost2010PropOp44
 70
     1
102
RTVSPost2010Prop45
280
     0
102
RTVSPost2010PropOp45
 70
     1
102
RTVSPost2010Prop46
 90
       50
102
RTVSPost2010PropOp46
 70
     1
102
RTVSPost2010Prop47
 90
       50
102
RTVSPost2010PropOp47
 70
     1
102
RTVSPost2010Prop48
 90
       50
102
RTVSPost2010PropOp48
 70
     1
102
RTVSPost2010Prop49
280
     0
102
RTVSPost2010PropOp49
 70
     1
102
RTVSPost2010Prop50
 90
       50
102
RTVSPost2010PropOp50
 70
     1
102
RTVSPost2010Prop51ColorIndex
 90
      256
102
RTVSPost2010Prop51ColorRGB
 90
-16777216
102
RTVSPost2010PropOp51
 70
     0
102
RTVSPost2010Prop52
140
1.0
102
RTVSPost2010PropOp52
 70
     0
102
RTVSPost2010Prop53
 90
        2
102
RTVSPost2010PropOp53
 70
     1
102
RTVSPost2010Prop54
  1
strokes_ogs.tif
102
RTVSPost2010PropOp54
 70
     1
102
RTVSPost2010Prop55
280
     0
102
RTVSPost2010PropOp55
 70
     1
102
RTVSPost2010Prop56
140
1.0
102
RTVSPost2010PropOp56
 70
     1
102
RTVSPost2010Prop57
140
1.0
102
RTVSPost2010PropOp57
 70
     1
  0
XRECORD
  5
20F
102
{ACAD_REACTORS
330
20E
102
}
330
20E
100
AcDbXrecord
280
     1
102
RTVSPost2010Prop28
280
     0
102
RTVSPost2010PropOp28
 70
     1
102
RTVSPost2010Prop29
280
     1
102
RTVSPost2010PropOp29
 70
     1
102
RTVSPost2010Prop30
280
     1
102
RTVSPost2010PropOp30
 70
     1
102
RTVSPost2010Prop31
280
     0
102
RTVSPost2010PropOp31
 70
     1
102
RTVSPost2010Prop32
280
     0
102
RTVSPost2010PropOp32
 70
     1
102
RTVSPost2010Prop33
280
     0
102
RTVSPost2010PropOp33
 70
     1
102
RTVSPost2010Prop34
280
     0
102
RTVSPost2010PropOp34
 70
     1
102
RTVSPost2010Prop35
280
     0
102
RTVSPost2010PropOp35
 70
     1
102
RTVSPost2010Prop36
280
     0
102
RTVSPost2010PropOp36
 70
     1
102
RTVSPost2010Prop37
 90
       50
102
RTVSPost2010PropOp37
 70
     1
102
RTVSPost2010Prop38
140
0.0
102
RTVSPost2010PropOp38
 70
     1
102
RTVSPost2010Prop39
140
1.0
102
RTVSPost2010PropOp39
 70
     1
102
RTVSPost2010Prop40
 90
        0
102
RTVSPost2010PropOp40
 70
     1
102
RTVSPost2010Prop41ColorIndex
 90
       18
102
RTVSPost2010Prop41ColorRGB
 90
        0
102
RTVSPost2010PropOp41
 70
     1
102
RTVSPost2010Prop42
 90
       50
102
RTVSPost2010PropOp42
 70
     1
102
RTVSPost2010Prop43
 90
        3
102
RTVSPost2010PropOp43
 70
     1
102
RTVSPost2010Prop44ColorIndex
 90
        5
102
RTVSPost2010Prop44ColorRGB
 90
      255
102
RTVSPost2010PropOp44
 70
     1
102
RTVSPost2010Prop45
280
     0
102
RTVSPost2010PropOp45
 70
     1
102
RTVSPost2010Prop46
 90
       50
102
RTVSPost2010PropOp46
 70
     1
102
RTVSPost2010Prop47
 90
       50
102
RTVSPost2010PropOp47
 70
     1
102
RTVSPost2010Prop48
 90
       50
102
RTVSPost2010PropOp48
 70
     1
102
RTVSPost2010Prop49
280
     0
102
RTVSPost2010PropOp49
 70
     1
102
RTVSPost2010Prop50
 90
       50
102
RTVSPost2010PropOp50
 70
     1
102
RTVSPost2010Prop51ColorIndex
 90
      256
102
RTVSPost2010Prop51ColorRGB
 90
-16777216
102
RTVSPost2010PropOp51
 70
     0
102
RTVSPost2010Prop52
140
1.0
102
RTVSPost2010PropOp52
 70
     0
102
RTVSPost2010Prop53
 90
        2
102
RTVSPost2010PropOp53
 70
     1
102
RTVSPost2010Prop54
  1
strokes_ogs.tif
102
RTVSPost2010PropOp54
 70
     1
102
RTVSPost2010Prop55
280
     0
102
RTVSPost2010PropOp55
 70
     1
102
RTVSPost2010Prop56
140
1.0
102
RTVSPost2010PropOp56
 70
     1
102
RTVSPost2010Prop57
140
1.0
102
RTVSPost2010PropOp57
 70
     1
  0
XRECORD
  5
211
102
{ACAD_REACTORS
330
210
102
}
330
210
100
AcDbXrecord
280
     1
102
RTVSPost2010Prop28
280
     0
102
RTVSPost2010PropOp28
 70
     1
102
RTVSPost2010Prop29
280
     1
102
RTVSPost2010PropOp29
 70
     1
102
RTVSPost2010Prop30
280
     1
102
RTVSPost2010PropOp30
 70
     1
102
RTVSPost2010Prop31
280
     0
102
RTVSPost2010PropOp31
 70
     1
102
RTVSPost2010Prop32
280
     0
102
RTVSPost2010PropOp32
 70
     1
102
RTVSPost2010Prop33
280
     0
102
RTVSPost2010PropOp33
 70
     1
102
RTVSPost2010Prop34
280
     0
102
RTVSPost2010PropOp34
 70
     1
102
RTVSPost2010Prop35
280
     0
102
RTVSPost2010PropOp35
 70
     1
102
RTVSPost2010Prop36
280
     0
102
RTVSPost2010PropOp36
 70
     1
102
RTVSPost2010Prop37
 90
       50
102
RTVSPost2010PropOp37
 70
     1
102
RTVSPost2010Prop38
140
0.0
102
RTVSPost2010PropOp38
 70
     1
102
RTVSPost2010Prop39
140
1.0
102
RTVSPost2010PropOp39
 70
     1
102
RTVSPost2010Prop40
 90
        0
102
RTVSPost2010PropOp40
 70
     1
102
RTVSPost2010Prop41ColorIndex
 90
       18
102
RTVSPost2010Prop41ColorRGB
 90
        0
102
RTVSPost2010PropOp41
 70
     1
102
RTVSPost2010Prop42
 90
       50
102
RTVSPost2010PropOp42
 70
     1
102
RTVSPost2010Prop43
 90
        3
102
RTVSPost2010PropOp43
 70
     1
102
RTVSPost2010Prop44ColorIndex
 90
        5
102
RTVSPost2010Prop44ColorRGB
 90
      255
102
RTVSPost2010PropOp44
 70
     1
102
RTVSPost2010Prop45
280
     0
102
RTVSPost2010PropOp45
 70
     1
102
RTVSPost2010Prop46
 90
       50
102
RTVSPost2010PropOp46
 70
     1
102
RTVSPost2010Prop47
 90
       50
102
RTVSPost2010PropOp47
 70
     1
102
RTVSPost2010Prop48
 90
       50
102
RTVSPost2010PropOp48
 70
     1
102
RTVSPost2010Prop49
280
     0
102
RTVSPost2010PropOp49
 70
     1
102
RTVSPost2010Prop50
 90
       50
102
RTVSPost2010PropOp50
 70
     1
102
RTVSPost2010Prop51ColorIndex
 90
      256
102
RTVSPost2010Prop51ColorRGB
 90
-16777216
102
RTVSPost2010PropOp51
 70
     0
102
RTVSPost2010Prop52
140
1.0
102
RTVSPost2010PropOp52
 70
     0
102
RTVSPost2010Prop53
 90
        2
102
RTVSPost2010PropOp53
 70
     1
102
RTVSPost2010Prop54
  1
strokes_ogs.tif
102
RTVSPost2010PropOp54
 70
     1
102
RTVSPost2010Prop55
280
     0
102
RTVSPost2010PropOp55
 70
     1
102
RTVSPost2010Prop56
140
1.0
102
RTVSPost2010PropOp56
 70
     1
102
RTVSPost2010Prop57
140
1.0
102
RTVSPost2010PropOp57
 70
     1
  0
XRECORD
  5
213
102
{ACAD_REACTORS
330
212
102
}
330
212
100
AcDbXrecord
280
     1
102
RTVSPost2010Prop28
280
     0
102
RTVSPost2010PropOp28
 70
     1
102
RTVSPost2010Prop29
280
     1
102
RTVSPost2010PropOp29
 70
     1
102
RTVSPost2010Prop30
280
     1
102
RTVSPost2010PropOp30
 70
     1
102
RTVSPost2010Prop31
280
     0
102
RTVSPost2010PropOp31
 70
     1
102
RTVSPost2010Prop32
280
     0
102
RTVSPost2010PropOp32
 70
     1
102
RTVSPost2010Prop33
280
     0
102
RTVSPost2010PropOp33
 70
     1
102
RTVSPost2010Prop34
280
     0
102
RTVSPost2010PropOp34
 70
     1
102
RTVSPost2010Prop35
280
     0
102
RTVSPost2010PropOp35
 70
     1
102
RTVSPost2010Prop36
280
     0
102
RTVSPost2010PropOp36
 70
     1
102
RTVSPost2010Prop37
 90
       50
102
RTVSPost2010PropOp37
 70
     1
102
RTVSPost2010Prop38
140
0.0
102
RTVSPost2010PropOp38
 70
     1
102
RTVSPost2010Prop39
140
1.0
102
RTVSPost2010PropOp39
 70
     1
102
RTVSPost2010Prop40
 90
        0
102
RTVSPost2010PropOp40
 70
     1
102
RTVSPost2010Prop41ColorIndex
 90
       18
102
RTVSPost2010Prop41ColorRGB
 90
        0
102
RTVSPost2010PropOp41
 70
     1
102
RTVSPost2010Prop42
 90
       50
102
RTVSPost2010PropOp42
 70
     1
102
RTVSPost2010Prop43
 90
        3
102
RTVSPost2010PropOp43
 70
     1
102
RTVSPost2010Prop44ColorIndex
 90
        5
102
RTVSPost2010Prop44ColorRGB
 90
      255
102
RTVSPost2010PropOp44
 70
     1
102
RTVSPost2010Prop45
280
     0
102
RTVSPost2010PropOp45
 70
     1
102
RTVSPost2010Prop46
 90
       50
102
RTVSPost2010PropOp46
 70
     1
102
RTVSPost2010Prop47
 90
       50
102
RTVSPost2010PropOp47
 70
     1
102
RTVSPost2010Prop48
 90
       50
102
RTVSPost2010PropOp48
 70
     1
102
RTVSPost2010Prop49
280
     0
102
RTVSPost2010PropOp49
 70
     1
102
RTVSPost2010Prop50
 90
       50
102
RTVSPost2010PropOp50
 70
     1
102
RTVSPost2010Prop51ColorIndex
 90
      256
102
RTVSPost2010Prop51ColorRGB
 90
-16777216
102
RTVSPost2010PropOp51
 70
     0
102
RTVSPost2010Prop52
140
1.0
102
RTVSPost2010PropOp52
 70
     0
102
RTVSPost2010Prop53
 90
        2
102
RTVSPost2010PropOp53
 70
     1
102
RTVSPost2010Prop54
  1
strokes_ogs.tif
102
RTVSPost2010PropOp54
 70
     1
102
RTVSPost2010Prop55
280
     0
102
RTVSPost2010PropOp55
 70
     1
102
RTVSPost2010Prop56
140
1.0
102
RTVSPost2010PropOp56
 70
     1
102
RTVSPost2010Prop57
140
1.0
102
RTVSPost2010PropOp57
 70
     1
  0
XRECORD
  5
219
102
{ACAD_REACTORS
330
218
102
}
330
218
100
AcDbXrecord
280
     1
102
RTVSPost2010Prop28
280
     0
102
RTVSPost2010PropOp28
 70
     1
102
RTVSPost2010Prop29
280
     1
102
RTVSPost2010PropOp29
 70
     1
102
RTVSPost2010Prop30
280
     1
102
RTVSPost2010PropOp30
 70
     1
102
RTVSPost2010Prop31
280
     0
102
RTVSPost2010PropOp31
 70
     1
102
RTVSPost2010Prop32
280
     0
102
RTVSPost2010PropOp32
 70
     1
102
RTVSPost2010Prop33
280
     0
102
RTVSPost2010PropOp33
 70
     1
102
RTVSPost2010Prop34
280
     0
102
RTVSPost2010PropOp34
 70
     1
102
RTVSPost2010Prop35
280
     0
102
RTVSPost2010PropOp35
 70
     1
102
RTVSPost2010Prop36
280
     0
102
RTVSPost2010PropOp36
 70
     1
102
RTVSPost2010Prop37
 90
       50
102
RTVSPost2010PropOp37
 70
     1
102
RTVSPost2010Prop38
140
0.0
102
RTVSPost2010PropOp38
 70
     1
102
RTVSPost2010Prop39
140
1.0
102
RTVSPost2010PropOp39
 70
     1
102
RTVSPost2010Prop40
 90
        0
102
RTVSPost2010PropOp40
 70
     1
102
RTVSPost2010Prop41ColorIndex
 90
       18
102
RTVSPost2010Prop41ColorRGB
 90
        0
102
RTVSPost2010PropOp41
 70
     1
102
RTVSPost2010Prop42
 90
       50
102
RTVSPost2010PropOp42
 70
     1
102
RTVSPost2010Prop43
 90
        3
102
RTVSPost2010PropOp43
 70
     1
102
RTVSPost2010Prop44ColorIndex
 90
        5
102
RTVSPost2010Prop44ColorRGB
 90
      255
102
RTVSPost2010PropOp44
 70
     1
102
RTVSPost2010Prop45
280
     0
102
RTVSPost2010PropOp45
 70
     1
102
RTVSPost2010Prop46
 90
       50
102
RTVSPost2010PropOp46
 70
     1
102
RTVSPost2010Prop47
 90
       50
102
RTVSPost2010PropOp47
 70
     1
102
RTVSPost2010Prop48
 90
       50
102
RTVSPost2010PropOp48
 70
     1
102
RTVSPost2010Prop49
280
     0
102
RTVSPost2010PropOp49
 70
     1
102
RTVSPost2010Prop50
 90
       50
102
RTVSPost2010PropOp50
 70
     1
102
RTVSPost2010Prop51ColorIndex
 90
      256
102
RTVSPost2010Prop51ColorRGB
 90
-16777216
102
RTVSPost2010PropOp51
 70
     0
102
RTVSPost2010Prop52
140
1.0
102
RTVSPost2010PropOp52
 70
     0
102
RTVSPost2010Prop53
 90
        2
102
RTVSPost2010PropOp53
 70
     1
102
RTVSPost2010Prop54
  1
strokes_ogs.tif
102
RTVSPost2010PropOp54
 70
     1
102
RTVSPost2010Prop55
280
     0
102
RTVSPost2010PropOp55
 70
     1
102
RTVSPost2010Prop56
140
1.0
102
RTVSPost2010PropOp56
 70
     1
102
RTVSPost2010Prop57
140
1.0
102
RTVSPost2010PropOp57
 70
     1
  0
XRECORD
  5
22D
102
{ACAD_REACTORS
330
22C
102
}
330
22C
100
AcDbXrecord
280
     1
102
RTVSPost2010Prop28
280
     0
102
RTVSPost2010PropOp28
 70
     0
102
RTVSPost2010Prop29
280
     1
102
RTVSPost2010PropOp29
 70
     0
102
RTVSPost2010Prop30
280
     1
102
RTVSPost2010PropOp30
 70
     0
102
RTVSPost2010Prop31
280
     0
102
RTVSPost2010PropOp31
 70
     0
102
RTVSPost2010Prop32
280
     0
102
RTVSPost2010PropOp32
 70
     0
102
RTVSPost2010Prop33
280
     0
102
RTVSPost2010PropOp33
 70
     0
102
RTVSPost2010Prop34
280
     0
102
RTVSPost2010PropOp34
 70
     0
102
RTVSPost2010Prop35
280
     0
102
RTVSPost2010PropOp35
 70
     0
102
RTVSPost2010Prop36
280
     0
102
RTVSPost2010PropOp36
 70
     0
102
RTVSPost2010Prop37
 90
       50
102
RTVSPost2010PropOp37
 70
     0
102
RTVSPost2010Prop38
140
0.0
102
RTVSPost2010PropOp38
 70
     0
102
RTVSPost2010Prop39
140
1.0
102
RTVSPost2010PropOp39
 70
     0
102
RTVSPost2010Prop40
 90
        0
102
RTVSPost2010PropOp40
 70
     0
102
RTVSPost2010Prop41ColorIndex
 90
       18
102
RTVSPost2010Prop41ColorRGB
 90
        0
102
RTVSPost2010PropOp41
 70
     0
102
RTVSPost2010Prop42
 90
       50
102
RTVSPost2010PropOp42
 70
     0
102
RTVSPost2010Prop43
 90
        3
102
RTVSPost2010PropOp43
 70
     0
102
RTVSPost2010Prop44ColorIndex
 90
        5
102
RTVSPost2010Prop44ColorRGB
 90
      255
102
RTVSPost2010PropOp44
 70
     0
102
RTVSPost2010Prop45
280
     0
102
RTVSPost2010PropOp45
 70
     0
102
RTVSPost2010Prop46
 90
       50
102
RTVSPost2010PropOp46
 70
     0
102
RTVSPost2010Prop47
 90
       50
102
RTVSPost2010PropOp47
 70
     0
102
RTVSPost2010Prop48
 90
       50
102
RTVSPost2010PropOp48
 70
     0
102
RTVSPost2010Prop49
280
     0
102
RTVSPost2010PropOp49
 70
     0
102
RTVSPost2010Prop50
 90
       50
102
RTVSPost2010PropOp50
 70
     0
102
RTVSPost2010Prop51ColorIndex
 90
      256
102
RTVSPost2010Prop51ColorRGB
 90
-16777216
102
RTVSPost2010PropOp51
 70
     0
102
RTVSPost2010Prop52
140
1.0
102
RTVSPost2010PropOp52
 70
     0
102
RTVSPost2010Prop53
 90
        2
102
RTVSPost2010PropOp53
 70
     0
102
RTVSPost2010Prop54
  1
strokes_ogs.tif
102
RTVSPost2010PropOp54
 70
     0
102
RTVSPost2010Prop55
280
     0
102
RTVSPost2010PropOp55
 70
     0
102
RTVSPost2010Prop56
140
1.0
102
RTVSPost2010PropOp56
 70
     0
102
RTVSPost2010Prop57
140
1.0
102
RTVSPost2010PropOp57
 70
     0
  0
XRECORD
  5
227
102
{ACAD_REACTORS
330
226
102
}
330
226
100
AcDbXrecord
280
     1
102
RTVSPost2010Prop28
280
     0
102
RTVSPost2010PropOp28
 70
     1
102
RTVSPost2010Prop29
280
     1
102
RTVSPost2010PropOp29
 70
     1
102
RTVSPost2010Prop30
280
     1
102
RTVSPost2010PropOp30
 70
     1
102
RTVSPost2010Prop31
280
     0
102
RTVSPost2010PropOp31
 70
     1
102
RTVSPost2010Prop32
280
     0
102
RTVSPost2010PropOp32
 70
     1
102
RTVSPost2010Prop33
280
     0
102
RTVSPost2010PropOp33
 70
     1
102
RTVSPost2010Prop34
280
     0
102
RTVSPost2010PropOp34
 70
     1
102
RTVSPost2010Prop35
280
     0
102
RTVSPost2010PropOp35
 70
     1
102
RTVSPost2010Prop36
280
     0
102
RTVSPost2010PropOp36
 70
     1
102
RTVSPost2010Prop37
 90
       50
102
RTVSPost2010PropOp37
 70
     1
102
RTVSPost2010Prop38
140
0.0
102
RTVSPost2010PropOp38
 70
     1
102
RTVSPost2010Prop39
140
1.0
102
RTVSPost2010PropOp39
 70
     1
102
RTVSPost2010Prop40
 90
        0
102
RTVSPost2010PropOp40
 70
     1
102
RTVSPost2010Prop41ColorIndex
 90
       18
102
RTVSPost2010Prop41ColorRGB
 90
        0
102
RTVSPost2010PropOp41
 70
     1
102
RTVSPost2010Prop42
 90
       50
102
RTVSPost2010PropOp42
 70
     1
102
RTVSPost2010Prop43
 90
        3
102
RTVSPost2010PropOp43
 70
     1
102
RTVSPost2010Prop44ColorIndex
 90
        5
102
RTVSPost2010Prop44ColorRGB
 90
      255
102
RTVSPost2010PropOp44
 70
     1
102
RTVSPost2010Prop45
280
     0
102
RTVSPost2010PropOp45
 70
     1
102
RTVSPost2010Prop46
 90
       50
102
RTVSPost2010PropOp46
 70
     1
102
RTVSPost2010Prop47
 90
       50
102
RTVSPost2010PropOp47
 70
     1
102
RTVSPost2010Prop48
 90
       50
102
RTVSPost2010PropOp48
 70
     1
102
RTVSPost2010Prop49
280
     0
102
RTVSPost2010PropOp49
 70
     1
102
RTVSPost2010Prop50
 90
       50
102
RTVSPost2010PropOp50
 70
     1
102
RTVSPost2010Prop51ColorIndex
 90
      256
102
RTVSPost2010Prop51ColorRGB
 90
-16777216
102
RTVSPost2010PropOp51
 70
     0
102
RTVSPost2010Prop52
140
1.0
102
RTVSPost2010PropOp52
 70
     0
102
RTVSPost2010Prop53
 90
        2
102
RTVSPost2010PropOp53
 70
     1
102
RTVSPost2010Prop54
  1
strokes_ogs.tif
102
RTVSPost2010PropOp54
 70
     1
102
RTVSPost2010Prop55
280
     0
102
RTVSPost2010PropOp55
 70
     1
102
RTVSPost2010Prop56
140
1.0
102
RTVSPost2010PropOp56
 70
     1
102
RTVSPost2010Prop57
140
1.0
102
RTVSPost2010PropOp57
 70
     1
  0
XRECORD
  5
22F
102
{ACAD_REACTORS
330
22E
102
}
330
22E
100
AcDbXrecord
280
     1
102
RTVSPost2010Prop28
280
     0
102
RTVSPost2010PropOp28
 70
     0
102
RTVSPost2010Prop29
280
     1
102
RTVSPost2010PropOp29
 70
     0
102
RTVSPost2010Prop30
280
     1
102
RTVSPost2010PropOp30
 70
     0
102
RTVSPost2010Prop31
280
     0
102
RTVSPost2010PropOp31
 70
     0
102
RTVSPost2010Prop32
280
     0
102
RTVSPost2010PropOp32
 70
     0
102
RTVSPost2010Prop33
280
     0
102
RTVSPost2010PropOp33
 70
     0
102
RTVSPost2010Prop34
280
     0
102
RTVSPost2010PropOp34
 70
     0
102
RTVSPost2010Prop35
280
     0
102
RTVSPost2010PropOp35
 70
     0
102
RTVSPost2010Prop36
280
     0
102
RTVSPost2010PropOp36
 70
     0
102
RTVSPost2010Prop37
 90
       50
102
RTVSPost2010PropOp37
 70
     0
102
RTVSPost2010Prop38
140
0.0
102
RTVSPost2010PropOp38
 70
     0
102
RTVSPost2010Prop39
140
1.0
102
RTVSPost2010PropOp39
 70
     0
102
RTVSPost2010Prop40
 90
        0
102
RTVSPost2010PropOp40
 70
     0
102
RTVSPost2010Prop41ColorIndex
 90
       18
102
RTVSPost2010Prop41ColorRGB
 90
        0
102
RTVSPost2010PropOp41
 70
     0
102
RTVSPost2010Prop42
 90
       50
102
RTVSPost2010PropOp42
 70
     0
102
RTVSPost2010Prop43
 90
        3
102
RTVSPost2010PropOp43
 70
     0
102
RTVSPost2010Prop44ColorIndex
 90
        5
102
RTVSPost2010Prop44ColorRGB
 90
      255
102
RTVSPost2010PropOp44
 70
     0
102
RTVSPost2010Prop45
280
     0
102
RTVSPost2010PropOp45
 70
     0
102
RTVSPost2010Prop46
 90
       50
102
RTVSPost2010PropOp46
 70
     0
102
RTVSPost2010Prop47
 90
       50
102
RTVSPost2010PropOp47
 70
     0
102
RTVSPost2010Prop48
 90
       50
102
RTVSPost2010PropOp48
 70
     0
102
RTVSPost2010Prop49
280
     0
102
RTVSPost2010PropOp49
 70
     0
102
RTVSPost2010Prop50
 90
       50
102
RTVSPost2010PropOp50
 70
     0
102
RTVSPost2010Prop51ColorIndex
 90
      256
102
RTVSPost2010Prop51ColorRGB
 90
-16777216
102
RTVSPost2010PropOp51
 70
     0
102
RTVSPost2010Prop52
140
1.0
102
RTVSPost2010PropOp52
 70
     0
102
RTVSPost2010Prop53
 90
        2
102
RTVSPost2010PropOp53
 70
     0
102
RTVSPost2010Prop54
  1
strokes_ogs.tif
102
RTVSPost2010PropOp54
 70
     0
102
RTVSPost2010Prop55
280
     0
102
RTVSPost2010PropOp55
 70
     0
102
RTVSPost2010Prop56
140
1.0
102
RTVSPost2010PropOp56
 70
     0
102
RTVSPost2010Prop57
140
1.0
102
RTVSPost2010PropOp57
 70
     0
  0
XRECORD
  5
21D
102
{ACAD_REACTORS
330
21C
102
}
330
21C
100
AcDbXrecord
280
     1
102
RTVSPost2010Prop28
280
     0
102
RTVSPost2010PropOp28
 70
     1
102
RTVSPost2010Prop29
280
     1
102
RTVSPost2010PropOp29
 70
     1
102
RTVSPost2010Prop30
280
     1
102
RTVSPost2010PropOp30
 70
     1
102
RTVSPost2010Prop31
280
     0
102
RTVSPost2010PropOp31
 70
     1
102
RTVSPost2010Prop32
280
     0
102
RTVSPost2010PropOp32
 70
     1
102
RTVSPost2010Prop33
280
     0
102
RTVSPost2010PropOp33
 70
     1
102
RTVSPost2010Prop34
280
     0
102
RTVSPost2010PropOp34
 70
     1
102
RTVSPost2010Prop35
280
     0
102
RTVSPost2010PropOp35
 70
     1
102
RTVSPost2010Prop36
280
     0
102
RTVSPost2010PropOp36
 70
     1
102
RTVSPost2010Prop37
 90
       50
102
RTVSPost2010PropOp37
 70
     1
102
RTVSPost2010Prop38
140
0.0
102
RTVSPost2010PropOp38
 70
     1
102
RTVSPost2010Prop39
140
1.0
102
RTVSPost2010PropOp39
 70
     1
102
RTVSPost2010Prop40
 90
        0
102
RTVSPost2010PropOp40
 70
     1
102
RTVSPost2010Prop41ColorIndex
 90
       18
102
RTVSPost2010Prop41ColorRGB
 90
        0
102
RTVSPost2010PropOp41
 70
     1
102
RTVSPost2010Prop42
 90
       50
102
RTVSPost2010PropOp42
 70
     1
102
RTVSPost2010Prop43
 90
        3
102
RTVSPost2010PropOp43
 70
     1
102
RTVSPost2010Prop44ColorIndex
 90
        5
102
RTVSPost2010Prop44ColorRGB
 90
      255
102
RTVSPost2010PropOp44
 70
     1
102
RTVSPost2010Prop45
280
     0
102
RTVSPost2010PropOp45
 70
     1
102
RTVSPost2010Prop46
 90
       50
102
RTVSPost2010PropOp46
 70
     1
102
RTVSPost2010Prop47
 90
       50
102
RTVSPost2010PropOp47
 70
     1
102
RTVSPost2010Prop48
 90
       50
102
RTVSPost2010PropOp48
 70
     1
102
RTVSPost2010Prop49
280
     0
102
RTVSPost2010PropOp49
 70
     1
102
RTVSPost2010Prop50
 90
       50
102
RTVSPost2010PropOp50
 70
     1
102
RTVSPost2010Prop51ColorIndex
 90
      256
102
RTVSPost2010Prop51ColorRGB
 90
-16777216
102
RTVSPost2010PropOp51
 70
     0
102
RTVSPost2010Prop52
140
1.0
102
RTVSPost2010PropOp52
 70
     0
102
RTVSPost2010Prop53
 90
        2
102
RTVSPost2010PropOp53
 70
     1
102
RTVSPost2010Prop54
  1
strokes_ogs.tif
102
RTVSPost2010PropOp54
 70
     1
102
RTVSPost2010Prop55
280
     0
102
RTVSPost2010PropOp55
 70
     1
102
RTVSPost2010Prop56
140
1.0
102
RTVSPost2010PropOp56
 70
     1
102
RTVSPost2010Prop57
140
1.0
102
RTVSPost2010PropOp57
 70
     1
  0
XRECORD
  5
23B
102
{ACAD_REACTORS
330
23A
102
}
330
23A
100
AcDbXrecord
280
     1
102
RTVSPost2010Prop28
280
     0
102
RTVSPost2010PropOp28
 70
     1
102
RTVSPost2010Prop29
280
     1
102
RTVSPost2010PropOp29
 70
     1
102
RTVSPost2010Prop30
280
     1
102
RTVSPost2010PropOp30
 70
     1
102
RTVSPost2010Prop31
280
     0
102
RTVSPost2010PropOp31
 70
     1
102
RTVSPost2010Prop32
280
     0
102
RTVSPost2010PropOp32
 70
     1
102
RTVSPost2010Prop33
280
     0
102
RTVSPost2010PropOp33
 70
     1
102
RTVSPost2010Prop34
280
     0
102
RTVSPost2010PropOp34
 70
     1
102
RTVSPost2010Prop35
280
     0
102
RTVSPost2010PropOp35
 70
     1
102
RTVSPost2010Prop36
280
     0
102
RTVSPost2010PropOp36
 70
     1
102
RTVSPost2010Prop37
 90
       50
102
RTVSPost2010PropOp37
 70
     1
102
RTVSPost2010Prop38
140
0.0
102
RTVSPost2010PropOp38
 70
     1
102
RTVSPost2010Prop39
140
1.0
102
RTVSPost2010PropOp39
 70
     1
102
RTVSPost2010Prop40
 90
        0
102
RTVSPost2010PropOp40
 70
     1
102
RTVSPost2010Prop41ColorIndex
 90
       18
102
RTVSPost2010Prop41ColorRGB
 90
        0
102
RTVSPost2010PropOp41
 70
     1
102
RTVSPost2010Prop42
 90
       50
102
RTVSPost2010PropOp42
 70
     1
102
RTVSPost2010Prop43
 90
        3
102
RTVSPost2010PropOp43
 70
     1
102
RTVSPost2010Prop44ColorIndex
 90
        5
102
RTVSPost2010Prop44ColorRGB
 90
      255
102
RTVSPost2010PropOp44
 70
     1
102
RTVSPost2010Prop45
280
     0
102
RTVSPost2010PropOp45
 70
     1
102
RTVSPost2010Prop46
 90
       50
102
RTVSPost2010PropOp46
 70
     1
102
RTVSPost2010Prop47
 90
       50
102
RTVSPost2010PropOp47
 70
     1
102
RTVSPost2010Prop48
 90
       50
102
RTVSPost2010PropOp48
 70
     1
102
RTVSPost2010Prop49
280
     0
102
RTVSPost2010PropOp49
 70
     1
102
RTVSPost2010Prop50
 90
       50
102
RTVSPost2010PropOp50
 70
     1
102
RTVSPost2010Prop51ColorIndex
 90
      256
102
RTVSPost2010Prop51ColorRGB
 90
-16777216
102
RTVSPost2010PropOp51
 70
     0
102
RTVSPost2010Prop52
140
1.0
102
RTVSPost2010PropOp52
 70
     0
102
RTVSPost2010Prop53
 90
        2
102
RTVSPost2010PropOp53
 70
     1
102
RTVSPost2010Prop54
  1
strokes_ogs.tif
102
RTVSPost2010PropOp54
 70
     1
102
RTVSPost2010Prop55
280
     0
102
RTVSPost2010PropOp55
 70
     1
102
RTVSPost2010Prop56
140
1.0
102
RTVSPost2010PropOp56
 70
     1
102
RTVSPost2010Prop57
140
1.0
102
RTVSPost2010PropOp57
 70
     1
  0
XRECORD
  5
239
102
{ACAD_REACTORS
330
238
102
}
330
238
100
AcDbXrecord
280
     1
102
RTVSPost2010Prop28
280
     0
102
RTVSPost2010PropOp28
 70
     1
102
RTVSPost2010Prop29
280
     1
102
RTVSPost2010PropOp29
 70
     1
102
RTVSPost2010Prop30
280
     1
102
RTVSPost2010PropOp30
 70
     1
102
RTVSPost2010Prop31
280
     0
102
RTVSPost2010PropOp31
 70
     1
102
RTVSPost2010Prop32
280
     0
102
RTVSPost2010PropOp32
 70
     1
102
RTVSPost2010Prop33
280
     0
102
RTVSPost2010PropOp33
 70
     1
102
RTVSPost2010Prop34
280
     0
102
RTVSPost2010PropOp34
 70
     1
102
RTVSPost2010Prop35
280
     0
102
RTVSPost2010PropOp35
 70
     1
102
RTVSPost2010Prop36
280
     0
102
RTVSPost2010PropOp36
 70
     1
102
RTVSPost2010Prop37
 90
       50
102
RTVSPost2010PropOp37
 70
     1
102
RTVSPost2010Prop38
140
0.0
102
RTVSPost2010PropOp38
 70
     1
102
RTVSPost2010Prop39
140
1.0
102
RTVSPost2010PropOp39
 70
     1
102
RTVSPost2010Prop40
 90
        0
102
RTVSPost2010PropOp40
 70
     1
102
RTVSPost2010Prop41ColorIndex
 90
       18
102
RTVSPost2010Prop41ColorRGB
 90
        0
102
RTVSPost2010PropOp41
 70
     1
102
RTVSPost2010Prop42
 90
       50
102
RTVSPost2010PropOp42
 70
     1
102
RTVSPost2010Prop43
 90
        3
102
RTVSPost2010PropOp43
 70
     1
102
RTVSPost2010Prop44ColorIndex
 90
        5
102
RTVSPost2010Prop44ColorRGB
 90
      255
102
RTVSPost2010PropOp44
 70
     1
102
RTVSPost2010Prop45
280
     0
102
RTVSPost2010PropOp45
 70
     1
102
RTVSPost2010Prop46
 90
       50
102
RTVSPost2010PropOp46
 70
     1
102
RTVSPost2010Prop47
 90
       50
102
RTVSPost2010PropOp47
 70
     1
102
RTVSPost2010Prop48
 90
       50
102
RTVSPost2010PropOp48
 70
     1
102
RTVSPost2010Prop49
280
     0
102
RTVSPost2010PropOp49
 70
     1
102
RTVSPost2010Prop50
 90
       50
102
RTVSPost2010PropOp50
 70
     1
102
RTVSPost2010Prop51ColorIndex
 90
      256
102
RTVSPost2010Prop51ColorRGB
 90
-16777216
102
RTVSPost2010PropOp51
 70
     0
102
RTVSPost2010Prop52
140
1.0
102
RTVSPost2010PropOp52
 70
     0
102
RTVSPost2010Prop53
 90
        2
102
RTVSPost2010PropOp53
 70
     1
102
RTVSPost2010Prop54
  1
strokes_ogs.tif
102
RTVSPost2010PropOp54
 70
     1
102
RTVSPost2010Prop55
280
     0
102
RTVSPost2010PropOp55
 70
     1
102
RTVSPost2010Prop56
140
1.0
102
RTVSPost2010PropOp56
 70
     1
102
RTVSPost2010Prop57
140
1.0
102
RTVSPost2010PropOp57
 70
     1
  0
XRECORD
  5
233
102
{ACAD_REACTORS
330
232
102
}
330
232
100
AcDbXrecord
280
     1
102
RTVSPost2010Prop28
280
     0
102
RTVSPost2010PropOp28
 70
     1
102
RTVSPost2010Prop29
280
     1
102
RTVSPost2010PropOp29
 70
     1
102
RTVSPost2010Prop30
280
     1
102
RTVSPost2010PropOp30
 70
     1
102
RTVSPost2010Prop31
280
     0
102
RTVSPost2010PropOp31
 70
     1
102
RTVSPost2010Prop32
280
     0
102
RTVSPost2010PropOp32
 70
     1
102
RTVSPost2010Prop33
280
     0
102
RTVSPost2010PropOp33
 70
     1
102
RTVSPost2010Prop34
280
     0
102
RTVSPost2010PropOp34
 70
     1
102
RTVSPost2010Prop35
280
     0
102
RTVSPost2010PropOp35
 70
     1
102
RTVSPost2010Prop36
280
     0
102
RTVSPost2010PropOp36
 70
     1
102
RTVSPost2010Prop37
 90
       50
102
RTVSPost2010PropOp37
 70
     1
102
RTVSPost2010Prop38
140
0.0
102
RTVSPost2010PropOp38
 70
     1
102
RTVSPost2010Prop39
140
1.0
102
RTVSPost2010PropOp39
 70
     1
102
RTVSPost2010Prop40
 90
        0
102
RTVSPost2010PropOp40
 70
     1
102
RTVSPost2010Prop41ColorIndex
 90
       18
102
RTVSPost2010Prop41ColorRGB
 90
        0
102
RTVSPost2010PropOp41
 70
     1
102
RTVSPost2010Prop42
 90
       50
102
RTVSPost2010PropOp42
 70
     1
102
RTVSPost2010Prop43
 90
        3
102
RTVSPost2010PropOp43
 70
     1
102
RTVSPost2010Prop44ColorIndex
 90
        5
102
RTVSPost2010Prop44ColorRGB
 90
      255
102
RTVSPost2010PropOp44
 70
     1
102
RTVSPost2010Prop45
280
     0
102
RTVSPost2010PropOp45
 70
     1
102
RTVSPost2010Prop46
 90
       50
102
RTVSPost2010PropOp46
 70
     1
102
RTVSPost2010Prop47
 90
       50
102
RTVSPost2010PropOp47
 70
     1
102
RTVSPost2010Prop48
 90
       50
102
RTVSPost2010PropOp48
 70
     1
102
RTVSPost2010Prop49
280
     0
102
RTVSPost2010PropOp49
 70
     1
102
RTVSPost2010Prop50
 90
       50
102
RTVSPost2010PropOp50
 70
     1
102
RTVSPost2010Prop51ColorIndex
 90
      256
102
RTVSPost2010Prop51ColorRGB
 90
-16777216
102
RTVSPost2010PropOp51
 70
     0
102
RTVSPost2010Prop52
140
1.0
102
RTVSPost2010PropOp52
 70
     0
102
RTVSPost2010Prop53
 90
        2
102
RTVSPost2010PropOp53
 70
     1
102
RTVSPost2010Prop54
  1
strokes_ogs.tif
102
RTVSPost2010PropOp54
 70
     1
102
RTVSPost2010Prop55
280
     0
102
RTVSPost2010PropOp55
 70
     1
102
RTVSPost2010Prop56
140
1.0
102
RTVSPost2010PropOp56
 70
     1
102
RTVSPost2010Prop57
140
1.0
102
RTVSPost2010PropOp57
 70
     1
  0
XRECORD
  5
235
102
{ACAD_REACTORS
330
234
102
}
330
234
100
AcDbXrecord
280
     1
102
RTVSPost2010Prop28
280
     0
102
RTVSPost2010PropOp28
 70
     1
102
RTVSPost2010Prop29
280
     1
102
RTVSPost2010PropOp29
 70
     1
102
RTVSPost2010Prop30
280
     1
102
RTVSPost2010PropOp30
 70
     1
102
RTVSPost2010Prop31
280
     0
102
RTVSPost2010PropOp31
 70
     1
102
RTVSPost2010Prop32
280
     0
102
RTVSPost2010PropOp32
 70
     1
102
RTVSPost2010Prop33
280
     0
102
RTVSPost2010PropOp33
 70
     1
102
RTVSPost2010Prop34
280
     0
102
RTVSPost2010PropOp34
 70
     1
102
RTVSPost2010Prop35
280
     0
102
RTVSPost2010PropOp35
 70
     1
102
RTVSPost2010Prop36
280
     0
102
RTVSPost2010PropOp36
 70
     1
102
RTVSPost2010Prop37
 90
       50
102
RTVSPost2010PropOp37
 70
     1
102
RTVSPost2010Prop38
140
0.0
102
RTVSPost2010PropOp38
 70
     1
102
RTVSPost2010Prop39
140
1.0
102
RTVSPost2010PropOp39
 70
     1
102
RTVSPost2010Prop40
 90
        0
102
RTVSPost2010PropOp40
 70
     1
102
RTVSPost2010Prop41ColorIndex
 90
       18
102
RTVSPost2010Prop41ColorRGB
 90
        0
102
RTVSPost2010PropOp41
 70
     1
102
RTVSPost2010Prop42
 90
       50
102
RTVSPost2010PropOp42
 70
     1
102
RTVSPost2010Prop43
 90
        3
102
RTVSPost2010PropOp43
 70
     1
102
RTVSPost2010Prop44ColorIndex
 90
        5
102
RTVSPost2010Prop44ColorRGB
 90
      255
102
RTVSPost2010PropOp44
 70
     1
102
RTVSPost2010Prop45
280
     0
102
RTVSPost2010PropOp45
 70
     1
102
RTVSPost2010Prop46
 90
       50
102
RTVSPost2010PropOp46
 70
     1
102
RTVSPost2010Prop47
 90
       50
102
RTVSPost2010PropOp47
 70
     1
102
RTVSPost2010Prop48
 90
       50
102
RTVSPost2010PropOp48
 70
     1
102
RTVSPost2010Prop49
280
     0
102
RTVSPost2010PropOp49
 70
     1
102
RTVSPost2010Prop50
 90
       50
102
RTVSPost2010PropOp50
 70
     1
102
RTVSPost2010Prop51ColorIndex
 90
      256
102
RTVSPost2010Prop51ColorRGB
 90
-16777216
102
RTVSPost2010PropOp51
 70
     0
102
RTVSPost2010Prop52
140
1.0
102
RTVSPost2010PropOp52
 70
     0
102
RTVSPost2010Prop53
 90
        2
102
RTVSPost2010PropOp53
 70
     1
102
RTVSPost2010Prop54
  1
strokes_ogs.tif
102
RTVSPost2010PropOp54
 70
     1
102
RTVSPost2010Prop55
280
     0
102
RTVSPost2010PropOp55
 70
     1
102
RTVSPost2010Prop56
140
1.0
102
RTVSPost2010PropOp56
 70
     1
102
RTVSPost2010Prop57
140
1.0
102
RTVSPost2010PropOp57
 70
     1
  0
XRECORD
  5
225
102
{ACAD_REACTORS
330
224
102
}
330
224
100
AcDbXrecord
280
     1
102
RTVSPost2010Prop28
280
     0
102
RTVSPost2010PropOp28
 70
     1
102
RTVSPost2010Prop29
280
     1
102
RTVSPost2010PropOp29
 70
     1
102
RTVSPost2010Prop30
280
     1
102
RTVSPost2010PropOp30
 70
     1
102
RTVSPost2010Prop31
280
     0
102
RTVSPost2010PropOp31
 70
     1
102
RTVSPost2010Prop32
280
     0
102
RTVSPost2010PropOp32
 70
     1
102
RTVSPost2010Prop33
280
     0
102
RTVSPost2010PropOp33
 70
     1
102
RTVSPost2010Prop34
280
     0
102
RTVSPost2010PropOp34
 70
     1
102
RTVSPost2010Prop35
280
     0
102
RTVSPost2010PropOp35
 70
     1
102
RTVSPost2010Prop36
280
     0
102
RTVSPost2010PropOp36
 70
     1
102
RTVSPost2010Prop37
 90
       50
102
RTVSPost2010PropOp37
 70
     1
102
RTVSPost2010Prop38
140
0.0
102
RTVSPost2010PropOp38
 70
     1
102
RTVSPost2010Prop39
140
1.0
102
RTVSPost2010PropOp39
 70
     1
102
RTVSPost2010Prop40
 90
        0
102
RTVSPost2010PropOp40
 70
     1
102
RTVSPost2010Prop41ColorIndex
 90
       18
102
RTVSPost2010Prop41ColorRGB
 90
        0
102
RTVSPost2010PropOp41
 70
     1
102
RTVSPost2010Prop42
 90
       50
102
RTVSPost2010PropOp42
 70
     1
102
RTVSPost2010Prop43
 90
        3
102
RTVSPost2010PropOp43
 70
     1
102
RTVSPost2010Prop44ColorIndex
 90
        5
102
RTVSPost2010Prop44ColorRGB
 90
      255
102
RTVSPost2010PropOp44
 70
     1
102
RTVSPost2010Prop45
280
     0
102
RTVSPost2010PropOp45
 70
     1
102
RTVSPost2010Prop46
 90
       50
102
RTVSPost2010PropOp46
 70
     1
102
RTVSPost2010Prop47
 90
       50
102
RTVSPost2010PropOp47
 70
     1
102
RTVSPost2010Prop48
 90
       50
102
RTVSPost2010PropOp48
 70
     1
102
RTVSPost2010Prop49
280
     0
102
RTVSPost2010PropOp49
 70
     1
102
RTVSPost2010Prop50
 90
       50
102
RTVSPost2010PropOp50
 70
     1
102
RTVSPost2010Prop51ColorIndex
 90
      256
102
RTVSPost2010Prop51ColorRGB
 90
-16777216
102
RTVSPost2010PropOp51
 70
     0
102
RTVSPost2010Prop52
140
1.0
102
RTVSPost2010PropOp52
 70
     0
102
RTVSPost2010Prop53
 90
        2
102
RTVSPost2010PropOp53
 70
     1
102
RTVSPost2010Prop54
  1
strokes_ogs.tif
102
RTVSPost2010PropOp54
 70
     1
102
RTVSPost2010Prop55
280
     0
102
RTVSPost2010PropOp55
 70
     1
102
RTVSPost2010Prop56
140
1.0
102
RTVSPost2010PropOp56
 70
     1
102
RTVSPost2010Prop57
140
1.0
102
RTVSPost2010PropOp57
 70
     1
  0
XRECORD
  5
217
102
{ACAD_REACTORS
330
216
102
}
330
216
100
AcDbXrecord
280
     1
102
RTVSPost2010Prop28
280
     0
102
RTVSPost2010PropOp28
 70
     1
102
RTVSPost2010Prop29
280
     1
102
RTVSPost2010PropOp29
 70
     1
102
RTVSPost2010Prop30
280
     1
102
RTVSPost2010PropOp30
 70
     1
102
RTVSPost2010Prop31
280
     0
102
RTVSPost2010PropOp31
 70
     1
102
RTVSPost2010Prop32
280
     0
102
RTVSPost2010PropOp32
 70
     1
102
RTVSPost2010Prop33
280
     0
102
RTVSPost2010PropOp33
 70
     1
102
RTVSPost2010Prop34
280
     0
102
RTVSPost2010PropOp34
 70
     1
102
RTVSPost2010Prop35
280
     0
102
RTVSPost2010PropOp35
 70
     1
102
RTVSPost2010Prop36
280
     0
102
RTVSPost2010PropOp36
 70
     1
102
RTVSPost2010Prop37
 90
       50
102
RTVSPost2010PropOp37
 70
     1
102
RTVSPost2010Prop38
140
0.0
102
RTVSPost2010PropOp38
 70
     1
102
RTVSPost2010Prop39
140
1.0
102
RTVSPost2010PropOp39
 70
     1
102
RTVSPost2010Prop40
 90
        0
102
RTVSPost2010PropOp40
 70
     1
102
RTVSPost2010Prop41ColorIndex
 90
       18
102
RTVSPost2010Prop41ColorRGB
 90
        0
102
RTVSPost2010PropOp41
 70
     1
102
RTVSPost2010Prop42
 90
       50
102
RTVSPost2010PropOp42
 70
     1
102
RTVSPost2010Prop43
 90
        3
102
RTVSPost2010PropOp43
 70
     1
102
RTVSPost2010Prop44ColorIndex
 90
        5
102
RTVSPost2010Prop44ColorRGB
 90
      255
102
RTVSPost2010PropOp44
 70
     1
102
RTVSPost2010Prop45
280
     0
102
RTVSPost2010PropOp45
 70
     1
102
RTVSPost2010Prop46
 90
       50
102
RTVSPost2010PropOp46
 70
     1
102
RTVSPost2010Prop47
 90
       50
102
RTVSPost2010PropOp47
 70
     1
102
RTVSPost2010Prop48
 90
       50
102
RTVSPost2010PropOp48
 70
     1
102
RTVSPost2010Prop49
280
     0
102
RTVSPost2010PropOp49
 70
     1
102
RTVSPost2010Prop50
 90
       50
102
RTVSPost2010PropOp50
 70
     1
102
RTVSPost2010Prop51ColorIndex
 90
      256
102
RTVSPost2010Prop51ColorRGB
 90
-16777216
102
RTVSPost2010PropOp51
 70
     0
102
RTVSPost2010Prop52
140
1.0
102
RTVSPost2010PropOp52
 70
     0
102
RTVSPost2010Prop53
 90
        2
102
RTVSPost2010PropOp53
 70
     1
102
RTVSPost2010Prop54
  1
strokes_ogs.tif
102
RTVSPost2010PropOp54
 70
     1
102
RTVSPost2010Prop55
280
     0
102
RTVSPost2010PropOp55
 70
     1
102
RTVSPost2010Prop56
140
1.0
102
RTVSPost2010PropOp56
 70
     1
102
RTVSPost2010Prop57
140
1.0
102
RTVSPost2010PropOp57
 70
     1
  0
XRECORD
  5
237
102
{ACAD_REACTORS
330
236
102
}
330
236
100
AcDbXrecord
280
     1
102
RTVSPost2010Prop28
280
     0
102
RTVSPost2010PropOp28
 70
     1
102
RTVSPost2010Prop29
280
     1
102
RTVSPost2010PropOp29
 70
     1
102
RTVSPost2010Prop30
280
     1
102
RTVSPost2010PropOp30
 70
     1
102
RTVSPost2010Prop31
280
     0
102
RTVSPost2010PropOp31
 70
     1
102
RTVSPost2010Prop32
280
     0
102
RTVSPost2010PropOp32
 70
     1
102
RTVSPost2010Prop33
280
     0
102
RTVSPost2010PropOp33
 70
     1
102
RTVSPost2010Prop34
280
     0
102
RTVSPost2010PropOp34
 70
     1
102
RTVSPost2010Prop35
280
     0
102
RTVSPost2010PropOp35
 70
     1
102
RTVSPost2010Prop36
280
     0
102
RTVSPost2010PropOp36
 70
     1
102
RTVSPost2010Prop37
 90
       50
102
RTVSPost2010PropOp37
 70
     1
102
RTVSPost2010Prop38
140
0.0
102
RTVSPost2010PropOp38
 70
     1
102
RTVSPost2010Prop39
140
1.0
102
RTVSPost2010PropOp39
 70
     1
102
RTVSPost2010Prop40
 90
        0
102
RTVSPost2010PropOp40
 70
     1
102
RTVSPost2010Prop41ColorIndex
 90
       18
102
RTVSPost2010Prop41ColorRGB
 90
        0
102
RTVSPost2010PropOp41
 70
     1
102
RTVSPost2010Prop42
 90
       50
102
RTVSPost2010PropOp42
 70
     1
102
RTVSPost2010Prop43
 90
        3
102
RTVSPost2010PropOp43
 70
     1
102
RTVSPost2010Prop44ColorIndex
 90
        5
102
RTVSPost2010Prop44ColorRGB
 90
      255
102
RTVSPost2010PropOp44
 70
     1
102
RTVSPost2010Prop45
280
     0
102
RTVSPost2010PropOp45
 70
     1
102
RTVSPost2010Prop46
 90
       50
102
RTVSPost2010PropOp46
 70
     1
102
RTVSPost2010Prop47
 90
       50
102
RTVSPost2010PropOp47
 70
     1
102
RTVSPost2010Prop48
 90
       50
102
RTVSPost2010PropOp48
 70
     1
102
RTVSPost2010Prop49
280
     0
102
RTVSPost2010PropOp49
 70
     1
102
RTVSPost2010Prop50
 90
       50
102
RTVSPost2010PropOp50
 70
     1
102
RTVSPost2010Prop51ColorIndex
 90
      256
102
RTVSPost2010Prop51ColorRGB
 90
-16777216
102
RTVSPost2010PropOp51
 70
     0
102
RTVSPost2010Prop52
140
1.0
102
RTVSPost2010PropOp52
 70
     0
102
RTVSPost2010Prop53
 90
        2
102
RTVSPost2010PropOp53
 70
     1
102
RTVSPost2010Prop54
  1
strokes_ogs.tif
102
RTVSPost2010PropOp54
 70
     1
102
RTVSPost2010Prop55
280
     0
102
RTVSPost2010PropOp55
 70
     1
102
RTVSPost2010Prop56
140
1.0
102
RTVSPost2010PropOp56
 70
     1
102
RTVSPost2010Prop57
140
1.0
102
RTVSPost2010PropOp57
 70
     1
  0
ENDSEC
  0
EOF
