  0
SECTION
  2
HEADER
  9
$ACADVER
  1
AC1015
  9
$ACADMAINTVER
 70
     6
  9
$DWGCODEPAGE
  3
ANSI_1252
  9
$INSBASE
 10
0.0
 20
0.0
 30
0.0
  9
$EXTMIN
 10
0.0
 20
0.0
 30
0.0
  9
$EXTMAX
 10
788.163818
 20
906.033142
 30
0.0
  9
$LIMMIN
 10
0.0
 20
0.0
  9
$LIMMAX
 10
788.163818
 20
906.033142
  9
$ORTHOMODE
 70
     0
  9
$REGENMODE
 70
     1
  9
$FILLMODE
 70
     1
  9
$QTEXTMODE
 70
     0
  9
$MIRRTEXT
 70
     1
  9
$LTSCALE
 40
1.0
  9
$ATTMODE
 70
     1
  9
$TEXTSIZE
 40
2.5
  9
$TRACEWID
 40
1.0
  9
$TEXTSTYLE
  7
Standard
  9
$CLAYER
  8
0
  9
$CELTYPE
  6
ByLayer
  9
$CECOLOR
 62
   256
  9
$CELTSCALE
 40
1.0
  9
$DISPSILH
 70
     0
  9
$DIMSCALE
 40
1.0
  9
$DIMASZ
 40
2.5
  9
$DIMEXO
 40
0.625
  9
$DIMDLI
 40
3.75
  9
$DIMRND
 40
0.0
  9
$DIMDLE
 40
0.0
  9
$DIMEXE
 40
1.25
  9
$DIMTP
 40
0.0
  9
$DIMTM
 40
0.0
  9
$DIMTXT
 40
2.5
  9
$DIMCEN
 40
2.5
  9
$DIMTSZ
 40
0.0
  9
$DIMTOL
 70
     0
  9
$DIMLIM
 70
     0
  9
$DIMTIH
 70
     0
  9
$DIMTOH
 70
     0
  9
$DIMSE1
 70
     0
  9
$DIMSE2
 70
     0
  9
$DIMTAD
 70
     1
  9
$DIMZIN
 70
     8
  9
$DIMBLK
  1

  9
$DIMASO
 70
     1
  9
$DIMSHO
 70
     1
  9
$DIMPOST
  1

  9
$DIMAPOST
  1

  9
$DIMALT
 70
     0
  9
$DIMALTD
 70
     3
  9
$DIMALTF
 40
0.03937
  9
$DIMLFAC
 40
1.0
  9
$DIMTOFL
 70
     1
  9
$DIMTVP
 40
0.0
  9
$DIMTIX
 70
     0
  9
$DIMSOXD
 70
     0
  9
$DIMSAH
 70
     0
  9
$DIMBLK1
  1

  9
$DIMBLK2
  1

  9
$DIMSTYLE
  2
ISO-25
  9
$DIMCLRD
 70
     0
  9
$DIMCLRE
 70
     0
  9
$DIMCLRT
 70
     0
  9
$DIMTFAC
 40
1.0
  9
$DIMGAP
 40
0.625
  9
$DIMJUST
 70
     0
  9
$DIMSD1
 70
     0
  9
$DIMSD2
 70
     0
  9
$DIMTOLJ
 70
     0
  9
$DIMTZIN
 70
     8
  9
$DIMALTZ
 70
     0
  9
$DIMALTTZ
 70
     0
  9
$DIMUPT
 70
     0
  9
$DIMDEC
 70
     2
  9
$DIMTDEC
 70
     2
  9
$DIMALTU
 70
     2
  9
$DIMALTTD
 70
     3
  9
$DIMTXSTY
  7
Standard
  9
$DIMAUNIT
 70
     0
  9
$DIMADEC
 70
     0
  9
$DIMALTRND
 40
0.0
  9
$DIMAZIN
 70
     0
  9
$DIMDSEP
 70
    44
  9
$DIMATFIT
 70
     3
  9
$DIMFRAC
 70
     0
  9
$DIMLDRBLK
  1

  9
$DIMLUNIT
 70
     2
  9
$DIMLWD
 70
    -2
  9
$DIMLWE
 70
    -2
  9
$DIMTMOVE
 70
     0
  9
$LUNITS
 70
     2
  9
$LUPREC
 70
     4
  9
$SKETCHINC
 40
1.0
  9
$FILLETRAD
 40
10.0
  9
$AUNITS
 70
     0
  9
$AUPREC
 70
     0
  9
$MENU
  1
.
  9
$ELEVATION
 40
0.0
  9
$PELEVATION
 40
0.0
  9
$THICKNESS
 40
0.0
  9
$LIMCHECK
 70
     0
  9
$CHAMFERA
 40
0.0
  9
$CHAMFERB
 40
0.0
  9
$CHAMFERC
 40
0.0
  9
$CHAMFERD
 40
0.0
  9
$SKPOLY
 70
     0
  9
$TDCREATE
 40
2459530.706466632
  9
$TDUCREATE
 40
2459530.664799965
  9
$TDUPDATE
 40
2459530.70646772
  9
$TDUUPDATE
 40
2459530.664801053
  9
$TDINDWG
 40
0.0000000116
  9
$TDUSRTIMER
 40
0.0000000116
  9
$USRTIMER
 70
     1
  9
$ANGBASE
 50
0.0
  9
$ANGDIR
 70
     0
  9
$PDMODE
 70
     0
  9
$PDSIZE
 40
0.0
  9
$PLINEWID
 40
0.0
  9
$SPLFRAME
 70
     0
  9
$SPLINETYPE
 70
     6
  9
$SPLINESEGS
 70
     8
  9
$HANDSEED
  5
295
  9
$SURFTAB1
 70
     6
  9
$SURFTAB2
 70
     6
  9
$SURFTYPE
 70
     6
  9
$SURFU
 70
     6
  9
$SURFV
 70
     6
  9
$UCSBASE
  2

  9
$UCSNAME
  2

  9
$UCSORG
 10
0.0
 20
0.0
 30
0.0
  9
$UCSXDIR
 10
1.0
 20
0.0
 30
0.0
  9
$UCSYDIR
 10
0.0
 20
1.0
 30
0.0
  9
$UCSORTHOREF
  2

  9
$UCSORTHOVIEW
 70
     0
  9
$UCSORGTOP
 10
0.0
 20
0.0
 30
0.0
  9
$UCSORGBOTTOM
 10
0.0
 20
0.0
 30
0.0
  9
$UCSORGLEFT
 10
0.0
 20
0.0
 30
0.0
  9
$UCSORGRIGHT
 10
0.0
 20
0.0
 30
0.0
  9
$UCSORGFRONT
 10
0.0
 20
0.0
 30
0.0
  9
$UCSORGBACK
 10
0.0
 20
0.0
 30
0.0
  9
$PUCSBASE
  2

  9
$PUCSNAME
  2

  9
$PUCSORG
 10
0.0
 20
0.0
 30
0.0
  9
$PUCSXDIR
 10
1.0
 20
0.0
 30
0.0
  9
$PUCSYDIR
 10
0.0
 20
1.0
 30
0.0
  9
$PUCSORTHOREF
  2

  9
$PUCSORTHOVIEW
 70
     0
  9
$PUCSORGTOP
 10
0.0
 20
0.0
 30
0.0
  9
$PUCSORGBOTTOM
 10
0.0
 20
0.0
 30
0.0
  9
$PUCSORGLEFT
 10
0.0
 20
0.0
 30
0.0
  9
$PUCSORGRIGHT
 10
0.0
 20
0.0
 30
0.0
  9
$PUCSORGFRONT
 10
0.0
 20
0.0
 30
0.0
  9
$PUCSORGBACK
 10
0.0
 20
0.0
 30
0.0
  9
$USERI1
 70
     0
  9
$USERI2
 70
     0
  9
$USERI3
 70
     0
  9
$USERI4
 70
     0
  9
$USERI5
 70
     0
  9
$USERR1
 40
0.0
  9
$USERR2
 40
0.0
  9
$USERR3
 40
0.0
  9
$USERR4
 40
0.0
  9
$USERR5
 40
0.0
  9
$WORLDVIEW
 70
     1
  9
$SHADEDGE
 70
     3
  9
$SHADEDIF
 70
    70
  9
$TILEMODE
 70
     1
  9
$MAXACTVP
 70
    64
  9
$PINSBASE
 10
0.0
 20
0.0
 30
0.0
  9
$PLIMCHECK
 70
     0
  9
$PEXTMIN
 10
1.000000E+20
 20
1.000000E+20
 30
1.000000E+20
  9
$PEXTMAX
 10
-1.000000E+20
 20
-1.000000E+20
 30
-1.000000E+20
  9
$PLIMMIN
 10
0.0
 20
0.0
  9
$PLIMMAX
 10
420.0
 20
297.0
  9
$UNITMODE
 70
     0
  9
$VISRETAIN
 70
     1
  9
$PLINEGEN
 70
     0
  9
$PSLTSCALE
 70
     1
  9
$TREEDEPTH
 70
  3020
  9
$CMLSTYLE
  2
Standard
  9
$CMLJUST
 70
     0
  9
$CMLSCALE
 40
20.0
  9
$PROXYGRAPHICS
 70
     1
  9
$MEASUREMENT
 70
     1
  9
$CELWEIGHT
370
    -1
  9
$ENDCAPS
280
     0
  9
$JOINSTYLE
280
     0
  9
$LWDISPLAY
290
     0
  9
$INSUNITS
 70
     4
  9
$HYPERLINKBASE
  1

  9
$STYLESHEET
  1

  9
$XEDIT
290
     1
  9
$CEPSNTYPE
380
     0
  9
$PSTYLEMODE
290
     1
  9
$FINGERPRINTGUID
  2
{d9b9b038-3190-483e-90cf-99edef7e2534}
  9
$VERSIONGUID
  2
{FAEB1C32-E019-11D5-929B-00C0DF256EC4}
  9
$EXTNAMES
290
     1
  9
$PSVPSCALE
 40
0.0
  9
$OLESTARTUP
290
     0
  0
ENDSEC
  0
SECTION
  2
CLASSES
  0
CLASS
  1
ACDBDICTIONARYWDFLT
  2
AcDbDictionaryWithDefault
  3
ObjectDBX Classes
 90
        0
280
     0
281
     0
  0
CLASS
  1
VISUALSTYLE
  2
AcDbVisualStyle
  3
ObjectDBX Classes
 90
     4095
280
     0
281
     0
  0
CLASS
  1
MATERIAL
  2
AcDbMaterial
  3
ObjectDBX Classes
 90
     1153
280
     0
281
     0
  0
CLASS
  1
SCALE
  2
AcDbScale
  3
ObjectDBX Classes
 90
     1153
280
     0
281
     0
  0
CLASS
  1
TABLESTYLE
  2
AcDbTableStyle
  3
ObjectDBX Classes
 90
     4095
280
     0
281
     0
  0
CLASS
  1
MLEADERSTYLE
  2
AcDbMLeaderStyle
  3
ACDB_MLEADERSTYLE_CLASS
 90
     4095
280
     0
281
     0
  0
CLASS
  1
SUN
  2
AcDbSun
  3
SCENEOE
 90
     1153
280
     0
281
     0
  0
CLASS
  1
DICTIONARYVAR
  2
AcDbDictionaryVar
  3
ObjectDBX Classes
 90
        0
280
     0
281
     0
  0
CLASS
  1
ACDBPLACEHOLDER
  2
AcDbPlaceHolder
  3
ObjectDBX Classes
 90
        0
280
     0
281
     0
  0
CLASS
  1
LAYOUT
  2
AcDbLayout
  3
ObjectDBX Classes
 90
        0
280
     0
281
     0
  0
ENDSEC
  0
SECTION
  2
TABLES
  0
TABLE
  2
VPORT
  5
8
102
{ACAD_XDICTIONARY
360
258
102
}
330
0
100
AcDbSymbolTable
 70
     1
  0
VPORT
  5
29
330
8
100
AcDbSymbolTableRecord
100
AcDbViewportTableRecord
  2
*Active
 70
     0
 10
0.0
 20
0.0
 11
1.0
 21
1.0
 12
344.186916
 22
148.5
 13
0.0
 23
0.0
 14
10.0
 24
10.0
 15
10.0
 25
10.0
 16
0.0
 26
0.0
 36
1.0
 17
0.0
 27
0.0
 37
0.0
 40
297.0
 41
1.972973
 42
50.0
 43
0.0
 44
0.0
 50
0.0
 51
0.0
 71
     0
 72
   100
 73
     1
 74
     3
 75
     0
 76
     0
 77
     0
 78
     0
281
     0
 65
     1
110
0.0
120
0.0
130
0.0
111
1.0
121
0.0
131
0.0
112
0.0
122
1.0
132
0.0
 79
     0
146
0.0
  0
ENDTAB
  0
TABLE
  2
LTYPE
  5
5
330
0
100
AcDbSymbolTable
 70
     1
  0
LTYPE
  5
14
330
5
100
AcDbSymbolTableRecord
100
AcDbLinetypeTableRecord
  2
ByBlock
 70
     0
  3

 72
    65
 73
     0
 40
0.0
  0
LTYPE
  5
15
330
5
100
AcDbSymbolTableRecord
100
AcDbLinetypeTableRecord
  2
ByLayer
 70
     0
  3

 72
    65
 73
     0
 40
0.0
  0
LTYPE
  5
16
330
5
100
AcDbSymbolTableRecord
100
AcDbLinetypeTableRecord
  2
Continuous
 70
     0
  3
Solid line
 72
    65
 73
     0
 40
0.0
  0
ENDTAB
  0
TABLE
  2
LAYER
  5
2
330
0
100
AcDbSymbolTable
 70
     1
  0
LAYER
  5
10
330
2
100
AcDbSymbolTableRecord
100
AcDbLayerTableRecord
  2
0
 70
     0
 62
   102
  6
Continuous
370
     0
390
F
  0
ENDTAB
  0
TABLE
  2
STYLE
  5
3
330
0
100
AcDbSymbolTable
 70
     4
  0
STYLE
  5
11
330
3
100
AcDbSymbolTableRecord
100
AcDbTextStyleTableRecord
  2
Standard
 70
     0
 40
0.0
 41
1.0
 50
0.0
 71
     0
 42
2.5
  3
txt
  4

1001
ACAD
1000
txt
1071
        0
  0
STYLE
  5
6E
330
3
100
AcDbSymbolTableRecord
100
AcDbTextStyleTableRecord
  2
Default
 70
     0
 40
0.0
 41
1.0
 50
0.0
 71
     0
 42
2.5
  3

  4

1001
ACAD
1000
txt
1071
        0
  0
STYLE
  5
6F
330
3
100
AcDbSymbolTableRecord
100
AcDbTextStyleTableRecord
  2
ISO
 70
     0
 40
0.0
 41
1.0
 50
0.0
 71
     0
 42
2.5
  3

  4

1001
ACAD
1000
txt
1071
        0
  0
STYLE
  5
70
330
3
100
AcDbSymbolTableRecord
100
AcDbTextStyleTableRecord
  2
zucchetti
 70
     0
 40
0.0
 41
1.0
 50
0.0
 71
     0
 42
2.5
  3

  4

1001
ACAD
1000
Arial
1071
        0
  0
ENDTAB
  0
TABLE
  2
VIEW
  5
6
330
0
100
AcDbSymbolTable
 70
     0
  0
ENDTAB
  0
TABLE
  2
UCS
  5
7
330
0
100
AcDbSymbolTable
 70
     0
  0
ENDTAB
  0
TABLE
  2
APPID
  5
9
330
0
100
AcDbSymbolTable
 70
     2
  0
APPID
  5
12
330
9
100
AcDbSymbolTableRecord
100
AcDbRegAppTableRecord
  2
ACAD
 70
     0
  0
APPID
  5
292
330
9
100
AcDbSymbolTableRecord
100
AcDbRegAppTableRecord
  2
ACAD_MLEADERVER
 70
     0
  0
ENDTAB
  0
TABLE
  2
DIMSTYLE
  5
A
330
0
100
AcDbSymbolTable
 70
     5
100
AcDbDimStyleTable
  0
DIMSTYLE
105
27
330
A
100
AcDbSymbolTableRecord
100
AcDbDimStyleTableRecord
  2
ISO-25
 70
     0
 41
2.5
 42
0.625
 43
3.75
 44
1.25
 73
     0
 74
     0
 77
     1
 78
     8
140
2.5
141
2.5
143
0.03937
147
0.625
171
     3
172
     1
178
     0
271
     2
272
     2
274
     3
278
    44
283
     0
284
     8
340
11
  0
DIMSTYLE
105
71
330
A
100
AcDbSymbolTableRecord
100
AcDbDimStyleTableRecord
  2
Default
 70
     0
  3
<>
 41
4.375
 42
1.05
 44
2.1
 73
     0
 74
     0
 77
     1
 78
     8
140
3.5
146
0.4
147
1.75
172
     1
271
     2
178
     2
271
     2
272
     3
284
     8
340
6E
341
72
342
72
  0
DIMSTYLE
105
79
330
A
100
AcDbSymbolTableRecord
100
AcDbDimStyleTableRecord
  2
DefaultDimensionStyle
 70
     0
  3
<>
 41
2.5
 42
0.875
 44
1.75
 73
     0
 74
     0
 77
     1
 78
     8
140
3.5
147
1.75
172
     1
271
     2
178
     2
271
     2
272
     2
278
    44
284
     8
340
11
  0
DIMSTYLE
105
7A
330
A
100
AcDbSymbolTableRecord
100
AcDbDimStyleTableRecord
  2
ISO
 70
     0
  3
<>
 41
4.375
 42
1.05
 44
2.1
 73
     0
 74
     0
 77
     1
 78
     8
140
3.5
146
0.4
147
1.75
172
     1
271
     2
178
     2
271
     2
272
     3
284
     8
340
6F
341
72
342
72
  0
DIMSTYLE
105
7B
330
A
100
AcDbSymbolTableRecord
100
AcDbDimStyleTableRecord
  2
zucchetti
 70
     0
  3
<>
 41
3.0
 42
1.05
 44
2.1
 73
     0
 74
     0
 77
     1
 78
     8
140
3.5
146
0.6
147
1.75
172
     1
271
     2
178
     2
271
     2
272
     2
284
     8
340
70
  0
ENDTAB
  0
TABLE
  2
BLOCK_RECORD
  5
1
330
0
100
AcDbSymbolTable
 70
     7
  0
BLOCK_RECORD
  5
1F
330
1
100
AcDbSymbolTableRecord
100
AcDbBlockTableRecord
  2
*Model_Space
340
22
  0
BLOCK_RECORD
  5
1B
330
1
100
AcDbSymbolTableRecord
100
AcDbBlockTableRecord
  2
*Paper_Space
340
1E
  0
BLOCK_RECORD
  5
23
330
1
100
AcDbSymbolTableRecord
100
AcDbBlockTableRecord
  2
*Paper_Space0
340
26
  0
BLOCK_RECORD
  5
72
330
1
100
AcDbSymbolTableRecord
100
AcDbBlockTableRecord
  2
_Closed
340
0
  0
BLOCK_RECORD
  5
7C
330
1
100
AcDbSymbolTableRecord
100
AcDbBlockTableRecord
  2
a
340
0
102
{BLKREFS
331
C9
102
}
  0
BLOCK_RECORD
  5
CA
330
1
100
AcDbSymbolTableRecord
100
AcDbBlockTableRecord
  2
b
340
0
102
{BLKREFS
331
11A
102
}
  0
BLOCK_RECORD
  5
11B
330
1
100
AcDbSymbolTableRecord
100
AcDbBlockTableRecord
  2
c
340
0
102
{BLKREFS
331
16C
102
}
  0
BLOCK_RECORD
  5
16D
330
1
100
AcDbSymbolTableRecord
100
AcDbBlockTableRecord
  2
d
340
0
102
{BLKREFS
331
1F9
102
}
  0
BLOCK_RECORD
  5
1FA
330
1
100
AcDbSymbolTableRecord
100
AcDbBlockTableRecord
  2
e
340
0
102
{BLKREFS
331
24C
102
}
  0
ENDTAB
  0
ENDSEC
  0
SECTION
  2
BLOCKS
  0
BLOCK
  5
20
330
1F
100
AcDbEntity
  8
0
100
AcDbBlockBegin
  2
*Model_Space
 70
     0
 10
0.0
 20
0.0
 30
0.0
  3
*Model_Space
  1

  0
ENDBLK
  5
21
330
1F
100
AcDbEntity
  8
0
100
AcDbBlockEnd
  0
BLOCK
  5
1C
330
1B
100
AcDbEntity
 67
     1
  8
0
100
AcDbBlockBegin
  2
*Paper_Space
 70
     0
 10
0.0
 20
0.0
 30
0.0
  3
*Paper_Space
  1

  0
ENDBLK
  5
1D
330
1B
100
AcDbEntity
 67
     1
  8
0
100
AcDbBlockEnd
  0
BLOCK
  5
24
330
23
100
AcDbEntity
  8
0
100
AcDbBlockBegin
  2
*Paper_Space0
 70
     0
 10
0.0
 20
0.0
 30
0.0
  3
*Paper_Space0
  1

  0
ENDBLK
  5
25
330
23
100
AcDbEntity
  8
0
100
AcDbBlockEnd
  0
BLOCK
  5
73
330
72
100
AcDbEntity
  8
0
100
AcDbBlockBegin
  2
_Closed
 70
     0
 10
0.0
 20
0.0
 30
0.0
  3
_Closed
  1

  0
LINE
  5
75
330
72
100
AcDbEntity
  8
0
  6
ByBlock
 62
     0
370
    -2
100
AcDbLine
 10
-1.0
 20
0.166667
 30
0.0
 11
0.0
 21
0.0
 31
0.0
  0
LINE
  5
76
330
72
100
AcDbEntity
  8
0
  6
ByBlock
 62
     0
370
    -2
100
AcDbLine
 10
0.0
 20
0.0
 30
0.0
 11
-1.0
 21
-0.166667
 31
0.0
  0
LINE
  5
77
330
72
100
AcDbEntity
  8
0
  6
ByBlock
 62
     0
370
    -2
100
AcDbLine
 10
-1.0
 20
0.166667
 30
0.0
 11
-1.0
 21
-0.166667
 31
0.0
  0
LINE
  5
78
330
72
100
AcDbEntity
  8
0
  6
ByBlock
 62
     0
370
    -2
100
AcDbLine
 10
0.0
 20
0.0
 30
0.0
 11
-1.0
 21
0.0
 31
0.0
  0
ENDBLK
  5
74
330
72
100
AcDbEntity
  8
0
100
AcDbBlockEnd
  0
BLOCK
  5
C7
330
7C
100
AcDbEntity
  8
0
100
AcDbBlockBegin
  2
a
 70
     0
 10
843.115417
 20
361.123352
 30
0.0
  3
a
  1

  0
LINE
  5
7D
330
7C
100
AcDbEntity
  8
0
  6
Continuous
 62
     0
370
     0
100
AcDbLine
 10
509.851291
 20
689.791481
 30
0.0
 11
509.151291
 21
689.791481
 31
0.0
  0
LINE
  5
7E
330
7C
100
AcDbEntity
  8
0
  6
Continuous
 62
     0
370
     0
100
AcDbLine
 10
509.851291
 20
715.591489
 30
0.0
 11
509.851291
 21
689.791481
 31
0.0
  0
LINE
  5
7F
330
7C
100
AcDbEntity
  8
0
  6
Continuous
 62
     0
370
     0
100
AcDbLine
 10
509.851291
 20
715.591489
 30
0.0
 11
509.151291
 21
715.591489
 31
0.0
  0
LINE
  5
80
330
7C
100
AcDbEntity
  8
0
  6
Continuous
 62
     0
370
    30
100
AcDbLine
 10
509.151291
 20
715.591489
 30
0.0
 11
509.151291
 21
689.791481
 31
0.0
  0
LINE
  5
81
330
7C
100
AcDbEntity
  8
0
  6
Continuous
 62
     0
370
    30
100
AcDbLine
 10
521.451291
 20
716.291489
 30
0.0
 11
509.851291
 21
716.291489
 31
0.0
  0
LINE
  5
82
330
7C
100
AcDbEntity
  8
0
  6
Continuous
 62
     0
370
     0
100
AcDbLine
 10
509.851291
 20
716.291489
 30
0.0
 11
509.851291
 21
715.591489
 31
0.0
  0
LINE
  5
83
330
7C
100
AcDbEntity
  8
0
  6
Continuous
 62
     0
370
     0
100
AcDbLine
 10
521.451291
 20
715.591489
 30
0.0
 11
509.851291
 21
715.591489
 31
0.0
  0
LINE
  5
84
330
7C
100
AcDbEntity
  8
0
  6
Continuous
 62
     0
370
     0
100
AcDbLine
 10
521.451291
 20
716.291489
 30
0.0
 11
521.451291
 21
715.591489
 31
0.0
  0
ARC
  5
85
330
7C
100
AcDbEntity
  8
0
  6
Continuous
 62
     0
370
    30
100
AcDbCircle
 10
509.851291
 20
715.591489
 30
0.0
 40
0.699999988079071
100
AcDbArc
 50
90.0
 51
180.0
  0
LINE
  5
86
330
7C
100
AcDbEntity
  8
0
  6
Continuous
 62
     0
370
    30
100
AcDbLine
 10
522.151291
 20
715.591489
 30
0.0
 11
522.151291
 21
689.791481
 31
0.0
  0
LINE
  5
87
330
7C
100
AcDbEntity
  8
0
  6
Continuous
 62
     0
370
     0
100
AcDbLine
 10
522.151291
 20
715.591489
 30
0.0
 11
521.451291
 21
715.591489
 31
0.0
  0
LINE
  5
88
330
7C
100
AcDbEntity
  8
0
  6
Continuous
 62
     0
370
     0
100
AcDbLine
 10
521.451291
 20
715.591489
 30
0.0
 11
521.451291
 21
689.791481
 31
0.0
  0
LINE
  5
89
330
7C
100
AcDbEntity
  8
0
  6
Continuous
 62
     0
370
     0
100
AcDbLine
 10
521.451291
 20
689.791481
 30
0.0
 11
522.151291
 21
689.791481
 31
0.0
  0
ARC
  5
8A
330
7C
100
AcDbEntity
  8
0
  6
Continuous
 62
     0
370
    30
100
AcDbCircle
 10
521.451291
 20
715.591489
 30
0.0
 40
0.6999999880790782
100
AcDbArc
 50
0.0
 51
90.0
  0
LINE
  5
8B
330
7C
100
AcDbEntity
  8
0
  6
Continuous
 62
     0
370
     0
100
AcDbLine
 10
524.151291
 20
687.091481
 30
0.0
 11
524.151291
 21
687.791481
 31
0.0
  0
LINE
  5
8C
330
7C
100
AcDbEntity
  8
0
  6
Continuous
 62
     0
370
     0
100
AcDbLine
 10
549.951283
 20
687.091481
 30
0.0
 11
524.151291
 21
687.091481
 31
0.0
  0
LINE
  5
8D
330
7C
100
AcDbEntity
  8
0
  6
Continuous
 62
     0
370
     0
100
AcDbLine
 10
549.951283
 20
687.091481
 30
0.0
 11
549.951283
 21
687.791481
 31
0.0
  0
LINE
  5
8E
330
7C
100
AcDbEntity
  8
0
  6
Continuous
 62
     0
370
    30
100
AcDbLine
 10
549.951283
 20
687.791481
 30
0.0
 11
524.151291
 21
687.791481
 31
0.0
  0
LINE
  5
8F
330
7C
100
AcDbEntity
  8
0
  6
Continuous
 62
     0
370
    30
100
AcDbLine
 10
550.651283
 20
675.491481
 30
0.0
 11
550.651283
 21
687.091481
 31
0.0
  0
LINE
  5
90
330
7C
100
AcDbEntity
  8
0
  6
Continuous
 62
     0
370
     0
100
AcDbLine
 10
550.651283
 20
687.091481
 30
0.0
 11
549.951283
 21
687.091481
 31
0.0
  0
LINE
  5
91
330
7C
100
AcDbEntity
  8
0
  6
Continuous
 62
     0
370
     0
100
AcDbLine
 10
549.951283
 20
675.491481
 30
0.0
 11
549.951283
 21
687.091481
 31
0.0
  0
LINE
  5
92
330
7C
100
AcDbEntity
  8
0
  6
Continuous
 62
     0
370
     0
100
AcDbLine
 10
550.651283
 20
675.491481
 30
0.0
 11
549.951283
 21
675.491481
 31
0.0
  0
ARC
  5
93
330
7C
100
AcDbEntity
  8
0
  6
Continuous
 62
     0
370
    30
100
AcDbCircle
 10
549.951283
 20
687.091481
 30
0.0
 40
0.699999988079071
100
AcDbArc
 50
0.0
 51
90.0
  0
LINE
  5
94
330
7C
100
AcDbEntity
  8
0
  6
Continuous
 62
     0
370
    30
100
AcDbLine
 10
549.951283
 20
674.791481
 30
0.0
 11
524.151291
 21
674.791481
 31
0.0
  0
LINE
  5
95
330
7C
100
AcDbEntity
  8
0
  6
Continuous
 62
     0
370
     0
100
AcDbLine
 10
549.951283
 20
674.791481
 30
0.0
 11
549.951283
 21
675.491481
 31
0.0
  0
LINE
  5
96
330
7C
100
AcDbEntity
  8
0
  6
Continuous
 62
     0
370
     0
100
AcDbLine
 10
549.951283
 20
675.491481
 30
0.0
 11
524.151291
 21
675.491481
 31
0.0
  0
LINE
  5
97
330
7C
100
AcDbEntity
  8
0
  6
Continuous
 62
     0
370
     0
100
AcDbLine
 10
524.151291
 20
675.491481
 30
0.0
 11
524.151291
 21
674.791481
 31
0.0
  0
ARC
  5
98
330
7C
100
AcDbEntity
  8
0
  6
Continuous
 62
     0
370
    30
100
AcDbCircle
 10
549.951283
 20
675.491481
 30
0.0
 40
0.6999999880790639
100
AcDbArc
 50
270.0
 51
0.0
  0
LINE
  5
99
330
7C
100
AcDbEntity
  8
0
  6
Continuous
 62
     0
370
     0
100
AcDbLine
 10
522.151291
 20
672.791481
 30
0.0
 11
521.451291
 21
672.791481
 31
0.0
  0
LINE
  5
9A
330
7C
100
AcDbEntity
  8
0
  6
Continuous
 62
     0
370
     0
100
AcDbLine
 10
521.451291
 20
672.791481
 30
0.0
 11
521.451291
 21
646.991489
 31
0.0
  0
LINE
  5
9B
330
7C
100
AcDbEntity
  8
0
  6
Continuous
 62
     0
370
     0
100
AcDbLine
 10
522.151291
 20
646.991489
 30
0.0
 11
521.451291
 21
646.991489
 31
0.0
  0
LINE
  5
9C
330
7C
100
AcDbEntity
  8
0
  6
Continuous
 62
     0
370
    30
100
AcDbLine
 10
522.151291
 20
672.791481
 30
0.0
 11
522.151291
 21
646.991489
 31
0.0
  0
ARC
  5
9D
330
7C
100
AcDbEntity
  8
0
  6
Continuous
 62
     0
370
    30
100
AcDbCircle
 10
521.451291
 20
646.991489
 30
0.0
 40
0.6999999880790639
100
AcDbArc
 50
270.0
 51
360.0
  0
LINE
  5
9E
330
7C
100
AcDbEntity
  8
0
  6
Continuous
 62
     0
370
    30
100
AcDbLine
 10
521.451291
 20
646.291489
 30
0.0
 11
509.851291
 21
646.291489
 31
0.0
  0
LINE
  5
9F
330
7C
100
AcDbEntity
  8
0
  6
Continuous
 62
     0
370
     0
100
AcDbLine
 10
521.451291
 20
646.291489
 30
0.0
 11
521.451291
 21
646.991489
 31
0.0
  0
LINE
  5
A0
330
7C
100
AcDbEntity
  8
0
  6
Continuous
 62
     0
370
     0
100
AcDbLine
 10
521.451291
 20
646.991489
 30
0.0
 11
509.851291
 21
646.991489
 31
0.0
  0
LINE
  5
A1
330
7C
100
AcDbEntity
  8
0
  6
Continuous
 62
     0
370
     0
100
AcDbLine
 10
509.851291
 20
646.291489
 30
0.0
 11
509.851291
 21
646.991489
 31
0.0
  0
LINE
  5
A2
330
7C
100
AcDbEntity
  8
0
  6
Continuous
 62
     0
370
    30
100
AcDbLine
 10
507.151291
 20
687.791481
 30
0.0
 11
481.351283
 21
687.791481
 31
0.0
  0
LINE
  5
A3
330
7C
100
AcDbEntity
  8
0
  6
Continuous
 62
     0
370
     0
100
AcDbLine
 10
481.351283
 20
687.091481
 30
0.0
 11
481.351283
 21
687.791481
 31
0.0
  0
LINE
  5
A4
330
7C
100
AcDbEntity
  8
0
  6
Continuous
 62
     0
370
     0
100
AcDbLine
 10
507.151291
 20
687.091481
 30
0.0
 11
481.351283
 21
687.091481
 31
0.0
  0
LINE
  5
A5
330
7C
100
AcDbEntity
  8
0
  6
Continuous
 62
     0
370
     0
100
AcDbLine
 10
507.151291
 20
687.791481
 30
0.0
 11
507.151291
 21
687.091481
 31
0.0
  0
LINE
  5
A6
330
7C
100
AcDbEntity
  8
0
  6
Continuous
 62
     0
370
     0
100
AcDbLine
 10
480.651283
 20
675.491481
 30
0.0
 11
481.351283
 21
675.491481
 31
0.0
  0
LINE
  5
A7
330
7C
100
AcDbEntity
  8
0
  6
Continuous
 62
     0
370
     0
100
AcDbLine
 10
481.351283
 20
675.491481
 30
0.0
 11
481.351283
 21
687.091481
 31
0.0
  0
LINE
  5
A8
330
7C
100
AcDbEntity
  8
0
  6
Continuous
 62
     0
370
     0
100
AcDbLine
 10
480.651283
 20
687.091481
 30
0.0
 11
481.351283
 21
687.091481
 31
0.0
  0
LINE
  5
A9
330
7C
100
AcDbEntity
  8
0
  6
Continuous
 62
     0
370
    30
100
AcDbLine
 10
480.651283
 20
675.491481
 30
0.0
 11
480.651283
 21
687.091481
 31
0.0
  0
ARC
  5
AA
330
7C
100
AcDbEntity
  8
0
  6
Continuous
 62
     0
370
    30
100
AcDbCircle
 10
481.351283
 20
687.091481
 30
0.0
 40
0.6999999880790782
100
AcDbArc
 50
90.0
 51
180.0
  0
LINE
  5
AB
330
7C
100
AcDbEntity
  8
0
  6
Continuous
 62
     0
370
    30
100
AcDbLine
 10
509.151291
 20
672.791481
 30
0.0
 11
509.151291
 21
646.991489
 31
0.0
  0
LINE
  5
AC
330
7C
100
AcDbEntity
  8
0
  6
Continuous
 62
     0
370
     0
100
AcDbLine
 10
509.851291
 20
646.991489
 30
0.0
 11
509.151291
 21
646.991489
 31
0.0
  0
LINE
  5
AD
330
7C
100
AcDbEntity
  8
0
  6
Continuous
 62
     0
370
     0
100
AcDbLine
 10
509.851291
 20
672.791481
 30
0.0
 11
509.851291
 21
646.991489
 31
0.0
  0
LINE
  5
AE
330
7C
100
AcDbEntity
  8
0
  6
Continuous
 62
     0
370
     0
100
AcDbLine
 10
509.151291
 20
672.791481
 30
0.0
 11
509.851291
 21
672.791481
 31
0.0
  0
ARC
  5
AF
330
7C
100
AcDbEntity
  8
0
  6
Continuous
 62
     0
370
    30
100
AcDbCircle
 10
509.851291
 20
646.991489
 30
0.0
 40
0.699999988079071
100
AcDbArc
 50
180.0
 51
270.0
  0
LINE
  5
B0
330
7C
100
AcDbEntity
  8
0
  6
Continuous
 62
     0
370
     0
100
AcDbLine
 10
507.151291
 20
674.791481
 30
0.0
 11
507.151291
 21
675.491481
 31
0.0
  0
LINE
  5
B1
330
7C
100
AcDbEntity
  8
0
  6
Continuous
 62
     0
370
     0
100
AcDbLine
 10
507.151291
 20
675.491481
 30
0.0
 11
481.351283
 21
675.491481
 31
0.0
  0
LINE
  5
B2
330
7C
100
AcDbEntity
  8
0
  6
Continuous
 62
     0
370
     0
100
AcDbLine
 10
481.351283
 20
674.791481
 30
0.0
 11
481.351283
 21
675.491481
 31
0.0
  0
LINE
  5
B3
330
7C
100
AcDbEntity
  8
0
  6
Continuous
 62
     0
370
    30
100
AcDbLine
 10
507.151291
 20
674.791481
 30
0.0
 11
481.351283
 21
674.791481
 31
0.0
  0
ARC
  5
B4
330
7C
100
AcDbEntity
  8
0
  6
Continuous
 62
     0
370
    30
100
AcDbCircle
 10
481.351283
 20
675.491481
 30
0.0
 40
0.699999988079071
100
AcDbArc
 50
180.0
 51
270.0
  0
ARC
  5
B5
330
7C
100
AcDbEntity
  8
0
  6
Continuous
 62
     0
370
     0
100
AcDbCircle
 10
507.151291
 20
672.791481
 30
0.0
 40
2.699999988079074
100
AcDbArc
 50
0.0
 51
90.0
  0
ARC
  5
B6
330
7C
100
AcDbEntity
  8
0
  6
Continuous
 62
     0
370
     0
100
AcDbCircle
 10
524.151291
 20
672.791481
 30
0.0
 40
2.699999988079073
100
AcDbArc
 50
90.0
 51
180.0
  0
ARC
  5
B7
330
7C
100
AcDbEntity
  8
0
  6
Continuous
 62
     0
370
     0
100
AcDbCircle
 10
524.151291
 20
689.791481
 30
0.0
 40
2.69999998807907
100
AcDbArc
 50
180.0
 51
270.0
  0
ARC
  5
B8
330
7C
100
AcDbEntity
  8
0
  6
Continuous
 62
     0
370
     0
100
AcDbCircle
 10
507.151291
 20
689.791481
 30
0.0
 40
2.699999988079068
100
AcDbArc
 50
270.0
 51
360.0
  0
ARC
  5
B9
330
7C
100
AcDbEntity
  8
0
  6
Continuous
 62
     0
370
    30
100
AcDbCircle
 10
507.151291
 20
689.791481
 30
0.0
 40
1.999999999999996
100
AcDbArc
 50
270.0
 51
360.0
  0
ARC
  5
BA
330
7C
100
AcDbEntity
  8
0
  6
Continuous
 62
     0
370
    30
100
AcDbCircle
 10
524.151291
 20
689.791481
 30
0.0
 40
1.999999999999999
100
AcDbArc
 50
180.0
 51
270.0
  0
ARC
  5
BB
330
7C
100
AcDbEntity
  8
0
  6
Continuous
 62
     0
370
    30
100
AcDbCircle
 10
524.151291
 20
672.791481
 30
0.0
 40
2.000000000000002
100
AcDbArc
 50
90.0
 51
180.0
  0
ARC
  5
BC
330
7C
100
AcDbEntity
  8
0
  6
Continuous
 62
     0
370
    30
100
AcDbCircle
 10
507.151291
 20
672.791481
 30
0.0
 40
2.000000000000003
100
AcDbArc
 50
0.0
 51
90.0
  0
ARC
  5
BD
330
7C
100
AcDbEntity
  8
0
  6
Continuous
 62
     0
370
    30
100
AcDbCircle
 10
515.651283
 20
681.291494
 30
0.0
 40
16.5
100
AcDbArc
 50
313.446704
 51
336.800109
  0
ARC
  5
BE
330
7C
100
AcDbEntity
  8
0
  6
Continuous
 62
     0
370
    30
100
AcDbCircle
 10
515.651283
 20
681.291494
 30
0.0
 40
16.5
100
AcDbArc
 50
23.199796
 51
66.800128
  0
ARC
  5
BF
330
7C
100
AcDbEntity
  8
0
  6
Continuous
 62
     0
370
    30
100
AcDbCircle
 10
515.651283
 20
681.291494
 30
0.0
 40
16.5
100
AcDbArc
 50
113.199814
 51
156.800204
  0
ARC
  5
C0
330
7C
100
AcDbEntity
  8
0
  6
Continuous
 62
     0
370
    30
100
AcDbCircle
 10
515.651283
 20
681.291494
 30
0.0
 40
16.5
100
AcDbArc
 50
203.199891
 51
246.800186
  0
ARC
  5
C1
330
7C
100
AcDbEntity
  8
0
  6
Continuous
 62
     0
370
    30
100
AcDbCircle
 10
515.651283
 20
681.291494
 30
0.0
 40
16.5
100
AcDbArc
 50
293.199872
 51
313.446704
  0
ARC
  5
C2
330
7C
100
AcDbEntity
  8
0
  6
Continuous
 62
     0
370
    30
100
AcDbCircle
 10
515.651283
 20
681.291494
 30
0.0
 40
30.0
100
AcDbArc
 50
43.446704
 51
77.48666
  0
ARC
  5
C3
330
7C
100
AcDbEntity
  8
0
  6
Continuous
 62
     0
370
    30
100
AcDbCircle
 10
515.651283
 20
681.291494
 30
0.0
 40
30.0
100
AcDbArc
 50
102.51331
 51
167.486699
  0
ARC
  5
C4
330
7C
100
AcDbEntity
  8
0
  6
Continuous
 62
     0
370
    30
100
AcDbCircle
 10
515.651283
 20
681.291494
 30
0.0
 40
30.0
100
AcDbArc
 50
192.51335
 51
257.48669
  0
ARC
  5
C5
330
7C
100
AcDbEntity
  8
0
  6
Continuous
 62
     0
370
    30
100
AcDbCircle
 10
515.651283
 20
681.291494
 30
0.0
 40
30.0
100
AcDbArc
 50
282.51334
 51
347.48665
  0
ARC
  5
C6
330
7C
100
AcDbEntity
  8
0
  6
Continuous
 62
     0
370
    30
100
AcDbCircle
 10
515.651283
 20
681.291494
 30
0.0
 40
30.0
100
AcDbArc
 50
12.513301
 51
43.446704
  0
ENDBLK
  5
C8
330
7C
100
AcDbEntity
  8
0
100
AcDbBlockEnd
  0
BLOCK
  5
118
330
CA
100
AcDbEntity
  8
0
100
AcDbBlockBegin
  2
b
 70
     0
 10
851.512849
 20
816.017977
 30
0.0
  3
b
  1

  0
SPLINE
  5
CB
330
CA
100
AcDbEntity
  8
0
  6
Continuous
 62
     0
370
     0
100
AcDbSpline
210
0.0
220
0.0
230
1.0
 70
     8
 71
     3
 72
    12
 73
     8
 74
     0
 42
0.000000001
 43
0.0
 40
7.102135838942108
 40
7.102135838942108
 40
7.102135838942108
 40
7.102135838942108
 40
7.41403273394689
 40
9.118176729562256
 40
10.6295864351307
 40
12.2743040219912
 40
13.16784666328683
 40
13.16784666328683
 40
13.16784666328683
 40
13.16784666328683
 10
531.0485485674786
 20
500.4580566401175
 30
0.0
 10
531.0485926263839
 20
500.4580932092849
 30
0.0
 10
531.0350653459477
 20
500.4442997789677
 30
0.0
 10
530.8533505060893
 20
500.2599360889153
 30
0.0
 10
530.299108236556
 20
499.6908046208361
 30
0.0
 10
529.6453432392788
 20
499.0043656312978
 30
0.0
 10
529.171024939604
 20
498.4902347215427
 30
0.0
 10
528.9982627074602
 20
498.2994594557786
 30
0.0
  0
SPLINE
  5
CC
330
CA
100
AcDbEntity
  8
0
  6
Continuous
 62
     0
370
     0
100
AcDbSpline
210
0.0
220
0.0
230
1.0
 70
     8
 71
     3
 72
    10
 73
     6
 74
     0
 42
0.000000001
 43
0.0
 40
0.0
 40
0.0
 40
0.0
 40
0.0
 40
0.724039994823727
 40
1.448094429070311
 40
2.172163302831896
 40
2.172163302831896
 40
2.172163302831896
 40
2.172163302831896
 10
530.4124968906134
 20
496.7820133386139
 30
0.0
 10
530.2202300617099
 20
496.8770626440219
 30
0.0
 10
529.8319967330367
 20
497.1368660093202
 30
0.0
 10
529.3289570248296
 20
497.6766130042038
 30
0.0
 10
529.08683718784
 20
498.0931666720364
 30
0.0
 10
528.9982627074602
 20
498.2994594557786
 30
0.0
  0
SPLINE
  5
CD
330
CA
100
AcDbEntity
  8
0
  6
Continuous
 62
     0
370
     0
100
AcDbSpline
210
0.0
220
0.0
230
1.0
 70
     8
 71
     3
 72
    16
 73
    12
 74
     0
 42
0.000000001
 43
0.0
 40
7.282708979029231
 40
7.282708979029231
 40
7.282708979029231
 40
7.282708979029231
 40
7.384927086952992
 40
7.602637128883383
 40
8.050609971066821
 40
8.865679014618964
 40
9.588051011786922
 40
10.89999078725118
 40
11.92011468447403
 40
13.27024017354261
 40
13.50286664542282
 40
13.50286664542282
 40
13.50286664542282
 40
13.50286664542282
 10
533.0486454833915
 20
498.4581371055144
 30
0.0
 10
533.0486454987672
 20
498.4581371175534
 30
0.0
 10
533.0477689110486
 20
498.4575660733257
 30
0.0
 10
533.0390772193837
 20
498.4519037188346
 30
0.0
 10
532.9959652274579
 20
498.4238250345692
 30
0.0
 10
532.8719696588155
 20
498.3431581565613
 30
0.0
 10
532.5849982117836
 20
498.1571827284224
 30
0.0
 10
532.1350451031622
 20
497.8674795591352
 30
0.0
 10
531.4346218165246
 20
497.4220265544635
 30
0.0
 10
530.8493333033178
 20
497.0546280368268
 30
0.0
 10
530.4688944723948
 20
496.8171988805764
 30
0.0
 10
530.4124968906134
 20
496.7820133386139
 30
0.0
  0
SPLINE
  5
CE
330
CA
100
AcDbEntity
  8
0
  6
Continuous
 62
     0
370
     0
100
AcDbSpline
210
0.0
220
0.0
230
1.0
 70
     8
 71
     3
 72
    12
 73
     8
 74
     0
 42
0.000000001
 43
0.0
 40
0.0
 40
0.0
 40
0.0
 40
0.0
 40
0.652089755406342
 40
1.284965752309294
 40
2.406270478567791
 40
3.546936274571016
 40
4.151737047032045
 40
4.151737047032045
 40
4.151737047032045
 40
4.151737047032045
 10
532.5486533196828
 20
493.9581014701305
 30
0.0
 10
532.548652721859
 20
494.1344082821608
 30
0.0
 10
532.4995485055383
 20
494.4817329978579
 30
0.0
 10
532.2413327590479
 20
495.1078319190763
 30
0.0
 10
531.7135661568586
 20
495.7945818454292
 30
0.0
 10
531.0315356103729
 20
496.373567220415
 30
0.0
 10
530.574883772264
 20
496.6809160467815
 30
0.0
 10
530.4126796983206
 20
496.7821876330487
 30
0.0
  0
SPLINE
  5
CF
330
CA
100
AcDbEntity
  8
0
  6
Continuous
 62
     0
370
     0
100
AcDbSpline
210
0.0
220
0.0
230
1.0
 70
     8
 71
     3
 72
    12
 73
     8
 74
     0
 42
0.000000001
 43
0.0
 40
0.0
 40
0.0
 40
0.0
 40
0.0
 40
0.111110799394611
 40
0.333332398183832
 40
0.66666573151717
 40
0.8888885771723901
 40
0.990960482093917
 40
0.990960482093917
 40
0.990960482093917
 40
0.990960482093917
 10
530.4124968906134
 20
496.7820133386139
 30
0.0
 10
530.3562248418834
 20
496.7542025507761
 30
0.0
 10
530.1874092197702
 20
496.6792852742954
 30
0.0
 10
529.8525535222084
 20
496.5824943230708
 30
0.0
 10
529.4979927067467
 20
496.5825049022288
 30
0.0
 10
529.2496990629323
 20
496.6780009215764
 30
0.0
 10
529.1475077569528
 20
496.7501951330873
 30
0.0
 10
529.1173962060385
 20
496.7753210035638
 30
0.0
  0
LINE
  5
D0
330
CA
100
AcDbEntity
  8
0
  6
Continuous
 62
     0
370
     0
100
AcDbLine
 10
532.548653
 20
493.958101
 30
0.0
 11
530.548653
 21
493.958101
 31
0.0
  0
SPLINE
  5
D1
330
CA
100
AcDbEntity
  8
0
  6
Continuous
 62
     0
370
     0
100
AcDbSpline
210
0.0
220
0.0
230
1.0
 70
     8
 71
     3
 72
    12
 73
     8
 74
     0
 42
0.000000001
 43
0.0
 40
0.0043533283961952
 40
0.0043533283961952
 40
0.0043533283961952
 40
0.0043533283961952
 40
0.111109627363873
 40
0.333328882091619
 40
0.66666221542495
 40
0.8888874051416499
 40
1.0
 40
1.0
 40
1.0
 40
1.0
 10
529.1051229985601
 20
496.7857938845539
 30
0.0
 10
529.0699170851639
 20
496.8165120492332
 30
0.0
 10
528.9704449229738
 20
496.9216401059284
 30
0.0
 10
528.8291528608622
 20
497.1972382408686
 30
0.0
 10
528.7984505273283
 20
497.6162467619191
 30
0.0
 10
528.8904382976307
 20
498.0244075083376
 30
0.0
 10
528.9687322626905
 20
498.2306968034045
 30
0.0
 10
528.9982627074602
 20
498.2994594557786
 30
0.0
  0
SPLINE
  5
D2
330
CA
100
AcDbEntity
  8
0
  6
Continuous
 62
     0
370
     0
100
AcDbSpline
210
0.0
220
0.0
230
1.0
 70
     8
 71
     3
 72
    16
 73
    12
 74
     0
 42
0.000000001
 43
0.0
 40
1.036551057264528
 40
1.036551057264528
 40
1.036551057264528
 40
1.036551057264528
 40
1.110209468683914
 40
2.188886951357268
 40
4.177064877331093
 40
5.670853416855161
 40
7.413623982659933
 40
9.117775860919043
 40
10.62916237558552
 40
12.27383619275323
 40
13.16794967043762
 40
13.16794967043762
 40
13.16794967043762
 40
13.16794967043762
 10
528.9982623166253
 20
498.2993572791111
 30
0.0
 10
528.984021921706
 20
498.3150818089835
 30
0.0
 10
528.7599387716685
 20
498.560061501423
 30
0.0
 10
528.0937780051781
 20
499.1841311783397
 30
0.0
 10
526.9159959770998
 20
499.9004312193996
 30
0.0
 10
525.3485881667855
 20
500.3935286540514
 30
0.0
 10
523.7574515558352
 20
500.5191020022673
 30
0.0
 10
522.1873873155134
 20
500.2600430819313
 30
0.0
 10
520.7913917875837
 20
499.6909941103473
 30
0.0
 10
519.7972813830647
 20
499.0045236954005
 30
0.0
 10
519.2716854042062
 20
498.4902977267263
 30
0.0
 10
519.0988312425468
 20
498.2993984387026
 30
0.0
  0
SPLINE
  5
D3
330
CA
100
AcDbEntity
  8
0
  6
Continuous
 62
     0
370
     0
100
AcDbSpline
210
0.0
220
0.0
230
1.0
 70
     8
 71
     3
 72
    12
 73
     8
 74
     0
 42
0.000000001
 43
0.0
 40
0.0038142598803563
 40
0.0038142598803563
 40
0.0038142598803563
 40
0.0038142598803563
 40
0.111111241458455
 40
0.3333337243753641
 40
0.6666670577086921
 40
0.8888890192362308
 40
1.0
 40
1.0
 40
1.0
 40
1.0
 10
518.9916496571527
 20
496.7853370808816
 30
0.0
 10
519.0270527120786
 20
496.8161709888606
 30
0.0
 10
519.1267045570029
 20
496.9214032295104
 30
0.0
 10
519.2680503223842
 20
497.1971865857965
 30
0.0
 10
519.2986953644834
 20
497.616141741499
 30
0.0
 10
519.2066770267501
 20
498.0242554844329
 30
0.0
 10
519.1283746230437
 20
498.2305222378741
 30
0.0
 10
519.0988420629285
 20
498.2992776769457
 30
0.0
  0
ARC
  5
D4
330
CA
100
AcDbEntity
  8
0
  6
Continuous
 62
     0
370
    30
100
AcDbCircle
 10
515.048646
 20
500.458137
 30
0.0
 40
1.999999999999993
100
AcDbArc
 50
270.0
 51
0.0
  0
LINE
  5
D5
330
CA
100
AcDbEntity
  8
0
  6
Continuous
 62
     0
370
     0
100
AcDbLine
 10
517.548653
 20
493.958101
 30
0.0
 11
515.548653
 21
493.958101
 31
0.0
  0
SPLINE
  5
D6
330
CA
100
AcDbEntity
  8
0
  6
Continuous
 62
     0
370
     0
100
AcDbSpline
210
0.0
220
0.0
230
1.0
 70
     8
 71
     3
 72
    12
 73
     8
 74
     0
 42
0.000000001
 43
0.0
 40
0.0
 40
0.0
 40
0.0
 40
0.0
 40
0.111109047727821
 40
0.333327143183463
 40
0.6666604765167989
 40
0.8888868255055999
 40
0.9977917419337549
 40
0.9977917419337549
 40
0.9977917419337549
 40
0.9977917419337549
 10
517.6849814599022
 20
496.7823858173614
 30
0.0
 10
517.7412482540917
 20
496.7545620180953
 30
0.0
 10
517.9100476038005
 20
496.6796047642814
 30
0.0
 10
518.2448701103053
 20
496.5827280456048
 30
0.0
 10
518.5993872810405
 20
496.5826385727034
 30
0.0
 10
518.8502177599389
 20
496.6790483282616
 30
0.0
 10
518.9541039337707
 20
496.7532683945194
 30
0.0
 10
518.985929769712
 20
496.7804075229023
 30
0.0
  0
SPLINE
  5
D7
330
CA
100
AcDbEntity
  8
0
  6
Continuous
 62
     0
370
     0
100
AcDbSpline
210
0.0
220
0.0
230
1.0
 70
     8
 71
     3
 72
    13
 73
     9
 74
     0
 42
0.000000001
 43
0.0
 40
1.088162456940774
 40
1.088162456940774
 40
1.088162456940774
 40
1.088162456940774
 40
1.789405597119858
 40
2.507174003888361
 40
3.180442430366789
 40
4.09568822247947
 40
4.601650003097493
 40
5.240023456047269
 40
5.240023456047269
 40
5.240023456047269
 40
5.240023456047269
 10
517.6850169192778
 20
496.7822696949228
 30
0.0
 10
517.4968301475685
 20
496.6648513627774
 30
0.0
 10
517.1265992408904
 20
496.4130324150814
 30
0.0
 10
516.6241430165073
 20
495.9974163042153
 30
0.0
 10
516.1380179871949
 20
495.4901637281544
 30
0.0
 10
515.7954757658989
 20
494.9786129270261
 30
0.0
 10
515.591471532108
 20
494.4400390049486
 30
0.0
 10
515.5486533196759
 20
494.1307008428819
 30
0.0
 10
515.5486533196759
 20
493.9581014701305
 30
0.0
  0
SPLINE
  5
D8
330
CA
100
AcDbEntity
  8
0
  6
Continuous
 62
     0
370
     0
100
AcDbSpline
210
0.0
220
0.0
230
1.0
 70
     8
 71
     3
 72
    10
 73
     6
 74
     0
 42
0.000000001
 43
0.0
 40
0.0
 40
0.0
 40
0.0
 40
0.0
 40
0.723768534793083
 40
1.447569395276909
 40
2.171402590894657
 40
2.171402590894657
 40
2.171402590894657
 40
2.171402590894657
 10
517.6849814599022
 20
496.7823858173614
 30
0.0
 10
517.8771766160166
 20
496.8774354984652
 30
0.0
 10
518.2652665795832
 20
497.1371746122557
 30
0.0
 10
518.7681623399569
 20
497.6766939770415
 30
0.0
 10
519.0102580427924
 20
498.0930647970778
 30
0.0
 10
519.0988420629285
 20
498.2992776769457
 30
0.0
  0
ARC
  5
D9
330
CA
100
AcDbEntity
  8
0
  6
Continuous
 62
     0
370
     0
100
AcDbCircle
 10
461.634402
 20
445.780162
 30
0.0
 40
77.84869500308811
100
AcDbArc
 50
42.425474
 51
44.616826
  0
ARC
  5
DA
330
CA
100
AcDbEntity
  8
0
  6
Continuous
 62
     0
370
     0
100
AcDbCircle
 10
592.57873
 20
617.518832
 30
0.0
 40
142.078721068159
100
AcDbArc
 50
236.928582
 51
238.188354
  0
LINE
  5
DB
330
CA
100
AcDbEntity
  8
0
  6
Continuous
 62
     0
370
    30
100
AcDbLine
 10
517.048646
 20
521.158127
 30
0.0
 11
517.048646
 21
500.458137
 31
0.0
  0
ARC
  5
DC
330
CA
100
AcDbEntity
  8
0
  6
Continuous
 62
     0
370
    30
100
AcDbCircle
 10
518.248653
 20
493.1581
 30
0.0
 40
0.699999988079071
100
AcDbArc
 50
180.0
 51
270.0
  0
LINE
  5
DD
330
CA
100
AcDbEntity
  8
0
  6
Continuous
 62
     0
370
     0
100
AcDbLine
 10
529.848653
 20
493.1581
 30
0.0
 11
518.248653
 21
493.1581
 31
0.0
  0
LINE
  5
DE
330
CA
100
AcDbEntity
  8
0
  6
Continuous
 62
     0
370
     0
100
AcDbLine
 10
518.248653
 20
493.1581
 30
0.0
 11
518.248653
 21
492.4581
 31
0.0
  0
LINE
  5
DF
330
CA
100
AcDbEntity
  8
0
  6
Continuous
 62
     0
370
    30
100
AcDbLine
 10
529.848653
 20
492.4581
 30
0.0
 11
518.248653
 21
492.4581
 31
0.0
  0
LINE
  5
E0
330
CA
100
AcDbEntity
  8
0
  6
Continuous
 62
     0
370
     0
100
AcDbLine
 10
529.848653
 20
493.1581
 30
0.0
 11
529.848653
 21
492.4581
 31
0.0
  0
LINE
  5
E1
330
CA
100
AcDbEntity
  8
0
  6
Continuous
 62
     0
370
     0
100
AcDbLine
 10
518.248653
 20
493.9581
 30
0.0
 11
517.548653
 21
493.9581
 31
0.0
  0
LINE
  5
E2
330
CA
100
AcDbEntity
  8
0
  6
Continuous
 62
     0
370
    30
100
AcDbLine
 10
517.548653
 20
493.1581
 30
0.0
 11
517.548653
 21
493.9581
 31
0.0
  0
LINE
  5
E3
330
CA
100
AcDbEntity
  8
0
  6
Continuous
 62
     0
370
     0
100
AcDbLine
 10
518.248653
 20
493.1581
 30
0.0
 11
517.548653
 21
493.1581
 31
0.0
  0
LINE
  5
E4
330
CA
100
AcDbEntity
  8
0
  6
Continuous
 62
     0
370
     0
100
AcDbLine
 10
518.248653
 20
493.1581
 30
0.0
 11
518.248653
 21
493.9581
 31
0.0
  0
ARC
  5
E5
330
CA
100
AcDbEntity
  8
0
  6
Continuous
 62
     0
370
    30
100
AcDbCircle
 10
529.848653
 20
493.1581
 30
0.0
 40
0.6999999880790782
100
AcDbArc
 50
270.0
 51
0.0
  0
LINE
  5
E6
330
CA
100
AcDbEntity
  8
0
  6
Continuous
 62
     0
370
     0
100
AcDbLine
 10
529.848653
 20
493.958098
 30
0.0
 11
529.848653
 21
493.1581
 31
0.0
  0
LINE
  5
E7
330
CA
100
AcDbEntity
  8
0
  6
Continuous
 62
     0
370
     0
100
AcDbLine
 10
529.848653
 20
493.1581
 30
0.0
 11
530.548653
 21
493.1581
 31
0.0
  0
LINE
  5
E8
330
CA
100
AcDbEntity
  8
0
  6
Continuous
 62
     0
370
    30
100
AcDbLine
 10
530.548653
 20
493.9581
 30
0.0
 11
530.548653
 21
493.1581
 31
0.0
  0
LINE
  5
E9
330
CA
100
AcDbEntity
  8
0
  6
Continuous
 62
     0
370
     0
100
AcDbLine
 10
529.848653
 20
493.9581
 30
0.0
 11
530.548653
 21
493.9581
 31
0.0
  0
LINE
  5
EA
330
CA
100
AcDbEntity
  8
0
  6
Continuous
 62
     0
370
     0
100
AcDbLine
 10
532.548653
 20
492.458102
 30
0.0
 11
532.548653
 21
493.158101
 31
0.0
  0
LINE
  5
EB
330
CA
100
AcDbEntity
  8
0
  6
Continuous
 62
     0
370
    30
100
AcDbLine
 10
558.348646
 20
492.458102
 30
0.0
 11
532.548653
 21
492.458102
 31
0.0
  0
LINE
  5
EC
330
CA
100
AcDbEntity
  8
0
  6
Continuous
 62
     0
370
     0
100
AcDbLine
 10
558.348646
 20
492.458102
 30
0.0
 11
558.348646
 21
493.158101
 31
0.0
  0
LINE
  5
ED
330
CA
100
AcDbEntity
  8
0
  6
Continuous
 62
     0
370
     0
100
AcDbLine
 10
558.348646
 20
493.158101
 30
0.0
 11
532.548653
 21
493.158101
 31
0.0
  0
ARC
  5
EE
330
CA
100
AcDbEntity
  8
0
  6
Continuous
 62
     0
370
    30
100
AcDbCircle
 10
558.348646
 20
493.158101
 30
0.0
 40
0.699999988079071
100
AcDbArc
 50
270.0
 51
0.0
  0
LINE
  5
EF
330
CA
100
AcDbEntity
  8
0
  6
Continuous
 62
     0
370
     0
100
AcDbLine
 10
559.048646
 20
493.958102
 30
0.0
 11
558.348646
 21
493.958102
 31
0.0
  0
LINE
  5
F0
330
CA
100
AcDbEntity
  8
0
  6
Continuous
 62
     0
370
     0
100
AcDbLine
 10
558.348646
 20
493.158101
 30
0.0
 11
558.348646
 21
493.958101
 31
0.0
  0
LINE
  5
F1
330
CA
100
AcDbEntity
  8
0
  6
Continuous
 62
     0
370
     0
100
AcDbLine
 10
559.048646
 20
493.158101
 30
0.0
 11
558.348646
 21
493.158101
 31
0.0
  0
LINE
  5
F2
330
CA
100
AcDbEntity
  8
0
  6
Continuous
 62
     0
370
    30
100
AcDbLine
 10
559.048646
 20
493.158101
 30
0.0
 11
559.048646
 21
493.958102
 31
0.0
  0
LINE
  5
F3
330
CA
100
AcDbEntity
  8
0
  6
Continuous
 62
     0
370
     0
100
AcDbLine
 10
515.548653
 20
493.158101
 30
0.0
 11
489.748646
 21
493.158101
 31
0.0
  0
LINE
  5
F4
330
CA
100
AcDbEntity
  8
0
  6
Continuous
 62
     0
370
     0
100
AcDbLine
 10
489.748646
 20
492.458102
 30
0.0
 11
489.748646
 21
493.158101
 31
0.0
  0
LINE
  5
F5
330
CA
100
AcDbEntity
  8
0
  6
Continuous
 62
     0
370
    30
100
AcDbLine
 10
515.548653
 20
492.458102
 30
0.0
 11
489.748646
 21
492.458102
 31
0.0
  0
LINE
  5
F6
330
CA
100
AcDbEntity
  8
0
  6
Continuous
 62
     0
370
     0
100
AcDbLine
 10
515.548653
 20
493.158101
 30
0.0
 11
515.548653
 21
492.458102
 31
0.0
  0
ARC
  5
F7
330
CA
100
AcDbEntity
  8
0
  6
Continuous
 62
     0
370
    30
100
AcDbCircle
 10
489.748646
 20
493.158101
 30
0.0
 40
0.6999999880790782
100
AcDbArc
 50
180.0
 51
270.0
  0
LINE
  5
F8
330
CA
100
AcDbEntity
  8
0
  6
Continuous
 62
     0
370
    30
100
AcDbLine
 10
489.048646
 20
493.158101
 30
0.0
 11
489.048646
 21
493.958102
 31
0.0
  0
LINE
  5
F9
330
CA
100
AcDbEntity
  8
0
  6
Continuous
 62
     0
370
     0
100
AcDbLine
 10
489.048646
 20
493.158101
 30
0.0
 11
489.748646
 21
493.158101
 31
0.0
  0
LINE
  5
FA
330
CA
100
AcDbEntity
  8
0
  6
Continuous
 62
     0
370
     0
100
AcDbLine
 10
489.748646
 20
493.158101
 30
0.0
 11
489.748646
 21
493.958101
 31
0.0
  0
LINE
  5
FB
330
CA
100
AcDbEntity
  8
0
  6
Continuous
 62
     0
370
     0
100
AcDbLine
 10
489.048646
 20
493.958102
 30
0.0
 11
489.748646
 21
493.958102
 31
0.0
  0
LINE
  5
FC
330
CA
100
AcDbEntity
  8
0
  6
Continuous
 62
     0
370
    30
100
AcDbLine
 10
532.548653
 20
492.458101
 30
0.0
 11
529.848653
 21
492.458101
 31
0.0
  0
LINE
  5
FD
330
CA
100
AcDbEntity
  8
0
  6
Continuous
 62
     0
370
    30
100
AcDbLine
 10
515.548653
 20
492.458101
 30
0.0
 11
518.248653
 21
492.458101
 31
0.0
  0
LINE
  5
FE
330
CA
100
AcDbEntity
  8
0
  6
Continuous
 62
     0
370
     0
100
AcDbLine
 10
515.548653
 20
493.958101
 30
0.0
 11
489.748646
 21
493.958101
 31
0.0
  0
LINE
  5
FF
330
CA
100
AcDbEntity
  8
0
  6
Continuous
 62
     0
370
     0
100
AcDbLine
 10
515.548653
 20
493.158101
 30
0.0
 11
515.548653
 21
493.958101
 31
0.0
  0
LINE
  5
100
330
CA
100
AcDbEntity
  8
0
  6
Continuous
 62
     0
370
     0
100
AcDbLine
 10
515.548653
 20
493.158101
 30
0.0
 11
517.548653
 21
493.158101
 31
0.0
  0
LINE
  5
101
330
CA
100
AcDbEntity
  8
0
  6
Continuous
 62
     0
370
     0
100
AcDbLine
 10
558.348646
 20
493.958101
 30
0.0
 11
532.548653
 21
493.958101
 31
0.0
  0
LINE
  5
102
330
CA
100
AcDbEntity
  8
0
  6
Continuous
 62
     0
370
     0
100
AcDbLine
 10
532.548653
 20
493.958101
 30
0.0
 11
532.548653
 21
493.158101
 31
0.0
  0
LINE
  5
103
330
CA
100
AcDbEntity
  8
0
  6
Continuous
 62
     0
370
     0
100
AcDbLine
 10
532.548653
 20
493.158101
 30
0.0
 11
530.548653
 21
493.158101
 31
0.0
  0
SPLINE
  5
104
330
CA
100
AcDbEntity
  8
0
  6
Continuous
 62
     0
370
     0
100
AcDbSpline
210
0.0
220
0.0
230
1.0
 70
     8
 71
     3
 72
    27
 73
    23
 74
     0
 42
0.000000001
 43
0.0
 40
0.0
 40
0.0
 40
0.0
 40
0.0
 40
1.029141359914143
 40
1.899953279841495
 40
2.770765199768846
 40
3.799906559682989
 40
4.987377359583923
 40
5.699859839524484
 40
6.49150703945844
 40
6.887330639425417
 40
7.283154239392395
 40
7.599813119365979
 40
7.916471999339561
 40
8.31229559930654
 40
8.708119199273517
 40
9.499766399207472
 40
10.21224887914803
 40
11.39971967904897
 40
12.4288610389631
 40
13.29967295889046
 40
14.17048487881781
 40
15.19962623873196
 40
15.19962623873196
 40
15.19962623873196
 40
15.19962623873196
 10
518.2486533077549
 20
493.9581002243557
 30
0.0
 10
518.2486533077549
 20
494.1808198888594
 30
0.0
 10
518.3052585057217
 20
494.6086805389775
 30
0.0
 10
518.580564172281
 20
495.26628609438
 30
0.0
 10
519.0603198019742
 20
495.9287851053713
 30
0.0
 10
519.8519560901456
 20
496.6207559581508
 30
0.0
 10
520.8454262032402
 20
497.1503632413416
 30
0.0
 10
521.8661953931903
 20
497.4922744026892
 30
0.0
 10
522.6142821643894
 20
497.6483921432401
 30
0.0
 10
523.2336556681778
 20
497.7239464851235
 30
0.0
 10
523.6618927273809
 20
497.7527121633858
 30
0.0
 10
524.0486456852074
 20
497.7605462221452
 30
0.0
 10
524.4353986760144
 20
497.752712163388
 30
0.0
 10
524.8636358563749
 20
497.7239464837951
 30
0.0
 10
525.4830096788502
 20
497.6483921346651
 30
0.0
 10
526.231097110515
 20
497.4922743692566
 30
0.0
 10
527.2518677569907
 20
497.1503631121651
 30
0.0
 10
528.245340150414
 20
496.6207555903836
 30
0.0
 10
529.0369794160284
 20
495.9287842090569
 30
0.0
 10
529.5167377774848
 20
495.266284537255
 30
0.0
 10
529.7920459264649
 20
494.6086783490101
 30
0.0
 10
529.8486525763996
 20
494.1808175152898
 30
0.0
 10
529.8486533316008
 20
493.958097850785
 30
0.0
  0
SPLINE
  5
105
330
CA
100
AcDbEntity
  8
0
  6
Continuous
 62
     0
370
    30
100
AcDbSpline
210
0.0
220
0.0
230
1.0
 70
     8
 71
     3
 72
    41
 73
    37
 74
     0
 42
0.000000001
 43
0.0
 40
0.0
 40
0.0
 40
0.0
 40
0.0
 40
0.6219021576259569
 40
1.243804315251914
 40
1.865706472877871
 40
2.487608630503828
 40
3.109510788129786
 40
3.731412945755742
 40
4.353315103381699
 40
4.975217261007655
 40
5.597119418633612
 40
6.219021576259571
 40
6.840923733885527
 40
7.462825891511484
 40
7.773776970324461
 40
8.084728049137441
 40
8.395679127950421
 40
8.55115466735691
 40
8.706630206763398
 40
8.862105746169885
 40
9.017581285576377
 40
9.328532364389355
 40
9.639483443202334
 40
9.95043452201531
 40
10.57233667964127
 40
11.19423883726722
 40
11.81614099489318
 40
12.43804315251914
 40
13.0599453101451
 40
13.68184746777105
 40
14.30374962539701
 40
14.92565178302297
 40
15.54755394064892
 40
16.16945609827488
 40
16.79135825590084
 40
17.4132604135268
 40
17.4132604135268
 40
17.4132604135268
 40
17.4132604135268
 10
517.5486533196759
 20
493.9581002549536
 30
0.0
 10
517.5486533196759
 20
494.1096243321941
 30
0.0
 10
517.5707939914485
 20
494.4190584555033
 30
0.0
 10
517.6781838234358
 20
494.895779897621
 30
0.0
 10
517.8658098472849
 20
495.3769177906281
 30
0.0
 10
518.1372600512029
 20
495.8530139829935
 30
0.0
 10
518.4930201345103
 20
496.3137603671823
 30
0.0
 10
518.9300510061364
 20
496.7486211762412
 30
0.0
 10
519.4416903205963
 20
497.1475598161527
 30
0.0
 10
520.0179297556707
 20
497.5017748211704
 30
0.0
 10
520.6460564620603
 20
497.8043375219954
 30
0.0
 10
521.3115725486781
 20
498.0506347385483
 30
0.0
 10
521.9992624397313
 20
498.2385652146467
 30
0.0
 10
522.5783996035273
 20
498.3468066656926
 30
0.0
 10
523.038534044316
 20
498.4056405934006
 30
0.0
 10
523.380562735157
 20
498.4363853696707
 30
0.0
 10
523.6617583075529
 20
498.4513206291758
 30
0.0
 10
523.8839984261269
 20
498.4571790185671
 30
0.0
 10
524.0486456894703
 20
498.4586141325228
 30
0.0
 10
524.2132929576798
 20
498.4571790185671
 30
0.0
 10
524.4355330961184
 20
498.4513206291758
 30
0.0
 10
524.716728719157
 20
498.4363853696707
 30
0.0
 10
525.0587575142479
 20
498.4056405934006
 30
0.0
 10
525.5188921545316
 20
498.3468066656926
 30
0.0
 10
526.0980296853544
 20
498.2385652146467
 30
0.0
 10
526.785720213645
 20
498.0506347385483
 30
0.0
 10
527.4512371354112
 20
497.8043375219954
 30
0.0
 10
528.0793648677351
 20
497.5017748211704
 30
0.0
 10
528.6556055038872
 20
497.1475598161527
 30
0.0
 10
529.1672461710742
 20
496.7486211762412
 30
0.0
 10
529.6042785172331
 20
496.3137603671823
 30
0.0
 10
529.9600401628463
 20
495.8530139829935
 30
0.0
 10
530.2314919811186
 20
495.3769177906281
 30
0.0
 10
530.4191196364175
 20
494.895779897621
 30
0.0
 10
530.5265110848791
 20
494.4190584555033
 30
0.0
 10
530.5486528058857
 20
494.1096243321941
 30
0.0
 10
530.5486533196759
 20
493.9581002549536
 30
0.0
  0
LINE
  5
106
330
CA
100
AcDbEntity
  8
0
  6
Continuous
 62
     0
370
    30
100
AcDbLine
 10
559.048646
 20
493.958102
 30
0.0
 11
559.048646
 21
497.758137
 31
0.0
  0
LINE
  5
107
330
CA
100
AcDbEntity
  8
0
  6
Continuous
 62
     0
370
     0
100
AcDbLine
 10
558.348646
 20
493.958101
 30
0.0
 11
558.348646
 21
498.458137
 31
0.0
  0
LINE
  5
108
330
CA
100
AcDbEntity
  8
0
  6
Continuous
 62
     0
370
    30
100
AcDbLine
 10
489.048646
 20
493.958102
 30
0.0
 11
489.048646
 21
497.758137
 31
0.0
  0
LINE
  5
109
330
CA
100
AcDbEntity
  8
0
  6
Continuous
 62
     0
370
     0
100
AcDbLine
 10
489.748646
 20
493.958101
 30
0.0
 11
489.748646
 21
498.458137
 31
0.0
  0
LINE
  5
10A
330
CA
100
AcDbEntity
  8
0
  6
Continuous
 62
     0
370
    30
100
AcDbLine
 10
531.048646
 20
521.158127
 30
0.0
 11
531.048646
 21
500.458177
 31
0.0
  0
ARC
  5
10B
330
CA
100
AcDbEntity
  8
0
  6
Continuous
 62
     0
370
    30
100
AcDbCircle
 10
558.348643
 20
497.758134
 30
0.0
 40
0.7000031410629404
100
AcDbArc
 50
0.000662
 51
89.999742
  0
ARC
  5
10C
330
CA
100
AcDbEntity
  8
0
  6
Continuous
 62
     0
370
    30
100
AcDbCircle
 10
489.748649
 20
497.758134
 30
0.0
 40
0.7000031410619136
100
AcDbArc
 50
90.000258
 51
179.999338
  0
LINE
  5
10D
330
CA
100
AcDbEntity
  8
0
  6
Continuous
 62
     0
370
    30
100
AcDbLine
 10
515.048646
 20
498.458137
 30
0.0
 11
489.748646
 21
498.458137
 31
0.0
  0
LINE
  5
10E
330
CA
100
AcDbEntity
  8
0
  6
Continuous
 62
     0
370
    30
100
AcDbLine
 10
533.048655
 20
498.458137
 30
0.0
 11
558.348646
 21
498.458137
 31
0.0
  0
ARC
  5
10F
330
CA
100
AcDbEntity
  8
0
  6
Continuous
 62
     0
370
    30
100
AcDbCircle
 10
533.04874
 20
500.458329
 30
0.0
 40
2.000191586200526
100
AcDbArc
 50
180.007794
 51
269.997289
  0
LINE
  5
110
330
CA
100
AcDbEntity
  8
0
  6
Continuous
 62
     0
370
    30
100
AcDbLine
 10
507.548646
 20
521.158127
 30
0.0
 11
540.548646
 21
521.158127
 31
0.0
  0
LINE
  5
111
330
CA
100
AcDbEntity
  8
0
  6
Continuous
 62
     0
370
    30
100
AcDbLine
 10
540.548646
 20
541.158127
 30
0.0
 11
540.548646
 21
521.158127
 31
0.0
  0
LINE
  5
112
330
CA
100
AcDbEntity
  8
0
  6
Continuous
 62
     0
370
    30
100
AcDbLine
 10
507.548646
 20
541.158127
 30
0.0
 11
507.548646
 21
521.158127
 31
0.0
  0
LINE
  5
113
330
CA
100
AcDbEntity
  8
0
  6
Continuous
 62
     0
370
    30
100
AcDbLine
 10
494.048646
 20
541.158127
 30
0.0
 11
545.829077
 21
541.158127
 31
0.0
  0
LINE
  5
114
330
CA
100
AcDbEntity
  8
0
  6
Continuous
 62
     0
370
    30
100
AcDbLine
 10
545.829077
 20
541.158127
 30
0.0
 11
554.048646
 21
541.158127
 31
0.0
  0
LINE
  5
115
330
CA
100
AcDbEntity
  8
0
  6
Continuous
 62
     0
370
    30
100
AcDbLine
 10
554.048646
 20
541.158127
 30
0.0
 11
554.048646
 21
547.958132
 31
0.0
  0
LINE
  5
116
330
CA
100
AcDbEntity
  8
0
  6
Continuous
 62
     0
370
    30
100
AcDbLine
 10
494.048646
 20
541.158127
 30
0.0
 11
494.048646
 21
547.958132
 31
0.0
  0
LINE
  5
117
330
CA
100
AcDbEntity
  8
0
  6
Continuous
 62
     0
370
    30
100
AcDbLine
 10
494.048646
 20
547.958132
 30
0.0
 11
554.048646
 21
547.958132
 31
0.0
  0
ENDBLK
  5
119
330
CA
100
AcDbEntity
  8
0
100
AcDbBlockEnd
  0
BLOCK
  5
16A
330
11B
100
AcDbEntity
  8
0
100
AcDbBlockBegin
  2
c
 70
     0
 10
1048.730896
 20
361.123352
 30
0.0
  3
c
  1

  0
SPLINE
  5
11C
330
11B
100
AcDbEntity
  8
0
  6
Continuous
 62
     0
370
     0
100
AcDbSpline
210
0.0
220
0.0
230
1.0
 70
     8
 71
     3
 72
    12
 73
     8
 74
     0
 42
0.000000001
 43
0.0
 40
0.0
 40
0.0
 40
0.0
 40
0.0
 40
0.111109389663755
 40
0.333328168991265
 40
0.666661502324595
 40
0.8888871674415318
 40
1.0
 40
1.0
 40
1.0
 40
1.0
 10
783.8398219412966
 20
674.9275281768837
 30
0.0
 10
783.8081381494561
 20
674.991613627871
 30
0.0
 10
783.7020403775116
 20
675.1838704745498
 30
0.0
 10
783.4246208189506
 20
675.5642675104405
 30
0.0
 10
783.0056001678836
 20
675.9547700610137
 30
0.0
 10
782.5974296516906
 20
676.2133010286863
 30
0.0
 10
782.3911359416619
 20
676.3121720745838
 30
0.0
 10
782.3223718990562
 20
676.3416971737971
 30
0.0
  0
SPLINE
  5
11D
330
11B
100
AcDbEntity
  8
0
  6
Continuous
 62
     0
370
     0
100
AcDbSpline
210
0.0
220
0.0
230
1.0
 70
     8
 71
     3
 72
    12
 73
     8
 74
     0
 42
0.000000001
 43
0.0
 40
1.036635856510563
 40
1.036635856510563
 40
1.036635856510563
 40
1.036635856510563
 40
1.110310092514155
 40
2.188994991329097
 40
4.177157147560492
 40
5.670932717091721
 40
7.102293978971531
 40
7.102293978971531
 40
7.102293978971531
 40
7.102293978971531
 10
782.3224757411274
 20
676.34157035242
 30
0.0
 10
782.3067479272721
 20
676.3273254598588
 30
0.0
 10
782.0617650024869
 20
676.1051377735914
 30
0.0
 10
781.4377000571217
 20
675.5269251240677
 30
0.0
 10
780.7214157214596
 20
674.8379482500748
 30
0.0
 10
780.2577262719498
 20
674.384144102936
 30
0.0
 10
780.163981552593
 20
674.2917785086933
 30
0.0
 10
780.1638230641541
 20
674.291585546586
 30
0.0
  0
SPLINE
  5
11E
330
11B
100
AcDbEntity
  8
0
  6
Continuous
 62
     0
370
     0
100
AcDbSpline
210
0.0
220
0.0
230
1.0
 70
     8
 71
     3
 72
    16
 73
    12
 74
     0
 42
0.000000001
 43
0.0
 40
1.062730039620169
 40
1.062730039620169
 40
1.062730039620169
 40
1.062730039620169
 40
1.298844020412494
 40
3.00647762785051
 40
3.878810137768495
 40
4.283418985048317
 40
5.569278828870885
 40
6.279170434890743
 40
6.951151654700984
 40
7.169019754993681
 40
7.282736434396779
 40
7.282736434396779
 40
7.282736434396779
 40
7.282736434396779
 10
783.8398034761697
 20
674.9275264576069
 30
0.0
 10
783.8040890049002
 20
674.8702830327968
 30
0.0
 10
783.5125222241113
 20
674.4031278023592
 30
0.0
 10
783.1206168544188
 20
673.7799555121137
 30
0.0
 10
782.7775933151888
 20
673.2422367328488
 30
0.0
 10
782.5215307523144
 20
672.8431236457611
 30
0.0
 10
782.3338504895853
 20
672.5530542369511
 30
0.0
 10
782.209462764149
 20
672.3616789667899
 30
0.0
 10
782.172202395417
 20
672.3044750585816
 30
0.0
 10
782.1644010874369
 20
672.2924993384427
 30
0.0
 10
782.1637427440413
 20
672.2914887775844
 30
0.0
 10
782.1637427882072
 20
672.2914888539681
 30
0.0
  0
SPLINE
  5
11F
330
11B
100
AcDbEntity
  8
0
  6
Continuous
 62
     0
370
     0
100
AcDbSpline
210
0.0
220
0.0
230
1.0
 70
     8
 71
     3
 72
    12
 73
     8
 74
     0
 42
0.000000001
 43
0.0
 40
7.102250363851074
 40
7.102250363851074
 40
7.102250363851074
 40
7.102250363851074
 40
7.413623982659933
 40
9.117775860919043
 40
10.62916237558552
 40
12.27383619275323
 40
13.16794967043762
 40
13.16794967043762
 40
13.16794967043762
 40
13.16794967043762
 10
780.1638230493471
 20
688.2913917648771
 30
0.0
 10
780.1637880514334
 20
688.2914342624213
 30
0.0
 10
780.1775644364905
 20
688.2779236982358
 30
0.0
 10
780.3618365959908
 20
688.0962987782934
 30
0.0
 10
780.9308856528189
 20
687.54213431973
 30
0.0
 10
781.6173561397982
 20
686.8883343162772
 30
0.0
 10
782.1315821521841
 20
686.4139238958821
 30
0.0
 10
782.32248145532
 20
686.2410500841472
 30
0.0
  0
SPLINE
  5
120
330
11B
100
AcDbEntity
  8
0
  6
Continuous
 62
     0
370
     0
100
AcDbSpline
210
0.0
220
0.0
230
1.0
 70
     8
 71
     3
 72
    12
 73
     8
 74
     0
 42
0.000000001
 43
0.0
 40
0.0
 40
0.0
 40
0.0
 40
0.0
 40
0.111111241458455
 40
0.3333337243753641
 40
0.6666670577086921
 40
0.8888890192362308
 40
1.0
 40
1.0
 40
1.0
 40
1.0
 10
783.8398180536371
 20
687.655452494713
 30
0.0
 10
783.8081407521904
 20
687.5913601757775
 30
0.0
 10
783.7020635553845
 20
687.3990832563577
 30
0.0
 10
783.4246932668392
 20
687.0186525602309
 30
0.0
 10
783.0057381268679
 20
686.6281216612375
 30
0.0
 10
782.5976243992577
 20
686.3695752632594
 30
0.0
 10
782.3913576535612
 20
686.2706991924206
 30
0.0
 10
782.3226022170711
 20
686.2411726185269
 30
0.0
  0
SPLINE
  5
121
330
11B
100
AcDbEntity
  8
0
  6
Continuous
 62
     0
370
     0
100
AcDbSpline
210
0.0
220
0.0
230
1.0
 70
     8
 71
     3
 72
    16
 73
    12
 74
     0
 42
0.000000001
 43
0.0
 40
7.282720684980313
 40
7.282720684980313
 40
7.282720684980313
 40
7.282720684980313
 40
7.384513118866292
 40
7.602217266638417
 40
8.050191807642802
 40
8.86526448578363
 40
9.587637740828352
 40
10.8995549181586
 40
11.91965418861641
 40
13.26974015494066
 40
13.50272488721378
 40
13.50272488721378
 40
13.50272488721378
 40
13.50272488721378
 10
782.1637427881435
 20
690.2914884410438
 30
0.0
 10
782.1637427953507
 20
690.2914884267954
 30
0.0
 10
782.164310755383
 20
690.2906165733386
 30
0.0
 10
782.169958608954
 20
690.2819471430124
 30
0.0
 10
782.1980154787157
 20
690.2388686740674
 30
0.0
 10
782.2786545875049
 20
690.1149159845536
 30
0.0
 10
782.4645921418207
 20
689.828003693603
 30
0.0
 10
782.7542567583183
 20
689.3781122088893
 30
0.0
 10
783.199666241446
 20
688.6777607749427
 30
0.0
 10
783.5670887681997
 20
688.0924372768142
 30
0.0
 10
783.8045599772665
 20
687.7119312260074
 30
0.0
 10
783.8397993249143
 20
687.6554473996765
 30
0.0
  0
LINE
  5
122
330
11B
100
AcDbEntity
  8
0
  6
Continuous
 62
     0
370
     0
100
AcDbLine
 10
786.663779
 20
672.791481
 30
0.0
 11
786.663783
 21
674.791481
 31
0.0
  0
SPLINE
  5
123
330
11B
100
AcDbEntity
  8
0
  6
Continuous
 62
     0
370
     0
100
AcDbSpline
210
0.0
220
0.0
230
1.0
 70
     8
 71
     3
 72
    12
 73
     8
 74
     0
 42
0.000000001
 43
0.0
 40
0.0
 40
0.0
 40
0.0
 40
0.0
 40
0.111108038113273
 40
0.33332411433982
 40
0.66665744767315
 40
0.88888581589105
 40
1.0
 40
1.0
 40
1.0
 40
1.0
 10
783.8394884355018
 20
676.2308216037591
 30
0.0
 10
783.8673142496791
 20
676.1984390200853
 30
0.0
 10
783.9422771132483
 20
676.093974564819
 30
0.0
 10
784.0391627645832
 20
675.8422374771063
 30
0.0
 10
784.0392554525893
 20
675.4876084712512
 30
0.0
 10
783.9425209640203
 20
675.1526737821514
 30
0.0
 10
783.8676258834977
 20
674.9838147719544
 30
0.0
 10
783.8398219412966
 20
674.9275281768837
 30
0.0
  0
SPLINE
  5
124
330
11B
100
AcDbEntity
  8
0
  6
Continuous
 62
     0
370
     0
100
AcDbSpline
210
0.0
220
0.0
230
1.0
 70
     8
 71
     3
 72
    12
 73
     8
 74
     0
 42
0.000000001
 43
0.0
 40
0.0
 40
0.0
 40
0.0
 40
0.0
 40
0.652157515117174
 40
1.285081495959968
 40
2.40640929533869
 40
3.54711927326115
 40
4.151709447694246
 40
4.151709447694246
 40
4.151709447694246
 40
4.151709447694246
 10
786.663778423881
 20
672.7914810180594
 30
0.0
 10
786.4874527165343
 20
672.7914816159473
 30
0.0
 10
786.1400956167985
 20
672.8405958289527
 30
0.0
 10
785.513963253595
 20
673.0988503168625
 30
0.0
 10
784.8271955122273
 20
673.6266655616103
 30
0.0
 10
784.2482522507402
 20
674.3086823188087
 30
0.0
 10
783.9409362124436
 20
674.7652956879756
 30
0.0
 10
783.8396993181404
 20
674.9274436353744
 30
0.0
  0
LINE
  5
125
330
11B
100
AcDbEntity
  8
0
  6
Continuous
 62
     0
370
     0
100
AcDbLine
 10
780.163743
 20
681.291489
 30
0.0
 11
782.163743
 21
681.291489
 31
0.0
  0
SPLINE
  5
126
330
11B
100
AcDbEntity
  8
0
  6
Continuous
 62
     0
370
     0
100
AcDbSpline
210
0.0
220
0.0
230
1.0
 70
     8
 71
     3
 72
    11
 73
     7
 74
     0
 42
0.000000001
 43
0.0
 40
0.0
 40
0.0
 40
0.0
 40
0.0
 40
1.883296316188154
 40
3.289825110510949
 40
5.023818361468754
 40
6.068230926565725
 40
6.068230926565725
 40
6.068230926565725
 40
6.068230926565725
 10
780.1637429394865
 20
681.2914886474609
 30
0.0
 10
780.1637429394864
 20
680.6892557714814
 30
0.0
 10
780.304010448046
 20
679.6382530482739
 30
0.0
 10
780.856395153213
 20
678.1756353159747
 30
0.0
 10
781.5419789717132
 20
677.1248813333424
 30
0.0
 10
782.0994343658822
 20
676.5435344252212
 30
0.0
 10
782.3223718990562
 20
676.3416971737971
 30
0.0
  0
SPLINE
  5
127
330
11B
100
AcDbEntity
  8
0
  6
Continuous
 62
     0
370
     0
100
AcDbSpline
210
0.0
220
0.0
230
1.0
 70
     8
 71
     3
 72
    10
 73
     6
 74
     0
 42
0.000000001
 43
0.0
 40
0.0
 40
0.0
 40
0.0
 40
0.0
 40
0.7239316039813539
 40
1.447888680737982
 40
2.171871227611908
 40
2.171871227611908
 40
2.171871227611908
 40
2.171871227611908
 10
783.8394884355018
 20
676.2308216037591
 30
0.0
 10
783.7444514757968
 20
676.3414489979535
 30
0.0
 10
783.4846942011129
 20
676.5065318821528
 30
0.0
 10
782.9450690347761
 20
676.545974537828
 30
0.0
 10
782.5286165637949
 20
676.4303111780808
 30
0.0
 10
782.3223718990562
 20
676.3416971737971
 30
0.0
  0
LINE
  5
128
330
11B
100
AcDbEntity
  8
0
  6
Continuous
 62
     0
370
     0
100
AcDbLine
 10
786.663779
 20
689.791481
 30
0.0
 11
786.663779
 21
687.791481
 31
0.0
  0
SPLINE
  5
129
330
11B
100
AcDbEntity
  8
0
  6
Continuous
 62
     0
370
     0
100
AcDbSpline
210
0.0
220
0.0
230
1.0
 70
     8
 71
     3
 72
    13
 73
     9
 74
     0
 42
0.000000001
 43
0.0
 40
1.088573759845575
 40
1.088573759845575
 40
1.088573759845575
 40
1.088573759845575
 40
1.789405597119867
 40
2.507174003888374
 40
3.180442430366806
 40
4.095688222479491
 40
4.601650003097516
 40
5.240023456047296
 40
5.240023456047296
 40
5.240023456047296
 40
5.240023456047296
 10
783.8398168158513
 20
687.6554485468574
 30
0.0
 10
783.9571745140579
 20
687.8435188118117
 30
0.0
 10
784.2089291812433
 20
688.2136338702985
 30
0.0
 10
784.6244635897963
 20
688.7159913212348
 30
0.0
 10
785.1317161658571
 20
689.2021163505473
 30
0.0
 10
785.6432669669855
 20
689.5446585718432
 30
0.0
 10
786.181840889063
 20
689.7486628056341
 30
0.0
 10
786.4911790511296
 20
689.7914810180664
 30
0.0
 10
786.663778423881
 20
689.7914810180664
 30
0.0
  0
SPLINE
  5
12A
330
11B
100
AcDbEntity
  8
0
  6
Continuous
 62
     0
370
     0
100
AcDbSpline
210
0.0
220
0.0
230
1.0
 70
     8
 71
     3
 72
    12
 73
     8
 74
     0
 42
0.000000001
 43
0.0
 40
0.0
 40
0.0
 40
0.0
 40
0.0
 40
0.111109047727821
 40
0.333327143183463
 40
0.6666604765167989
 40
0.8888868255055999
 40
1.0
 40
1.0
 40
1.0
 40
1.0
 10
783.8394941336089
 20
686.3520882953399
 30
0.0
 10
783.8673179289999
 20
686.3844748919016
 30
0.0
 10
783.9422751708686
 20
686.4889511016759
 30
0.0
 10
784.039151863905
 20
686.7407088626137
 30
0.0
 10
784.0392413058078
 20
687.0953562812354
 30
0.0
 10
783.942511119848
 20
687.4303018329747
 30
0.0
 10
783.8676203603318
 20
687.5991646991761
 30
0.0
 10
783.8398180536371
 20
687.655452494713
 30
0.0
  0
SPLINE
  5
12B
330
11B
100
AcDbEntity
  8
0
  6
Continuous
 62
     0
370
     0
100
AcDbSpline
210
0.0
220
0.0
230
1.0
 70
     8
 71
     3
 72
    10
 73
     6
 74
     0
 42
0.000000001
 43
0.0
 40
0.0
 40
0.0
 40
0.0
 40
0.0
 40
0.723768534793083
 40
1.447569395276909
 40
2.171402590894657
 40
2.171402590894657
 40
2.171402590894657
 40
2.171402590894657
 10
783.8394941336089
 20
686.3520882953399
 30
0.0
 10
783.7444444489383
 20
686.2414938806619
 30
0.0
 10
783.4847053253976
 20
686.076462137652
 30
0.0
 10
782.945185940354
 20
686.0370111859894
 30
0.0
 10
782.5288151046825
 20
686.1526059100295
 30
0.0
 10
782.3226022170711
 20
686.2411726185269
 30
0.0
  0
SPLINE
  5
12C
330
11B
100
AcDbEntity
  8
0
  6
Continuous
 62
     0
370
     0
100
AcDbSpline
210
0.0
220
0.0
230
1.0
 70
     8
 71
     3
 72
    12
 73
     8
 74
     0
 42
0.000000001
 43
0.0
 40
1.036846323820207
 40
1.036846323820207
 40
1.036846323820207
 40
1.036846323820207
 40
1.111290277148617
 40
2.190440414270058
 40
4.17929580208464
 40
5.433683420479644
 40
7.104807553753638
 40
7.104807553753638
 40
7.104807553753638
 40
7.104807553753638
 10
782.3226022170711
 20
686.2411726185269
 30
0.0
 10
782.3067158317685
 20
686.2267862523148
 30
0.0
 10
782.0615691796694
 20
686.0025370891277
 30
0.0
 10
781.4373996000606
 20
685.3361696802692
 30
0.0
 10
780.7589286079035
 20
684.220190867977
 30
0.0
 10
780.2740236162035
 20
682.7607644287787
 30
0.0
 10
780.1637429394865
 20
681.8258736089225
 30
0.0
 10
780.1637429394865
 20
681.2914886474609
 30
0.0
  0
LINE
  5
12D
330
11B
100
AcDbEntity
  8
0
  6
Continuous
 62
     0
370
     0
100
AcDbLine
 10
788.163778
 20
689.791481
 30
0.0
 11
787.463778
 21
689.791481
 31
0.0
  0
LINE
  5
12E
330
11B
100
AcDbEntity
  8
0
  6
Continuous
 62
     0
370
    30
100
AcDbLine
 10
788.163778
 20
715.591489
 30
0.0
 11
788.163778
 21
689.791481
 31
0.0
  0
LINE
  5
12F
330
11B
100
AcDbEntity
  8
0
  6
Continuous
 62
     0
370
     0
100
AcDbLine
 10
788.163778
 20
715.591489
 30
0.0
 11
787.463778
 21
715.591489
 31
0.0
  0
LINE
  5
130
330
11B
100
AcDbEntity
  8
0
  6
Continuous
 62
     0
370
     0
100
AcDbLine
 10
787.463778
 20
715.591489
 30
0.0
 11
787.463778
 21
689.791481
 31
0.0
  0
ARC
  5
131
330
11B
100
AcDbEntity
  8
0
  6
Continuous
 62
     0
370
    30
100
AcDbCircle
 10
787.463778
 20
715.591489
 30
0.0
 40
0.699999988079071
100
AcDbArc
 50
0.0
 51
90.0
  0
LINE
  5
132
330
11B
100
AcDbEntity
  8
0
  6
Continuous
 62
     0
370
     0
100
AcDbLine
 10
786.663778
 20
716.291489
 30
0.0
 11
786.663778
 21
715.591489
 31
0.0
  0
LINE
  5
133
330
11B
100
AcDbEntity
  8
0
  6
Continuous
 62
     0
370
     0
100
AcDbLine
 10
787.463778
 20
715.591489
 30
0.0
 11
786.663778
 21
715.591489
 31
0.0
  0
LINE
  5
134
330
11B
100
AcDbEntity
  8
0
  6
Continuous
 62
     0
370
     0
100
AcDbLine
 10
787.463778
 20
716.291489
 30
0.0
 11
787.463778
 21
715.591489
 31
0.0
  0
LINE
  5
135
330
11B
100
AcDbEntity
  8
0
  6
Continuous
 62
     0
370
    30
100
AcDbLine
 10
787.463778
 20
716.291489
 30
0.0
 11
786.663778
 21
716.291489
 31
0.0
  0
ARC
  5
136
330
11B
100
AcDbEntity
  8
0
  6
Continuous
 62
     0
370
    30
100
AcDbCircle
 10
787.463778
 20
646.991489
 30
0.0
 40
0.699999988079071
100
AcDbArc
 50
270.0
 51
360.0
  0
ARC
  5
137
330
11B
100
AcDbEntity
  8
0
  6
Continuous
 62
     0
370
    30
100
AcDbCircle
 10
787.46378
 20
687.091481
 30
0.0
 40
0.6999999880790782
100
AcDbArc
 50
360.0
 51
90.0
  0
LINE
  5
138
330
11B
100
AcDbEntity
  8
0
  6
Continuous
 62
     0
370
     0
100
AcDbLine
 10
787.46378
 20
675.491481
 30
0.0
 11
788.16378
 21
675.491481
 31
0.0
  0
LINE
  5
139
330
11B
100
AcDbEntity
  8
0
  6
Continuous
 62
     0
370
    30
100
AcDbLine
 10
788.16378
 20
675.491481
 30
0.0
 11
788.16378
 21
687.091481
 31
0.0
  0
LINE
  5
13A
330
11B
100
AcDbEntity
  8
0
  6
Continuous
 62
     0
370
     0
100
AcDbLine
 10
787.46378
 20
687.091481
 30
0.0
 11
788.16378
 21
687.091481
 31
0.0
  0
LINE
  5
13B
330
11B
100
AcDbEntity
  8
0
  6
Continuous
 62
     0
370
     0
100
AcDbLine
 10
787.46378
 20
675.491481
 30
0.0
 11
787.46378
 21
687.091481
 31
0.0
  0
LINE
  5
13C
330
11B
100
AcDbEntity
  8
0
  6
Continuous
 62
     0
370
     0
100
AcDbLine
 10
787.46378
 20
687.091481
 30
0.0
 11
786.66378
 21
687.091481
 31
0.0
  0
LINE
  5
13D
330
11B
100
AcDbEntity
  8
0
  6
Continuous
 62
     0
370
     0
100
AcDbLine
 10
787.46378
 20
687.091481
 30
0.0
 11
787.46378
 21
687.791481
 31
0.0
  0
LINE
  5
13E
330
11B
100
AcDbEntity
  8
0
  6
Continuous
 62
     0
370
    30
100
AcDbLine
 10
787.46378
 20
687.791481
 30
0.0
 11
786.66378
 21
687.791481
 31
0.0
  0
LINE
  5
13F
330
11B
100
AcDbEntity
  8
0
  6
Continuous
 62
     0
370
     0
100
AcDbLine
 10
786.66378
 20
687.091481
 30
0.0
 11
786.66378
 21
687.791481
 31
0.0
  0
LINE
  5
140
330
11B
100
AcDbEntity
  8
0
  6
Continuous
 62
     0
370
     0
100
AcDbLine
 10
787.463778
 20
672.791481
 30
0.0
 11
787.463778
 21
646.991489
 31
0.0
  0
LINE
  5
141
330
11B
100
AcDbEntity
  8
0
  6
Continuous
 62
     0
370
     0
100
AcDbLine
 10
788.163778
 20
646.991489
 30
0.0
 11
787.463778
 21
646.991489
 31
0.0
  0
LINE
  5
142
330
11B
100
AcDbEntity
  8
0
  6
Continuous
 62
     0
370
    30
100
AcDbLine
 10
788.163778
 20
672.791481
 30
0.0
 11
788.163778
 21
646.991489
 31
0.0
  0
LINE
  5
143
330
11B
100
AcDbEntity
  8
0
  6
Continuous
 62
     0
370
     0
100
AcDbLine
 10
787.463778
 20
672.791481
 30
0.0
 11
788.163778
 21
672.791481
 31
0.0
  0
LINE
  5
144
330
11B
100
AcDbEntity
  8
0
  6
Continuous
 62
     0
370
    30
100
AcDbLine
 10
787.463778
 20
646.291489
 30
0.0
 11
786.663778
 21
646.291489
 31
0.0
  0
LINE
  5
145
330
11B
100
AcDbEntity
  8
0
  6
Continuous
 62
     0
370
     0
100
AcDbLine
 10
787.463778
 20
646.291489
 30
0.0
 11
787.463778
 21
646.991489
 31
0.0
  0
LINE
  5
146
330
11B
100
AcDbEntity
  8
0
  6
Continuous
 62
     0
370
     0
100
AcDbLine
 10
787.463778
 20
646.991489
 30
0.0
 11
786.663778
 21
646.991489
 31
0.0
  0
LINE
  5
147
330
11B
100
AcDbEntity
  8
0
  6
Continuous
 62
     0
370
     0
100
AcDbLine
 10
786.663778
 20
646.291489
 30
0.0
 11
786.663778
 21
646.991489
 31
0.0
  0
ARC
  5
148
330
11B
100
AcDbEntity
  8
0
  6
Continuous
 62
     0
370
    30
100
AcDbCircle
 10
787.46378
 20
675.491481
 30
0.0
 40
0.699999988079071
100
AcDbArc
 50
270.0
 51
360.0
  0
LINE
  5
149
330
11B
100
AcDbEntity
  8
0
  6
Continuous
 62
     0
370
     0
100
AcDbLine
 10
786.66378
 20
675.491481
 30
0.0
 11
786.66378
 21
674.791481
 31
0.0
  0
LINE
  5
14A
330
11B
100
AcDbEntity
  8
0
  6
Continuous
 62
     0
370
    30
100
AcDbLine
 10
786.66378
 20
674.791481
 30
0.0
 11
787.46378
 21
674.791481
 31
0.0
  0
LINE
  5
14B
330
11B
100
AcDbEntity
  8
0
  6
Continuous
 62
     0
370
     0
100
AcDbLine
 10
787.46378
 20
675.491481
 30
0.0
 11
787.46378
 21
674.791481
 31
0.0
  0
LINE
  5
14C
330
11B
100
AcDbEntity
  8
0
  6
Continuous
 62
     0
370
     0
100
AcDbLine
 10
786.663782
 20
675.491481
 30
0.0
 11
787.46378
 21
675.491481
 31
0.0
  0
LINE
  5
14D
330
11B
100
AcDbEntity
  8
0
  6
Continuous
 62
     0
370
    30
100
AcDbLine
 10
788.163779
 20
675.491481
 30
0.0
 11
788.163779
 21
672.791481
 31
0.0
  0
LINE
  5
14E
330
11B
100
AcDbEntity
  8
0
  6
Continuous
 62
     0
370
    30
100
AcDbLine
 10
788.163779
 20
687.091481
 30
0.0
 11
788.163779
 21
689.791481
 31
0.0
  0
LINE
  5
14F
330
11B
100
AcDbEntity
  8
0
  6
Continuous
 62
     0
370
     0
100
AcDbLine
 10
787.463779
 20
687.791481
 30
0.0
 11
787.463779
 21
689.791481
 31
0.0
  0
LINE
  5
150
330
11B
100
AcDbEntity
  8
0
  6
Continuous
 62
     0
370
     0
100
AcDbLine
 10
787.463778
 20
689.791481
 30
0.0
 11
786.663778
 21
689.791481
 31
0.0
  0
LINE
  5
151
330
11B
100
AcDbEntity
  8
0
  6
Continuous
 62
     0
370
     0
100
AcDbLine
 10
786.663778
 20
715.591489
 30
0.0
 11
786.663778
 21
689.791481
 31
0.0
  0
LINE
  5
152
330
11B
100
AcDbEntity
  8
0
  6
Continuous
 62
     0
370
    30
100
AcDbLine
 10
786.663778
 20
716.291489
 30
0.0
 11
782.863743
 21
716.291489
 31
0.0
  0
LINE
  5
153
330
11B
100
AcDbEntity
  8
0
  6
Continuous
 62
     0
370
     0
100
AcDbLine
 10
786.663778
 20
715.591489
 30
0.0
 11
782.163743
 21
715.591489
 31
0.0
  0
LINE
  5
154
330
11B
100
AcDbEntity
  8
0
  6
Continuous
 62
     0
370
    30
100
AcDbLine
 10
786.663778
 20
646.291489
 30
0.0
 11
782.863743
 21
646.291489
 31
0.0
  0
LINE
  5
155
330
11B
100
AcDbEntity
  8
0
  6
Continuous
 62
     0
370
     0
100
AcDbLine
 10
786.663778
 20
646.991489
 30
0.0
 11
782.163743
 21
646.991489
 31
0.0
  0
LINE
  5
156
330
11B
100
AcDbEntity
  8
0
  6
Continuous
 62
     0
370
     0
100
AcDbLine
 10
786.663778
 20
672.791481
 30
0.0
 11
786.663778
 21
646.991489
 31
0.0
  0
LINE
  5
157
330
11B
100
AcDbEntity
  8
0
  6
Continuous
 62
     0
370
     0
100
AcDbLine
 10
786.663778
 20
672.791481
 30
0.0
 11
787.463778
 21
672.791481
 31
0.0
  0
SPLINE
  5
158
330
11B
100
AcDbEntity
  8
0
  6
Continuous
 62
     0
370
     0
100
AcDbSpline
210
0.0
220
0.0
230
1.0
 70
     8
 71
     3
 72
    27
 73
    23
 74
     0
 42
0.000000001
 43
0.0
 40
0.0
 40
0.0
 40
0.0
 40
0.0
 40
1.029141359914143
 40
1.899953279841494
 40
2.770765199768845
 40
3.799906559682988
 40
4.987377359583922
 40
5.699859839524484
 40
6.491507039458438
 40
6.887330639425416
 40
7.283154239392394
 40
7.599813119365976
 40
7.916471999339558
 40
8.312295599306537
 40
8.708119199273515
 40
9.49976639920747
 40
10.21224887914803
 40
11.39971967904896
 40
12.4288610389631
 40
13.29967295889045
 40
14.17048487881781
 40
15.19962623873195
 40
15.19962623873195
 40
15.19962623873195
 40
15.19962623873195
 10
786.663779669656
 20
687.0914810299873
 30
0.0
 10
786.4410600051523
 20
687.0914810299873
 30
0.0
 10
786.0131993550342
 20
687.0348758320206
 30
0.0
 10
785.3555937996318
 20
686.7595701654611
 30
0.0
 10
784.6930947886406
 20
686.279814535768
 30
0.0
 10
784.001123935861
 20
685.4881782475966
 30
0.0
 10
783.4715166526702
 20
684.4947081345019
 30
0.0
 10
783.1296054913225
 20
683.473938944552
 30
0.0
 10
782.9734877507716
 20
682.7258521733529
 30
0.0
 10
782.8979334088883
 20
682.1064786695645
 30
0.0
 10
782.869167730626
 20
681.6782416103614
 30
0.0
 10
782.8613336718665
 20
681.2914886525349
 30
0.0
 10
782.8691677306238
 20
680.9047356617278
 30
0.0
 10
782.8979334102166
 20
680.4764984813673
 30
0.0
 10
782.9734877593467
 20
679.8571246588921
 30
0.0
 10
783.1296055247551
 20
679.1090372272273
 30
0.0
 10
783.4715167818467
 20
678.0882665807515
 30
0.0
 10
784.0011243036281
 20
677.0947941873281
 30
0.0
 10
784.6930956849549
 20
676.3031549217138
 30
0.0
 10
785.3555953567567
 20
675.8233965602574
 30
0.0
 10
786.0132015450015
 20
675.5480884112774
 30
0.0
 10
786.4410623787219
 20
675.4914817613427
 30
0.0
 10
786.6637820432268
 20
675.4914810061415
 30
0.0
  0
SPLINE
  5
159
330
11B
100
AcDbEntity
  8
0
  6
Continuous
 62
     0
370
    30
100
AcDbSpline
210
0.0
220
0.0
230
1.0
 70
     8
 71
     3
 72
    41
 73
    37
 74
     0
 42
0.000000001
 43
0.0
 40
0.0
 40
0.0
 40
0.0
 40
0.0
 40
0.6219021576259569
 40
1.243804315251913
 40
1.86570647287787
 40
2.487608630503826
 40
3.109510788129783
 40
3.73141294575574
 40
4.353315103381695
 40
4.975217261007653
 40
5.597119418633609
 40
6.219021576259564
 40
6.84092373388552
 40
7.462825891511478
 40
7.773776970324458
 40
8.084728049137436
 40
8.395679127950412
 40
8.551154667356904
 40
8.706630206763391
 40
8.86210574616988
 40
9.017581285576368
 40
9.32853236438935
 40
9.639483443202327
 40
9.950434522015305
 40
10.57233667964126
 40
11.19423883726722
 40
11.81614099489317
 40
12.43804315251913
 40
13.05994531014509
 40
13.68184746777104
 40
14.303749625397
 40
14.92565178302296
 40
15.54755394064892
 40
16.16945609827487
 40
16.79135825590082
 40
17.41326041352678
 40
17.41326041352678
 40
17.41326041352678
 40
17.41326041352678
 10
786.663779639058
 20
687.7914810180664
 30
0.0
 10
786.5122555618176
 20
687.7914810180664
 30
0.0
 10
786.2028214385084
 20
687.7693403462938
 30
0.0
 10
785.7260999963906
 20
687.6619505143065
 30
0.0
 10
785.2449621033836
 20
687.4743244904573
 30
0.0
 10
784.7688659110182
 20
687.2028742865393
 30
0.0
 10
784.3081195268294
 20
686.847114203232
 30
0.0
 10
783.8732587177706
 20
686.4100833316057
 30
0.0
 10
783.474320077859
 20
685.898444017146
 30
0.0
 10
783.1201050728414
 20
685.3222045820715
 30
0.0
 10
782.8175423720163
 20
684.694077875682
 30
0.0
 10
782.5712451554634
 20
684.028561789064
 30
0.0
 10
782.3833146793652
 20
683.3408718980108
 30
0.0
 10
782.2750732283191
 20
682.761734734215
 30
0.0
 10
782.2162393006112
 20
682.3016002934262
 30
0.0
 10
782.185494524341
 20
681.9595716025851
 30
0.0
 10
782.1705592648359
 20
681.6783760301894
 30
0.0
 10
782.1647008754446
 20
681.4561359116153
 30
0.0
 10
782.1632657614889
 20
681.291488648272
 30
0.0
 10
782.1647008754446
 20
681.1268413800625
 30
0.0
 10
782.1705592648359
 20
680.9046012416238
 30
0.0
 10
782.185494524341
 20
680.6234056185851
 30
0.0
 10
782.2162393006112
 20
680.2813768234943
 30
0.0
 10
782.2750732283191
 20
679.8212421832106
 30
0.0
 10
782.3833146793651
 20
679.2421046523879
 30
0.0
 10
782.5712451554634
 20
678.5544141240971
 30
0.0
 10
782.8175423720163
 20
677.8888972023309
 30
0.0
 10
783.1201050728414
 20
677.2607694700071
 30
0.0
 10
783.474320077859
 20
676.684528833855
 30
0.0
 10
783.8732587177707
 20
676.172888166668
 30
0.0
 10
784.3081195268295
 20
675.7358558205092
 30
0.0
 10
784.7688659110182
 20
675.3800941748959
 30
0.0
 10
785.2449621033836
 20
675.1086423566237
 30
0.0
 10
785.7260999963908
 20
674.9210147013248
 30
0.0
 10
786.2028214385084
 20
674.8136232528632
 30
0.0
 10
786.5122555618177
 20
674.7914815318566
 30
0.0
 10
786.663779639058
 20
674.7914810180664
 30
0.0
  0
LINE
  5
15A
330
11B
100
AcDbEntity
  8
0
  6
Continuous
 62
     0
370
     0
100
AcDbLine
 10
787.463779
 20
674.791481
 30
0.0
 11
787.463779
 21
672.791481
 31
0.0
  0
LINE
  5
15B
330
11B
100
AcDbEntity
  8
0
  6
Continuous
 62
     0
370
    30
100
AcDbLine
 10
759.463753
 20
674.291489
 30
0.0
 11
780.163703
 21
674.291489
 31
0.0
  0
LINE
  5
15C
330
11B
100
AcDbEntity
  8
0
  6
Continuous
 62
     0
370
    30
100
AcDbLine
 10
759.463753
 20
688.291489
 30
0.0
 11
780.163703
 21
688.291489
 31
0.0
  0
ARC
  5
15D
330
11B
100
AcDbEntity
  8
0
  6
Continuous
 62
     0
370
    30
100
AcDbCircle
 10
782.863746
 20
715.591486
 30
0.0
 40
0.7000031410595617
100
AcDbArc
 50
90.000662
 51
179.999742
  0
ARC
  5
15E
330
11B
100
AcDbEntity
  8
0
  6
Continuous
 62
     0
370
    30
100
AcDbCircle
 10
782.863746
 20
646.991492
 30
0.0
 40
0.7000031410631429
100
AcDbArc
 50
180.000258
 51
269.999338
  0
LINE
  5
15F
330
11B
100
AcDbEntity
  8
0
  6
Continuous
 62
     0
370
    30
100
AcDbLine
 10
782.163743
 20
672.29148
 30
0.0
 11
782.163743
 21
646.991489
 31
0.0
  0
LINE
  5
160
330
11B
100
AcDbEntity
  8
0
  6
Continuous
 62
     0
370
    30
100
AcDbLine
 10
782.163743
 20
690.291498
 30
0.0
 11
782.163743
 21
715.591489
 31
0.0
  0
ARC
  5
161
330
11B
100
AcDbEntity
  8
0
  6
Continuous
 62
     0
370
    30
100
AcDbCircle
 10
780.163551
 20
690.291583
 30
0.0
 40
2.00019159672675
100
AcDbArc
 50
270.00779
 51
359.997255
  0
ARC
  5
162
330
11B
100
AcDbEntity
  8
0
  6
Continuous
 62
     0
370
    30
100
AcDbCircle
 10
780.163551
 20
672.291394
 30
0.0
 40
2.000191594560915
100
AcDbArc
 50
0.002743
 51
89.992209
  0
LINE
  5
163
330
11B
100
AcDbEntity
  8
0
  6
Continuous
 62
     0
370
    30
100
AcDbLine
 10
759.463753
 20
664.791494
 30
0.0
 11
759.463753
 21
697.791494
 31
0.0
  0
LINE
  5
164
330
11B
100
AcDbEntity
  8
0
  6
Continuous
 62
     0
370
    30
100
AcDbLine
 10
739.463753
 20
697.791494
 30
0.0
 11
759.463753
 21
697.791494
 31
0.0
  0
LINE
  5
165
330
11B
100
AcDbEntity
  8
0
  6
Continuous
 62
     0
370
    30
100
AcDbLine
 10
739.463753
 20
664.791494
 30
0.0
 11
759.463753
 21
664.791494
 31
0.0
  0
LINE
  5
166
330
11B
100
AcDbEntity
  8
0
  6
Continuous
 62
     0
370
    30
100
AcDbLine
 10
739.463753
 20
651.291494
 30
0.0
 11
739.463753
 21
711.291494
 31
0.0
  0
LINE
  5
167
330
11B
100
AcDbEntity
  8
0
  6
Continuous
 62
     0
370
    30
100
AcDbLine
 10
732.463753
 20
651.291494
 30
0.0
 11
732.463753
 21
711.291494
 31
0.0
  0
LINE
  5
168
330
11B
100
AcDbEntity
  8
0
  6
Continuous
 62
     0
370
    30
100
AcDbLine
 10
739.463753
 20
651.291494
 30
0.0
 11
732.463753
 21
651.291494
 31
0.0
  0
LINE
  5
169
330
11B
100
AcDbEntity
  8
0
  6
Continuous
 62
     0
370
    30
100
AcDbLine
 10
739.463753
 20
711.291494
 30
0.0
 11
732.463753
 21
711.291494
 31
0.0
  0
ENDBLK
  5
16B
330
11B
100
AcDbEntity
  8
0
100
AcDbBlockEnd
  0
BLOCK
  5
1F7
330
16D
100
AcDbEntity
  8
0
100
AcDbBlockBegin
  2
d
 70
     0
 10
507.787873
 20
1430.141226
 30
0.0
  3
d
  1

  0
SPLINE
  5
16E
330
16D
100
AcDbEntity
  8
0
  6
Continuous
 62
     0
370
     0
100
AcDbSpline
210
0.0
220
0.0
230
1.0
 70
     8
 71
     3
 72
     9
 73
     5
 74
     0
 42
0.000000001
 43
0.0
 40
0.0
 40
0.0
 40
0.0
 40
0.0
 40
0.652089755406342
 40
0.9476254811266672
 40
0.9476254811266672
 40
0.9476254811266672
 40
0.9476254811266672
 10
551.0000954076925
 20
865.2995184370815
 30
0.0
 10
550.8754272426112
 20
865.3714951476294
 30
0.0
 10
550.668701043072
 20
865.4433478432558
 30
0.0
 10
550.4328238782912
 20
865.4680483663425
 30
0.0
 10
550.3568940518406
 20
865.4714181097896
 30
0.0
  0
ELLIPSE
  5
16F
330
16D
100
AcDbEntity
  8
0
  6
Continuous
 62
     0
370
     0
100
AcDbEllipse
 10
551.000095
 20
866.932512
 30
0.0
 11
-1.0
 21
-1.732050807568877
 31
0.0
210
0.0
220
0.0
230
-1.0
 40
0.57735
 41
5.497787143782135
 42
5.927517893477264
  0
SPLINE
  5
170
330
16D
100
AcDbEntity
  8
0
  6
Continuous
 62
     0
370
     0
100
AcDbSpline
210
0.0
220
0.0
230
1.0
 70
     8
 71
     3
 72
    11
 73
     7
 74
     0
 42
0.000000001
 43
0.0
 40
8.78555448342221
 40
8.78555448342221
 40
8.78555448342221
 40
8.78555448342221
 40
9.117775860919043
 40
10.62916237558552
 40
12.27383619275323
 40
13.16794967043762
 40
13.16794967043762
 40
13.16794967043762
 40
13.16794967043762
 10
539.3995026194111
 20
864.0146162888776
 30
0.0
 10
539.3446285955921
 20
863.943713296935
 30
0.0
 10
539.0523692578923
 20
863.5370149299796
 30
0.0
 10
538.6326887961567
 20
862.63648940474
 30
0.0
 10
538.415154493574
 20
861.41656967911
 30
0.0
 10
538.407114696934
 20
860.6047096519679
 30
0.0
 10
538.4198745334968
 20
860.3150570486858
 30
0.0
  0
SPLINE
  5
171
330
16D
100
AcDbEntity
  8
0
  6
Continuous
 62
     0
370
     0
100
AcDbSpline
210
0.0
220
0.0
230
1.0
 70
     8
 71
     3
 72
    11
 73
     7
 74
     0
 42
0.000000001
 43
0.0
 40
0.2011645061775665
 40
0.2011645061775665
 40
0.2011645061775665
 40
0.2011645061775665
 40
0.3333337243753641
 40
0.6666670577086921
 40
0.8888890192362308
 40
1.0
 40
1.0
 40
1.0
 40
1.0
 10
539.386326871012
 20
860.6756392134531
 30
0.0
 10
539.3696964675756
 20
860.6480628544615
 30
0.0
 10
539.2871206929221
 20
860.553406554321
 30
0.0
 10
539.0443352413539
 20
860.4337554823861
 30
0.0
 10
538.6906884636167
 20
860.3516986366088
 30
0.0
 10
538.489467685937
 20
860.3232078880882
 30
0.0
 10
538.4199675761155
 20
860.3151122142118
 30
0.0
  0
ELLIPSE
  5
172
330
16D
100
AcDbEntity
  8
0
  6
Continuous
 62
     0
370
     0
100
AcDbEllipse
 10
538.97928
 20
846.111849
 30
0.0
 11
1.000003097640246
 21
1.732049019141753
 31
0.0
210
0.0
220
0.0
230
1.0
 40
0.577349
 41
5.497788176328351
 42
5.92752049893768
  0
SPLINE
  5
173
330
16D
100
AcDbEntity
  8
0
  6
Continuous
 62
     0
370
     0
100
AcDbSpline
210
0.0
220
0.0
230
1.0
 70
     8
 71
     3
 72
     9
 73
     5
 74
     0
 42
0.000000001
 43
0.0
 40
0.0
 40
0.0
 40
0.0
 40
0.0
 40
0.652157515117174
 40
0.9476273127353597
 40
0.9476273127353597
 40
0.9476273127353597
 40
0.9476273127353597
 10
540.3934936898893
 20
846.9283453661991
 30
0.0
 10
540.2688125865269
 20
847.0003305229619
 30
0.0
 10
540.1032240823675
 20
847.1434392881073
 30
0.0
 10
539.9638956072646
 20
847.3353690781822
 30
0.0
 10
539.9230214901319
 20
847.3994274304154
 30
0.0
  0
ELLIPSE
  5
174
330
16D
100
AcDbEntity
  8
0
  6
Continuous
 62
     0
370
     0
100
AcDbEllipse
 10
538.97928
 20
859.992291
 30
0.0
 11
-0.9999999999999983
 21
-1.732050807568874
 31
0.0
210
0.0
220
0.0
230
-1.0
 40
0.57735
 41
3.926990816987268
 42
5.497787143782105
  0
SPLINE
  5
175
330
16D
100
AcDbEntity
  8
0
  6
Continuous
 62
     0
370
     0
100
AcDbSpline
210
0.0
220
0.0
230
1.0
 70
     8
 71
     3
 72
    13
 73
     9
 74
     0
 42
0.000000001
 43
0.0
 40
1.589329675908664
 40
1.589329675908664
 40
1.589329675908664
 40
1.589329675908664
 40
1.789405597119867
 40
2.507174003888374
 40
3.180442430366806
 40
4.095688222479491
 40
4.601650003097516
 40
5.240023456047296
 40
5.240023456047296
 40
5.240023456047296
 40
5.240023456047296
 10
539.3994954744098
 20
860.9043710653817
 30
0.0
 10
539.3994970925168
 20
860.9165068801161
 30
0.0
 10
539.4032326673747
 20
860.9700989206982
 30
0.0
 10
539.4403666146924
 20
861.0454589730431
 30
0.0
 10
539.5708806291485
 20
861.1035607162552
 30
0.0
 10
539.779174365996
 20
861.085824241458
 30
0.0
 10
540.0710754572827
 20
860.9811784130096
 30
0.0
 10
540.2714475029883
 20
860.8792506408371
 30
0.0
 10
540.3934936898894
 20
860.8087872419763
 30
0.0
  0
SPLINE
  5
176
330
16D
100
AcDbEntity
  8
0
  6
Continuous
 62
     0
370
     0
100
AcDbSpline
210
0.0
220
0.0
230
1.0
 70
     8
 71
     3
 72
    13
 73
     9
 74
     0
 42
0.000000001
 43
0.0
 40
1.589329972900654
 40
1.589329972900654
 40
1.589329972900654
 40
1.589329972900654
 40
1.789405597119858
 40
2.507174003888361
 40
3.180442430366789
 40
4.09568822247947
 40
4.601650003097493
 40
5.240023456047269
 40
5.240023456047269
 40
5.240023456047269
 40
5.240023456047269
 10
538.3995029537172
 20
859.172333266384
 30
0.0
 10
538.3889938568874
 20
859.1662639652883
 30
0.0
 10
538.3444495958422
 20
859.136232848671
 30
0.0
 10
538.2977528584562
 20
859.066393893815
 30
0.0
 10
538.3126922800584
 20
858.9243145701399
 30
0.0
 10
538.4321993862301
 20
858.7527951399794
 30
0.0
 10
538.6687758777098
 20
858.5523242937569
 30
0.0
 10
538.8572339406152
 20
858.429760898054
 30
0.0
 10
538.9792801275163
 20
858.3592974991931
 30
0.0
  0
SPLINE
  5
177
330
16D
100
AcDbEntity
  8
0
  6
Continuous
 62
     0
370
     0
100
AcDbSpline
210
0.0
220
0.0
230
1.0
 70
     8
 71
     3
 72
    10
 73
     6
 74
     0
 42
0.000000001
 43
0.0
 40
0.4346377221668696
 40
0.4346377221668696
 40
0.4346377221668696
 40
0.4346377221668696
 40
0.723768534793083
 40
1.447569395276909
 40
2.171402590894657
 40
2.171402590894657
 40
2.171402590894657
 40
2.171402590894657
 10
538.5905526145942
 20
859.2977472890401
 30
0.0
 10
538.606276158215
 20
859.3260145067762
 30
0.0
 10
538.647088042098
 20
859.4446295442375
 30
0.0
 10
538.6263748639702
 20
859.7592469361936
 30
0.0
 10
538.5031437432326
 20
860.1224474674985
 30
0.0
 10
538.4199675761155
 20
860.3151122142118
 30
0.0
  0
SPLINE
  5
178
330
16D
100
AcDbEntity
  8
0
  6
Continuous
 62
     0
370
     0
100
AcDbSpline
210
0.0
220
0.0
230
1.0
 70
     8
 71
     3
 72
    11
 73
     7
 74
     0
 42
0.000000001
 43
0.0
 40
1.036846323820207
 40
1.036846323820207
 40
1.036846323820207
 40
1.036846323820207
 40
1.111290277148617
 40
2.190440414270058
 40
4.17929580208464
 40
5.420870929517054
 40
5.420870929517054
 40
5.420870929517054
 40
5.420870929517054
 10
538.4199675761155
 20
860.3151122142118
 30
0.0
 10
538.3985600503618
 20
860.3039773344275
 30
0.0
 10
538.0679984684681
 20
860.1301902523195
 30
0.0
 10
537.2177096722895
 20
859.604821424292
 30
0.0
 10
536.2792890918471
 20
858.7068593202224
 30
0.0
 10
535.832698727451
 20
857.9269874318683
 30
0.0
 10
535.705757498731
 20
857.6170902125026
 30
0.0
  0
ELLIPSE
  5
179
330
16D
100
AcDbEntity
  8
0
  6
Continuous
 62
     0
370
     0
100
AcDbEllipse
 10
541.454154
 20
860.767962
 30
0.0
 11
0.699999988079071
 21
0.0
 31
0.0
210
0.0
220
0.0
230
-1.0
 40
0.57735
 41
0.7853981633974889
 42
2.356194490192344
  0
LINE
  5
17A
330
16D
100
AcDbEntity
  8
0
  6
Continuous
 62
     0
370
     0
100
AcDbLine
 10
541.949129
 20
881.547807
 30
0.0
 11
541.949129
 21
860.482189
 31
0.0
  0
ELLIPSE
  5
17B
330
16D
100
AcDbEntity
  8
0
  6
Continuous
 62
     0
370
     0
100
AcDbEllipse
 10
541.454154
 20
881.83358
 30
0.0
 11
0.699999988079071
 21
0.0
 31
0.0
210
0.0
220
0.0
230
-1.0
 40
0.57735
 41
0.7853981633974482
 42
2.356194490192344
  0
LINE
  5
17C
330
16D
100
AcDbEntity
  8
0
  6
Continuous
 62
     0
370
     0
100
AcDbLine
 10
540.959179
 20
881.547807
 30
0.0
 11
540.959179
 21
860.482189
 31
0.0
  0
LINE
  5
17D
330
16D
100
AcDbEntity
  8
0
  6
Continuous
 62
     0
370
     0
100
AcDbLine
 10
549.656593
 20
887.140808
 30
0.0
 11
541.454154
 21
882.405128
 31
0.0
  0
ELLIPSE
  5
17E
330
16D
100
AcDbEntity
  8
0
  6
Continuous
 62
     0
370
     0
100
AcDbEllipse
 10
541.454154
 20
881.83358
 30
0.0
 11
-0.3499999940395356
 21
0.6062177723252798
 31
0.0
210
0.0
220
0.0
230
-1.0
 40
0.57735
 41
0.7853981633974483
 42
2.356194490192344
  0
LINE
  5
17F
330
16D
100
AcDbEntity
  8
0
  6
Continuous
 62
     0
370
     0
100
AcDbLine
 10
550.151567
 20
886.283487
 30
0.0
 11
541.949129
 21
881.547807
 31
0.0
  0
ELLIPSE
  5
180
330
16D
100
AcDbEntity
  8
0
  6
Continuous
 62
     0
370
     0
100
AcDbEllipse
 10
549.656593
 20
886.569261
 30
0.0
 11
-0.3499999940395391
 21
0.6062177723252858
 31
0.0
210
0.0
220
0.0
230
-1.0
 40
0.57735
 41
0.7853981633974483
 42
2.356194490192181
  0
ELLIPSE
  5
181
330
16D
100
AcDbEntity
  8
0
  6
Continuous
 62
     0
370
     0
100
AcDbEllipse
 10
540.888468
 20
882.160179
 30
0.0
 11
0.3499999940395391
 21
0.6062177723252858
 31
0.0
210
0.0
220
0.0
230
1.0
 40
0.57735
 41
0.7853981633975502
 42
2.356194490192181
  0
LINE
  5
182
330
16D
100
AcDbEntity
  8
0
  6
Continuous
 62
     0
370
     0
100
AcDbLine
 10
540.959179
 20
881.547807
 30
0.0
 11
540.393494
 21
881.874405
 31
0.0
  0
ELLIPSE
  5
183
330
16D
100
AcDbEntity
  8
0
  6
Continuous
 62
     0
370
     0
100
AcDbEllipse
 10
541.454154
 20
881.83358
 30
0.0
 11
0.3499999940395356
 21
0.6062177723252798
 31
0.0
210
0.0
220
0.0
230
1.0
 40
0.57735
 41
0.7853981633974481
 42
2.356194490192344
  0
LINE
  5
184
330
16D
100
AcDbEntity
  8
0
  6
Continuous
 62
     0
370
     0
100
AcDbLine
 10
541.454154
 20
882.405128
 30
0.0
 11
540.888468
 21
882.731727
 31
0.0
  0
ELLIPSE
  5
185
330
16D
100
AcDbEntity
  8
0
  6
Continuous
 62
     0
370
     0
100
AcDbEllipse
 10
549.656593
 20
886.569261
 30
0.0
 11
0.6999999880790782
 21
0.0
 31
0.0
210
0.0
220
0.0
230
-1.0
 40
0.57735
 41
6.283185030682029
 42
7.068583470577034
  0
LINE
  5
186
330
16D
100
AcDbEntity
  8
0
  6
Continuous
 62
     0
370
     0
100
AcDbLine
 10
550.151567
 20
886.283487
 30
0.0
 11
550.151567
 21
865.217869
 31
0.0
  0
ELLIPSE
  5
187
330
16D
100
AcDbEntity
  8
0
  6
Continuous
 62
     0
370
     0
100
AcDbEllipse
 10
549.656593
 20
865.503643
 30
0.0
 11
-0.6999999880790669
 21
0.0
 31
0.0
210
0.0
220
0.0
230
1.0
 40
0.57735
 41
2.356194490191917
 42
3.141592644950098
  0
LINE
  5
188
330
16D
100
AcDbEntity
  8
0
  6
Continuous
 62
     0
370
     0
100
AcDbLine
 10
549.090909
 20
887.467406
 30
0.0
 11
549.656593
 21
887.140808
 31
0.0
  0
ELLIPSE
  5
189
330
16D
100
AcDbEntity
  8
0
  6
Continuous
 62
     0
370
     0
100
AcDbEllipse
 10
549.656593
 20
886.569261
 30
0.0
 11
-0.3499999940395391
 21
-0.6062177723252858
 31
0.0
210
0.0
220
0.0
230
-1.0
 40
0.57735
 41
2.356194490192344
 42
3.141592676439945
  0
ELLIPSE
  5
18A
330
16D
100
AcDbEntity
  8
0
  6
Continuous
 62
     0
370
     0
100
AcDbEllipse
 10
549.090907
 20
886.895859
 30
0.0
 11
-0.3499999940395356
 21
-0.6062177723252798
 31
0.0
210
0.0
220
0.0
230
-1.0
 40
0.57735
 41
2.356194490198109
 42
3.141592676439973
  0
ELLIPSE
  5
18B
330
16D
100
AcDbEntity
  8
0
  6
Continuous
 62
     0
370
     0
100
AcDbEllipse
 10
551.565781
 20
864.401372
 30
0.0
 11
0.3499999940395366
 21
-0.6062177723252816
 31
0.0
210
0.0
220
0.0
230
1.0
 40
0.57735
 41
0.785398163397448
 42
2.356194490192344
  0
LINE
  5
18C
330
16D
100
AcDbEntity
  8
0
  6
Continuous
 62
     0
370
     0
100
AcDbLine
 10
570.304105
 20
874.648401
 30
0.0
 11
552.060756
 21
864.115598
 31
0.0
  0
ELLIPSE
  5
18D
330
16D
100
AcDbEntity
  8
0
  6
Continuous
 62
     0
370
     0
100
AcDbEllipse
 10
569.80913
 20
874.934175
 30
0.0
 11
0.3499999940395356
 21
-0.6062177723252798
 31
0.0
210
0.0
220
0.0
230
1.0
 40
0.57735
 41
0.7853981633974481
 42
2.356194490192344
  0
LINE
  5
18E
330
16D
100
AcDbEntity
  8
0
  6
Continuous
 62
     0
370
     0
100
AcDbLine
 10
569.80913
 20
875.505723
 30
0.0
 11
551.565781
 21
864.97292
 31
0.0
  0
ELLIPSE
  5
18F
330
16D
100
AcDbEntity
  8
0
  6
Continuous
 62
     0
370
     0
100
AcDbEllipse
 10
569.80913
 20
874.934175
 30
0.0
 11
0.699999988079071
 21
0.0
 31
0.0
210
0.0
220
0.0
230
-1.0
 40
0.57735
 41
6.283184915088454
 42
7.068583470577013
  0
LINE
  5
190
330
16D
100
AcDbEntity
  8
0
  6
Continuous
 62
     0
370
     0
100
AcDbLine
 10
570.304105
 20
865.177041
 30
0.0
 11
570.304105
 21
874.648401
 31
0.0
  0
ELLIPSE
  5
191
330
16D
100
AcDbEntity
  8
0
  6
Continuous
 62
     0
370
     0
100
AcDbEllipse
 10
569.80913
 20
865.462815
 30
0.0
 11
0.6999999880790639
 21
0.0
 31
0.0
210
0.0
220
0.0
230
-1.0
 40
0.57735
 41
0.0000000084542249
 42
0.7853981633974482
  0
ELLIPSE
  5
192
330
16D
100
AcDbEntity
  8
0
  6
Continuous
 62
     0
370
     0
100
AcDbEllipse
 10
569.243445
 20
875.260774
 30
0.0
 11
0.3499999940395321
 21
0.6062177723252737
 31
0.0
210
0.0
220
0.0
230
1.0
 40
0.57735
 41
-0.0000000228501687
 42
0.7853981633974485
  0
LINE
  5
193
330
16D
100
AcDbEntity
  8
0
  6
Continuous
 62
     0
370
     0
100
AcDbLine
 10
569.80913
 20
875.505723
 30
0.0
 11
569.243445
 21
875.832321
 31
0.0
  0
ELLIPSE
  5
194
330
16D
100
AcDbEntity
  8
0
  6
Continuous
 62
     0
370
     0
100
AcDbEllipse
 10
569.80913
 20
874.934175
 30
0.0
 11
0.3499999940395356
 21
0.6062177723252798
 31
0.0
210
0.0
220
0.0
230
1.0
 40
0.57735
 41
-0.0000000228501395
 42
0.7853981633974679
  0
ELLIPSE
  5
195
330
16D
100
AcDbEntity
  8
0
  6
Continuous
 62
     0
370
     0
100
AcDbEllipse
 10
569.80913
 20
865.462815
 30
0.0
 11
0.3499999940395321
 21
-0.6062177723252737
 31
0.0
210
0.0
220
0.0
230
1.0
 40
0.57735
 41
0.0000000314898463
 42
0.785398163397448
  0
LINE
  5
196
330
16D
100
AcDbEntity
  8
0
  6
Continuous
 62
     0
370
     0
100
AcDbLine
 10
570.304105
 20
865.177041
 30
0.0
 11
552.060756
 21
854.644238
 31
0.0
  0
ELLIPSE
  5
197
330
16D
100
AcDbEntity
  8
0
  6
Continuous
 62
     0
370
     0
100
AcDbEllipse
 10
551.565781
 20
854.930012
 30
0.0
 11
-0.3499999940395346
 21
0.606217772325278
 31
0.0
210
0.0
220
0.0
230
-1.0
 40
0.57735
 41
2.356194490192729
 42
3.141592622350327
  0
ELLIPSE
  5
198
330
16D
100
AcDbEntity
  8
0
  6
Continuous
 62
     0
370
     0
100
AcDbEllipse
 10
549.656593
 20
851.623201
 30
0.0
 11
0.699999988079069
 21
0.0
 31
0.0
210
0.0
220
0.0
230
-1.0
 40
0.57735
 41
6.28318498408503
 42
7.068583470577034
  0
LINE
  5
199
330
16D
100
AcDbEntity
  8
0
  6
Continuous
 62
     0
370
     0
100
AcDbLine
 10
550.151567
 20
851.337427
 30
0.0
 11
550.151567
 21
830.271821
 31
0.0
  0
ELLIPSE
  5
19A
330
16D
100
AcDbEntity
  8
0
  6
Continuous
 62
     0
370
     0
100
AcDbEllipse
 10
549.656593
 20
830.557595
 30
0.0
 11
0.6999999880790639
 21
0.0
 31
0.0
210
0.0
220
0.0
230
-1.0
 40
0.57735
 41
0.0000000085056019
 42
0.7853981633974583
  0
ELLIPSE
  5
19B
330
16D
100
AcDbEntity
  8
0
  6
Continuous
 62
     0
370
     0
100
AcDbEllipse
 10
549.656593
 20
830.557595
 30
0.0
 11
0.3499999940395321
 21
-0.6062177723252737
 31
0.0
210
0.0
220
0.0
230
1.0
 40
0.57735
 41
0.0000000314898179
 42
0.7853981633974783
  0
LINE
  5
19C
330
16D
100
AcDbEntity
  8
0
  6
Continuous
 62
     0
370
     0
100
AcDbLine
 10
550.151567
 20
830.271821
 30
0.0
 11
541.949129
 21
825.536141
 31
0.0
  0
ELLIPSE
  5
19D
330
16D
100
AcDbEntity
  8
0
  6
Continuous
 62
     0
370
     0
100
AcDbEllipse
 10
541.454154
 20
825.821915
 30
0.0
 11
0.3499999940395356
 21
-0.6062177723252798
 31
0.0
210
0.0
220
0.0
230
1.0
 40
0.57735
 41
6.283185074635919
 42
7.068583470577074
  0
LINE
  5
19E
330
16D
100
AcDbEntity
  8
0
  6
Continuous
 62
     0
370
     0
100
AcDbLine
 10
539.544966
 20
858.032699
 30
0.0
 11
521.301605
 21
847.49989
 31
0.0
  0
ELLIPSE
  5
19F
330
16D
100
AcDbEntity
  8
0
  6
Continuous
 62
     0
370
     0
100
AcDbEllipse
 10
521.301605
 20
846.928342
 30
0.0
 11
0.3499999940395391
 21
-0.6062177723252858
 31
0.0
210
0.0
220
0.0
230
1.0
 40
0.57735
 41
0.785398163397448
 42
2.356194490192344
  0
LINE
  5
1A0
330
16D
100
AcDbEntity
  8
0
  6
Continuous
 62
     0
370
     0
100
AcDbLine
 10
540.03994
 20
857.175377
 30
0.0
 11
521.79658
 21
846.642568
 31
0.0
  0
ELLIPSE
  5
1A1
330
16D
100
AcDbEntity
  8
0
  6
Continuous
 62
     0
370
     0
100
AcDbEllipse
 10
539.544966
 20
857.461151
 30
0.0
 11
-0.3499999940395375
 21
0.6062177723252832
 31
0.0
210
0.0
220
0.0
230
-1.0
 40
0.57735
 41
0.7853981633974481
 42
2.356194490192344
  0
ELLIPSE
  5
1A2
330
16D
100
AcDbEntity
  8
0
  6
Continuous
 62
     0
370
     0
100
AcDbEllipse
 10
521.301605
 20
837.456982
 30
0.0
 11
-0.699999988079071
 21
0.0
 31
0.0
210
0.0
220
0.0
230
1.0
 40
0.57735
 41
0.785398163397448
 42
2.356194490192344
  0
LINE
  5
1A3
330
16D
100
AcDbEntity
  8
0
  6
Continuous
 62
     0
370
     0
100
AcDbLine
 10
521.79658
 20
837.171208
 30
0.0
 11
521.79658
 21
846.642568
 31
0.0
  0
ELLIPSE
  5
1A4
330
16D
100
AcDbEntity
  8
0
  6
Continuous
 62
     0
370
     0
100
AcDbEllipse
 10
521.301605
 20
846.928342
 30
0.0
 11
-0.6999999880790782
 21
0.0
 31
0.0
210
0.0
220
0.0
230
1.0
 40
0.57735
 41
0.785398163397448
 42
2.356194490192344
  0
LINE
  5
1A5
330
16D
100
AcDbEntity
  8
0
  6
Continuous
 62
     0
370
     0
100
AcDbLine
 10
520.80663
 20
837.171208
 30
0.0
 11
520.80663
 21
846.642568
 31
0.0
  0
LINE
  5
1A6
330
16D
100
AcDbEntity
  8
0
  6
Continuous
 62
     0
370
     0
100
AcDbLine
 10
520.80663
 20
846.642568
 30
0.0
 11
520.240945
 21
846.969167
 31
0.0
  0
ELLIPSE
  5
1A7
330
16D
100
AcDbEntity
  8
0
  6
Continuous
 62
     0
370
     0
100
AcDbEllipse
 10
521.301605
 20
846.928342
 30
0.0
 11
-0.3499999940395391
 21
-0.6062177723252858
 31
0.0
210
0.0
220
0.0
230
-1.0
 40
0.57735
 41
0.785398163397448
 42
2.356194490192344
  0
LINE
  5
1A8
330
16D
100
AcDbEntity
  8
0
  6
Continuous
 62
     0
370
     0
100
AcDbLine
 10
521.301605
 20
847.49989
 30
0.0
 11
520.73592
 21
847.826488
 31
0.0
  0
ELLIPSE
  5
1A9
330
16D
100
AcDbEntity
  8
0
  6
Continuous
 62
     0
370
     0
100
AcDbEllipse
 10
520.73592
 20
847.254941
 30
0.0
 11
-0.3499999940395356
 21
-0.6062177723252798
 31
0.0
210
0.0
220
0.0
230
-1.0
 40
0.57735
 41
0.7853981633976108
 42
2.356194490192374
  0
LINE
  5
1AA
330
16D
100
AcDbEntity
  8
0
  6
Continuous
 62
     0
370
     0
100
AcDbLine
 10
540.959179
 20
846.601747
 30
0.0
 11
540.959179
 21
825.536141
 31
0.0
  0
ELLIPSE
  5
1AB
330
16D
100
AcDbEntity
  8
0
  6
Continuous
 62
     0
370
     0
100
AcDbEllipse
 10
541.454154
 20
825.821915
 30
0.0
 11
0.699999988079071
 21
0.0
 31
0.0
210
0.0
220
0.0
230
-1.0
 40
0.57735
 41
0.7853981633974482
 42
2.356194490192344
  0
LINE
  5
1AC
330
16D
100
AcDbEntity
  8
0
  6
Continuous
 62
     0
370
     0
100
AcDbLine
 10
541.949129
 20
846.601747
 30
0.0
 11
541.949129
 21
825.536141
 31
0.0
  0
ELLIPSE
  5
1AD
330
16D
100
AcDbEntity
  8
0
  6
Continuous
 62
     0
370
     0
100
AcDbEllipse
 10
541.454154
 20
846.887521
 30
0.0
 11
-0.699999988079073
 21
0.0
 31
0.0
210
0.0
220
0.0
230
1.0
 40
0.57735
 41
0.785398163397448
 42
2.356194490192344
  0
ELLIPSE
  5
1AE
330
16D
100
AcDbEntity
  8
0
  6
Continuous
 62
     0
370
     0
100
AcDbEllipse
 10
541.454154
 20
825.821915
 30
0.0
 11
-0.3499999940395356
 21
-0.6062177723252798
 31
0.0
210
0.0
220
0.0
230
-1.0
 40
0.57735
 41
6.28318508027745
 42
7.068583470577074
  0
LINE
  5
1AF
330
16D
100
AcDbEntity
  8
0
  6
Continuous
 62
     0
370
     0
100
AcDbLine
 10
540.959179
 20
825.536141
 30
0.0
 11
540.393494
 21
825.86274
 31
0.0
  0
ELLIPSE
  5
1B0
330
16D
100
AcDbEntity
  8
0
  6
Continuous
 62
     0
370
     0
100
AcDbEllipse
 10
540.888468
 20
826.148514
 30
0.0
 11
-0.3499999940395321
 21
-0.6062177723252737
 31
0.0
210
0.0
220
0.0
230
-1.0
 40
0.57735
 41
0.0000000228501679
 42
0.7853981633974482
  0
ELLIPSE
  5
1B1
330
16D
100
AcDbEntity
  8
0
  6
Continuous
 62
     0
370
     0
100
AcDbEllipse
 10
539.544966
 20
847.989791
 30
0.0
 11
0.3499999940395356
 21
-0.6062177723252798
 31
0.0
210
0.0
220
0.0
230
1.0
 40
0.57735
 41
0.0000000312140562
 42
0.7853981633974481
  0
LINE
  5
1B2
330
16D
100
AcDbEntity
  8
0
  6
Continuous
 62
     0
370
     0
100
AcDbLine
 10
540.03994
 20
847.704017
 30
0.0
 11
521.79658
 21
837.171208
 31
0.0
  0
ELLIPSE
  5
1B3
330
16D
100
AcDbEntity
  8
0
  6
Continuous
 62
     0
370
     0
100
AcDbEllipse
 10
521.301605
 20
837.456982
 30
0.0
 11
0.3499999940395356
 21
-0.6062177723252798
 31
0.0
210
0.0
220
0.0
230
1.0
 40
0.57735
 41
6.28318491509276
 42
7.068583470577034
  0
ELLIPSE
  5
1B4
330
16D
100
AcDbEntity
  8
0
  6
Continuous
 62
     0
370
     0
100
AcDbEllipse
 10
520.73592
 20
837.783581
 30
0.0
 11
0.3499999940395356
 21
0.6062177723252798
 31
0.0
210
0.0
220
0.0
230
1.0
 40
0.57735
 41
2.356194490198129
 42
3.141592630739638
  0
ELLIPSE
  5
1B5
330
16D
100
AcDbEntity
  8
0
  6
Continuous
 62
     0
370
     0
100
AcDbEllipse
 10
521.301605
 20
837.456982
 30
0.0
 11
0.3499999940395356
 21
0.6062177723252798
 31
0.0
210
0.0
220
0.0
230
1.0
 40
0.57735
 41
2.356194490192344
 42
3.141592630739638
  0
LINE
  5
1B6
330
16D
100
AcDbEntity
  8
0
  6
Continuous
 62
     0
370
     0
100
AcDbLine
 10
520.240947
 20
837.497806
 30
0.0
 11
520.80663
 21
837.171208
 31
0.0
  0
ELLIPSE
  5
1B7
330
16D
100
AcDbEntity
  8
0
  6
Continuous
 62
     0
370
     0
100
AcDbEllipse
 10
540.03994
 20
845.499476
 30
0.0
 11
-1.349999994039537
 21
-2.338268579894159
 31
0.0
210
0.0
220
0.0
230
-1.0
 40
0.57735
 41
2.356194490192349
 42
3.92699081698724
  0
ELLIPSE
  5
1B8
330
16D
100
AcDbEntity
  8
0
  6
Continuous
 62
     0
370
     0
100
AcDbEllipse
 10
552.060756
 20
852.439697
 30
0.0
 11
-1.349999994039537
 21
-2.338268579894159
 31
0.0
210
0.0
220
0.0
230
-1.0
 40
0.57735
 41
0.785398163397448
 42
2.356194490192344
  0
ELLIPSE
  5
1B9
330
16D
100
AcDbEntity
  8
0
  6
Continuous
 62
     0
370
     0
100
AcDbEllipse
 10
552.060756
 20
866.320139
 30
0.0
 11
-1.349999994039536
 21
-2.338268579894157
 31
0.0
210
0.0
220
0.0
230
-1.0
 40
0.57735
 41
5.497787143782143
 42
7.068583470577013
  0
ELLIPSE
  5
1BA
330
16D
100
AcDbEntity
  8
0
  6
Continuous
 62
     0
370
     0
100
AcDbEllipse
 10
540.03994
 20
859.379918
 30
0.0
 11
1.349999994039535
 21
2.338268579894155
 31
0.0
210
0.0
220
0.0
230
1.0
 40
0.57735
 41
3.92699081698724
 42
5.497787143782135
  0
LINE
  5
1BB
330
16D
100
AcDbEntity
  8
0
  6
Continuous
 62
     0
370
     0
100
AcDbLine
 10
538.97928
 20
858.359297
 30
0.0
 11
520.73592
 21
847.826488
 31
0.0
  0
LINE
  5
1BC
330
16D
100
AcDbEntity
  8
0
  6
Continuous
 62
     0
370
     0
100
AcDbLine
 10
539.544966
 20
858.032699
 30
0.0
 11
538.97928
 21
858.359297
 31
0.0
  0
ELLIPSE
  5
1BD
330
16D
100
AcDbEntity
  8
0
  6
Continuous
 62
     0
370
     0
100
AcDbEllipse
 10
539.544966
 20
859.665692
 30
0.0
 11
0.9999999999999983
 21
1.732050807568874
 31
0.0
210
0.0
220
0.0
230
1.0
 40
0.57735
 41
3.926990816987247
 42
5.497787143782135
  0
LINE
  5
1BE
330
16D
100
AcDbEntity
  8
0
  6
Continuous
 62
     0
370
     0
100
AcDbLine
 10
540.959179
 20
860.482189
 30
0.0
 11
540.393494
 21
860.808787
 31
0.0
  0
LINE
  5
1BF
330
16D
100
AcDbEntity
  8
0
  6
Continuous
 62
     0
370
     0
100
AcDbLine
 10
540.393494
 20
881.874405
 30
0.0
 11
540.393494
 21
860.808787
 31
0.0
  0
LINE
  5
1C0
330
16D
100
AcDbEntity
  8
0
  6
Continuous
 62
     0
370
     0
100
AcDbLine
 10
569.243445
 20
875.832321
 30
0.0
 11
551.000095
 21
865.299518
 31
0.0
  0
LINE
  5
1C1
330
16D
100
AcDbEntity
  8
0
  6
Continuous
 62
     0
370
     0
100
AcDbLine
 10
551.000095
 20
865.299518
 30
0.0
 11
551.565781
 21
864.97292
 31
0.0
  0
ELLIPSE
  5
1C2
330
16D
100
AcDbEntity
  8
0
  6
Continuous
 62
     0
370
     0
100
AcDbEllipse
 10
551.565781
 20
866.605913
 30
0.0
 11
-1.0
 21
-1.732050807568877
 31
0.0
210
0.0
220
0.0
230
-1.0
 40
0.57735
 41
5.497787143782138
 42
6.283185540729965
  0
SPLINE
  5
1C3
330
16D
100
AcDbEntity
  8
0
  6
Continuous
 62
     0
370
     0
100
AcDbSpline
210
0.0
220
0.0
230
1.0
 70
     8
 71
     3
 72
    27
 73
    23
 74
     0
 42
0.000000001
 43
0.0
 40
0.0
 40
0.0
 40
0.0
 40
0.0
 40
1.029141359914143
 40
1.899953279841495
 40
2.770765199768846
 40
3.799906559682989
 40
4.987377359583923
 40
5.699859839524484
 40
6.49150703945844
 40
6.887330639425417
 40
7.283154239392395
 40
7.599813119365979
 40
7.916471999339561
 40
8.31229559930654
 40
8.708119199273517
 40
9.499766399207472
 40
10.21224887914803
 40
11.39971967904897
 40
12.4288610389631
 40
13.29967295889046
 40
14.17048487881781
 40
15.19962623873196
 40
15.19962623873196
 40
15.19962623873196
 40
15.19962623873196
 10
540.8884684282905
 20
882.7317266643935
 30
0.0
 10
540.7309818432163
 20
882.8226515866799
 30
0.0
 10
540.4684645954477
 20
883.0204339409487
 30
0.0
 10
540.1981377515998
 20
883.401293352469
 30
0.0
 10
540.068918667467
 20
883.867616856803
 30
0.0
 10
540.1393927726825
 20
884.4732969358162
 30
0.0
 10
540.4673933252478
 20
885.0950906790939
 30
0.0
 10
540.9474184407355
 20
885.6514026029598
 30
0.0
 10
541.3660037565593
 20
886.0205425491114
 30
0.0
 10
541.7505419736815
 20
886.3042456541026
 30
0.0
 10
542.0330108960346
 20
886.4908162404103
 30
0.0
 10
542.3009470190848
 20
886.6519057153706
 30
0.0
 10
542.5799621976001
 20
886.8065987216045
 30
0.0
 10
542.9031120188947
 20
886.9696822788818
 30
0.0
 10
543.3945004414744
 20
887.191695649196
 30
0.0
 10
544.033870067909
 20
887.4333662534515
 30
0.0
 10
544.9974316825217
 20
887.710509438633
 30
0.0
 10
546.074411818852
 20
887.8998814794871
 30
0.0
 10
547.1234829679446
 20
887.9405707228615
 30
0.0
 10
547.9311813691263
 20
887.8659668953159
 30
0.0
 10
548.5908514232443
 20
887.7098943743384
 30
0.0
 10
548.9334216662011
 20
887.5583304884802
 30
0.0
 10
549.0909087852839
 20
887.4674058745032
 30
0.0
  0
SPLINE
  5
1C4
330
16D
100
AcDbEntity
  8
0
  6
Continuous
 62
     0
370
     0
100
AcDbSpline
210
0.0
220
0.0
230
1.0
 70
     8
 71
     3
 72
    13
 73
     9
 74
     0
 42
0.000000001
 43
0.0
 40
0.0
 40
0.0
 40
0.0
 40
0.0
 40
0.6219021576259569
 40
1.243804315251914
 40
1.865706472877871
 40
2.487608630503828
 40
3.109510788129786
 40
3.406348710051686
 40
3.406348710051686
 40
3.406348710051686
 40
3.406348710051686
 10
540.3934936898894
 20
881.8744052690196
 30
0.0
 10
540.2863499873596
 20
881.936264714517
 30
0.0
 10
540.0832028395876
 20
882.0716295577703
 30
0.0
 10
539.8220459535578
 20
882.3100919868642
 30
0.0
 10
539.6145017205175
 20
882.5831137126446
 30
0.0
 10
539.4697951543437
 20
882.8882982509698
 30
0.0
 10
539.4084929462753
 20
883.1635578580721
 30
0.0
 10
539.3994971162523
 20
883.3359294830949
 30
0.0
 10
539.3995109168155
 20
883.3923564311373
 30
0.0
  0
SPLINE
  5
1C5
330
16D
100
AcDbEntity
  8
0
  6
Continuous
 62
     0
370
     0
100
AcDbSpline
210
0.0
220
0.0
230
1.0
 70
     8
 71
     3
 72
    13
 73
     9
 74
     0
 42
0.000000001
 43
0.0
 40
0.0
 40
0.0
 40
0.0
 40
0.0
 40
0.621902157625956
 40
1.243804315251913
 40
1.865706472877869
 40
2.487608630503825
 40
3.109510788129781
 40
3.405661679554239
 40
3.405661679554239
 40
3.405661679554239
 40
3.405661679554239
 10
569.2434449759336
 20
875.8323212212262
 30
0.0
 10
569.1363012734038
 20
875.8941806667234
 30
0.0
 10
568.9174983064813
 20
876.0024288357739
 30
0.0
 10
568.5804053420228
 20
876.1093661189019
 30
0.0
 10
568.2401894751918
 20
876.1525938342335
 30
0.0
 10
567.9035386290731
 20
876.1253211274719
 30
0.0
 10
567.6346256845799
 20
876.0408182932296
 30
0.0
 10
567.4809595816536
 20
875.9625026298708
 30
0.0
 10
567.432208595388
 20
875.9343559090177
 30
0.0
  0
SPLINE
  5
1C6
330
16D
100
AcDbEntity
  8
0
  6
Continuous
 62
     0
370
     0
100
AcDbSpline
210
0.0
220
0.0
230
1.0
 70
     8
 71
     3
 72
    13
 73
     9
 74
     0
 42
0.000000001
 43
0.0
 40
0.0
 40
0.0
 40
0.0
 40
0.0
 40
0.6219021576259569
 40
1.243804315251915
 40
1.865706472877872
 40
2.487608630503829
 40
3.109510788129787
 40
3.405661566250095
 40
3.405661566250095
 40
3.405661566250095
 40
3.405661566250095
 10
540.3934936898892
 20
825.8627397979106
 30
0.0
 10
540.2863499873595
 20
825.9245992434084
 30
0.0
 10
540.0832028395874
 20
826.0599640866614
 30
0.0
 10
539.8220459535577
 20
826.2984265157555
 30
0.0
 10
539.6145017205174
 20
826.5714482415359
 30
0.0
 10
539.4697951543436
 20
826.8766327798611
 30
0.0
 10
539.4085202877509
 20
827.1517696180762
 30
0.0
 10
539.3995105879861
 20
827.3240061763196
 30
0.0
 10
539.3995108679213
 20
827.3802991072147
 30
0.0
  0
LINE
  5
1C7
330
16D
100
AcDbEntity
  8
0
  6
Continuous
 62
     0
370
     0
100
AcDbLine
 10
540.393494
 20
846.928345
 30
0.0
 11
540.393494
 21
825.86274
 31
0.0
  0
LINE
  5
1C8
330
16D
100
AcDbEntity
  8
0
  6
Continuous
 62
     0
370
     0
100
AcDbLine
 10
540.393494
 20
846.928345
 30
0.0
 11
540.959179
 21
846.601747
 31
0.0
  0
SPLINE
  5
1C9
330
16D
100
AcDbEntity
  8
0
  6
Continuous
 62
     0
370
     0
100
AcDbSpline
210
0.0
220
0.0
230
1.0
 70
     8
 71
     3
 72
    27
 73
    23
 74
     0
 42
0.000000001
 43
0.0
 40
0.0
 40
0.0
 40
0.0
 40
0.0
 40
1.029141359914143
 40
1.899953279841494
 40
2.770765199768845
 40
3.799906559682988
 40
4.987377359583922
 40
5.699859839524484
 40
6.491507039458438
 40
6.887330639425416
 40
7.283154239392394
 40
7.599813119365976
 40
7.916471999339558
 40
8.312295599306537
 40
8.708119199273515
 40
9.49976639920747
 40
10.21224887914803
 40
11.39971967904896
 40
12.4288610389631
 40
13.29967295889045
 40
14.17048487881781
 40
15.19962623873195
 40
15.19962623873195
 40
15.19962623873195
 40
15.19962623873195
 10
520.2409450312765
 20
846.9691670902974
 30
0.0
 10
520.0834584462023
 20
847.0600920125838
 30
0.0
 10
519.7809152791009
 20
847.1885474409488
 30
0.0
 10
519.31591793153
 20
847.2322276492856
 30
0.0
 10
518.8474603883286
 20
847.1109729066314
 30
0.0
 10
518.3581631059448
 20
846.7471005016993
 30
0.0
 10
517.9836742046347
 20
846.1521468190834
 30
0.0
 10
517.7419065038824
 20
845.4582769126836
 30
0.0
 10
517.6315145908753
 20
844.9112014224532
 30
0.0
 10
517.5780896033815
 20
844.4363300052038
 30
0.0
 10
517.5577491972168
 20
844.0984194495126
 30
0.0
 10
517.5522096811438
 20
843.7858352228794
 30
0.0
 10
517.5577491972152
 20
843.4668544871269
 30
0.0
 10
517.5780896043208
 20
843.1054567540187
 30
0.0
 10
517.6315145969388
 20
842.568895211782
 30
0.0
 10
517.7419065275228
 20
841.8943495707537
 30
0.0
 10
517.9836742959764
 20
840.9213091417968
 30
0.0
 10
518.3581633659954
 20
839.8939309639364
 30
0.0
 10
518.8474610221185
 20
838.9650640767576
 30
0.0
 10
519.3159190325835
 20
838.3028786565111
 30
0.0
 10
519.7809168276416
 20
837.8096238920178
 30
0.0
 10
520.0834601245693
 20
837.5887313019656
 30
0.0
 10
520.2409467096444
 20
837.4978057630598
 30
0.0
  0
SPLINE
  5
1CA
330
16D
100
AcDbEntity
  8
0
  6
Continuous
 62
     0
370
     0
100
AcDbSpline
210
0.0
220
0.0
230
1.0
 70
     8
 71
     3
 72
    13
 73
     9
 74
     0
 42
0.000000001
 43
0.0
 40
0.0
 40
0.0
 40
0.0
 40
0.0
 40
0.6219021576259569
 40
1.243804315251913
 40
1.86570647287787
 40
2.487608630503826
 40
3.109510788129783
 40
3.40634882356742
 40
3.40634882356742
 40
3.40634882356742
 40
3.40634882356742
 10
520.7359197696777
 20
847.8264884856716
 30
0.0
 10
520.6287760671479
 20
847.888347931169
 30
0.0
 10
520.4099731002256
 20
847.9965961002193
 30
0.0
 10
520.0728801357669
 20
848.1035333833476
 30
0.0
 10
519.732664268936
 20
848.1467610986791
 30
0.0
 10
519.3960134228172
 20
848.1194883919173
 30
0.0
 10
519.1269804865742
 20
848.0349478516326
 30
0.0
 10
518.973204347224
 20
847.9565526433058
 30
0.0
 10
518.9243440589879
 20
847.9283272046372
 30
0.0
  0
ELLIPSE
  5
1CB
330
16D
100
AcDbEntity
  8
0
  6
Continuous
 62
     0
370
     0
100
AcDbEllipse
 10
539.544966
 20
845.78525
 30
0.0
 11
-1.000000000000002
 21
-1.73205080756888
 31
0.0
210
0.0
220
0.0
230
-1.0
 40
0.57735
 41
3.141592430701666
 42
3.926990816987218
  0
LINE
  5
1CC
330
16D
100
AcDbEntity
  8
0
  6
Continuous
 62
     0
370
    30
100
AcDbLine
 10
520.910072
 20
862.341649
 30
0.0
 11
532.399503
 21
855.708223
 31
0.0
  0
LINE
  5
1CD
330
16D
100
AcDbEntity
  8
0
  6
Continuous
 62
     0
370
    30
100
AcDbLine
 10
527.910063
 20
874.46601
 30
0.0
 11
539.399503
 21
867.832579
 31
0.0
  0
ARC
  5
1CE
330
16D
100
AcDbEntity
  8
0
  6
Continuous
 62
     0
370
    30
100
AcDbCircle
 10
549.656451
 20
886.569179
 30
0.0
 40
0.7001411978678216
100
AcDbArc
 50
0.006671
 51
59.993328
  0
ARC
  5
1CF
330
16D
100
AcDbEntity
  8
0
  6
Continuous
 62
     0
370
    30
100
AcDbCircle
 10
569.808923
 20
874.934055
 30
0.0
 40
0.7002070349786995
100
AcDbArc
 50
0.009781
 51
59.990218
  0
ARC
  5
1D0
330
16D
100
AcDbEntity
  8
0
  6
Continuous
 62
     0
370
    30
100
AcDbCircle
 10
569.808964
 20
865.462911
 30
0.0
 40
0.7001667826915524
100
AcDbArc
 50
300.007881
 51
359.99212
  0
ARC
  5
1D1
330
16D
100
AcDbEntity
  8
0
  6
Continuous
 62
     0
370
    30
100
AcDbCircle
 10
549.656353
 20
830.557733
 30
0.0
 40
0.7002391056097887
100
AcDbArc
 50
299.98659
 51
359.988724
  0
ARC
  5
1D2
330
16D
100
AcDbEntity
  8
0
  6
Continuous
 62
     0
370
    30
100
AcDbCircle
 10
541.454154
 20
825.821957
 30
0.0
 40
0.7000367804152423
100
AcDbArc
 50
240.001738
 51
299.998262
  0
ARC
  5
1D3
330
16D
100
AcDbEntity
  8
0
  6
Continuous
 62
     0
370
    30
100
AcDbCircle
 10
521.301605
 20
837.457145
 30
0.0
 40
0.7001411978541392
100
AcDbArc
 50
240.006671
 51
299.993329
  0
SPLINE
  5
1D4
330
16D
100
AcDbEntity
  8
0
  6
Continuous
 62
     0
370
    30
100
AcDbSpline
210
0.0
220
0.0
230
1.0
 70
     8
 71
     3
 72
    11
 73
     7
 74
     0
 42
0.000000001
 43
0.0
 40
0.0
 40
0.0
 40
0.0
 40
0.0
 40
0.4132330920692155
 40
0.8601046981000798
 40
1.237418351687201
 40
1.738983677257788
 40
1.738983677257788
 40
1.738983677257788
 40
1.738983677257788
 10
550.5657808184159
 20
864.8738621672045
 30
0.0
 10
550.5465057106743
 20
864.8849906591146
 30
0.0
 10
550.5119360920916
 20
864.9113690594753
 30
0.0
 10
550.4438861762941
 20
865.0073506058187
 30
0.0
 10
550.3780703896297
 20
865.1978765958412
 30
0.0
 10
550.3565925286028
 20
865.3846043436512
 30
0.0
 10
550.3565925283709
 20
865.5036425788097
 30
0.0
  0
SPLINE
  5
1D5
330
16D
100
AcDbEntity
  8
0
  6
Continuous
 62
     0
370
    30
100
AcDbSpline
210
0.0
220
0.0
230
1.0
 70
     8
 71
     3
 72
    20
 73
    16
 74
     0
 42
0.000000001
 43
0.0
 40
0.0
 40
0.0
 40
0.0
 40
0.0
 40
0.6171197787287743
 40
1.19354942823151
 40
2.293485114191092
 40
3.280219039720055
 40
4.649652972487337
 40
5.629425580095373
 40
7.833801245601209
 40
8.996445474041428
 40
10.4432925894064
 40
11.52092576877279
 40
12.23829455033667
 40
13.24818484771701
 40
14.08546122426396
 40
14.08546122426396
 40
14.08546122426396
 40
14.08546122426396
 10
539.399494589314
 20
883.3923564351388
 30
0.0
 10
539.3994945036862
 20
883.5411887421911
 30
0.0
 10
539.4305625394744
 20
883.8278037383421
 30
0.0
 10
539.5848753185512
 20
884.3510401659197
 30
0.0
 10
539.8874186642159
 20
884.9084211058506
 30
0.0
 10
540.4257965574026
 20
885.5623847371518
 30
0.0
 10
541.0739675132837
 20
886.1266217776446
 30
0.0
 10
542.1042912463862
 20
886.8102765892821
 30
0.0
 10
543.2548270400954
 20
887.3519426870938
 30
0.0
 10
544.689590600094
 20
887.7902554783333
 30
0.0
 10
545.8709453400053
 20
888.0098485524596
 30
0.0
 10
546.952984173187
 20
888.0688191257103
 30
0.0
 10
547.8865764985874
 20
888.0120063810431
 30
0.0
 10
548.7076080762168
 20
887.8473002543764
 30
0.0
 10
549.2289939309659
 20
887.6243960483256
 30
0.0
 10
549.4408860925704
 20
887.5020891465768
 30
0.0
  0
SPLINE
  5
1D6
330
16D
100
AcDbEntity
  8
0
  6
Continuous
 62
     0
370
    30
100
AcDbSpline
210
0.0
220
0.0
230
1.0
 70
     8
 71
     3
 72
    12
 73
     8
 74
     0
 42
0.000000001
 43
0.0
 40
0.0
 40
0.0
 40
0.0
 40
0.0
 40
0.481040823367843
 40
1.319558656696693
 40
1.647906381012788
 40
2.108914615780738
 40
2.869642788868864
 40
2.869642788868864
 40
2.869642788868864
 40
2.869642788868864
 10
569.5934249179749
 20
875.8670029723238
 30
0.0
 10
569.4714893978017
 20
875.9373861979169
 30
0.0
 10
569.1297794418807
 20
876.1031683021446
 30
0.0
 10
568.6883204326847
 20
876.2030881930422
 30
0.0
 10
568.2647157918849
 20
876.2038938894274
 30
0.0
 10
567.8719507467304
 20
876.1430108555297
 30
0.0
 10
567.590584023861
 20
876.0258129354442
 30
0.0
 10
567.4318594352484
 20
875.9341731182338
 30
0.0
  0
SPLINE
  5
1D7
330
16D
100
AcDbEntity
  8
0
  6
Continuous
 62
     0
370
    30
100
AcDbSpline
210
0.0
220
0.0
230
1.0
 70
     8
 71
     3
 72
    15
 73
    11
 74
     0
 42
0.000000001
 43
0.0
 40
0.0
 40
0.0
 40
0.0
 40
0.0
 40
0.2466711646573491
 40
0.6510360494684213
 40
1.075280760625243
 40
1.730929020684617
 40
2.391797182589811
 40
2.827462467150998
 40
3.251341681825803
 40
3.571047340273452
 40
3.571047340273452
 40
3.571047340273452
 40
3.571047340273452
 10
550.3565925283709
 20
851.6232007030782
 30
0.0
 10
550.3565925282578
 20
851.6818754300403
 30
0.0
 10
550.3642402226051
 20
851.8461770725143
 30
0.0
 10
550.4116742853846
 20
852.1465704820283
 30
0.0
 10
550.5393929609766
 20
852.5887581701307
 30
0.0
 10
550.7794706413682
 20
853.1173516541429
 30
0.0
 10
551.1083565652281
 20
853.6046833740223
 30
0.0
 10
551.4309633278019
 20
853.959350626934
 30
0.0
 10
551.690398396413
 20
854.1805468774886
 30
0.0
 10
551.8499530406359
 20
854.2857883781309
 30
0.0
 10
551.9157808460396
 20
854.3237940786838
 30
0.0
  0
SPLINE
  5
1D8
330
16D
100
AcDbEntity
  8
0
  6
Continuous
 62
     0
370
    30
100
AcDbSpline
210
0.0
220
0.0
230
1.0
 70
     8
 71
     3
 72
    12
 73
     8
 74
     0
 42
0.000000001
 43
0.0
 40
0.0
 40
0.0
 40
0.0
 40
0.0
 40
0.4810408099878765
 40
1.319558629406905
 40
1.647906358370947
 40
2.108914602274794
 40
2.869642683778695
 40
2.869642683778695
 40
2.869642683778695
 40
2.869642683778695
 10
540.5384483675558
 20
825.5423074108957
 30
0.0
 10
540.4165269495767
 20
825.6127150551844
 30
0.0
 10
540.1021004642087
 20
825.8257535035558
 30
0.0
 10
539.7948377997282
 20
826.1581082720414
 30
0.0
 10
539.5823377263272
 20
826.5245578032335
 30
0.0
 10
539.438681466435
 20
826.8951438078419
 30
0.0
 10
539.3994944795929
 20
827.1974134730455
 30
0.0
 10
539.399494589314
 20
827.3806928840387
 30
0.0
  0
SPLINE
  5
1D9
330
16D
100
AcDbEntity
  8
0
  6
Continuous
 62
     0
370
    30
100
AcDbSpline
210
0.0
220
0.0
230
1.0
 70
     8
 71
     3
 72
    20
 73
    16
 74
     0
 42
0.000000001
 43
0.0
 40
0.0
 40
0.0
 40
0.0
 40
0.0
 40
0.6171197530681769
 40
1.193549377591862
 40
2.293485011651296
 40
3.280218889265188
 40
4.649652765618604
 40
5.629425342106036
 40
7.833800964151618
 40
8.996445177260181
 40
10.44329227808941
 40
11.52092548001396
 40
12.23829428205543
 40
13.24818460462131
 40
14.08546108344592
 40
14.08546108344592
 40
14.08546108344592
 40
14.08546108344592
 10
518.9243358917709
 20
847.9283413426853
 30
0.0
 10
518.7954432966928
 20
847.8539252617742
 30
0.0
 10
518.5627614587837
 20
847.6837120550487
 30
0.0
 10
518.1867818290783
 20
847.2884550614134
 30
0.0
 10
517.8553474644428
 20
846.7477543865322
 30
0.0
 10
517.5581873038261
 20
845.9545236712769
 30
0.0
 10
517.3936291716312
 20
845.1110726732621
 30
0.0
 10
517.3167285938548
 20
843.8769587811638
 30
0.0
 10
517.4228998721816
 20
842.6097325393024
 30
0.0
 10
517.7606916127689
 20
841.148034478557
 30
0.0
 10
518.1611957804552
 20
840.0151547275203
 30
0.0
 10
518.6511451666353
 20
839.0485963070504
 30
0.0
 10
519.1671426059008
 20
838.2684879769389
 30
0.0
 10
519.7202981039596
 20
837.6398067833478
 30
0.0
 10
520.1740317633709
 20
837.2997254571854
 30
0.0
 10
520.3858987527329
 20
837.1773748973195
 30
0.0
  0
SPLINE
  5
1DA
330
16D
100
AcDbEntity
  8
0
  6
Continuous
 62
     0
370
    30
100
AcDbSpline
210
0.0
220
0.0
230
1.0
 70
     8
 71
     3
 72
    12
 73
     8
 74
     0
 42
0.000000001
 43
0.0
 40
0.0
 40
0.0
 40
0.0
 40
0.0
 40
0.4269979376779409
 40
0.6893628053838501
 40
1.22489717238432
 40
1.492768094312399
 40
1.738960958374876
 40
1.738960958374876
 40
1.738960958374876
 40
1.738960958374876
 10
539.8949655658594
 20
847.3835731407929
 30
0.0
 10
539.9828023235642
 20
847.4342857156761
 30
0.0
 10
540.1187072115615
 20
847.4963981860943
 30
0.0
 10
540.3207117762885
 20
847.5521522806722
 30
0.0
 10
540.4423443199879
 20
847.5522207428529
 30
0.0
 10
540.5094132959522
 20
847.5349817874263
 30
0.0
 10
540.5334794511076
 20
847.5239324511612
 30
0.0
 10
540.5449654093475
 20
847.5173010431041
 30
0.0
  0
LINE
  5
1DB
330
16D
100
AcDbEntity
  8
0
  6
Continuous
 62
     0
370
    30
100
AcDbLine
 10
518.924679
 20
847.92853
 30
0.0
 11
538.399493
 21
859.172319
 31
0.0
  0
LINE
  5
1DC
330
16D
100
AcDbEntity
  8
0
  6
Continuous
 62
     0
370
    30
100
AcDbLine
 10
539.399503
 20
847.097517
 30
0.0
 11
539.399503
 21
827.380299
 31
0.0
  0
LINE
  5
1DD
330
16D
100
AcDbEntity
  8
0
  6
Continuous
 62
     0
370
    30
100
AcDbLine
 10
550.356593
 20
866.075754
 30
0.0
 11
567.432204
 21
875.934363
 31
0.0
  0
LINE
  5
1DE
330
16D
100
AcDbEntity
  8
0
  6
Continuous
 62
     0
370
    30
100
AcDbLine
 10
539.399503
 20
860.904385
 30
0.0
 11
539.399503
 21
883.391965
 31
0.0
  0
LINE
  5
1DF
330
16D
100
AcDbEntity
  8
0
  6
Continuous
 62
     0
370
    30
100
AcDbLine
 10
520.38592
 20
837.177363
 30
0.0
 11
520.951605
 21
836.850764
 31
0.0
  0
LINE
  5
1E0
330
16D
100
AcDbEntity
  8
0
  6
Continuous
 62
     0
370
    30
100
AcDbLine
 10
539.894966
 20
847.383573
 30
0.0
 11
521.651605
 21
836.850764
 31
0.0
  0
LINE
  5
1E1
330
16D
100
AcDbEntity
  8
0
  6
Continuous
 62
     0
370
    30
100
AcDbLine
 10
541.104154
 20
825.215697
 30
0.0
 11
540.538468
 21
825.542296
 31
0.0
  0
LINE
  5
1E2
330
16D
100
AcDbEntity
  8
0
  6
Continuous
 62
     0
370
    30
100
AcDbLine
 10
550.006593
 20
829.951377
 30
0.0
 11
541.804154
 21
825.215697
 31
0.0
  0
LINE
  5
1E3
330
16D
100
AcDbEntity
  8
0
  6
Continuous
 62
     0
370
    30
100
AcDbLine
 10
550.356593
 20
851.623201
 30
0.0
 11
550.356593
 21
830.557595
 31
0.0
  0
LINE
  5
1E4
330
16D
100
AcDbEntity
  8
0
  6
Continuous
 62
     0
370
    30
100
AcDbLine
 10
570.15913
 20
864.856597
 30
0.0
 11
551.915781
 21
854.323794
 31
0.0
  0
LINE
  5
1E5
330
16D
100
AcDbEntity
  8
0
  6
Continuous
 62
     0
370
    30
100
AcDbLine
 10
569.593445
 20
875.866991
 30
0.0
 11
570.15913
 21
875.540393
 31
0.0
  0
LINE
  5
1E6
330
16D
100
AcDbEntity
  8
0
  6
Continuous
 62
     0
370
    30
100
AcDbLine
 10
570.50913
 20
874.934175
 30
0.0
 11
570.50913
 21
865.462815
 31
0.0
  0
LINE
  5
1E7
330
16D
100
AcDbEntity
  8
0
  6
Continuous
 62
     0
370
    30
100
AcDbLine
 10
550.006593
 20
887.175478
 30
0.0
 11
549.440907
 21
887.502077
 31
0.0
  0
LINE
  5
1E8
330
16D
100
AcDbEntity
  8
0
  6
Continuous
 62
     0
370
    30
100
AcDbLine
 10
550.356593
 20
886.569261
 30
0.0
 11
550.356593
 21
865.503643
 31
0.0
  0
ARC
  5
1E9
330
16D
100
AcDbEntity
  8
0
  6
Continuous
 62
     0
370
    30
100
AcDbCircle
 10
537.398631
 20
860.904879
 30
0.0
 40
2.000865023798255
100
AcDbArc
 50
300.014539
 51
359.985459
  0
ELLIPSE
  5
1EA
330
16D
100
AcDbEntity
  8
0
  6
Continuous
 62
     0
370
    30
100
AcDbEllipse
 10
511.614224
 20
875.791517
 30
0.0
 11
-8.250000000000004
 21
-14.28941916244324
 31
0.0
210
0.0
220
0.0
230
-1.0
 40
0.57735
 41
0.0000000228501543
 42
3.141592676439945
  0
ELLIPSE
  5
1EB
330
16D
100
AcDbEntity
  8
0
  6
Continuous
 62
     0
370
    30
100
AcDbEllipse
 10
525.75636
 20
867.626551
 30
0.0
 11
-8.250000000000004
 21
-14.28941916244324
 31
0.0
210
0.0
220
0.0
230
-1.0
 40
0.57735
 41
5.15051436627899
 42
10.55744941665851
  0
ELLIPSE
  5
1EC
330
16D
100
AcDbEntity
  8
0
  6
Continuous
 62
     0
370
    30
100
AcDbEllipse
 10
525.75636
 20
867.626551
 30
0.0
 11
-3.750000000000001
 21
-6.49519052838329
 31
0.0
210
0.0
220
0.0
230
-1.0
 40
0.57735
 41
5.915978611550276
 42
9.791987306251336
  0
ELLIPSE
  5
1ED
330
16D
100
AcDbEntity
  8
0
  6
Continuous
 62
     0
370
    30
100
AcDbEllipse
 10
524.342146
 20
868.443048
 30
0.0
 11
-3.750000000000001
 21
-6.49519052838329
 31
0.0
210
0.0
220
0.0
230
-1.0
 40
0.57735
 41
3.331290162005294
 42
3.508801999071749
  0
ELLIPSE
  5
1EE
330
16D
100
AcDbEntity
  8
0
  6
Continuous
 62
     0
370
    30
100
AcDbEllipse
 10
524.342146
 20
868.443048
 30
0.0
 11
-3.750000000000001
 21
-6.49519052838329
 31
0.0
210
0.0
220
0.0
230
-1.0
 40
0.57735
 41
5.915978611550271
 42
6.093487844464387
  0
LINE
  5
1EF
330
16D
100
AcDbEntity
  8
0
  6
Continuous
 62
     0
370
    30
100
AcDbLine
 10
519.864224
 20
890.080936
 30
0.0
 11
534.00636
 21
881.91597
 31
0.0
  0
LINE
  5
1F0
330
16D
100
AcDbEntity
  8
0
  6
Continuous
 62
     0
370
    30
100
AcDbLine
 10
503.364224
 20
861.502098
 30
0.0
 11
517.50636
 21
853.337132
 31
0.0
  0
ELLIPSE
  5
1F1
330
16D
100
AcDbEntity
  8
0
  6
Continuous
 62
     0
370
    30
100
AcDbEllipse
 10
511.614224
 20
875.791517
 30
0.0
 11
-15.00000000000001
 21
-25.98076211353316
 31
0.0
210
0.0
220
0.0
230
-1.0
 40
0.57735
 41
5.294753241103588
 42
9.451888095058827
  0
ELLIPSE
  5
1F2
330
16D
100
AcDbEntity
  8
0
  6
Continuous
 62
     0
370
    30
100
AcDbEllipse
 10
511.614224
 20
875.791517
 30
0.0
 11
-15.00000000000001
 21
-25.98076211353316
 31
0.0
210
0.0
220
0.0
230
-1.0
 40
0.57735
 41
3.168702787879242
 42
4.130024765366098
  0
ELLIPSE
  5
1F3
330
16D
100
AcDbEntity
  8
0
  6
Continuous
 62
     0
370
    30
100
AcDbEllipse
 10
506.664477
 20
878.649255
 30
0.0
 11
-15.00000000000001
 21
-25.98076211353316
 31
0.0
210
0.0
220
0.0
230
-1.0
 40
0.57735
 41
0.0000000228501555
 42
3.141592676439946
  0
LINE
  5
1F4
330
16D
100
AcDbEntity
  8
0
  6
Continuous
 62
     0
370
    30
100
AcDbLine
 10
496.614224
 20
849.810755
 30
0.0
 11
491.664476
 21
852.668493
 31
0.0
  0
LINE
  5
1F5
330
16D
100
AcDbEntity
  8
0
  6
Continuous
 62
     0
370
    30
100
AcDbLine
 10
526.614225
 20
901.772279
 30
0.0
 11
521.664477
 21
904.630017
 31
0.0
  0
LINE
  5
1F6
330
16D
100
AcDbEntity
  8
0
  6
Continuous
 62
     0
370
    30
100
AcDbLine
 10
539.3059
 20
828.714048
 30
0.0
 11
539.399503
 21
828.660006
 31
0.0
  0
ENDBLK
  5
1F8
330
16D
100
AcDbEntity
  8
0
100
AcDbBlockEnd
  0
BLOCK
  5
24A
330
1FA
100
AcDbEntity
  8
0
100
AcDbBlockBegin
  2
e
 70
     0
 10
746.510677
 20
-5.673376
 30
0.0
  3
e
  1

  0
SPLINE
  5
1FB
330
1FA
100
AcDbEntity
  8
0
  6
Continuous
 62
     0
370
     0
100
AcDbSpline
210
0.0
220
0.0
230
1.0
 70
     8
 71
     3
 72
    13
 73
     9
 74
     0
 42
0.000000001
 43
0.0
 40
1.088698917416127
 40
1.088698917416127
 40
1.088698917416127
 40
1.088698917416127
 40
1.789436987000319
 40
2.507231324727775
 40
3.180523459596307
 40
4.095798448001911
 40
4.601774968688336
 40
5.240165855242434
 40
5.240165855242434
 40
5.240165855242434
 40
5.240165855242434
 10
263.052331233039
 20
669.2541757780257
 30
0.0
 10
262.9349897719684
 20
669.0661314680383
 30
0.0
 10
262.6832502807289
 20
668.6960342332211
 30
0.0
 10
262.2677321024069
 20
668.1936827326444
 30
0.0
 10
261.7604692724182
 20
667.7075347249149
 30
0.0
 10
261.2489070058833
 20
667.364974621983
 30
0.0
 10
260.7103206322629
 20
667.1609582436431
 30
0.0
 10
260.4009752796789
 20
667.1181363100575
 30
0.0
 10
260.2283719879853
 20
667.1181353490717
 30
0.0
  0
SPLINE
  5
1FC
330
1FA
100
AcDbEntity
  8
0
  6
Continuous
 62
     0
370
     0
100
AcDbSpline
210
0.0
220
0.0
230
1.0
 70
     8
 71
     3
 72
    12
 73
     8
 74
     0
 42
0.000000001
 43
0.0
 40
0.0
 40
0.0
 40
0.0
 40
0.0
 40
0.111110656590974
 40
0.333331969772922
 40
0.666665303106258
 40
0.8888884343687529
 40
1.0
 40
1.0
 40
1.0
 40
1.0
 10
263.0522727288893
 20
670.5572452675146
 30
0.0
 10
263.0244630129747
 20
670.5248615031448
 30
0.0
 10
262.9495487869641
 20
670.4203970135213
 30
0.0
 10
262.8527627479232
 20
670.1686835025073
 30
0.0
 10
262.8527762032394
 20
669.814120323724
 30
0.0
 10
262.9495848232797
 20
669.4792668421501
 30
0.0
 10
263.0245099603093
 20
669.3104530625465
 30
0.0
 10
263.0523232332903
 20
669.2541817644767
 30
0.0
  0
LINE
  5
1FD
330
1FA
100
AcDbEntity
  8
0
  6
Continuous
 62
     0
370
     0
100
AcDbLine
 10
260.228372
 20
669.118135
 30
0.0
 11
260.228379
 21
667.118135
 31
0.0
  0
SPLINE
  5
1FE
330
1FA
100
AcDbEntity
  8
0
  6
Continuous
 62
     0
370
     0
100
AcDbSpline
210
0.0
220
0.0
230
1.0
 70
     8
 71
     3
 72
    12
 73
     8
 74
     0
 42
0.000000001
 43
0.0
 40
7.102293978971531
 40
7.102293978971531
 40
7.102293978971531
 40
7.102293978971531
 40
7.413697331254708
 40
9.117847923670784
 40
10.62923903960934
 40
12.27392158409421
 40
13.1679521014325
 40
13.1679521014325
 40
13.1679521014325
 40
13.1679521014325
 10
266.7283273476849
 20
668.6182398775795
 30
0.0
 10
266.7283618193237
 20
668.6181978972293
 30
0.0
 10
266.7145804886125
 20
668.6317133261966
 30
0.0
 10
266.5302962669995
 20
668.813350132627
 30
0.0
 10
265.9612339767826
 20
669.3675277507007
 30
0.0
 10
265.2747675057942
 20
670.021324577797
 30
0.0
 10
264.7605553722173
 20
670.4957229952113
 30
0.0
 10
264.5696743889117
 20
670.6685809590826
 30
0.0
  0
SPLINE
  5
1FF
330
1FA
100
AcDbEntity
  8
0
  6
Continuous
 62
     0
370
     0
100
AcDbSpline
210
0.0
220
0.0
230
1.0
 70
     8
 71
     3
 72
    12
 73
     8
 74
     0
 42
0.000000001
 43
0.0
 40
0.0
 40
0.0
 40
0.0
 40
0.0
 40
0.111111043893932
 40
0.333333131681796
 40
0.6666664650151282
 40
0.888888821671709
 40
1.0
 40
1.0
 40
1.0
 40
1.0
 10
263.0523232332903
 20
669.2541817644767
 30
0.0
 10
263.0840008201019
 20
669.3182735927076
 30
0.0
 10
263.1900789196907
 20
669.5105490966794
 30
0.0
 10
263.4674514794684
 20
669.8909776616358
 30
0.0
 10
263.8864098656431
 20
670.2815073313532
 30
0.0
 10
264.2945266967785
 20
670.5400537316548
 30
0.0
 10
264.5007950741153
 20
670.6389301145086
 30
0.0
 10
264.569551041916
 20
670.6684568156957
 30
0.0
  0
SPLINE
  5
200
330
1FA
100
AcDbEntity
  8
0
  6
Continuous
 62
     0
370
     0
100
AcDbSpline
210
0.0
220
0.0
230
1.0
 70
     8
 71
     3
 72
    16
 73
    12
 74
     0
 42
0.000000001
 43
0.0
 40
7.282736434396779
 40
7.282736434396779
 40
7.282736434396779
 40
7.282736434396779
 40
7.384587825379404
 40
7.602292845660429
 40
8.050267079956257
 40
8.865339190644987
 40
9.587712381118447
 40
10.89963405505803
 40
11.9197382566156
 40
13.26983234920002
 40
13.50274282917339
 40
13.50274282917339
 40
13.50274282917339
 40
13.50274282917339
 10
264.728407623658
 20
666.6181431849618
 30
0.0
 10
264.7284075811561
 20
666.6181432533758
 30
0.0
 10
264.7278390751563
 20
666.6190159448938
 30
0.0
 10
264.722188927833
 20
666.6276888968678
 30
0.0
 10
264.6941284933401
 20
666.6707728487902
 30
0.0
 10
264.6134848557143
 20
666.7947325642772
 30
0.0
 10
264.4275411165956
 20
667.0816546556853
 30
0.0
 10
264.1378701540661
 20
667.5315566226798
 30
0.0
 10
263.6924534075292
 20
668.2319208750118
 30
0.0
 10
263.3250369354429
 20
668.8172363128181
 30
0.0
 10
263.0875750889802
 20
669.1977283121093
 30
0.0
 10
263.0523469873176
 20
669.2541942569612
 30
0.0
  0
SPLINE
  5
201
330
1FA
100
AcDbEntity
  8
0
  6
Continuous
 62
     0
370
     0
100
AcDbSpline
210
0.0
220
0.0
230
1.0
 70
     8
 71
     3
 72
    10
 73
     6
 74
     0
 42
0.000000001
 43
0.0
 40
0.0
 40
0.0
 40
0.0
 40
0.0
 40
0.723941824859435
 40
1.44790153126454
 40
2.171879117896169
 40
2.171879117896169
 40
2.171879117896169
 40
2.171879117896169
 10
263.0522727288893
 20
670.5572452675146
 30
0.0
 10
263.1473174258608
 20
670.6678968699077
 30
0.0
 10
263.4070916633926
 20
670.8330369507551
 30
0.0
 10
263.9467659048009
 20
670.8725932034877
 30
0.0
 10
264.3632740327834
 20
670.757022147277
 30
0.0
 10
264.569551041916
 20
670.6684568156957
 30
0.0
  0
SPLINE
  5
202
330
1FA
100
AcDbEntity
  8
0
  6
Continuous
 62
     0
370
     0
100
AcDbSpline
210
0.0
220
0.0
230
1.0
 70
     8
 71
     3
 72
    16
 73
    12
 74
     0
 42
0.000000001
 43
0.0
 40
1.036425014597385
 40
1.036425014597385
 40
1.036425014597385
 40
1.036425014597385
 40
1.110744251506268
 40
2.189467893912901
 40
4.177571134119697
 40
5.671291979533451
 40
7.41403273394689
 40
9.118176729562256
 40
10.6295864351307
 40
12.2743040219912
 40
13.16784666328683
 40
13.16784666328683
 40
13.16784666328683
 40
13.16784666328683
 10
264.569551041916
 20
670.6684568156957
 30
0.0
 10
264.5854168530738
 20
670.6828246969958
 30
0.0
 10
264.8305409136189
 20
670.9070528084771
 30
0.0
 10
265.4546915934026
 20
671.5734017205839
 30
0.0
 10
266.1708975680334
 20
672.7512295057704
 30
0.0
 10
266.6638789196239
 20
674.3186339991289
 30
0.0
 10
266.7893536574909
 20
675.9097484094598
 30
0.0
 10
266.5302063907026
 20
677.4797844056191
 30
0.0
 10
265.9610750078697
 20
678.8757498836785
 30
0.0
 10
265.2746360903546
 20
679.8696833984629
 30
0.0
 10
264.7605052243017
 20
680.3951555661195
 30
0.0
 10
264.5697299736403
 20
680.5679019913478
 30
0.0
  0
SPLINE
  5
203
330
1FA
100
AcDbEntity
  8
0
  6
Continuous
 62
     0
370
     0
100
AcDbSpline
210
0.0
220
0.0
230
1.0
 70
     8
 71
     3
 72
    10
 73
     6
 74
     0
 42
0.000000001
 43
0.0
 40
0.0
 40
0.0
 40
0.0
 40
0.0
 40
0.724039994823727
 40
1.448094429070311
 40
2.172163302831896
 40
2.172163302831896
 40
2.172163302831896
 40
2.172163302831896
 10
263.0522837995143
 20
680.6790130612744
 30
0.0
 10
263.147333108489
 20
680.5683454976311
 30
0.0
 10
263.4071364835382
 20
680.4031873020115
 30
0.0
 10
263.9468834986828
 20
680.3636640005943
 30
0.0
 10
264.3634371821533
 20
680.4792977785178
 30
0.0
 10
264.5697299736403
 20
680.5679019913478
 30
0.0
  0
SPLINE
  5
204
330
1FA
100
AcDbEntity
  8
0
  6
Continuous
 62
     0
370
     0
100
AcDbSpline
210
0.0
220
0.0
230
1.0
 70
     8
 71
     3
 72
    12
 73
     8
 74
     0
 42
0.000000001
 43
0.0
 40
0.0078499107250376
 40
0.0078499107250376
 40
0.0078499107250376
 40
0.0078499107250376
 40
0.111110799394611
 40
0.333332398183832
 40
0.66666573151717
 40
0.8888885771723901
 40
1.0
 40
1.0
 40
1.0
 40
1.0
 10
263.046431894288
 20
680.6859132939451
 30
0.0
 10
263.0209591514654
 20
680.7163293159476
 30
0.0
 10
262.9484160492306
 20
680.8188268759538
 30
0.0
 10
262.8527648254318
 20
681.0675806088345
 30
0.0
 10
262.852775435587
 20
681.4221508794683
 30
0.0
 10
262.9495841343339
 20
681.7570113278575
 30
0.0
 10
263.0245099471952
 20
681.9258284401858
 30
0.0
 10
263.0523235162706
 20
681.9821008371619
 30
0.0
  0
SPLINE
  5
205
330
1FA
100
AcDbEntity
  8
0
  6
Continuous
 62
     0
370
     0
100
AcDbSpline
210
0.0
220
0.0
230
1.0
 70
     8
 71
     3
 72
    12
 73
     8
 74
     0
 42
0.000000001
 43
0.0
 40
0.0
 40
0.0
 40
0.0
 40
0.0
 40
0.6520897743775019
 40
1.28496578969263
 40
2.406270548573095
 40
3.546936377761555
 40
4.151717962033913
 40
4.151717962033913
 40
4.151717962033913
 40
4.151717962033913
 10
260.228367857792
 20
684.1181353490601
 30
0.0
 10
260.4046746698226
 20
684.1181353490601
 30
0.0
 10
260.751999481427
 20
684.0690323104536
 30
0.0
 10
261.3780988808763
 20
683.8108186869497
 30
0.0
 10
262.0648496647256
 20
683.283054413404
 30
0.0
 10
262.6438319699673
 20
682.6010303993664
 30
0.0
 10
262.9511783101278
 20
682.1443850834762
 30
0.0
 10
263.052447139191
 20
681.9821867562528
 30
0.0
  0
LINE
  5
206
330
1FA
100
AcDbEntity
  8
0
  6
Continuous
 62
     0
370
     0
100
AcDbLine
 10
260.228372
 20
682.118135
 30
0.0
 11
260.228372
 21
684.118135
 31
0.0
  0
SPLINE
  5
207
330
1FA
100
AcDbEntity
  8
0
  6
Continuous
 62
     0
370
     0
100
AcDbSpline
210
0.0
220
0.0
230
1.0
 70
     8
 71
     3
 72
    12
 73
     8
 74
     0
 42
0.000000001
 43
0.0
 40
0.0
 40
0.0
 40
0.0
 40
0.0
 40
0.111109627363873
 40
0.333328882091619
 40
0.66666221542495
 40
0.8888874051416499
 40
1.0
 40
1.0
 40
1.0
 40
1.0
 10
263.0523235162706
 20
681.9821008371619
 30
0.0
 10
263.0840058692903
 20
681.918013798314
 30
0.0
 10
263.190099180653
 20
681.7257522562172
 30
0.0
 10
263.4675088001055
 20
681.3453467068448
 30
0.0
 10
263.8865173054282
 20
680.954836207756
 30
0.0
 10
264.2946780365249
 20
680.6963003977512
 30
0.0
 10
264.5009673238476
 20
680.5974276084382
 30
0.0
 10
264.5697299736403
 20
680.5679019913478
 30
0.0
  0
SPLINE
  5
208
330
1FA
100
AcDbEntity
  8
0
  6
Continuous
 62
     0
370
     0
100
AcDbSpline
210
0.0
220
0.0
230
1.0
 70
     8
 71
     3
 72
    12
 73
     8
 74
     0
 42
0.000000001
 43
0.0
 40
1.036551057264528
 40
1.036551057264528
 40
1.036551057264528
 40
1.036551057264528
 40
1.110209468683914
 40
2.188886951357268
 40
4.177064877331093
 40
5.670853416855161
 40
7.102250363851074
 40
7.102250363851074
 40
7.102250363851074
 40
7.102250363851074
 10
264.5696277969776
 20
680.5680144138828
 30
0.0
 10
264.5853523280951
 20
680.5822563486104
 30
0.0
 10
264.8303320400416
 20
680.804441294784
 30
0.0
 10
265.4544017713517
 20
681.3826586706873
 30
0.0
 10
266.170701894011
 20
682.0716510522825
 30
0.0
 10
266.634412760218
 20
682.525476305352
 30
0.0
 10
266.7281664357174
 20
682.6178507329653
 30
0.0
 10
266.728327362545
 20
682.6180460958708
 30
0.0
  0
SPLINE
  5
209
330
1FA
100
AcDbEntity
  8
0
  6
Continuous
 62
     0
370
     0
100
AcDbSpline
210
0.0
220
0.0
230
1.0
 70
     8
 71
     3
 72
    16
 73
    12
 74
     0
 42
0.000000001
 43
0.0
 40
1.062716482746849
 40
1.062716482746849
 40
1.062716482746849
 40
1.062716482746849
 40
1.298726515577399
 40
3.006372394677578
 40
3.878711725755534
 40
4.283324162189563
 40
5.569195165989425
 40
6.279091221316628
 40
6.951075768366389
 40
7.168944913119137
 40
7.282720684980313
 40
7.282720684980313
 40
7.282720684980313
 40
7.282720684980313
 10
263.0523448336961
 20
681.9820983461645
 30
0.0
 10
263.0880435563751
 20
682.0393166729054
 30
0.0
 10
263.379597496119
 20
682.5064524840363
 30
0.0
 10
263.7714950093782
 20
683.129614118003
 30
0.0
 10
264.1145269835529
 20
683.6673472268149
 30
0.0
 10
264.370597239055
 20
684.0664729888217
 30
0.0
 10
264.5582847450541
 20
684.3565539264714
 30
0.0
 10
264.6826799436806
 20
684.5479408157246
 30
0.0
 10
264.7199444733034
 20
684.6051511275052
 30
0.0
 10
264.7277487084148
 20
684.6171313419559
 30
0.0
 10
264.7284076284913
 20
684.6181427879635
 30
0.0
 10
264.7284076237245
 20
684.6181427720376
 30
0.0
  0
ARC
  5
20A
330
1FA
100
AcDbEntity
  8
0
  6
Continuous
 62
     0
370
    30
100
AcDbCircle
 10
259.428372
 20
709.918143
 30
0.0
 40
0.6999999880790782
100
AcDbArc
 50
90.0
 51
180.0
  0
LINE
  5
20B
330
1FA
100
AcDbEntity
  8
0
  6
Continuous
 62
     0
370
     0
100
AcDbLine
 10
259.428372
 20
709.918143
 30
0.0
 11
259.428372
 21
684.118135
 31
0.0
  0
LINE
  5
20C
330
1FA
100
AcDbEntity
  8
0
  6
Continuous
 62
     0
370
     0
100
AcDbLine
 10
259.428372
 20
709.918143
 30
0.0
 11
258.728372
 21
709.918143
 31
0.0
  0
LINE
  5
20D
330
1FA
100
AcDbEntity
  8
0
  6
Continuous
 62
     0
370
    30
100
AcDbLine
 10
258.728372
 20
709.918143
 30
0.0
 11
258.728372
 21
684.118135
 31
0.0
  0
LINE
  5
20E
330
1FA
100
AcDbEntity
  8
0
  6
Continuous
 62
     0
370
     0
100
AcDbLine
 10
258.728372
 20
684.118135
 30
0.0
 11
259.428372
 21
684.118135
 31
0.0
  0
LINE
  5
20F
330
1FA
100
AcDbEntity
  8
0
  6
Continuous
 62
     0
370
    30
100
AcDbLine
 10
260.22837
 20
710.618143
 30
0.0
 11
259.428372
 21
710.618143
 31
0.0
  0
LINE
  5
210
330
1FA
100
AcDbEntity
  8
0
  6
Continuous
 62
     0
370
     0
100
AcDbLine
 10
259.428372
 20
710.618143
 30
0.0
 11
259.428372
 21
709.918143
 31
0.0
  0
LINE
  5
211
330
1FA
100
AcDbEntity
  8
0
  6
Continuous
 62
     0
370
     0
100
AcDbLine
 10
260.228372
 20
709.918143
 30
0.0
 11
259.428372
 21
709.918143
 31
0.0
  0
LINE
  5
212
330
1FA
100
AcDbEntity
  8
0
  6
Continuous
 62
     0
370
     0
100
AcDbLine
 10
260.228372
 20
710.618143
 30
0.0
 11
260.228372
 21
709.918143
 31
0.0
  0
ARC
  5
213
330
1FA
100
AcDbEntity
  8
0
  6
Continuous
 62
     0
370
    30
100
AcDbCircle
 10
259.428371
 20
681.418135
 30
0.0
 40
0.699999988079071
100
AcDbArc
 50
90.0
 51
180.0
  0
LINE
  5
214
330
1FA
100
AcDbEntity
  8
0
  6
Continuous
 62
     0
370
     0
100
AcDbLine
 10
259.428371
 20
669.818135
 30
0.0
 11
259.428371
 21
681.418135
 31
0.0
  0
LINE
  5
215
330
1FA
100
AcDbEntity
  8
0
  6
Continuous
 62
     0
370
     0
100
AcDbLine
 10
259.428371
 20
681.418135
 30
0.0
 11
258.728371
 21
681.418135
 31
0.0
  0
LINE
  5
216
330
1FA
100
AcDbEntity
  8
0
  6
Continuous
 62
     0
370
    30
100
AcDbLine
 10
258.728371
 20
669.818135
 30
0.0
 11
258.728371
 21
681.418135
 31
0.0
  0
LINE
  5
217
330
1FA
100
AcDbEntity
  8
0
  6
Continuous
 62
     0
370
     0
100
AcDbLine
 10
259.428371
 20
669.818135
 30
0.0
 11
258.728371
 21
669.818135
 31
0.0
  0
LINE
  5
218
330
1FA
100
AcDbEntity
  8
0
  6
Continuous
 62
     0
370
     0
100
AcDbLine
 10
260.228371
 20
681.418135
 30
0.0
 11
260.228371
 21
682.118135
 31
0.0
  0
LINE
  5
219
330
1FA
100
AcDbEntity
  8
0
  6
Continuous
 62
     0
370
    30
100
AcDbLine
 10
259.428371
 20
682.118135
 30
0.0
 11
260.228371
 21
682.118135
 31
0.0
  0
LINE
  5
21A
330
1FA
100
AcDbEntity
  8
0
  6
Continuous
 62
     0
370
     0
100
AcDbLine
 10
259.428371
 20
681.418135
 30
0.0
 11
259.428371
 21
682.118135
 31
0.0
  0
LINE
  5
21B
330
1FA
100
AcDbEntity
  8
0
  6
Continuous
 62
     0
370
     0
100
AcDbLine
 10
259.428371
 20
681.418135
 30
0.0
 11
260.228371
 21
681.418135
 31
0.0
  0
ARC
  5
21C
330
1FA
100
AcDbEntity
  8
0
  6
Continuous
 62
     0
370
    30
100
AcDbCircle
 10
259.428371
 20
669.818135
 30
0.0
 40
0.6999999880790639
100
AcDbArc
 50
180.0
 51
270.0
  0
LINE
  5
21D
330
1FA
100
AcDbEntity
  8
0
  6
Continuous
 62
     0
370
     0
100
AcDbLine
 10
260.228368
 20
669.818135
 30
0.0
 11
259.428371
 21
669.818135
 31
0.0
  0
LINE
  5
21E
330
1FA
100
AcDbEntity
  8
0
  6
Continuous
 62
     0
370
     0
100
AcDbLine
 10
259.428371
 20
669.818135
 30
0.0
 11
259.428371
 21
669.118135
 31
0.0
  0
LINE
  5
21F
330
1FA
100
AcDbEntity
  8
0
  6
Continuous
 62
     0
370
    30
100
AcDbLine
 10
260.228371
 20
669.118135
 30
0.0
 11
259.428371
 21
669.118135
 31
0.0
  0
LINE
  5
220
330
1FA
100
AcDbEntity
  8
0
  6
Continuous
 62
     0
370
     0
100
AcDbLine
 10
260.228371
 20
669.818135
 30
0.0
 11
260.228371
 21
669.118135
 31
0.0
  0
LINE
  5
221
330
1FA
100
AcDbEntity
  8
0
  6
Continuous
 62
     0
370
     0
100
AcDbLine
 10
259.428372
 20
667.118135
 30
0.0
 11
258.728372
 21
667.118135
 31
0.0
  0
LINE
  5
222
330
1FA
100
AcDbEntity
  8
0
  6
Continuous
 62
     0
370
    30
100
AcDbLine
 10
258.728372
 20
667.118135
 30
0.0
 11
258.728372
 21
641.318143
 31
0.0
  0
LINE
  5
223
330
1FA
100
AcDbEntity
  8
0
  6
Continuous
 62
     0
370
     0
100
AcDbLine
 10
259.428372
 20
641.318143
 30
0.0
 11
258.728372
 21
641.318143
 31
0.0
  0
LINE
  5
224
330
1FA
100
AcDbEntity
  8
0
  6
Continuous
 62
     0
370
     0
100
AcDbLine
 10
259.428372
 20
667.118135
 30
0.0
 11
259.428372
 21
641.318143
 31
0.0
  0
LINE
  5
225
330
1FA
100
AcDbEntity
  8
0
  6
Continuous
 62
     0
370
     0
100
AcDbLine
 10
260.228372
 20
640.618143
 30
0.0
 11
260.228372
 21
641.318143
 31
0.0
  0
LINE
  5
226
330
1FA
100
AcDbEntity
  8
0
  6
Continuous
 62
     0
370
     0
100
AcDbLine
 10
260.228372
 20
641.318143
 30
0.0
 11
259.428372
 21
641.318143
 31
0.0
  0
LINE
  5
227
330
1FA
100
AcDbEntity
  8
0
  6
Continuous
 62
     0
370
     0
100
AcDbLine
 10
259.428372
 20
640.618143
 30
0.0
 11
259.428372
 21
641.318143
 31
0.0
  0
LINE
  5
228
330
1FA
100
AcDbEntity
  8
0
  6
Continuous
 62
     0
370
    30
100
AcDbLine
 10
260.22837
 20
640.618143
 30
0.0
 11
259.428372
 21
640.618143
 31
0.0
  0
ARC
  5
229
330
1FA
100
AcDbEntity
  8
0
  6
Continuous
 62
     0
370
    30
100
AcDbCircle
 10
259.428372
 20
641.318143
 30
0.0
 40
0.6999999880790639
100
AcDbArc
 50
180.0
 51
270.0
  0
LINE
  5
22A
330
1FA
100
AcDbEntity
  8
0
  6
Continuous
 62
     0
370
    30
100
AcDbLine
 10
258.728372
 20
667.118135
 30
0.0
 11
258.728372
 21
669.818135
 31
0.0
  0
LINE
  5
22B
330
1FA
100
AcDbEntity
  8
0
  6
Continuous
 62
     0
370
    30
100
AcDbLine
 10
258.728372
 20
681.418135
 30
0.0
 11
258.728372
 21
684.118135
 31
0.0
  0
LINE
  5
22C
330
1FA
100
AcDbEntity
  8
0
  6
Continuous
 62
     0
370
     0
100
AcDbLine
 10
260.228368
 20
684.118135
 30
0.0
 11
259.428372
 21
684.118135
 31
0.0
  0
LINE
  5
22D
330
1FA
100
AcDbEntity
  8
0
  6
Continuous
 62
     0
370
     0
100
AcDbLine
 10
259.428372
 20
682.118135
 30
0.0
 11
259.428372
 21
684.118135
 31
0.0
  0
LINE
  5
22E
330
1FA
100
AcDbEntity
  8
0
  6
Continuous
 62
     0
370
     0
100
AcDbLine
 10
260.228372
 20
709.918143
 30
0.0
 11
260.228372
 21
684.118135
 31
0.0
  0
LINE
  5
22F
330
1FA
100
AcDbEntity
  8
0
  6
Continuous
 62
     0
370
    30
100
AcDbLine
 10
264.028408
 20
710.618143
 30
0.0
 11
260.22837
 21
710.618143
 31
0.0
  0
LINE
  5
230
330
1FA
100
AcDbEntity
  8
0
  6
Continuous
 62
     0
370
     0
100
AcDbLine
 10
264.728408
 20
709.918143
 30
0.0
 11
260.228372
 21
709.918143
 31
0.0
  0
SPLINE
  5
231
330
1FA
100
AcDbEntity
  8
0
  6
Continuous
 62
     0
370
     0
100
AcDbSpline
210
0.0
220
0.0
230
1.0
 70
     8
 71
     3
 72
    27
 73
    23
 74
     0
 42
0.000000001
 43
0.0
 40
0.0
 40
0.0
 40
0.0
 40
0.0
 40
1.029141359914143
 40
1.899953279841495
 40
2.770765199768846
 40
3.799906559682989
 40
4.987377359583923
 40
5.699859839524484
 40
6.49150703945844
 40
6.887330639425417
 40
7.283154239392395
 40
7.599813119365979
 40
7.916471999339561
 40
8.31229559930654
 40
8.708119199273517
 40
9.499766399207472
 40
10.21224887914803
 40
11.39971967904897
 40
12.4288610389631
 40
13.29967295889046
 40
14.17048487881781
 40
15.19962623873196
 40
15.19962623873196
 40
15.19962623873196
 40
15.19962623873196
 10
260.2283707422111
 20
681.4181353609811
 30
0.0
 10
260.4510904067149
 20
681.4181353609811
 30
0.0
 10
260.8789510568329
 20
681.3615301630143
 30
0.0
 10
261.5365566122354
 20
681.0862244964549
 30
0.0
 10
262.1990556232267
 20
680.6064688667618
 30
0.0
 10
262.8910264760062
 20
679.8148325785903
 30
0.0
 10
263.420633759197
 20
678.8213624654957
 30
0.0
 10
263.7625449205446
 20
677.8005932755457
 30
0.0
 10
263.9186626610956
 20
677.0525065043466
 30
0.0
 10
263.9942170029789
 20
676.4331330005582
 30
0.0
 10
264.0229826812413
 20
676.004895941355
 30
0.0
 10
264.0308167400007
 20
675.6181429835287
 30
0.0
 10
264.0229826812434
 20
675.2313899927215
 30
0.0
 10
263.9942170016506
 20
674.8031528123611
 30
0.0
 10
263.9186626525205
 20
674.1837789898857
 30
0.0
 10
263.7625448871121
 20
673.4356915582212
 30
0.0
 10
263.4206336300205
 20
672.4149209117452
 30
0.0
 10
262.891026108239
 20
671.421448518322
 30
0.0
 10
262.1990547269123
 20
670.6298092527077
 30
0.0
 10
261.5365550551105
 20
670.1500508912511
 30
0.0
 10
260.8789488668656
 20
669.8747427422711
 30
0.0
 10
260.4510880331453
 20
669.8181360923363
 30
0.0
 10
260.2283683686404
 20
669.8181353371351
 30
0.0
  0
SPLINE
  5
232
330
1FA
100
AcDbEntity
  8
0
  6
Continuous
 62
     0
370
    30
100
AcDbSpline
210
0.0
220
0.0
230
1.0
 70
     8
 71
     3
 72
    41
 73
    37
 74
     0
 42
0.000000001
 43
0.0
 40
0.0
 40
0.0
 40
0.0
 40
0.0
 40
0.621902157625956
 40
1.243804315251913
 40
1.865706472877869
 40
2.487608630503825
 40
3.109510788129781
 40
3.731412945755738
 40
4.353315103381694
 40
4.97521726100765
 40
5.597119418633605
 40
6.219021576259562
 40
6.840923733885518
 40
7.462825891511476
 40
7.773776970324453
 40
8.084728049137432
 40
8.395679127950409
 40
8.551154667356899
 40
8.706630206763387
 40
8.862105746169878
 40
9.017581285576364
 40
9.328532364389345
 40
9.639483443202323
 40
9.9504345220153
 40
10.57233667964126
 40
11.19423883726721
 40
11.81614099489317
 40
12.43804315251912
 40
13.05994531014508
 40
13.68184746777104
 40
14.30374962539699
 40
14.92565178302295
 40
15.54755394064891
 40
16.16945609827486
 40
16.79135825590082
 40
17.41326041352677
 40
17.41326041352677
 40
17.41326041352677
 40
17.41326041352677
 10
260.2283707728091
 20
682.1181353490601
 30
0.0
 10
260.3798948500496
 20
682.1181353490601
 30
0.0
 10
260.6893289733588
 20
682.0959946772875
 30
0.0
 10
261.1660504154765
 20
681.9886048453002
 30
0.0
 10
261.6471883084835
 20
681.800978821451
 30
0.0
 10
262.1232845008489
 20
681.5295286175331
 30
0.0
 10
262.5840308850377
 20
681.1737685342257
 30
0.0
 10
263.0188916940966
 20
680.7367376625996
 30
0.0
 10
263.4178303340082
 20
680.2250983481397
 30
0.0
 10
263.7720453390259
 20
679.6488589130652
 30
0.0
 10
264.0746080398509
 20
679.0207322066758
 30
0.0
 10
264.3209052564037
 20
678.3552161200578
 30
0.0
 10
264.5088357325021
 20
677.6675262290046
 30
0.0
 10
264.6170771835481
 20
677.0883890652087
 30
0.0
 10
264.675911111256
 20
676.6282546244199
 30
0.0
 10
264.7066558875262
 20
676.2862259335789
 30
0.0
 10
264.7215911470312
 20
676.0050303611831
 30
0.0
 10
264.7274495364226
 20
675.782790242609
 30
0.0
 10
264.7288846503783
 20
675.6181429792657
 30
0.0
 10
264.7274495364226
 20
675.4534957110563
 30
0.0
 10
264.7215911470313
 20
675.2312555726176
 30
0.0
 10
264.7066558875262
 20
674.9500599495789
 30
0.0
 10
264.675911111256
 20
674.6080311544881
 30
0.0
 10
264.6170771835481
 20
674.1478965142044
 30
0.0
 10
264.5088357325021
 20
673.5687589833817
 30
0.0
 10
264.3209052564036
 20
672.8810684550908
 30
0.0
 10
264.0746080398509
 20
672.2155515333247
 30
0.0
 10
263.7720453390258
 20
671.5874238010008
 30
0.0
 10
263.4178303340082
 20
671.0111831648487
 30
0.0
 10
263.0188916940965
 20
670.4995424976617
 30
0.0
 10
262.5840308850377
 20
670.0625101515029
 30
0.0
 10
262.1232845008489
 20
669.7067485058897
 30
0.0
 10
261.6471883084835
 20
669.4352966876174
 30
0.0
 10
261.1660504154765
 20
669.2476690323185
 30
0.0
 10
260.6893289733587
 20
669.1402775838569
 30
0.0
 10
260.3798948500495
 20
669.1181358628503
 30
0.0
 10
260.2283707728091
 20
669.1181353490601
 30
0.0
  0
LINE
  5
233
330
1FA
100
AcDbEntity
  8
0
  6
Continuous
 62
     0
370
     0
100
AcDbLine
 10
260.228372
 20
667.118135
 30
0.0
 11
259.428372
 21
667.118135
 31
0.0
  0
LINE
  5
234
330
1FA
100
AcDbEntity
  8
0
  6
Continuous
 62
     0
370
     0
100
AcDbLine
 10
260.228372
 20
667.118135
 30
0.0
 11
260.228372
 21
641.318143
 31
0.0
  0
LINE
  5
235
330
1FA
100
AcDbEntity
  8
0
  6
Continuous
 62
     0
370
     0
100
AcDbLine
 10
259.428372
 20
667.118135
 30
0.0
 11
259.428372
 21
669.118135
 31
0.0
  0
LINE
  5
236
330
1FA
100
AcDbEntity
  8
0
  6
Continuous
 62
     0
370
    30
100
AcDbLine
 10
264.028408
 20
640.618143
 30
0.0
 11
260.22837
 21
640.618143
 31
0.0
  0
LINE
  5
237
330
1FA
100
AcDbEntity
  8
0
  6
Continuous
 62
     0
370
     0
100
AcDbLine
 10
264.728408
 20
641.318143
 30
0.0
 11
260.228372
 21
641.318143
 31
0.0
  0
LINE
  5
238
330
1FA
100
AcDbEntity
  8
0
  6
Continuous
 62
     0
370
    30
100
AcDbLine
 10
287.428398
 20
668.618143
 30
0.0
 11
266.728447
 21
668.618143
 31
0.0
  0
LINE
  5
239
330
1FA
100
AcDbEntity
  8
0
  6
Continuous
 62
     0
370
    30
100
AcDbLine
 10
287.428398
 20
682.618143
 30
0.0
 11
266.728447
 21
682.618143
 31
0.0
  0
ARC
  5
23A
330
1FA
100
AcDbEntity
  8
0
  6
Continuous
 62
     0
370
    30
100
AcDbCircle
 10
264.028405
 20
709.91814
 30
0.0
 40
0.7000031410595617
100
AcDbArc
 50
0.000258
 51
89.999338
  0
ARC
  5
23B
330
1FA
100
AcDbEntity
  8
0
  6
Continuous
 62
     0
370
    30
100
AcDbCircle
 10
264.028405
 20
641.318146
 30
0.0
 40
0.7000031410631429
100
AcDbArc
 50
270.000662
 51
359.999742
  0
LINE
  5
23C
330
1FA
100
AcDbEntity
  8
0
  6
Continuous
 62
     0
370
    30
100
AcDbLine
 10
264.728408
 20
666.618134
 30
0.0
 11
264.728408
 21
641.318143
 31
0.0
  0
LINE
  5
23D
330
1FA
100
AcDbEntity
  8
0
  6
Continuous
 62
     0
370
    30
100
AcDbLine
 10
264.728408
 20
684.618152
 30
0.0
 11
264.728408
 21
709.918143
 31
0.0
  0
ARC
  5
23E
330
1FA
100
AcDbEntity
  8
0
  6
Continuous
 62
     0
370
    30
100
AcDbCircle
 10
266.728599
 20
684.618238
 30
0.0
 40
2.000191596708497
100
AcDbArc
 50
180.002744
 51
269.99221
  0
ARC
  5
23F
330
1FA
100
AcDbEntity
  8
0
  6
Continuous
 62
     0
370
    30
100
AcDbCircle
 10
266.728599
 20
666.618048
 30
0.0
 40
2.000191594581023
100
AcDbArc
 50
90.007791
 51
179.997257
  0
LINE
  5
240
330
1FA
100
AcDbEntity
  8
0
  6
Continuous
 62
     0
370
    30
100
AcDbLine
 10
287.428398
 20
692.118148
 30
0.0
 11
287.428398
 21
663.638911
 31
0.0
  0
LINE
  5
241
330
1FA
100
AcDbEntity
  8
0
  6
Continuous
 62
     0
370
    30
100
AcDbLine
 10
287.428398
 20
663.638911
 30
0.0
 11
287.428398
 21
659.118148
 31
0.0
  0
LINE
  5
242
330
1FA
100
AcDbEntity
  8
0
  6
Continuous
 62
     0
370
    30
100
AcDbLine
 10
307.428398
 20
692.118148
 30
0.0
 11
287.428398
 21
692.118148
 31
0.0
  0
LINE
  5
243
330
1FA
100
AcDbEntity
  8
0
  6
Continuous
 62
     0
370
    30
100
AcDbLine
 10
307.428398
 20
659.118148
 30
0.0
 11
287.428398
 21
659.118148
 31
0.0
  0
LINE
  5
244
330
1FA
100
AcDbEntity
  8
0
  6
Continuous
 62
     0
370
    30
100
AcDbLine
 10
307.428398
 20
705.618148
 30
0.0
 11
307.428398
 21
696.248534
 31
0.0
  0
LINE
  5
245
330
1FA
100
AcDbEntity
  8
0
  6
Continuous
 62
     0
370
    30
100
AcDbLine
 10
307.428398
 20
696.248534
 30
0.0
 11
307.428398
 21
645.618148
 31
0.0
  0
LINE
  5
246
330
1FA
100
AcDbEntity
  8
0
  6
Continuous
 62
     0
370
    30
100
AcDbLine
 10
314.428398
 20
705.618148
 30
0.0
 11
314.428398
 21
696.248534
 31
0.0
  0
LINE
  5
247
330
1FA
100
AcDbEntity
  8
0
  6
Continuous
 62
     0
370
    30
100
AcDbLine
 10
314.428398
 20
696.248534
 30
0.0
 11
314.428398
 21
645.618148
 31
0.0
  0
LINE
  5
248
330
1FA
100
AcDbEntity
  8
0
  6
Continuous
 62
     0
370
    30
100
AcDbLine
 10
307.428398
 20
645.618148
 30
0.0
 11
314.428398
 21
645.618148
 31
0.0
  0
LINE
  5
249
330
1FA
100
AcDbEntity
  8
0
  6
Continuous
 62
     0
370
    30
100
AcDbLine
 10
307.428398
 20
705.618148
 30
0.0
 11
314.428398
 21
705.618148
 31
0.0
  0
ENDBLK
  5
24B
330
1FA
100
AcDbEntity
  8
0
100
AcDbBlockEnd
  0
ENDSEC
  0
SECTION
  2
ENTITIES
  0
INSERT
  5
C9
330
1F
100
AcDbEntity
  8
0
  6
Continuous
 62
     7
370
     0
100
AcDbBlockReference
  2
a
 10
843.115417
 20
361.123352
 30
0.0
  0
INSERT
  5
11A
330
1F
100
AcDbEntity
  8
0
  6
Continuous
 62
     7
370
     0
100
AcDbBlockReference
  2
b
 10
851.512849
 20
816.017977
 30
0.0
  0
INSERT
  5
16C
330
1F
100
AcDbEntity
  8
0
  6
Continuous
 62
     7
370
     0
100
AcDbBlockReference
  2
c
 10
1048.730896
 20
361.123352
 30
0.0
  0
INSERT
  5
1F9
330
1F
100
AcDbEntity
  8
0
  6
Continuous
 62
     7
370
     0
100
AcDbBlockReference
  2
d
 10
507.787873
 20
1430.141226
 30
0.0
  0
INSERT
  5
24C
330
1F
100
AcDbEntity
  8
0
  6
Continuous
 62
     7
370
     0
100
AcDbBlockReference
  2
e
 10
746.510677
 20
-5.673376
 30
0.0
  0
ENDSEC
  0
SECTION
  2
OBJECTS
  0
DICTIONARY
  5
C
330
0
100
AcDbDictionary
281
     1
  3
ACAD_GROUP
350
D
  3
ACAD_LAYOUT
350
1A
  3
ACAD_MATERIAL
350
43
  3
ACAD_MLEADERSTYLE
350
6B
  3
ACAD_MLINESTYLE
350
17
  3
ACAD_PLOTSETTINGS
350
19
  3
ACAD_PLOTSTYLENAME
350
E
  3
ACAD_SCALELIST
350
47
  3
ACAD_TABLESTYLE
350
69
  3
ACAD_VISUALSTYLE
350
2A
  3
AcDbVariableDictionary
350
24D
  0
DICTIONARY
  5
258
330
8
100
AcDbDictionary
280
     1
281
     1
  3
ACAD_XREC_ROUNDTRIP
360
259
  0
DICTIONARY
  5
D
102
{ACAD_REACTORS
330
C
102
}
330
C
100
AcDbDictionary
281
     1
  0
DICTIONARY
  5
1A
102
{ACAD_REACTORS
330
C
102
}
330
C
100
AcDbDictionary
281
     1
  3
Layout1
350
1E
  3
Layout2
350
26
  3
Model
350
22
  0
DICTIONARY
  5
43
102
{ACAD_REACTORS
330
C
102
}
330
C
100
AcDbDictionary
281
     1
  3
ByBlock
350
45
  3
ByLayer
350
44
  3
Global
350
46
  0
DICTIONARY
  5
6B
102
{ACAD_REACTORS
330
C
102
}
330
C
100
AcDbDictionary
281
     1
  3
Standard
350
6C
  0
DICTIONARY
  5
17
102
{ACAD_REACTORS
330
C
102
}
330
C
100
AcDbDictionary
281
     1
  3
Standard
350
18
  0
DICTIONARY
  5
19
102
{ACAD_REACTORS
330
C
102
}
330
C
100
AcDbDictionary
281
     1
  0
ACDBDICTIONARYWDFLT
  5
E
102
{ACAD_REACTORS
330
C
102
}
330
C
100
AcDbDictionary
281
     1
  3
Normal
350
F
100
AcDbDictionaryWithDefault
340
F
  0
DICTIONARY
  5
47
102
{ACAD_REACTORS
330
C
102
}
330
C
100
AcDbDictionary
281
     1
  3
A0
350
48
  3
A1
350
49
  3
A2
350
4A
  3
A3
350
4B
  3
A4
350
4C
  3
A5
350
4D
  3
A6
350
4E
  3
A7
350
4F
  3
A8
350
50
  3
A9
350
51
  3
B0
350
52
  3
B1
350
53
  3
B2
350
54
  3
B3
350
55
  3
B4
350
56
  3
B5
350
57
  3
B6
350
58
  3
B7
350
59
  3
B8
350
5A
  3
B9
350
5B
  3
C0
350
5C
  3
C1
350
5D
  3
C2
350
5E
  3
C3
350
5F
  3
C4
350
60
  3
C5
350
61
  3
C6
350
62
  3
C7
350
63
  3
C8
350
64
  3
C9
350
65
  3
D0
350
66
  3
D1
350
67
  3
D2
350
68
  0
DICTIONARY
  5
69
102
{ACAD_REACTORS
330
C
102
}
330
C
100
AcDbDictionary
281
     1
  3
Standard
350
6A
  0
DICTIONARY
  5
2A
102
{ACAD_REACTORS
330
C
102
}
330
C
100
AcDbDictionary
281
     1
  3
2dWireframe
350
2F
  3
Basic
350
32
  3
Brighten
350
36
  3
ColorChange
350
3A
  3
Conceptual
350
34
  3
Dim
350
35
  3
EdgeColorOff
350
3D
  3
Facepattern
350
39
  3
Flat
350
2B
  3
FlatWithEdges
350
2C
  3
Gouraud
350
2D
  3
GouraudWithEdges
350
2E
  3
Hidden
350
31
  3
JitterOff
350
3B
  3
Linepattern
350
38
  3
OverhangOff
350
3C
  3
Realistic
350
33
  3
Shaded
350
42
  3
Shaded with edges
350
41
  3
Shades of Gray
350
3E
  3
Sketchy
350
3F
  3
Thicken
350
37
  3
Wireframe
350
30
  3
X-Ray
350
40
  0
DICTIONARY
  5
24D
102
{ACAD_REACTORS
330
C
102
}
330
C
100
AcDbDictionary
281
     1
  3
CANNOSCALE
350
25A
  3
CENTEREXE
350
254
  3
CENTERLTYPEFILE
350
255
  3
CMLEADERSTYLE
350
24F
  3
CTABLESTYLE
350
24E
  3
DIMASSOC
350
256
  3
HIDETEXT
350
257
  3
MSLTSCALE
350
25B
  3
PSOLHEIGHT
350
251
  3
PSOLWIDTH
350
250
  0
XRECORD
  5
259
102
{ACAD_REACTORS
330
258
102
}
330
258
100
AcDbXrecord
280
     1
102
VTR_0.000_0.000_1.000_1.000_VISUALSTYLE
340
2F
102
VTR_0.000_0.000_1.000_1.000_GRIDDISPLAY
 70
     3
102
VTR_0.000_0.000_1.000_1.000_GRIDMAJOR
 70
     5
102
VTR_0.000_0.000_1.000_1.000_DEFAULTLIGHTING
280
     1
102
VTR_0.000_0.000_1.000_1.000_DEFAULTLIGHTINGTYPE
 70
     1
102
VTR_0.000_0.000_1.000_1.000_BRIGHTNESS
141
0.0
102
VTR_0.000_0.000_1.000_1.000_CONTRAST
142
0.0
  0
LAYOUT
  5
1E
102
{ACAD_REACTORS
330
1A
102
}
330
1A
100
AcDbPlotSettings
  1

  2
none_device
  4

  6

 40
0.0
 41
0.0
 42
0.0
 43
0.0
 44
0.0
 45
0.0
 46
0.0
 47
0.0
 48
0.0
 49
0.0
140
0.0
141
0.0
142
1.0
143
1.0
 70
   688
 72
     1
 73
     0
 74
     5
  7

 75
    16
147
1.0
148
0.0
149
0.0
100
AcDbLayout
  1
Layout1
 70
     1
 71
     1
 10
0.0
 20
0.0
 11
420.0
 21
297.0
 12
0.0
 22
0.0
 32
0.0
 14
1.000000E+20
 24
1.000000E+20
 34
1.000000E+20
 15
-1.000000E+20
 25
-1.000000E+20
 35
-1.000000E+20
146
0.0
 13
0.0
 23
0.0
 33
0.0
 16
1.0
 26
0.0
 36
0.0
 17
0.0
 27
1.0
 37
0.0
 76
     0
330
1B
  0
LAYOUT
  5
26
102
{ACAD_REACTORS
330
1A
102
}
330
1A
100
AcDbPlotSettings
  1

  2
none_device
  4

  6

 40
0.0
 41
0.0
 42
0.0
 43
0.0
 44
0.0
 45
0.0
 46
0.0
 47
0.0
 48
0.0
 49
0.0
140
0.0
141
0.0
142
1.0
143
1.0
 70
   688
 72
     1
 73
     0
 74
     5
  7

 75
    16
147
1.0
148
0.0
149
0.0
100
AcDbLayout
  1
Layout2
 70
     1
 71
     2
 10
0.0
 20
0.0
 11
0.0
 21
0.0
 12
0.0
 22
0.0
 32
0.0
 14
0.0
 24
0.0
 34
0.0
 15
0.0
 25
0.0
 35
0.0
146
0.0
 13
0.0
 23
0.0
 33
0.0
 16
1.0
 26
0.0
 36
0.0
 17
0.0
 27
1.0
 37
0.0
 76
     0
330
23
  0
LAYOUT
  5
22
102
{ACAD_REACTORS
330
1A
102
}
330
1A
100
AcDbPlotSettings
  1

  2
none_device
  4
Letter_(8.50_x_11.00_Inches)
  6

 40
6.35
 41
6.35
 42
6.350005
 43
6.350005
 44
215.9
 45
279.4
 46
0.0
 47
0.0
 48
0.0
 49
0.0
140
0.0
141
0.0
142
1.0
143
1.0
 70
  1712
 72
     1
 73
     0
 74
     0
  7

 75
     0
147
1.0
148
0.0
149
0.0
100
AcDbLayout
  1
Model
 70
     1
 71
     0
 10
0.0
 20
0.0
 11
788.163818
 21
906.033142
 12
0.0
 22
0.0
 32
0.0
 14
0.0
 24
0.0
 34
0.0
 15
788.163818
 25
906.033142
 35
0.0
146
0.0
 13
0.0
 23
0.0
 33
0.0
 16
1.0
 26
0.0
 36
0.0
 17
0.0
 27
1.0
 37
0.0
 76
     0
330
1F
331
29
  0
MATERIAL
  5
45
102
{ACAD_REACTORS
330
43
102
}
102
{ACAD_XDICTIONARY
360
28E
102
}
330
43
100
AcDbMaterial
  1
ByBlock
  0
MATERIAL
  5
44
102
{ACAD_REACTORS
330
43
102
}
102
{ACAD_XDICTIONARY
360
28C
102
}
330
43
100
AcDbMaterial
  1
ByLayer
  0
MATERIAL
  5
46
102
{ACAD_REACTORS
330
43
102
}
102
{ACAD_XDICTIONARY
360
290
102
}
330
43
100
AcDbMaterial
  1
Global
  0
MLEADERSTYLE
  5
6C
102
{ACAD_REACTORS
330
6B
102
}
102
{ACAD_XDICTIONARY
360
293
102
}
330
6B
100
AcDbMLeaderStyle
170
     2
171
     1
172
     0
 90
        2
 40
0.0
 41
0.0
173
     1
 91
-1056964608
340
14
 92
       -2
290
     1
 42
2.0
291
     1
 43
8.0
  3
Standard
341
0
 44
4.0
300

342
11
174
     1
178
     6
175
     1
176
     0
 93
-1056964608
 45
4.0
292
     0
297
     0
 46
4.0
343
0
 94
-1056964608
 47
1.0
 49
1.0
140
1.0
293
     1
141
0.0
294
     1
177
     0
142
1.0
295
     0
296
     0
143
3.75
1001
ACAD_MLEADERVER
1070
     2
  0
MLINESTYLE
  5
18
102
{ACAD_REACTORS
330
17
102
}
330
17
100
AcDbMlineStyle
  2
Standard
 70
     0
  3

 62
   256
 51
90.0
 52
90.0
 71
     2
 49
0.5
 62
   256
  6
BYLAYER
 49
-0.5
 62
   256
  6
BYLAYER
  0
ACDBPLACEHOLDER
  5
F
102
{ACAD_REACTORS
330
E
102
}
330
E
  0
SCALE
  5
48
102
{ACAD_REACTORS
330
47
102
}
330
47
100
AcDbScale
 70
     0
300
1:1
140
1.0
141
1.0
290
     1
  0
SCALE
  5
49
102
{ACAD_REACTORS
330
47
102
}
330
47
100
AcDbScale
 70
     0
300
1:2
140
1.0
141
2.0
290
     0
  0
SCALE
  5
4A
102
{ACAD_REACTORS
330
47
102
}
330
47
100
AcDbScale
 70
     0
300
1:4
140
1.0
141
4.0
290
     0
  0
SCALE
  5
4B
102
{ACAD_REACTORS
330
47
102
}
330
47
100
AcDbScale
 70
     0
300
1:5
140
1.0
141
5.0
290
     0
  0
SCALE
  5
4C
102
{ACAD_REACTORS
330
47
102
}
330
47
100
AcDbScale
 70
     0
300
1:8
140
1.0
141
8.0
290
     0
  0
SCALE
  5
4D
102
{ACAD_REACTORS
330
47
102
}
330
47
100
AcDbScale
 70
     0
300
1:10
140
1.0
141
10.0
290
     0
  0
SCALE
  5
4E
102
{ACAD_REACTORS
330
47
102
}
330
47
100
AcDbScale
 70
     0
300
1:16
140
1.0
141
16.0
290
     0
  0
SCALE
  5
4F
102
{ACAD_REACTORS
330
47
102
}
330
47
100
AcDbScale
 70
     0
300
1:20
140
1.0
141
20.0
290
     0
  0
SCALE
  5
50
102
{ACAD_REACTORS
330
47
102
}
330
47
100
AcDbScale
 70
     0
300
1:30
140
1.0
141
30.0
290
     0
  0
SCALE
  5
51
102
{ACAD_REACTORS
330
47
102
}
330
47
100
AcDbScale
 70
     0
300
1:40
140
1.0
141
40.0
290
     0
  0
SCALE
  5
52
102
{ACAD_REACTORS
330
47
102
}
330
47
100
AcDbScale
 70
     0
300
1:50
140
1.0
141
50.0
290
     0
  0
SCALE
  5
53
102
{ACAD_REACTORS
330
47
102
}
330
47
100
AcDbScale
 70
     0
300
1:100
140
1.0
141
100.0
290
     0
  0
SCALE
  5
54
102
{ACAD_REACTORS
330
47
102
}
330
47
100
AcDbScale
 70
     0
300
2:1
140
2.0
141
1.0
290
     0
  0
SCALE
  5
55
102
{ACAD_REACTORS
330
47
102
}
330
47
100
AcDbScale
 70
     0
300
4:1
140
4.0
141
1.0
290
     0
  0
SCALE
  5
56
102
{ACAD_REACTORS
330
47
102
}
330
47
100
AcDbScale
 70
     0
300
8:1
140
8.0
141
1.0
290
     0
  0
SCALE
  5
57
102
{ACAD_REACTORS
330
47
102
}
330
47
100
AcDbScale
 70
     0
300
10:1
140
10.0
141
1.0
290
     0
  0
SCALE
  5
58
102
{ACAD_REACTORS
330
47
102
}
330
47
100
AcDbScale
 70
     0
300
100:1
140
100.0
141
1.0
290
     0
  0
SCALE
  5
59
102
{ACAD_REACTORS
330
47
102
}
330
47
100
AcDbScale
 70
     0
300
1/128" = 1'-0"
140
0.007812
141
12.0
290
     0
  0
SCALE
  5
5A
102
{ACAD_REACTORS
330
47
102
}
330
47
100
AcDbScale
 70
     0
300
1/64" = 1'-0"
140
0.015625
141
12.0
290
     0
  0
SCALE
  5
5B
102
{ACAD_REACTORS
330
47
102
}
330
47
100
AcDbScale
 70
     0
300
1/32" = 1'-0"
140
0.03125
141
12.0
290
     0
  0
SCALE
  5
5C
102
{ACAD_REACTORS
330
47
102
}
330
47
100
AcDbScale
 70
     0
300
1/16" = 1'-0"
140
0.0625
141
12.0
290
     0
  0
SCALE
  5
5D
102
{ACAD_REACTORS
330
47
102
}
330
47
100
AcDbScale
 70
     0
300
3/32" = 1'-0"
140
0.09375
141
12.0
290
     0
  0
SCALE
  5
5E
102
{ACAD_REACTORS
330
47
102
}
330
47
100
AcDbScale
 70
     0
300
1/8" = 1'-0"
140
0.125
141
12.0
290
     0
  0
SCALE
  5
5F
102
{ACAD_REACTORS
330
47
102
}
330
47
100
AcDbScale
 70
     0
300
3/16" = 1'-0"
140
0.1875
141
12.0
290
     0
  0
SCALE
  5
60
102
{ACAD_REACTORS
330
47
102
}
330
47
100
AcDbScale
 70
     0
300
1/4" = 1'-0"
140
0.25
141
12.0
290
     0
  0
SCALE
  5
61
102
{ACAD_REACTORS
330
47
102
}
330
47
100
AcDbScale
 70
     0
300
3/8" = 1'-0"
140
0.375
141
12.0
290
     0
  0
SCALE
  5
62
102
{ACAD_REACTORS
330
47
102
}
330
47
100
AcDbScale
 70
     0
300
1/2" = 1'-0"
140
0.5
141
12.0
290
     0
  0
SCALE
  5
63
102
{ACAD_REACTORS
330
47
102
}
330
47
100
AcDbScale
 70
     0
300
3/4" = 1'-0"
140
0.75
141
12.0
290
     0
  0
SCALE
  5
64
102
{ACAD_REACTORS
330
47
102
}
330
47
100
AcDbScale
 70
     0
300
1" = 1'-0"
140
1.0
141
12.0
290
     0
  0
SCALE
  5
65
102
{ACAD_REACTORS
330
47
102
}
330
47
100
AcDbScale
 70
     0
300
1-1/2" = 1'-0"
140
1.5
141
12.0
290
     0
  0
SCALE
  5
66
102
{ACAD_REACTORS
330
47
102
}
330
47
100
AcDbScale
 70
     0
300
3" = 1'-0"
140
3.0
141
12.0
290
     0
  0
SCALE
  5
67
102
{ACAD_REACTORS
330
47
102
}
330
47
100
AcDbScale
 70
     0
300
6" = 1'-0"
140
6.0
141
12.0
290
     0
  0
SCALE
  5
68
102
{ACAD_REACTORS
330
47
102
}
330
47
100
AcDbScale
 70
     0
300
1'-0" = 1'-0"
140
12.0
141
12.0
290
     0
  0
TABLESTYLE
  5
6A
102
{ACAD_REACTORS
330
69
102
}
330
69
100
AcDbTableStyle
  3
Standard
 70
     0
 71
     0
 40
1.5
 41
1.5
280
     0
281
     0
  7
Standard
140
4.5
170
     2
 62
     0
 63
   257
283
     0
274
    -2
284
     1
 64
     0
275
    -2
285
     1
 65
     0
276
    -2
286
     1
 66
     0
277
    -2
287
     1
 67
     0
278
    -2
288
     1
 68
     0
279
    -2
289
     1
 69
     0
  7
Standard
140
6.0
170
     5
 62
     0
 63
   257
283
     0
274
    -2
284
     1
 64
     0
275
    -2
285
     1
 65
     0
276
    -2
286
     1
 66
     0
277
    -2
287
     1
 67
     0
278
    -2
288
     1
 68
     0
279
    -2
289
     1
 69
     0
  7
Standard
140
4.5
170
     5
 62
     0
 63
   257
283
     0
274
    -2
284
     1
 64
     0
275
    -2
285
     1
 65
     0
276
    -2
286
     1
 66
     0
277
    -2
287
     1
 67
     0
278
    -2
288
     1
 68
     0
279
    -2
289
     1
 69
     0
  0
VISUALSTYLE
  5
2F
102
{ACAD_REACTORS
330
2A
102
}
102
{ACAD_XDICTIONARY
360
264
102
}
330
2A
100
AcDbVisualStyle
  2
2dWireframe
 70
     4
 71
     0
 72
     2
 73
     0
 90
        0
 40
0.6
 41
30.0
 62
     5
 63
     7
 74
     1
 91
        4
 64
     7
 65
   257
 75
     1
175
     1
 42
1.0
 92
        0
 66
   257
 43
1.0
 76
     1
 77
     6
 78
     2
 67
     7
 79
     5
170
     0
171
     0
290
     0
174
     0
 93
        1
 44
0.0
173
     0
291
     0
 45
0.0
1001
ACAD
1000
AcDbSavedByObjectVersion
1070
     0
  0
VISUALSTYLE
  5
32
102
{ACAD_REACTORS
330
2A
102
}
102
{ACAD_XDICTIONARY
360
26A
102
}
330
2A
100
AcDbVisualStyle
  2
Basic
 70
     7
 71
     1
 72
     0
 73
     1
 90
        0
 40
0.6
 41
30.0
 62
     5
 63
     7
 74
     0
 91
        4
 64
     7
 65
   257
 75
     1
175
     1
 42
1.0
 92
        8
 66
     7
 43
1.0
 76
     1
 77
     6
 78
     2
 67
     7
 79
     5
170
     0
171
     0
290
     0
174
     0
 93
        1
 44
0.0
173
     0
291
     1
 45
0.0
1001
ACAD
1000
AcDbSavedByObjectVersion
1070
     0
  0
VISUALSTYLE
  5
36
102
{ACAD_REACTORS
330
2A
102
}
102
{ACAD_XDICTIONARY
360
272
102
}
330
2A
100
AcDbVisualStyle
  2
Brighten
 70
    12
 71
     2
 72
     2
 73
     0
 90
        0
 40
0.6
 41
30.0
 62
     5
 63
     7
 74
     1
 91
        4
 64
     7
 65
   257
 75
     1
175
     1
 42
1.0
 92
        8
 66
     7
 43
1.0
 76
     1
 77
     6
 78
     2
 67
     7
 79
     5
170
     0
171
     0
290
     0
174
     0
 93
        1
 44
50.0
173
     0
291
     1
 45
0.0
1001
ACAD
1000
AcDbSavedByObjectVersion
1070
     0
  0
VISUALSTYLE
  5
3A
102
{ACAD_REACTORS
330
2A
102
}
102
{ACAD_XDICTIONARY
360
27A
102
}
330
2A
100
AcDbVisualStyle
  2
ColorChange
 70
    16
 71
     2
 72
     2
 73
     3
 90
        0
 40
0.6
 41
30.0
 62
     5
 63
     8
 74
     1
 91
        4
 64
     7
 65
   257
 75
     1
175
     1
 42
1.0
 92
        8
 66
     8
 43
1.0
 76
     1
 77
     6
 78
     2
 67
     7
 79
     5
170
     0
171
     0
290
     0
174
     0
 93
        1
 44
0.0
173
     0
291
     1
 45
0.0
1001
ACAD
1000
AcDbSavedByObjectVersion
1070
     0
  0
VISUALSTYLE
  5
34
102
{ACAD_REACTORS
330
2A
102
}
102
{ACAD_XDICTIONARY
360
26E
102
}
330
2A
100
AcDbVisualStyle
  2
Conceptual
 70
     9
 71
     3
 72
     2
 73
     0
 90
        0
 40
0.6
 41
30.0
 62
     5
 63
     7
 74
     2
 91
        2
 64
     7
 65
   257
 75
     1
175
     1
 42
179.0
 92
        8
 66
     7
 43
1.0
 76
     1
 77
     6
 78
     2
 67
     7
 79
     3
170
     0
171
     0
290
     0
174
     0
 93
        1
 44
0.0
173
     0
291
     0
 45
0.0
1001
ACAD
1000
AcDbSavedByObjectVersion
1070
     0
  0
VISUALSTYLE
  5
35
102
{ACAD_REACTORS
330
2A
102
}
102
{ACAD_XDICTIONARY
360
270
102
}
330
2A
100
AcDbVisualStyle
  2
Dim
 70
    11
 71
     2
 72
     2
 73
     0
 90
        0
 40
0.6
 41
30.0
 62
     5
 63
     7
 74
     1
 91
        4
 64
     7
 65
   257
 75
     1
175
     1
 42
1.0
 92
        8
 66
     7
 43
1.0
 76
     1
 77
     6
 78
     2
 67
     7
 79
     5
170
     0
171
     0
290
     0
174
     0
 93
        1
 44
-50.0
173
     0
291
     1
 45
0.0
1001
ACAD
1000
AcDbSavedByObjectVersion
1070
     0
  0
VISUALSTYLE
  5
3D
102
{ACAD_REACTORS
330
2A
102
}
102
{ACAD_XDICTIONARY
360
280
102
}
330
2A
100
AcDbVisualStyle
  2
EdgeColorOff
 70
    22
 71
     2
 72
     2
 73
     0
 90
        0
 40
0.6
 41
30.0
 62
     5
 63
     7
 74
     1
 91
        4
 64
     7
 65
   257
 75
     1
175
     1
 42
1.0
 92
        8
 66
     7
 43
1.0
 76
     1
 77
     6
 78
     2
 67
     7
 79
     5
170
     0
171
     0
290
     0
174
     0
 93
        1
 44
0.0
173
     0
291
     1
 45
0.0
1001
ACAD
1000
AcDbSavedByObjectVersion
1070
     0
  0
VISUALSTYLE
  5
39
102
{ACAD_REACTORS
330
2A
102
}
102
{ACAD_XDICTIONARY
360
278
102
}
330
2A
100
AcDbVisualStyle
  2
Facepattern
 70
    15
 71
     2
 72
     2
 73
     0
 90
        0
 40
0.6
 41
30.0
 62
     5
 63
     7
 74
     1
 91
        4
 64
     7
 65
   257
 75
     1
175
     1
 42
1.0
 92
        8
 66
     7
 43
1.0
 76
     1
 77
     6
 78
     2
 67
     7
 79
     5
170
     0
171
     0
290
     0
174
     0
 93
        1
 44
0.0
173
     0
291
     1
 45
0.0
1001
ACAD
1000
AcDbSavedByObjectVersion
1070
     0
  0
VISUALSTYLE
  5
2B
102
{ACAD_REACTORS
330
2A
102
}
102
{ACAD_XDICTIONARY
360
25C
102
}
330
2A
100
AcDbVisualStyle
  2
Flat
 70
     0
 71
     2
 72
     1
 73
     1
 90
        2
 40
0.6
 41
30.0
 62
     5
 63
     7
 74
     0
 91
        0
 64
     7
 65
   257
 75
     1
175
     1
 42
1.0
 92
        8
 66
     7
 43
1.0
 76
     1
 77
     6
 78
     2
 67
     7
 79
     5
170
     0
171
     0
290
     0
174
     0
 93
       13
 44
0.0
173
     0
291
     1
 45
0.0
1001
ACAD
1000
AcDbSavedByObjectVersion
1070
     0
  0
VISUALSTYLE
  5
2C
102
{ACAD_REACTORS
330
2A
102
}
102
{ACAD_XDICTIONARY
360
25E
102
}
330
2A
100
AcDbVisualStyle
  2
FlatWithEdges
 70
     1
 71
     2
 72
     1
 73
     1
 90
        2
 40
0.6
 41
30.0
 62
     5
 63
     7
 74
     1
 91
        0
 64
     7
 65
   257
 75
     1
175
     1
 42
1.0
 92
        0
 66
   257
 43
1.0
 76
     1
 77
     6
 78
     2
 67
     7
 79
     5
170
     0
171
     0
290
     0
174
     0
 93
       13
 44
0.0
173
     0
291
     1
 45
0.0
1001
ACAD
1000
AcDbSavedByObjectVersion
1070
     0
  0
VISUALSTYLE
  5
2D
102
{ACAD_REACTORS
330
2A
102
}
102
{ACAD_XDICTIONARY
360
260
102
}
330
2A
100
AcDbVisualStyle
  2
Gouraud
 70
     2
 71
     2
 72
     2
 73
     1
 90
        2
 40
0.6
 41
30.0
 62
     5
 63
     7
 74
     0
 91
        0
 64
     7
 65
   257
 75
     1
175
     1
 42
1.0
 92
        0
 66
     7
 43
1.0
 76
     1
 77
     6
 78
     2
 67
     7
 79
     5
170
     0
171
     0
290
     0
174
     0
 93
       13
 44
0.0
173
     0
291
     1
 45
0.0
1001
ACAD
1000
AcDbSavedByObjectVersion
1070
     0
  0
VISUALSTYLE
  5
2E
102
{ACAD_REACTORS
330
2A
102
}
102
{ACAD_XDICTIONARY
360
262
102
}
330
2A
100
AcDbVisualStyle
  2
GouraudWithEdges
 70
     3
 71
     2
 72
     2
 73
     1
 90
        2
 40
0.6
 41
30.0
 62
     5
 63
     7
 74
     1
 91
        0
 64
     7
 65
   257
 75
     1
175
     1
 42
1.0
 92
        0
 66
   257
 43
1.0
 76
     1
 77
     6
 78
     2
 67
     7
 79
     5
170
     0
171
     0
290
     0
174
     0
 93
       13
 44
0.0
173
     0
291
     1
 45
0.0
1001
ACAD
1000
AcDbSavedByObjectVersion
1070
     0
  0
VISUALSTYLE
  5
31
102
{ACAD_REACTORS
330
2A
102
}
102
{ACAD_XDICTIONARY
360
268
102
}
330
2A
100
AcDbVisualStyle
  2
Hidden
 70
     6
 71
     1
 72
     2
 73
     2
 90
        0
 40
0.6
 41
30.0
 62
     5
 63
     7
 74
     2
 91
        2
 64
     7
 65
   257
 75
     2
175
     1
 42
40.0
 92
        0
 66
   257
 43
1.0
 76
     1
 77
     6
 78
     2
 67
     7
 79
     3
170
     0
171
     0
290
     0
174
     0
 93
        1
 44
0.0
173
     0
291
     0
 45
0.0
1001
ACAD
1000
AcDbSavedByObjectVersion
1070
     0
  0
VISUALSTYLE
  5
3B
102
{ACAD_REACTORS
330
2A
102
}
102
{ACAD_XDICTIONARY
360
27C
102
}
330
2A
100
AcDbVisualStyle
  2
JitterOff
 70
    20
 71
     2
 72
     2
 73
     0
 90
        0
 40
0.6
 41
30.0
 62
     5
 63
     7
 74
     1
 91
        4
 64
     7
 65
   257
 75
     1
175
     1
 42
1.0
 92
       10
 66
     7
 43
1.0
 76
     1
 77
     6
 78
     2
 67
     7
 79
     5
170
     0
171
     0
290
     0
174
     0
 93
        1
 44
0.0
173
     0
291
     1
 45
0.0
1001
ACAD
1000
AcDbSavedByObjectVersion
1070
     0
  0
VISUALSTYLE
  5
38
102
{ACAD_REACTORS
330
2A
102
}
102
{ACAD_XDICTIONARY
360
276
102
}
330
2A
100
AcDbVisualStyle
  2
Linepattern
 70
    14
 71
     2
 72
     2
 73
     0
 90
        0
 40
0.6
 41
30.0
 62
     5
 63
     7
 74
     1
 91
        4
 64
     7
 65
   257
 75
     7
175
     7
 42
1.0
 92
        8
 66
     7
 43
1.0
 76
     1
 77
     6
 78
     2
 67
     7
 79
     5
170
     0
171
     0
290
     0
174
     0
 93
        1
 44
0.0
173
     0
291
     1
 45
0.0
1001
ACAD
1000
AcDbSavedByObjectVersion
1070
     0
  0
VISUALSTYLE
  5
3C
102
{ACAD_REACTORS
330
2A
102
}
102
{ACAD_XDICTIONARY
360
27E
102
}
330
2A
100
AcDbVisualStyle
  2
OverhangOff
 70
    21
 71
     2
 72
     2
 73
     0
 90
        0
 40
0.6
 41
30.0
 62
     5
 63
     7
 74
     1
 91
        4
 64
     7
 65
   257
 75
     1
175
     1
 42
1.0
 92
        9
 66
     7
 43
1.0
 76
     1
 77
     6
 78
     2
 67
     7
 79
     5
170
     0
171
     0
290
     0
174
     0
 93
        1
 44
0.0
173
     0
291
     1
 45
0.0
1001
ACAD
1000
AcDbSavedByObjectVersion
1070
     0
  0
VISUALSTYLE
  5
33
102
{ACAD_REACTORS
330
2A
102
}
102
{ACAD_XDICTIONARY
360
26C
102
}
330
2A
100
AcDbVisualStyle
  2
Realistic
 70
     8
 71
     2
 72
     3
 73
     0
 90
        2
 40
0.6
 41
30.0
 62
     5
 63
     7
 74
     0
 91
        0
 64
     7
 65
   257
 75
     1
175
     1
 42
1.0
 92
        8
 66
   257
 43
1.0
 76
     1
 77
     6
 78
     2
 67
     7
 79
     3
170
     0
171
     0
290
     0
174
     0
 93
       13
 44
0.0
173
     0
291
     0
 45
0.0
1001
ACAD
1000
AcDbSavedByObjectVersion
1070
     0
  0
VISUALSTYLE
  5
42
102
{ACAD_REACTORS
330
2A
102
}
102
{ACAD_XDICTIONARY
360
28A
102
}
330
2A
100
AcDbVisualStyle
  2
Shaded
 70
    27
 71
     2
 72
     2
 73
     1
 90
        2
 40
0.6
 41
30.0
 62
     5
 63
     7
 74
     0
 91
        4
 64
     7
 65
   257
 75
     1
175
     1
 42
1.0
 92
        8
 66
   257
 43
1.0
 76
     1
 77
     6
 78
     2
 67
     8
 79
     3
170
     0
171
     0
290
     0
174
     0
 93
        5
 44
0.0
173
     0
291
     0
 45
0.0
1001
ACAD
1000
AcDbSavedByObjectVersion
1070
     0
  0
VISUALSTYLE
  5
41
102
{ACAD_REACTORS
330
2A
102
}
102
{ACAD_XDICTIONARY
360
288
102
}
330
2A
100
AcDbVisualStyle
  2
Shaded with edges
 70
    26
 71
     2
 72
     2
 73
     1
 90
        2
 40
0.6
 41
30.0
 62
     5
 63
     7
 74
     1
 91
       10
 64
     7
 65
   257
 75
     2
175
     1
 42
1.0
 92
        8
 66
   257
 43
1.0
 76
     1
 77
     6
 78
     2
 67
     7
 79
     3
170
     0
171
     0
290
     0
174
     0
 93
        5
 44
0.0
173
     0
291
     0
 45
0.0
1001
ACAD
1000
AcDbSavedByObjectVersion
1070
     0
  0
VISUALSTYLE
  5
3E
102
{ACAD_REACTORS
330
2A
102
}
102
{ACAD_XDICTIONARY
360
282
102
}
330
2A
100
AcDbVisualStyle
  2
Shades of Gray
 70
    23
 71
     2
 72
     2
 73
     3
 90
        0
 40
0.6
 41
30.0
 62
     5
 63
     7
 74
     2
 91
        2
 64
     7
 65
     7
 75
     1
175
     1
 42
40.0
 92
        8
 66
     7
 43
1.0
 76
     1
 77
     6
 78
     2
 67
     7
 79
     3
170
     0
171
     0
290
     0
174
     0
 93
        1
 44
0.0
173
     0
291
     0
 45
0.0
1001
ACAD
1000
AcDbSavedByObjectVersion
1070
     0
  0
VISUALSTYLE
  5
3F
102
{ACAD_REACTORS
330
2A
102
}
102
{ACAD_XDICTIONARY
360
284
102
}
330
2A
100
AcDbVisualStyle
  2
Sketchy
 70
    24
 71
     1
 72
     2
 73
     2
 90
        0
 40
0.6
 41
30.0
 62
     5
 63
     7
 74
     2
 91
        2
 64
     7
 65
     7
 75
     1
175
     1
 42
40.0
 92
       11
 66
     7
 43
1.0
 76
     1
 77
     6
 78
     2
 67
     7
 79
     6
170
     0
171
     0
290
     0
174
     0
 93
        1
 44
0.0
173
     0
291
     0
 45
0.0
1001
ACAD
1000
AcDbSavedByObjectVersion
1070
     0
  0
VISUALSTYLE
  5
37
102
{ACAD_REACTORS
330
2A
102
}
102
{ACAD_XDICTIONARY
360
274
102
}
330
2A
100
AcDbVisualStyle
  2
Thicken
 70
    13
 71
     2
 72
     2
 73
     0
 90
        0
 40
0.6
 41
30.0
 62
     5
 63
     7
 74
     1
 91
        4
 64
     7
 65
   257
 75
     1
175
     1
 42
1.0
 92
       12
 66
     7
 43
1.0
 76
     1
 77
     6
 78
     2
 67
     7
 79
     5
170
     0
171
     0
290
     0
174
     0
 93
        1
 44
0.0
173
     0
291
     1
 45
0.0
1001
ACAD
1000
AcDbSavedByObjectVersion
1070
     0
  0
VISUALSTYLE
  5
30
102
{ACAD_REACTORS
330
2A
102
}
102
{ACAD_XDICTIONARY
360
266
102
}
330
2A
100
AcDbVisualStyle
  2
Wireframe
 70
     5
 71
     0
 72
     2
 73
     0
 90
        0
 40
0.6
 41
30.0
 62
     5
 63
     7
 74
     1
 91
        4
 64
     7
 65
   257
 75
     1
175
     1
 42
1.0
 92
        0
 66
   257
 43
1.0
 76
     1
 77
     6
 78
     2
 67
     7
 79
     3
170
     0
171
     0
290
     0
174
     0
 93
        1
 44
0.0
173
     0
291
     0
 45
0.0
1001
ACAD
1000
AcDbSavedByObjectVersion
1070
     0
  0
VISUALSTYLE
  5
40
102
{ACAD_REACTORS
330
2A
102
}
102
{ACAD_XDICTIONARY
360
286
102
}
330
2A
100
AcDbVisualStyle
  2
X-Ray
 70
    25
 71
     2
 72
     2
 73
     1
 90
        1
 40
0.5
 41
30.0
 62
     5
 63
     7
 74
     1
 91
        0
 64
     7
 65
   257
 75
     1
175
     1
 42
1.0
 92
        8
 66
     7
 43
1.0
 76
     1
 77
     6
 78
     2
 67
     7
 79
     3
170
     0
171
     0
290
     0
174
     0
 93
       13
 44
0.0
173
     0
291
     0
 45
0.0
1001
ACAD
1000
AcDbSavedByObjectVersion
1070
     0
  0
DICTIONARYVAR
  5
25A
102
{ACAD_REACTORS
330
24D
102
}
330
24D
100
DictionaryVariables
280
     0
  1
1:1
  0
DICTIONARYVAR
  5
254
102
{ACAD_REACTORS
330
24D
102
}
330
24D
100
DictionaryVariables
280
     0
  1
3.500000
  0
DICTIONARYVAR
  5
255
102
{ACAD_REACTORS
330
24D
102
}
330
24D
100
DictionaryVariables
280
     0
  1
acadiso.lin
  0
DICTIONARYVAR
  5
24F
102
{ACAD_REACTORS
330
24D
102
}
330
24D
100
DictionaryVariables
280
     0
  1
Standard
  0
DICTIONARYVAR
  5
24E
102
{ACAD_REACTORS
330
24D
102
}
330
24D
100
DictionaryVariables
280
     0
  1
Standard
  0
DICTIONARYVAR
  5
256
102
{ACAD_REACTORS
330
24D
102
}
330
24D
100
DictionaryVariables
280
     0
  1
2
  0
DICTIONARYVAR
  5
257
102
{ACAD_REACTORS
330
24D
102
}
330
24D
100
DictionaryVariables
280
     0
  1
1
  0
DICTIONARYVAR
  5
25B
102
{ACAD_REACTORS
330
24D
102
}
330
24D
100
DictionaryVariables
280
     0
  1
1
  0
DICTIONARYVAR
  5
251
102
{ACAD_REACTORS
330
24D
102
}
330
24D
100
DictionaryVariables
280
     0
  1
80.000000
  0
DICTIONARYVAR
  5
250
102
{ACAD_REACTORS
330
24D
102
}
330
24D
100
DictionaryVariables
280
     0
  1
5.000000
  0
DICTIONARY
  5
28E
330
45
100
AcDbDictionary
280
     1
281
     1
  3
ACAD_XREC_ROUNDTRIP
360
28F
  0
DICTIONARY
  5
28C
330
44
100
AcDbDictionary
280
     1
281
     1
  3
ACAD_XREC_ROUNDTRIP
360
28D
  0
DICTIONARY
  5
290
330
46
100
AcDbDictionary
280
     1
281
     1
  3
ACAD_XREC_ROUNDTRIP
360
291
  0
DICTIONARY
  5
293
330
6C
100
AcDbDictionary
280
     1
281
     1
  3
ACAD_XREC_ROUNDTRIP
360
294
  0
DICTIONARY
  5
264
330
2F
100
AcDbDictionary
280
     1
281
     1
  3
ACAD_XREC_ROUNDTRIP
360
265
  0
DICTIONARY
  5
26A
330
32
100
AcDbDictionary
280
     1
281
     1
  3
ACAD_XREC_ROUNDTRIP
360
26B
  0
DICTIONARY
  5
272
330
36
100
AcDbDictionary
280
     1
281
     1
  3
ACAD_XREC_ROUNDTRIP
360
273
  0
DICTIONARY
  5
27A
330
3A
100
AcDbDictionary
280
     1
281
     1
  3
ACAD_XREC_ROUNDTRIP
360
27B
  0
DICTIONARY
  5
26E
330
34
100
AcDbDictionary
280
     1
281
     1
  3
ACAD_XREC_ROUNDTRIP
360
26F
  0
DICTIONARY
  5
270
330
35
100
AcDbDictionary
280
     1
281
     1
  3
ACAD_XREC_ROUNDTRIP
360
271
  0
DICTIONARY
  5
280
330
3D
100
AcDbDictionary
280
     1
281
     1
  3
ACAD_XREC_ROUNDTRIP
360
281
  0
DICTIONARY
  5
278
330
39
100
AcDbDictionary
280
     1
281
     1
  3
ACAD_XREC_ROUNDTRIP
360
279
  0
DICTIONARY
  5
25C
330
2B
100
AcDbDictionary
280
     1
281
     1
  3
ACAD_XREC_ROUNDTRIP
360
25D
  0
DICTIONARY
  5
25E
330
2C
100
AcDbDictionary
280
     1
281
     1
  3
ACAD_XREC_ROUNDTRIP
360
25F
  0
DICTIONARY
  5
260
330
2D
100
AcDbDictionary
280
     1
281
     1
  3
ACAD_XREC_ROUNDTRIP
360
261
  0
DICTIONARY
  5
262
330
2E
100
AcDbDictionary
280
     1
281
     1
  3
ACAD_XREC_ROUNDTRIP
360
263
  0
DICTIONARY
  5
268
330
31
100
AcDbDictionary
280
     1
281
     1
  3
ACAD_XREC_ROUNDTRIP
360
269
  0
DICTIONARY
  5
27C
330
3B
100
AcDbDictionary
280
     1
281
     1
  3
ACAD_XREC_ROUNDTRIP
360
27D
  0
DICTIONARY
  5
276
330
38
100
AcDbDictionary
280
     1
281
     1
  3
ACAD_XREC_ROUNDTRIP
360
277
  0
DICTIONARY
  5
27E
330
3C
100
AcDbDictionary
280
     1
281
     1
  3
ACAD_XREC_ROUNDTRIP
360
27F
  0
DICTIONARY
  5
26C
330
33
100
AcDbDictionary
280
     1
281
     1
  3
ACAD_XREC_ROUNDTRIP
360
26D
  0
DICTIONARY
  5
28A
330
42
100
AcDbDictionary
280
     1
281
     1
  3
ACAD_XREC_ROUNDTRIP
360
28B
  0
DICTIONARY
  5
288
330
41
100
AcDbDictionary
280
     1
281
     1
  3
ACAD_XREC_ROUNDTRIP
360
289
  0
DICTIONARY
  5
282
330
3E
100
AcDbDictionary
280
     1
281
     1
  3
ACAD_XREC_ROUNDTRIP
360
283
  0
DICTIONARY
  5
284
330
3F
100
AcDbDictionary
280
     1
281
     1
  3
ACAD_XREC_ROUNDTRIP
360
285
  0
DICTIONARY
  5
274
330
37
100
AcDbDictionary
280
     1
281
     1
  3
ACAD_XREC_ROUNDTRIP
360
275
  0
DICTIONARY
  5
266
330
30
100
AcDbDictionary
280
     1
281
     1
  3
ACAD_XREC_ROUNDTRIP
360
267
  0
DICTIONARY
  5
286
330
40
100
AcDbDictionary
280
     1
281
     1
  3
ACAD_XREC_ROUNDTRIP
360
287
  0
XRECORD
  5
28F
102
{ACAD_REACTORS
330
28E
102
}
330
28E
100
AcDbXrecord
280
     1
102
MATERIAL
148
0.0
149
0.0
149
0.0
 93
        0
 94
      127
282
     0
 72
     1
 77
     1
171
     1
175
     1
179
     1
273
     0
  0
XRECORD
  5
28D
102
{ACAD_REACTORS
330
28C
102
}
330
28C
100
AcDbXrecord
280
     1
102
MATERIAL
148
0.0
149
0.0
149
0.0
 93
        0
 94
      127
282
     0
 72
     1
 77
     1
171
     1
175
     1
179
     1
273
     0
  0
XRECORD
  5
291
102
{ACAD_REACTORS
330
290
102
}
330
290
100
AcDbXrecord
280
     1
102
MATERIAL
148
0.0
149
0.0
149
0.0
 93
        0
 94
      127
282
     0
 72
     1
 77
     1
171
     1
175
     1
179
     1
273
     0
  0
XRECORD
  5
294
102
{ACAD_REACTORS
330
293
102
}
330
293
100
AcDbXrecord
280
     1
102
ACAD_ROUNDTRIP_2010_MLEADER_STYLE
  0
XRECORD
  5
265
102
{ACAD_REACTORS
330
264
102
}
330
264
100
AcDbXrecord
280
     1
102
RTVSPropertyOp0
 70
     1
102
RTVSPropertyOp1
 70
     1
102
RTVSPropertyOp2
 70
     1
102
RTVSPropertyOp3
 70
     1
102
RTVSPropertyOp4
 70
     1
102
RTVSPropertyOp5
 70
     1
102
RTVSPropertyOp6
 70
     1
102
RTVSPropertyOp7
 70
     1
102
RTVSPropertyOp8
 70
     1
102
RTVSPropertyOp9
 70
     1
102
RTVSPropertyOp10
 70
     1
102
RTVSPropertyOp11
 70
     1
102
RTVSPropertyOp12
 70
     1
102
RTVSPropertyOp13
 70
     1
102
RTVSPropertyOp14
 70
     1
102
RTVSPropertyOp15
 70
     1
102
RTVSPropertyOp16
 70
     1
102
RTVSPropertyOp17
 70
     1
102
RTVSPropertyOp18
 70
     1
102
RTVSPropertyOp19
 70
     1
102
RTVSPropertyOp20
 70
     1
102
RTVSPropertyOp21
 70
     1
102
RTVSPropertyOp22
 70
     1
102
RTVSPropertyOp23
 70
     1
102
RTVSPropertyOp24
 70
     1
102
RTVSPropertyOp25
 70
     1
102
RTVSPropertyOp26
 70
     1
102
RTVSPropertyOp27
 70
     1
102
RTVSPropertyOp28
 70
     1
102
RTVSPropertyOp29
 70
     1
102
RTVSPropertyOp30
 70
     1
102
RTVSPropertyOp31
 70
     1
102
RTVSPropertyOp32
 70
     1
102
RTVSPropertyOp33
 70
     1
102
RTVSPropertyOp34
 70
     1
102
RTVSPropertyOp35
 70
     1
102
RTVSPropertyOp36
 70
     1
102
RTVSPropertyOp37
 70
     1
102
RTVSPropertyOp38
 70
     1
102
RTVSPropertyOp39
 70
     1
102
RTVSPropertyOp40
 70
     1
102
RTVSPropertyOp41
 70
     1
102
RTVSPropertyOp42
 70
     1
102
RTVSPropertyOp43
 70
     1
102
RTVSPropertyOp44
 70
     1
102
RTVSPropertyOp45
 70
     1
102
RTVSPropertyOp46
 70
     1
102
RTVSPropertyOp47
 70
     1
102
RTVSPropertyOp48
 70
     1
102
RTVSPropertyOp49
 70
     1
102
RTVSPropertyOp50
 70
     1
102
RTVSPropertyOp51
 70
     0
102
RTVSPropertyOp52
 70
     0
102
RTVSPropertyOp53
 70
     1
102
RTVSPropertyOp54
 70
     1
102
RTVSPropertyOp55
 70
     1
102
RTVSPropertyOp56
 70
     1
102
RTVSPropertyOp57
 70
     1
102
RTVSPost2010Prop28
280
     1
102
RTVSPost2010PropOp28
 70
     1
102
RTVSPost2010Prop29
280
     1
102
RTVSPost2010PropOp29
 70
     1
102
RTVSPost2010Prop30
280
     0
102
RTVSPost2010PropOp30
 70
     1
102
RTVSPost2010Prop31
280
     0
102
RTVSPost2010PropOp31
 70
     1
102
RTVSPost2010Prop32
280
     0
102
RTVSPost2010PropOp32
 70
     1
102
RTVSPost2010Prop33
280
     0
102
RTVSPost2010PropOp33
 70
     1
102
RTVSPost2010Prop34
280
     0
102
RTVSPost2010PropOp34
 70
     1
102
RTVSPost2010Prop35
280
     0
102
RTVSPost2010PropOp35
 70
     1
102
RTVSPost2010Prop36
280
     0
102
RTVSPost2010PropOp36
 70
     1
102
RTVSPost2010Prop37
 90
       50
102
RTVSPost2010PropOp37
 70
     1
102
RTVSPost2010Prop38
140
0.0
102
RTVSPost2010PropOp38
 70
     1
102
RTVSPost2010Prop39
140
1.0
102
RTVSPost2010PropOp39
 70
     1
102
RTVSPost2010Prop40
 90
        0
102
RTVSPost2010PropOp40
 70
     1
102
RTVSPost2010Prop41ColorIndex
 90
       18
102
RTVSPost2010Prop41ColorRGB
 90
        0
102
RTVSPost2010PropOp41
 70
     1
102
RTVSPost2010Prop42
 90
       50
102
RTVSPost2010PropOp42
 70
     1
102
RTVSPost2010Prop43
 90
        3
102
RTVSPost2010PropOp43
 70
     1
102
RTVSPost2010Prop44ColorIndex
 90
        5
102
RTVSPost2010Prop44ColorRGB
 90
      255
102
RTVSPost2010PropOp44
 70
     1
102
RTVSPost2010Prop45
280
     0
102
RTVSPost2010PropOp45
 70
     1
102
RTVSPost2010Prop46
 90
       50
102
RTVSPost2010PropOp46
 70
     1
102
RTVSPost2010Prop47
 90
       50
102
RTVSPost2010PropOp47
 70
     1
102
RTVSPost2010Prop48
 90
       50
102
RTVSPost2010PropOp48
 70
     1
102
RTVSPost2010Prop49
280
     0
102
RTVSPost2010PropOp49
 70
     1
102
RTVSPost2010Prop50
 90
       50
102
RTVSPost2010PropOp50
 70
     1
102
RTVSPost2010Prop51ColorIndex
 90
      256
102
RTVSPost2010Prop51ColorRGB
 90
-16777216
102
RTVSPost2010PropOp51
 70
     0
102
RTVSPost2010Prop52
140
1.0
102
RTVSPost2010PropOp52
 70
     0
102
RTVSPost2010Prop53
 90
        2
102
RTVSPost2010PropOp53
 70
     1
102
RTVSPost2010Prop54
  1
strokes_ogs.tif
102
RTVSPost2010PropOp54
 70
     1
102
RTVSPost2010Prop55
280
     0
102
RTVSPost2010PropOp55
 70
     1
102
RTVSPost2010Prop56
140
1.0
102
RTVSPost2010PropOp56
 70
     1
102
RTVSPost2010Prop57
140
1.0
102
RTVSPost2010PropOp57
 70
     1
  0
XRECORD
  5
26B
102
{ACAD_REACTORS
330
26A
102
}
330
26A
100
AcDbXrecord
280
     1
102
RTVSPropertyOp0
 70
     1
102
RTVSPropertyOp1
 70
     1
102
RTVSPropertyOp2
 70
     1
102
RTVSPropertyOp3
 70
     1
102
RTVSPropertyOp4
 70
     1
102
RTVSPropertyOp5
 70
     1
102
RTVSPropertyOp6
 70
     1
102
RTVSPropertyOp7
 70
     1
102
RTVSPropertyOp8
 70
     1
102
RTVSPropertyOp9
 70
     1
102
RTVSPropertyOp10
 70
     1
102
RTVSPropertyOp11
 70
     1
102
RTVSPropertyOp12
 70
     1
102
RTVSPropertyOp13
 70
     1
102
RTVSPropertyOp14
 70
     1
102
RTVSPropertyOp15
 70
     1
102
RTVSPropertyOp16
 70
     1
102
RTVSPropertyOp17
 70
     1
102
RTVSPropertyOp18
 70
     1
102
RTVSPropertyOp19
 70
     1
102
RTVSPropertyOp20
 70
     1
102
RTVSPropertyOp21
 70
     1
102
RTVSPropertyOp22
 70
     1
102
RTVSPropertyOp23
 70
     1
102
RTVSPropertyOp24
 70
     1
102
RTVSPropertyOp25
 70
     1
102
RTVSPropertyOp26
 70
     1
102
RTVSPropertyOp27
 70
     1
102
RTVSPropertyOp28
 70
     1
102
RTVSPropertyOp29
 70
     1
102
RTVSPropertyOp30
 70
     1
102
RTVSPropertyOp31
 70
     1
102
RTVSPropertyOp32
 70
     1
102
RTVSPropertyOp33
 70
     1
102
RTVSPropertyOp34
 70
     1
102
RTVSPropertyOp35
 70
     1
102
RTVSPropertyOp36
 70
     1
102
RTVSPropertyOp37
 70
     1
102
RTVSPropertyOp38
 70
     1
102
RTVSPropertyOp39
 70
     1
102
RTVSPropertyOp40
 70
     1
102
RTVSPropertyOp41
 70
     1
102
RTVSPropertyOp42
 70
     1
102
RTVSPropertyOp43
 70
     1
102
RTVSPropertyOp44
 70
     1
102
RTVSPropertyOp45
 70
     1
102
RTVSPropertyOp46
 70
     1
102
RTVSPropertyOp47
 70
     1
102
RTVSPropertyOp48
 70
     1
102
RTVSPropertyOp49
 70
     1
102
RTVSPropertyOp50
 70
     1
102
RTVSPropertyOp51
 70
     0
102
RTVSPropertyOp52
 70
     0
102
RTVSPropertyOp53
 70
     1
102
RTVSPropertyOp54
 70
     1
102
RTVSPropertyOp55
 70
     1
102
RTVSPropertyOp56
 70
     1
102
RTVSPropertyOp57
 70
     1
102
RTVSPost2010Prop28
280
     0
102
RTVSPost2010PropOp28
 70
     1
102
RTVSPost2010Prop29
280
     1
102
RTVSPost2010PropOp29
 70
     1
102
RTVSPost2010Prop30
280
     1
102
RTVSPost2010PropOp30
 70
     1
102
RTVSPost2010Prop31
280
     0
102
RTVSPost2010PropOp31
 70
     1
102
RTVSPost2010Prop32
280
     0
102
RTVSPost2010PropOp32
 70
     1
102
RTVSPost2010Prop33
280
     0
102
RTVSPost2010PropOp33
 70
     1
102
RTVSPost2010Prop34
280
     0
102
RTVSPost2010PropOp34
 70
     1
102
RTVSPost2010Prop35
280
     0
102
RTVSPost2010PropOp35
 70
     1
102
RTVSPost2010Prop36
280
     0
102
RTVSPost2010PropOp36
 70
     1
102
RTVSPost2010Prop37
 90
       50
102
RTVSPost2010PropOp37
 70
     1
102
RTVSPost2010Prop38
140
0.0
102
RTVSPost2010PropOp38
 70
     1
102
RTVSPost2010Prop39
140
1.0
102
RTVSPost2010PropOp39
 70
     1
102
RTVSPost2010Prop40
 90
        0
102
RTVSPost2010PropOp40
 70
     1
102
RTVSPost2010Prop41ColorIndex
 90
       18
102
RTVSPost2010Prop41ColorRGB
 90
        0
102
RTVSPost2010PropOp41
 70
     1
102
RTVSPost2010Prop42
 90
       50
102
RTVSPost2010PropOp42
 70
     1
102
RTVSPost2010Prop43
 90
        3
102
RTVSPost2010PropOp43
 70
     1
102
RTVSPost2010Prop44ColorIndex
 90
        5
102
RTVSPost2010Prop44ColorRGB
 90
      255
102
RTVSPost2010PropOp44
 70
     1
102
RTVSPost2010Prop45
280
     0
102
RTVSPost2010PropOp45
 70
     1
102
RTVSPost2010Prop46
 90
       50
102
RTVSPost2010PropOp46
 70
     1
102
RTVSPost2010Prop47
 90
       50
102
RTVSPost2010PropOp47
 70
     1
102
RTVSPost2010Prop48
 90
       50
102
RTVSPost2010PropOp48
 70
     1
102
RTVSPost2010Prop49
280
     0
102
RTVSPost2010PropOp49
 70
     1
102
RTVSPost2010Prop50
 90
       50
102
RTVSPost2010PropOp50
 70
     1
102
RTVSPost2010Prop51ColorIndex
 90
      256
102
RTVSPost2010Prop51ColorRGB
 90
-16777216
102
RTVSPost2010PropOp51
 70
     0
102
RTVSPost2010Prop52
140
1.0
102
RTVSPost2010PropOp52
 70
     0
102
RTVSPost2010Prop53
 90
        2
102
RTVSPost2010PropOp53
 70
     1
102
RTVSPost2010Prop54
  1
strokes_ogs.tif
102
RTVSPost2010PropOp54
 70
     1
102
RTVSPost2010Prop55
280
     0
102
RTVSPost2010PropOp55
 70
     1
102
RTVSPost2010Prop56
140
1.0
102
RTVSPost2010PropOp56
 70
     1
102
RTVSPost2010Prop57
140
1.0
102
RTVSPost2010PropOp57
 70
     1
  0
XRECORD
  5
273
102
{ACAD_REACTORS
330
272
102
}
330
272
100
AcDbXrecord
280
     1
102
RTVSPropertyOp0
 70
     1
102
RTVSPropertyOp1
 70
     1
102
RTVSPropertyOp2
 70
     1
102
RTVSPropertyOp3
 70
     1
102
RTVSPropertyOp4
 70
     1
102
RTVSPropertyOp5
 70
     1
102
RTVSPropertyOp6
 70
     1
102
RTVSPropertyOp7
 70
     1
102
RTVSPropertyOp8
 70
     1
102
RTVSPropertyOp9
 70
     1
102
RTVSPropertyOp10
 70
     1
102
RTVSPropertyOp11
 70
     1
102
RTVSPropertyOp12
 70
     1
102
RTVSPropertyOp13
 70
     1
102
RTVSPropertyOp14
 70
     1
102
RTVSPropertyOp15
 70
     1
102
RTVSPropertyOp16
 70
     1
102
RTVSPropertyOp17
 70
     1
102
RTVSPropertyOp18
 70
     1
102
RTVSPropertyOp19
 70
     1
102
RTVSPropertyOp20
 70
     1
102
RTVSPropertyOp21
 70
     1
102
RTVSPropertyOp22
 70
     1
102
RTVSPropertyOp23
 70
     1
102
RTVSPropertyOp24
 70
     1
102
RTVSPropertyOp25
 70
     1
102
RTVSPropertyOp26
 70
     1
102
RTVSPropertyOp27
 70
     1
102
RTVSPropertyOp28
 70
     1
102
RTVSPropertyOp29
 70
     1
102
RTVSPropertyOp30
 70
     1
102
RTVSPropertyOp31
 70
     1
102
RTVSPropertyOp32
 70
     1
102
RTVSPropertyOp33
 70
     1
102
RTVSPropertyOp34
 70
     1
102
RTVSPropertyOp35
 70
     1
102
RTVSPropertyOp36
 70
     1
102
RTVSPropertyOp37
 70
     1
102
RTVSPropertyOp38
 70
     1
102
RTVSPropertyOp39
 70
     1
102
RTVSPropertyOp40
 70
     1
102
RTVSPropertyOp41
 70
     1
102
RTVSPropertyOp42
 70
     1
102
RTVSPropertyOp43
 70
     1
102
RTVSPropertyOp44
 70
     1
102
RTVSPropertyOp45
 70
     1
102
RTVSPropertyOp46
 70
     1
102
RTVSPropertyOp47
 70
     1
102
RTVSPropertyOp48
 70
     1
102
RTVSPropertyOp49
 70
     1
102
RTVSPropertyOp50
 70
     1
102
RTVSPropertyOp51
 70
     0
102
RTVSPropertyOp52
 70
     0
102
RTVSPropertyOp53
 70
     1
102
RTVSPropertyOp54
 70
     1
102
RTVSPropertyOp55
 70
     1
102
RTVSPropertyOp56
 70
     1
102
RTVSPropertyOp57
 70
     1
102
RTVSPost2010Prop28
280
     0
102
RTVSPost2010PropOp28
 70
     1
102
RTVSPost2010Prop29
280
     1
102
RTVSPost2010PropOp29
 70
     1
102
RTVSPost2010Prop30
280
     1
102
RTVSPost2010PropOp30
 70
     1
102
RTVSPost2010Prop31
280
     0
102
RTVSPost2010PropOp31
 70
     1
102
RTVSPost2010Prop32
280
     0
102
RTVSPost2010PropOp32
 70
     1
102
RTVSPost2010Prop33
280
     0
102
RTVSPost2010PropOp33
 70
     1
102
RTVSPost2010Prop34
280
     0
102
RTVSPost2010PropOp34
 70
     1
102
RTVSPost2010Prop35
280
     0
102
RTVSPost2010PropOp35
 70
     1
102
RTVSPost2010Prop36
280
     0
102
RTVSPost2010PropOp36
 70
     1
102
RTVSPost2010Prop37
 90
       50
102
RTVSPost2010PropOp37
 70
     1
102
RTVSPost2010Prop38
140
0.0
102
RTVSPost2010PropOp38
 70
     1
102
RTVSPost2010Prop39
140
1.0
102
RTVSPost2010PropOp39
 70
     1
102
RTVSPost2010Prop40
 90
        0
102
RTVSPost2010PropOp40
 70
     1
102
RTVSPost2010Prop41ColorIndex
 90
       18
102
RTVSPost2010Prop41ColorRGB
 90
        0
102
RTVSPost2010PropOp41
 70
     1
102
RTVSPost2010Prop42
 90
       50
102
RTVSPost2010PropOp42
 70
     1
102
RTVSPost2010Prop43
 90
        3
102
RTVSPost2010PropOp43
 70
     1
102
RTVSPost2010Prop44ColorIndex
 90
        5
102
RTVSPost2010Prop44ColorRGB
 90
      255
102
RTVSPost2010PropOp44
 70
     1
102
RTVSPost2010Prop45
280
     0
102
RTVSPost2010PropOp45
 70
     1
102
RTVSPost2010Prop46
 90
       50
102
RTVSPost2010PropOp46
 70
     1
102
RTVSPost2010Prop47
 90
       50
102
RTVSPost2010PropOp47
 70
     1
102
RTVSPost2010Prop48
 90
       50
102
RTVSPost2010PropOp48
 70
     1
102
RTVSPost2010Prop49
280
     0
102
RTVSPost2010PropOp49
 70
     1
102
RTVSPost2010Prop50
 90
       50
102
RTVSPost2010PropOp50
 70
     1
102
RTVSPost2010Prop51ColorIndex
 90
      256
102
RTVSPost2010Prop51ColorRGB
 90
-16777216
102
RTVSPost2010PropOp51
 70
     0
102
RTVSPost2010Prop52
140
1.0
102
RTVSPost2010PropOp52
 70
     0
102
RTVSPost2010Prop53
 90
        2
102
RTVSPost2010PropOp53
 70
     1
102
RTVSPost2010Prop54
  1
strokes_ogs.tif
102
RTVSPost2010PropOp54
 70
     1
102
RTVSPost2010Prop55
280
     0
102
RTVSPost2010PropOp55
 70
     1
102
RTVSPost2010Prop56
140
1.0
102
RTVSPost2010PropOp56
 70
     1
102
RTVSPost2010Prop57
140
1.0
102
RTVSPost2010PropOp57
 70
     1
  0
XRECORD
  5
27B
102
{ACAD_REACTORS
330
27A
102
}
330
27A
100
AcDbXrecord
280
     1
102
RTVSPropertyOp0
 70
     1
102
RTVSPropertyOp1
 70
     1
102
RTVSPropertyOp2
 70
     1
102
RTVSPropertyOp3
 70
     1
102
RTVSPropertyOp4
 70
     1
102
RTVSPropertyOp5
 70
     1
102
RTVSPropertyOp6
 70
     1
102
RTVSPropertyOp7
 70
     1
102
RTVSPropertyOp8
 70
     1
102
RTVSPropertyOp9
 70
     1
102
RTVSPropertyOp10
 70
     1
102
RTVSPropertyOp11
 70
     1
102
RTVSPropertyOp12
 70
     1
102
RTVSPropertyOp13
 70
     1
102
RTVSPropertyOp14
 70
     1
102
RTVSPropertyOp15
 70
     1
102
RTVSPropertyOp16
 70
     1
102
RTVSPropertyOp17
 70
     1
102
RTVSPropertyOp18
 70
     1
102
RTVSPropertyOp19
 70
     1
102
RTVSPropertyOp20
 70
     1
102
RTVSPropertyOp21
 70
     1
102
RTVSPropertyOp22
 70
     1
102
RTVSPropertyOp23
 70
     1
102
RTVSPropertyOp24
 70
     1
102
RTVSPropertyOp25
 70
     1
102
RTVSPropertyOp26
 70
     1
102
RTVSPropertyOp27
 70
     1
102
RTVSPropertyOp28
 70
     1
102
RTVSPropertyOp29
 70
     1
102
RTVSPropertyOp30
 70
     1
102
RTVSPropertyOp31
 70
     1
102
RTVSPropertyOp32
 70
     1
102
RTVSPropertyOp33
 70
     1
102
RTVSPropertyOp34
 70
     1
102
RTVSPropertyOp35
 70
     1
102
RTVSPropertyOp36
 70
     1
102
RTVSPropertyOp37
 70
     1
102
RTVSPropertyOp38
 70
     1
102
RTVSPropertyOp39
 70
     1
102
RTVSPropertyOp40
 70
     1
102
RTVSPropertyOp41
 70
     1
102
RTVSPropertyOp42
 70
     1
102
RTVSPropertyOp43
 70
     1
102
RTVSPropertyOp44
 70
     1
102
RTVSPropertyOp45
 70
     1
102
RTVSPropertyOp46
 70
     1
102
RTVSPropertyOp47
 70
     1
102
RTVSPropertyOp48
 70
     1
102
RTVSPropertyOp49
 70
     1
102
RTVSPropertyOp50
 70
     1
102
RTVSPropertyOp51
 70
     0
102
RTVSPropertyOp52
 70
     0
102
RTVSPropertyOp53
 70
     1
102
RTVSPropertyOp54
 70
     1
102
RTVSPropertyOp55
 70
     1
102
RTVSPropertyOp56
 70
     1
102
RTVSPropertyOp57
 70
     1
102
RTVSPost2010Prop28
280
     0
102
RTVSPost2010PropOp28
 70
     1
102
RTVSPost2010Prop29
280
     1
102
RTVSPost2010PropOp29
 70
     1
102
RTVSPost2010Prop30
280
     1
102
RTVSPost2010PropOp30
 70
     1
102
RTVSPost2010Prop31
280
     0
102
RTVSPost2010PropOp31
 70
     1
102
RTVSPost2010Prop32
280
     0
102
RTVSPost2010PropOp32
 70
     1
102
RTVSPost2010Prop33
280
     0
102
RTVSPost2010PropOp33
 70
     1
102
RTVSPost2010Prop34
280
     0
102
RTVSPost2010PropOp34
 70
     1
102
RTVSPost2010Prop35
280
     0
102
RTVSPost2010PropOp35
 70
     1
102
RTVSPost2010Prop36
280
     0
102
RTVSPost2010PropOp36
 70
     1
102
RTVSPost2010Prop37
 90
       50
102
RTVSPost2010PropOp37
 70
     1
102
RTVSPost2010Prop38
140
0.0
102
RTVSPost2010PropOp38
 70
     1
102
RTVSPost2010Prop39
140
1.0
102
RTVSPost2010PropOp39
 70
     1
102
RTVSPost2010Prop40
 90
        0
102
RTVSPost2010PropOp40
 70
     1
102
RTVSPost2010Prop41ColorIndex
 90
       18
102
RTVSPost2010Prop41ColorRGB
 90
        0
102
RTVSPost2010PropOp41
 70
     1
102
RTVSPost2010Prop42
 90
       50
102
RTVSPost2010PropOp42
 70
     1
102
RTVSPost2010Prop43
 90
        3
102
RTVSPost2010PropOp43
 70
     1
102
RTVSPost2010Prop44ColorIndex
 90
        5
102
RTVSPost2010Prop44ColorRGB
 90
      255
102
RTVSPost2010PropOp44
 70
     1
102
RTVSPost2010Prop45
280
     0
102
RTVSPost2010PropOp45
 70
     1
102
RTVSPost2010Prop46
 90
       50
102
RTVSPost2010PropOp46
 70
     1
102
RTVSPost2010Prop47
 90
       50
102
RTVSPost2010PropOp47
 70
     1
102
RTVSPost2010Prop48
 90
       50
102
RTVSPost2010PropOp48
 70
     1
102
RTVSPost2010Prop49
280
     0
102
RTVSPost2010PropOp49
 70
     1
102
RTVSPost2010Prop50
 90
       50
102
RTVSPost2010PropOp50
 70
     1
102
RTVSPost2010Prop51ColorIndex
 90
      256
102
RTVSPost2010Prop51ColorRGB
 90
-16777216
102
RTVSPost2010PropOp51
 70
     0
102
RTVSPost2010Prop52
140
1.0
102
RTVSPost2010PropOp52
 70
     0
102
RTVSPost2010Prop53
 90
        2
102
RTVSPost2010PropOp53
 70
     1
102
RTVSPost2010Prop54
  1
strokes_ogs.tif
102
RTVSPost2010PropOp54
 70
     1
102
RTVSPost2010Prop55
280
     0
102
RTVSPost2010PropOp55
 70
     1
102
RTVSPost2010Prop56
140
1.0
102
RTVSPost2010PropOp56
 70
     1
102
RTVSPost2010Prop57
140
1.0
102
RTVSPost2010PropOp57
 70
     1
  0
XRECORD
  5
26F
102
{ACAD_REACTORS
330
26E
102
}
330
26E
100
AcDbXrecord
280
     1
102
RTVSPropertyOp0
 70
     1
102
RTVSPropertyOp1
 70
     1
102
RTVSPropertyOp2
 70
     1
102
RTVSPropertyOp3
 70
     1
102
RTVSPropertyOp4
 70
     1
102
RTVSPropertyOp5
 70
     1
102
RTVSPropertyOp6
 70
     1
102
RTVSPropertyOp7
 70
     1
102
RTVSPropertyOp8
 70
     1
102
RTVSPropertyOp9
 70
     1
102
RTVSPropertyOp10
 70
     1
102
RTVSPropertyOp11
 70
     1
102
RTVSPropertyOp12
 70
     1
102
RTVSPropertyOp13
 70
     1
102
RTVSPropertyOp14
 70
     1
102
RTVSPropertyOp15
 70
     1
102
RTVSPropertyOp16
 70
     1
102
RTVSPropertyOp17
 70
     1
102
RTVSPropertyOp18
 70
     1
102
RTVSPropertyOp19
 70
     1
102
RTVSPropertyOp20
 70
     1
102
RTVSPropertyOp21
 70
     1
102
RTVSPropertyOp22
 70
     1
102
RTVSPropertyOp23
 70
     1
102
RTVSPropertyOp24
 70
     1
102
RTVSPropertyOp25
 70
     1
102
RTVSPropertyOp26
 70
     1
102
RTVSPropertyOp27
 70
     1
102
RTVSPropertyOp28
 70
     1
102
RTVSPropertyOp29
 70
     1
102
RTVSPropertyOp30
 70
     1
102
RTVSPropertyOp31
 70
     1
102
RTVSPropertyOp32
 70
     1
102
RTVSPropertyOp33
 70
     1
102
RTVSPropertyOp34
 70
     1
102
RTVSPropertyOp35
 70
     1
102
RTVSPropertyOp36
 70
     1
102
RTVSPropertyOp37
 70
     1
102
RTVSPropertyOp38
 70
     1
102
RTVSPropertyOp39
 70
     1
102
RTVSPropertyOp40
 70
     1
102
RTVSPropertyOp41
 70
     1
102
RTVSPropertyOp42
 70
     1
102
RTVSPropertyOp43
 70
     1
102
RTVSPropertyOp44
 70
     1
102
RTVSPropertyOp45
 70
     1
102
RTVSPropertyOp46
 70
     1
102
RTVSPropertyOp47
 70
     1
102
RTVSPropertyOp48
 70
     1
102
RTVSPropertyOp49
 70
     1
102
RTVSPropertyOp50
 70
     1
102
RTVSPropertyOp51
 70
     0
102
RTVSPropertyOp52
 70
     0
102
RTVSPropertyOp53
 70
     1
102
RTVSPropertyOp54
 70
     1
102
RTVSPropertyOp55
 70
     1
102
RTVSPropertyOp56
 70
     1
102
RTVSPropertyOp57
 70
     1
102
RTVSPost2010Prop28
280
     0
102
RTVSPost2010PropOp28
 70
     1
102
RTVSPost2010Prop29
280
     1
102
RTVSPost2010PropOp29
 70
     1
102
RTVSPost2010Prop30
280
     1
102
RTVSPost2010PropOp30
 70
     1
102
RTVSPost2010Prop31
280
     0
102
RTVSPost2010PropOp31
 70
     1
102
RTVSPost2010Prop32
280
     0
102
RTVSPost2010PropOp32
 70
     1
102
RTVSPost2010Prop33
280
     0
102
RTVSPost2010PropOp33
 70
     1
102
RTVSPost2010Prop34
280
     0
102
RTVSPost2010PropOp34
 70
     1
102
RTVSPost2010Prop35
280
     0
102
RTVSPost2010PropOp35
 70
     1
102
RTVSPost2010Prop36
280
     0
102
RTVSPost2010PropOp36
 70
     1
102
RTVSPost2010Prop37
 90
       50
102
RTVSPost2010PropOp37
 70
     1
102
RTVSPost2010Prop38
140
0.0
102
RTVSPost2010PropOp38
 70
     1
102
RTVSPost2010Prop39
140
1.0
102
RTVSPost2010PropOp39
 70
     1
102
RTVSPost2010Prop40
 90
        0
102
RTVSPost2010PropOp40
 70
     1
102
RTVSPost2010Prop41ColorIndex
 90
       18
102
RTVSPost2010Prop41ColorRGB
 90
        0
102
RTVSPost2010PropOp41
 70
     1
102
RTVSPost2010Prop42
 90
       50
102
RTVSPost2010PropOp42
 70
     1
102
RTVSPost2010Prop43
 90
        3
102
RTVSPost2010PropOp43
 70
     1
102
RTVSPost2010Prop44ColorIndex
 90
        5
102
RTVSPost2010Prop44ColorRGB
 90
      255
102
RTVSPost2010PropOp44
 70
     1
102
RTVSPost2010Prop45
280
     0
102
RTVSPost2010PropOp45
 70
     1
102
RTVSPost2010Prop46
 90
       50
102
RTVSPost2010PropOp46
 70
     1
102
RTVSPost2010Prop47
 90
       50
102
RTVSPost2010PropOp47
 70
     1
102
RTVSPost2010Prop48
 90
       50
102
RTVSPost2010PropOp48
 70
     1
102
RTVSPost2010Prop49
280
     0
102
RTVSPost2010PropOp49
 70
     1
102
RTVSPost2010Prop50
 90
       50
102
RTVSPost2010PropOp50
 70
     1
102
RTVSPost2010Prop51ColorIndex
 90
      256
102
RTVSPost2010Prop51ColorRGB
 90
-16777216
102
RTVSPost2010PropOp51
 70
     0
102
RTVSPost2010Prop52
140
1.0
102
RTVSPost2010PropOp52
 70
     0
102
RTVSPost2010Prop53
 90
        2
102
RTVSPost2010PropOp53
 70
     1
102
RTVSPost2010Prop54
  1
strokes_ogs.tif
102
RTVSPost2010PropOp54
 70
     1
102
RTVSPost2010Prop55
280
     0
102
RTVSPost2010PropOp55
 70
     1
102
RTVSPost2010Prop56
140
1.0
102
RTVSPost2010PropOp56
 70
     1
102
RTVSPost2010Prop57
140
1.0
102
RTVSPost2010PropOp57
 70
     1
  0
XRECORD
  5
271
102
{ACAD_REACTORS
330
270
102
}
330
270
100
AcDbXrecord
280
     1
102
RTVSPropertyOp0
 70
     1
102
RTVSPropertyOp1
 70
     1
102
RTVSPropertyOp2
 70
     1
102
RTVSPropertyOp3
 70
     1
102
RTVSPropertyOp4
 70
     1
102
RTVSPropertyOp5
 70
     1
102
RTVSPropertyOp6
 70
     1
102
RTVSPropertyOp7
 70
     1
102
RTVSPropertyOp8
 70
     1
102
RTVSPropertyOp9
 70
     1
102
RTVSPropertyOp10
 70
     1
102
RTVSPropertyOp11
 70
     1
102
RTVSPropertyOp12
 70
     1
102
RTVSPropertyOp13
 70
     1
102
RTVSPropertyOp14
 70
     1
102
RTVSPropertyOp15
 70
     1
102
RTVSPropertyOp16
 70
     1
102
RTVSPropertyOp17
 70
     1
102
RTVSPropertyOp18
 70
     1
102
RTVSPropertyOp19
 70
     1
102
RTVSPropertyOp20
 70
     1
102
RTVSPropertyOp21
 70
     1
102
RTVSPropertyOp22
 70
     1
102
RTVSPropertyOp23
 70
     1
102
RTVSPropertyOp24
 70
     1
102
RTVSPropertyOp25
 70
     1
102
RTVSPropertyOp26
 70
     1
102
RTVSPropertyOp27
 70
     1
102
RTVSPropertyOp28
 70
     1
102
RTVSPropertyOp29
 70
     1
102
RTVSPropertyOp30
 70
     1
102
RTVSPropertyOp31
 70
     1
102
RTVSPropertyOp32
 70
     1
102
RTVSPropertyOp33
 70
     1
102
RTVSPropertyOp34
 70
     1
102
RTVSPropertyOp35
 70
     1
102
RTVSPropertyOp36
 70
     1
102
RTVSPropertyOp37
 70
     1
102
RTVSPropertyOp38
 70
     1
102
RTVSPropertyOp39
 70
     1
102
RTVSPropertyOp40
 70
     1
102
RTVSPropertyOp41
 70
     1
102
RTVSPropertyOp42
 70
     1
102
RTVSPropertyOp43
 70
     1
102
RTVSPropertyOp44
 70
     1
102
RTVSPropertyOp45
 70
     1
102
RTVSPropertyOp46
 70
     1
102
RTVSPropertyOp47
 70
     1
102
RTVSPropertyOp48
 70
     1
102
RTVSPropertyOp49
 70
     1
102
RTVSPropertyOp50
 70
     1
102
RTVSPropertyOp51
 70
     0
102
RTVSPropertyOp52
 70
     0
102
RTVSPropertyOp53
 70
     1
102
RTVSPropertyOp54
 70
     1
102
RTVSPropertyOp55
 70
     1
102
RTVSPropertyOp56
 70
     1
102
RTVSPropertyOp57
 70
     1
102
RTVSPost2010Prop28
280
     0
102
RTVSPost2010PropOp28
 70
     1
102
RTVSPost2010Prop29
280
     1
102
RTVSPost2010PropOp29
 70
     1
102
RTVSPost2010Prop30
280
     1
102
RTVSPost2010PropOp30
 70
     1
102
RTVSPost2010Prop31
280
     0
102
RTVSPost2010PropOp31
 70
     1
102
RTVSPost2010Prop32
280
     0
102
RTVSPost2010PropOp32
 70
     1
102
RTVSPost2010Prop33
280
     0
102
RTVSPost2010PropOp33
 70
     1
102
RTVSPost2010Prop34
280
     0
102
RTVSPost2010PropOp34
 70
     1
102
RTVSPost2010Prop35
280
     0
102
RTVSPost2010PropOp35
 70
     1
102
RTVSPost2010Prop36
280
     0
102
RTVSPost2010PropOp36
 70
     1
102
RTVSPost2010Prop37
 90
       50
102
RTVSPost2010PropOp37
 70
     1
102
RTVSPost2010Prop38
140
0.0
102
RTVSPost2010PropOp38
 70
     1
102
RTVSPost2010Prop39
140
1.0
102
RTVSPost2010PropOp39
 70
     1
102
RTVSPost2010Prop40
 90
        0
102
RTVSPost2010PropOp40
 70
     1
102
RTVSPost2010Prop41ColorIndex
 90
       18
102
RTVSPost2010Prop41ColorRGB
 90
        0
102
RTVSPost2010PropOp41
 70
     1
102
RTVSPost2010Prop42
 90
       50
102
RTVSPost2010PropOp42
 70
     1
102
RTVSPost2010Prop43
 90
        3
102
RTVSPost2010PropOp43
 70
     1
102
RTVSPost2010Prop44ColorIndex
 90
        5
102
RTVSPost2010Prop44ColorRGB
 90
      255
102
RTVSPost2010PropOp44
 70
     1
102
RTVSPost2010Prop45
280
     0
102
RTVSPost2010PropOp45
 70
     1
102
RTVSPost2010Prop46
 90
       50
102
RTVSPost2010PropOp46
 70
     1
102
RTVSPost2010Prop47
 90
       50
102
RTVSPost2010PropOp47
 70
     1
102
RTVSPost2010Prop48
 90
       50
102
RTVSPost2010PropOp48
 70
     1
102
RTVSPost2010Prop49
280
     0
102
RTVSPost2010PropOp49
 70
     1
102
RTVSPost2010Prop50
 90
       50
102
RTVSPost2010PropOp50
 70
     1
102
RTVSPost2010Prop51ColorIndex
 90
      256
102
RTVSPost2010Prop51ColorRGB
 90
-16777216
102
RTVSPost2010PropOp51
 70
     0
102
RTVSPost2010Prop52
140
1.0
102
RTVSPost2010PropOp52
 70
     0
102
RTVSPost2010Prop53
 90
        2
102
RTVSPost2010PropOp53
 70
     1
102
RTVSPost2010Prop54
  1
strokes_ogs.tif
102
RTVSPost2010PropOp54
 70
     1
102
RTVSPost2010Prop55
280
     0
102
RTVSPost2010PropOp55
 70
     1
102
RTVSPost2010Prop56
140
1.0
102
RTVSPost2010PropOp56
 70
     1
102
RTVSPost2010Prop57
140
1.0
102
RTVSPost2010PropOp57
 70
     1
  0
XRECORD
  5
281
102
{ACAD_REACTORS
330
280
102
}
330
280
100
AcDbXrecord
280
     1
102
RTVSPropertyOp0
 70
     0
102
RTVSPropertyOp1
 70
     0
102
RTVSPropertyOp2
 70
     0
102
RTVSPropertyOp3
 70
     0
102
RTVSPropertyOp4
 70
     0
102
RTVSPropertyOp5
 70
     0
102
RTVSPropertyOp6
 70
     0
102
RTVSPropertyOp7
 70
     0
102
RTVSPropertyOp8
 70
     0
102
RTVSPropertyOp9
 70
     0
102
RTVSPropertyOp10
 70
     0
102
RTVSPropertyOp11
 70
     0
102
RTVSPropertyOp12
 70
     0
102
RTVSPropertyOp13
 70
     0
102
RTVSPropertyOp14
 70
     2
102
RTVSPropertyOp15
 70
     0
102
RTVSPropertyOp16
 70
     0
102
RTVSPropertyOp17
 70
     0
102
RTVSPropertyOp18
 70
     0
102
RTVSPropertyOp19
 70
     0
102
RTVSPropertyOp20
 70
     0
102
RTVSPropertyOp21
 70
     0
102
RTVSPropertyOp22
 70
     0
102
RTVSPropertyOp23
 70
     0
102
RTVSPropertyOp24
 70
     0
102
RTVSPropertyOp25
 70
     0
102
RTVSPropertyOp26
 70
     0
102
RTVSPropertyOp27
 70
     0
102
RTVSPropertyOp28
 70
     0
102
RTVSPropertyOp29
 70
     0
102
RTVSPropertyOp30
 70
     0
102
RTVSPropertyOp31
 70
     0
102
RTVSPropertyOp32
 70
     0
102
RTVSPropertyOp33
 70
     0
102
RTVSPropertyOp34
 70
     0
102
RTVSPropertyOp35
 70
     0
102
RTVSPropertyOp36
 70
     0
102
RTVSPropertyOp37
 70
     0
102
RTVSPropertyOp38
 70
     0
102
RTVSPropertyOp39
 70
     0
102
RTVSPropertyOp40
 70
     0
102
RTVSPropertyOp41
 70
     0
102
RTVSPropertyOp42
 70
     0
102
RTVSPropertyOp43
 70
     0
102
RTVSPropertyOp44
 70
     0
102
RTVSPropertyOp45
 70
     0
102
RTVSPropertyOp46
 70
     0
102
RTVSPropertyOp47
 70
     0
102
RTVSPropertyOp48
 70
     0
102
RTVSPropertyOp49
 70
     0
102
RTVSPropertyOp50
 70
     0
102
RTVSPropertyOp51
 70
     0
102
RTVSPropertyOp52
 70
     0
102
RTVSPropertyOp53
 70
     0
102
RTVSPropertyOp54
 70
     0
102
RTVSPropertyOp55
 70
     0
102
RTVSPropertyOp56
 70
     0
102
RTVSPropertyOp57
 70
     0
102
RTVSPost2010Prop28
280
     0
102
RTVSPost2010PropOp28
 70
     0
102
RTVSPost2010Prop29
280
     1
102
RTVSPost2010PropOp29
 70
     0
102
RTVSPost2010Prop30
280
     1
102
RTVSPost2010PropOp30
 70
     0
102
RTVSPost2010Prop31
280
     0
102
RTVSPost2010PropOp31
 70
     0
102
RTVSPost2010Prop32
280
     0
102
RTVSPost2010PropOp32
 70
     0
102
RTVSPost2010Prop33
280
     0
102
RTVSPost2010PropOp33
 70
     0
102
RTVSPost2010Prop34
280
     0
102
RTVSPost2010PropOp34
 70
     0
102
RTVSPost2010Prop35
280
     0
102
RTVSPost2010PropOp35
 70
     0
102
RTVSPost2010Prop36
280
     0
102
RTVSPost2010PropOp36
 70
     0
102
RTVSPost2010Prop37
 90
       50
102
RTVSPost2010PropOp37
 70
     0
102
RTVSPost2010Prop38
140
0.0
102
RTVSPost2010PropOp38
 70
     0
102
RTVSPost2010Prop39
140
1.0
102
RTVSPost2010PropOp39
 70
     0
102
RTVSPost2010Prop40
 90
        0
102
RTVSPost2010PropOp40
 70
     0
102
RTVSPost2010Prop41ColorIndex
 90
       18
102
RTVSPost2010Prop41ColorRGB
 90
        0
102
RTVSPost2010PropOp41
 70
     0
102
RTVSPost2010Prop42
 90
       50
102
RTVSPost2010PropOp42
 70
     0
102
RTVSPost2010Prop43
 90
        3
102
RTVSPost2010PropOp43
 70
     0
102
RTVSPost2010Prop44ColorIndex
 90
        5
102
RTVSPost2010Prop44ColorRGB
 90
      255
102
RTVSPost2010PropOp44
 70
     0
102
RTVSPost2010Prop45
280
     0
102
RTVSPost2010PropOp45
 70
     0
102
RTVSPost2010Prop46
 90
       50
102
RTVSPost2010PropOp46
 70
     0
102
RTVSPost2010Prop47
 90
       50
102
RTVSPost2010PropOp47
 70
     0
102
RTVSPost2010Prop48
 90
       50
102
RTVSPost2010PropOp48
 70
     0
102
RTVSPost2010Prop49
280
     0
102
RTVSPost2010PropOp49
 70
     0
102
RTVSPost2010Prop50
 90
       50
102
RTVSPost2010PropOp50
 70
     0
102
RTVSPost2010Prop51ColorIndex
 90
      256
102
RTVSPost2010Prop51ColorRGB
 90
-16777216
102
RTVSPost2010PropOp51
 70
     0
102
RTVSPost2010Prop52
140
1.0
102
RTVSPost2010PropOp52
 70
     0
102
RTVSPost2010Prop53
 90
        2
102
RTVSPost2010PropOp53
 70
     0
102
RTVSPost2010Prop54
  1
strokes_ogs.tif
102
RTVSPost2010PropOp54
 70
     0
102
RTVSPost2010Prop55
280
     0
102
RTVSPost2010PropOp55
 70
     0
102
RTVSPost2010Prop56
140
1.0
102
RTVSPost2010PropOp56
 70
     0
102
RTVSPost2010Prop57
140
1.0
102
RTVSPost2010PropOp57
 70
     0
  0
XRECORD
  5
279
102
{ACAD_REACTORS
330
278
102
}
330
278
100
AcDbXrecord
280
     1
102
RTVSPropertyOp0
 70
     1
102
RTVSPropertyOp1
 70
     1
102
RTVSPropertyOp2
 70
     1
102
RTVSPropertyOp3
 70
     1
102
RTVSPropertyOp4
 70
     1
102
RTVSPropertyOp5
 70
     1
102
RTVSPropertyOp6
 70
     1
102
RTVSPropertyOp7
 70
     1
102
RTVSPropertyOp8
 70
     1
102
RTVSPropertyOp9
 70
     1
102
RTVSPropertyOp10
 70
     1
102
RTVSPropertyOp11
 70
     1
102
RTVSPropertyOp12
 70
     1
102
RTVSPropertyOp13
 70
     1
102
RTVSPropertyOp14
 70
     1
102
RTVSPropertyOp15
 70
     1
102
RTVSPropertyOp16
 70
     1
102
RTVSPropertyOp17
 70
     1
102
RTVSPropertyOp18
 70
     1
102
RTVSPropertyOp19
 70
     1
102
RTVSPropertyOp20
 70
     1
102
RTVSPropertyOp21
 70
     1
102
RTVSPropertyOp22
 70
     1
102
RTVSPropertyOp23
 70
     1
102
RTVSPropertyOp24
 70
     1
102
RTVSPropertyOp25
 70
     1
102
RTVSPropertyOp26
 70
     1
102
RTVSPropertyOp27
 70
     1
102
RTVSPropertyOp28
 70
     1
102
RTVSPropertyOp29
 70
     1
102
RTVSPropertyOp30
 70
     1
102
RTVSPropertyOp31
 70
     1
102
RTVSPropertyOp32
 70
     1
102
RTVSPropertyOp33
 70
     1
102
RTVSPropertyOp34
 70
     1
102
RTVSPropertyOp35
 70
     1
102
RTVSPropertyOp36
 70
     1
102
RTVSPropertyOp37
 70
     1
102
RTVSPropertyOp38
 70
     1
102
RTVSPropertyOp39
 70
     1
102
RTVSPropertyOp40
 70
     1
102
RTVSPropertyOp41
 70
     1
102
RTVSPropertyOp42
 70
     1
102
RTVSPropertyOp43
 70
     1
102
RTVSPropertyOp44
 70
     1
102
RTVSPropertyOp45
 70
     1
102
RTVSPropertyOp46
 70
     1
102
RTVSPropertyOp47
 70
     1
102
RTVSPropertyOp48
 70
     1
102
RTVSPropertyOp49
 70
     1
102
RTVSPropertyOp50
 70
     1
102
RTVSPropertyOp51
 70
     0
102
RTVSPropertyOp52
 70
     0
102
RTVSPropertyOp53
 70
     1
102
RTVSPropertyOp54
 70
     1
102
RTVSPropertyOp55
 70
     1
102
RTVSPropertyOp56
 70
     1
102
RTVSPropertyOp57
 70
     1
102
RTVSPost2010Prop28
280
     0
102
RTVSPost2010PropOp28
 70
     1
102
RTVSPost2010Prop29
280
     1
102
RTVSPost2010PropOp29
 70
     1
102
RTVSPost2010Prop30
280
     1
102
RTVSPost2010PropOp30
 70
     1
102
RTVSPost2010Prop31
280
     0
102
RTVSPost2010PropOp31
 70
     1
102
RTVSPost2010Prop32
280
     0
102
RTVSPost2010PropOp32
 70
     1
102
RTVSPost2010Prop33
280
     0
102
RTVSPost2010PropOp33
 70
     1
102
RTVSPost2010Prop34
280
     0
102
RTVSPost2010PropOp34
 70
     1
102
RTVSPost2010Prop35
280
     0
102
RTVSPost2010PropOp35
 70
     1
102
RTVSPost2010Prop36
280
     0
102
RTVSPost2010PropOp36
 70
     1
102
RTVSPost2010Prop37
 90
       50
102
RTVSPost2010PropOp37
 70
     1
102
RTVSPost2010Prop38
140
0.0
102
RTVSPost2010PropOp38
 70
     1
102
RTVSPost2010Prop39
140
1.0
102
RTVSPost2010PropOp39
 70
     1
102
RTVSPost2010Prop40
 90
        0
102
RTVSPost2010PropOp40
 70
     1
102
RTVSPost2010Prop41ColorIndex
 90
       18
102
RTVSPost2010Prop41ColorRGB
 90
        0
102
RTVSPost2010PropOp41
 70
     1
102
RTVSPost2010Prop42
 90
       50
102
RTVSPost2010PropOp42
 70
     1
102
RTVSPost2010Prop43
 90
        3
102
RTVSPost2010PropOp43
 70
     1
102
RTVSPost2010Prop44ColorIndex
 90
        5
102
RTVSPost2010Prop44ColorRGB
 90
      255
102
RTVSPost2010PropOp44
 70
     1
102
RTVSPost2010Prop45
280
     0
102
RTVSPost2010PropOp45
 70
     1
102
RTVSPost2010Prop46
 90
       50
102
RTVSPost2010PropOp46
 70
     1
102
RTVSPost2010Prop47
 90
       50
102
RTVSPost2010PropOp47
 70
     1
102
RTVSPost2010Prop48
 90
       50
102
RTVSPost2010PropOp48
 70
     1
102
RTVSPost2010Prop49
280
     0
102
RTVSPost2010PropOp49
 70
     1
102
RTVSPost2010Prop50
 90
       50
102
RTVSPost2010PropOp50
 70
     1
102
RTVSPost2010Prop51ColorIndex
 90
      256
102
RTVSPost2010Prop51ColorRGB
 90
-16777216
102
RTVSPost2010PropOp51
 70
     0
102
RTVSPost2010Prop52
140
1.0
102
RTVSPost2010PropOp52
 70
     0
102
RTVSPost2010Prop53
 90
        2
102
RTVSPost2010PropOp53
 70
     1
102
RTVSPost2010Prop54
  1
strokes_ogs.tif
102
RTVSPost2010PropOp54
 70
     1
102
RTVSPost2010Prop55
280
     0
102
RTVSPost2010PropOp55
 70
     1
102
RTVSPost2010Prop56
140
1.0
102
RTVSPost2010PropOp56
 70
     1
102
RTVSPost2010Prop57
140
1.0
102
RTVSPost2010PropOp57
 70
     1
  0
XRECORD
  5
25D
102
{ACAD_REACTORS
330
25C
102
}
330
25C
100
AcDbXrecord
280
     1
102
RTVSPropertyOp0
 70
     1
102
RTVSPropertyOp1
 70
     1
102
RTVSPropertyOp2
 70
     1
102
RTVSPropertyOp3
 70
     1
102
RTVSPropertyOp4
 70
     1
102
RTVSPropertyOp5
 70
     1
102
RTVSPropertyOp6
 70
     1
102
RTVSPropertyOp7
 70
     1
102
RTVSPropertyOp8
 70
     1
102
RTVSPropertyOp9
 70
     1
102
RTVSPropertyOp10
 70
     1
102
RTVSPropertyOp11
 70
     1
102
RTVSPropertyOp12
 70
     1
102
RTVSPropertyOp13
 70
     1
102
RTVSPropertyOp14
 70
     1
102
RTVSPropertyOp15
 70
     1
102
RTVSPropertyOp16
 70
     1
102
RTVSPropertyOp17
 70
     1
102
RTVSPropertyOp18
 70
     1
102
RTVSPropertyOp19
 70
     1
102
RTVSPropertyOp20
 70
     1
102
RTVSPropertyOp21
 70
     1
102
RTVSPropertyOp22
 70
     1
102
RTVSPropertyOp23
 70
     1
102
RTVSPropertyOp24
 70
     1
102
RTVSPropertyOp25
 70
     1
102
RTVSPropertyOp26
 70
     1
102
RTVSPropertyOp27
 70
     1
102
RTVSPropertyOp28
 70
     1
102
RTVSPropertyOp29
 70
     1
102
RTVSPropertyOp30
 70
     1
102
RTVSPropertyOp31
 70
     1
102
RTVSPropertyOp32
 70
     1
102
RTVSPropertyOp33
 70
     1
102
RTVSPropertyOp34
 70
     1
102
RTVSPropertyOp35
 70
     1
102
RTVSPropertyOp36
 70
     1
102
RTVSPropertyOp37
 70
     1
102
RTVSPropertyOp38
 70
     1
102
RTVSPropertyOp39
 70
     1
102
RTVSPropertyOp40
 70
     1
102
RTVSPropertyOp41
 70
     1
102
RTVSPropertyOp42
 70
     1
102
RTVSPropertyOp43
 70
     1
102
RTVSPropertyOp44
 70
     1
102
RTVSPropertyOp45
 70
     1
102
RTVSPropertyOp46
 70
     1
102
RTVSPropertyOp47
 70
     1
102
RTVSPropertyOp48
 70
     1
102
RTVSPropertyOp49
 70
     1
102
RTVSPropertyOp50
 70
     1
102
RTVSPropertyOp51
 70
     0
102
RTVSPropertyOp52
 70
     0
102
RTVSPropertyOp53
 70
     1
102
RTVSPropertyOp54
 70
     1
102
RTVSPropertyOp55
 70
     1
102
RTVSPropertyOp56
 70
     1
102
RTVSPropertyOp57
 70
     1
102
RTVSPost2010Prop28
280
     0
102
RTVSPost2010PropOp28
 70
     1
102
RTVSPost2010Prop29
280
     1
102
RTVSPost2010PropOp29
 70
     1
102
RTVSPost2010Prop30
280
     1
102
RTVSPost2010PropOp30
 70
     1
102
RTVSPost2010Prop31
280
     0
102
RTVSPost2010PropOp31
 70
     1
102
RTVSPost2010Prop32
280
     0
102
RTVSPost2010PropOp32
 70
     1
102
RTVSPost2010Prop33
280
     0
102
RTVSPost2010PropOp33
 70
     1
102
RTVSPost2010Prop34
280
     0
102
RTVSPost2010PropOp34
 70
     1
102
RTVSPost2010Prop35
280
     0
102
RTVSPost2010PropOp35
 70
     1
102
RTVSPost2010Prop36
280
     0
102
RTVSPost2010PropOp36
 70
     1
102
RTVSPost2010Prop37
 90
       50
102
RTVSPost2010PropOp37
 70
     1
102
RTVSPost2010Prop38
140
0.0
102
RTVSPost2010PropOp38
 70
     1
102
RTVSPost2010Prop39
140
1.0
102
RTVSPost2010PropOp39
 70
     1
102
RTVSPost2010Prop40
 90
        0
102
RTVSPost2010PropOp40
 70
     1
102
RTVSPost2010Prop41ColorIndex
 90
       18
102
RTVSPost2010Prop41ColorRGB
 90
        0
102
RTVSPost2010PropOp41
 70
     1
102
RTVSPost2010Prop42
 90
       50
102
RTVSPost2010PropOp42
 70
     1
102
RTVSPost2010Prop43
 90
        3
102
RTVSPost2010PropOp43
 70
     1
102
RTVSPost2010Prop44ColorIndex
 90
        5
102
RTVSPost2010Prop44ColorRGB
 90
      255
102
RTVSPost2010PropOp44
 70
     1
102
RTVSPost2010Prop45
280
     0
102
RTVSPost2010PropOp45
 70
     1
102
RTVSPost2010Prop46
 90
       50
102
RTVSPost2010PropOp46
 70
     1
102
RTVSPost2010Prop47
 90
       50
102
RTVSPost2010PropOp47
 70
     1
102
RTVSPost2010Prop48
 90
       50
102
RTVSPost2010PropOp48
 70
     1
102
RTVSPost2010Prop49
280
     0
102
RTVSPost2010PropOp49
 70
     1
102
RTVSPost2010Prop50
 90
       50
102
RTVSPost2010PropOp50
 70
     1
102
RTVSPost2010Prop51ColorIndex
 90
      256
102
RTVSPost2010Prop51ColorRGB
 90
-16777216
102
RTVSPost2010PropOp51
 70
     0
102
RTVSPost2010Prop52
140
1.0
102
RTVSPost2010PropOp52
 70
     0
102
RTVSPost2010Prop53
 90
        2
102
RTVSPost2010PropOp53
 70
     1
102
RTVSPost2010Prop54
  1
strokes_ogs.tif
102
RTVSPost2010PropOp54
 70
     1
102
RTVSPost2010Prop55
280
     0
102
RTVSPost2010PropOp55
 70
     1
102
RTVSPost2010Prop56
140
1.0
102
RTVSPost2010PropOp56
 70
     1
102
RTVSPost2010Prop57
140
1.0
102
RTVSPost2010PropOp57
 70
     1
  0
XRECORD
  5
25F
102
{ACAD_REACTORS
330
25E
102
}
330
25E
100
AcDbXrecord
280
     1
102
RTVSPropertyOp0
 70
     1
102
RTVSPropertyOp1
 70
     1
102
RTVSPropertyOp2
 70
     1
102
RTVSPropertyOp3
 70
     1
102
RTVSPropertyOp4
 70
     1
102
RTVSPropertyOp5
 70
     1
102
RTVSPropertyOp6
 70
     1
102
RTVSPropertyOp7
 70
     1
102
RTVSPropertyOp8
 70
     1
102
RTVSPropertyOp9
 70
     1
102
RTVSPropertyOp10
 70
     1
102
RTVSPropertyOp11
 70
     1
102
RTVSPropertyOp12
 70
     1
102
RTVSPropertyOp13
 70
     1
102
RTVSPropertyOp14
 70
     1
102
RTVSPropertyOp15
 70
     1
102
RTVSPropertyOp16
 70
     1
102
RTVSPropertyOp17
 70
     1
102
RTVSPropertyOp18
 70
     1
102
RTVSPropertyOp19
 70
     1
102
RTVSPropertyOp20
 70
     1
102
RTVSPropertyOp21
 70
     1
102
RTVSPropertyOp22
 70
     1
102
RTVSPropertyOp23
 70
     1
102
RTVSPropertyOp24
 70
     1
102
RTVSPropertyOp25
 70
     1
102
RTVSPropertyOp26
 70
     1
102
RTVSPropertyOp27
 70
     1
102
RTVSPropertyOp28
 70
     1
102
RTVSPropertyOp29
 70
     1
102
RTVSPropertyOp30
 70
     1
102
RTVSPropertyOp31
 70
     1
102
RTVSPropertyOp32
 70
     1
102
RTVSPropertyOp33
 70
     1
102
RTVSPropertyOp34
 70
     1
102
RTVSPropertyOp35
 70
     1
102
RTVSPropertyOp36
 70
     1
102
RTVSPropertyOp37
 70
     1
102
RTVSPropertyOp38
 70
     1
102
RTVSPropertyOp39
 70
     1
102
RTVSPropertyOp40
 70
     1
102
RTVSPropertyOp41
 70
     1
102
RTVSPropertyOp42
 70
     1
102
RTVSPropertyOp43
 70
     1
102
RTVSPropertyOp44
 70
     1
102
RTVSPropertyOp45
 70
     1
102
RTVSPropertyOp46
 70
     1
102
RTVSPropertyOp47
 70
     1
102
RTVSPropertyOp48
 70
     1
102
RTVSPropertyOp49
 70
     1
102
RTVSPropertyOp50
 70
     1
102
RTVSPropertyOp51
 70
     0
102
RTVSPropertyOp52
 70
     0
102
RTVSPropertyOp53
 70
     1
102
RTVSPropertyOp54
 70
     1
102
RTVSPropertyOp55
 70
     1
102
RTVSPropertyOp56
 70
     1
102
RTVSPropertyOp57
 70
     1
102
RTVSPost2010Prop28
280
     0
102
RTVSPost2010PropOp28
 70
     1
102
RTVSPost2010Prop29
280
     1
102
RTVSPost2010PropOp29
 70
     1
102
RTVSPost2010Prop30
280
     1
102
RTVSPost2010PropOp30
 70
     1
102
RTVSPost2010Prop31
280
     0
102
RTVSPost2010PropOp31
 70
     1
102
RTVSPost2010Prop32
280
     0
102
RTVSPost2010PropOp32
 70
     1
102
RTVSPost2010Prop33
280
     0
102
RTVSPost2010PropOp33
 70
     1
102
RTVSPost2010Prop34
280
     0
102
RTVSPost2010PropOp34
 70
     1
102
RTVSPost2010Prop35
280
     0
102
RTVSPost2010PropOp35
 70
     1
102
RTVSPost2010Prop36
280
     0
102
RTVSPost2010PropOp36
 70
     1
102
RTVSPost2010Prop37
 90
       50
102
RTVSPost2010PropOp37
 70
     1
102
RTVSPost2010Prop38
140
0.0
102
RTVSPost2010PropOp38
 70
     1
102
RTVSPost2010Prop39
140
1.0
102
RTVSPost2010PropOp39
 70
     1
102
RTVSPost2010Prop40
 90
        0
102
RTVSPost2010PropOp40
 70
     1
102
RTVSPost2010Prop41ColorIndex
 90
       18
102
RTVSPost2010Prop41ColorRGB
 90
        0
102
RTVSPost2010PropOp41
 70
     1
102
RTVSPost2010Prop42
 90
       50
102
RTVSPost2010PropOp42
 70
     1
102
RTVSPost2010Prop43
 90
        3
102
RTVSPost2010PropOp43
 70
     1
102
RTVSPost2010Prop44ColorIndex
 90
        5
102
RTVSPost2010Prop44ColorRGB
 90
      255
102
RTVSPost2010PropOp44
 70
     1
102
RTVSPost2010Prop45
280
     0
102
RTVSPost2010PropOp45
 70
     1
102
RTVSPost2010Prop46
 90
       50
102
RTVSPost2010PropOp46
 70
     1
102
RTVSPost2010Prop47
 90
       50
102
RTVSPost2010PropOp47
 70
     1
102
RTVSPost2010Prop48
 90
       50
102
RTVSPost2010PropOp48
 70
     1
102
RTVSPost2010Prop49
280
     0
102
RTVSPost2010PropOp49
 70
     1
102
RTVSPost2010Prop50
 90
       50
102
RTVSPost2010PropOp50
 70
     1
102
RTVSPost2010Prop51ColorIndex
 90
      256
102
RTVSPost2010Prop51ColorRGB
 90
-16777216
102
RTVSPost2010PropOp51
 70
     0
102
RTVSPost2010Prop52
140
1.0
102
RTVSPost2010PropOp52
 70
     0
102
RTVSPost2010Prop53
 90
        2
102
RTVSPost2010PropOp53
 70
     1
102
RTVSPost2010Prop54
  1
strokes_ogs.tif
102
RTVSPost2010PropOp54
 70
     1
102
RTVSPost2010Prop55
280
     0
102
RTVSPost2010PropOp55
 70
     1
102
RTVSPost2010Prop56
140
1.0
102
RTVSPost2010PropOp56
 70
     1
102
RTVSPost2010Prop57
140
1.0
102
RTVSPost2010PropOp57
 70
     1
  0
XRECORD
  5
261
102
{ACAD_REACTORS
330
260
102
}
330
260
100
AcDbXrecord
280
     1
102
RTVSPropertyOp0
 70
     1
102
RTVSPropertyOp1
 70
     1
102
RTVSPropertyOp2
 70
     1
102
RTVSPropertyOp3
 70
     1
102
RTVSPropertyOp4
 70
     1
102
RTVSPropertyOp5
 70
     1
102
RTVSPropertyOp6
 70
     1
102
RTVSPropertyOp7
 70
     1
102
RTVSPropertyOp8
 70
     1
102
RTVSPropertyOp9
 70
     1
102
RTVSPropertyOp10
 70
     1
102
RTVSPropertyOp11
 70
     1
102
RTVSPropertyOp12
 70
     1
102
RTVSPropertyOp13
 70
     1
102
RTVSPropertyOp14
 70
     1
102
RTVSPropertyOp15
 70
     1
102
RTVSPropertyOp16
 70
     1
102
RTVSPropertyOp17
 70
     1
102
RTVSPropertyOp18
 70
     1
102
RTVSPropertyOp19
 70
     1
102
RTVSPropertyOp20
 70
     1
102
RTVSPropertyOp21
 70
     1
102
RTVSPropertyOp22
 70
     1
102
RTVSPropertyOp23
 70
     1
102
RTVSPropertyOp24
 70
     1
102
RTVSPropertyOp25
 70
     1
102
RTVSPropertyOp26
 70
     1
102
RTVSPropertyOp27
 70
     1
102
RTVSPropertyOp28
 70
     1
102
RTVSPropertyOp29
 70
     1
102
RTVSPropertyOp30
 70
     1
102
RTVSPropertyOp31
 70
     1
102
RTVSPropertyOp32
 70
     1
102
RTVSPropertyOp33
 70
     1
102
RTVSPropertyOp34
 70
     1
102
RTVSPropertyOp35
 70
     1
102
RTVSPropertyOp36
 70
     1
102
RTVSPropertyOp37
 70
     1
102
RTVSPropertyOp38
 70
     1
102
RTVSPropertyOp39
 70
     1
102
RTVSPropertyOp40
 70
     1
102
RTVSPropertyOp41
 70
     1
102
RTVSPropertyOp42
 70
     1
102
RTVSPropertyOp43
 70
     1
102
RTVSPropertyOp44
 70
     1
102
RTVSPropertyOp45
 70
     1
102
RTVSPropertyOp46
 70
     1
102
RTVSPropertyOp47
 70
     1
102
RTVSPropertyOp48
 70
     1
102
RTVSPropertyOp49
 70
     1
102
RTVSPropertyOp50
 70
     1
102
RTVSPropertyOp51
 70
     0
102
RTVSPropertyOp52
 70
     0
102
RTVSPropertyOp53
 70
     1
102
RTVSPropertyOp54
 70
     1
102
RTVSPropertyOp55
 70
     1
102
RTVSPropertyOp56
 70
     1
102
RTVSPropertyOp57
 70
     1
102
RTVSPost2010Prop28
280
     0
102
RTVSPost2010PropOp28
 70
     1
102
RTVSPost2010Prop29
280
     1
102
RTVSPost2010PropOp29
 70
     1
102
RTVSPost2010Prop30
280
     1
102
RTVSPost2010PropOp30
 70
     1
102
RTVSPost2010Prop31
280
     0
102
RTVSPost2010PropOp31
 70
     1
102
RTVSPost2010Prop32
280
     0
102
RTVSPost2010PropOp32
 70
     1
102
RTVSPost2010Prop33
280
     0
102
RTVSPost2010PropOp33
 70
     1
102
RTVSPost2010Prop34
280
     0
102
RTVSPost2010PropOp34
 70
     1
102
RTVSPost2010Prop35
280
     0
102
RTVSPost2010PropOp35
 70
     1
102
RTVSPost2010Prop36
280
     0
102
RTVSPost2010PropOp36
 70
     1
102
RTVSPost2010Prop37
 90
       50
102
RTVSPost2010PropOp37
 70
     1
102
RTVSPost2010Prop38
140
0.0
102
RTVSPost2010PropOp38
 70
     1
102
RTVSPost2010Prop39
140
1.0
102
RTVSPost2010PropOp39
 70
     1
102
RTVSPost2010Prop40
 90
        0
102
RTVSPost2010PropOp40
 70
     1
102
RTVSPost2010Prop41ColorIndex
 90
       18
102
RTVSPost2010Prop41ColorRGB
 90
        0
102
RTVSPost2010PropOp41
 70
     1
102
RTVSPost2010Prop42
 90
       50
102
RTVSPost2010PropOp42
 70
     1
102
RTVSPost2010Prop43
 90
        3
102
RTVSPost2010PropOp43
 70
     1
102
RTVSPost2010Prop44ColorIndex
 90
        5
102
RTVSPost2010Prop44ColorRGB
 90
      255
102
RTVSPost2010PropOp44
 70
     1
102
RTVSPost2010Prop45
280
     0
102
RTVSPost2010PropOp45
 70
     1
102
RTVSPost2010Prop46
 90
       50
102
RTVSPost2010PropOp46
 70
     1
102
RTVSPost2010Prop47
 90
       50
102
RTVSPost2010PropOp47
 70
     1
102
RTVSPost2010Prop48
 90
       50
102
RTVSPost2010PropOp48
 70
     1
102
RTVSPost2010Prop49
280
     0
102
RTVSPost2010PropOp49
 70
     1
102
RTVSPost2010Prop50
 90
       50
102
RTVSPost2010PropOp50
 70
     1
102
RTVSPost2010Prop51ColorIndex
 90
      256
102
RTVSPost2010Prop51ColorRGB
 90
-16777216
102
RTVSPost2010PropOp51
 70
     0
102
RTVSPost2010Prop52
140
1.0
102
RTVSPost2010PropOp52
 70
     0
102
RTVSPost2010Prop53
 90
        2
102
RTVSPost2010PropOp53
 70
     1
102
RTVSPost2010Prop54
  1
strokes_ogs.tif
102
RTVSPost2010PropOp54
 70
     1
102
RTVSPost2010Prop55
280
     0
102
RTVSPost2010PropOp55
 70
     1
102
RTVSPost2010Prop56
140
1.0
102
RTVSPost2010PropOp56
 70
     1
102
RTVSPost2010Prop57
140
1.0
102
RTVSPost2010PropOp57
 70
     1
  0
XRECORD
  5
263
102
{ACAD_REACTORS
330
262
102
}
330
262
100
AcDbXrecord
280
     1
102
RTVSPropertyOp0
 70
     1
102
RTVSPropertyOp1
 70
     1
102
RTVSPropertyOp2
 70
     1
102
RTVSPropertyOp3
 70
     1
102
RTVSPropertyOp4
 70
     1
102
RTVSPropertyOp5
 70
     1
102
RTVSPropertyOp6
 70
     1
102
RTVSPropertyOp7
 70
     1
102
RTVSPropertyOp8
 70
     1
102
RTVSPropertyOp9
 70
     1
102
RTVSPropertyOp10
 70
     1
102
RTVSPropertyOp11
 70
     1
102
RTVSPropertyOp12
 70
     1
102
RTVSPropertyOp13
 70
     1
102
RTVSPropertyOp14
 70
     1
102
RTVSPropertyOp15
 70
     1
102
RTVSPropertyOp16
 70
     1
102
RTVSPropertyOp17
 70
     1
102
RTVSPropertyOp18
 70
     1
102
RTVSPropertyOp19
 70
     1
102
RTVSPropertyOp20
 70
     1
102
RTVSPropertyOp21
 70
     1
102
RTVSPropertyOp22
 70
     1
102
RTVSPropertyOp23
 70
     1
102
RTVSPropertyOp24
 70
     1
102
RTVSPropertyOp25
 70
     1
102
RTVSPropertyOp26
 70
     1
102
RTVSPropertyOp27
 70
     1
102
RTVSPropertyOp28
 70
     1
102
RTVSPropertyOp29
 70
     1
102
RTVSPropertyOp30
 70
     1
102
RTVSPropertyOp31
 70
     1
102
RTVSPropertyOp32
 70
     1
102
RTVSPropertyOp33
 70
     1
102
RTVSPropertyOp34
 70
     1
102
RTVSPropertyOp35
 70
     1
102
RTVSPropertyOp36
 70
     1
102
RTVSPropertyOp37
 70
     1
102
RTVSPropertyOp38
 70
     1
102
RTVSPropertyOp39
 70
     1
102
RTVSPropertyOp40
 70
     1
102
RTVSPropertyOp41
 70
     1
102
RTVSPropertyOp42
 70
     1
102
RTVSPropertyOp43
 70
     1
102
RTVSPropertyOp44
 70
     1
102
RTVSPropertyOp45
 70
     1
102
RTVSPropertyOp46
 70
     1
102
RTVSPropertyOp47
 70
     1
102
RTVSPropertyOp48
 70
     1
102
RTVSPropertyOp49
 70
     1
102
RTVSPropertyOp50
 70
     1
102
RTVSPropertyOp51
 70
     0
102
RTVSPropertyOp52
 70
     0
102
RTVSPropertyOp53
 70
     1
102
RTVSPropertyOp54
 70
     1
102
RTVSPropertyOp55
 70
     1
102
RTVSPropertyOp56
 70
     1
102
RTVSPropertyOp57
 70
     1
102
RTVSPost2010Prop28
280
     0
102
RTVSPost2010PropOp28
 70
     1
102
RTVSPost2010Prop29
280
     1
102
RTVSPost2010PropOp29
 70
     1
102
RTVSPost2010Prop30
280
     1
102
RTVSPost2010PropOp30
 70
     1
102
RTVSPost2010Prop31
280
     0
102
RTVSPost2010PropOp31
 70
     1
102
RTVSPost2010Prop32
280
     0
102
RTVSPost2010PropOp32
 70
     1
102
RTVSPost2010Prop33
280
     0
102
RTVSPost2010PropOp33
 70
     1
102
RTVSPost2010Prop34
280
     0
102
RTVSPost2010PropOp34
 70
     1
102
RTVSPost2010Prop35
280
     0
102
RTVSPost2010PropOp35
 70
     1
102
RTVSPost2010Prop36
280
     0
102
RTVSPost2010PropOp36
 70
     1
102
RTVSPost2010Prop37
 90
       50
102
RTVSPost2010PropOp37
 70
     1
102
RTVSPost2010Prop38
140
0.0
102
RTVSPost2010PropOp38
 70
     1
102
RTVSPost2010Prop39
140
1.0
102
RTVSPost2010PropOp39
 70
     1
102
RTVSPost2010Prop40
 90
        0
102
RTVSPost2010PropOp40
 70
     1
102
RTVSPost2010Prop41ColorIndex
 90
       18
102
RTVSPost2010Prop41ColorRGB
 90
        0
102
RTVSPost2010PropOp41
 70
     1
102
RTVSPost2010Prop42
 90
       50
102
RTVSPost2010PropOp42
 70
     1
102
RTVSPost2010Prop43
 90
        3
102
RTVSPost2010PropOp43
 70
     1
102
RTVSPost2010Prop44ColorIndex
 90
        5
102
RTVSPost2010Prop44ColorRGB
 90
      255
102
RTVSPost2010PropOp44
 70
     1
102
RTVSPost2010Prop45
280
     0
102
RTVSPost2010PropOp45
 70
     1
102
RTVSPost2010Prop46
 90
       50
102
RTVSPost2010PropOp46
 70
     1
102
RTVSPost2010Prop47
 90
       50
102
RTVSPost2010PropOp47
 70
     1
102
RTVSPost2010Prop48
 90
       50
102
RTVSPost2010PropOp48
 70
     1
102
RTVSPost2010Prop49
280
     0
102
RTVSPost2010PropOp49
 70
     1
102
RTVSPost2010Prop50
 90
       50
102
RTVSPost2010PropOp50
 70
     1
102
RTVSPost2010Prop51ColorIndex
 90
      256
102
RTVSPost2010Prop51ColorRGB
 90
-16777216
102
RTVSPost2010PropOp51
 70
     0
102
RTVSPost2010Prop52
140
1.0
102
RTVSPost2010PropOp52
 70
     0
102
RTVSPost2010Prop53
 90
        2
102
RTVSPost2010PropOp53
 70
     1
102
RTVSPost2010Prop54
  1
strokes_ogs.tif
102
RTVSPost2010PropOp54
 70
     1
102
RTVSPost2010Prop55
280
     0
102
RTVSPost2010PropOp55
 70
     1
102
RTVSPost2010Prop56
140
1.0
102
RTVSPost2010PropOp56
 70
     1
102
RTVSPost2010Prop57
140
1.0
102
RTVSPost2010PropOp57
 70
     1
  0
XRECORD
  5
269
102
{ACAD_REACTORS
330
268
102
}
330
268
100
AcDbXrecord
280
     1
102
RTVSPropertyOp0
 70
     1
102
RTVSPropertyOp1
 70
     1
102
RTVSPropertyOp2
 70
     1
102
RTVSPropertyOp3
 70
     1
102
RTVSPropertyOp4
 70
     1
102
RTVSPropertyOp5
 70
     1
102
RTVSPropertyOp6
 70
     1
102
RTVSPropertyOp7
 70
     1
102
RTVSPropertyOp8
 70
     1
102
RTVSPropertyOp9
 70
     1
102
RTVSPropertyOp10
 70
     1
102
RTVSPropertyOp11
 70
     1
102
RTVSPropertyOp12
 70
     1
102
RTVSPropertyOp13
 70
     1
102
RTVSPropertyOp14
 70
     1
102
RTVSPropertyOp15
 70
     1
102
RTVSPropertyOp16
 70
     1
102
RTVSPropertyOp17
 70
     1
102
RTVSPropertyOp18
 70
     1
102
RTVSPropertyOp19
 70
     1
102
RTVSPropertyOp20
 70
     1
102
RTVSPropertyOp21
 70
     1
102
RTVSPropertyOp22
 70
     1
102
RTVSPropertyOp23
 70
     1
102
RTVSPropertyOp24
 70
     1
102
RTVSPropertyOp25
 70
     1
102
RTVSPropertyOp26
 70
     1
102
RTVSPropertyOp27
 70
     1
102
RTVSPropertyOp28
 70
     1
102
RTVSPropertyOp29
 70
     1
102
RTVSPropertyOp30
 70
     1
102
RTVSPropertyOp31
 70
     1
102
RTVSPropertyOp32
 70
     1
102
RTVSPropertyOp33
 70
     1
102
RTVSPropertyOp34
 70
     1
102
RTVSPropertyOp35
 70
     1
102
RTVSPropertyOp36
 70
     1
102
RTVSPropertyOp37
 70
     1
102
RTVSPropertyOp38
 70
     1
102
RTVSPropertyOp39
 70
     1
102
RTVSPropertyOp40
 70
     1
102
RTVSPropertyOp41
 70
     1
102
RTVSPropertyOp42
 70
     1
102
RTVSPropertyOp43
 70
     1
102
RTVSPropertyOp44
 70
     1
102
RTVSPropertyOp45
 70
     1
102
RTVSPropertyOp46
 70
     1
102
RTVSPropertyOp47
 70
     1
102
RTVSPropertyOp48
 70
     1
102
RTVSPropertyOp49
 70
     1
102
RTVSPropertyOp50
 70
     1
102
RTVSPropertyOp51
 70
     0
102
RTVSPropertyOp52
 70
     0
102
RTVSPropertyOp53
 70
     1
102
RTVSPropertyOp54
 70
     1
102
RTVSPropertyOp55
 70
     1
102
RTVSPropertyOp56
 70
     1
102
RTVSPropertyOp57
 70
     1
102
RTVSPost2010Prop28
280
     0
102
RTVSPost2010PropOp28
 70
     1
102
RTVSPost2010Prop29
280
     1
102
RTVSPost2010PropOp29
 70
     1
102
RTVSPost2010Prop30
280
     1
102
RTVSPost2010PropOp30
 70
     1
102
RTVSPost2010Prop31
280
     0
102
RTVSPost2010PropOp31
 70
     1
102
RTVSPost2010Prop32
280
     0
102
RTVSPost2010PropOp32
 70
     1
102
RTVSPost2010Prop33
280
     0
102
RTVSPost2010PropOp33
 70
     1
102
RTVSPost2010Prop34
280
     0
102
RTVSPost2010PropOp34
 70
     1
102
RTVSPost2010Prop35
280
     0
102
RTVSPost2010PropOp35
 70
     1
102
RTVSPost2010Prop36
280
     0
102
RTVSPost2010PropOp36
 70
     1
102
RTVSPost2010Prop37
 90
       50
102
RTVSPost2010PropOp37
 70
     1
102
RTVSPost2010Prop38
140
0.0
102
RTVSPost2010PropOp38
 70
     1
102
RTVSPost2010Prop39
140
1.0
102
RTVSPost2010PropOp39
 70
     1
102
RTVSPost2010Prop40
 90
        0
102
RTVSPost2010PropOp40
 70
     1
102
RTVSPost2010Prop41ColorIndex
 90
       18
102
RTVSPost2010Prop41ColorRGB
 90
        0
102
RTVSPost2010PropOp41
 70
     1
102
RTVSPost2010Prop42
 90
       50
102
RTVSPost2010PropOp42
 70
     1
102
RTVSPost2010Prop43
 90
        3
102
RTVSPost2010PropOp43
 70
     1
102
RTVSPost2010Prop44ColorIndex
 90
        5
102
RTVSPost2010Prop44ColorRGB
 90
      255
102
RTVSPost2010PropOp44
 70
     1
102
RTVSPost2010Prop45
280
     0
102
RTVSPost2010PropOp45
 70
     1
102
RTVSPost2010Prop46
 90
       50
102
RTVSPost2010PropOp46
 70
     1
102
RTVSPost2010Prop47
 90
       50
102
RTVSPost2010PropOp47
 70
     1
102
RTVSPost2010Prop48
 90
       50
102
RTVSPost2010PropOp48
 70
     1
102
RTVSPost2010Prop49
280
     0
102
RTVSPost2010PropOp49
 70
     1
102
RTVSPost2010Prop50
 90
       50
102
RTVSPost2010PropOp50
 70
     1
102
RTVSPost2010Prop51ColorIndex
 90
      256
102
RTVSPost2010Prop51ColorRGB
 90
-16777216
102
RTVSPost2010PropOp51
 70
     0
102
RTVSPost2010Prop52
140
1.0
102
RTVSPost2010PropOp52
 70
     0
102
RTVSPost2010Prop53
 90
        2
102
RTVSPost2010PropOp53
 70
     1
102
RTVSPost2010Prop54
  1
strokes_ogs.tif
102
RTVSPost2010PropOp54
 70
     1
102
RTVSPost2010Prop55
280
     0
102
RTVSPost2010PropOp55
 70
     1
102
RTVSPost2010Prop56
140
1.0
102
RTVSPost2010PropOp56
 70
     1
102
RTVSPost2010Prop57
140
1.0
102
RTVSPost2010PropOp57
 70
     1
  0
XRECORD
  5
27D
102
{ACAD_REACTORS
330
27C
102
}
330
27C
100
AcDbXrecord
280
     1
102
RTVSPropertyOp0
 70
     0
102
RTVSPropertyOp1
 70
     0
102
RTVSPropertyOp2
 70
     0
102
RTVSPropertyOp3
 70
     0
102
RTVSPropertyOp4
 70
     0
102
RTVSPropertyOp5
 70
     0
102
RTVSPropertyOp6
 70
     0
102
RTVSPropertyOp7
 70
     0
102
RTVSPropertyOp8
 70
     0
102
RTVSPropertyOp9
 70
     0
102
RTVSPropertyOp10
 70
     0
102
RTVSPropertyOp11
 70
     0
102
RTVSPropertyOp12
 70
     0
102
RTVSPropertyOp13
 70
     0
102
RTVSPropertyOp14
 70
     2
102
RTVSPropertyOp15
 70
     0
102
RTVSPropertyOp16
 70
     0
102
RTVSPropertyOp17
 70
     0
102
RTVSPropertyOp18
 70
     0
102
RTVSPropertyOp19
 70
     0
102
RTVSPropertyOp20
 70
     0
102
RTVSPropertyOp21
 70
     0
102
RTVSPropertyOp22
 70
     0
102
RTVSPropertyOp23
 70
     0
102
RTVSPropertyOp24
 70
     0
102
RTVSPropertyOp25
 70
     0
102
RTVSPropertyOp26
 70
     0
102
RTVSPropertyOp27
 70
     0
102
RTVSPropertyOp28
 70
     0
102
RTVSPropertyOp29
 70
     0
102
RTVSPropertyOp30
 70
     0
102
RTVSPropertyOp31
 70
     0
102
RTVSPropertyOp32
 70
     0
102
RTVSPropertyOp33
 70
     0
102
RTVSPropertyOp34
 70
     0
102
RTVSPropertyOp35
 70
     0
102
RTVSPropertyOp36
 70
     0
102
RTVSPropertyOp37
 70
     0
102
RTVSPropertyOp38
 70
     0
102
RTVSPropertyOp39
 70
     0
102
RTVSPropertyOp40
 70
     0
102
RTVSPropertyOp41
 70
     0
102
RTVSPropertyOp42
 70
     0
102
RTVSPropertyOp43
 70
     0
102
RTVSPropertyOp44
 70
     0
102
RTVSPropertyOp45
 70
     0
102
RTVSPropertyOp46
 70
     0
102
RTVSPropertyOp47
 70
     0
102
RTVSPropertyOp48
 70
     0
102
RTVSPropertyOp49
 70
     0
102
RTVSPropertyOp50
 70
     0
102
RTVSPropertyOp51
 70
     0
102
RTVSPropertyOp52
 70
     0
102
RTVSPropertyOp53
 70
     0
102
RTVSPropertyOp54
 70
     0
102
RTVSPropertyOp55
 70
     0
102
RTVSPropertyOp56
 70
     0
102
RTVSPropertyOp57
 70
     0
102
RTVSPost2010Prop28
280
     0
102
RTVSPost2010PropOp28
 70
     0
102
RTVSPost2010Prop29
280
     1
102
RTVSPost2010PropOp29
 70
     0
102
RTVSPost2010Prop30
280
     1
102
RTVSPost2010PropOp30
 70
     0
102
RTVSPost2010Prop31
280
     0
102
RTVSPost2010PropOp31
 70
     0
102
RTVSPost2010Prop32
280
     0
102
RTVSPost2010PropOp32
 70
     0
102
RTVSPost2010Prop33
280
     0
102
RTVSPost2010PropOp33
 70
     0
102
RTVSPost2010Prop34
280
     0
102
RTVSPost2010PropOp34
 70
     0
102
RTVSPost2010Prop35
280
     0
102
RTVSPost2010PropOp35
 70
     0
102
RTVSPost2010Prop36
280
     0
102
RTVSPost2010PropOp36
 70
     0
102
RTVSPost2010Prop37
 90
       50
102
RTVSPost2010PropOp37
 70
     0
102
RTVSPost2010Prop38
140
0.0
102
RTVSPost2010PropOp38
 70
     0
102
RTVSPost2010Prop39
140
1.0
102
RTVSPost2010PropOp39
 70
     0
102
RTVSPost2010Prop40
 90
        0
102
RTVSPost2010PropOp40
 70
     0
102
RTVSPost2010Prop41ColorIndex
 90
       18
102
RTVSPost2010Prop41ColorRGB
 90
        0
102
RTVSPost2010PropOp41
 70
     0
102
RTVSPost2010Prop42
 90
       50
102
RTVSPost2010PropOp42
 70
     0
102
RTVSPost2010Prop43
 90
        3
102
RTVSPost2010PropOp43
 70
     0
102
RTVSPost2010Prop44ColorIndex
 90
        5
102
RTVSPost2010Prop44ColorRGB
 90
      255
102
RTVSPost2010PropOp44
 70
     0
102
RTVSPost2010Prop45
280
     0
102
RTVSPost2010PropOp45
 70
     0
102
RTVSPost2010Prop46
 90
       50
102
RTVSPost2010PropOp46
 70
     0
102
RTVSPost2010Prop47
 90
       50
102
RTVSPost2010PropOp47
 70
     0
102
RTVSPost2010Prop48
 90
       50
102
RTVSPost2010PropOp48
 70
     0
102
RTVSPost2010Prop49
280
     0
102
RTVSPost2010PropOp49
 70
     0
102
RTVSPost2010Prop50
 90
       50
102
RTVSPost2010PropOp50
 70
     0
102
RTVSPost2010Prop51ColorIndex
 90
      256
102
RTVSPost2010Prop51ColorRGB
 90
-16777216
102
RTVSPost2010PropOp51
 70
     0
102
RTVSPost2010Prop52
140
1.0
102
RTVSPost2010PropOp52
 70
     0
102
RTVSPost2010Prop53
 90
        2
102
RTVSPost2010PropOp53
 70
     0
102
RTVSPost2010Prop54
  1
strokes_ogs.tif
102
RTVSPost2010PropOp54
 70
     0
102
RTVSPost2010Prop55
280
     0
102
RTVSPost2010PropOp55
 70
     0
102
RTVSPost2010Prop56
140
1.0
102
RTVSPost2010PropOp56
 70
     0
102
RTVSPost2010Prop57
140
1.0
102
RTVSPost2010PropOp57
 70
     0
  0
XRECORD
  5
277
102
{ACAD_REACTORS
330
276
102
}
330
276
100
AcDbXrecord
280
     1
102
RTVSPropertyOp0
 70
     1
102
RTVSPropertyOp1
 70
     1
102
RTVSPropertyOp2
 70
     1
102
RTVSPropertyOp3
 70
     1
102
RTVSPropertyOp4
 70
     1
102
RTVSPropertyOp5
 70
     1
102
RTVSPropertyOp6
 70
     1
102
RTVSPropertyOp7
 70
     1
102
RTVSPropertyOp8
 70
     1
102
RTVSPropertyOp9
 70
     1
102
RTVSPropertyOp10
 70
     1
102
RTVSPropertyOp11
 70
     1
102
RTVSPropertyOp12
 70
     1
102
RTVSPropertyOp13
 70
     1
102
RTVSPropertyOp14
 70
     1
102
RTVSPropertyOp15
 70
     1
102
RTVSPropertyOp16
 70
     1
102
RTVSPropertyOp17
 70
     1
102
RTVSPropertyOp18
 70
     1
102
RTVSPropertyOp19
 70
     1
102
RTVSPropertyOp20
 70
     1
102
RTVSPropertyOp21
 70
     1
102
RTVSPropertyOp22
 70
     1
102
RTVSPropertyOp23
 70
     1
102
RTVSPropertyOp24
 70
     1
102
RTVSPropertyOp25
 70
     1
102
RTVSPropertyOp26
 70
     1
102
RTVSPropertyOp27
 70
     1
102
RTVSPropertyOp28
 70
     1
102
RTVSPropertyOp29
 70
     1
102
RTVSPropertyOp30
 70
     1
102
RTVSPropertyOp31
 70
     1
102
RTVSPropertyOp32
 70
     1
102
RTVSPropertyOp33
 70
     1
102
RTVSPropertyOp34
 70
     1
102
RTVSPropertyOp35
 70
     1
102
RTVSPropertyOp36
 70
     1
102
RTVSPropertyOp37
 70
     1
102
RTVSPropertyOp38
 70
     1
102
RTVSPropertyOp39
 70
     1
102
RTVSPropertyOp40
 70
     1
102
RTVSPropertyOp41
 70
     1
102
RTVSPropertyOp42
 70
     1
102
RTVSPropertyOp43
 70
     1
102
RTVSPropertyOp44
 70
     1
102
RTVSPropertyOp45
 70
     1
102
RTVSPropertyOp46
 70
     1
102
RTVSPropertyOp47
 70
     1
102
RTVSPropertyOp48
 70
     1
102
RTVSPropertyOp49
 70
     1
102
RTVSPropertyOp50
 70
     1
102
RTVSPropertyOp51
 70
     0
102
RTVSPropertyOp52
 70
     0
102
RTVSPropertyOp53
 70
     1
102
RTVSPropertyOp54
 70
     1
102
RTVSPropertyOp55
 70
     1
102
RTVSPropertyOp56
 70
     1
102
RTVSPropertyOp57
 70
     1
102
RTVSPost2010Prop28
280
     0
102
RTVSPost2010PropOp28
 70
     1
102
RTVSPost2010Prop29
280
     1
102
RTVSPost2010PropOp29
 70
     1
102
RTVSPost2010Prop30
280
     1
102
RTVSPost2010PropOp30
 70
     1
102
RTVSPost2010Prop31
280
     0
102
RTVSPost2010PropOp31
 70
     1
102
RTVSPost2010Prop32
280
     0
102
RTVSPost2010PropOp32
 70
     1
102
RTVSPost2010Prop33
280
     0
102
RTVSPost2010PropOp33
 70
     1
102
RTVSPost2010Prop34
280
     0
102
RTVSPost2010PropOp34
 70
     1
102
RTVSPost2010Prop35
280
     0
102
RTVSPost2010PropOp35
 70
     1
102
RTVSPost2010Prop36
280
     0
102
RTVSPost2010PropOp36
 70
     1
102
RTVSPost2010Prop37
 90
       50
102
RTVSPost2010PropOp37
 70
     1
102
RTVSPost2010Prop38
140
0.0
102
RTVSPost2010PropOp38
 70
     1
102
RTVSPost2010Prop39
140
1.0
102
RTVSPost2010PropOp39
 70
     1
102
RTVSPost2010Prop40
 90
        0
102
RTVSPost2010PropOp40
 70
     1
102
RTVSPost2010Prop41ColorIndex
 90
       18
102
RTVSPost2010Prop41ColorRGB
 90
        0
102
RTVSPost2010PropOp41
 70
     1
102
RTVSPost2010Prop42
 90
       50
102
RTVSPost2010PropOp42
 70
     1
102
RTVSPost2010Prop43
 90
        3
102
RTVSPost2010PropOp43
 70
     1
102
RTVSPost2010Prop44ColorIndex
 90
        5
102
RTVSPost2010Prop44ColorRGB
 90
      255
102
RTVSPost2010PropOp44
 70
     1
102
RTVSPost2010Prop45
280
     0
102
RTVSPost2010PropOp45
 70
     1
102
RTVSPost2010Prop46
 90
       50
102
RTVSPost2010PropOp46
 70
     1
102
RTVSPost2010Prop47
 90
       50
102
RTVSPost2010PropOp47
 70
     1
102
RTVSPost2010Prop48
 90
       50
102
RTVSPost2010PropOp48
 70
     1
102
RTVSPost2010Prop49
280
     0
102
RTVSPost2010PropOp49
 70
     1
102
RTVSPost2010Prop50
 90
       50
102
RTVSPost2010PropOp50
 70
     1
102
RTVSPost2010Prop51ColorIndex
 90
      256
102
RTVSPost2010Prop51ColorRGB
 90
-16777216
102
RTVSPost2010PropOp51
 70
     0
102
RTVSPost2010Prop52
140
1.0
102
RTVSPost2010PropOp52
 70
     0
102
RTVSPost2010Prop53
 90
        2
102
RTVSPost2010PropOp53
 70
     1
102
RTVSPost2010Prop54
  1
strokes_ogs.tif
102
RTVSPost2010PropOp54
 70
     1
102
RTVSPost2010Prop55
280
     0
102
RTVSPost2010PropOp55
 70
     1
102
RTVSPost2010Prop56
140
1.0
102
RTVSPost2010PropOp56
 70
     1
102
RTVSPost2010Prop57
140
1.0
102
RTVSPost2010PropOp57
 70
     1
  0
XRECORD
  5
27F
102
{ACAD_REACTORS
330
27E
102
}
330
27E
100
AcDbXrecord
280
     1
102
RTVSPropertyOp0
 70
     0
102
RTVSPropertyOp1
 70
     0
102
RTVSPropertyOp2
 70
     0
102
RTVSPropertyOp3
 70
     0
102
RTVSPropertyOp4
 70
     0
102
RTVSPropertyOp5
 70
     0
102
RTVSPropertyOp6
 70
     0
102
RTVSPropertyOp7
 70
     0
102
RTVSPropertyOp8
 70
     0
102
RTVSPropertyOp9
 70
     0
102
RTVSPropertyOp10
 70
     0
102
RTVSPropertyOp11
 70
     0
102
RTVSPropertyOp12
 70
     0
102
RTVSPropertyOp13
 70
     0
102
RTVSPropertyOp14
 70
     2
102
RTVSPropertyOp15
 70
     0
102
RTVSPropertyOp16
 70
     0
102
RTVSPropertyOp17
 70
     0
102
RTVSPropertyOp18
 70
     0
102
RTVSPropertyOp19
 70
     0
102
RTVSPropertyOp20
 70
     0
102
RTVSPropertyOp21
 70
     0
102
RTVSPropertyOp22
 70
     0
102
RTVSPropertyOp23
 70
     0
102
RTVSPropertyOp24
 70
     0
102
RTVSPropertyOp25
 70
     0
102
RTVSPropertyOp26
 70
     0
102
RTVSPropertyOp27
 70
     0
102
RTVSPropertyOp28
 70
     0
102
RTVSPropertyOp29
 70
     0
102
RTVSPropertyOp30
 70
     0
102
RTVSPropertyOp31
 70
     0
102
RTVSPropertyOp32
 70
     0
102
RTVSPropertyOp33
 70
     0
102
RTVSPropertyOp34
 70
     0
102
RTVSPropertyOp35
 70
     0
102
RTVSPropertyOp36
 70
     0
102
RTVSPropertyOp37
 70
     0
102
RTVSPropertyOp38
 70
     0
102
RTVSPropertyOp39
 70
     0
102
RTVSPropertyOp40
 70
     0
102
RTVSPropertyOp41
 70
     0
102
RTVSPropertyOp42
 70
     0
102
RTVSPropertyOp43
 70
     0
102
RTVSPropertyOp44
 70
     0
102
RTVSPropertyOp45
 70
     0
102
RTVSPropertyOp46
 70
     0
102
RTVSPropertyOp47
 70
     0
102
RTVSPropertyOp48
 70
     0
102
RTVSPropertyOp49
 70
     0
102
RTVSPropertyOp50
 70
     0
102
RTVSPropertyOp51
 70
     0
102
RTVSPropertyOp52
 70
     0
102
RTVSPropertyOp53
 70
     0
102
RTVSPropertyOp54
 70
     0
102
RTVSPropertyOp55
 70
     0
102
RTVSPropertyOp56
 70
     0
102
RTVSPropertyOp57
 70
     0
102
RTVSPost2010Prop28
280
     0
102
RTVSPost2010PropOp28
 70
     0
102
RTVSPost2010Prop29
280
     1
102
RTVSPost2010PropOp29
 70
     0
102
RTVSPost2010Prop30
280
     1
102
RTVSPost2010PropOp30
 70
     0
102
RTVSPost2010Prop31
280
     0
102
RTVSPost2010PropOp31
 70
     0
102
RTVSPost2010Prop32
280
     0
102
RTVSPost2010PropOp32
 70
     0
102
RTVSPost2010Prop33
280
     0
102
RTVSPost2010PropOp33
 70
     0
102
RTVSPost2010Prop34
280
     0
102
RTVSPost2010PropOp34
 70
     0
102
RTVSPost2010Prop35
280
     0
102
RTVSPost2010PropOp35
 70
     0
102
RTVSPost2010Prop36
280
     0
102
RTVSPost2010PropOp36
 70
     0
102
RTVSPost2010Prop37
 90
       50
102
RTVSPost2010PropOp37
 70
     0
102
RTVSPost2010Prop38
140
0.0
102
RTVSPost2010PropOp38
 70
     0
102
RTVSPost2010Prop39
140
1.0
102
RTVSPost2010PropOp39
 70
     0
102
RTVSPost2010Prop40
 90
        0
102
RTVSPost2010PropOp40
 70
     0
102
RTVSPost2010Prop41ColorIndex
 90
       18
102
RTVSPost2010Prop41ColorRGB
 90
        0
102
RTVSPost2010PropOp41
 70
     0
102
RTVSPost2010Prop42
 90
       50
102
RTVSPost2010PropOp42
 70
     0
102
RTVSPost2010Prop43
 90
        3
102
RTVSPost2010PropOp43
 70
     0
102
RTVSPost2010Prop44ColorIndex
 90
        5
102
RTVSPost2010Prop44ColorRGB
 90
      255
102
RTVSPost2010PropOp44
 70
     0
102
RTVSPost2010Prop45
280
     0
102
RTVSPost2010PropOp45
 70
     0
102
RTVSPost2010Prop46
 90
       50
102
RTVSPost2010PropOp46
 70
     0
102
RTVSPost2010Prop47
 90
       50
102
RTVSPost2010PropOp47
 70
     0
102
RTVSPost2010Prop48
 90
       50
102
RTVSPost2010PropOp48
 70
     0
102
RTVSPost2010Prop49
280
     0
102
RTVSPost2010PropOp49
 70
     0
102
RTVSPost2010Prop50
 90
       50
102
RTVSPost2010PropOp50
 70
     0
102
RTVSPost2010Prop51ColorIndex
 90
      256
102
RTVSPost2010Prop51ColorRGB
 90
-16777216
102
RTVSPost2010PropOp51
 70
     0
102
RTVSPost2010Prop52
140
1.0
102
RTVSPost2010PropOp52
 70
     0
102
RTVSPost2010Prop53
 90
        2
102
RTVSPost2010PropOp53
 70
     0
102
RTVSPost2010Prop54
  1
strokes_ogs.tif
102
RTVSPost2010PropOp54
 70
     0
102
RTVSPost2010Prop55
280
     0
102
RTVSPost2010PropOp55
 70
     0
102
RTVSPost2010Prop56
140
1.0
102
RTVSPost2010PropOp56
 70
     0
102
RTVSPost2010Prop57
140
1.0
102
RTVSPost2010PropOp57
 70
     0
  0
XRECORD
  5
26D
102
{ACAD_REACTORS
330
26C
102
}
330
26C
100
AcDbXrecord
280
     1
102
RTVSPropertyOp0
 70
     1
102
RTVSPropertyOp1
 70
     1
102
RTVSPropertyOp2
 70
     1
102
RTVSPropertyOp3
 70
     1
102
RTVSPropertyOp4
 70
     1
102
RTVSPropertyOp5
 70
     1
102
RTVSPropertyOp6
 70
     1
102
RTVSPropertyOp7
 70
     1
102
RTVSPropertyOp8
 70
     1
102
RTVSPropertyOp9
 70
     1
102
RTVSPropertyOp10
 70
     1
102
RTVSPropertyOp11
 70
     1
102
RTVSPropertyOp12
 70
     1
102
RTVSPropertyOp13
 70
     1
102
RTVSPropertyOp14
 70
     1
102
RTVSPropertyOp15
 70
     1
102
RTVSPropertyOp16
 70
     1
102
RTVSPropertyOp17
 70
     1
102
RTVSPropertyOp18
 70
     1
102
RTVSPropertyOp19
 70
     1
102
RTVSPropertyOp20
 70
     1
102
RTVSPropertyOp21
 70
     1
102
RTVSPropertyOp22
 70
     1
102
RTVSPropertyOp23
 70
     1
102
RTVSPropertyOp24
 70
     1
102
RTVSPropertyOp25
 70
     1
102
RTVSPropertyOp26
 70
     1
102
RTVSPropertyOp27
 70
     1
102
RTVSPropertyOp28
 70
     1
102
RTVSPropertyOp29
 70
     1
102
RTVSPropertyOp30
 70
     1
102
RTVSPropertyOp31
 70
     1
102
RTVSPropertyOp32
 70
     1
102
RTVSPropertyOp33
 70
     1
102
RTVSPropertyOp34
 70
     1
102
RTVSPropertyOp35
 70
     1
102
RTVSPropertyOp36
 70
     1
102
RTVSPropertyOp37
 70
     1
102
RTVSPropertyOp38
 70
     1
102
RTVSPropertyOp39
 70
     1
102
RTVSPropertyOp40
 70
     1
102
RTVSPropertyOp41
 70
     1
102
RTVSPropertyOp42
 70
     1
102
RTVSPropertyOp43
 70
     1
102
RTVSPropertyOp44
 70
     1
102
RTVSPropertyOp45
 70
     1
102
RTVSPropertyOp46
 70
     1
102
RTVSPropertyOp47
 70
     1
102
RTVSPropertyOp48
 70
     1
102
RTVSPropertyOp49
 70
     1
102
RTVSPropertyOp50
 70
     1
102
RTVSPropertyOp51
 70
     0
102
RTVSPropertyOp52
 70
     0
102
RTVSPropertyOp53
 70
     1
102
RTVSPropertyOp54
 70
     1
102
RTVSPropertyOp55
 70
     1
102
RTVSPropertyOp56
 70
     1
102
RTVSPropertyOp57
 70
     1
102
RTVSPost2010Prop28
280
     0
102
RTVSPost2010PropOp28
 70
     1
102
RTVSPost2010Prop29
280
     1
102
RTVSPost2010PropOp29
 70
     1
102
RTVSPost2010Prop30
280
     1
102
RTVSPost2010PropOp30
 70
     1
102
RTVSPost2010Prop31
280
     0
102
RTVSPost2010PropOp31
 70
     1
102
RTVSPost2010Prop32
280
     0
102
RTVSPost2010PropOp32
 70
     1
102
RTVSPost2010Prop33
280
     0
102
RTVSPost2010PropOp33
 70
     1
102
RTVSPost2010Prop34
280
     0
102
RTVSPost2010PropOp34
 70
     1
102
RTVSPost2010Prop35
280
     0
102
RTVSPost2010PropOp35
 70
     1
102
RTVSPost2010Prop36
280
     0
102
RTVSPost2010PropOp36
 70
     1
102
RTVSPost2010Prop37
 90
       50
102
RTVSPost2010PropOp37
 70
     1
102
RTVSPost2010Prop38
140
0.0
102
RTVSPost2010PropOp38
 70
     1
102
RTVSPost2010Prop39
140
1.0
102
RTVSPost2010PropOp39
 70
     1
102
RTVSPost2010Prop40
 90
        0
102
RTVSPost2010PropOp40
 70
     1
102
RTVSPost2010Prop41ColorIndex
 90
       18
102
RTVSPost2010Prop41ColorRGB
 90
        0
102
RTVSPost2010PropOp41
 70
     1
102
RTVSPost2010Prop42
 90
       50
102
RTVSPost2010PropOp42
 70
     1
102
RTVSPost2010Prop43
 90
        3
102
RTVSPost2010PropOp43
 70
     1
102
RTVSPost2010Prop44ColorIndex
 90
        5
102
RTVSPost2010Prop44ColorRGB
 90
      255
102
RTVSPost2010PropOp44
 70
     1
102
RTVSPost2010Prop45
280
     0
102
RTVSPost2010PropOp45
 70
     1
102
RTVSPost2010Prop46
 90
       50
102
RTVSPost2010PropOp46
 70
     1
102
RTVSPost2010Prop47
 90
       50
102
RTVSPost2010PropOp47
 70
     1
102
RTVSPost2010Prop48
 90
       50
102
RTVSPost2010PropOp48
 70
     1
102
RTVSPost2010Prop49
280
     0
102
RTVSPost2010PropOp49
 70
     1
102
RTVSPost2010Prop50
 90
       50
102
RTVSPost2010PropOp50
 70
     1
102
RTVSPost2010Prop51ColorIndex
 90
      256
102
RTVSPost2010Prop51ColorRGB
 90
-16777216
102
RTVSPost2010PropOp51
 70
     0
102
RTVSPost2010Prop52
140
1.0
102
RTVSPost2010PropOp52
 70
     0
102
RTVSPost2010Prop53
 90
        2
102
RTVSPost2010PropOp53
 70
     1
102
RTVSPost2010Prop54
  1
strokes_ogs.tif
102
RTVSPost2010PropOp54
 70
     1
102
RTVSPost2010Prop55
280
     0
102
RTVSPost2010PropOp55
 70
     1
102
RTVSPost2010Prop56
140
1.0
102
RTVSPost2010PropOp56
 70
     1
102
RTVSPost2010Prop57
140
1.0
102
RTVSPost2010PropOp57
 70
     1
  0
XRECORD
  5
28B
102
{ACAD_REACTORS
330
28A
102
}
330
28A
100
AcDbXrecord
280
     1
102
RTVSPropertyOp0
 70
     1
102
RTVSPropertyOp1
 70
     1
102
RTVSPropertyOp2
 70
     1
102
RTVSPropertyOp3
 70
     1
102
RTVSPropertyOp4
 70
     1
102
RTVSPropertyOp5
 70
     1
102
RTVSPropertyOp6
 70
     1
102
RTVSPropertyOp7
 70
     1
102
RTVSPropertyOp8
 70
     1
102
RTVSPropertyOp9
 70
     1
102
RTVSPropertyOp10
 70
     1
102
RTVSPropertyOp11
 70
     1
102
RTVSPropertyOp12
 70
     1
102
RTVSPropertyOp13
 70
     1
102
RTVSPropertyOp14
 70
     1
102
RTVSPropertyOp15
 70
     1
102
RTVSPropertyOp16
 70
     1
102
RTVSPropertyOp17
 70
     1
102
RTVSPropertyOp18
 70
     1
102
RTVSPropertyOp19
 70
     1
102
RTVSPropertyOp20
 70
     1
102
RTVSPropertyOp21
 70
     1
102
RTVSPropertyOp22
 70
     1
102
RTVSPropertyOp23
 70
     1
102
RTVSPropertyOp24
 70
     1
102
RTVSPropertyOp25
 70
     1
102
RTVSPropertyOp26
 70
     1
102
RTVSPropertyOp27
 70
     1
102
RTVSPropertyOp28
 70
     1
102
RTVSPropertyOp29
 70
     1
102
RTVSPropertyOp30
 70
     1
102
RTVSPropertyOp31
 70
     1
102
RTVSPropertyOp32
 70
     1
102
RTVSPropertyOp33
 70
     1
102
RTVSPropertyOp34
 70
     1
102
RTVSPropertyOp35
 70
     1
102
RTVSPropertyOp36
 70
     1
102
RTVSPropertyOp37
 70
     1
102
RTVSPropertyOp38
 70
     1
102
RTVSPropertyOp39
 70
     1
102
RTVSPropertyOp40
 70
     1
102
RTVSPropertyOp41
 70
     1
102
RTVSPropertyOp42
 70
     1
102
RTVSPropertyOp43
 70
     1
102
RTVSPropertyOp44
 70
     1
102
RTVSPropertyOp45
 70
     1
102
RTVSPropertyOp46
 70
     1
102
RTVSPropertyOp47
 70
     1
102
RTVSPropertyOp48
 70
     1
102
RTVSPropertyOp49
 70
     1
102
RTVSPropertyOp50
 70
     1
102
RTVSPropertyOp51
 70
     0
102
RTVSPropertyOp52
 70
     0
102
RTVSPropertyOp53
 70
     1
102
RTVSPropertyOp54
 70
     1
102
RTVSPropertyOp55
 70
     1
102
RTVSPropertyOp56
 70
     1
102
RTVSPropertyOp57
 70
     1
102
RTVSPost2010Prop28
280
     0
102
RTVSPost2010PropOp28
 70
     1
102
RTVSPost2010Prop29
280
     1
102
RTVSPost2010PropOp29
 70
     1
102
RTVSPost2010Prop30
280
     1
102
RTVSPost2010PropOp30
 70
     1
102
RTVSPost2010Prop31
280
     0
102
RTVSPost2010PropOp31
 70
     1
102
RTVSPost2010Prop32
280
     0
102
RTVSPost2010PropOp32
 70
     1
102
RTVSPost2010Prop33
280
     0
102
RTVSPost2010PropOp33
 70
     1
102
RTVSPost2010Prop34
280
     0
102
RTVSPost2010PropOp34
 70
     1
102
RTVSPost2010Prop35
280
     0
102
RTVSPost2010PropOp35
 70
     1
102
RTVSPost2010Prop36
280
     0
102
RTVSPost2010PropOp36
 70
     1
102
RTVSPost2010Prop37
 90
       50
102
RTVSPost2010PropOp37
 70
     1
102
RTVSPost2010Prop38
140
0.0
102
RTVSPost2010PropOp38
 70
     1
102
RTVSPost2010Prop39
140
1.0
102
RTVSPost2010PropOp39
 70
     1
102
RTVSPost2010Prop40
 90
        0
102
RTVSPost2010PropOp40
 70
     1
102
RTVSPost2010Prop41ColorIndex
 90
       18
102
RTVSPost2010Prop41ColorRGB
 90
        0
102
RTVSPost2010PropOp41
 70
     1
102
RTVSPost2010Prop42
 90
       50
102
RTVSPost2010PropOp42
 70
     1
102
RTVSPost2010Prop43
 90
        3
102
RTVSPost2010PropOp43
 70
     1
102
RTVSPost2010Prop44ColorIndex
 90
        5
102
RTVSPost2010Prop44ColorRGB
 90
      255
102
RTVSPost2010PropOp44
 70
     1
102
RTVSPost2010Prop45
280
     0
102
RTVSPost2010PropOp45
 70
     1
102
RTVSPost2010Prop46
 90
       50
102
RTVSPost2010PropOp46
 70
     1
102
RTVSPost2010Prop47
 90
       50
102
RTVSPost2010PropOp47
 70
     1
102
RTVSPost2010Prop48
 90
       50
102
RTVSPost2010PropOp48
 70
     1
102
RTVSPost2010Prop49
280
     0
102
RTVSPost2010PropOp49
 70
     1
102
RTVSPost2010Prop50
 90
       50
102
RTVSPost2010PropOp50
 70
     1
102
RTVSPost2010Prop51ColorIndex
 90
      256
102
RTVSPost2010Prop51ColorRGB
 90
-16777216
102
RTVSPost2010PropOp51
 70
     0
102
RTVSPost2010Prop52
140
1.0
102
RTVSPost2010PropOp52
 70
     0
102
RTVSPost2010Prop53
 90
        2
102
RTVSPost2010PropOp53
 70
     1
102
RTVSPost2010Prop54
  1
strokes_ogs.tif
102
RTVSPost2010PropOp54
 70
     1
102
RTVSPost2010Prop55
280
     0
102
RTVSPost2010PropOp55
 70
     1
102
RTVSPost2010Prop56
140
1.0
102
RTVSPost2010PropOp56
 70
     1
102
RTVSPost2010Prop57
140
1.0
102
RTVSPost2010PropOp57
 70
     1
  0
XRECORD
  5
289
102
{ACAD_REACTORS
330
288
102
}
330
288
100
AcDbXrecord
280
     1
102
RTVSPropertyOp0
 70
     1
102
RTVSPropertyOp1
 70
     1
102
RTVSPropertyOp2
 70
     1
102
RTVSPropertyOp3
 70
     1
102
RTVSPropertyOp4
 70
     1
102
RTVSPropertyOp5
 70
     1
102
RTVSPropertyOp6
 70
     1
102
RTVSPropertyOp7
 70
     1
102
RTVSPropertyOp8
 70
     1
102
RTVSPropertyOp9
 70
     1
102
RTVSPropertyOp10
 70
     1
102
RTVSPropertyOp11
 70
     1
102
RTVSPropertyOp12
 70
     1
102
RTVSPropertyOp13
 70
     1
102
RTVSPropertyOp14
 70
     1
102
RTVSPropertyOp15
 70
     1
102
RTVSPropertyOp16
 70
     1
102
RTVSPropertyOp17
 70
     1
102
RTVSPropertyOp18
 70
     1
102
RTVSPropertyOp19
 70
     1
102
RTVSPropertyOp20
 70
     1
102
RTVSPropertyOp21
 70
     1
102
RTVSPropertyOp22
 70
     1
102
RTVSPropertyOp23
 70
     1
102
RTVSPropertyOp24
 70
     1
102
RTVSPropertyOp25
 70
     1
102
RTVSPropertyOp26
 70
     1
102
RTVSPropertyOp27
 70
     1
102
RTVSPropertyOp28
 70
     1
102
RTVSPropertyOp29
 70
     1
102
RTVSPropertyOp30
 70
     1
102
RTVSPropertyOp31
 70
     1
102
RTVSPropertyOp32
 70
     1
102
RTVSPropertyOp33
 70
     1
102
RTVSPropertyOp34
 70
     1
102
RTVSPropertyOp35
 70
     1
102
RTVSPropertyOp36
 70
     1
102
RTVSPropertyOp37
 70
     1
102
RTVSPropertyOp38
 70
     1
102
RTVSPropertyOp39
 70
     1
102
RTVSPropertyOp40
 70
     1
102
RTVSPropertyOp41
 70
     1
102
RTVSPropertyOp42
 70
     1
102
RTVSPropertyOp43
 70
     1
102
RTVSPropertyOp44
 70
     1
102
RTVSPropertyOp45
 70
     1
102
RTVSPropertyOp46
 70
     1
102
RTVSPropertyOp47
 70
     1
102
RTVSPropertyOp48
 70
     1
102
RTVSPropertyOp49
 70
     1
102
RTVSPropertyOp50
 70
     1
102
RTVSPropertyOp51
 70
     0
102
RTVSPropertyOp52
 70
     0
102
RTVSPropertyOp53
 70
     1
102
RTVSPropertyOp54
 70
     1
102
RTVSPropertyOp55
 70
     1
102
RTVSPropertyOp56
 70
     1
102
RTVSPropertyOp57
 70
     1
102
RTVSPost2010Prop28
280
     0
102
RTVSPost2010PropOp28
 70
     1
102
RTVSPost2010Prop29
280
     1
102
RTVSPost2010PropOp29
 70
     1
102
RTVSPost2010Prop30
280
     1
102
RTVSPost2010PropOp30
 70
     1
102
RTVSPost2010Prop31
280
     0
102
RTVSPost2010PropOp31
 70
     1
102
RTVSPost2010Prop32
280
     0
102
RTVSPost2010PropOp32
 70
     1
102
RTVSPost2010Prop33
280
     0
102
RTVSPost2010PropOp33
 70
     1
102
RTVSPost2010Prop34
280
     0
102
RTVSPost2010PropOp34
 70
     1
102
RTVSPost2010Prop35
280
     0
102
RTVSPost2010PropOp35
 70
     1
102
RTVSPost2010Prop36
280
     0
102
RTVSPost2010PropOp36
 70
     1
102
RTVSPost2010Prop37
 90
       50
102
RTVSPost2010PropOp37
 70
     1
102
RTVSPost2010Prop38
140
0.0
102
RTVSPost2010PropOp38
 70
     1
102
RTVSPost2010Prop39
140
1.0
102
RTVSPost2010PropOp39
 70
     1
102
RTVSPost2010Prop40
 90
        0
102
RTVSPost2010PropOp40
 70
     1
102
RTVSPost2010Prop41ColorIndex
 90
       18
102
RTVSPost2010Prop41ColorRGB
 90
        0
102
RTVSPost2010PropOp41
 70
     1
102
RTVSPost2010Prop42
 90
       50
102
RTVSPost2010PropOp42
 70
     1
102
RTVSPost2010Prop43
 90
        3
102
RTVSPost2010PropOp43
 70
     1
102
RTVSPost2010Prop44ColorIndex
 90
        5
102
RTVSPost2010Prop44ColorRGB
 90
      255
102
RTVSPost2010PropOp44
 70
     1
102
RTVSPost2010Prop45
280
     0
102
RTVSPost2010PropOp45
 70
     1
102
RTVSPost2010Prop46
 90
       50
102
RTVSPost2010PropOp46
 70
     1
102
RTVSPost2010Prop47
 90
       50
102
RTVSPost2010PropOp47
 70
     1
102
RTVSPost2010Prop48
 90
       50
102
RTVSPost2010PropOp48
 70
     1
102
RTVSPost2010Prop49
280
     0
102
RTVSPost2010PropOp49
 70
     1
102
RTVSPost2010Prop50
 90
       50
102
RTVSPost2010PropOp50
 70
     1
102
RTVSPost2010Prop51ColorIndex
 90
      256
102
RTVSPost2010Prop51ColorRGB
 90
-16777216
102
RTVSPost2010PropOp51
 70
     0
102
RTVSPost2010Prop52
140
1.0
102
RTVSPost2010PropOp52
 70
     0
102
RTVSPost2010Prop53
 90
        2
102
RTVSPost2010PropOp53
 70
     1
102
RTVSPost2010Prop54
  1
strokes_ogs.tif
102
RTVSPost2010PropOp54
 70
     1
102
RTVSPost2010Prop55
280
     0
102
RTVSPost2010PropOp55
 70
     1
102
RTVSPost2010Prop56
140
1.0
102
RTVSPost2010PropOp56
 70
     1
102
RTVSPost2010Prop57
140
1.0
102
RTVSPost2010PropOp57
 70
     1
  0
XRECORD
  5
283
102
{ACAD_REACTORS
330
282
102
}
330
282
100
AcDbXrecord
280
     1
102
RTVSPropertyOp0
 70
     1
102
RTVSPropertyOp1
 70
     1
102
RTVSPropertyOp2
 70
     1
102
RTVSPropertyOp3
 70
     1
102
RTVSPropertyOp4
 70
     1
102
RTVSPropertyOp5
 70
     1
102
RTVSPropertyOp6
 70
     1
102
RTVSPropertyOp7
 70
     1
102
RTVSPropertyOp8
 70
     1
102
RTVSPropertyOp9
 70
     1
102
RTVSPropertyOp10
 70
     1
102
RTVSPropertyOp11
 70
     1
102
RTVSPropertyOp12
 70
     1
102
RTVSPropertyOp13
 70
     1
102
RTVSPropertyOp14
 70
     1
102
RTVSPropertyOp15
 70
     1
102
RTVSPropertyOp16
 70
     1
102
RTVSPropertyOp17
 70
     1
102
RTVSPropertyOp18
 70
     1
102
RTVSPropertyOp19
 70
     1
102
RTVSPropertyOp20
 70
     1
102
RTVSPropertyOp21
 70
     1
102
RTVSPropertyOp22
 70
     1
102
RTVSPropertyOp23
 70
     1
102
RTVSPropertyOp24
 70
     1
102
RTVSPropertyOp25
 70
     1
102
RTVSPropertyOp26
 70
     1
102
RTVSPropertyOp27
 70
     1
102
RTVSPropertyOp28
 70
     1
102
RTVSPropertyOp29
 70
     1
102
RTVSPropertyOp30
 70
     1
102
RTVSPropertyOp31
 70
     1
102
RTVSPropertyOp32
 70
     1
102
RTVSPropertyOp33
 70
     1
102
RTVSPropertyOp34
 70
     1
102
RTVSPropertyOp35
 70
     1
102
RTVSPropertyOp36
 70
     1
102
RTVSPropertyOp37
 70
     1
102
RTVSPropertyOp38
 70
     1
102
RTVSPropertyOp39
 70
     1
102
RTVSPropertyOp40
 70
     1
102
RTVSPropertyOp41
 70
     1
102
RTVSPropertyOp42
 70
     1
102
RTVSPropertyOp43
 70
     1
102
RTVSPropertyOp44
 70
     1
102
RTVSPropertyOp45
 70
     1
102
RTVSPropertyOp46
 70
     1
102
RTVSPropertyOp47
 70
     1
102
RTVSPropertyOp48
 70
     1
102
RTVSPropertyOp49
 70
     1
102
RTVSPropertyOp50
 70
     1
102
RTVSPropertyOp51
 70
     0
102
RTVSPropertyOp52
 70
     0
102
RTVSPropertyOp53
 70
     1
102
RTVSPropertyOp54
 70
     1
102
RTVSPropertyOp55
 70
     1
102
RTVSPropertyOp56
 70
     1
102
RTVSPropertyOp57
 70
     1
102
RTVSPost2010Prop28
280
     0
102
RTVSPost2010PropOp28
 70
     1
102
RTVSPost2010Prop29
280
     1
102
RTVSPost2010PropOp29
 70
     1
102
RTVSPost2010Prop30
280
     1
102
RTVSPost2010PropOp30
 70
     1
102
RTVSPost2010Prop31
280
     0
102
RTVSPost2010PropOp31
 70
     1
102
RTVSPost2010Prop32
280
     0
102
RTVSPost2010PropOp32
 70
     1
102
RTVSPost2010Prop33
280
     0
102
RTVSPost2010PropOp33
 70
     1
102
RTVSPost2010Prop34
280
     0
102
RTVSPost2010PropOp34
 70
     1
102
RTVSPost2010Prop35
280
     0
102
RTVSPost2010PropOp35
 70
     1
102
RTVSPost2010Prop36
280
     0
102
RTVSPost2010PropOp36
 70
     1
102
RTVSPost2010Prop37
 90
       50
102
RTVSPost2010PropOp37
 70
     1
102
RTVSPost2010Prop38
140
0.0
102
RTVSPost2010PropOp38
 70
     1
102
RTVSPost2010Prop39
140
1.0
102
RTVSPost2010PropOp39
 70
     1
102
RTVSPost2010Prop40
 90
        0
102
RTVSPost2010PropOp40
 70
     1
102
RTVSPost2010Prop41ColorIndex
 90
       18
102
RTVSPost2010Prop41ColorRGB
 90
        0
102
RTVSPost2010PropOp41
 70
     1
102
RTVSPost2010Prop42
 90
       50
102
RTVSPost2010PropOp42
 70
     1
102
RTVSPost2010Prop43
 90
        3
102
RTVSPost2010PropOp43
 70
     1
102
RTVSPost2010Prop44ColorIndex
 90
        5
102
RTVSPost2010Prop44ColorRGB
 90
      255
102
RTVSPost2010PropOp44
 70
     1
102
RTVSPost2010Prop45
280
     0
102
RTVSPost2010PropOp45
 70
     1
102
RTVSPost2010Prop46
 90
       50
102
RTVSPost2010PropOp46
 70
     1
102
RTVSPost2010Prop47
 90
       50
102
RTVSPost2010PropOp47
 70
     1
102
RTVSPost2010Prop48
 90
       50
102
RTVSPost2010PropOp48
 70
     1
102
RTVSPost2010Prop49
280
     0
102
RTVSPost2010PropOp49
 70
     1
102
RTVSPost2010Prop50
 90
       50
102
RTVSPost2010PropOp50
 70
     1
102
RTVSPost2010Prop51ColorIndex
 90
      256
102
RTVSPost2010Prop51ColorRGB
 90
-16777216
102
RTVSPost2010PropOp51
 70
     0
102
RTVSPost2010Prop52
140
1.0
102
RTVSPost2010PropOp52
 70
     0
102
RTVSPost2010Prop53
 90
        2
102
RTVSPost2010PropOp53
 70
     1
102
RTVSPost2010Prop54
  1
strokes_ogs.tif
102
RTVSPost2010PropOp54
 70
     1
102
RTVSPost2010Prop55
280
     0
102
RTVSPost2010PropOp55
 70
     1
102
RTVSPost2010Prop56
140
1.0
102
RTVSPost2010PropOp56
 70
     1
102
RTVSPost2010Prop57
140
1.0
102
RTVSPost2010PropOp57
 70
     1
  0
XRECORD
  5
285
102
{ACAD_REACTORS
330
284
102
}
330
284
100
AcDbXrecord
280
     1
102
RTVSPropertyOp0
 70
     1
102
RTVSPropertyOp1
 70
     1
102
RTVSPropertyOp2
 70
     1
102
RTVSPropertyOp3
 70
     1
102
RTVSPropertyOp4
 70
     1
102
RTVSPropertyOp5
 70
     1
102
RTVSPropertyOp6
 70
     1
102
RTVSPropertyOp7
 70
     1
102
RTVSPropertyOp8
 70
     1
102
RTVSPropertyOp9
 70
     1
102
RTVSPropertyOp10
 70
     1
102
RTVSPropertyOp11
 70
     1
102
RTVSPropertyOp12
 70
     1
102
RTVSPropertyOp13
 70
     1
102
RTVSPropertyOp14
 70
     1
102
RTVSPropertyOp15
 70
     1
102
RTVSPropertyOp16
 70
     1
102
RTVSPropertyOp17
 70
     1
102
RTVSPropertyOp18
 70
     1
102
RTVSPropertyOp19
 70
     1
102
RTVSPropertyOp20
 70
     1
102
RTVSPropertyOp21
 70
     1
102
RTVSPropertyOp22
 70
     1
102
RTVSPropertyOp23
 70
     1
102
RTVSPropertyOp24
 70
     1
102
RTVSPropertyOp25
 70
     1
102
RTVSPropertyOp26
 70
     1
102
RTVSPropertyOp27
 70
     1
102
RTVSPropertyOp28
 70
     1
102
RTVSPropertyOp29
 70
     1
102
RTVSPropertyOp30
 70
     1
102
RTVSPropertyOp31
 70
     1
102
RTVSPropertyOp32
 70
     1
102
RTVSPropertyOp33
 70
     1
102
RTVSPropertyOp34
 70
     1
102
RTVSPropertyOp35
 70
     1
102
RTVSPropertyOp36
 70
     1
102
RTVSPropertyOp37
 70
     1
102
RTVSPropertyOp38
 70
     1
102
RTVSPropertyOp39
 70
     1
102
RTVSPropertyOp40
 70
     1
102
RTVSPropertyOp41
 70
     1
102
RTVSPropertyOp42
 70
     1
102
RTVSPropertyOp43
 70
     1
102
RTVSPropertyOp44
 70
     1
102
RTVSPropertyOp45
 70
     1
102
RTVSPropertyOp46
 70
     1
102
RTVSPropertyOp47
 70
     1
102
RTVSPropertyOp48
 70
     1
102
RTVSPropertyOp49
 70
     1
102
RTVSPropertyOp50
 70
     1
102
RTVSPropertyOp51
 70
     0
102
RTVSPropertyOp52
 70
     0
102
RTVSPropertyOp53
 70
     1
102
RTVSPropertyOp54
 70
     1
102
RTVSPropertyOp55
 70
     1
102
RTVSPropertyOp56
 70
     1
102
RTVSPropertyOp57
 70
     1
102
RTVSPost2010Prop28
280
     0
102
RTVSPost2010PropOp28
 70
     1
102
RTVSPost2010Prop29
280
     1
102
RTVSPost2010PropOp29
 70
     1
102
RTVSPost2010Prop30
280
     1
102
RTVSPost2010PropOp30
 70
     1
102
RTVSPost2010Prop31
280
     0
102
RTVSPost2010PropOp31
 70
     1
102
RTVSPost2010Prop32
280
     0
102
RTVSPost2010PropOp32
 70
     1
102
RTVSPost2010Prop33
280
     0
102
RTVSPost2010PropOp33
 70
     1
102
RTVSPost2010Prop34
280
     0
102
RTVSPost2010PropOp34
 70
     1
102
RTVSPost2010Prop35
280
     0
102
RTVSPost2010PropOp35
 70
     1
102
RTVSPost2010Prop36
280
     0
102
RTVSPost2010PropOp36
 70
     1
102
RTVSPost2010Prop37
 90
       50
102
RTVSPost2010PropOp37
 70
     1
102
RTVSPost2010Prop38
140
0.0
102
RTVSPost2010PropOp38
 70
     1
102
RTVSPost2010Prop39
140
1.0
102
RTVSPost2010PropOp39
 70
     1
102
RTVSPost2010Prop40
 90
        0
102
RTVSPost2010PropOp40
 70
     1
102
RTVSPost2010Prop41ColorIndex
 90
       18
102
RTVSPost2010Prop41ColorRGB
 90
        0
102
RTVSPost2010PropOp41
 70
     1
102
RTVSPost2010Prop42
 90
       50
102
RTVSPost2010PropOp42
 70
     1
102
RTVSPost2010Prop43
 90
        3
102
RTVSPost2010PropOp43
 70
     1
102
RTVSPost2010Prop44ColorIndex
 90
        5
102
RTVSPost2010Prop44ColorRGB
 90
      255
102
RTVSPost2010PropOp44
 70
     1
102
RTVSPost2010Prop45
280
     0
102
RTVSPost2010PropOp45
 70
     1
102
RTVSPost2010Prop46
 90
       50
102
RTVSPost2010PropOp46
 70
     1
102
RTVSPost2010Prop47
 90
       50
102
RTVSPost2010PropOp47
 70
     1
102
RTVSPost2010Prop48
 90
       50
102
RTVSPost2010PropOp48
 70
     1
102
RTVSPost2010Prop49
280
     0
102
RTVSPost2010PropOp49
 70
     1
102
RTVSPost2010Prop50
 90
       50
102
RTVSPost2010PropOp50
 70
     1
102
RTVSPost2010Prop51ColorIndex
 90
      256
102
RTVSPost2010Prop51ColorRGB
 90
-16777216
102
RTVSPost2010PropOp51
 70
     0
102
RTVSPost2010Prop52
140
1.0
102
RTVSPost2010PropOp52
 70
     0
102
RTVSPost2010Prop53
 90
        2
102
RTVSPost2010PropOp53
 70
     1
102
RTVSPost2010Prop54
  1
strokes_ogs.tif
102
RTVSPost2010PropOp54
 70
     1
102
RTVSPost2010Prop55
280
     0
102
RTVSPost2010PropOp55
 70
     1
102
RTVSPost2010Prop56
140
1.0
102
RTVSPost2010PropOp56
 70
     1
102
RTVSPost2010Prop57
140
1.0
102
RTVSPost2010PropOp57
 70
     1
  0
XRECORD
  5
275
102
{ACAD_REACTORS
330
274
102
}
330
274
100
AcDbXrecord
280
     1
102
RTVSPropertyOp0
 70
     1
102
RTVSPropertyOp1
 70
     1
102
RTVSPropertyOp2
 70
     1
102
RTVSPropertyOp3
 70
     1
102
RTVSPropertyOp4
 70
     1
102
RTVSPropertyOp5
 70
     1
102
RTVSPropertyOp6
 70
     1
102
RTVSPropertyOp7
 70
     1
102
RTVSPropertyOp8
 70
     1
102
RTVSPropertyOp9
 70
     1
102
RTVSPropertyOp10
 70
     1
102
RTVSPropertyOp11
 70
     1
102
RTVSPropertyOp12
 70
     1
102
RTVSPropertyOp13
 70
     1
102
RTVSPropertyOp14
 70
     1
102
RTVSPropertyOp15
 70
     1
102
RTVSPropertyOp16
 70
     1
102
RTVSPropertyOp17
 70
     1
102
RTVSPropertyOp18
 70
     1
102
RTVSPropertyOp19
 70
     1
102
RTVSPropertyOp20
 70
     1
102
RTVSPropertyOp21
 70
     1
102
RTVSPropertyOp22
 70
     1
102
RTVSPropertyOp23
 70
     1
102
RTVSPropertyOp24
 70
     1
102
RTVSPropertyOp25
 70
     1
102
RTVSPropertyOp26
 70
     1
102
RTVSPropertyOp27
 70
     1
102
RTVSPropertyOp28
 70
     1
102
RTVSPropertyOp29
 70
     1
102
RTVSPropertyOp30
 70
     1
102
RTVSPropertyOp31
 70
     1
102
RTVSPropertyOp32
 70
     1
102
RTVSPropertyOp33
 70
     1
102
RTVSPropertyOp34
 70
     1
102
RTVSPropertyOp35
 70
     1
102
RTVSPropertyOp36
 70
     1
102
RTVSPropertyOp37
 70
     1
102
RTVSPropertyOp38
 70
     1
102
RTVSPropertyOp39
 70
     1
102
RTVSPropertyOp40
 70
     1
102
RTVSPropertyOp41
 70
     1
102
RTVSPropertyOp42
 70
     1
102
RTVSPropertyOp43
 70
     1
102
RTVSPropertyOp44
 70
     1
102
RTVSPropertyOp45
 70
     1
102
RTVSPropertyOp46
 70
     1
102
RTVSPropertyOp47
 70
     1
102
RTVSPropertyOp48
 70
     1
102
RTVSPropertyOp49
 70
     1
102
RTVSPropertyOp50
 70
     1
102
RTVSPropertyOp51
 70
     0
102
RTVSPropertyOp52
 70
     0
102
RTVSPropertyOp53
 70
     1
102
RTVSPropertyOp54
 70
     1
102
RTVSPropertyOp55
 70
     1
102
RTVSPropertyOp56
 70
     1
102
RTVSPropertyOp57
 70
     1
102
RTVSPost2010Prop28
280
     0
102
RTVSPost2010PropOp28
 70
     1
102
RTVSPost2010Prop29
280
     1
102
RTVSPost2010PropOp29
 70
     1
102
RTVSPost2010Prop30
280
     1
102
RTVSPost2010PropOp30
 70
     1
102
RTVSPost2010Prop31
280
     0
102
RTVSPost2010PropOp31
 70
     1
102
RTVSPost2010Prop32
280
     0
102
RTVSPost2010PropOp32
 70
     1
102
RTVSPost2010Prop33
280
     0
102
RTVSPost2010PropOp33
 70
     1
102
RTVSPost2010Prop34
280
     0
102
RTVSPost2010PropOp34
 70
     1
102
RTVSPost2010Prop35
280
     0
102
RTVSPost2010PropOp35
 70
     1
102
RTVSPost2010Prop36
280
     0
102
RTVSPost2010PropOp36
 70
     1
102
RTVSPost2010Prop37
 90
       50
102
RTVSPost2010PropOp37
 70
     1
102
RTVSPost2010Prop38
140
0.0
102
RTVSPost2010PropOp38
 70
     1
102
RTVSPost2010Prop39
140
1.0
102
RTVSPost2010PropOp39
 70
     1
102
RTVSPost2010Prop40
 90
        0
102
RTVSPost2010PropOp40
 70
     1
102
RTVSPost2010Prop41ColorIndex
 90
       18
102
RTVSPost2010Prop41ColorRGB
 90
        0
102
RTVSPost2010PropOp41
 70
     1
102
RTVSPost2010Prop42
 90
       50
102
RTVSPost2010PropOp42
 70
     1
102
RTVSPost2010Prop43
 90
        3
102
RTVSPost2010PropOp43
 70
     1
102
RTVSPost2010Prop44ColorIndex
 90
        5
102
RTVSPost2010Prop44ColorRGB
 90
      255
102
RTVSPost2010PropOp44
 70
     1
102
RTVSPost2010Prop45
280
     0
102
RTVSPost2010PropOp45
 70
     1
102
RTVSPost2010Prop46
 90
       50
102
RTVSPost2010PropOp46
 70
     1
102
RTVSPost2010Prop47
 90
       50
102
RTVSPost2010PropOp47
 70
     1
102
RTVSPost2010Prop48
 90
       50
102
RTVSPost2010PropOp48
 70
     1
102
RTVSPost2010Prop49
280
     0
102
RTVSPost2010PropOp49
 70
     1
102
RTVSPost2010Prop50
 90
       50
102
RTVSPost2010PropOp50
 70
     1
102
RTVSPost2010Prop51ColorIndex
 90
      256
102
RTVSPost2010Prop51ColorRGB
 90
-16777216
102
RTVSPost2010PropOp51
 70
     0
102
RTVSPost2010Prop52
140
1.0
102
RTVSPost2010PropOp52
 70
     0
102
RTVSPost2010Prop53
 90
        2
102
RTVSPost2010PropOp53
 70
     1
102
RTVSPost2010Prop54
  1
strokes_ogs.tif
102
RTVSPost2010PropOp54
 70
     1
102
RTVSPost2010Prop55
280
     0
102
RTVSPost2010PropOp55
 70
     1
102
RTVSPost2010Prop56
140
1.0
102
RTVSPost2010PropOp56
 70
     1
102
RTVSPost2010Prop57
140
1.0
102
RTVSPost2010PropOp57
 70
     1
  0
XRECORD
  5
267
102
{ACAD_REACTORS
330
266
102
}
330
266
100
AcDbXrecord
280
     1
102
RTVSPropertyOp0
 70
     1
102
RTVSPropertyOp1
 70
     1
102
RTVSPropertyOp2
 70
     1
102
RTVSPropertyOp3
 70
     1
102
RTVSPropertyOp4
 70
     1
102
RTVSPropertyOp5
 70
     1
102
RTVSPropertyOp6
 70
     1
102
RTVSPropertyOp7
 70
     1
102
RTVSPropertyOp8
 70
     1
102
RTVSPropertyOp9
 70
     1
102
RTVSPropertyOp10
 70
     1
102
RTVSPropertyOp11
 70
     1
102
RTVSPropertyOp12
 70
     1
102
RTVSPropertyOp13
 70
     1
102
RTVSPropertyOp14
 70
     1
102
RTVSPropertyOp15
 70
     1
102
RTVSPropertyOp16
 70
     1
102
RTVSPropertyOp17
 70
     1
102
RTVSPropertyOp18
 70
     1
102
RTVSPropertyOp19
 70
     1
102
RTVSPropertyOp20
 70
     1
102
RTVSPropertyOp21
 70
     1
102
RTVSPropertyOp22
 70
     1
102
RTVSPropertyOp23
 70
     1
102
RTVSPropertyOp24
 70
     1
102
RTVSPropertyOp25
 70
     1
102
RTVSPropertyOp26
 70
     1
102
RTVSPropertyOp27
 70
     1
102
RTVSPropertyOp28
 70
     1
102
RTVSPropertyOp29
 70
     1
102
RTVSPropertyOp30
 70
     1
102
RTVSPropertyOp31
 70
     1
102
RTVSPropertyOp32
 70
     1
102
RTVSPropertyOp33
 70
     1
102
RTVSPropertyOp34
 70
     1
102
RTVSPropertyOp35
 70
     1
102
RTVSPropertyOp36
 70
     1
102
RTVSPropertyOp37
 70
     1
102
RTVSPropertyOp38
 70
     1
102
RTVSPropertyOp39
 70
     1
102
RTVSPropertyOp40
 70
     1
102
RTVSPropertyOp41
 70
     1
102
RTVSPropertyOp42
 70
     1
102
RTVSPropertyOp43
 70
     1
102
RTVSPropertyOp44
 70
     1
102
RTVSPropertyOp45
 70
     1
102
RTVSPropertyOp46
 70
     1
102
RTVSPropertyOp47
 70
     1
102
RTVSPropertyOp48
 70
     1
102
RTVSPropertyOp49
 70
     1
102
RTVSPropertyOp50
 70
     1
102
RTVSPropertyOp51
 70
     0
102
RTVSPropertyOp52
 70
     0
102
RTVSPropertyOp53
 70
     1
102
RTVSPropertyOp54
 70
     1
102
RTVSPropertyOp55
 70
     1
102
RTVSPropertyOp56
 70
     1
102
RTVSPropertyOp57
 70
     1
102
RTVSPost2010Prop28
280
     0
102
RTVSPost2010PropOp28
 70
     1
102
RTVSPost2010Prop29
280
     1
102
RTVSPost2010PropOp29
 70
     1
102
RTVSPost2010Prop30
280
     1
102
RTVSPost2010PropOp30
 70
     1
102
RTVSPost2010Prop31
280
     0
102
RTVSPost2010PropOp31
 70
     1
102
RTVSPost2010Prop32
280
     0
102
RTVSPost2010PropOp32
 70
     1
102
RTVSPost2010Prop33
280
     0
102
RTVSPost2010PropOp33
 70
     1
102
RTVSPost2010Prop34
280
     0
102
RTVSPost2010PropOp34
 70
     1
102
RTVSPost2010Prop35
280
     0
102
RTVSPost2010PropOp35
 70
     1
102
RTVSPost2010Prop36
280
     0
102
RTVSPost2010PropOp36
 70
     1
102
RTVSPost2010Prop37
 90
       50
102
RTVSPost2010PropOp37
 70
     1
102
RTVSPost2010Prop38
140
0.0
102
RTVSPost2010PropOp38
 70
     1
102
RTVSPost2010Prop39
140
1.0
102
RTVSPost2010PropOp39
 70
     1
102
RTVSPost2010Prop40
 90
        0
102
RTVSPost2010PropOp40
 70
     1
102
RTVSPost2010Prop41ColorIndex
 90
       18
102
RTVSPost2010Prop41ColorRGB
 90
        0
102
RTVSPost2010PropOp41
 70
     1
102
RTVSPost2010Prop42
 90
       50
102
RTVSPost2010PropOp42
 70
     1
102
RTVSPost2010Prop43
 90
        3
102
RTVSPost2010PropOp43
 70
     1
102
RTVSPost2010Prop44ColorIndex
 90
        5
102
RTVSPost2010Prop44ColorRGB
 90
      255
102
RTVSPost2010PropOp44
 70
     1
102
RTVSPost2010Prop45
280
     0
102
RTVSPost2010PropOp45
 70
     1
102
RTVSPost2010Prop46
 90
       50
102
RTVSPost2010PropOp46
 70
     1
102
RTVSPost2010Prop47
 90
       50
102
RTVSPost2010PropOp47
 70
     1
102
RTVSPost2010Prop48
 90
       50
102
RTVSPost2010PropOp48
 70
     1
102
RTVSPost2010Prop49
280
     0
102
RTVSPost2010PropOp49
 70
     1
102
RTVSPost2010Prop50
 90
       50
102
RTVSPost2010PropOp50
 70
     1
102
RTVSPost2010Prop51ColorIndex
 90
      256
102
RTVSPost2010Prop51ColorRGB
 90
-16777216
102
RTVSPost2010PropOp51
 70
     0
102
RTVSPost2010Prop52
140
1.0
102
RTVSPost2010PropOp52
 70
     0
102
RTVSPost2010Prop53
 90
        2
102
RTVSPost2010PropOp53
 70
     1
102
RTVSPost2010Prop54
  1
strokes_ogs.tif
102
RTVSPost2010PropOp54
 70
     1
102
RTVSPost2010Prop55
280
     0
102
RTVSPost2010PropOp55
 70
     1
102
RTVSPost2010Prop56
140
1.0
102
RTVSPost2010PropOp56
 70
     1
102
RTVSPost2010Prop57
140
1.0
102
RTVSPost2010PropOp57
 70
     1
  0
XRECORD
  5
287
102
{ACAD_REACTORS
330
286
102
}
330
286
100
AcDbXrecord
280
     1
102
RTVSPropertyOp0
 70
     1
102
RTVSPropertyOp1
 70
     1
102
RTVSPropertyOp2
 70
     1
102
RTVSPropertyOp3
 70
     1
102
RTVSPropertyOp4
 70
     1
102
RTVSPropertyOp5
 70
     1
102
RTVSPropertyOp6
 70
     1
102
RTVSPropertyOp7
 70
     1
102
RTVSPropertyOp8
 70
     1
102
RTVSPropertyOp9
 70
     1
102
RTVSPropertyOp10
 70
     1
102
RTVSPropertyOp11
 70
     1
102
RTVSPropertyOp12
 70
     1
102
RTVSPropertyOp13
 70
     1
102
RTVSPropertyOp14
 70
     1
102
RTVSPropertyOp15
 70
     1
102
RTVSPropertyOp16
 70
     1
102
RTVSPropertyOp17
 70
     1
102
RTVSPropertyOp18
 70
     1
102
RTVSPropertyOp19
 70
     1
102
RTVSPropertyOp20
 70
     1
102
RTVSPropertyOp21
 70
     1
102
RTVSPropertyOp22
 70
     1
102
RTVSPropertyOp23
 70
     1
102
RTVSPropertyOp24
 70
     1
102
RTVSPropertyOp25
 70
     1
102
RTVSPropertyOp26
 70
     1
102
RTVSPropertyOp27
 70
     1
102
RTVSPropertyOp28
 70
     1
102
RTVSPropertyOp29
 70
     1
102
RTVSPropertyOp30
 70
     1
102
RTVSPropertyOp31
 70
     1
102
RTVSPropertyOp32
 70
     1
102
RTVSPropertyOp33
 70
     1
102
RTVSPropertyOp34
 70
     1
102
RTVSPropertyOp35
 70
     1
102
RTVSPropertyOp36
 70
     1
102
RTVSPropertyOp37
 70
     1
102
RTVSPropertyOp38
 70
     1
102
RTVSPropertyOp39
 70
     1
102
RTVSPropertyOp40
 70
     1
102
RTVSPropertyOp41
 70
     1
102
RTVSPropertyOp42
 70
     1
102
RTVSPropertyOp43
 70
     1
102
RTVSPropertyOp44
 70
     1
102
RTVSPropertyOp45
 70
     1
102
RTVSPropertyOp46
 70
     1
102
RTVSPropertyOp47
 70
     1
102
RTVSPropertyOp48
 70
     1
102
RTVSPropertyOp49
 70
     1
102
RTVSPropertyOp50
 70
     1
102
RTVSPropertyOp51
 70
     0
102
RTVSPropertyOp52
 70
     0
102
RTVSPropertyOp53
 70
     1
102
RTVSPropertyOp54
 70
     1
102
RTVSPropertyOp55
 70
     1
102
RTVSPropertyOp56
 70
     1
102
RTVSPropertyOp57
 70
     1
102
RTVSPost2010Prop28
280
     0
102
RTVSPost2010PropOp28
 70
     1
102
RTVSPost2010Prop29
280
     1
102
RTVSPost2010PropOp29
 70
     1
102
RTVSPost2010Prop30
280
     1
102
RTVSPost2010PropOp30
 70
     1
102
RTVSPost2010Prop31
280
     0
102
RTVSPost2010PropOp31
 70
     1
102
RTVSPost2010Prop32
280
     0
102
RTVSPost2010PropOp32
 70
     1
102
RTVSPost2010Prop33
280
     0
102
RTVSPost2010PropOp33
 70
     1
102
RTVSPost2010Prop34
280
     0
102
RTVSPost2010PropOp34
 70
     1
102
RTVSPost2010Prop35
280
     0
102
RTVSPost2010PropOp35
 70
     1
102
RTVSPost2010Prop36
280
     0
102
RTVSPost2010PropOp36
 70
     1
102
RTVSPost2010Prop37
 90
       50
102
RTVSPost2010PropOp37
 70
     1
102
RTVSPost2010Prop38
140
0.0
102
RTVSPost2010PropOp38
 70
     1
102
RTVSPost2010Prop39
140
1.0
102
RTVSPost2010PropOp39
 70
     1
102
RTVSPost2010Prop40
 90
        0
102
RTVSPost2010PropOp40
 70
     1
102
RTVSPost2010Prop41ColorIndex
 90
       18
102
RTVSPost2010Prop41ColorRGB
 90
        0
102
RTVSPost2010PropOp41
 70
     1
102
RTVSPost2010Prop42
 90
       50
102
RTVSPost2010PropOp42
 70
     1
102
RTVSPost2010Prop43
 90
        3
102
RTVSPost2010PropOp43
 70
     1
102
RTVSPost2010Prop44ColorIndex
 90
        5
102
RTVSPost2010Prop44ColorRGB
 90
      255
102
RTVSPost2010PropOp44
 70
     1
102
RTVSPost2010Prop45
280
     0
102
RTVSPost2010PropOp45
 70
     1
102
RTVSPost2010Prop46
 90
       50
102
RTVSPost2010PropOp46
 70
     1
102
RTVSPost2010Prop47
 90
       50
102
RTVSPost2010PropOp47
 70
     1
102
RTVSPost2010Prop48
 90
       50
102
RTVSPost2010PropOp48
 70
     1
102
RTVSPost2010Prop49
280
     0
102
RTVSPost2010PropOp49
 70
     1
102
RTVSPost2010Prop50
 90
       50
102
RTVSPost2010PropOp50
 70
     1
102
RTVSPost2010Prop51ColorIndex
 90
      256
102
RTVSPost2010Prop51ColorRGB
 90
-16777216
102
RTVSPost2010PropOp51
 70
     0
102
RTVSPost2010Prop52
140
1.0
102
RTVSPost2010PropOp52
 70
     0
102
RTVSPost2010Prop53
 90
        2
102
RTVSPost2010PropOp53
 70
     1
102
RTVSPost2010Prop54
  1
strokes_ogs.tif
102
RTVSPost2010PropOp54
 70
     1
102
RTVSPost2010Prop55
280
     0
102
RTVSPost2010PropOp55
 70
     1
102
RTVSPost2010Prop56
140
1.0
102
RTVSPost2010PropOp56
 70
     1
102
RTVSPost2010Prop57
140
1.0
102
RTVSPost2010PropOp57
 70
     1
  0
ENDSEC
  0
EOF
