  0
SECTION
  2
HEADER
  9
$ACADVER
  1
AC1015
  9
$ACADMAINTVER
 70
     6
  9
$DWGCODEPAGE
  3
ANSI_1252
  9
$INSBASE
 10
0.0
 20
0.0
 30
0.0
  9
$EXTMIN
 10
-7.040723
 20
-34.609238
 30
0.0
  9
$EXTMAX
 10
315.148926
 20
323.848572
 30
0.0
  9
$LIMMIN
 10
-7.040723
 20
-34.609238
  9
$LIMMAX
 10
315.148926
 20
323.848572
  9
$ORTHOMODE
 70
     0
  9
$REGENMODE
 70
     1
  9
$FILLMODE
 70
     1
  9
$QTEXTMODE
 70
     0
  9
$MIRRTEXT
 70
     1
  9
$LTSCALE
 40
1.0
  9
$ATTMODE
 70
     1
  9
$TEXTSIZE
 40
2.5
  9
$TRACEWID
 40
1.0
  9
$TEXTSTYLE
  7
Standard
  9
$CLAYER
  8
0
  9
$CELTYPE
  6
ByLayer
  9
$CECOLOR
 62
   256
  9
$CELTSCALE
 40
1.0
  9
$DISPSILH
 70
     0
  9
$DIMSCALE
 40
1.0
  9
$DIMASZ
 40
2.5
  9
$DIMEXO
 40
0.625
  9
$DIMDLI
 40
3.75
  9
$DIMRND
 40
0.0
  9
$DIMDLE
 40
0.0
  9
$DIMEXE
 40
1.25
  9
$DIMTP
 40
0.0
  9
$DIMTM
 40
0.0
  9
$DIMTXT
 40
2.5
  9
$DIMCEN
 40
2.5
  9
$DIMTSZ
 40
0.0
  9
$DIMTOL
 70
     0
  9
$DIMLIM
 70
     0
  9
$DIMTIH
 70
     0
  9
$DIMTOH
 70
     0
  9
$DIMSE1
 70
     0
  9
$DIMSE2
 70
     0
  9
$DIMTAD
 70
     1
  9
$DIMZIN
 70
     8
  9
$DIMBLK
  1

  9
$DIMASO
 70
     1
  9
$DIMSHO
 70
     1
  9
$DIMPOST
  1

  9
$DIMAPOST
  1

  9
$DIMALT
 70
     0
  9
$DIMALTD
 70
     3
  9
$DIMALTF
 40
0.03937
  9
$DIMLFAC
 40
1.0
  9
$DIMTOFL
 70
     1
  9
$DIMTVP
 40
0.0
  9
$DIMTIX
 70
     0
  9
$DIMSOXD
 70
     0
  9
$DIMSAH
 70
     0
  9
$DIMBLK1
  1

  9
$DIMBLK2
  1

  9
$DIMSTYLE
  2
ISO-25
  9
$DIMCLRD
 70
     0
  9
$DIMCLRE
 70
     0
  9
$DIMCLRT
 70
     0
  9
$DIMTFAC
 40
1.0
  9
$DIMGAP
 40
0.625
  9
$DIMJUST
 70
     0
  9
$DIMSD1
 70
     0
  9
$DIMSD2
 70
     0
  9
$DIMTOLJ
 70
     0
  9
$DIMTZIN
 70
     8
  9
$DIMALTZ
 70
     0
  9
$DIMALTTZ
 70
     0
  9
$DIMUPT
 70
     0
  9
$DIMDEC
 70
     2
  9
$DIMTDEC
 70
     2
  9
$DIMALTU
 70
     2
  9
$DIMALTTD
 70
     3
  9
$DIMTXSTY
  7
Standard
  9
$DIMAUNIT
 70
     0
  9
$DIMADEC
 70
     0
  9
$DIMALTRND
 40
0.0
  9
$DIMAZIN
 70
     0
  9
$DIMDSEP
 70
    44
  9
$DIMATFIT
 70
     3
  9
$DIMFRAC
 70
     0
  9
$DIMLDRBLK
  1

  9
$DIMLUNIT
 70
     2
  9
$DIMLWD
 70
    -2
  9
$DIMLWE
 70
    -2
  9
$DIMTMOVE
 70
     0
  9
$LUNITS
 70
     2
  9
$LUPREC
 70
     4
  9
$SKETCHINC
 40
1.0
  9
$FILLETRAD
 40
10.0
  9
$AUNITS
 70
     0
  9
$AUPREC
 70
     0
  9
$MENU
  1
.
  9
$ELEVATION
 40
0.0
  9
$PELEVATION
 40
0.0
  9
$THICKNESS
 40
0.0
  9
$LIMCHECK
 70
     0
  9
$CHAMFERA
 40
0.0
  9
$CHAMFERB
 40
0.0
  9
$CHAMFERC
 40
0.0
  9
$CHAMFERD
 40
0.0
  9
$SKPOLY
 70
     0
  9
$TDCREATE
 40
2459104.403241644
  9
$TDUCREATE
 40
2459104.31990831
  9
$TDUPDATE
 40
2459104.403242188
  9
$TDUUPDATE
 40
2459104.319908854
  9
$TDINDWG
 40
0.0000000116
  9
$TDUSRTIMER
 40
0.0000000116
  9
$USRTIMER
 70
     1
  9
$ANGBASE
 50
0.0
  9
$ANGDIR
 70
     0
  9
$PDMODE
 70
     0
  9
$PDSIZE
 40
0.0
  9
$PLINEWID
 40
0.0
  9
$SPLFRAME
 70
     0
  9
$SPLINETYPE
 70
     6
  9
$SPLINESEGS
 70
     8
  9
$HANDSEED
  5
1E2
  9
$SURFTAB1
 70
     6
  9
$SURFTAB2
 70
     6
  9
$SURFTYPE
 70
     6
  9
$SURFU
 70
     6
  9
$SURFV
 70
     6
  9
$UCSBASE
  2

  9
$UCSNAME
  2

  9
$UCSORG
 10
0.0
 20
0.0
 30
0.0
  9
$UCSXDIR
 10
1.0
 20
0.0
 30
0.0
  9
$UCSYDIR
 10
0.0
 20
1.0
 30
0.0
  9
$UCSORTHOREF
  2

  9
$UCSORTHOVIEW
 70
     0
  9
$UCSORGTOP
 10
0.0
 20
0.0
 30
0.0
  9
$UCSORGBOTTOM
 10
0.0
 20
0.0
 30
0.0
  9
$UCSORGLEFT
 10
0.0
 20
0.0
 30
0.0
  9
$UCSORGRIGHT
 10
0.0
 20
0.0
 30
0.0
  9
$UCSORGFRONT
 10
0.0
 20
0.0
 30
0.0
  9
$UCSORGBACK
 10
0.0
 20
0.0
 30
0.0
  9
$PUCSBASE
  2

  9
$PUCSNAME
  2

  9
$PUCSORG
 10
0.0
 20
0.0
 30
0.0
  9
$PUCSXDIR
 10
1.0
 20
0.0
 30
0.0
  9
$PUCSYDIR
 10
0.0
 20
1.0
 30
0.0
  9
$PUCSORTHOREF
  2

  9
$PUCSORTHOVIEW
 70
     0
  9
$PUCSORGTOP
 10
0.0
 20
0.0
 30
0.0
  9
$PUCSORGBOTTOM
 10
0.0
 20
0.0
 30
0.0
  9
$PUCSORGLEFT
 10
0.0
 20
0.0
 30
0.0
  9
$PUCSORGRIGHT
 10
0.0
 20
0.0
 30
0.0
  9
$PUCSORGFRONT
 10
0.0
 20
0.0
 30
0.0
  9
$PUCSORGBACK
 10
0.0
 20
0.0
 30
0.0
  9
$USERI1
 70
     0
  9
$USERI2
 70
     0
  9
$USERI3
 70
     0
  9
$USERI4
 70
     0
  9
$USERI5
 70
     0
  9
$USERR1
 40
0.0
  9
$USERR2
 40
0.0
  9
$USERR3
 40
0.0
  9
$USERR4
 40
0.0
  9
$USERR5
 40
0.0
  9
$WORLDVIEW
 70
     1
  9
$SHADEDGE
 70
     3
  9
$SHADEDIF
 70
    70
  9
$TILEMODE
 70
     1
  9
$MAXACTVP
 70
    64
  9
$PINSBASE
 10
0.0
 20
0.0
 30
0.0
  9
$PLIMCHECK
 70
     0
  9
$PEXTMIN
 10
1.000000E+20
 20
1.000000E+20
 30
1.000000E+20
  9
$PEXTMAX
 10
-1.000000E+20
 20
-1.000000E+20
 30
-1.000000E+20
  9
$PLIMMIN
 10
0.0
 20
0.0
  9
$PLIMMAX
 10
420.0
 20
297.0
  9
$UNITMODE
 70
     0
  9
$VISRETAIN
 70
     1
  9
$PLINEGEN
 70
     0
  9
$PSLTSCALE
 70
     1
  9
$TREEDEPTH
 70
  3020
  9
$CMLSTYLE
  2
Standard
  9
$CMLJUST
 70
     0
  9
$CMLSCALE
 40
20.0
  9
$PROXYGRAPHICS
 70
     1
  9
$MEASUREMENT
 70
     1
  9
$CELWEIGHT
370
    -1
  9
$ENDCAPS
280
     0
  9
$JOINSTYLE
280
     0
  9
$LWDISPLAY
290
     0
  9
$INSUNITS
 70
     4
  9
$HYPERLINKBASE
  1

  9
$STYLESHEET
  1

  9
$XEDIT
290
     1
  9
$CEPSNTYPE
380
     0
  9
$PSTYLEMODE
290
     1
  9
$FINGERPRINTGUID
  2
{7458daf6-42f3-4e96-92ed-274fe4e13773}
  9
$VERSIONGUID
  2
{FAEB1C32-E019-11D5-929B-00C0DF256EC4}
  9
$EXTNAMES
290
     1
  9
$PSVPSCALE
 40
0.0
  9
$OLESTARTUP
290
     0
  0
ENDSEC
  0
SECTION
  2
CLASSES
  0
CLASS
  1
ACDBDICTIONARYWDFLT
  2
AcDbDictionaryWithDefault
  3
ObjectDBX Classes
 90
        0
280
     0
281
     0
  0
CLASS
  1
VISUALSTYLE
  2
AcDbVisualStyle
  3
ObjectDBX Classes
 90
     4095
280
     0
281
     0
  0
CLASS
  1
MATERIAL
  2
AcDbMaterial
  3
ObjectDBX Classes
 90
     1153
280
     0
281
     0
  0
CLASS
  1
SCALE
  2
AcDbScale
  3
ObjectDBX Classes
 90
     1153
280
     0
281
     0
  0
CLASS
  1
TABLESTYLE
  2
AcDbTableStyle
  3
ObjectDBX Classes
 90
     4095
280
     0
281
     0
  0
CLASS
  1
MLEADERSTYLE
  2
AcDbMLeaderStyle
  3
ACDB_MLEADERSTYLE_CLASS
 90
     4095
280
     0
281
     0
  0
CLASS
  1
SUN
  2
AcDbSun
  3
SCENEOE
 90
     1153
280
     0
281
     0
  0
CLASS
  1
DICTIONARYVAR
  2
AcDbDictionaryVar
  3
ObjectDBX Classes
 90
        0
280
     0
281
     0
  0
CLASS
  1
ACDBPLACEHOLDER
  2
AcDbPlaceHolder
  3
ObjectDBX Classes
 90
        0
280
     0
281
     0
  0
CLASS
  1
LAYOUT
  2
AcDbLayout
  3
ObjectDBX Classes
 90
        0
280
     0
281
     0
  0
ENDSEC
  0
SECTION
  2
TABLES
  0
TABLE
  2
VPORT
  5
8
102
{ACAD_XDICTIONARY
360
1A5
102
}
330
0
100
AcDbSymbolTable
 70
     1
  0
VPORT
  5
29
330
8
100
AcDbSymbolTableRecord
100
AcDbViewportTableRecord
  2
*Active
 70
     0
 10
0.0
 20
0.0
 11
1.0
 21
1.0
 12
344.186916
 22
148.5
 13
0.0
 23
0.0
 14
10.0
 24
10.0
 15
10.0
 25
10.0
 16
0.0
 26
0.0
 36
1.0
 17
0.0
 27
0.0
 37
0.0
 40
297.0
 41
1.972973
 42
50.0
 43
0.0
 44
0.0
 50
0.0
 51
0.0
 71
     0
 72
   100
 73
     1
 74
     3
 75
     0
 76
     0
 77
     0
 78
     0
281
     0
 65
     1
110
0.0
120
0.0
130
0.0
111
1.0
121
0.0
131
0.0
112
0.0
122
1.0
132
0.0
 79
     0
146
0.0
  0
ENDTAB
  0
TABLE
  2
LTYPE
  5
5
330
0
100
AcDbSymbolTable
 70
     1
  0
LTYPE
  5
14
330
5
100
AcDbSymbolTableRecord
100
AcDbLinetypeTableRecord
  2
ByBlock
 70
     0
  3

 72
    65
 73
     0
 40
0.0
  0
LTYPE
  5
15
330
5
100
AcDbSymbolTableRecord
100
AcDbLinetypeTableRecord
  2
ByLayer
 70
     0
  3

 72
    65
 73
     0
 40
0.0
  0
LTYPE
  5
16
330
5
100
AcDbSymbolTableRecord
100
AcDbLinetypeTableRecord
  2
Continuous
 70
     0
  3
Solid line
 72
    65
 73
     0
 40
0.0
  0
ENDTAB
  0
TABLE
  2
LAYER
  5
2
330
0
100
AcDbSymbolTable
 70
     1
  0
LAYER
  5
10
330
2
100
AcDbSymbolTableRecord
100
AcDbLayerTableRecord
  2
0
 70
     0
 62
   106
  6
Continuous
370
     0
390
F
  0
ENDTAB
  0
TABLE
  2
STYLE
  5
3
330
0
100
AcDbSymbolTable
 70
     4
  0
STYLE
  5
11
330
3
100
AcDbSymbolTableRecord
100
AcDbTextStyleTableRecord
  2
Standard
 70
     0
 40
0.0
 41
1.0
 50
0.0
 71
     0
 42
2.5
  3
txt
  4

  0
STYLE
  5
6E
330
3
100
AcDbSymbolTableRecord
100
AcDbTextStyleTableRecord
  2
Default
 70
     0
 40
0.0
 41
1.0
 50
0.0
 71
     0
 42
2.5
  3

  4

1001
ACAD
1000
txt
1071
        0
  0
STYLE
  5
6F
330
3
100
AcDbSymbolTableRecord
100
AcDbTextStyleTableRecord
  2
ISO
 70
     0
 40
0.0
 41
1.0
 50
0.0
 71
     0
 42
2.5
  3

  4

1001
ACAD
1000
txt
1071
        0
  0
STYLE
  5
70
330
3
100
AcDbSymbolTableRecord
100
AcDbTextStyleTableRecord
  2
zucchetti
 70
     0
 40
0.0
 41
1.0
 50
0.0
 71
     0
 42
2.5
  3

  4

1001
ACAD
1000
Arial
1071
        0
  0
ENDTAB
  0
TABLE
  2
VIEW
  5
6
330
0
100
AcDbSymbolTable
 70
     0
  0
ENDTAB
  0
TABLE
  2
UCS
  5
7
330
0
100
AcDbSymbolTable
 70
     0
  0
ENDTAB
  0
TABLE
  2
APPID
  5
9
330
0
100
AcDbSymbolTable
 70
     2
  0
APPID
  5
12
330
9
100
AcDbSymbolTableRecord
100
AcDbRegAppTableRecord
  2
ACAD
 70
     0
  0
APPID
  5
1DF
330
9
100
AcDbSymbolTableRecord
100
AcDbRegAppTableRecord
  2
ACAD_MLEADERVER
 70
     0
  0
ENDTAB
  0
TABLE
  2
DIMSTYLE
  5
A
330
0
100
AcDbSymbolTable
 70
     4
100
AcDbDimStyleTable
  0
DIMSTYLE
105
27
330
A
100
AcDbSymbolTableRecord
100
AcDbDimStyleTableRecord
  2
ISO-25
 70
     0
 41
2.5
 42
0.625
 43
3.75
 44
1.25
 73
     0
 74
     0
 77
     1
 78
     8
140
2.5
141
2.5
143
0.03937
147
0.625
171
     3
172
     1
178
     0
271
     2
272
     2
274
     3
278
    44
283
     0
284
     8
340
11
  0
DIMSTYLE
105
71
330
A
100
AcDbSymbolTableRecord
100
AcDbDimStyleTableRecord
  2
Default
 70
     0
  3
<>
 41
4.375
 42
1.05
 44
2.1
 73
     0
 74
     0
 77
     1
 78
     8
140
3.5
146
0.4
147
1.75
172
     1
271
     2
178
     3
271
     2
272
     3
284
     8
340
6E
341
72
342
72
  0
DIMSTYLE
105
79
330
A
100
AcDbSymbolTableRecord
100
AcDbDimStyleTableRecord
  2
ISO
 70
     0
  3
<>
 41
4.375
 42
1.05
 44
2.1
 73
     0
 74
     0
 77
     1
 78
     8
140
3.5
146
0.4
147
1.75
172
     1
271
     2
178
     3
271
     2
272
     3
284
     8
340
6F
341
72
342
72
  0
DIMSTYLE
105
7A
330
A
100
AcDbSymbolTableRecord
100
AcDbDimStyleTableRecord
  2
zucchetti
 70
     0
  3
<>
 41
3.0
 42
0.9
 44
1.8
 73
     0
 74
     0
 77
     1
 78
     8
140
3.0
146
0.6
147
1.5
172
     1
176
     3
177
     3
271
     2
178
     3
271
     2
272
     2
284
     8
340
70
  0
ENDTAB
  0
TABLE
  2
BLOCK_RECORD
  5
1
330
0
100
AcDbSymbolTable
 70
     8
  0
BLOCK_RECORD
  5
1F
330
1
100
AcDbSymbolTableRecord
100
AcDbBlockTableRecord
  2
*Model_Space
340
22
  0
BLOCK_RECORD
  5
1B
330
1
100
AcDbSymbolTableRecord
100
AcDbBlockTableRecord
  2
*Paper_Space
340
1E
  0
BLOCK_RECORD
  5
23
330
1
100
AcDbSymbolTableRecord
100
AcDbBlockTableRecord
  2
*Paper_Space0
340
26
  0
BLOCK_RECORD
  5
72
330
1
100
AcDbSymbolTableRecord
100
AcDbBlockTableRecord
  2
_Closed
340
0
  0
BLOCK_RECORD
  5
7B
330
1
100
AcDbSymbolTableRecord
100
AcDbBlockTableRecord
  2
a
340
0
102
{BLKREFS
331
98
102
}
  0
BLOCK_RECORD
  5
99
330
1
100
AcDbSymbolTableRecord
100
AcDbBlockTableRecord
  2
b
340
0
102
{BLKREFS
331
CA
102
}
  0
BLOCK_RECORD
  5
CB
330
1
100
AcDbSymbolTableRecord
100
AcDbBlockTableRecord
  2
c
340
0
102
{BLKREFS
331
FD
102
}
  0
BLOCK_RECORD
  5
FE
330
1
100
AcDbSymbolTableRecord
100
AcDbBlockTableRecord
  2
d
340
0
102
{BLKREFS
331
118
102
}
  0
BLOCK_RECORD
  5
119
330
1
100
AcDbSymbolTableRecord
100
AcDbBlockTableRecord
  2
e
340
0
102
{BLKREFS
331
161
102
}
  0
BLOCK_RECORD
  5
162
330
1
100
AcDbSymbolTableRecord
100
AcDbBlockTableRecord
  2
f
340
0
102
{BLKREFS
331
199
102
}
  0
ENDTAB
  0
ENDSEC
  0
SECTION
  2
BLOCKS
  0
BLOCK
  5
20
330
1F
100
AcDbEntity
  8
0
100
AcDbBlockBegin
  2
*Model_Space
 70
     0
 10
0.0
 20
0.0
 30
0.0
  3
*Model_Space
  1

  0
ENDBLK
  5
21
330
1F
100
AcDbEntity
  8
0
100
AcDbBlockEnd
  0
BLOCK
  5
1C
330
1B
100
AcDbEntity
 67
     1
  8
0
100
AcDbBlockBegin
  2
*Paper_Space
 70
     0
 10
0.0
 20
0.0
 30
0.0
  3
*Paper_Space
  1

  0
ENDBLK
  5
1D
330
1B
100
AcDbEntity
 67
     1
  8
0
100
AcDbBlockEnd
  0
BLOCK
  5
24
330
23
100
AcDbEntity
  8
0
100
AcDbBlockBegin
  2
*Paper_Space0
 70
     0
 10
0.0
 20
0.0
 30
0.0
  3
*Paper_Space0
  1

  0
ENDBLK
  5
25
330
23
100
AcDbEntity
  8
0
100
AcDbBlockEnd
  0
BLOCK
  5
73
330
72
100
AcDbEntity
  8
0
100
AcDbBlockBegin
  2
_Closed
 70
     0
 10
0.0
 20
0.0
 30
0.0
  3
_Closed
  1

  0
LINE
  5
75
330
72
100
AcDbEntity
  8
0
  6
ByBlock
 62
     0
370
    -2
100
AcDbLine
 10
-1.0
 20
0.166667
 30
0.0
 11
0.0
 21
0.0
 31
0.0
  0
LINE
  5
76
330
72
100
AcDbEntity
  8
0
  6
ByBlock
 62
     0
370
    -2
100
AcDbLine
 10
0.0
 20
0.0
 30
0.0
 11
-1.0
 21
-0.166667
 31
0.0
  0
LINE
  5
77
330
72
100
AcDbEntity
  8
0
  6
ByBlock
 62
     0
370
    -2
100
AcDbLine
 10
-1.0
 20
0.166667
 30
0.0
 11
-1.0
 21
-0.166667
 31
0.0
  0
LINE
  5
78
330
72
100
AcDbEntity
  8
0
  6
ByBlock
 62
     0
370
    -2
100
AcDbLine
 10
0.0
 20
0.0
 30
0.0
 11
-1.0
 21
0.0
 31
0.0
  0
ENDBLK
  5
74
330
72
100
AcDbEntity
  8
0
100
AcDbBlockEnd
  0
BLOCK
  5
96
330
7B
100
AcDbEntity
  8
0
100
AcDbBlockBegin
  2
a
 70
     0
 10
108.537781
 20
37.388023
 30
0.0
  3
a
  1

  0
ARC
  5
7C
330
7B
100
AcDbEntity
  8
0
  6
Continuous
 62
     0
370
    30
100
AcDbCircle
 10
139.737903
 20
183.651615
 30
0.0
 40
12.49999999999723
100
AcDbArc
 50
310.450604
 51
229.549434
  0
SPLINE
  5
7D
330
7B
100
AcDbEntity
  8
0
  6
Continuous
 62
     0
370
     0
100
AcDbSpline
210
0.0
220
0.0
230
1.0
 70
     8
 71
     3
 72
     9
 73
     5
 74
     0
 42
0.000000001
 43
0.0
 40
0.0
 40
0.0
 40
0.0
 40
0.0
 40
13.58255074094018
 40
40.81374876582646
 40
40.81374876582646
 40
40.81374876582646
 40
40.81374876582646
 10
141.9671058740362
 20
125.9964319865319
 30
0.0
 10
142.0669918798798
 20
130.5229029021746
 30
0.0
 10
142.3799552323838
 20
144.1240708760743
 30
0.0
 10
142.7126123066215
 20
157.7247920094906
 30
0.0
 10
142.9293285075397
 20
166.7993980212855
 30
0.0
  0
ELLIPSE
  5
7E
330
7B
100
AcDbEntity
  8
0
  6
Continuous
 62
     0
370
     0
100
AcDbEllipse
 10
142.844837
 20
166.799398
 30
0.0
 11
-1.499594770987193
 21
0.03486434895234575
 31
0.0
210
0.0
220
0.0
230
-1.0
 40
0.001311
 41
1.627138740925847
 42
3.16743970419002
  0
LINE
  5
7F
330
7B
100
AcDbEntity
  8
0
  6
Continuous
 62
     0
370
     0
100
AcDbLine
 10
139.737903
 20
119.198538
 30
0.0
 11
139.737903
 21
120.698538
 31
0.0
  0
SPLINE
  5
80
330
7B
100
AcDbEntity
  8
0
  6
Continuous
 62
     0
370
     0
100
AcDbSpline
210
0.0
220
0.0
230
1.0
 70
     8
 71
     3
 72
    18
 73
    14
 74
     0
 42
0.000000001
 43
0.0
 40
0.0
 40
0.0
 40
0.0
 40
0.0
 40
0.7040270164530424
 40
1.295759034053318
 40
1.633227194692992
 40
1.882695714651265
 40
2.085978384419887
 40
2.399476426375227
 40
2.76062993912089
 40
3.281803497912946
 40
3.731036026613197
 40
4.746184634738002
 40
6.511452760270865
 40
6.511452760270865
 40
6.511452760270865
 40
6.511452760270865
 10
139.7378828931241
 20
120.6985381287744
 30
0.0
 10
139.9789418412624
 20
120.6985380352714
 30
0.0
 10
140.4239234403582
 20
120.7576044626484
 30
0.0
 10
140.9344637686117
 20
120.9932692799598
 30
0.0
 10
141.2542641383986
 20
121.233839952838
 30
0.0
 10
141.4483260476019
 20
121.4192735126395
 30
0.0
 10
141.5847673292087
 20
121.6392106500793
 30
0.0
 10
141.689537000138
 20
121.9145261363982
 30
0.0
 10
141.7784318159576
 20
122.3042820109643
 30
0.0
 10
141.8290909328927
 20
122.7458356291472
 30
0.0
 10
141.8716776173033
 20
123.4063752204825
 30
0.0
 10
141.9238092809871
 20
124.4817798795036
 30
0.0
 10
141.9541241016445
 20
125.4081452220692
 30
0.0
 10
141.9671058740362
 20
125.9964319865319
 30
0.0
  0
SPLINE
  5
81
330
7B
100
AcDbEntity
  8
0
  6
Continuous
 62
     0
370
     0
100
AcDbSpline
210
0.0
220
0.0
230
1.0
 70
     8
 71
     3
 72
    18
 73
    14
 74
     0
 42
0.000000001
 43
0.0
 40
0.0
 40
0.0
 40
0.0
 40
0.0
 40
0.7053013782976192
 40
1.296959495443253
 40
1.634382838388779
 40
1.883610187121511
 40
2.087346532206342
 40
2.401618726294815
 40
2.763513020913489
 40
3.286720618600657
 40
3.737699336988029
 40
4.753410594080074
 40
6.511446442014064
 40
6.511446442014064
 40
6.511446442014064
 40
6.511446442014064
 10
139.7378813828381
 20
120.6985381287752
 30
0.0
 10
139.4963860930276
 20
120.6985382901512
 30
0.0
 10
139.0509793859261
 20
120.757765736495
 30
0.0
 10
138.5402499064732
 20
120.9939267582159
 30
0.0
 10
138.2206348566865
 20
121.2345397114003
 30
0.0
 10
138.0266956569799
 20
121.420176066561
 30
0.0
 10
137.8903422140706
 20
121.6405569433081
 30
0.0
 10
137.7856094790035
 20
121.9165814460129
 30
0.0
 10
137.696768975776
 20
122.3075627360893
 30
0.0
 10
137.6462671870952
 20
122.7506488068996
 30
0.0
 10
137.6037892210152
 20
123.4126438067734
 30
0.0
 10
137.5517666914177
 20
124.4864102572623
 30
0.0
 10
137.5215896513941
 20
125.410555562467
 30
0.0
 10
137.5086611606054
 20
125.9964321260856
 30
0.0
  0
ELLIPSE
  5
82
330
7B
100
AcDbEntity
  8
0
  6
Continuous
 62
     0
370
     0
100
AcDbEllipse
 10
137.567712
 20
125.996432
 30
0.0
 11
1.499653993623649
 21
0.03221644624480967
 31
0.0
210
0.0
220
0.0
230
1.0
 40
0.000846
 41
1.610164314990935
 42
3.159428810798237
  0
SPLINE
  5
83
330
7B
100
AcDbEntity
  8
0
  6
Continuous
 62
     0
370
     0
100
AcDbSpline
210
0.0
220
0.0
230
1.0
 70
     8
 71
     3
 72
    31
 73
    27
 74
     0
 42
0.000000001
 43
0.0
 40
0.0
 40
0.0
 40
0.0
 40
0.0
 40
1.944818689850858
 40
3.879518989130776
 40
5.805642800460687
 40
7.725571429675663
 40
9.642265420132297
 40
11.55909434387184
 40
13.4793174695907
 40
15.40586401667402
 40
17.34099563188875
 40
19.28673070470717
 40
23.18505413553117
 40
27.1036091078416
 40
31.02216571618501
 40
34.92075349536309
 40
36.86614307564447
 40
38.80138421432545
 40
40.72795329880143
 40
42.64816249845496
 40
44.56496741876284
 40
46.48166050162648
 40
48.40160928734618
 40
50.32774407353268
 40
52.26241633936342
 40
54.20721767921935
 40
54.20721767921935
 40
54.20721767921935
 40
54.20721767921935
 10
147.0710251703333
 20
175.280993778956
 30
0.0
 10
147.5678329023708
 20
175.6922532706139
 30
0.0
 10
148.489566315729
 20
176.5999352011736
 30
0.0
 10
149.6108026491931
 20
178.1769789789793
 30
0.0
 10
150.4362677345151
 20
179.9224345778504
 30
0.0
 10
150.9387572270256
 20
181.784530948286
 30
0.0
 10
151.101971627954
 20
183.7058701826546
 30
0.0
 10
150.9195477966705
 20
185.6254849998048
 30
0.0
 10
150.3982625534262
 20
187.4825735161717
 30
0.0
 10
149.5552921632888
 20
189.2195210501245
 30
0.0
 10
148.4179487437662
 20
190.7866683830945
 30
0.0
 10
146.5551502796452
 20
192.5852206052998
 30
0.0
 10
143.6680763851631
 20
194.2044961542876
 30
0.0
 10
139.7378117953239
 20
194.8757263054979
 30
0.0
 10
135.8076914822585
 20
194.2042896825557
 30
0.0
 10
132.9201231123063
 20
192.5856082629992
 30
0.0
 10
131.0581308850236
 20
190.7862616519091
 30
0.0
 10
129.920116557008
 20
189.2197252389031
 30
0.0
 10
129.0775989319231
 20
187.4824569427128
 30
0.0
 10
128.5562259462456
 20
185.62543563911
 30
0.0
 10
128.373877984081
 20
183.7058196199749
 30
0.0
 10
128.5369441736825
 20
181.7844713216745
 30
0.0
 10
129.0395139897789
 20
179.9223835522298
 30
0.0
 10
129.8649247333084
 20
178.176898776056
 30
0.0
 10
130.98628953358
 20
176.5999683109364
 30
0.0
 10
131.9079484372079
 20
175.6922432946332
 30
0.0
 10
132.4047514076662
 20
175.2809890150339
 30
0.0
  0
SPLINE
  5
84
330
7B
100
AcDbEntity
  8
0
  6
Continuous
 62
     0
370
     0
100
AcDbSpline
210
0.0
220
0.0
230
1.0
 70
     8
 71
     3
 72
    14
 73
    10
 74
     0
 42
0.000000001
 43
0.0
 40
0.0
 40
0.0
 40
0.0
 40
0.0
 40
1.404286950246861
 40
2.80180824355739
 40
4.195347073104721
 40
5.585086099230739
 40
6.97156893468318
 40
8.355744518375094
 40
9.738631114212174
 40
9.738631114212174
 40
9.738631114212174
 40
9.738631114212174
 10
132.4047518506713
 20
175.2809887421834
 30
0.0
 10
132.7634797213087
 20
174.984033791574
 30
0.0
 10
133.4459324625474
 20
174.3476186635599
 30
0.0
 10
134.3434572923077
 20
173.2747326467848
 30
0.0
 10
135.1040987648317
 20
172.1048150525683
 30
0.0
 10
135.7158767628893
 20
170.8537281505748
 30
0.0
 10
136.1686242154006
 20
169.5394730975624
 30
0.0
 10
136.4562791739092
 20
168.1818687897404
 30
0.0
 10
136.5354473261353
 20
167.2601417154481
 30
0.0
 10
136.5464503486093
 20
166.7993112734078
 30
0.0
  0
SPLINE
  5
85
330
7B
100
AcDbEntity
  8
0
  6
Continuous
 62
     0
370
     0
100
AcDbSpline
210
0.0
220
0.0
230
1.0
 70
     8
 71
     3
 72
     8
 73
     4
 74
     0
 42
0.000000001
 43
0.0
 40
0.0
 40
0.0
 40
0.0
 40
0.0
 40
40.81424693084995
 40
40.81424693084995
 40
40.81424693084995
 40
40.81424693084995
 10
136.5464468709197
 20
166.799309109764
 30
0.0
 10
136.8712553705363
 20
153.1984503859912
 30
0.0
 10
137.208519445547
 20
139.597864764864
 30
0.0
 10
137.5086611606054
 20
125.9964321260855
 30
0.0
  0
SPLINE
  5
86
330
7B
100
AcDbEntity
  8
0
  6
Continuous
 62
     0
370
     0
100
AcDbSpline
210
0.0
220
0.0
230
1.0
 70
     8
 71
     3
 72
    14
 73
    10
 74
     0
 42
0.000000001
 43
0.0
 40
0.0
 40
0.0
 40
0.0
 40
0.0
 40
1.382864170633273
 40
2.767013309008381
 40
4.153480982412725
 40
5.543211805218741
 40
6.936725925118182
 40
8.334218231834106
 40
9.738528679551933
 40
9.738528679551933
 40
9.738528679551933
 40
9.738528679551933
 10
142.9293546619892
 20
166.7994070212428
 30
0.0
 10
142.9403617401395
 20
167.2602298892828
 30
0.0
 10
143.0195470031397
 20
168.1819383567184
 30
0.0
 10
143.3071870722792
 20
169.5395244637375
 30
0.0
 10
143.7599492370432
 20
170.8537555437297
 30
0.0
 10
144.3716671054991
 20
172.104853938442
 30
0.0
 10
145.1322949069199
 20
173.2747578262709
 30
0.0
 10
146.0298010634655
 20
174.3476510503369
 30
0.0
 10
146.7122876450727
 20
174.9840287105915
 30
0.0
 10
147.0710212167677
 20
175.2809904112304
 30
0.0
  0
ARC
  5
87
330
7B
100
AcDbEntity
  8
0
  6
Continuous
 62
     0
370
     0
100
AcDbCircle
 10
141.930299
 20
-80.131664
 30
0.0
 40
246.98966060089
100
AcDbArc
 50
91.249025
 51
91.577273
  0
ELLIPSE
  5
88
330
7B
100
AcDbEntity
  8
0
  6
Continuous
 62
     0
370
     0
100
AcDbEllipse
 10
132.601196
 20
175.280987
 30
0.0
 11
0.9731880264685872
 21
1.141448669515258
 31
0.0
210
0.0
220
0.0
230
1.0
 40
0.100021
 41
1.655866001264746
 42
3.141594748784254
  0
ELLIPSE
  5
89
330
7B
100
AcDbEntity
  8
0
  6
Continuous
 62
     0
370
     0
100
AcDbEllipse
 10
146.874615
 20
175.280991
 30
0.0
 11
0.9731887563310316
 21
-1.141448047241251
 31
0.0
210
0.0
220
0.0
230
1.0
 40
0.1
 41
0.0000003145765683
 42
1.485742282490653
  0
ELLIPSE
  5
8A
330
7B
100
AcDbEntity
  8
0
  6
Continuous
 62
     0
370
     0
100
AcDbEllipse
 10
141.908095
 20
125.996432
 30
0.0
 11
1.499653989331366
 21
-0.03221664604702499
 31
0.0
210
0.0
220
0.0
230
1.0
 40
0.000846
 41
6.265351497995772
 42
7.814640147483889
  0
ARC
  5
8B
330
7B
100
AcDbEntity
  8
0
  6
Continuous
 62
     0
370
     0
100
AcDbCircle
 10
139.737903
 20
183.651615
 30
0.0
 40
29.7999999970217
100
AcDbArc
 50
278.319205
 51
90.0
  0
ARC
  5
8C
330
7B
100
AcDbEntity
  8
0
  6
Continuous
 62
     0
370
     0
100
AcDbCircle
 10
139.737903
 20
183.651615
 30
0.0
 40
29.7999999970217
100
AcDbArc
 50
90.0
 51
261.680801
  0
ARC
  5
8D
330
7B
100
AcDbEntity
  8
0
  6
Continuous
 62
     0
370
    30
100
AcDbCircle
 10
139.737903
 20
183.651615
 30
0.0
 40
30.0000000000019
100
AcDbArc
 50
278.254178
 51
90.0
  0
ARC
  5
8E
330
7B
100
AcDbEntity
  8
0
  6
Continuous
 62
     0
370
    30
100
AcDbCircle
 10
139.737903
 20
183.651615
 30
0.0
 40
30.0000000000019
100
AcDbArc
 50
90.0
 51
261.745828
  0
SPLINE
  5
8F
330
7B
100
AcDbEntity
  8
0
  6
Continuous
 62
     0
370
    30
100
AcDbSpline
210
0.0
220
0.0
230
1.0
 70
     8
 71
     3
 72
     9
 73
     5
 74
     0
 42
0.000000001
 43
0.0
 40
0.0
 40
0.0
 40
0.0
 40
0.0
 40
22.48973443371165
 40
40.81101124665861
 40
40.81101124665861
 40
40.81101124665861
 40
40.81101124665861
 10
136.0680575204732
 20
125.9642155717229
 30
0.0
 10
135.9070488635888
 20
133.4590607036334
 30
0.0
 10
135.5945586370676
 20
147.0591422222063
 30
0.0
 10
135.2733278431006
 20
160.6590076343985
 30
0.0
 10
135.131382035253
 20
166.7644448017413
 30
0.0
  0
ARC
  5
90
330
7B
100
AcDbEntity
  8
0
  6
Continuous
 62
     0
370
    30
100
AcDbCircle
 10
139.722146
 20
183.651014
 30
0.0
 40
12.48421942264577
100
AcDbArc
 50
178.231675
 51
188.47131
  0
ARC
  5
91
330
7B
100
AcDbEntity
  8
0
  6
Continuous
 62
     0
370
    30
100
AcDbCircle
 10
154.340875
 20
166.535533
 30
0.0
 40
9.999047270996225
100
AcDbArc
 50
130.494046
 51
178.68766
  0
ARC
  5
92
330
7B
100
AcDbEntity
  8
0
  6
Continuous
 62
     0
370
    30
100
AcDbCircle
 10
125.13488
 20
166.535475
 30
0.0
 40
9.999124770136461
100
AcDbArc
 50
1.312181
 51
49.505906
  0
SPLINE
  5
93
330
7B
100
AcDbEntity
  8
0
  6
Continuous
 62
     0
370
    30
100
AcDbSpline
210
0.0
220
0.0
230
1.0
 70
     8
 71
     3
 72
    19
 73
    15
 74
     0
 42
0.000000001
 43
0.0
 40
0.0
 40
0.0
 40
0.0
 40
0.0
 40
0.9766850519178311
 40
1.87626830689928
 40
2.427641092871511
 40
2.700897913865815
 40
3.132020499525936
 40
3.455922604977787
 40
4.027761480057109
 40
4.669074234774055
 40
5.299462336630231
 40
5.954221388683261
 40
6.762279532143855
 40
8.835054230195764
 40
8.835054230195764
 40
8.835054230195764
 40
8.835054230195764
 10
139.7379008570416
 20
119.1985380176377
 30
0.0
 10
139.4131839168062
 20
119.1985382406884
 30
0.0
 10
138.7859399374309
 20
119.2737911825378
 30
0.0
 10
138.0272456589496
 20
119.5724919003109
 30
0.0
 10
137.544834116557
 20
119.8880092679832
 30
0.0
 10
137.2204942171958
 20
120.1528269223718
 30
0.0
 10
136.9751310860293
 20
120.3935400354325
 30
0.0
 10
136.7108496041062
 20
120.7496343744304
 30
0.0
 10
136.4813773474725
 20
121.2107291638314
 30
0.0
 10
136.3137063132658
 20
121.8041148483306
 30
0.0
 10
136.2201356173825
 20
122.4402045095976
 30
0.0
 10
136.173120105032
 20
123.136575066927
 30
0.0
 10
136.1149938500114
 20
124.3136132101391
 30
0.0
 10
136.0828966007147
 20
125.2734663259236
 30
0.0
 10
136.0680575204732
 20
125.9642155717228
 30
0.0
  0
SPLINE
  5
94
330
7B
100
AcDbEntity
  8
0
  6
Continuous
 62
     0
370
    30
100
AcDbSpline
210
0.0
220
0.0
230
1.0
 70
     8
 71
     3
 72
    19
 73
    15
 74
     0
 42
0.000000001
 43
0.0
 40
0.0
 40
0.0
 40
0.0
 40
0.0
 40
0.9766817290411576
 40
1.876316085351492
 40
2.427735252930186
 40
2.701035075161839
 40
3.132323090028828
 40
3.456258807031474
 40
4.028094702002843
 40
4.66948336642149
 40
5.30012452687558
 40
5.954902225386392
 40
6.762941278107728
 40
8.835062022314828
 40
8.835062022314828
 40
8.835062022314828
 40
8.835062022314828
 10
139.7379027606248
 20
119.1985380176367
 30
0.0
 10
140.062618533258
 20
119.19853788838
 30
0.0
 10
140.6898777699165
 20
119.2737950746525
 30
0.0
 10
141.4486022299542
 20
119.572506446942
 30
0.0
 10
141.9310469376387
 20
119.8880590758902
 30
0.0
 10
142.2554492073754
 20
120.1529351841416
 30
0.0
 10
142.5008500726188
 20
120.3937267198847
 30
0.0
 10
142.7651292906742
 20
120.7499046016155
 30
0.0
 10
142.9945541418932
 20
121.2110615644262
 30
0.0
 10
143.1622082785896
 20
121.8045638284671
 30
0.0
 10
143.2557353166214
 20
122.4407778801494
 30
0.0
 10
143.3027206662921
 20
123.1372342759756
 30
0.0
 10
143.3608350043461
 20
124.3140547587446
 30
0.0
 10
143.3929147496564
 20
125.2736838975545
 30
0.0
 10
143.4077492405237
 20
125.9642152264993
 30
0.0
  0
SPLINE
  5
95
330
7B
100
AcDbEntity
  8
0
  6
Continuous
 62
     0
370
    30
100
AcDbSpline
210
0.0
220
0.0
230
1.0
 70
     8
 71
     3
 72
     9
 73
     5
 74
     0
 42
0.000000001
 43
0.0
 40
0.0
 40
0.0
 40
0.0
 40
0.0
 40
22.48978317896232
 40
40.81110045381141
 40
40.81110045381141
 40
40.81110045381141
 40
40.81110045381141
 10
143.4077492405237
 20
125.9642152264993
 30
0.0
 10
143.5687592450201
 20
133.4590765852149
 30
0.0
 10
143.8812517941233
 20
147.0591878019387
 30
0.0
 10
144.2024848144429
 20
160.659082915717
 30
0.0
 10
144.3444315361851
 20
166.7645335574192
 30
0.0
  0
ENDBLK
  5
97
330
7B
100
AcDbEntity
  8
0
100
AcDbBlockEnd
  0
BLOCK
  5
C8
330
99
100
AcDbEntity
  8
0
100
AcDbBlockBegin
  2
b
 70
     0
 10
204.249634
 20
0.0
 30
0.0
  3
b
  1

  0
SPLINE
  5
9A
330
99
100
AcDbEntity
  8
0
  6
Continuous
 62
     0
370
     0
100
AcDbSpline
210
0.0
220
0.0
230
1.0
 70
     8
 71
     3
 72
    14
 73
    10
 74
     0
 42
0.000000001
 43
0.0
 40
0.0
 40
0.0
 40
0.0
 40
0.0
 40
4.33464153288073
 40
8.671121330573097
 40
13.00920997969028
 40
17.34574091751642
 40
21.68030458132657
 40
26.0158598568891
 40
30.3536253005803
 40
30.3536253005803
 40
30.3536253005803
 40
30.3536253005803
 10
302.7182560821762
 20
174.1395398834961
 30
0.0
 10
302.5909382776167
 20
175.0733199903175
 30
0.0
 10
302.3153367820531
 20
177.3414623497393
 30
0.0
 10
302.0449762430883
 20
181.4978270209746
 30
0.0
 10
302.0493460600406
 20
185.9280085404784
 30
0.0
 10
302.3255517524154
 20
190.0716826133799
 30
0.0
 10
302.7395899684581
 20
193.4361564661859
 30
0.0
 10
303.0896222450963
 20
195.6388554045145
 30
0.0
 10
303.1826543030533
 20
196.1516127035449
 30
0.0
 10
303.1826783134156
 20
196.1516151428053
 30
0.0
  0
LINE
  5
9B
330
99
100
AcDbEntity
  8
0
  6
Continuous
 62
     0
370
    30
100
AcDbLine
 10
281.798712
 20
171.151615
 30
0.0
 11
271.923712
 21
171.151615
 31
0.0
  0
LINE
  5
9C
330
99
100
AcDbEntity
  8
0
  6
Continuous
 62
     0
370
    30
100
AcDbLine
 10
271.923712
 20
196.151615
 30
0.0
 11
271.923712
 21
171.151615
 31
0.0
  0
ARC
  5
9D
330
99
100
AcDbEntity
  8
0
  6
Continuous
 62
     0
370
     0
100
AcDbCircle
 10
301.716611
 20
115.168782
 30
0.0
 40
58.82542106925506
100
AcDbArc
 50
101.707775
 51
107.309328
  0
SPLINE
  5
9E
330
99
100
AcDbEntity
  8
0
  6
Continuous
 62
     0
370
     0
100
AcDbSpline
210
0.0
220
0.0
230
1.0
 70
     8
 71
     3
 72
    14
 73
    10
 74
     0
 42
0.000000001
 43
0.0
 40
0.0
 40
0.0
 40
0.0
 40
0.0
 40
1.752369726229721
 40
3.569974643483515
 40
5.439505520164665
 40
7.350961146559897
 40
9.293212778696583
 40
11.25555797281267
 40
13.22955802806231
 40
13.22955802806231
 40
13.22955802806231
 40
13.22955802806231
 10
289.7797466625753
 20
172.7703565124161
 30
0.0
 10
290.3184768245398
 20
172.8814705831482
 30
0.0
 10
291.4369219234574
 20
173.0939214641542
 30
0.0
 10
293.175636317164
 20
173.3811047397991
 30
0.0
 10
294.9930211134915
 20
173.6324432027131
 30
0.0
 10
296.8718762331918
 20
173.8374899297049
 30
0.0
 10
298.7955175946526
 20
173.9925567139761
 30
0.0
 10
300.7488539781572
 20
174.0972520411026
 30
0.0
 10
302.0603928757611
 20
174.1308347889978
 30
0.0
 10
302.7182560821762
 20
174.1395398834961
 30
0.0
  0
ELLIPSE
  5
9F
330
99
100
AcDbEntity
  8
0
  6
Continuous
 62
     0
370
     0
100
AcDbEllipse
 10
289.779747
 20
164.06535
 30
0.0
 11
-3.480420932768197
 21
9.374789071267092
 31
0.0
210
0.0
220
0.0
230
1.0
 40
0.524221
 41
4.551450713946166
 42
5.66697758086628
  0
ARC
  5
A0
330
99
100
AcDbEntity
  8
0
  6
Continuous
 62
     0
370
    30
100
AcDbCircle
 10
283.651387
 20
161.151615
 30
0.0
 40
10.00000000000001
100
AcDbArc
 50
2.725772
 51
76.129249
  0
SPLINE
  5
A1
330
99
100
AcDbEntity
  8
0
  6
Continuous
 62
     0
370
     0
100
AcDbSpline
210
0.0
220
0.0
230
1.0
 70
     8
 71
     3
 72
    13
 73
     9
 74
     0
 42
0.000000001
 43
0.0
 40
0.0
 40
0.0
 40
0.0
 40
0.0
 40
0.5473648797081645
 40
1.055149537312475
 40
2.027463782078881
 40
2.695584700629958
 40
3.554900745899134
 40
4.313302770659927
 40
4.313302770659927
 40
4.313302770659927
 40
4.313302770659927
 10
293.6400727763238
 20
161.6271726758889
 30
0.0
 10
293.6400726909947
 20
161.6271743217857
 30
0.0
 10
293.6545059381499
 20
161.6661881461708
 30
0.0
 10
293.7319320317495
 20
161.8811190461473
 30
0.0
 10
293.8867178663933
 20
162.2989586771796
 30
0.0
 10
294.1785818945545
 20
162.9520413923742
 30
0.0
 10
294.5653261189414
 20
163.6362677625205
 30
0.0
 10
294.9662136152462
 20
164.1357279724895
 30
0.0
 10
295.1884215869167
 20
164.3640254286742
 30
0.0
  0
SPLINE
  5
A2
330
99
100
AcDbEntity
  8
0
  6
Continuous
 62
     0
370
     0
100
AcDbSpline
210
0.0
220
0.0
230
1.0
 70
     8
 71
     3
 72
    36
 73
    32
 74
     0
 42
0.000000001
 43
0.0
 40
-1.087005095078141
 40
-1.087005095078141
 40
-1.087005095078141
 40
-1.087005095078141
 40
-0.8269645513815309
 40
-0.4446453731535147
 40
-0.1943449961721786
 40
0.1896267875054107
 40
0.6661568886589784
 40
0.8975045027005226
 40
1.313253092444048
 40
1.720458109230586
 40
2.118150658090714
 40
2.434390072085357
 40
2.75062948608
 40
3.066868900074644
 40
3.383108314069286
 40
3.681142944660455
 40
3.979177575251624
 40
4.436810016986453
 40
4.800404698664082
 40
5.163999380341712
 40
5.527594062019341
 40
5.846451917814532
 40
6.165309773609723
 40
6.494200556314357
 40
6.819801096463626
 40
7.300981633533439
 40
7.614821179227128
 40
7.763356922273676
 40
7.906774530279353
 40
8.045943737362737
 40
8.062173617835343
 40
8.062173617835343
 40
8.062173617835343
 40
8.062173617835343
 10
295.1884215869167
 20
164.3640254286742
 30
0.0
 10
295.2252560740932
 20
164.4018693442595
 30
0.0
 10
295.318425632338
 20
164.4949514824297
 30
0.0
 10
295.4572792403651
 20
164.6226662782682
 30
0.0
 10
295.6340035967571
 20
164.7660948444479
 30
0.0
 10
295.8545369353093
 20
164.9205059540955
 30
0.0
 10
296.1057374352733
 20
165.0682161395676
 30
0.0
 10
296.3705133032122
 20
165.2154944583589
 30
0.0
 10
296.622616754161
 20
165.3494351958969
 30
0.0
 10
296.9256559701607
 20
165.4978234260286
 30
0.0
 10
297.2140384290673
 20
165.6277347298633
 30
0.0
 10
297.4873717697303
 20
165.7415874569664
 30
0.0
 10
297.7460279447147
 20
165.8418267486664
 30
0.0
 10
298.0117414694796
 20
165.9373451910362
 30
0.0
 10
298.2793985538435
 20
166.0262931150361
 30
0.0
 10
298.5486395193073
 20
166.1088873536872
 30
0.0
 10
298.8681514213443
 20
166.1991026713915
 30
0.0
 10
299.2202577544556
 20
166.2879437098455
 30
0.0
 10
299.6066601042266
 20
166.3737730661717
 30
0.0
 10
299.971019298022
 20
166.4459347747212
 30
0.0
 10
300.3262894191517
 20
166.5084109237023
 30
0.0
 10
300.6694538195252
 20
166.5620366774971
 30
0.0
 10
301.0037965032388
 20
166.6081934304216
 30
0.0
 10
301.343905905216
 20
166.648895796124
 30
0.0
 10
301.7442993780288
 20
166.6895792493166
 30
0.0
 10
302.1523667985427
 20
166.7215931986338
 30
0.0
 10
302.4857996436033
 20
166.7416795255465
 30
0.0
 10
302.7074852730677
 20
166.752216606897
 30
0.0
 10
302.871132100096
 20
166.7586780874742
 30
0.0
 10
302.9895791456506
 20
166.7625012755351
 30
0.0
 10
303.0503141193011
 20
166.7642364398537
 30
0.0
 10
303.0566538136202
 20
166.7644150631692
 30
0.0
  0
SPLINE
  5
A3
330
99
100
AcDbEntity
  8
0
  6
Continuous
 62
     0
370
     0
100
AcDbSpline
210
0.0
220
0.0
230
1.0
 70
     8
 71
     3
 72
    10
 73
     6
 74
     0
 42
0.000000001
 43
0.0
 40
0.0
 40
0.0
 40
0.0
 40
0.0
 40
2.797895864776244
 40
5.595877648008672
 40
8.393972488720298
 40
8.393972488720298
 40
8.393972488720298
 40
8.393972488720298
 10
303.0566538136202
 20
166.7644150631692
 30
0.0
 10
303.0595621910235
 20
167.6967881686977
 30
0.0
 10
303.0495365463153
 20
169.5662971049153
 30
0.0
 10
302.9613662867955
 20
172.1227519542011
 30
0.0
 10
302.8203068807397
 20
173.5380454455313
 30
0.0
 10
302.718254453158
 20
174.13953844211
 30
0.0
  0
LINE
  5
A4
330
99
100
AcDbEntity
  8
0
  6
Continuous
 62
     0
370
     0
100
AcDbLine
 10
295.188422
 20
164.364025
 30
0.0
 11
296.702461
 21
125.964208
 31
0.0
  0
LINE
  5
A5
330
99
100
AcDbEntity
  8
0
  6
Continuous
 62
     0
370
     0
100
AcDbLine
 10
302.976077
 20
125.9642
 30
0.0
 11
303.113222
 21
125.964198
 31
0.0
  0
ARC
  5
A6
330
99
100
AcDbEntity
  8
0
  6
Continuous
 62
     0
370
     0
100
AcDbCircle
 10
92819.580328
 20
275.398956
 30
0.0
 40
92516.5877917199
100
AcDbArc
 50
180.067278
 51
180.092545
  0
LINE
  5
A7
330
99
100
AcDbEntity
  8
0
  6
Continuous
 62
     0
370
    30
100
AcDbLine
 10
293.640073
 20
161.627173
 30
0.0
 11
295.337973
 21
125.964204
 31
0.0
  0
ARC
  5
A8
330
99
100
AcDbEntity
  8
0
  6
Continuous
 62
     0
370
    30
100
AcDbCircle
 10
303.182723
 20
120.698538
 30
0.0
 40
1.500000000000002
100
AcDbArc
 50
267.930311
 51
0.000004
  0
SPLINE
  5
A9
330
99
100
AcDbEntity
  8
0
  6
Continuous
 62
     0
370
    30
100
AcDbSpline
210
0.0
220
0.0
230
1.0
 70
     8
 71
     3
 72
    14
 73
    10
 74
     0
 42
0.000000001
 43
0.0
 40
0.0
 40
0.0
 40
0.0
 40
0.0
 40
0.959869858522463
 40
1.920209553095731
 40
2.881080345005874
 40
3.842023616642013
 40
4.803136771199672
 40
5.764136911794927
 40
6.725779570084066
 40
6.725779570084066
 40
6.725779570084066
 40
6.725779570084066
 10
296.8880678873981
 20
121.2566287698476
 30
0.0
 10
297.1092534177437
 20
121.0254379406096
 30
0.0
 10
297.6011658209075
 20
120.6084453578175
 30
0.0
 10
298.4352539691025
 20
120.1246086673188
 30
0.0
 10
299.3306622049492
 20
119.7688645238851
 30
0.0
 10
300.2596461325257
 20
119.5169168026874
 30
0.0
 10
301.2069639508805
 20
119.349476466833
 30
0.0
 10
302.1632138466206
 20
119.2463711153014
 30
0.0
 10
302.8033809163663
 20
119.2113276226857
 30
0.0
 10
303.1237172055882
 20
119.1996916702256
 30
0.0
  0
SPLINE
  5
AA
330
99
100
AcDbEntity
  8
0
  6
Continuous
 62
     0
370
     0
100
AcDbSpline
210
0.0
220
0.0
230
1.0
 70
     8
 71
     3
 72
    30
 73
    26
 74
     0
 42
0.000000001
 43
0.0
 40
0.0
 40
0.0
 40
0.0
 40
0.0
 40
1.225396231212392
 40
1.996266671498263
 40
2.770395256796587
 40
3.158307523348193
 40
3.75978293030952
 40
4.174201172882186
 40
4.740678397053912
 40
5.080281499007906
 40
5.416529076883819
 40
5.714817632142001
 40
5.996817551513167
 40
6.187015832822644
 40
6.272979870401431
 40
6.357223629495047
 40
6.451358841925963
 40
6.610804731879863
 40
6.726038347285362
 40
6.843308007724549
 40
6.957314821021946
 40
7.177853569120509
 40
7.395001920030518
 40
7.989756918548009
 40
8.826192243679458
 40
8.826192243679458
 40
8.826192243679458
 40
8.826192243679458
 10
303.1132216245925
 20
125.9641980621094
 30
0.0
 10
303.1137420165558
 20
125.657934149956
 30
0.0
 10
303.1093273964243
 20
125.1587311964245
 30
0.0
 10
303.0925357112061
 20
124.4657226946844
 30
0.0
 10
303.0756604086926
 20
123.9820723527804
 30
0.0
 10
303.0570756051762
 20
123.5403596556788
 30
0.0
 10
303.0403232311247
 20
123.189351910321
 30
0.0
 10
303.0175183627392
 20
122.7765721499699
 30
0.0
 10
302.9937183766973
 20
122.3984879695217
 30
0.0
 10
302.9691242151053
 20
122.0017199577765
 30
0.0
 10
302.9506222616943
 20
121.6672206818501
 30
0.0
 10
302.9353410813205
 20
121.3194699545203
 30
0.0
 10
302.9270311860492
 20
120.9878916975509
 30
0.0
 10
302.9288827507283
 20
120.7166089195709
 30
0.0
 10
302.9356744705314
 20
120.534071950446
 30
0.0
 10
302.9437346037412
 20
120.4012564119491
 30
0.0
 10
302.9558122052061
 20
120.2620150577681
 30
0.0
 10
302.9680140473727
 20
120.1520429641582
 30
0.0
 10
302.9801702328564
 20
120.0510220768928
 30
0.0
 10
302.9909573754853
 20
119.966640999061
 30
0.0
 10
303.0057494914679
 20
119.8572987516036
 30
0.0
 10
303.0247990083916
 20
119.7293275188131
 30
0.0
 10
303.0601800092144
 20
119.516772513016
 30
0.0
 10
303.1109873116605
 20
119.2662921835742
 30
0.0
 10
303.1285476470809
 20
119.1995167197362
 30
0.0
 10
303.1285503664594
 20
119.1995165582452
 30
0.0
  0
SPLINE
  5
AB
330
99
100
AcDbEntity
  8
0
  6
Continuous
 62
     0
370
     0
100
AcDbSpline
210
0.0
220
0.0
230
1.0
 70
     8
 71
     3
 72
    18
 73
    14
 74
     0
 42
0.000000001
 43
0.0
 40
0.0
 40
0.0
 40
0.0
 40
0.0
 40
0.7053013782976192
 40
1.296959495443253
 40
1.634382838388779
 40
1.883610187121511
 40
2.087346532206342
 40
2.401618726294815
 40
2.763513020913489
 40
3.286720618600657
 40
3.737699336988029
 40
4.753410594080074
 40
6.511446442014064
 40
6.511446442014064
 40
6.511446442014064
 40
6.511446442014064
 10
304.6827229080893
 20
120.6985381287752
 30
0.0
 10
304.6827196174736
 20
120.6985382901512
 30
0.0
 10
304.6797710254992
 20
120.757765736495
 30
0.0
 10
304.670514443752
 20
120.9939267582159
 30
0.0
 10
304.6625333949331
 20
121.2345397114003
 30
0.0
 10
304.6569082517747
 20
121.420176066561
 30
0.0
 10
304.6526014544691
 20
121.6405569433081
 30
0.0
 10
304.6490710500354
 20
121.9165814460129
 30
0.0
 10
304.6459266609566
 20
122.3075627360893
 30
0.0
 10
304.6440688652755
 20
122.7506488068996
 30
0.0
 10
304.6424855752141
 20
123.4126438067734
 30
0.0
 10
304.6405038010439
 20
124.4864102572623
 30
0.0
 10
304.6393209950841
 20
125.410555562467
 30
0.0
 10
304.6388116039172
 20
125.9964321260856
 30
0.0
  0
ELLIPSE
  5
AC
330
99
100
AcDbEntity
  8
0
  6
Continuous
 62
     0
370
     0
100
AcDbEllipse
 10
303.139974
 20
125.996432
 30
0.0
 11
1.499999462667293
 21
0.001269644766666982
 31
0.0
210
0.0
220
0.0
230
-1.0
 40
0.021478
 41
0.0393861238024722
 42
1.588650619609775
  0
LINE
  5
AD
330
99
100
AcDbEntity
  8
0
  6
Continuous
 62
     0
370
     0
100
AcDbLine
 10
296.702461
 20
125.964208
 30
0.0
 11
296.888068
 21
121.256629
 31
0.0
  0
SPLINE
  5
AE
330
99
100
AcDbEntity
  8
0
  6
Continuous
 62
     0
370
    30
100
AcDbSpline
210
0.0
220
0.0
230
1.0
 70
     8
 71
     3
 72
    14
 73
    10
 74
     0
 42
0.000000001
 43
0.0
 40
0.0
 40
0.0
 40
0.0
 40
0.0
 40
0.7294674980048472
 40
1.450373905297451
 40
2.163775695996503
 40
2.872397796944338
 40
3.581869314751405
 40
4.303289579881687
 40
5.058649601130069
 40
5.058649601130069
 40
5.058649601130069
 40
5.058649601130069
 10
295.3379730471372
 20
125.9642041811596
 30
0.0
 10
295.3495364725514
 20
125.7213238651013
 30
0.0
 10
295.3828563676846
 20
125.2388007059168
 30
0.0
 10
295.4711371665531
 20
124.5225513276193
 30
0.0
 10
295.605368208947
 20
123.8203116162993
 30
0.0
 10
295.7956858337027
 20
123.1347785426892
 30
0.0
 10
296.0562424062228
 20
122.4691991528195
 30
0.0
 10
296.4079416189867
 20
121.8283107955131
 30
0.0
 10
296.7140085659135
 20
121.4385618493883
 30
0.0
 10
296.888068204387
 20
121.2566286706913
 30
0.0
  0
SPLINE
  5
AF
330
99
100
AcDbEntity
  8
0
  6
Continuous
 62
     0
370
     0
100
AcDbSpline
210
0.0
220
0.0
230
1.0
 70
     8
 71
     3
 72
    19
 73
    15
 74
     0
 42
0.000000001
 43
0.0
 40
27.10360883960967
 40
27.10360883960967
 40
27.10360883960967
 40
27.10360883960967
 40
31.02216571618501
 40
34.92075349536309
 40
36.86614307564447
 40
38.80138421432545
 40
40.72795329880143
 40
42.64816249845496
 40
44.56496741876284
 40
46.48166050162648
 40
48.40160928734618
 40
50.32774407353268
 40
52.26241633936342
 40
54.20721767921935
 40
54.20721767921935
 40
54.20721767921935
 40
54.20721767921935
 10
304.6827174283572
 20
194.6515652329997
 30
0.0
 10
304.6827019442517
 20
194.6515333488919
 30
0.0
 10
304.5877026163865
 20
194.2042896825557
 30
0.0
 10
304.2878222446031
 20
192.5856082629992
 30
0.0
 10
304.0147364365919
 20
190.7862616519091
 30
0.0
 10
303.819579100462
 20
189.2197252389031
 30
0.0
 10
303.6589166523814
 20
187.4824569427128
 30
0.0
 10
303.5527090561249
 20
185.62543563911
 30
0.0
 10
303.5143432190554
 20
183.7058196199749
 30
0.0
 10
303.5486808261695
 20
181.7844713216745
 30
0.0
 10
303.6513384897481
 20
179.9223835522298
 30
0.0
 10
303.8094600057774
 20
178.176898776056
 30
0.0
 10
304.0031993040665
 20
176.5999683109364
 30
0.0
 10
304.1397095984834
 20
175.6922432946332
 30
0.0
 10
304.2053371336497
 20
175.2809890150339
 30
0.0
  0
SPLINE
  5
B0
330
99
100
AcDbEntity
  8
0
  6
Continuous
 62
     0
370
     0
100
AcDbSpline
210
0.0
220
0.0
230
1.0
 70
     8
 71
     3
 72
    14
 73
    10
 74
     0
 42
0.000000001
 43
0.0
 40
0.0
 40
0.0
 40
0.0
 40
0.0
 40
1.404286950246861
 40
2.80180824355739
 40
4.195347073104721
 40
5.585086099230739
 40
6.97156893468318
 40
8.355744518375094
 40
9.738631114212174
 40
9.738631114212174
 40
9.738631114212174
 40
9.738631114212174
 10
304.2053371921704
 20
175.2809887421834
 30
0.0
 10
304.2527250416294
 20
174.984033791574
 30
0.0
 10
304.3349190695556
 20
174.3476186635599
 30
0.0
 10
304.427241966295
 20
173.2747326467848
 30
0.0
 10
304.4942106150849
 20
172.1048150525683
 30
0.0
 10
304.540529261071
 20
170.8537281505748
 30
0.0
 10
304.5705043378215
 20
169.5394730975624
 30
0.0
 10
304.5876495138051
 20
168.1818687897404
 30
0.0
 10
304.5920816799196
 20
167.2601417154481
 30
0.0
 10
304.5927027550612
 20
166.7993112734078
 30
0.0
  0
ARC
  5
B1
330
99
100
AcDbEntity
  8
0
  6
Continuous
 62
     0
370
     0
100
AcDbCircle
 10
-84955.87128
 20
50.049771
 30
0.0
 40
85260.54391681004
100
AcDbArc
 50
0.051037
 51
0.078457
  0
SPLINE
  5
B2
330
99
100
AcDbEntity
  8
0
  6
Continuous
 62
     0
370
     0
100
AcDbSpline
210
0.0
220
0.0
230
1.0
 70
     8
 71
     3
 72
    10
 73
     6
 74
     0
 42
0.000000001
 43
0.0
 40
0.0
 40
0.0
 40
0.0
 40
0.0
 40
0.7616627004646315
 40
1.523278239126404
 40
2.284846615985306
 40
2.284846615985306
 40
2.284846615985306
 40
2.284846615985306
 10
303.0566538136202
 20
166.7644150631692
 30
0.0
 10
303.3104573896366
 20
166.7645952169063
 30
0.0
 10
303.8309139184185
 20
166.7681049347082
 30
0.0
 10
304.41450621692
 20
166.7813634998463
 30
0.0
 10
304.5784301590833
 20
166.7934016345832
 30
0.0
 10
304.5927027550612
 20
166.7993112734078
 30
0.0
  0
ELLIPSE
  5
B3
330
99
100
AcDbEntity
  8
0
  6
Continuous
 62
     0
370
     0
100
AcDbEllipse
 10
302.718258
 20
175.280987
 30
0.0
 11
1.482312672455943
 21
0.229671811671557
 31
0.0
210
0.0
220
0.0
230
-1.0
 40
0.75715
 41
0.2018498252361524
 42
1.687578572755656
  0
LINE
  5
B4
330
99
100
AcDbEntity
  8
0
  6
Continuous
 62
     0
370
     0
100
AcDbLine
 10
296.702461
 20
125.964208
 30
0.0
 11
302.976077
 21
125.9642
 31
0.0
  0
SPLINE
  5
B5
330
99
100
AcDbEntity
  8
0
  6
Continuous
 62
     0
370
     0
100
AcDbSpline
210
0.0
220
0.0
230
1.0
 70
     8
 71
     9
 72
    20
 73
    10
 74
     0
 42
0.000000001
 43
0.0
 40
0.0
 40
0.0
 40
0.0
 40
0.0
 40
0.0
 40
0.0
 40
0.0
 40
0.0
 40
0.0
 40
0.0
 40
0.2499999949532693
 40
0.2499999949532693
 40
0.2499999949532693
 40
0.2499999949532693
 40
0.2499999949532693
 40
0.2499999949532693
 40
0.2499999949532693
 40
0.2499999949532693
 40
0.2499999949532693
 40
0.2499999949532693
 10
295.3379731371002
 20
125.9642041924832
 30
0.0
 10
295.3379731194177
 20
125.964204205882
 30
0.0
 10
295.3696229491031
 20
125.9641940534343
 30
0.0
 10
295.4394072611557
 20
125.9641958328426
 30
0.0
 10
295.5543464789636
 20
125.9641984387682
 30
0.0
 10
295.7232020570722
 20
125.9642016982947
 30
0.0
 10
295.9330840659446
 20
125.9642046706743
 30
0.0
 10
296.171433723177
 20
125.9642069513119
 30
0.0
 10
296.4298551133095
 20
125.9642082598414
 30
0.0
 10
296.7024612124211
 20
125.9642084104155
 30
0.0
  0
ARC
  5
B6
330
99
100
AcDbEntity
  8
0
  6
Continuous
 62
     0
370
     0
100
AcDbCircle
 10
283.935911
 20
158.66512
 30
0.0
 40
12.66807712855699
100
AcDbArc
 50
88.740947
 51
99.712679
  0
SPLINE
  5
B7
330
99
100
AcDbEntity
  8
0
  6
Continuous
 62
     0
370
     0
100
AcDbSpline
210
0.0
220
0.0
230
1.0
 70
     8
 71
     3
 72
    14
 73
    10
 74
     0
 42
0.000000001
 43
0.0
 40
0.0
 40
0.0
 40
0.0
 40
0.0
 40
0.4404961860839477
 40
0.8809940919391527
 40
1.321614608410815
 40
1.762239128125022
 40
2.202872996177828
 40
2.643370464042003
 40
3.083706790541679
 40
3.083706790541679
 40
3.083706790541679
 40
3.083706790541679
 10
284.2142767930513
 20
171.3301357621943
 30
0.0
 10
284.3596901034558
 20
171.3267086848896
 30
0.0
 10
284.6470677542409
 20
171.3081529398742
 30
0.0
 10
285.0430576644328
 20
171.2458984713995
 30
0.0
 10
285.3882807328088
 20
171.1564749360472
 30
0.0
 10
285.671224624716
 20
171.0531041459482
 30
0.0
 10
285.8838260263937
 20
170.9535630377333
 30
0.0
 10
286.0178689862573
 20
170.8789451693865
 30
0.0
 10
286.0487089981142
 20
170.8600061084019
 30
0.0
 10
286.0487116349182
 20
170.8600050318395
 30
0.0
  0
ARC
  5
B8
330
99
100
AcDbEntity
  8
0
  6
Continuous
 62
     0
370
    30
100
AcDbCircle
 10
271.273712
 20
194.151615
 30
0.0
 40
0.25
100
AcDbArc
 50
180.0
 51
270.0
  0
ARC
  5
B9
330
99
100
AcDbEntity
  8
0
  6
Continuous
 62
     0
370
    30
100
AcDbCircle
 10
270.823712
 20
213.451615
 30
0.0
 40
0.2000000029802322
100
AcDbArc
 50
0.0
 51
90.0
  0
LINE
  5
BA
330
99
100
AcDbEntity
  8
0
  6
Continuous
 62
     0
370
    30
100
AcDbLine
 10
270.823712
 20
213.651615
 30
0.0
 11
265.323712
 21
213.651615
 31
0.0
  0
LINE
  5
BB
330
99
100
AcDbEntity
  8
0
  6
Continuous
 62
     0
370
     0
100
AcDbLine
 10
271.273712
 20
193.901615
 30
0.0
 11
271.273712
 21
173.401615
 31
0.0
  0
LINE
  5
BC
330
99
100
AcDbEntity
  8
0
  6
Continuous
 62
     0
370
    30
100
AcDbLine
 10
271.023712
 20
213.451615
 30
0.0
 11
271.023712
 21
153.851615
 31
0.0
  0
LINE
  5
BD
330
99
100
AcDbEntity
  8
0
  6
Continuous
 62
     0
370
     0
100
AcDbLine
 10
270.823712
 20
213.651615
 30
0.0
 11
270.823712
 21
153.651615
 31
0.0
  0
LINE
  5
BE
330
99
100
AcDbEntity
  8
0
  6
Continuous
 62
     0
370
    30
100
AcDbLine
 10
265.323712
 20
213.651615
 30
0.0
 11
265.323712
 21
153.651615
 31
0.0
  0
LINE
  5
BF
330
99
100
AcDbEntity
  8
0
  6
Continuous
 62
     0
370
    30
100
AcDbLine
 10
271.923712
 20
193.901615
 30
0.0
 11
271.273712
 21
193.901615
 31
0.0
  0
SPLINE
  5
C0
330
99
100
AcDbEntity
  8
0
  6
Continuous
 62
     0
370
    30
100
AcDbSpline
210
0.0
220
0.0
230
1.0
 70
     8
 71
     3
 72
    14
 73
    10
 74
     0
 42
0.000000001
 43
0.0
 40
0.0
 40
0.0
 40
0.0
 40
0.0
 40
1.513815793375246
 40
2.2444493141925
 40
2.983995229909195
 40
3.35606660294912
 40
3.728579967711822
 40
4.001904634258905
 40
4.274587389037798
 40
4.274587389037798
 40
4.274587389037798
 40
4.274587389037798
 10
281.7987116352663
 20
171.1516151431722
 30
0.0
 10
282.3033151144666
 20
171.1516151428763
 30
0.0
 10
283.0514013850005
 20
171.1657073281114
 30
0.0
 10
284.0461588301055
 20
171.1525182923163
 30
0.0
 10
284.6592079480811
 20
171.1110823015184
 30
0.0
 10
285.1500617518998
 20
171.0482941708777
 30
0.0
 10
285.4843888305869
 20
170.9899108601479
 30
0.0
 10
285.7838079712158
 20
170.9256113962755
 30
0.0
 10
285.9602954017481
 20
170.8810842758855
 30
0.0
 10
286.0487116349883
 20
170.860005031573
 30
0.0
  0
ARC
  5
C1
330
99
100
AcDbEntity
  8
0
  6
Continuous
 62
     0
370
    30
100
AcDbCircle
 10
303.182658
 20
194.651539
 30
0.0
 40
1.500016838848104
100
AcDbArc
 50
0.001
 51
89.99921
  0
LINE
  5
C2
330
99
100
AcDbEntity
  8
0
  6
Continuous
 62
     0
370
    30
100
AcDbLine
 10
304.682723
 20
120.698538
 30
0.0
 11
304.682717
 21
194.651565
 31
0.0
  0
LINE
  5
C3
330
99
100
AcDbEntity
  8
0
  6
Continuous
 62
     0
370
    30
100
AcDbLine
 10
303.182678
 20
196.151615
 30
0.0
 11
271.923712
 21
196.151615
 31
0.0
  0
LINE
  5
C4
330
99
100
AcDbEntity
  8
0
  6
Continuous
 62
     0
370
    30
100
AcDbLine
 10
270.823712
 20
153.651615
 30
0.0
 11
265.323712
 21
153.651615
 31
0.0
  0
ARC
  5
C5
330
99
100
AcDbEntity
  8
0
  6
Continuous
 62
     0
370
    30
100
AcDbCircle
 10
270.823712
 20
153.851615
 30
0.0
 40
0.2000000029802322
100
AcDbArc
 50
270.0
 51
0.0
  0
ARC
  5
C6
330
99
100
AcDbEntity
  8
0
  6
Continuous
 62
     0
370
    30
100
AcDbCircle
 10
271.273712
 20
173.151615
 30
0.0
 40
0.25
100
AcDbArc
 50
90.0
 51
180.0
  0
LINE
  5
C7
330
99
100
AcDbEntity
  8
0
  6
Continuous
 62
     0
370
    30
100
AcDbLine
 10
271.923712
 20
173.401615
 30
0.0
 11
271.273712
 21
173.401615
 31
0.0
  0
ENDBLK
  5
C9
330
99
100
AcDbEntity
  8
0
100
AcDbBlockEnd
  0
BLOCK
  5
FB
330
CB
100
AcDbEntity
  8
0
100
AcDbBlockBegin
  2
c
 70
     0
 10
51.314697
 20
0.0
 30
0.0
  3
c
  1

  0
SPLINE
  5
CC
330
CB
100
AcDbEntity
  8
0
  6
Continuous
 62
     0
370
     0
100
AcDbSpline
210
0.0
220
0.0
230
1.0
 70
     8
 71
     3
 72
    14
 73
    10
 74
     0
 42
0.000000001
 43
0.0
 40
30.3536253005803
 40
30.3536253005803
 40
30.3536253005803
 40
30.3536253005803
 40
34.69137162723425
 40
39.02687277555464
 40
43.36148144101966
 40
47.69798630468826
 40
52.03606693161141
 40
56.37263841474423
 40
60.7072506011606
 40
60.7072506011606
 40
60.7072506011606
 40
60.7072506011606
 10
-5.540678588895037
 20
196.1516151428053
 30
0.0
 10
-5.540702525976566
 20
196.151616478512
 30
0.0
 10
-5.44776763070825
 20
195.6388734664363
 30
0.0
 10
-5.097573981236849
 20
193.4362087867268
 30
0.0
 10
-4.683943969421875
 20
190.0717343929167
 30
0.0
 10
-4.407463971595746
 20
185.9280722224142
 30
0.0
 10
-4.403526201521856
 20
181.4978788172916
 30
0.0
 10
-4.67315527831056
 20
177.3414531991899
 30
0.0
 10
-4.949140549731908
 20
175.073321140659
 30
0.0
 10
-5.076433919378758
 20
174.1395452748572
 30
0.0
  0
SPLINE
  5
CD
330
CB
100
AcDbEntity
  8
0
  6
Continuous
 62
     0
370
     0
100
AcDbSpline
210
0.0
220
0.0
230
1.0
 70
     8
 71
     3
 72
    14
 73
    10
 74
     0
 42
0.000000001
 43
0.0
 40
0.0
 40
0.0
 40
0.0
 40
0.0
 40
1.974027971177131
 40
3.936390186585609
 40
5.878649482336035
 40
7.790165265916714
 40
9.659696083105716
 40
11.4773290793628
 40
13.22973633779209
 40
13.22973633779209
 40
13.22973633779209
 40
13.22973633779209
 10
-5.076435229429592
 20
174.1395452922942
 30
0.0
 10
-4.418564332808387
 20
174.1307889022314
 30
0.0
 10
-3.107007924750803
 20
174.0972923658711
 30
0.0
 10
-1.153652896936819
 20
173.9925596020598
 30
0.0
 10
0.7699977949112622
 20
173.8374271877343
 30
0.0
 10
2.64891362925016
 20
173.6325005695818
 30
0.0
 10
4.466291727670011
 20
173.3810684495776
 30
0.0
 10
6.205062546618478
 20
173.0939523390748
 30
0.0
 10
7.323514054922384
 20
172.8814726889254
 30
0.0
 10
7.862255711177454
 20
172.7703561965199
 30
0.0
  0
ARC
  5
CE
330
CB
100
AcDbEntity
  8
0
  6
Continuous
 62
     0
370
     0
100
AcDbCircle
 10
-4.074616
 20
115.168772
 30
0.0
 40
58.82543201136266
100
AcDbArc
 50
72.69067
 51
78.29222
  0
LINE
  5
CF
330
CB
100
AcDbEntity
  8
0
  6
Continuous
 62
     0
370
    30
100
AcDbLine
 10
15.843288
 20
171.151615
 30
0.0
 11
25.718288
 21
171.151615
 31
0.0
  0
LINE
  5
D0
330
CB
100
AcDbEntity
  8
0
  6
Continuous
 62
     0
370
    30
100
AcDbLine
 10
25.718288
 20
171.151615
 30
0.0
 11
25.718288
 21
196.151615
 31
0.0
  0
ARC
  5
D1
330
CB
100
AcDbEntity
  8
0
  6
Continuous
 62
     0
370
    30
100
AcDbCircle
 10
13.990613
 20
161.151615
 30
0.0
 40
10.00000000000001
100
AcDbArc
 50
103.870751
 51
177.274228
  0
SPLINE
  5
D2
330
CB
100
AcDbEntity
  8
0
  6
Continuous
 62
     0
370
     0
100
AcDbSpline
210
0.0
220
0.0
230
1.0
 70
     8
 71
     3
 72
    13
 73
     9
 74
     0
 42
0.000000001
 43
0.0
 40
0.0
 40
0.0
 40
0.0
 40
0.0
 40
0.5473647493952614
 40
1.055149285041185
 40
2.027463515246973
 40
2.69558469592278
 40
3.554900930002945
 40
4.313303105046226
 40
4.313303105046226
 40
4.313303105046226
 40
4.313303105046226
 10
4.001926948211292
 20
161.6271726758809
 30
0.0
 10
4.001927062690129
 20
161.6271742923952
 30
0.0
 10
3.987493878725218
 20
161.6661880367643
 30
0.0
 10
3.910067923698477
 20
161.881118739827
 30
0.0
 10
3.755282230281068
 20
162.2989582341198
 30
0.0
 10
3.463418341325678
 20
162.9520410031668
 30
0.0
 10
3.076674189830385
 20
163.6362676106725
 30
0.0
 10
2.675786740400042
 20
164.1357280403924
 30
0.0
 10
2.453578786663115
 20
164.3640256115655
 30
0.0
  0
ELLIPSE
  5
D3
330
CB
100
AcDbEntity
  8
0
  6
Continuous
 62
     0
370
     0
100
AcDbEllipse
 10
7.862255
 20
164.065349
 30
0.0
 11
3.480422335468908
 21
9.374788550509777
 31
0.0
210
0.0
220
0.0
230
-1.0
 40
0.524222
 41
4.551450636358107
 42
5.666977543422748
  0
SPLINE
  5
D4
330
CB
100
AcDbEntity
  8
0
  6
Continuous
 62
     0
370
     0
100
AcDbSpline
210
0.0
220
0.0
230
1.0
 70
     8
 71
     3
 72
    10
 73
     6
 74
     0
 42
0.000000001
 43
0.0
 40
0.0
 40
0.0
 40
0.0
 40
0.0
 40
2.798270619055192
 40
5.595978195444554
 40
8.393884764184449
 40
8.393884764184449
 40
8.393884764184449
 40
8.393884764184449
 10
-5.076435300918888
 20
174.1395429764806
 30
0.0
 10
-5.178537335498447
 20
173.5380133204303
 30
0.0
 10
-5.319782556381142
 20
172.1227338104819
 30
0.0
 10
-5.407815773386687
 20
169.5662921654596
 30
0.0
 10
-5.417323397175892
 20
167.6968754082513
 30
0.0
 10
-5.414552502736342
 20
166.7644984242193
 30
0.0
  0
SPLINE
  5
D5
330
CB
100
AcDbEntity
  8
0
  6
Continuous
 62
     0
370
     0
100
AcDbSpline
210
0.0
220
0.0
230
1.0
 70
     8
 71
     3
 72
    39
 73
    35
 74
     0
 42
0.000000001
 43
0.0
 40
0.9242651249458449
 40
0.9242651249458449
 40
0.9242651249458449
 40
0.9242651249458449
 40
1.095853179809037
 40
1.243779472733291
 40
1.397011119722972
 40
1.55336319157057
 40
1.709964074651579
 40
1.870272236443196
 40
2.190564059117389
 40
2.51612165308385
 40
2.844834989681557
 40
3.010170490642
 40
3.433741361106049
 40
3.795062718559564
 40
4.156384076013079
 40
4.517705433466594
 40
4.803096995319677
 40
5.088488557172762
 40
5.387077130908893
 40
5.685665704645024
 40
5.982327788684009
 40
6.278989872722995
 40
6.57565195676198
 40
6.872314040800966
 40
7.241517648492657
 40
7.610721256184348
 40
7.897011590779721
 40
8.183301925375094
 40
8.453921848578155
 40
8.724541771781217
 40
9.083876701511235
 40
9.43167664429852
 40
9.667430175905203
 40
10.02769626272259
 40
10.02769626272259
 40
10.02769626272259
 40
10.02769626272259
 10
-5.414552502736342
 20
166.7644984242193
 30
0.0
 10
-5.346429798592055
 20
166.7625761317647
 30
0.0
 10
-5.225391754249983
 20
166.7585635052363
 30
0.0
 10
-5.04347281790524
 20
166.7512811946587
 30
0.0
 10
-4.876537869417689
 20
166.7431217961774
 30
0.0
 10
-4.709271250674476
 20
166.7335624042377
 30
0.0
 10
-4.539758661832082
 20
166.7225300399335
 30
0.0
 10
-4.309047274905311
 20
166.7058122918385
 30
0.0
 10
-4.016131427205266
 20
166.6810901443953
 30
0.0
 10
-3.671221288901847
 20
166.6454875834123
 30
0.0
 10
-3.383495227362005
 20
166.6105743558477
 30
0.0
 10
-3.064021447429582
 20
166.5672946539424
 30
0.0
 10
-2.735948060930468
 20
166.5173101631967
 30
0.0
 10
-2.34428156950537
 20
166.4487895962419
 30
0.0
 10
-1.979945680735227
 20
166.3769852394942
 30
0.0
 10
-1.649103755852536
 20
166.3038430635255
 30
0.0
 10
-1.351714534171549
 20
166.2310624647497
 30
0.0
 10
-1.081548466607558
 20
166.1589934948474
 30
0.0
 10
-0.8149597856586297
 20
166.0815349683497
 30
0.0
 10
-0.5521680459854679
 20
165.9986512602353
 30
0.0
 10
-0.2963583795645377
 20
165.9115466330847
 30
0.0
 10
-0.0474009076056632
 20
165.8203520137935
 30
0.0
 10
0.1953383513599647
 20
165.7249769735433
 30
0.0
 10
0.4512259770803553
 20
165.6174125647098
 30
0.0
 10
0.7184952626298013
 20
165.496540236097
 30
0.0
 10
0.9744802909870032
 20
165.3714731580666
 30
0.0
 10
1.202788284572023
 20
165.2523634228038
 30
0.0
 10
1.403482082464734
 20
165.1425942642538
 30
0.0
 10
1.598551730891018
 20
165.0320016799263
 30
0.0
 10
1.801420333956344
 20
164.9090249329744
 30
0.0
 10
2.00040073154662
 20
164.772708429462
 30
0.0
 10
2.165161922842913
 20
164.6389888405419
 30
0.0
 10
2.314692765937309
 20
164.5034156732549
 30
0.0
 10
2.402272859273182
 20
164.4167375798499
 30
0.0
 10
2.453578786663115
 20
164.3640256115655
 30
0.0
  0
LINE
  5
D6
330
CB
100
AcDbEntity
  8
0
  6
Continuous
 62
     0
370
    30
100
AcDbLine
 10
4.001927
 20
161.627173
 30
0.0
 11
2.304027
 21
125.964204
 31
0.0
  0
LINE
  5
D7
330
CB
100
AcDbEntity
  8
0
  6
Continuous
 62
     0
370
     0
100
AcDbLine
 10
0.939539
 20
125.964208
 30
0.0
 11
2.453579
 21
164.364026
 31
0.0
  0
LINE
  5
D8
330
CB
100
AcDbEntity
  8
0
  6
Continuous
 62
     0
370
     0
100
AcDbLine
 10
-5.332189
 20
125.964199
 30
0.0
 11
-5.471284
 21
125.964198
 31
0.0
  0
ARC
  5
D9
330
CB
100
AcDbEntity
  8
0
  6
Continuous
 62
     0
370
     0
100
AcDbCircle
 10
-92460.582391
 20
275.259397
 30
0.0
 40
92455.23164685238
100
AcDbArc
 50
359.90748
 51
359.932764
  0
ARC
  5
DA
330
CB
100
AcDbEntity
  8
0
  6
Continuous
 62
     0
370
     0
100
AcDbCircle
 10
84114.5166
 20
51.38767
 30
0.0
 40
84121.54655821572
100
AcDbArc
 50
179.921392
 51
179.949183
  0
ELLIPSE
  5
DB
330
CB
100
AcDbEntity
  8
0
  6
Continuous
 62
     0
370
     0
100
AcDbEllipse
 10
-5.453169
 20
166.799398
 30
0.0
 11
-1.499998709516729
 21
0.001967599590440786
 31
0.0
210
0.0
220
0.0
230
1.0
 40
0.023243
 41
0.0563728589108443
 42
1.596673822175012
  0
ARC
  5
DC
330
CB
100
AcDbEntity
  8
0
  6
Continuous
 62
     0
370
    30
100
AcDbCircle
 10
-5.540723
 20
120.698538
 30
0.0
 40
1.500000000000002
100
AcDbArc
 50
179.999996
 51
272.069689
  0
SPLINE
  5
DD
330
CB
100
AcDbEntity
  8
0
  6
Continuous
 62
     0
370
     0
100
AcDbSpline
210
0.0
220
0.0
230
1.0
 70
     8
 71
     3
 72
    18
 73
    14
 74
     0
 42
0.000000001
 43
0.0
 40
0.0
 40
0.0
 40
0.0
 40
0.0
 40
0.7040270164530424
 40
1.295759034053318
 40
1.633227194692992
 40
1.882695714651265
 40
2.085978384419887
 40
2.399476426375227
 40
2.76062993912089
 40
3.281803497912946
 40
3.731036026613197
 40
4.746184634738002
 40
6.511452760270865
 40
6.511452760270865
 40
6.511452760270865
 40
6.511452760270865
 10
-7.040723183588852
 20
120.6985381287744
 30
0.0
 10
-7.040726482905995
 20
120.6985380352714
 30
0.0
 10
-7.037798765429216
 20
120.7576044626484
 30
0.0
 10
-7.028569944231094
 20
120.9932692799598
 30
0.0
 10
-7.020598424607499
 20
121.233839952838
 30
0.0
 10
-7.014977541858457
 20
121.4192735126395
 30
0.0
 10
-7.010673244653731
 20
121.6392106500793
 30
0.0
 10
-7.007145629156412
 20
121.9145261363982
 30
0.0
 10
-7.004002621784878
 20
122.3042820109643
 30
0.0
 10
-7.002140858547989
 20
122.7458356291472
 30
0.0
 10
-7.000554895313201
 20
123.4063752204825
 30
0.0
 10
-6.998570615774725
 20
124.4817798795036
 30
0.0
 10
-6.997383260110723
 20
125.4081452220692
 30
0.0
 10
-6.996872111960272
 20
125.9964319865319
 30
0.0
  0
SPLINE
  5
DE
330
CB
100
AcDbEntity
  8
0
  6
Continuous
 62
     0
370
     0
100
AcDbSpline
210
0.0
220
0.0
230
1.0
 70
     8
 71
     3
 72
    30
 73
    26
 74
     0
 42
0.000000001
 43
0.0
 40
0.0
 40
0.0
 40
0.0
 40
0.0
 40
1.235145892692358
 40
2.006058848014206
 40
2.780214246370494
 40
3.168132528337276
 40
3.76883019244176
 40
4.181684194939619
 40
4.745873156081188
 40
5.08420702685574
 40
5.419789841509303
 40
5.717410124962531
 40
5.99869121836398
 40
6.188442537829291
 40
6.274239072090314
 40
6.358435919717284
 40
6.452677978863814
 40
6.61239143561952
 40
6.727729837536588
 40
6.845000371816663
 40
6.958969470560348
 40
7.179509089822062
 40
7.396680465335415
 40
7.99153302971622
 40
8.826216395009139
 40
8.826216395009139
 40
8.826216395009139
 40
8.826216395009139
 10
-5.47128408934168
 20
125.9641977335521
 30
0.0
 10
-5.471808502910449
 20
125.6554980587014
 30
0.0
 10
-5.467329274792291
 20
125.1538461035447
 30
0.0
 10
-5.450378639678377
 20
124.4583824194987
 30
0.0
 10
-5.433439676404475
 20
123.9747060690896
 30
0.0
 10
-5.414811804491137
 20
123.5331886395452
 30
0.0
 10
-5.398042375008401
 20
123.1826987025586
 30
0.0
 10
-5.375219807994995
 20
122.7706326725714
 30
0.0
 10
-5.35145185846136
 20
122.3934233083051
 30
0.0
 10
-5.326939648076689
 20
121.9976144472277
 30
0.0
 10
-5.308501738272582
 20
121.6637100932527
 30
0.0
 10
-5.293284755421894
 20
121.3163515559279
 30
0.0
 10
-5.285054377551717
 20
120.9851789757764
 30
0.0
 10
-5.286978615082489
 20
120.7143614546607
 30
0.0
 10
-5.293818688942679
 20
120.5320853762769
 30
0.0
 10
-5.301912517992946
 20
120.399500608053
 30
0.0
 10
-5.313999881281916
 20
120.2606248535852
 30
0.0
 10
-5.326201077140695
 20
120.1507888181591
 30
0.0
 10
-5.338362927909088
 20
120.0497988270149
 30
0.0
 10
-5.349154916983139
 20
119.9654300797777
 30
0.0
 10
-5.363955647768648
 20
119.8561060397785
 30
0.0
 10
-5.383002844569432
 20
119.7282465760833
 30
0.0
 10
-5.418375440968646
 20
119.5158706413655
 30
0.0
 10
-5.469065796733048
 20
119.2660683009104
 30
0.0
 10
-5.486553850794394
 20
119.1995164736041
 30
0.0
 10
-5.48655064196123
 20
119.1995165582443
 30
0.0
  0
LINE
  5
DF
330
CB
100
AcDbEntity
  8
0
  6
Continuous
 62
     0
370
     0
100
AcDbLine
 10
0.939539
 20
125.964208
 30
0.0
 11
0.753932
 21
121.256629
 31
0.0
  0
SPLINE
  5
E0
330
CB
100
AcDbEntity
  8
0
  6
Continuous
 62
     0
370
    30
100
AcDbSpline
210
0.0
220
0.0
230
1.0
 70
     8
 71
     3
 72
    14
 73
    10
 74
     0
 42
0.000000001
 43
0.0
 40
0.0
 40
0.0
 40
0.0
 40
0.0
 40
0.959869858522463
 40
1.920209553095731
 40
2.881080345005874
 40
3.842023616642013
 40
4.803136771199672
 40
5.764136911794927
 40
6.725779570084066
 40
6.725779570084066
 40
6.725779570084066
 40
6.725779570084066
 10
0.7539318371170793
 20
121.2566287698476
 30
0.0
 10
0.5327463067716849
 20
121.0254379406096
 30
0.0
 10
0.0408339036084158
 20
120.6084453578175
 30
0.0
 10
-0.7932542445857962
 20
120.1246086673188
 30
0.0
 10
-1.688662480431674
 20
119.7688645238851
 30
0.0
 10
-2.617646408007602
 20
119.5169168026874
 30
0.0
 10
-3.564964226361781
 20
119.349476466833
 30
0.0
 10
-4.521214122101526
 20
119.2463711153014
 30
0.0
 10
-5.16138119184717
 20
119.2113276226857
 30
0.0
 10
-5.481717481068927
 20
119.1996916702256
 30
0.0
  0
SPLINE
  5
E1
330
CB
100
AcDbEntity
  8
0
  6
Continuous
 62
     0
370
    30
100
AcDbSpline
210
0.0
220
0.0
230
1.0
 70
     8
 71
     3
 72
    14
 73
    10
 74
     0
 42
0.000000001
 43
0.0
 40
0.0
 40
0.0
 40
0.0
 40
0.0
 40
0.7294674980048472
 40
1.450373905297451
 40
2.163775695996503
 40
2.872397796944338
 40
3.581869314751405
 40
4.303289579881687
 40
5.058649601130069
 40
5.058649601130069
 40
5.058649601130069
 40
5.058649601130069
 10
2.304026677388265
 20
125.9642041811596
 30
0.0
 10
2.292463252013022
 20
125.7213238651013
 30
0.0
 10
2.259143356830918
 20
125.2388007059168
 30
0.0
 10
2.170862557988812
 20
124.5225513276193
 30
0.0
 10
2.036631515580495
 20
123.8203116162993
 30
0.0
 10
1.846313890818124
 20
123.1347785426892
 30
0.0
 10
1.585757318311551
 20
122.4691991528195
 30
0.0
 10
1.234058105511053
 20
121.8283107955131
 30
0.0
 10
0.9279911586363028
 20
121.4385618493883
 30
0.0
 10
0.7539315201366321
 20
121.2566286706913
 30
0.0
  0
SPLINE
  5
E2
330
CB
100
AcDbEntity
  8
0
  6
Continuous
 62
     0
370
     0
100
AcDbSpline
210
0.0
220
0.0
230
1.0
 70
     8
 71
     3
 72
    19
 73
    15
 74
     0
 42
0.000000001
 43
0.0
 40
0.0
 40
0.0
 40
0.0
 40
0.0
 40
1.944818689850858
 40
3.879518989130776
 40
5.805642800460687
 40
7.725571429675663
 40
9.642265420132297
 40
11.55909434387184
 40
13.4793174695907
 40
15.40586401667402
 40
17.34099563188875
 40
19.28673070470717
 40
23.18505413553117
 40
27.10360883960967
 40
27.10360883960967
 40
27.10360883960967
 40
27.10360883960967
 10
-6.56351971737422
 20
175.280993778956
 30
0.0
 10
-6.49790376239855
 20
175.6922532706139
 30
0.0
 10
-6.361404900249227
 20
176.5999352011736
 30
0.0
 10
-6.167717474655035
 20
178.1769789789793
 30
0.0
 10
-6.009609755429892
 20
179.9224345778504
 30
0.0
 10
-5.906982793289671
 20
181.784530948286
 30
0.0
 10
-5.872619436824721
 20
183.7058701826546
 30
0.0
 10
-5.910994795440388
 20
185.6254849998048
 30
0.0
 10
-6.017173161943163
 20
187.4825735161717
 30
0.0
 10
-6.177890274353103
 20
189.2195210501245
 30
0.0
 10
-6.372905272723244
 20
190.7866683830945
 30
0.0
 10
-6.646062250799218
 20
192.5852206052998
 30
0.0
 10
-6.945799263510327
 20
194.2044961097973
 30
0.0
 10
-7.040733299396226
 20
194.6515971017434
 30
0.0
 10
-7.040717703833446
 20
194.6515652329997
 30
0.0
  0
SPLINE
  5
E3
330
CB
100
AcDbEntity
  8
0
  6
Continuous
 62
     0
370
     0
100
AcDbSpline
210
0.0
220
0.0
230
1.0
 70
     8
 71
     3
 72
    14
 73
    10
 74
     0
 42
0.000000001
 43
0.0
 40
0.0
 40
0.0
 40
0.0
 40
0.0
 40
1.382864170633273
 40
2.767013309008381
 40
4.153480982412725
 40
5.543211805218741
 40
6.936725925118182
 40
8.334218231834106
 40
9.738528679551933
 40
9.738528679551933
 40
9.738528679551933
 40
9.738528679551933
 10
-6.950786101146775
 20
166.7994070212428
 30
0.0
 10
-6.950165070348248
 20
167.2602298892828
 30
0.0
 10
-6.945733871133029
 20
168.1819383567184
 30
0.0
 10
-6.928596723272449
 20
169.5395244637375
 30
0.0
 10
-6.898631531343028
 20
170.8537555437297
 30
0.0
 10
-6.852332088770368
 20
172.104853938442
 30
0.0
 10
-6.785382970670923
 20
173.2747578262709
 30
0.0
 10
-6.693082020057318
 20
174.3476510503369
 30
0.0
 10
-6.610900001078107
 20
174.9840287105915
 30
0.0
 10
-6.563520239541731
 20
175.2809904112304
 30
0.0
  0
ELLIPSE
  5
E4
330
CB
100
AcDbEntity
  8
0
  6
Continuous
 62
     0
370
     0
100
AcDbEllipse
 10
-5.076435
 20
175.280991
 30
0.0
 11
1.482319950822036
 21
-0.2296248318343702
 31
0.0
210
0.0
220
0.0
230
-1.0
 40
0.757151
 41
1.454040551322593
 42
2.939782519236672
  0
LINE
  5
E5
330
CB
100
AcDbEntity
  8
0
  6
Continuous
 62
     0
370
     0
100
AcDbLine
 10
0.939539
 20
125.964208
 30
0.0
 11
-5.332189
 21
125.964199
 31
0.0
  0
ELLIPSE
  5
E6
330
CB
100
AcDbEntity
  8
0
  6
Continuous
 62
     0
370
     0
100
AcDbEllipse
 10
-5.498033
 20
125.996432
 30
0.0
 11
1.499999463379547
 21
-0.001268803007687873
 31
0.0
210
0.0
220
0.0
230
-1.0
 40
0.021478
 41
1.552944393944632
 42
3.102233043432753
  0
SPLINE
  5
E7
330
CB
100
AcDbEntity
  8
0
  6
Continuous
 62
     0
370
     0
100
AcDbSpline
210
0.0
220
0.0
230
1.0
 70
     8
 71
     9
 72
    20
 73
    10
 74
     0
 42
0.000000001
 43
0.0
 40
0.0
 40
0.0
 40
0.0
 40
0.0
 40
0.0
 40
0.0
 40
0.0
 40
0.0
 40
0.0
 40
0.0
 40
0.2499999949532693
 40
0.2499999949532693
 40
0.2499999949532693
 40
0.2499999949532693
 40
0.2499999949532693
 40
0.2499999949532693
 40
0.2499999949532693
 40
0.2499999949532693
 40
0.2499999949532693
 40
0.2499999949532693
 10
2.304026587435715
 20
125.9642041924769
 30
0.0
 10
2.304026678521041
 20
125.9642041782073
 30
0.0
 10
2.272376922238664
 20
125.9641939980911
 30
0.0
 10
2.202592682712293
 20
125.9641957501614
 30
0.0
 10
2.087653535049583
 20
125.9641983296466
 30
0.0
 10
1.91879802211065
 20
125.9642015646079
 30
0.0
 10
1.708916069488396
 20
125.9642045157847
 30
0.0
 10
1.470566460493501
 20
125.9642067782398
 30
0.0
 10
1.212145111416589
 20
125.9642080712938
 30
0.0
 10
0.9395390471191831
 20
125.964208208745
 30
0.0
  0
ARC
  5
E8
330
CB
100
AcDbEntity
  8
0
  6
Continuous
 62
     0
370
     0
100
AcDbCircle
 10
13.706088
 20
158.66512
 30
0.0
 40
12.66807715131074
100
AcDbArc
 50
80.287321
 51
91.259052
  0
SPLINE
  5
E9
330
CB
100
AcDbEntity
  8
0
  6
Continuous
 62
     0
370
     0
100
AcDbSpline
210
0.0
220
0.0
230
1.0
 70
     8
 71
     3
 72
    14
 73
    10
 74
     0
 42
0.000000001
 43
0.0
 40
0.0
 40
0.0
 40
0.0
 40
0.0
 40
0.440757904857497
 40
0.8809951498000718
 40
1.321542685411743
 40
1.762258113484925
 40
2.20286425169064
 40
2.643363622710561
 40
3.083672144984925
 40
3.083672144984925
 40
3.083672144984925
 40
3.083672144984925
 10
13.42772303679413
 20
171.3301357649857
 30
0.0
 10
13.2822233287099
 20
171.3267066527266
 30
0.0
 10
12.9949154583046
 20
171.3081035621716
 30
0.0
 10
12.59885356288561
 20
171.2458874790639
 30
0.0
 10
12.25369865853833
 20
171.1564707305067
 30
0.0
 10
11.97079110559008
 20
171.0531038666251
 30
0.0
 10
11.75814143690695
 20
170.9535532879462
 30
0.0
 10
11.62417729317121
 20
170.8789541128517
 30
0.0
 10
11.59328544021758
 20
170.8600047767646
 30
0.0
 10
11.5932880896861
 20
170.8600050318538
 30
0.0
  0
ARC
  5
EA
330
CB
100
AcDbEntity
  8
0
  6
Continuous
 62
     0
370
    30
100
AcDbCircle
 10
26.368288
 20
194.151615
 30
0.0
 40
0.25
100
AcDbArc
 50
270.0
 51
360.0
  0
ARC
  5
EB
330
CB
100
AcDbEntity
  8
0
  6
Continuous
 62
     0
370
    30
100
AcDbCircle
 10
26.818288
 20
213.451615
 30
0.0
 40
0.2000000029802322
100
AcDbArc
 50
90.0
 51
180.0
  0
LINE
  5
EC
330
CB
100
AcDbEntity
  8
0
  6
Continuous
 62
     0
370
    30
100
AcDbLine
 10
26.818288
 20
213.651615
 30
0.0
 11
32.318288
 21
213.651615
 31
0.0
  0
LINE
  5
ED
330
CB
100
AcDbEntity
  8
0
  6
Continuous
 62
     0
370
     0
100
AcDbLine
 10
26.368288
 20
173.401615
 30
0.0
 11
26.368288
 21
193.901615
 31
0.0
  0
LINE
  5
EE
330
CB
100
AcDbEntity
  8
0
  6
Continuous
 62
     0
370
    30
100
AcDbLine
 10
26.618288
 20
153.851615
 30
0.0
 11
26.618288
 21
213.451615
 31
0.0
  0
LINE
  5
EF
330
CB
100
AcDbEntity
  8
0
  6
Continuous
 62
     0
370
     0
100
AcDbLine
 10
26.818288
 20
153.651615
 30
0.0
 11
26.818288
 21
213.651615
 31
0.0
  0
LINE
  5
F0
330
CB
100
AcDbEntity
  8
0
  6
Continuous
 62
     0
370
    30
100
AcDbLine
 10
32.318288
 20
153.651615
 30
0.0
 11
32.318288
 21
213.651615
 31
0.0
  0
LINE
  5
F1
330
CB
100
AcDbEntity
  8
0
  6
Continuous
 62
     0
370
    30
100
AcDbLine
 10
25.718288
 20
193.901615
 30
0.0
 11
26.368288
 21
193.901615
 31
0.0
  0
SPLINE
  5
F2
330
CB
100
AcDbEntity
  8
0
  6
Continuous
 62
     0
370
    30
100
AcDbSpline
210
0.0
220
0.0
230
1.0
 70
     8
 71
     3
 72
    14
 73
    10
 74
     0
 42
0.000000001
 43
0.0
 40
0.0
 40
0.0
 40
0.0
 40
0.0
 40
1.513815793375246
 40
2.2444493141925
 40
2.983995229909195
 40
3.35606660294912
 40
3.728579967711822
 40
4.001904634258905
 40
4.274587389037798
 40
4.274587389037798
 40
4.274587389037798
 40
4.274587389037798
 10
15.84328808925295
 20
171.1516151431722
 30
0.0
 10
15.33868461005261
 20
171.1516151428763
 30
0.0
 10
14.59059833951892
 20
171.1657073281114
 30
0.0
 10
13.59584089441205
 20
171.1525182923163
 30
0.0
 10
12.98279177643713
 20
171.1110823015184
 30
0.0
 10
12.49193797261927
 20
171.0482941708777
 30
0.0
 10
12.15761089393214
 20
170.9899108601479
 30
0.0
 10
11.85819175330568
 20
170.9256113962755
 30
0.0
 10
11.6817043227735
 20
170.8810842758855
 30
0.0
 10
11.59328808953427
 20
170.860005031573
 30
0.0
  0
ARC
  5
F3
330
CB
100
AcDbEntity
  8
0
  6
Continuous
 62
     0
370
    30
100
AcDbCircle
 10
-5.540658
 20
194.651539
 30
0.0
 40
1.500016838986739
100
AcDbArc
 50
90.00079
 51
179.998999
  0
LINE
  5
F4
330
CB
100
AcDbEntity
  8
0
  6
Continuous
 62
     0
370
    30
100
AcDbLine
 10
-7.040723
 20
120.698538
 30
0.0
 11
-7.040718
 21
194.651565
 31
0.0
  0
LINE
  5
F5
330
CB
100
AcDbEntity
  8
0
  6
Continuous
 62
     0
370
    30
100
AcDbLine
 10
-7.040723
 20
120.698538
 30
0.0
 11
-7.038953
 21
120.625684
 31
0.0
  0
LINE
  5
F6
330
CB
100
AcDbEntity
  8
0
  6
Continuous
 62
     0
370
    30
100
AcDbLine
 10
-5.540679
 20
196.151615
 30
0.0
 11
25.718288
 21
196.151615
 31
0.0
  0
LINE
  5
F7
330
CB
100
AcDbEntity
  8
0
  6
Continuous
 62
     0
370
    30
100
AcDbLine
 10
26.818288
 20
153.651615
 30
0.0
 11
32.318288
 21
153.651615
 31
0.0
  0
ARC
  5
F8
330
CB
100
AcDbEntity
  8
0
  6
Continuous
 62
     0
370
    30
100
AcDbCircle
 10
26.818288
 20
153.851615
 30
0.0
 40
0.2000000029802322
100
AcDbArc
 50
180.0
 51
270.0
  0
ARC
  5
F9
330
CB
100
AcDbEntity
  8
0
  6
Continuous
 62
     0
370
    30
100
AcDbCircle
 10
26.368288
 20
173.151615
 30
0.0
 40
0.25
100
AcDbArc
 50
0.0
 51
90.0
  0
LINE
  5
FA
330
CB
100
AcDbEntity
  8
0
  6
Continuous
 62
     0
370
    30
100
AcDbLine
 10
25.718288
 20
173.401615
 30
0.0
 11
26.368288
 21
173.401615
 31
0.0
  0
ENDBLK
  5
FC
330
CB
100
AcDbEntity
  8
0
100
AcDbBlockEnd
  0
BLOCK
  5
116
330
FE
100
AcDbEntity
  8
0
100
AcDbBlockBegin
  2
d
 70
     0
 10
0.0
 20
69.248098
 30
0.0
  3
d
  1

  0
SPLINE
  5
FF
330
FE
100
AcDbEntity
  8
0
  6
Continuous
 62
     0
370
     0
100
AcDbSpline
210
0.0
220
0.0
230
1.0
 70
     8
 71
     3
 72
    17
 73
    13
 74
     0
 42
0.000000001
 43
0.0
 40
10.77936883426035
 40
10.77936883426035
 40
10.77936883426035
 40
10.77936883426035
 40
13.00920997969028
 40
17.34574091751642
 40
21.68030458132657
 40
26.0158598568891
 40
30.35360663391604
 40
34.69137162723425
 40
39.02687277555464
 40
43.36148144101966
 40
47.69798630468826
 40
49.92780254727324
 40
49.92780254727324
 40
49.92780254727324
 40
49.92780254727324
 10
127.238744160443
 20
13.51687475070959
 30
0.0
 10
127.2387386911162
 20
13.51684448597118
 30
0.0
 10
127.4345641047508
 20
13.48129222626392
 30
0.0
 10
128.7177852734908
 20
13.24984778031683
 30
0.0
 10
131.5580170792277
 20
12.83580929305788
 30
0.0
 10
135.3788971639203
 20
12.4857767531206
 30
0.0
 10
139.7378727370602
 20
12.34621679369025
 30
0.0
 10
144.0968433757793
 20
12.48563114044714
 30
0.0
 10
147.9177285555126
 20
12.83582555575481
 30
0.0
 10
150.7579955036093
 20
13.24945583878764
 30
0.0
 10
152.0412228610841
 20
13.48112981548247
 30
0.0
 10
152.2370630405618
 20
13.51655076319985
 30
0.0
 10
152.2370635535094
 20
13.51654795754658
 30
0.0
  0
LINE
  5
100
330
FE
100
AcDbEntity
  8
0
  6
Continuous
 62
     0
370
    30
100
AcDbLine
 10
152.237903
 20
43.651688
 30
0.0
 11
127.237903
 21
43.651688
 31
0.0
  0
SPLINE
  5
101
330
FE
100
AcDbEntity
  8
0
  6
Continuous
 62
     0
370
    30
100
AcDbSpline
210
0.0
220
0.0
230
1.0
 70
     8
 71
     3
 72
    23
 73
    19
 74
     0
 42
0.000000001
 43
0.0
 40
9.589059798233244
 40
9.589059798233244
 40
9.589059798233244
 40
9.589059798233244
 40
9.642265420132297
 40
11.55909434387184
 40
13.4793174695907
 40
15.40586401667402
 40
17.34099563188875
 40
19.28673070470717
 40
23.18505413553117
 40
27.1036091078416
 40
31.02216571618501
 40
34.92075349536309
 40
36.86614307564447
 40
38.80138421432545
 40
40.72795329880143
 40
42.64816249845496
 40
44.56496741876284
 40
44.61841615640433
 40
44.61841615640433
 40
44.61841615640433
 40
44.61841615640433
 10
151.0445318553763
 20
12.04869219232742
 30
0.0
 10
151.0445318291672
 20
12.04869231625953
 30
0.0
 10
151.0428893039539
 20
12.04835185653673
 30
0.0
 10
150.9195477966705
 20
12.02240521418258
 30
0.0
 10
150.3982625534262
 20
11.9162267437178
 30
0.0
 10
149.5552921632888
 20
11.75550951853603
 30
0.0
 10
148.4179487437662
 20
11.56049440194886
 30
0.0
 10
146.5551502796452
 20
11.28733726383018
 30
0.0
 10
143.6680763851631
 20
10.98760004590491
 30
0.0
 10
139.7378117953239
 20
10.84507592014239
 30
0.0
 10
135.8076914822585
 20
10.98769642579407
 30
0.0
 10
132.9201231123063
 20
11.2875769945519
 30
0.0
 10
131.0581308850236
 20
11.56066296260536
 30
0.0
 10
129.920116557008
 20
11.75582041695492
 30
0.0
 10
129.0775989319231
 20
11.91648297780148
 30
0.0
 10
128.5562259462456
 20
12.02269067802098
 30
0.0
 10
128.4329284010364
 20
12.04863242589107
 30
0.0
 10
128.431279214017
 20
12.04897440195074
 30
0.0
 10
128.431279188355
 20
12.04897427900628
 30
0.0
  0
LINE
  5
102
330
FE
100
AcDbEntity
  8
0
  6
Continuous
 62
     0
370
     0
100
AcDbLine
 10
149.987903
 20
44.301688
 30
0.0
 11
139.737903
 21
44.301688
 31
0.0
  0
LINE
  5
103
330
FE
100
AcDbEntity
  8
0
  6
Continuous
 62
     0
370
     0
100
AcDbLine
 10
139.737903
 20
44.301688
 30
0.0
 11
129.487903
 21
44.301688
 31
0.0
  0
LINE
  5
104
330
FE
100
AcDbEntity
  8
0
  6
Continuous
 62
     0
370
    30
100
AcDbLine
 10
169.537903
 20
44.551688
 30
0.0
 11
139.737903
 21
44.551688
 31
0.0
  0
LINE
  5
105
330
FE
100
AcDbEntity
  8
0
  6
Continuous
 62
     0
370
    30
100
AcDbLine
 10
139.737903
 20
44.551688
 30
0.0
 11
109.937903
 21
44.551688
 31
0.0
  0
LINE
  5
106
330
FE
100
AcDbEntity
  8
0
  6
Continuous
 62
     0
370
     0
100
AcDbLine
 10
169.737903
 20
44.751688
 30
0.0
 11
139.737903
 21
44.751688
 31
0.0
  0
LINE
  5
107
330
FE
100
AcDbEntity
  8
0
  6
Continuous
 62
     0
370
     0
100
AcDbLine
 10
139.737903
 20
44.751688
 30
0.0
 11
109.737903
 21
44.751688
 31
0.0
  0
LINE
  5
108
330
FE
100
AcDbEntity
  8
0
  6
Continuous
 62
     0
370
    30
100
AcDbLine
 10
169.737903
 20
50.251688
 30
0.0
 11
139.737903
 21
50.251688
 31
0.0
  0
LINE
  5
109
330
FE
100
AcDbEntity
  8
0
  6
Continuous
 62
     0
370
    30
100
AcDbLine
 10
139.737903
 20
50.251688
 30
0.0
 11
109.737903
 21
50.251688
 31
0.0
  0
ARC
  5
10A
330
FE
100
AcDbEntity
  8
0
  6
Continuous
 62
     0
370
    30
100
AcDbCircle
 10
150.737886
 20
13.517008
 30
0.0
 40
1.500001483412422
100
AcDbArc
 50
281.794957
 51
0.000099
  0
SPLINE
  5
10B
330
FE
100
AcDbEntity
  8
0
  6
Continuous
 62
     0
370
    30
100
AcDbSpline
210
0.0
220
0.0
230
1.0
 70
     8
 71
     3
 72
    26
 73
    22
 74
     0
 42
0.000000001
 43
0.0
 40
0.0
 40
0.0
 40
0.0
 40
0.0
 40
0.1880443811064094
 40
0.5641334333735504
 40
0.8148596836012039
 40
1.065586107226487
 40
1.128267740538946
 40
1.190949384576187
 40
1.504357774715733
 40
1.629721408242529
 40
1.692403239651451
 40
1.817767508769043
 40
1.880449940384417
 40
1.943136813141282
 40
2.005895832868075
 40
2.01652416589573
 40
2.02715197153293
 40
2.033920648962329
 40
2.040688010197219
 40
2.055897510887859
 40
2.130097668131816
 40
2.130097668131816
 40
2.130097668131816
 40
2.130097668131816
 10
127.2379562652766
 20
13.51724892270977
 30
0.0
 10
127.2379566148735
 20
13.4546039477039
 30
0.0
 10
127.2497436589778
 20
13.26646123621936
 30
0.0
 10
127.3176757417181
 20
13.00129896410726
 30
0.0
 10
127.4479433403209
 20
12.73820992067323
 30
0.0
 10
127.5586435521747
 20
12.58537715953861
 30
0.0
 10
127.6423966089161
 20
12.4920466634926
 30
0.0
 10
127.7445664083072
 20
12.38733275119984
 30
0.0
 10
127.8760728043874
 20
12.28266059160273
 30
0.0
 10
128.0207618352387
 20
12.19866294499229
 30
0.0
 10
128.1142554857079
 20
12.15195488536
 30
0.0
 10
128.1912234499287
 20
12.11934232878309
 30
0.0
 10
128.2702414496067
 20
12.09159003927698
 30
0.0
 10
128.329794328903
 20
12.07338295292016
 30
0.0
 10
128.3748909784024
 20
12.06169875147191
 30
0.0
 10
128.4007541495814
 20
12.05563577584491
 30
0.0
 10
128.4105329738625
 20
12.05342246310533
 30
0.0
 10
128.4159122413495
 20
12.05223211813848
 30
0.0
 10
128.4240105490349
 20
12.05047053168477
 30
0.0
 10
128.4298376052091
 20
12.04925080826067
 30
0.0
 10
128.4351914088205
 20
12.04810041086514
 30
0.0
 10
128.4351916391642
 20
12.04810148099851
 30
0.0
  0
LINE
  5
10C
330
FE
100
AcDbEntity
  8
0
  6
Continuous
 62
     0
370
    30
100
AcDbLine
 10
127.237903
 20
13.517249
 30
0.0
 11
127.237903
 21
43.651688
 31
0.0
  0
LINE
  5
10D
330
FE
100
AcDbEntity
  8
0
  6
Continuous
 62
     0
370
    30
100
AcDbLine
 10
152.237903
 20
13.51701
 30
0.0
 11
152.237903
 21
43.651688
 31
0.0
  0
LINE
  5
10E
330
FE
100
AcDbEntity
  8
0
  6
Continuous
 62
     0
370
    30
100
AcDbLine
 10
109.737903
 20
44.751688
 30
0.0
 11
109.737903
 21
50.251688
 31
0.0
  0
LINE
  5
10F
330
FE
100
AcDbEntity
  8
0
  6
Continuous
 62
     0
370
    30
100
AcDbLine
 10
169.737903
 20
44.751688
 30
0.0
 11
169.737903
 21
50.251688
 31
0.0
  0
ARC
  5
110
330
FE
100
AcDbEntity
  8
0
  6
Continuous
 62
     0
370
    30
100
AcDbCircle
 10
109.937903
 20
44.751688
 30
0.0
 40
0.2000000029802322
100
AcDbArc
 50
180.0
 51
270.0
  0
ARC
  5
111
330
FE
100
AcDbEntity
  8
0
  6
Continuous
 62
     0
370
    30
100
AcDbCircle
 10
169.537903
 20
44.751688
 30
0.0
 40
0.2000000029802322
100
AcDbArc
 50
270.0
 51
360.0
  0
ARC
  5
112
330
FE
100
AcDbEntity
  8
0
  6
Continuous
 62
     0
370
    30
100
AcDbCircle
 10
129.237903
 20
44.301688
 30
0.0
 40
0.25
100
AcDbArc
 50
360.0
 51
90.0
  0
ARC
  5
113
330
FE
100
AcDbEntity
  8
0
  6
Continuous
 62
     0
370
    30
100
AcDbCircle
 10
150.237903
 20
44.301688
 30
0.0
 40
0.25
100
AcDbArc
 50
90.0
 51
180.0
  0
LINE
  5
114
330
FE
100
AcDbEntity
  8
0
  6
Continuous
 62
     0
370
    30
100
AcDbLine
 10
129.487903
 20
43.651688
 30
0.0
 11
129.487903
 21
44.301688
 31
0.0
  0
LINE
  5
115
330
FE
100
AcDbEntity
  8
0
  6
Continuous
 62
     0
370
    30
100
AcDbLine
 10
149.987903
 20
43.651688
 30
0.0
 11
149.987903
 21
44.301688
 31
0.0
  0
ENDBLK
  5
117
330
FE
100
AcDbEntity
  8
0
100
AcDbBlockEnd
  0
BLOCK
  5
15F
330
119
100
AcDbEntity
  8
0
100
AcDbBlockBegin
  2
e
 70
     0
 10
0.0
 20
223.415466
 30
0.0
  3
e
  1

  0
SPLINE
  5
11A
330
119
100
AcDbEntity
  8
0
  6
Continuous
 62
     0
370
     0
100
AcDbSpline
210
0.0
220
0.0
230
1.0
 70
     8
 71
     3
 72
    10
 73
     6
 74
     0
 42
0.000000001
 43
0.0
 40
49.92780254727324
 40
49.92780254727324
 40
49.92780254727324
 40
49.92780254727324
 40
52.03606693161141
 40
56.37263841474423
 40
60.7072506011606
 40
60.7072506011606
 40
60.7072506011606
 40
60.7072506011606
 10
152.2370635535094
 20
321.2246823929922
 30
0.0
 10
152.237064038495
 20
321.2246851074701
 30
0.0
 10
152.0553281711275
 20
321.2575715429739
 30
0.0
 10
150.822798630471
 20
321.4809858130011
 30
0.0
 10
148.9430281239711
 20
321.7569712657331
 30
0.0
 10
147.8478064837262
 20
321.8842647240702
 30
0.0
  0
SPLINE
  5
11B
330
119
100
AcDbEntity
  8
0
  6
Continuous
 62
     0
370
     0
100
AcDbSpline
210
0.0
220
0.0
230
1.0
 70
     8
 71
     3
 72
    10
 73
     6
 74
     0
 42
0.000000001
 43
0.0
 40
0.0
 40
0.0
 40
0.0
 40
0.0
 40
4.33464153288073
 40
8.671121330573097
 40
10.77936883426035
 40
10.77936883426035
 40
10.77936883426035
 40
10.77936883426035
 10
131.6280067878074
 20
321.8840871623489
 30
0.0
 10
130.5327786985452
 20
321.7567692690986
 30
0.0
 10
128.6530076159191
 20
321.481167592224
 30
0.0
 10
127.4204971772304
 20
321.2571479452547
 30
0.0
 10
127.2387493315265
 20
321.2243270472071
 30
0.0
 10
127.238744160443
 20
321.2243555998377
 30
0.0
  0
SPLINE
  5
11C
330
119
100
AcDbEntity
  8
0
  6
Continuous
 62
     0
370
     0
100
AcDbSpline
210
0.0
220
0.0
230
1.0
 70
     8
 71
     3
 72
    14
 73
    10
 74
     0
 42
0.000000001
 43
0.0
 40
0.0
 40
0.0
 40
0.0
 40
0.0
 40
1.974027971177131
 40
3.936390186585609
 40
5.878649482336035
 40
7.790165265916714
 40
9.659696083105716
 40
11.4773290793628
 40
13.22973633779209
 40
13.22973633779209
 40
13.22973633779209
 40
13.22973633779209
 10
147.847806504178
 20
321.884266034121
 30
0.0
 10
147.8375361725099
 20
321.2263951383315
 30
0.0
 10
147.7982618557094
 20
319.9148387334548
 30
0.0
 10
147.6730303145572
 20
317.9614837156929
 30
0.0
 10
147.4812458089124
 20
316.037833039009
 30
0.0
 10
147.2155783726173
 20
314.1589172252404
 30
0.0
 10
146.8681706926141
 20
312.3415391529967
 30
0.0
 10
146.4378533767324
 20
310.6027683654083
 30
0.0
 10
146.0865256503247
 20
309.4843168817492
 30
0.0
 10
145.889992854339
 20
308.9455752389418
 30
0.0
  0
SPLINE
  5
11D
330
119
100
AcDbEntity
  8
0
  6
Continuous
 62
     0
370
     0
100
AcDbSpline
210
0.0
220
0.0
230
1.0
 70
     8
 71
     3
 72
    10
 73
     6
 74
     0
 42
0.000000001
 43
0.0
 40
0.0
 40
0.0
 40
0.0
 40
0.0
 40
2.675166191136399
 40
5.065888977361243
 40
7.153974138352582
 40
7.153974138352582
 40
7.153974138352582
 40
7.153974138352582
 10
145.889992854339
 20
308.9455752389418
 30
0.0
 10
145.5899724745206
 20
308.1231503022366
 30
0.0
 10
144.9179374172962
 20
306.6042721078906
 30
0.0
 10
143.5896440437505
 20
304.6761318570488
 30
0.0
 10
142.4462991379968
 20
303.7114579721481
 30
0.0
 10
141.8429502820941
 20
303.3800963538889
 30
0.0
  0
LINE
  5
11E
330
119
100
AcDbEntity
  8
0
  6
Continuous
 62
     0
370
    30
100
AcDbLine
 10
127.237903
 20
291.089543
 30
0.0
 11
139.737903
 21
291.089543
 31
0.0
  0
LINE
  5
11F
330
119
100
AcDbEntity
  8
0
  6
Continuous
 62
     0
370
    30
100
AcDbLine
 10
139.737903
 20
291.089543
 30
0.0
 11
152.237903
 21
291.089543
 31
0.0
  0
SPLINE
  5
120
330
119
100
AcDbEntity
  8
0
  6
Continuous
 62
     0
370
     0
100
AcDbSpline
210
0.0
220
0.0
230
1.0
 70
     8
 71
     3
 72
    10
 73
     6
 74
     0
 42
0.000000001
 43
0.0
 40
0.0
 40
0.0
 40
0.0
 40
0.0
 40
2.088085802408079
 40
4.478809431012515
 40
7.153976633746879
 40
7.153976633746879
 40
7.153976633746879
 40
7.153976633746879
 10
137.6328566805602
 20
303.3800964592944
 30
0.0
 10
137.0295076537947
 20
303.7114582066932
 30
0.0
 10
135.8861624613991
 20
304.6761325423507
 30
0.0
 10
134.5578689185298
 20
306.6042736824242
 30
0.0
 10
133.88583387931
 20
308.1231525729781
 30
0.0
 10
133.5858135349573
 20
308.9455778881754
 30
0.0
  0
SPLINE
  5
121
330
119
100
AcDbEntity
  8
0
  6
Continuous
 62
     0
370
     0
100
AcDbSpline
210
0.0
220
0.0
230
1.0
 70
     8
 71
     3
 72
    14
 73
    10
 74
     0
 42
0.000000001
 43
0.0
 40
0.0
 40
0.0
 40
0.0
 40
0.0
 40
1.752369726229721
 40
3.569974643483515
 40
5.439505520164665
 40
7.350961146559897
 40
9.293212778696583
 40
11.25555797281267
 40
13.22955802806231
 40
13.22955802806231
 40
13.22955802806231
 40
13.22955802806231
 10
133.5858135349573
 20
308.9455778881754
 30
0.0
 10
133.3892850457625
 20
309.4843080366924
 30
0.0
 10
133.0380007612831
 20
310.6027531109683
 30
0.0
 10
132.6075844642627
 20
312.3414674733076
 30
0.0
 10
132.2603057210363
 20
314.1588522434687
 30
0.0
 10
131.9944799388157
 20
316.0377073425866
 30
0.0
 10
131.8027818534708
 20
317.9613486888898
 30
0.0
 10
131.6775921845431
 20
319.9146850623458
 30
0.0
 10
131.6382169689246
 20
321.2262239567606
 30
0.0
 10
131.6280067878074
 20
321.8840871623489
 30
0.0
  0
ELLIPSE
  5
122
330
119
100
AcDbEntity
  8
0
  6
Continuous
 62
     0
370
     0
100
AcDbEllipse
 10
128.664142
 20
308.945578
 30
0.0
 11
-8.358986852841731
 21
-5.488837654186821
 31
0.0
210
0.0
220
0.0
230
-1.0
 40
0.296386
 41
3.17287050286983
 42
4.288397369789942
  0
LINE
  5
123
330
119
100
AcDbEntity
  8
0
  6
Continuous
 62
     0
370
     0
100
AcDbLine
 10
139.737837
 20
305.214543
 30
0.0
 11
139.737835
 21
312.805905
 31
0.0
  0
SPLINE
  5
124
330
119
100
AcDbEntity
  8
0
  6
Continuous
 62
     0
370
     0
100
AcDbSpline
210
0.0
220
0.0
230
1.0
 70
     8
 71
     3
 72
    13
 73
     9
 74
     0
 42
0.000000001
 43
0.0
 40
0.0
 40
0.0
 40
0.0
 40
0.0
 40
0.5473648797081645
 40
1.055149537312475
 40
2.027463782078881
 40
2.695584700629958
 40
3.554900745899134
 40
4.313302770659927
 40
4.313302770659927
 40
4.313302770659927
 40
4.313302770659927
 10
139.7378361845686
 20
312.8059047579213
 30
0.0
 10
139.61123834827
 20
312.8059046670584
 30
0.0
 10
139.3746956620897
 20
312.8203379021687
 30
0.0
 10
138.9402748509575
 20
312.8977639673842
 30
0.0
 10
138.5017273675307
 20
313.0525497645941
 30
0.0
 10
138.0031047662516
 20
313.3444137424127
 30
0.0
 10
137.5475267046081
 20
313.7311579169772
 30
0.0
 10
137.2210061039312
 20
314.1320453771772
 30
0.0
 10
137.0699149966464
 20
314.354253332264
 30
0.0
  0
SPLINE
  5
125
330
119
100
AcDbEntity
  8
0
  6
Continuous
 62
     0
370
     0
100
AcDbSpline
210
0.0
220
0.0
230
1.0
 70
     8
 71
     3
 72
    13
 73
     9
 74
     0
 42
0.000000001
 43
0.0
 40
0.0
 40
0.0
 40
0.0
 40
0.0
 40
0.5473647493952614
 40
1.055149285041185
 40
2.027463515246973
 40
2.69558469592278
 40
3.554900930002945
 40
4.313303105046226
 40
4.313303105046226
 40
4.313303105046226
 40
4.313303105046226
 10
139.7379704555861
 20
312.8059047579055
 30
0.0
 10
139.8645682531169
 20
312.8059046378928
 30
0.0
 10
140.1011108761369
 20
312.8203378098128
 30
0.0
 10
140.5355316476619
 20
312.8977637364555
 30
0.0
 10
140.9740792092473
 20
313.052549392439
 30
0.0
 10
141.4727019889257
 20
313.3444132310518
 30
0.0
 10
141.9282802833054
 20
313.7311573327246
 30
0.0
 10
142.2548010626464
 20
314.1320447460502
 30
0.0
 10
142.4058922593768
 20
314.3542526832035
 30
0.0
  0
ELLIPSE
  5
126
330
119
100
AcDbEntity
  8
0
  6
Continuous
 62
     0
370
     0
100
AcDbEllipse
 10
150.811664
 20
308.945576
 30
0.0
 11
8.358985396169238
 21
-5.488839872562275
 31
0.0
210
0.0
220
0.0
230
1.0
 40
0.296387
 41
3.17287058237573
 42
4.288397489440372
  0
SPLINE
  5
127
330
119
100
AcDbEntity
  8
0
  6
Continuous
 62
     0
370
     0
100
AcDbSpline
210
0.0
220
0.0
230
1.0
 70
     8
 71
     3
 72
    10
 73
     6
 74
     0
 42
0.000000001
 43
0.0
 40
0.0
 40
0.0
 40
0.0
 40
0.0
 40
2.798270619055192
 40
5.595978195444554
 40
8.393884764184449
 40
8.393884764184449
 40
8.393884764184449
 40
8.393884764184449
 10
147.8478038993323
 20
321.8842661056105
 30
0.0
 10
147.1422738678721
 20
321.9863681973235
 30
0.0
 10
145.8889077609925
 20
322.1276135348564
 30
0.0
 10
144.6736464091144
 20
322.2156469167283
 30
0.0
 10
144.3657417394538
 20
322.2251546356912
 30
0.0
 10
144.3439587094441
 20
322.2223837829594
 30
0.0
  0
SPLINE
  5
128
330
119
100
AcDbEntity
  8
0
  6
Continuous
 62
     0
370
     0
100
AcDbSpline
210
0.0
220
0.0
230
1.0
 70
     8
 71
     3
 72
    39
 73
    35
 74
     0
 42
0.000000001
 43
0.0
 40
0.9242651249458449
 40
0.9242651249458449
 40
0.9242651249458449
 40
0.9242651249458449
 40
1.095853179809037
 40
1.243779472733291
 40
1.397011119722972
 40
1.55336319157057
 40
1.709964074651579
 40
1.870272236443196
 40
2.190564059117389
 40
2.51612165308385
 40
2.844834989681557
 40
3.010170490642
 40
3.433741361106049
 40
3.795062718559564
 40
4.156384076013079
 40
4.517705433466594
 40
4.803096995319677
 40
5.088488557172762
 40
5.387077130908893
 40
5.685665704645024
 40
5.982327788684009
 40
6.278989872722995
 40
6.57565195676198
 40
6.872314040800966
 40
7.241517648492657
 40
7.610721256184348
 40
7.897011590779721
 40
8.183301925375094
 40
8.453921848578155
 40
8.724541771781217
 40
9.083876701511235
 40
9.43167664429852
 40
9.667430175905203
 40
10.02769626272259
 40
10.02769626272259
 40
10.02769626272259
 40
10.02769626272259
 10
144.3439587094441
 20
322.2223837829594
 30
0.0
 10
144.3421591743697
 20
322.1542610789778
 30
0.0
 10
144.338551494295
 20
322.0332230349688
 30
0.0
 10
144.3321416624702
 20
321.8513040992225
 30
0.0
 10
144.3251568479058
 20
321.684369151397
 30
0.0
 10
144.3169961047437
 20
321.5171025334283
 30
0.0
 10
144.307487063266
 20
321.3475899454838
 30
0.0
 10
144.2928677974475
 20
321.1168785599268
 30
0.0
 10
144.2711361793713
 20
320.8239627142573
 30
0.0
 10
144.2403495752674
 20
320.4790525788559
 30
0.0
 10
144.2101576969156
 20
320.1913265201619
 30
0.0
 10
144.1727675182339
 20
319.8718527437556
 30
0.0
 10
144.1295897700517
 20
319.5437793613287
 30
0.0
 10
144.0702454882477
 20
319.1521128754928
 30
0.0
 10
144.0082570423265
 20
318.7877769925709
 30
0.0
 10
143.9455778418181
 20
318.4569350736252
 30
0.0
 10
143.8838052616472
 20
318.1595458578257
 30
0.0
 10
143.8231375484994
 20
317.8893797960638
 30
0.0
 10
143.7584693602882
 20
317.6227911213275
 30
0.0
 10
143.6896710807915
 20
317.3599993882845
 30
0.0
 10
143.6176202687598
 20
317.1041897288205
 30
0.0
 10
143.5423972781746
 20
316.855232264136
 30
0.0
 10
143.4639011627119
 20
316.6124930127705
 30
0.0
 10
143.3755261639118
 20
316.3566053956149
 30
0.0
 10
143.2763613459776
 20
316.0893361196836
 30
0.0
 10
143.1738496669705
 20
315.8333511012742
 30
0.0
 10
143.0762486728298
 20
315.6050431171619
 30
0.0
 10
142.9855046765297
 20
315.4043493280338
 30
0.0
 10
142.892559476496
 20
315.2092796885046
 30
0.0
 10
142.7909614900938
 20
315.0064110952557
 30
0.0
 10
142.684718343998
 20
314.807430708268
 30
0.0
 10
142.589831754403
 20
314.6426695269644
 30
0.0
 10
142.4981214916129
 20
314.4931386938049
 30
0.0
 10
142.4407779321817
 20
314.4055586067644
 30
0.0
 10
142.4058922593768
 20
314.3542526832035
 30
0.0
  0
SPLINE
  5
129
330
119
100
AcDbEntity
  8
0
  6
Continuous
 62
     0
370
     0
100
AcDbSpline
210
0.0
220
0.0
230
1.0
 70
     8
 71
     3
 72
    36
 73
    32
 74
     0
 42
0.000000001
 43
0.0
 40
-1.087005095078141
 40
-1.087005095078141
 40
-1.087005095078141
 40
-1.087005095078141
 40
-0.8269645513815309
 40
-0.4446453731535147
 40
-0.1943449961721786
 40
0.1896267875054107
 40
0.6661568886589784
 40
0.8975045027005226
 40
1.313253092444048
 40
1.720458109230586
 40
2.118150658090714
 40
2.434390072085357
 40
2.75062948608
 40
3.066868900074644
 40
3.383108314069286
 40
3.681142944660455
 40
3.979177575251624
 40
4.436810016986453
 40
4.800404698664082
 40
5.163999380341712
 40
5.527594062019341
 40
5.846451917814532
 40
6.165309773609723
 40
6.494200556314357
 40
6.819801096463626
 40
7.300981633533439
 40
7.614821179227128
 40
7.763356922273676
 40
7.906774530279353
 40
8.045943737362737
 40
8.062173617835343
 40
8.062173617835343
 40
8.062173617835343
 40
8.062173617835343
 10
137.0699149966464
 20
314.354253332264
 30
0.0
 10
137.044869254984
 20
314.3910878166916
 30
0.0
 10
136.9832335259588
 20
314.4842573681735
 30
0.0
 10
136.8974407892663
 20
314.6231109668678
 30
0.0
 10
136.7955951928301
 20
314.7998353125386
 30
0.0
 10
136.6767274589634
 20
315.0203686391454
 30
0.0
 10
136.5524475375347
 20
315.2715691272203
 30
0.0
 10
136.4298439551725
 20
315.5363449833623
 30
0.0
 10
136.3200151830513
 20
315.7884484236556
 30
0.0
 10
136.1983615564085
 20
316.0914876278514
 30
0.0
 10
136.0918141471395
 20
316.379870076422
 30
0.0
 10
135.9982691717758
 20
316.6532034080194
 30
0.0
 10
135.9157377111286
 20
316.9118595750147
 30
0.0
 10
135.8368854096471
 20
317.1775730921576
 30
0.0
 10
135.7632155783714
 20
317.4452301694132
 30
0.0
 10
135.6945390098411
 20
317.7144711282647
 30
0.0
 10
135.6190530196862
 20
318.0339830230587
 30
0.0
 10
135.5438364479795
 20
318.3860893489988
 30
0.0
 10
135.4703042685601
 20
318.7724916918039
 30
0.0
 10
135.4080236797273
 20
319.1368508797227
 30
0.0
 10
135.3539229574966
 20
319.4921209957566
 30
0.0
 10
135.3075778978103
 20
319.8352853917603
 30
0.0
 10
135.2677108388743
 20
320.1696280717136
 30
0.0
 10
135.2325105683544
 20
320.5097374703731
 30
0.0
 10
135.1973099020658
 20
320.9101309398688
 30
0.0
 10
135.1689976839298
 20
321.3181983577458
 30
0.0
 10
135.1518966604534
 20
321.6516312011809
 30
0.0
 10
135.142848260663
 20
321.8733168297892
 30
0.0
 10
135.137163971597
 20
322.0369636562865
 30
0.0
 10
135.1336610213111
 20
322.1554107015209
 30
0.0
 10
135.1320454231605
 20
322.216145675025
 30
0.0
 10
135.1318787335841
 20
322.2224853693289
 30
0.0
  0
SPLINE
  5
12A
330
119
100
AcDbEntity
  8
0
  6
Continuous
 62
     0
370
     0
100
AcDbSpline
210
0.0
220
0.0
230
1.0
 70
     8
 71
     3
 72
    10
 73
     6
 74
     0
 42
0.000000001
 43
0.0
 40
0.0
 40
0.0
 40
0.0
 40
0.0
 40
2.797895864776244
 40
5.595877648008672
 40
8.393972488720298
 40
8.393972488720298
 40
8.393972488720298
 40
8.393972488720298
 10
135.1318787335841
 20
322.2224853693289
 30
0.0
 10
135.1101003777795
 20
322.2253937050249
 30
0.0
 10
134.8022080684686
 20
322.2153679651396
 30
0.0
 10
133.5869125362548
 20
322.1271975407512
 30
0.0
 10
132.3334995896942
 20
321.9861380180426
 30
0.0
 10
131.6280085885079
 20
321.8840855333308
 30
0.0
  0
SPLINE
  5
12B
330
119
100
AcDbEntity
  8
0
  6
Continuous
 62
     0
370
     0
100
AcDbSpline
210
0.0
220
0.0
230
1.0
 70
     8
 71
     3
 72
     8
 73
     4
 74
     0
 42
0.000000001
 43
0.0
 40
0.0
 40
0.0
 40
0.0
 40
0.0
 40
38.43185121034288
 40
38.43185121034288
 40
38.43185121034288
 40
38.43185121034288
 10
137.0699149966464
 20
314.354253332264
 30
0.0
 10
137.1999990926896
 20
314.8589239785573
 30
0.0
 10
137.3223319742696
 20
315.3636263382127
 30
0.0
 10
137.4809191039082
 20
315.8682946542434
 30
0.0
  0
LINE
  5
12C
330
119
100
AcDbEntity
  8
0
  6
Continuous
 62
     0
370
     0
100
AcDbLine
 10
136.071204
 20
322.141911
 30
0.0
 11
136.068297
 21
322.279055
 31
0.0
  0
ARC
  5
12D
330
119
100
AcDbEntity
  8
0
  6
Continuous
 62
     0
370
     0
100
AcDbCircle
 10
133.214836
 20
361.500477
 30
0.0
 40
39.32508345733207
100
AcDbArc
 50
272.794204
 51
274.161085
  0
LINE
  5
12E
330
119
100
AcDbEntity
  8
0
  6
Continuous
 62
     0
370
     0
100
AcDbLine
 10
139.737836
 20
312.805905
 30
0.0
 11
139.737832
 21
314.503807
 31
0.0
  0
SPLINE
  5
12F
330
119
100
AcDbEntity
  8
0
  6
Continuous
 62
     0
370
     0
100
AcDbSpline
210
0.0
220
0.0
230
1.0
 70
     8
 71
     3
 72
     8
 73
     4
 74
     0
 42
0.000000001
 43
0.0
 40
0.0
 40
0.0
 40
0.0
 40
0.0
 40
38.4318516319787
 40
38.4318516319787
 40
38.4318516319787
 40
38.4318516319787
 10
141.9948850755609
 20
315.8682941192224
 30
0.0
 10
142.1534732310109
 20
315.3636257600617
 30
0.0
 10
142.2758071375549
 20
314.8589233658716
 30
0.0
 10
142.4058922593768
 20
314.3542526832034
 30
0.0
  0
LINE
  5
130
330
119
100
AcDbEntity
  8
0
  6
Continuous
 62
     0
370
     0
100
AcDbLine
 10
143.404555
 20
322.140022
 30
0.0
 11
143.40751
 21
322.279117
 31
0.0
  0
ARC
  5
131
330
119
100
AcDbEntity
  8
0
  6
Continuous
 62
     0
370
     0
100
AcDbCircle
 10
146.258918
 20
361.483364
 30
0.0
 40
39.30780457900842
100
AcDbArc
 50
265.840081
 51
267.207572
  0
ARC
  5
132
330
119
100
AcDbEntity
  8
0
  6
Continuous
 62
     0
370
    30
100
AcDbCircle
 10
139.727227
 20
266.970956
 30
0.0
 40
56.8778704078595
100
AcDbArc
 50
86.772664
 51
87.74308
  0
ARC
  5
133
330
119
100
AcDbEntity
  8
0
  6
Continuous
 62
     0
370
     0
100
AcDbCircle
 10
142.844655
 20
322.261229
 30
0.0
 40
1.499781683109018
100
AcDbArc
 50
358.51011
 51
86.763512
  0
LINE
  5
134
330
119
100
AcDbEntity
  8
0
  6
Continuous
 62
     0
370
     0
100
AcDbLine
 10
139.737904
 20
322.294384
 30
0.0
 11
139.737883
 21
323.848557
 31
0.0
  0
ARC
  5
135
330
119
100
AcDbEntity
  8
0
  6
Continuous
 62
     0
370
    30
100
AcDbCircle
 10
139.738855
 20
267.213809
 30
0.0
 40
56.63474725073766
100
AcDbArc
 50
87.745159
 51
90.000983
  0
SPLINE
  5
136
330
119
100
AcDbEntity
  8
0
  6
Continuous
 62
     0
370
     0
100
AcDbSpline
210
0.0
220
0.0
230
1.0
 70
     8
 71
     3
 72
    30
 73
    26
 74
     0
 42
0.000000001
 43
0.0
 40
0.0
 40
0.0
 40
0.0
 40
0.0
 40
1.235145892692358
 40
2.006058848014206
 40
2.780214246370494
 40
3.168132528337276
 40
3.76883019244176
 40
4.181684194939619
 40
4.745873156081188
 40
5.08420702685574
 40
5.419789841509303
 40
5.717410124962531
 40
5.99869121836398
 40
6.188442537829291
 40
6.274239072090314
 40
6.358435919717284
 40
6.452677978863814
 40
6.61239143561952
 40
6.727729837536588
 40
6.845000371816663
 40
6.958969470560348
 40
7.179509089822062
 40
7.396680465335415
 40
7.99153302971622
 40
8.826216395009139
 40
8.826216395009139
 40
8.826216395009139
 40
8.826216395009139
 10
143.4075102824524
 20
322.2791171939359
 30
0.0
 10
143.400883271036
 20
322.2796416212881
 30
0.0
 10
143.3874978834056
 20
322.275162415683
 30
0.0
 10
143.3625203196833
 20
322.2582118120605
 30
0.0
 10
143.3414830464517
 20
322.2412728708483
 30
0.0
 10
143.3194197598275
 20
322.2226450191988
 30
0.0
 10
143.3001894879294
 20
322.205875605877
 30
0.0
 10
143.2728860109112
 20
322.183053058069
 30
0.0
 10
143.2384299751064
 20
322.1592851265299
 30
0.0
 10
143.1784500183257
 20
322.1347729360684
 30
0.0
 10
143.1068434725525
 20
322.1163350439897
 30
0.0
 10
143.0030461398224
 20
322.1011180808597
 30
0.0
 10
142.866460339599
 20
322.0928877234359
 30
0.0
 10
142.7120552172317
 20
322.0948119795536
 30
0.0
 10
142.5827676089735
 20
322.1016520670328
 30
0.0
 10
142.4746273037981
 20
322.1097459066055
 30
0.0
 10
142.3449299201197
 20
322.1218332816341
 30
0.0
 10
142.2277797322756
 20
322.1340344874148
 30
0.0
 10
142.1110719130654
 20
322.1461963476991
 30
0.0
 10
142.0066059797195
 20
322.1569883450273
 30
0.0
 10
141.8612918924371
 20
322.1717890869435
 30
0.0
 10
141.6699734702281
 20
322.190836297696
 30
0.0
 10
141.2923355239465
 20
322.2262089198855
 30
0.0
 10
140.6379841135907
 20
322.2768993151716
 30
0.0
 10
140.0622619935009
 20
322.2943873973077
 30
0.0
 10
139.7379035000932
 20
322.2943842026527
 30
0.0
  0
SPLINE
  5
137
330
119
100
AcDbEntity
  8
0
  6
Continuous
 62
     0
370
     0
100
AcDbSpline
210
0.0
220
0.0
230
1.0
 70
     8
 71
     9
 72
    30
 73
    20
 74
     0
 42
0.000000001
 43
0.0
 40
0.0
 40
0.0
 40
0.0
 40
0.0
 40
0.0
 40
0.0
 40
0.0
 40
0.0
 40
0.0
 40
0.0
 40
3.648402924025719
 40
3.648402924025719
 40
3.648402924025719
 40
3.648402924025719
 40
3.648402924025719
 40
5.472604386038578
 40
5.472604386038578
 40
5.472604386038578
 40
5.472604386038578
 40
5.472604386038578
 40
7.296805848051437
 40
7.296805848051437
 40
7.296805848051437
 40
7.296805848051437
 40
7.296805848051437
 40
7.296805848051437
 40
7.296805848051437
 40
7.296805848051437
 40
7.296805848051437
 40
7.296805848051437
 10
141.9948850755609
 20
315.8682941192225
 30
0.0
 10
141.9908703952684
 20
315.8810698659987
 30
0.0
 10
141.986839212032
 20
315.8938455073504
 30
0.0
 10
141.9782366361449
 20
315.906618870069
 30
0.0
 10
141.964098447375
 20
315.9193894479808
 30
0.0
 10
141.9412708476086
 20
315.9321441412823
 30
0.0
 10
141.8918595721298
 20
315.9512374215111
 30
0.0
 10
141.8133401037151
 20
315.9702008135168
 30
0.0
 10
141.6924889302874
 20
315.9888850365315
 30
0.0
 10
141.5066300134836
 20
316.0066486387695
 30
0.0
 10
141.4364683149939
 20
316.0124346672449
 30
0.0
 10
141.2776473432137
 20
316.0236488082272
 30
0.0
 10
141.0767052112438
 20
316.0338866596371
 30
0.0
 10
140.8270039848344
 20
316.0424093098378
 30
0.0
 10
140.5357297682964
 20
316.0484460071079
 30
0.0
 10
140.3818976265756
 20
316.050762700821
 30
0.0
 10
140.2233680928105
 20
316.0524010703236
 30
0.0
 10
140.0622527475181
 20
316.0534240148254
 30
0.0
 10
139.9001015076145
 20
316.0539016312575
 30
0.0
 10
139.7379502665467
 20
316.0539016336531
 30
0.0
  0
LINE
  5
138
330
119
100
AcDbEntity
  8
0
  6
Continuous
 62
     0
370
     0
100
AcDbLine
 10
139.73795
 20
316.053902
 30
0.0
 11
139.737904
 21
322.289551
 31
0.0
  0
SPLINE
  5
139
330
119
100
AcDbEntity
  8
0
  6
Continuous
 62
     0
370
     0
100
AcDbSpline
210
0.0
220
0.0
230
1.0
 70
     8
 71
     3
 72
    30
 73
    26
 74
     0
 42
0.000000001
 43
0.0
 40
0.0
 40
0.0
 40
0.0
 40
0.0
 40
1.225396231212392
 40
1.996266671498263
 40
2.770395256796587
 40
3.158307523348193
 40
3.75978293030952
 40
4.174201172882186
 40
4.740678397053912
 40
5.080281499007906
 40
5.416529076883819
 40
5.714817632142001
 40
5.996817551513167
 40
6.187015832822644
 40
6.272979870401431
 40
6.357223629495047
 40
6.451358841925963
 40
6.610804731879863
 40
6.726038347285362
 40
6.843308007724549
 40
6.957314821021946
 40
7.177853569120509
 40
7.395001920030518
 40
7.989756918548009
 40
8.826192243679458
 40
8.826192243679458
 40
8.826192243679458
 40
8.826192243679458
 10
136.0682965417262
 20
322.2790550046675
 30
0.0
 10
136.074871222954
 20
322.2795754103054
 30
0.0
 10
136.0881710674456
 20
322.2751608125761
 30
0.0
 10
136.1129968508336
 20
322.2583691587354
 30
0.0
 10
136.133985012112
 20
322.2414938782804
 30
0.0
 10
136.1560097756095
 20
322.2229090950347
 30
0.0
 10
136.1752326063909
 20
322.2061567371665
 30
0.0
 10
136.202464959679
 20
322.1833518880145
 30
0.0
 10
136.2367766060727
 20
322.1595519199989
 30
0.0
 10
136.2966057537728
 20
322.1349577783654
 30
0.0
 10
136.3680744125318
 20
322.1164558426998
 30
0.0
 10
136.4716611111233
 20
322.1011746820547
 30
0.0
 10
136.6080292752592
 20
322.0928648072379
 30
0.0
 10
136.7623354306153
 20
322.0947163905201
 30
0.0
 10
136.8915352522503
 20
322.1015081239497
 30
0.0
 10
136.9996452612399
 20
322.1095682676906
 30
0.0
 10
137.1294749501493
 20
322.1216458809171
 30
0.0
 10
137.2466496501231
 20
322.1338477330124
 30
0.0
 10
137.3632781946679
 20
322.14600392801
 30
0.0
 10
137.4676573684099
 20
322.1567910788898
 30
0.0
 10
137.6128341738807
 20
322.1715832059979
 30
0.0
 10
137.8040792830712
 20
322.1906327368749
 30
0.0
 10
138.1815178162509
 20
322.2260137634872
 30
0.0
 10
138.836410238107
 20
322.2768211055084
 30
0.0
 10
139.4128617180974
 20
322.2943814690452
 30
0.0
 10
139.737901598237
 20
322.2943842026315
 30
0.0
  0
ARC
  5
13A
330
119
100
AcDbEntity
  8
0
  6
Continuous
 62
     0
370
    30
100
AcDbCircle
 10
139.738463
 20
267.212728
 30
0.0
 40
56.63582849242972
100
AcDbArc
 50
90.000588
 51
92.256368
  0
ARC
  5
13B
330
119
100
AcDbEntity
  8
0
  6
Continuous
 62
     0
370
     0
100
AcDbCircle
 10
137.567872
 20
322.305997
 30
0.0
 40
1.499817691357621
100
AcDbArc
 50
92.262559
 51
181.029274
  0
SPLINE
  5
13C
330
119
100
AcDbEntity
  8
0
  6
Continuous
 62
     0
370
     0
100
AcDbSpline
210
0.0
220
0.0
230
1.0
 70
     8
 71
     3
 72
    15
 73
    11
 74
     0
 42
0.000000001
 43
0.0
 40
0.0
 40
0.0
 40
0.0
 40
0.0
 40
0.8339008182960455
 40
1.667700796385462
 40
2.501284797895532
 40
3.334231545080233
 40
4.165021619125205
 40
4.581129178325515
 40
4.996969038189296
 40
5.824250956833663
 40
5.824250956833663
 40
5.824250956833663
 40
5.824250956833663
 10
137.4809191039082
 20
315.8682946542434
 30
0.0
 10
137.4843601543134
 20
315.8792450328604
 30
0.0
 10
137.4922448318532
 20
315.9011462633189
 30
0.0
 10
137.5399512248003
 20
315.9339551542686
 30
0.0
 10
137.6502896785254
 20
315.9665585116439
 30
0.0
 10
137.8604251173493
 20
315.998383476093
 30
0.0
 10
138.1789135965049
 20
316.023175706634
 30
0.0
 10
138.5647410114228
 20
316.03910924267
 30
0.0
 10
139.0365025607162
 20
316.050902173001
 30
0.0
 10
139.4620928967315
 20
316.0539016949599
 30
0.0
 10
139.7378535362796
 20
316.0539016336645
 30
0.0
  0
LINE
  5
13D
330
119
100
AcDbEntity
  8
0
  6
Continuous
 62
     0
370
     0
100
AcDbLine
 10
139.737832
 20
314.503807
 30
0.0
 11
139.737853
 21
316.053902
 31
0.0
  0
SPLINE
  5
13E
330
119
100
AcDbEntity
  8
0
  6
Continuous
 62
     0
370
    30
100
AcDbSpline
210
0.0
220
0.0
230
1.0
 70
     8
 71
     3
 72
    12
 73
     8
 74
     0
 42
0.000000001
 43
0.0
 40
44.61841615640433
 40
44.61841615640433
 40
44.61841615640433
 40
44.61841615640433
 40
46.48166050162648
 40
48.40160928734618
 40
50.32774407353268
 40
52.26241633936342
 40
54.20721767921935
 40
54.20721767921935
 40
54.20721767921935
 40
54.20721767921935
 10
128.431279188355
 20
322.6922560715029
 30
0.0
 10
128.431278293767
 20
322.6922604117679
 30
0.0
 10
128.5416054201365
 20
322.7154635697494
 30
0.0
 10
129.0395139897789
 20
322.8171692039981
 30
0.0
 10
129.8649247333084
 20
322.9752908324048
 30
0.0
 10
130.98628953358
 20
323.1690302486401
 30
0.0
 10
131.9079484372079
 20
323.3055406230219
 30
0.0
 10
132.4047514076662
 20
323.3711681978806
 30
0.0
  0
SPLINE
  5
13F
330
119
100
AcDbEntity
  8
0
  6
Continuous
 62
     0
370
    30
100
AcDbSpline
210
0.0
220
0.0
230
1.0
 70
     8
 71
     3
 72
    12
 73
     8
 74
     0
 42
0.000000001
 43
0.0
 40
0.0
 40
0.0
 40
0.0
 40
0.0
 40
1.944818689850858
 40
3.879518989130776
 40
5.805642800460687
 40
7.725571429675663
 40
9.589059798233244
 40
9.589059798233244
 40
9.589059798233244
 40
9.589059798233244
 10
147.0710251703333
 20
323.3713505061255
 30
0.0
 10
147.5678329023708
 20
323.305734511457
 30
0.0
 10
148.489566315729
 20
323.1692355693414
 30
0.0
 10
149.6108026491931
 20
322.9755480258016
 30
0.0
 10
150.4362677345151
 20
322.817440194198
 30
0.0
 10
150.9341178998807
 20
322.7157606520554
 30
0.0
 10
151.0445327733321
 20
322.6925425531674
 30
0.0
 10
151.0445318553763
 20
322.6925381581568
 30
0.0
  0
ARC
  5
140
330
119
100
AcDbEntity
  8
0
  6
Continuous
 62
     0
370
    30
100
AcDbCircle
 10
139.717311
 20
267.520764
 30
0.0
 40
56.32709102831416
100
AcDbArc
 50
93.227097
 51
97.459371
  0
ARC
  5
141
330
119
100
AcDbEntity
  8
0
  6
Continuous
 62
     0
370
    30
100
AcDbCircle
 10
139.809548
 20
265.728588
 30
0.0
 40
58.12161765053551
100
AcDbArc
 50
92.268787
 51
93.218429
  0
ARC
  5
142
330
119
100
AcDbEntity
  8
0
  6
Continuous
 62
     0
370
    30
100
AcDbCircle
 10
139.760084
 20
267.524074
 30
0.0
 40
56.32378007325106
100
AcDbArc
 50
82.541852
 51
86.774333
  0
ARC
  5
143
330
119
100
AcDbEntity
  8
0
  6
Continuous
 62
     0
370
     0
100
AcDbCircle
 10
136.630546
 20
322.261714
 30
0.0
 40
1.499180748205776
100
AcDbArc
 50
93.215666
 51
181.499419
  0
ELLIPSE
  5
144
330
119
100
AcDbEntity
  8
0
  6
Continuous
 62
     0
370
     0
100
AcDbEllipse
 10
132.601196
 20
321.884089
 30
0.0
 11
-0.1964459354652414
 21
1.487080695335382
 31
0.0
210
0.0
220
0.0
230
1.0
 40
0.645539
 41
6.283184005127354
 42
7.768912752646857
  0
ELLIPSE
  5
145
330
119
100
AcDbEntity
  8
0
  6
Continuous
 62
     0
370
     0
100
AcDbEllipse
 10
146.874615
 20
321.884266
 30
0.0
 11
-0.1964057432389862
 21
-1.487086004245466
 31
0.0
210
0.0
220
0.0
230
1.0
 40
0.64554
 41
1.655850234488979
 42
3.141592202403062
  0
SPLINE
  5
146
330
119
100
AcDbEntity
  8
0
  6
Continuous
 62
     0
370
     0
100
AcDbSpline
210
0.0
220
0.0
230
1.0
 70
     8
 71
     9
 72
    35
 73
    25
 74
     0
 42
0.000000001
 43
0.0
 40
0.2499999949532693
 40
0.2499999949532693
 40
0.2499999949532693
 40
0.2499999949532693
 40
0.2499999949532693
 40
0.2499999949532693
 40
0.2499999949532693
 40
0.2499999949532693
 40
0.2499999949532693
 40
0.2499999949532693
 40
0.37499999475916
 40
0.37499999475916
 40
0.37499999475916
 40
0.37499999475916
 40
0.37499999475916
 40
0.499999995807328
 40
0.499999995807328
 40
0.499999995807328
 40
0.499999995807328
 40
0.499999995807328
 40
0.749999997903664
 40
0.749999997903664
 40
0.749999997903664
 40
0.749999997903664
 40
0.749999997903664
 40
0.8310317690527375
 40
0.8310317690527375
 40
0.8310317690527375
 40
0.8310317690527375
 40
0.8310317690527375
 40
0.8310317690527375
 40
0.8310317690527375
 40
0.8310317690527375
 40
0.8310317690527375
 40
0.8310317690527375
 10
141.9948850755609
 20
315.8682941192224
 30
0.0
 10
142.0683168608775
 20
316.0045971474909
 30
0.0
 10
142.1351662823137
 20
316.1444463532546
 30
0.0
 10
142.1959292221505
 20
316.2871058575042
 30
0.0
 10
142.2511304539422
 20
316.431996586333
 30
0.0
 10
142.3106614695979
 20
316.574697517887
 30
0.0
 10
142.4247337289094
 20
316.8626058011565
 30
0.0
 10
142.5328938897354
 20
317.1528151301167
 30
0.0
 10
142.6344390634976
 20
317.4454161424362
 30
0.0
 10
142.7287485141243
 20
317.7404085896194
 30
0.0
 10
142.7740238667495
 20
317.88849649332
 30
0.0
 10
142.904028022716
 20
318.3344978262006
 30
0.0
 10
143.0161135633288
 20
318.7855462935826
 30
0.0
 10
143.1092453555343
 20
319.2410061172318
 30
0.0
 10
143.1833859509238
 20
319.6999092226099
 30
0.0
 10
143.2298150996872
 20
320.0060457331209
 30
0.0
 10
143.2837622765097
 20
320.4126551387457
 30
0.0
 10
143.3275060333455
 20
320.8204797383663
 30
0.0
 10
143.3609951872915
 20
321.2292235194861
 30
0.0
 10
143.3843835416205
 20
321.6385875524986
 30
0.0
 10
143.3898244128648
 20
321.7388226832728
 30
0.0
 10
143.3947243333227
 20
321.8390860981526
 30
0.0
 10
143.3988043860358
 20
321.9393769152743
 30
0.0
 10
143.4020311505502
 20
322.0396908263228
 30
0.0
 10
143.4045546720587
 20
322.1400217579076
 30
0.0
  0
ARC
  5
147
330
119
100
AcDbEntity
  8
0
  6
Continuous
 62
     0
370
     0
100
AcDbCircle
 10
141.907935
 20
322.306055
 30
0.0
 40
1.499817699545985
100
AcDbArc
 50
358.970861
 51
87.738959
  0
SPLINE
  5
148
330
119
100
AcDbEntity
  8
0
  6
Continuous
 62
     0
370
     0
100
AcDbSpline
210
0.0
220
0.0
230
1.0
 70
     8
 71
     9
 72
    35
 73
    25
 74
     0
 42
0.000000001
 43
0.0
 40
0.2499999949532693
 40
0.2499999949532693
 40
0.2499999949532693
 40
0.2499999949532693
 40
0.2499999949532693
 40
0.2499999949532693
 40
0.2499999949532693
 40
0.2499999949532693
 40
0.2499999949532693
 40
0.2499999949532693
 40
0.37499999475916
 40
0.37499999475916
 40
0.37499999475916
 40
0.37499999475916
 40
0.37499999475916
 40
0.499999995807328
 40
0.499999995807328
 40
0.499999995807328
 40
0.499999995807328
 40
0.499999995807328
 40
0.749999997903664
 40
0.749999997903664
 40
0.749999997903664
 40
0.749999997903664
 40
0.749999997903664
 40
0.8312012014464534
 40
0.8312012014464534
 40
0.8312012014464534
 40
0.8312012014464534
 40
0.8312012014464534
 40
0.8312012014464534
 40
0.8312012014464534
 40
0.8312012014464534
 40
0.8312012014464534
 40
0.8312012014464534
 10
137.4809191039082
 20
315.8682946542434
 30
0.0
 10
137.4074873509024
 20
316.0045976999189
 30
0.0
 10
137.3406379626177
 20
316.1444469215293
 30
0.0
 10
137.2798750565984
 20
316.2871064401829
 30
0.0
 10
137.2246738591532
 20
316.4319971820972
 30
0.0
 10
137.1651428773249
 20
316.5746981277631
 30
0.0
 10
137.0510706862623
 20
316.8626064380736
 30
0.0
 10
136.9429105942307
 20
317.1528157926733
 30
0.0
 10
136.8413654898299
 20
317.4454168290642
 30
0.0
 10
136.7470561091314
 20
317.7404092986036
 30
0.0
 10
136.7017807916107
 20
317.8884972130367
 30
0.0
 10
136.5717767413694
 20
318.334498576735
 30
0.0
 10
136.4596913076785
 20
318.785547070687
 30
0.0
 10
136.3665596234408
 20
319.2410069164133
 30
0.0
 10
136.2924191368358
 20
319.6999100393664
 30
0.0
 10
136.2459900606425
 20
320.0060465608835
 30
0.0
 10
136.1920153684077
 20
320.4128640946881
 30
0.0
 10
136.1482545439784
 20
320.8208980643338
 30
0.0
 10
136.1147588488188
 20
321.2298520025543
 30
0.0
 10
136.0913741382207
 20
321.6394265190446
 30
0.0
 10
136.0859242882508
 20
321.7398714773576
 30
0.0
 10
136.0810198247779
 20
321.8403448342644
 30
0.0
 10
136.0769415903474
 20
321.940845698653
 30
0.0
 10
136.0737206210162
 20
322.0413696989391
 30
0.0
 10
136.0712036164099
 20
322.1419107014189
 30
0.0
  0
SPLINE
  5
149
330
119
100
AcDbEntity
  8
0
  6
Continuous
 62
     0
370
     0
100
AcDbSpline
210
0.0
220
0.0
230
1.0
 70
     8
 71
     9
 72
    20
 73
    10
 74
     0
 42
0.000000001
 43
0.0
 40
0.0
 40
0.0
 40
0.0
 40
0.0
 40
0.0
 40
0.0
 40
0.0
 40
0.0
 40
0.0
 40
0.0
 40
0.2499999949532693
 40
0.2499999949532693
 40
0.2499999949532693
 40
0.2499999949532693
 40
0.2499999949532693
 40
0.2499999949532693
 40
0.2499999949532693
 40
0.2499999949532693
 40
0.2499999949532693
 40
0.2499999949532693
 10
139.7378322686134
 20
314.5038066775754
 30
0.0
 10
139.4281825214578
 20
314.5038066463577
 30
0.0
 10
139.1185327747035
 20
314.5354564625083
 30
0.0
 10
138.81258109685
 20
314.6052407611872
 30
0.0
 10
138.5166738109022
 20
314.7201799660606
 30
0.0
 10
138.2417558566234
 20
314.889035532152
 30
0.0
 10
138.0044650527628
 20
315.0989175306519
 30
0.0
 10
137.8009755734174
 20
315.3372671789894
 30
0.0
 10
137.6277826114863
 20
315.5956885615514
 30
0.0
 10
137.4809191039082
 20
315.8682946542434
 30
0.0
  0
SPLINE
  5
14A
330
119
100
AcDbEntity
  8
0
  6
Continuous
 62
     0
370
     0
100
AcDbSpline
210
0.0
220
0.0
230
1.0
 70
     8
 71
     9
 72
    20
 73
    10
 74
     0
 42
0.000000001
 43
0.0
 40
0.0
 40
0.0
 40
0.0
 40
0.0
 40
0.0
 40
0.0
 40
0.0
 40
0.0
 40
0.0
 40
0.0
 40
0.2499999949532693
 40
0.2499999949532693
 40
0.2499999949532693
 40
0.2499999949532693
 40
0.2499999949532693
 40
0.2499999949532693
 40
0.2499999949532693
 40
0.2499999949532693
 40
0.2499999949532693
 40
0.2499999949532693
 10
139.7379715874016
 20
314.5038066775589
 30
0.0
 10
140.0476213345572
 20
314.5038065729384
 30
0.0
 10
140.3572710888132
 20
314.535456315686
 30
0.0
 10
140.6632227832093
 20
314.6052405418387
 30
0.0
 10
140.9591300964039
 20
314.7201796765668
 30
0.0
 10
141.2340480907103
 20
314.8890351774885
 30
0.0
 10
141.471338944324
 20
315.0989171197383
 30
0.0
 10
141.6748284801708
 20
315.3372667198383
 30
0.0
 10
141.8480215033611
 20
315.5956880613446
 30
0.0
 10
141.9948850755609
 20
315.8682941192224
 30
0.0
  0
ARC
  5
14B
330
119
100
AcDbEntity
  8
0
  6
Continuous
 62
     0
370
     0
100
AcDbCircle
 10
139.737582
 20
303.089827
 30
0.0
 40
2.125284187856643
100
AcDbArc
 50
270.008674
 51
7.84993
  0
ARC
  5
14C
330
119
100
AcDbEntity
  8
0
  6
Continuous
 62
     0
370
     0
100
AcDbCircle
 10
139.738225
 20
303.089827
 30
0.0
 40
2.125284187671075
100
AcDbArc
 50
172.150067
 51
269.991326
  0
ARC
  5
14D
330
119
100
AcDbEntity
  8
0
  6
Continuous
 62
     0
370
     0
100
AcDbCircle
 10
139.737891
 20
303.089557
 30
0.0
 40
2.124986206389685
100
AcDbArc
 50
90.000708
 51
172.141279
  0
ARC
  5
14E
330
119
100
AcDbEntity
  8
0
  6
Continuous
 62
     0
370
     0
100
AcDbCircle
 10
139.737899
 20
303.089539
 30
0.0
 40
2.125004704427382
100
AcDbArc
 50
7.859152
 51
89.998884
  0
LINE
  5
14F
330
119
100
AcDbEntity
  8
0
  6
Continuous
 62
     0
370
     0
100
AcDbLine
 10
129.487903
 20
290.439543
 30
0.0
 11
149.987903
 21
290.439543
 31
0.0
  0
LINE
  5
150
330
119
100
AcDbEntity
  8
0
  6
Continuous
 62
     0
370
    30
100
AcDbLine
 10
109.937903
 20
290.189543
 30
0.0
 11
169.537903
 21
290.189543
 31
0.0
  0
LINE
  5
151
330
119
100
AcDbEntity
  8
0
  6
Continuous
 62
     0
370
     0
100
AcDbLine
 10
109.737903
 20
289.989543
 30
0.0
 11
169.737903
 21
289.989543
 31
0.0
  0
LINE
  5
152
330
119
100
AcDbEntity
  8
0
  6
Continuous
 62
     0
370
    30
100
AcDbLine
 10
109.737903
 20
284.489543
 30
0.0
 11
169.737903
 21
284.489543
 31
0.0
  0
ARC
  5
153
330
119
100
AcDbEntity
  8
0
  6
Continuous
 62
     0
370
    30
100
AcDbCircle
 10
150.737886
 20
321.224222
 30
0.0
 40
1.500001477950751
100
AcDbArc
 50
359.999901
 51
78.205043
  0
SPLINE
  5
154
330
119
100
AcDbEntity
  8
0
  6
Continuous
 62
     0
370
    30
100
AcDbSpline
210
0.0
220
0.0
230
1.0
 70
     8
 71
     3
 72
    26
 73
    22
 74
     0
 42
0.000000001
 43
0.0
 40
0.0
 40
0.0
 40
0.0
 40
0.0
 40
0.1880443811064094
 40
0.5641334333735504
 40
0.8148596836012039
 40
1.065586107226487
 40
1.128267740538946
 40
1.190949384576187
 40
1.504357774715733
 40
1.629721408242529
 40
1.692403239651451
 40
1.817767508769043
 40
1.880449940384417
 40
1.943136813141282
 40
2.005895832868075
 40
2.01652416589573
 40
2.02715197153293
 40
2.033920648962329
 40
2.040688010197219
 40
2.055897510887859
 40
2.13009766812593
 40
2.13009766812593
 40
2.13009766812593
 40
2.13009766812593
 10
127.2379562652766
 20
321.2239814278486
 30
0.0
 10
127.2379566148735
 20
321.2866264028539
 30
0.0
 10
127.2497436589778
 20
321.4747691143367
 30
0.0
 10
127.3176757417181
 20
321.7399313864462
 30
0.0
 10
127.4479433403209
 20
322.0030204298769
 30
0.0
 10
127.5586435521747
 20
322.1558531910087
 30
0.0
 10
127.6423966089161
 20
322.2491836870524
 30
0.0
 10
127.7445664083072
 20
322.3538975993416
 30
0.0
 10
127.8760728043874
 20
322.4585697589492
 30
0.0
 10
128.0207618352387
 20
322.5425674055244
 30
0.0
 10
128.1142554857079
 20
322.5892754651479
 30
0.0
 10
128.1912234499287
 20
322.6218880216759
 30
0.0
 10
128.2702414496067
 20
322.6496403112077
 30
0.0
 10
128.329794328903
 20
322.6678473973569
 30
0.0
 10
128.3748909784024
 20
322.6795315990926
 30
0.0
 10
128.4007541495814
 20
322.6855945740095
 30
0.0
 10
128.4105329738625
 20
322.687807886719
 30
0.0
 10
128.4159122413495
 20
322.6889982311383
 30
0.0
 10
128.4240105490349
 20
322.6907598171272
 30
0.0
 10
128.4298376052081
 20
322.6919795375803
 30
0.0
 10
128.4351914088265
 20
322.693129932393
 30
0.0
 10
128.4351916391702
 20
322.6931288601388
 30
0.0
  0
LINE
  5
155
330
119
100
AcDbEntity
  8
0
  6
Continuous
 62
     0
370
    30
100
AcDbLine
 10
127.237903
 20
321.223981
 30
0.0
 11
127.237903
 21
291.089543
 31
0.0
  0
LINE
  5
156
330
119
100
AcDbEntity
  8
0
  6
Continuous
 62
     0
370
    30
100
AcDbLine
 10
152.237903
 20
321.22422
 30
0.0
 11
152.237903
 21
291.089543
 31
0.0
  0
LINE
  5
157
330
119
100
AcDbEntity
  8
0
  6
Continuous
 62
     0
370
    30
100
AcDbLine
 10
109.737903
 20
289.989543
 30
0.0
 11
109.737903
 21
284.489543
 31
0.0
  0
LINE
  5
158
330
119
100
AcDbEntity
  8
0
  6
Continuous
 62
     0
370
    30
100
AcDbLine
 10
169.737903
 20
289.989543
 30
0.0
 11
169.737903
 21
284.489543
 31
0.0
  0
ARC
  5
159
330
119
100
AcDbEntity
  8
0
  6
Continuous
 62
     0
370
    30
100
AcDbCircle
 10
109.937903
 20
289.989543
 30
0.0
 40
0.2000000029802322
100
AcDbArc
 50
90.0
 51
180.0
  0
ARC
  5
15A
330
119
100
AcDbEntity
  8
0
  6
Continuous
 62
     0
370
    30
100
AcDbCircle
 10
169.537903
 20
289.989543
 30
0.0
 40
0.2000000029802322
100
AcDbArc
 50
0.0
 51
90.0
  0
ARC
  5
15B
330
119
100
AcDbEntity
  8
0
  6
Continuous
 62
     0
370
    30
100
AcDbCircle
 10
129.237903
 20
290.439543
 30
0.0
 40
0.25
100
AcDbArc
 50
270.0
 51
0.0
  0
ARC
  5
15C
330
119
100
AcDbEntity
  8
0
  6
Continuous
 62
     0
370
    30
100
AcDbCircle
 10
150.237903
 20
290.439543
 30
0.0
 40
0.25
100
AcDbArc
 50
180.0
 51
270.0
  0
LINE
  5
15D
330
119
100
AcDbEntity
  8
0
  6
Continuous
 62
     0
370
    30
100
AcDbLine
 10
129.487903
 20
291.089543
 30
0.0
 11
129.487903
 21
290.439543
 31
0.0
  0
LINE
  5
15E
330
119
100
AcDbEntity
  8
0
  6
Continuous
 62
     0
370
    30
100
AcDbLine
 10
149.987903
 20
291.089543
 30
0.0
 11
149.987903
 21
290.439543
 31
0.0
  0
ENDBLK
  5
160
330
119
100
AcDbEntity
  8
0
100
AcDbBlockEnd
  0
BLOCK
  5
197
330
162
100
AcDbEntity
  8
0
100
AcDbBlockBegin
  2
f
 70
     0
 10
255.226166
 20
-27.679237
 30
0.0
  3
f
  1

  0
SPLINE
  5
163
330
162
100
AcDbEntity
  8
0
  6
Continuous
 62
     0
370
     0
100
AcDbSpline
210
0.0
220
0.0
230
1.0
 70
     8
 71
     3
 72
    16
 73
    12
 74
     0
 42
0.000000001
 43
0.0
 40
24.24435260998452
 40
24.24435260998452
 40
24.24435260998452
 40
24.24435260998452
 40
26.0158598568891
 40
30.35360663391604
 40
34.69137162723425
 40
39.02687277555464
 40
43.36148144101966
 40
47.69798630468826
 40
52.03606693161141
 40
56.37263841474423
 40
60.7072506011606
 40
60.7072506011606
 40
60.7072506011606
 40
60.7072506011606
 10
265.3331730843828
 20
50.53137346029317
 30
0.0
 10
265.7661222768949
 20
50.70411845621427
 30
0.0
 10
267.3209402167869
 20
51.16901382768546
 30
0.0
 10
270.2716498300722
 20
51.15616786080601
 30
0.0
 10
274.036150872174
 20
49.71519626543551
 30
0.0
 10
277.3993848933101
 20
47.02613858928561
 30
0.0
 10
279.9168847697204
 20
43.39426975022613
 30
0.0
 10
281.2180254521789
 20
39.20165420999116
 30
0.0
 10
281.0780762909512
 20
34.92878387598358
 30
0.0
 10
279.5185503760628
 20
31.11515104213598
 30
0.0
 10
277.6890836085863
 20
29.18585685140076
 30
0.0
 10
276.654583382342
 20
28.44244509411845
 30
0.0
  0
SPLINE
  5
164
330
162
100
AcDbEntity
  8
0
  6
Continuous
 62
     0
370
     0
100
AcDbSpline
210
0.0
220
0.0
230
1.0
 70
     8
 71
     3
 72
    14
 73
    10
 74
     0
 42
0.000000001
 43
0.0
 40
0.0
 40
0.0
 40
0.0
 40
0.0
 40
1.974027971177131
 40
3.936390186585609
 40
5.878649482336035
 40
7.790165265916714
 40
9.659696083105716
 40
11.4773290793628
 40
13.22973633779209
 40
13.22973633779209
 40
13.22973633779209
 40
13.22973633779209
 10
276.6545827190881
 20
28.44244483586203
 30
0.0
 10
276.9876502989313
 20
28.57213397417867
 30
0.0
 10
277.6350456688011
 20
28.81836869415176
 30
0.0
 10
278.5403080685155
 20
29.14338545672555
 30
0.0
 10
279.3715103730005
 20
29.42478587582872
 30
0.0
 10
280.1146022487712
 20
29.66126187550969
 30
0.0
 10
280.7542583743631
 20
29.85381235307612
 30
0.0
 10
281.2809936463587
 20
30.00952397395197
 30
0.0
 10
281.5552097280945
 20
30.09534927492068
 30
0.0
 10
281.66367983118
 20
30.13280155475873
 30
0.0
  0
LINE
  5
165
330
162
100
AcDbEntity
  8
0
  6
Continuous
 62
     0
370
     0
100
AcDbLine
 10
281.66368
 20
30.132802
 30
0.0
 11
281.786772
 21
30.177981
 31
0.0
  0
ELLIPSE
  5
166
330
162
100
AcDbEntity
  8
0
  6
Continuous
 62
     0
370
    30
100
AcDbEllipse
 10
286.09294
 20
45.351772
 30
0.0
 11
4.629327288941335
 21
-11.61117258729123
 31
0.0
210
0.0
220
0.0
230
1.0
 40
0.828563
 41
-0.0000000029863978
 42
3.141592650603393
  0
ELLIPSE
  5
167
330
162
100
AcDbEntity
  8
0
  6
Continuous
 62
     0
370
     0
100
AcDbEllipse
 10
285.549571
 20
20.919657
 30
0.0
 11
6.048354146195521
 21
-7.963505014891338
 31
0.0
210
0.0
220
0.0
230
-1.0
 40
0.998552
 41
3.141592209511523
 42
3.392362397949747
  0
ELLIPSE
  5
168
330
162
100
AcDbEntity
  8
0
  6
Continuous
 62
     0
370
     0
100
AcDbEllipse
 10
285.549571
 20
20.919657
 30
0.0
 11
6.048354146195521
 21
-7.963505014891338
 31
0.0
210
0.0
220
0.0
230
-1.0
 40
0.998552
 41
2.276835490885104
 42
2.300687017015115
  0
SPLINE
  5
169
330
162
100
AcDbEntity
  8
0
  6
Continuous
 62
     0
370
     0
100
AcDbSpline
210
0.0
220
0.0
230
1.0
 70
     8
 71
     3
 72
    10
 73
     6
 74
     0
 42
0.000000001
 43
0.0
 40
0.0
 40
0.0
 40
0.0
 40
0.0
 40
2.798270619055192
 40
5.595978195444554
 40
8.393884764184449
 40
8.393884764184449
 40
8.393884764184449
 40
8.393884764184449
 10
276.6545803755108
 20
28.44244302418761
 30
0.0
 10
275.9777121810504
 20
27.95937588277293
 30
0.0
 10
274.7836324553091
 20
26.77538646665444
 30
0.0
 10
273.6085767592183
 20
24.49611374230473
 30
0.0
 10
273.273441237613
 20
22.7436973535772
 30
0.0
 10
273.2226581766342
 20
21.84920824344327
 30
0.0
  0
SPLINE
  5
16A
330
162
100
AcDbEntity
  8
0
  6
Continuous
 62
     0
370
     0
100
AcDbSpline
210
0.0
220
0.0
230
1.0
 70
     8
 71
     3
 72
    39
 73
    35
 74
     0
 42
0.000000001
 43
0.0
 40
0.9242651249458449
 40
0.9242651249458449
 40
0.9242651249458449
 40
0.9242651249458449
 40
1.095853179809037
 40
1.243779472733291
 40
1.397011119722972
 40
1.55336319157057
 40
1.709964074651579
 40
1.870272236443196
 40
2.190564059117389
 40
2.51612165308385
 40
2.844834989681557
 40
3.010170490642
 40
3.433741361106049
 40
3.795062718559564
 40
4.156384076013079
 40
4.517705433466594
 40
4.803096995319677
 40
5.088488557172762
 40
5.387077130908893
 40
5.685665704645024
 40
5.982327788684009
 40
6.278989872722995
 40
6.57565195676198
 40
6.872314040800966
 40
7.241517648492657
 40
7.610721256184348
 40
7.897011590779721
 40
8.183301925375094
 40
8.453921848578155
 40
8.724541771781217
 40
9.083876701511235
 40
9.43167664429852
 40
9.667430175905203
 40
10.02769626272259
 40
10.02769626272259
 40
10.02769626272259
 40
10.02769626272259
 10
273.2226581766342
 20
21.84920824344327
 30
0.0
 10
273.2564826736233
 20
21.86178170748309
 30
0.0
 10
273.316209161648
 20
21.88361477706873
 30
0.0
 10
273.4050896073502
 20
21.91538851283408
 30
0.0
 10
273.485654826265
 20
21.9433059226298
 30
0.0
 10
273.5653385539153
 20
21.97013919693299
 30
0.0
 10
273.6449866607502
 20
21.99624373910447
 30
0.0
 10
273.7518973149576
 20
22.03041214011023
 30
0.0
 10
273.8848013637822
 20
22.07095226479211
 30
0.0
 10
274.0366271625098
 20
22.11329949238444
 30
0.0
 10
274.1592448549143
 20
22.14435435576678
 30
0.0
 10
274.2919294918833
 20
22.17513094685623
 30
0.0
 10
274.4239059235127
 20
22.20219529578355
 30
0.0
 10
274.5744916137095
 20
22.2272811394532
 30
0.0
 10
274.708488243794
 20
22.24397654560576
 30
0.0
 10
274.8244275018579
 20
22.25255274373757
 30
0.0
 10
274.9237552779454
 20
22.2543893555125
 30
0.0
 10
275.0098932593139
 20
22.25108238791222
 30
0.0
 10
275.0905624542311
 20
22.24250728609546
 30
0.0
 10
275.1655367823647
 20
22.22860584758342
 30
0.0
 10
275.2339520211848
 20
22.20973173012695
 30
0.0
 10
275.2959490120184
 20
22.18602463429637
 30
0.0
 10
275.3517680729535
 20
22.15754572676781
 30
0.0
 10
275.4055554700801
 20
22.12169503070504
 30
0.0
 10
275.4555746666713
 20
22.07718029320449
 30
0.0
 10
275.4967177282791
 20
22.02684178580921
 30
0.0
 10
275.527871886175
 20
21.97568581308315
 30
0.0
 10
275.5508527649262
 20
21.92666118142127
 30
0.0
 10
275.5690005075564
 20
21.87604453552072
 30
0.0
 10
275.5833737130577
 20
21.81655420634104
 30
0.0
 10
275.5912795328377
 20
21.74417595637817
 30
0.0
 10
275.5911733531734
 20
21.66530737548861
 30
0.0
 10
275.5857897844849
 20
21.58096323380347
 30
0.0
 10
275.5792774967677
 20
21.52515907873816
 30
0.0
 10
275.5742894621626
 20
21.49081951814959
 30
0.0
  0
SPLINE
  5
16B
330
162
100
AcDbEntity
  8
0
  6
Continuous
 62
     0
370
     0
100
AcDbSpline
210
0.0
220
0.0
230
1.0
 70
     8
 71
     3
 72
     8
 73
     4
 74
     0
 42
0.000000001
 43
0.0
 40
0.0
 40
0.0
 40
0.0
 40
0.0
 40
38.4318516319787
 40
38.4318516319787
 40
38.4318516319787
 40
38.4318516319787
 10
273.0508533931271
 20
-15.76744003899272
 30
0.0
 10
273.9104037531318
 20
-3.351869936961918
 30
0.0
 10
274.7390494609457
 20
9.070175733837758
 30
0.0
 10
275.5742894621626
 20
21.49081951814959
 30
0.0
  0
LINE
  5
16C
330
162
100
AcDbEntity
  8
0
  6
Continuous
 62
     0
370
     0
100
AcDbLine
 10
270.991978
 20
-17.30351
 30
0.0
 11
270.922159
 21
-17.332848
 31
0.0
  0
SPLINE
  5
16D
330
162
100
AcDbEntity
  8
0
  6
Continuous
 62
     0
370
     0
100
AcDbSpline
210
0.0
220
0.0
230
1.0
 70
     8
 71
     3
 72
     8
 73
     4
 74
     0
 42
0.000000001
 43
0.0
 40
0.0
 40
0.0
 40
0.0
 40
0.0
 40
40.811080881362
 40
40.811080881362
 40
40.811080881362
 40
40.811080881362
 10
270.9221592137477
 20
-17.33284781716864
 30
0.0
 10
271.6740257946903
 20
-4.267472403532594
 30
0.0
 10
272.4533021081106
 20
8.789673851705999
 30
0.0
 10
273.2227108698438
 20
21.849240247989
 30
0.0
  0
SPLINE
  5
16E
330
162
100
AcDbEntity
  8
0
  6
Continuous
 62
     0
370
     0
100
AcDbSpline
210
0.0
220
0.0
230
1.0
 70
     8
 71
     3
 72
     9
 73
     5
 74
     0
 42
0.000000001
 43
0.0
 40
0.0
 40
0.0
 40
0.0
 40
0.0
 40
13.58255074094018
 40
40.81374876582646
 40
40.81374876582646
 40
40.81374876582646
 40
40.81374876582646
 10
268.9007152198815
 20
-17.37739291929014
 30
0.0
 10
269.1512913461121
 20
-13.03027360268285
 30
0.0
 10
269.9158453733338
 20
0.0301040424556618
 30
0.0
 10
270.6991060412923
 20
13.08752405350324
 30
0.0
 10
271.2177674869127
 20
21.80071706887426
 30
0.0
  0
ELLIPSE
  5
16F
330
162
100
AcDbEntity
  8
0
  6
Continuous
 62
     0
370
     0
100
AcDbEllipse
 10
271.924553
 20
22.125376
 30
0.0
 11
-1.497401452770484
 21
0.08825468395981809
 31
0.0
210
0.0
220
0.0
230
1.0
 40
0.274184
 41
1.095458030152939
 42
2.635758993417141
  0
ELLIPSE
  5
170
330
162
100
AcDbEntity
  8
0
  6
Continuous
 62
     0
370
     0
100
AcDbEllipse
 10
267.564615
 20
-21.809464
 30
0.0
 11
-0.2882934882737601
 21
-1.472034940012958
 31
0.0
210
0.0
220
0.0
230
-1.0
 40
0.493831
 41
6.283180213371182
 42
7.545673479186886
  0
SPLINE
  5
171
330
162
100
AcDbEntity
  8
0
  6
Continuous
 62
     0
370
     0
100
AcDbSpline
210
0.0
220
0.0
230
1.0
 70
     8
 71
     3
 72
    18
 73
    14
 74
     0
 42
0.000000001
 43
0.0
 40
0.0
 40
0.0
 40
0.0
 40
0.0
 40
0.7040270164530424
 40
1.295759034053318
 40
1.633227194692992
 40
1.882695714651265
 40
2.085978384419887
 40
2.399476426375227
 40
2.76062993912089
 40
3.281803497912946
 40
3.731036026613197
 40
4.746184634738002
 40
6.511452760270865
 40
6.511452760270865
 40
6.511452760270865
 40
6.511452760270865
 10
266.7844723656551
 20
-22.12049334046115
 30
0.0
 10
266.9901791096486
 20
-22.16078036740041
 30
0.0
 10
267.373559132933
 20
-22.17760626622304
 30
0.0
 10
267.8225318106643
 20
-22.03386138389652
 30
0.0
 10
268.1082589813355
 20
-21.85377168672331
 30
0.0
 10
268.2834752137081
 20
-21.7063015740797
 30
0.0
 10
268.410080673608
 20
-21.51621731049435
 30
0.0
 10
268.5112528949583
 20
-21.26762271894586
 30
0.0
 10
268.6028066684467
 20
-20.90614747860069
 30
0.0
 10
268.6629341316805
 20
-20.48862082169636
 30
0.0
 10
268.723929445822
 20
-19.85872500023259
 30
0.0
 10
268.8082434308577
 20
-18.83045958902719
 30
0.0
 10
268.8681488737647
 20
-17.94237009580684
 30
0.0
 10
268.9007152198815
 20
-17.37739291929017
 30
0.0
  0
SPLINE
  5
172
330
162
100
AcDbEntity
  8
0
  6
Continuous
 62
     0
370
     0
100
AcDbSpline
210
0.0
220
0.0
230
1.0
 70
     8
 71
     3
 72
    25
 73
    21
 74
     0
 42
0.000000001
 43
0.0
 40
0.0
 40
0.0
 40
0.0
 40
0.0
 40
1.235145892692358
 40
2.006058848014206
 40
2.780214246370494
 40
3.168132528337276
 40
3.76883019244176
 40
4.181684194939619
 40
4.745873156081188
 40
5.08420702685574
 40
5.419789841509303
 40
5.717410124962531
 40
5.99869121836398
 40
6.188442537829291
 40
6.274239072090314
 40
6.358435919717284
 40
6.452677978863814
 40
6.61239143561952
 40
6.727729837536588
 40
6.78508616798883
 40
6.78508616798883
 40
6.78508616798883
 40
6.78508616798883
 10
270.9221592137477
 20
-17.33284781716867
 30
0.0
 10
270.9050949400252
 20
-17.62939999175546
 30
0.0
 10
270.8779049330537
 20
-18.10976895106957
 30
0.0
 10
270.8403171091035
 20
-18.77242679103657
 30
0.0
 10
270.8137259110662
 20
-19.23160694827769
 30
0.0
 10
270.7886584189619
 20
-19.64962908520293
 30
0.0
 10
270.7683257648129
 20
-19.98077001350018
 30
0.0
 10
270.74203059
 20
-20.36865884866802
 30
0.0
 10
270.7113808883499
 20
-20.72155849040563
 30
0.0
 10
270.6586663630914
 20
-21.08796597127905
 30
0.0
 10
270.5951043140064
 20
-21.3940211112335
 30
0.0
 10
270.5019116381163
 20
-21.70833262239123
 30
0.0
 10
270.3776891055423
 20
-22.00301176798965
 30
0.0
 10
270.2351564593694
 20
-22.23864319445882
 30
0.0
 10
270.1146954196171
 20
-22.39414787445466
 30
0.0
 10
270.0134210607247
 20
-22.50555000315865
 30
0.0
 10
269.8914469782981
 20
-22.62024133622038
 30
0.0
 10
269.7811684941382
 20
-22.70906223888339
 30
0.0
 10
269.6883389531282
 20
-22.77715000946136
 30
0.0
 10
269.6397357134101
 20
-22.81071466589471
 30
0.0
 10
269.6234465416096
 20
-22.82172951900591
 30
0.0
  0
SPLINE
  5
173
330
162
100
AcDbEntity
  8
0
  6
Continuous
 62
     0
370
     0
100
AcDbSpline
210
0.0
220
0.0
230
1.0
 70
     8
 71
     9
 72
    20
 73
    10
 74
     0
 42
0.000000001
 43
0.0
 40
0.0
 40
0.0
 40
0.0
 40
0.0
 40
0.0
 40
0.0
 40
0.0
 40
0.0
 40
0.0
 40
0.0
 40
2.7663858589299
 40
2.7663858589299
 40
2.7663858589299
 40
2.7663858589299
 40
2.7663858589299
 40
2.7663858589299
 40
2.7663858589299
 40
2.7663858589299
 40
2.7663858589299
 40
2.7663858589299
 10
273.0508533931271
 20
-15.76744003899273
 30
0.0
 10
273.0343542456059
 20
-16.00575803896639
 30
0.0
 10
273.0178470370221
 20
-16.24407432968478
 30
0.0
 10
272.9996386655553
 20
-16.48203318666815
 30
0.0
 10
272.9790480718802
 20
-16.71949121531657
 30
0.0
 10
272.9551750810648
 20
-16.95618667778848
 30
0.0
 10
272.9272341215342
 20
-17.19185801617606
 30
0.0
 10
272.8944078511418
 20
-17.42615587533117
 30
0.0
 10
272.8556920721738
 20
-17.65858529843684
 30
0.0
 10
272.8097756107721
 20
-17.88830443097227
 30
0.0
  0
SPLINE
  5
174
330
162
100
AcDbEntity
  8
0
  6
Continuous
 62
     0
370
     0
100
AcDbSpline
210
0.0
220
0.0
230
1.0
 70
     8
 71
     3
 72
    18
 73
    14
 74
     0
 42
0.000000001
 43
0.0
 40
0.0
 40
0.0
 40
0.0
 40
0.0
 40
0.7053013782976192
 40
1.296959495443253
 40
1.634382838388779
 40
1.883610187121511
 40
2.087346532206342
 40
2.401618726294815
 40
2.763513020913489
 40
3.286720618600657
 40
3.737699336988029
 40
4.753410594080074
 40
6.511446442014064
 40
6.511446442014064
 40
6.511446442014064
 40
6.511446442014064
 10
266.7844710768583
 20
-22.12049308805408
 30
0.0
 10
266.578391988136
 20
-22.08013307082815
 30
0.0
 10
266.2019728443591
 20
-21.94799595801658
 30
0.0
 10
265.7794738621081
 20
-21.63309037699309
 30
0.0
 10
265.5195602319954
 20
-21.3460975632494
 30
0.0
 10
265.3636839549374
 20
-21.13358757233023
 30
0.0
 10
265.257516434528
 20
-20.89748507525714
 30
0.0
 10
265.1799361068844
 20
-20.61319403296609
 30
0.0
 10
265.1198637782751
 20
-20.22083386363959
 30
0.0
 10
265.0937184649516
 20
-19.78492470805816
 30
0.0
 10
265.0821746893798
 20
-19.13941041959204
 30
0.0
 10
265.077547944579
 20
-18.09531811468275
 30
0.0
 10
265.0857500021519
 20
-17.1992599042736
 30
0.0
 10
265.0961178768554
 20
-16.63227607312102
 30
0.0
  0
ELLIPSE
  5
175
330
162
100
AcDbEntity
  8
0
  6
Continuous
 62
     0
370
     0
100
AcDbEllipse
 10
265.926029
 20
-16.331353
 30
0.0
 11
1.499735246959418
 21
-0.02818135957643677
 31
0.0
210
0.0
220
0.0
230
-1.0
 40
0.252496
 41
2.152451079388479
 42
3.141592641459409
  0
SPLINE
  5
176
330
162
100
AcDbEntity
  8
0
  6
Continuous
 62
     0
370
     0
100
AcDbSpline
210
0.0
220
0.0
230
1.0
 70
     8
 71
     3
 72
    31
 73
    27
 74
     0
 42
0.000000001
 43
0.0
 40
0.0
 40
0.0
 40
0.0
 40
0.0
 40
1.944818689850858
 40
3.879518989130776
 40
5.805642800460687
 40
7.725571429675663
 40
9.642265420132297
 40
11.55909434387184
 40
13.4793174695907
 40
15.40586401667402
 40
17.34099563188875
 40
19.28673070470717
 40
23.18505413553117
 40
27.1036091078416
 40
31.02216571618501
 40
34.92075349536309
 40
36.86614307564447
 40
38.80138421432545
 40
40.72795329880143
 40
42.64816249845496
 40
44.56496741876284
 40
46.48166050162648
 40
48.40160928734618
 40
50.32774407353268
 40
52.26241633936342
 40
54.20721767921935
 40
54.20721767921935
 40
54.20721767921935
 40
54.20721767921935
 10
275.259483697826
 20
29.36413247206265
 30
0.0
 10
275.7323982114987
 20
29.69111758811297
 30
0.0
 10
276.6226979599778
 20
30.44028030007973
 30
0.0
 10
277.7371342684156
 20
31.81314780142655
 30
0.0
 10
278.5867442390926
 20
33.39039716104918
 30
0.0
 10
279.1360951057085
 20
35.12254690609417
 30
0.0
 10
279.3625588580176
 20
36.95434547610809
 30
0.0
 10
279.2561786617818
 20
38.82716291357335
 30
0.0
 10
278.8231110881196
 20
40.68228408962312
 30
0.0
 10
278.0828336302919
 20
42.46405496360993
 30
0.0
 10
277.0673886512528
 20
44.12424235491925
 30
0.0
 10
275.4005817714536
 20
46.11251378054726
 30
0.0
 10
272.8394147617624
 20
48.09365057572991
 30
0.0
 10
269.4356006047952
 20
49.36791978142804
 30
0.0
 10
266.1317717518985
 20
49.40711483494528
 30
0.0
 10
263.7652245029172
 20
48.39165023322522
 30
0.0
 10
262.2534031446075
 20
47.0250928412526
 30
0.0
 10
261.3272600634007
 20
45.74578617104109
 30
0.0
 10
260.6291806974467
 20
44.24537692167401
 30
0.0
 10
260.172510018726
 20
42.56457772624884
 30
0.0
 10
259.9676059924204
 20
40.75271854955416
 30
0.0
 10
260.0195879356666
 20
38.86638791555399
 30
0.0
 10
260.3278921269008
 20
36.96627256742602
 30
0.0
 10
260.8870543256795
 20
35.11309454397927
 30
0.0
 10
261.6863262878961
 20
33.36553750783956
 30
0.0
 10
262.3690840244578
 20
32.30825947461372
 30
0.0
 10
262.7440646847949
 20
31.81522276784297
 30
0.0
  0
SPLINE
  5
177
330
162
100
AcDbEntity
  8
0
  6
Continuous
 62
     0
370
     0
100
AcDbSpline
210
0.0
220
0.0
230
1.0
 70
     8
 71
     3
 72
    14
 73
    10
 74
     0
 42
0.000000001
 43
0.0
 40
0.0
 40
0.0
 40
0.0
 40
0.0
 40
1.404286950246861
 40
2.80180824355739
 40
4.195347073104721
 40
5.585086099230739
 40
6.97156893468318
 40
8.355744518375094
 40
9.738631114212174
 40
9.738631114212174
 40
9.738631114212174
 40
9.738631114212174
 10
262.744065022556
 20
31.81522241867599
 30
0.0
 10
263.0148283480296
 20
31.45921458967985
 30
0.0
 10
263.5314952126055
 20
30.7146874312142
 30
0.0
 10
264.2106809969601
 20
29.51140902189857
 30
0.0
 10
264.7827428186982
 20
28.2427368959066
 30
0.0
 10
265.23558303756
 20
26.92498714744883
 30
0.0
 10
265.558935237832
 20
25.57631700003863
 30
0.0
 10
265.7465140027319
 20
24.21611409632345
 30
0.0
 10
265.778515972837
 20
23.31352551736543
 30
0.0
 10
265.7709579519826
 20
22.86737038406473
 30
0.0
  0
SPLINE
  5
178
330
162
100
AcDbEntity
  8
0
  6
Continuous
 62
     0
370
     0
100
AcDbSpline
210
0.0
220
0.0
230
1.0
 70
     8
 71
     3
 72
     8
 73
     4
 74
     0
 42
0.000000001
 43
0.0
 40
0.0
 40
0.0
 40
0.0
 40
0.0
 40
40.81424693084995
 40
40.81424693084995
 40
40.81424693084995
 40
40.81424693084995
 10
265.7709550083188
 20
22.86736892046152
 30
0.0
 10
265.5479446535731
 20
9.699622293968062
 30
0.0
 10
265.3368135423145
 20
-3.469448157505674
 30
0.0
 10
265.0961178768554
 20
-16.63227607312108
 30
0.0
  0
SPLINE
  5
179
330
162
100
AcDbEntity
  8
0
  6
Continuous
 62
     0
370
     0
100
AcDbSpline
210
0.0
220
0.0
230
1.0
 70
     8
 71
     3
 72
    14
 73
    10
 74
     0
 42
0.000000001
 43
0.0
 40
0.0
 40
0.0
 40
0.0
 40
0.0
 40
1.382864170633273
 40
2.767013309008381
 40
4.153480982412725
 40
5.543211805218741
 40
6.936725925118182
 40
8.334218231834106
 40
9.738528679551933
 40
9.738528679551933
 40
9.738528679551933
 40
9.738528679551933
 10
271.2177908979941
 20
21.80072167878063
 30
0.0
 10
271.2441310153694
 20
22.24319113026361
 30
0.0
 10
271.3472592864613
 20
23.11929723352446
 30
0.0
 10
271.6506056212734
 20
24.38333647028676
 30
0.0
 10
272.0999670688263
 20
25.58065087751642
 30
0.0
 10
272.6911915576767
 20
26.69393463871663
 30
0.0
 10
273.417299295282
 20
27.70835193150249
 30
0.0
 10
274.2698980392893
 20
28.61164355872646
 30
0.0
 10
274.9179991033562
 20
29.12802071538546
 30
0.0
 10
275.2594799309761
 20
29.36412977841644
 30
0.0
  0
SPLINE
  5
17A
330
162
100
AcDbEntity
  8
0
  6
Continuous
 62
     0
370
     0
100
AcDbSpline
210
0.0
220
0.0
230
1.0
 70
     8
 71
     3
 72
     9
 73
     5
 74
     0
 42
0.000000001
 43
0.0
 40
0.8430313689932017
 40
0.8430313689932017
 40
0.8430313689932017
 40
0.8430313689932017
 40
1.523278239126404
 40
2.284846615985306
 40
2.284846615985306
 40
2.284846615985306
 40
2.284846615985306
 10
265.1220416039083
 20
23.18998015149037
 30
0.0
 10
265.1208214286619
 20
23.1323551016741
 30
0.0
 10
265.2314229142836
 20
23.00862404170902
 30
0.0
 10
265.5619401934725
 20
22.90697999300087
 30
0.0
 10
265.7709579519827
 20
22.86737038406474
 30
0.0
  0
ELLIPSE
  5
17B
330
162
100
AcDbEntity
  8
0
  6
Continuous
 62
     0
370
     0
100
AcDbEllipse
 10
263.685107
 20
32.090744
 30
0.0
 11
1.204730049223239
 21
0.8936584965738024
 31
0.0
210
0.0
220
0.0
230
1.0
 40
0.286435
 41
2.231028250185903
 42
3.141593560527995
  0
ELLIPSE
  5
17C
330
162
100
AcDbEntity
  8
0
  6
Continuous
 62
     0
370
     0
100
AcDbEllipse
 10
275.865284
 20
29.705309
 30
0.0
 11
0.8731220467747082
 21
-1.219695819225412
 31
0.0
210
0.0
220
0.0
230
-1.0
 40
0.461375
 41
0.1352116658349397
 42
1.620953633748997
  0
SPLINE
  5
17D
330
162
100
AcDbEntity
  8
0
  6
Continuous
 62
     0
370
     0
100
AcDbSpline
210
0.0
220
0.0
230
1.0
 70
     8
 71
     9
 72
    35
 73
    25
 74
     0
 42
0.000000001
 43
0.0
 40
0.2499999949532693
 40
0.2499999949532693
 40
0.2499999949532693
 40
0.2499999949532693
 40
0.2499999949532693
 40
0.2499999949532693
 40
0.2499999949532693
 40
0.2499999949532693
 40
0.2499999949532693
 40
0.2499999949532693
 40
0.37499999475916
 40
0.37499999475916
 40
0.37499999475916
 40
0.37499999475916
 40
0.37499999475916
 40
0.499999995807328
 40
0.499999995807328
 40
0.499999995807328
 40
0.499999995807328
 40
0.499999995807328
 40
0.749999997903664
 40
0.749999997903664
 40
0.749999997903664
 40
0.749999997903664
 40
0.749999997903664
 40
0.8310317690527375
 40
0.8310317690527375
 40
0.8310317690527375
 40
0.8310317690527375
 40
0.8310317690527375
 40
0.8310317690527375
 40
0.8310317690527375
 40
0.8310317690527375
 40
0.8310317690527375
 40
0.8310317690527375
 10
273.0508533931271
 20
-15.76744003899271
 30
0.0
 10
273.0426277213285
 20
-15.80797516939754
 30
0.0
 10
273.0269406491117
 20
-15.84814583844097
 30
0.0
 10
273.0045980568451
 20
-15.887882353126
 30
0.0
 10
272.9763489278532
 20
-15.92715235747104
 30
0.0
 10
272.9529335162981
 20
-15.96669176843066
 30
0.0
 10
272.9005411052626
 20
-16.04545646172624
 30
0.0
 10
272.8419068499979
 20
-16.1237102400153
 30
0.0
 10
272.7763838084741
 20
-16.20135417751867
 30
0.0
 10
272.7034424125765
 20
-16.27828422100197
 30
0.0
 10
272.6650602288263
 20
-16.31655768266436
 30
0.0
 10
272.5440418520246
 20
-16.43076481672875
 30
0.0
 10
272.4051077109859
 20
-16.54302186082982
 30
0.0
 10
272.2477051587429
 20
-16.65302319831965
 30
0.0
 10
272.0723057403883
 20
-16.76056123745981
 30
0.0
 10
271.9527097566724
 20
-16.83179835951501
 30
0.0
 10
271.7872749536695
 20
-16.92512749213611
 30
0.0
 10
271.6125009482537
 20
-17.01700546347368
 30
0.0
 10
271.4284980449143
 20
-17.1073615271211
 30
0.0
 10
271.2355529910475
 20
-17.19615858604954
 30
0.0
 10
271.1880653116089
 20
-17.21785332065717
 30
0.0
 10
271.1401012995278
 20
-17.2394635258033
 30
0.0
 10
271.0914234002403
 20
-17.26094236511068
 30
0.0
 10
271.0420053356218
 20
-17.28228334261283
 30
0.0
 10
270.9919783058205
 20
-17.30351027713041
 30
0.0
  0
ELLIPSE
  5
17E
330
162
100
AcDbEntity
  8
0
  6
Continuous
 62
     0
370
     0
100
AcDbEllipse
 10
269.629879
 20
-17.056739
 30
0.0
 11
1.497560259050165
 21
-0.08551766199798984
 31
0.0
210
0.0
220
0.0
230
-1.0
 40
0.273709
 41
0.514349512075774
 42
2.063638161563864
  0
ARC
  5
17F
330
162
100
AcDbEntity
  8
0
  6
Continuous
 62
     0
370
     0
100
AcDbCircle
 10
272.818816
 20
-15.719427
 30
0.0
 40
0.2369531348656865
100
AcDbArc
 50
348.309373
 51
3.7704
  0
ELLIPSE
  5
180
330
162
100
AcDbEntity
  8
0
  6
Continuous
 62
     0
370
     0
100
AcDbEllipse
 10
286.561015
 20
45.538391
 30
0.0
 11
11.0363162557329
 21
-27.68103544533584
 31
0.0
210
0.0
220
0.0
230
1.0
 40
0.828563
 41
5.387443311618395
 42
8.934042426151949
  0
ELLIPSE
  5
181
330
162
100
AcDbEntity
  8
0
  6
Continuous
 62
     0
370
     0
100
AcDbEllipse
 10
286.561015
 20
45.538391
 30
0.0
 11
11.0363162557329
 21
-27.68103544533584
 31
0.0
210
0.0
220
0.0
230
1.0
 40
0.828563
 41
2.650857118972363
 42
4.345045052337264
  0
ELLIPSE
  5
182
330
162
100
AcDbEntity
  8
0
  6
Continuous
 62
     0
370
     0
100
AcDbEllipse
 10
286.665032
 20
45.579862
 30
0.0
 11
11.11038549345968
 21
-27.8668142095008
 31
0.0
210
0.0
220
0.0
230
1.0
 40
0.828563
 41
-0.0000000029864005
 42
2.650857118972429
  0
ELLIPSE
  5
183
330
162
100
AcDbEntity
  8
0
  6
Continuous
 62
     0
370
     0
100
AcDbEllipse
 10
286.665032
 20
45.579862
 30
0.0
 11
11.11038549345968
 21
-27.8668142095008
 31
0.0
210
0.0
220
0.0
230
1.0
 40
0.828563
 41
2.650857118972429
 42
3.141592678325362
  0
ELLIPSE
  5
184
330
162
100
AcDbEntity
  8
0
  6
Continuous
 62
     0
370
    30
100
AcDbEllipse
 10
289.52549
 20
46.720315
 30
0.0
 11
11.11038549345967
 21
-27.86681420950077
 31
0.0
210
0.0
220
0.0
230
1.0
 40
0.828563
 41
-0.0000000029863996
 42
2.650857118972437
  0
ELLIPSE
  5
185
330
162
100
AcDbEntity
  8
0
  6
Continuous
 62
     0
370
    30
100
AcDbEllipse
 10
289.52549
 20
46.720315
 30
0.0
 11
11.11038549345967
 21
-27.86681420950077
 31
0.0
210
0.0
220
0.0
230
1.0
 40
0.828563
 41
2.650857118972437
 42
3.141592650603394
  0
SPLINE
  5
186
330
162
100
AcDbEntity
  8
0
  6
Continuous
 62
     0
370
    30
100
AcDbSpline
210
0.0
220
0.0
230
1.0
 70
     8
 71
     3
 72
     9
 73
     5
 74
     0
 42
0.000000001
 43
0.0
 40
0.0
 40
0.0
 40
0.0
 40
0.0
 40
22.49028302991824
 40
40.8056985486138
 40
40.8056985486138
 40
40.8056985486138
 40
40.8056985486138
 10
264.4262937075694
 20
-16.30317187625715
 30
0.0
 10
264.5625744082927
 20
-9.050683940237406
 30
0.0
 10
264.7936095545508
 20
4.111493871794158
 30
0.0
 10
265.0188438919507
 20
17.27567699808975
 30
0.0
 10
265.1221008318947
 20
23.18413218167545
 30
0.0
  0
SPLINE
  5
187
330
162
100
AcDbEntity
  8
0
  6
Continuous
 62
     0
370
    30
100
AcDbSpline
210
0.0
220
0.0
230
1.0
 70
     8
 71
     3
 72
    16
 73
    12
 74
     0
 42
0.000000001
 43
0.0
 40
0.0
 40
0.0
 40
0.0
 40
0.0
 40
1.986230172856783
 40
5.392797190757611
 40
8.840881132035102
 40
12.18353968425798
 40
15.68081467308697
 40
18.62468981781873
 40
21.76965765517534
 40
23.03186930434774
 40
23.94196503989815
 40
23.94196503989815
 40
23.94196503989815
 40
23.94196503989815
 10
262.4803770011929
 20
31.19708673456219
 30
0.0
 10
262.0994883987951
 20
31.71055677225021
 30
0.0
 10
261.1547704103695
 20
33.1946301568522
 30
0.0
 10
260.041503377708
 20
35.93163483658282
 30
0.0
 10
259.4461611201593
 20
39.30504148656323
 30
0.0
 10
259.5643977403101
 20
42.66378649859789
 30
0.0
 10
260.367114194331
 20
45.58339720641339
 30
0.0
 10
261.7734247673252
 20
48.00251532793152
 30
0.0
 10
263.2763122203752
 20
49.4323373924662
 30
0.0
 10
264.5471143001259
 20
50.18818562594895
 30
0.0
 10
265.0976299723016
 20
50.43785597426645
 30
0.0
 10
265.3330291114275
 20
50.53173432768355
 30
0.0
  0
SPLINE
  5
188
330
162
100
AcDbEntity
  8
0
  6
Continuous
 62
     0
370
    30
100
AcDbSpline
210
0.0
220
0.0
230
1.0
 70
     8
 71
     3
 72
    11
 73
     7
 74
     0
 42
0.000000001
 43
0.0
 40
0.0
 40
0.0
 40
0.0
 40
0.0
 40
1.846662784577552
 40
4.504774788154015
 40
6.911978680066797
 40
8.713951963484453
 40
8.713951963484453
 40
8.713951963484453
 40
8.713951963484453
 10
265.122158704324
 20
23.18998336290962
 30
0.0
 10
265.1324676095371
 20
23.7797048395098
 30
0.0
 10
265.0473126721999
 20
25.24829643779115
 30
0.0
 10
264.506270875529
 20
27.50140980726518
 30
0.0
 10
263.5626007647172
 20
29.59365592273895
 30
0.0
 10
262.8194446341452
 20
30.73999557183211
 30
0.0
 10
262.4803775230044
 20
31.19708579958422
 30
0.0
  0
SPLINE
  5
189
330
162
100
AcDbEntity
  8
0
  6
Continuous
 62
     0
370
    30
100
AcDbSpline
210
0.0
220
0.0
230
1.0
 70
     8
 71
     3
 72
    12
 73
     8
 74
     0
 42
0.000000001
 43
0.0
 40
0.0
 40
0.0
 40
0.0
 40
0.0
 40
0.5480223450998383
 40
0.9676423813268982
 40
1.39161863172421
 40
1.799362117231276
 40
2.017553163660143
 40
2.017553163660143
 40
2.017553163660143
 40
2.017553163660143
 10
272.8098004848455
 20
-17.88818047385636
 30
0.0
 10
272.8454902010373
 20
-17.70961333930428
 30
0.0
 10
272.8989198826386
 20
-17.3938521760824
 30
0.0
 10
272.9559267576581
 20
-16.9438288004238
 30
0.0
 10
272.995111895472
 20
-16.54110540569162
 30
0.0
 10
273.023184113425
 20
-16.20317828710851
 30
0.0
 10
273.035616162904
 20
-16.00158375586488
 30
0.0
 10
273.0403490752833
 20
-15.93117022576336
 30
0.0
  0
SPLINE
  5
18A
330
162
100
AcDbEntity
  8
0
  6
Continuous
 62
     0
370
    30
100
AcDbSpline
210
0.0
220
0.0
230
1.0
 70
     8
 71
     3
 72
    24
 73
    20
 74
     0
 42
0.000000001
 43
0.0
 40
0.0
 40
0.0
 40
0.0
 40
0.0
 40
0.4875627201312588
 40
1.104802515828852
 40
1.587575338681848
 40
1.945916878548523
 40
2.334604518998864
 40
2.580857091373826
 40
2.708668051868186
 40
3.022412722062281
 40
3.473648186232488
 40
3.849550564443376
 40
4.255646280468667
 40
5.090305650311652
 40
5.519611916393794
 40
5.929834293627339
 40
6.734842915460005
 40
7.542115695051709
 40
8.548104354306007
 40
8.548104354306007
 40
8.548104354306007
 40
8.548104354306007
 10
267.2763195986259
 20
-23.28149880226541
 30
0.0
 10
267.1247887383557
 20
-23.25182190068851
 30
0.0
 10
266.7841098458581
 20
-23.16173614836739
 30
0.0
 10
266.3144074093327
 20
-22.9562649201335
 30
0.0
 10
265.9147069132109
 20
-22.70187795233715
 30
0.0
 10
265.6023643883655
 20
-22.44832303898075
 30
0.0
 10
265.3709166528264
 20
-22.21809312101311
 30
0.0
 10
265.2070350583581
 20
-22.02777709182499
 30
0.0
 10
265.0661850242467
 20
-21.84965124189872
 30
0.0
 10
264.8960841511084
 20
-21.60583909209689
 30
0.0
 10
264.7261172522033
 20
-21.26427306354474
 30
0.0
 10
264.5958856869797
 20
-20.87358460736867
 30
0.0
 10
264.4806080395958
 20
-20.34720326966196
 30
0.0
 10
264.4307897567076
 20
-19.79644126603453
 30
0.0
 10
264.4157473229253
 20
-19.24982834710492
 30
0.0
 10
264.4099739447238
 20
-18.71605987896612
 30
0.0
 10
264.4077865289285
 20
-18.06087141575962
 30
0.0
 10
264.4119918508969
 20
-17.2136693430904
 30
0.0
 10
264.4201921760756
 20
-16.62787877317602
 30
0.0
 10
264.4262937077436
 20
-16.30317186698674
 30
0.0
  0
SPLINE
  5
18B
330
162
100
AcDbEntity
  8
0
  6
Continuous
 62
     0
370
    30
100
AcDbSpline
210
0.0
220
0.0
230
1.0
 70
     8
 71
     3
 72
    26
 73
    22
 74
     0
 42
0.000000001
 43
0.0
 40
0.0
 40
0.0
 40
0.0
 40
0.0
 40
0.4139067171891466
 40
0.7768203661086508
 40
1.002394692272131
 40
1.247698204870614
 40
1.533437733254595
 40
1.812338358813611
 40
2.088231193980445
 40
2.682259224116334
 40
3.257221075160947
 40
3.409376968742367
 40
3.709073754548283
 40
4.153815220554602
 40
4.748818467056996
 40
5.641599952927334
 40
5.940562919339079
 40
6.53579696302842
 40
6.831988203169406
 40
7.231988797616512
 40
7.630832848218408
 40
7.630832848218408
 40
7.630832848218408
 40
7.630832848218408
 10
272.8097756107721
 20
-17.88830443097227
 30
0.0
 10
272.7828122440378
 20
-18.02320161413724
 30
0.0
 10
272.7264238081529
 20
-18.27623768707527
 30
0.0
 10
272.6387748592144
 20
-18.59860371015304
 30
0.0
 10
272.5580070491943
 20
-18.85922136134349
 30
0.0
 10
272.4817904649237
 20
-19.08450448370494
 30
0.0
 10
272.3988733630138
 20
-19.31126237863334
 30
0.0
 10
272.3073052625788
 20
-19.54328739620215
 30
0.0
 10
272.1738898477824
 20
-19.8550606550935
 30
0.0
 10
271.9927086004317
 20
-20.22855023472823
 30
0.0
 10
271.8114918949003
 20
-20.54609979461539
 30
0.0
 10
271.663412611065
 20
-20.78138502682411
 30
0.0
 10
271.5332237591367
 20
-20.97652202519812
 30
0.0
 10
271.3292596706752
 20
-21.25543159592839
 30
0.0
 10
271.0222163862353
 20
-21.62593619398228
 30
0.0
 10
270.7279571814002
 20
-21.92824102981959
 30
0.0
 10
270.429714219602
 20
-22.20305268273268
 30
0.0
 10
270.2269289577031
 20
-22.37514648506591
 30
0.0
 10
270.0047308434806
 20
-22.54955758261694
 30
0.0
 10
269.8278571805437
 20
-22.67989045723286
 30
0.0
 10
269.6812297497902
 20
-22.78438872049593
 30
0.0
 10
269.6234901912391
 20
-22.8216873168955
 30
0.0
  0
SPLINE
  5
18C
330
162
100
AcDbEntity
  8
0
  6
Continuous
 62
     0
370
    30
100
AcDbSpline
210
0.0
220
0.0
230
1.0
 70
     8
 71
     3
 72
    12
 73
     8
 74
     0
 42
0.000000001
 43
0.0
 40
0.0
 40
0.0
 40
0.0
 40
0.0
 40
0.4926074673373492
 40
1.2534043310428
 40
1.75469960352638
 40
2.005796551710375
 40
2.584072492485312
 40
2.584072492485312
 40
2.584072492485312
 40
2.584072492485312
 10
267.276321332893
 20
-23.28149914191655
 30
0.0
 10
267.429417574223
 20
-23.31148256728217
 30
0.0
 10
267.824179524127
 20
-23.36215198725257
 30
0.0
 10
268.383832112854
 20
-23.33008651776819
 30
0.0
 10
268.8488790615125
 20
-23.20852809385075
 30
0.0
 10
269.2425556189491
 20
-23.0527605636973
 30
0.0
 10
269.472512566108
 20
-22.92379606968214
 30
0.0
 10
269.6234911786181
 20
-22.82169933456438
 30
0.0
  0
ARC
  5
18D
330
162
100
AcDbEntity
  8
0
  6
Continuous
 62
     0
370
    30
100
AcDbCircle
 10
32026.059055
 20
-2129.60241
 30
0.0
 40
31823.26444376424
100
AcDbArc
 50
176.123909
 51
176.153612
  0
ARC
  5
18E
330
162
100
AcDbEntity
  8
0
  6
Continuous
 62
     0
370
    30
100
AcDbCircle
 10
-10834.254992
 20
750.641152
 30
0.0
 40
11133.71786067171
100
AcDbArc
 50
356.05299
 51
356.160754
  0
ARC
  5
18F
330
162
100
AcDbEntity
  8
0
  6
Continuous
 62
     0
370
    30
100
AcDbCircle
 10
285.539104
 20
20.944559
 30
0.0
 40
9.9738399697923
100
AcDbArc
 50
127.255643
 51
176.132147
  0
ARC
  5
190
330
162
100
AcDbEntity
  8
0
  6
Continuous
 62
     0
370
    30
100
AcDbCircle
 10
285.417212
 20
21.105533
 30
0.0
 40
9.771924476257762
100
AcDbArc
 50
111.808472
 51
127.258164
  0
LINE
  5
191
330
162
100
AcDbEntity
  8
0
  6
Continuous
 62
     0
370
    30
100
AcDbLine
 10
265.334897
 20
50.532491
 30
0.0
 11
281.463613
 21
56.962944
 31
0.0
  0
LINE
  5
192
330
162
100
AcDbEntity
  8
0
  6
Continuous
 62
     0
370
    30
100
AcDbLine
 10
281.786747
 20
30.178043
 30
0.0
 11
290.722268
 21
33.740599
 31
0.0
  0
LINE
  5
193
330
162
100
AcDbEntity
  8
0
  6
Continuous
 62
     0
370
    30
100
AcDbLine
 10
275.554647
 20
73.446677
 30
0.0
 11
278.415105
 21
74.58713
 31
0.0
  0
LINE
  5
194
330
162
100
AcDbEntity
  8
0
  6
Continuous
 62
     0
370
    30
100
AcDbLine
 10
297.775417
 20
17.713048
 30
0.0
 11
300.635876
 21
18.853501
 31
0.0
  0
SPLINE
  5
195
330
162
100
AcDbEntity
  8
0
  6
Continuous
 62
     0
370
    30
100
AcDbSpline
210
0.0
220
0.0
230
1.0
 70
     8
 71
     3
 72
    15
 73
    11
 74
     0
 42
0.000000001
 43
0.0
 40
57.93154504289411
 40
57.93154504289411
 40
57.93154504289411
 40
57.93154504289411
 40
62.34455190249808
 40
68.53603558371927
 40
74.7262399824394
 40
80.91486127270186
 40
84.56874276546152
 40
86.81748148756806
 40
91.34702993467388
 40
94.19002291427427
 40
94.19002291427427
 40
94.19002291427427
 40
94.19002291427427
 10
261.108976051111
 20
46.80515452819084
 30
0.0
 10
261.0000171031913
 20
48.24321351076394
 30
0.0
 10
260.9595911509808
 20
51.68840802757499
 30
0.0
 10
261.7432180030812
 20
56.9629322632901
 30
0.0
 10
263.6683331085541
 20
62.31326918974815
 30
0.0
 10
266.1747575260644
 20
66.32025920613813
 30
0.0
 10
268.5076641070052
 20
68.87306855644033
 30
0.0
 10
270.7249205487922
 20
70.80688380696722
 30
0.0
 10
272.9689443114531
 20
72.28998861826432
 30
0.0
 10
274.823336806809
 20
73.15510631486342
 30
0.0
 10
275.5546459670348
 20
73.44667632810155
 30
0.0
  0
SPLINE
  5
196
330
162
100
AcDbEntity
  8
0
  6
Continuous
 62
     0
370
    30
100
AcDbSpline
210
0.0
220
0.0
230
1.0
 70
     8
 71
     3
 72
    14
 73
    10
 74
     0
 42
0.000000001
 43
0.0
 40
0.0
 40
0.0
 40
0.0
 40
0.0
 40
1.501929916849108
 40
4.50574380662801
 40
11.19521408874887
 40
13.84930068784938
 40
19.59238913924653
 40
25.77023338471597
 40
26.86207884311
 40
26.86207884311
 40
26.86207884311
 40
26.86207884311
 10
297.7754174561311
 20
17.71304810931575
 30
0.0
 10
297.3889657010145
 20
17.55897136782519
 30
0.0
 10
296.2154528854435
 20
17.13171338780354
 30
0.0
 10
293.2068924727197
 20
16.33525722792719
 30
0.0
 10
289.7216007355307
 20
16.10247997153269
 30
0.0
 10
285.4143333761328
 20
16.58744091188457
 30
0.0
 10
281.2628305828699
 20
17.71676040110952
 30
0.0
 10
277.7090939122266
 20
19.5250907066294
 30
0.0
 10
275.8250328648542
 20
20.78252405466512
 30
0.0
 10
275.5445261679267
 20
20.9768138656593
 30
0.0
  0
ENDBLK
  5
198
330
162
100
AcDbEntity
  8
0
100
AcDbBlockEnd
  0
ENDSEC
  0
SECTION
  2
ENTITIES
  0
INSERT
  5
98
330
1F
100
AcDbEntity
  8
0
  6
Continuous
 62
     7
370
     0
100
AcDbBlockReference
  2
a
 10
108.537781
 20
37.388023
 30
0.0
  0
INSERT
  5
CA
330
1F
100
AcDbEntity
  8
0
  6
Continuous
 62
     7
370
     0
100
AcDbBlockReference
  2
b
 10
204.249634
 20
0.0
 30
0.0
  0
INSERT
  5
FD
330
1F
100
AcDbEntity
  8
0
  6
Continuous
 62
     7
370
     0
100
AcDbBlockReference
  2
c
 10
51.314697
 20
0.0
 30
0.0
  0
INSERT
  5
118
330
1F
100
AcDbEntity
  8
0
  6
Continuous
 62
     7
370
     0
100
AcDbBlockReference
  2
d
 10
0.0
 20
69.248098
 30
0.0
  0
INSERT
  5
161
330
1F
100
AcDbEntity
  8
0
  6
Continuous
 62
     7
370
     0
100
AcDbBlockReference
  2
e
 10
0.0
 20
223.415466
 30
0.0
  0
INSERT
  5
199
330
1F
100
AcDbEntity
  8
0
  6
Continuous
 62
     7
370
     0
100
AcDbBlockReference
  2
f
 10
255.226166
 20
-27.679237
 30
0.0
  0
ENDSEC
  0
SECTION
  2
OBJECTS
  0
DICTIONARY
  5
C
330
0
100
AcDbDictionary
281
     1
  3
ACAD_GROUP
350
D
  3
ACAD_LAYOUT
350
1A
  3
ACAD_MATERIAL
350
43
  3
ACAD_MLEADERSTYLE
350
6B
  3
ACAD_MLINESTYLE
350
17
  3
ACAD_PLOTSETTINGS
350
19
  3
ACAD_PLOTSTYLENAME
350
E
  3
ACAD_SCALELIST
350
47
  3
ACAD_TABLESTYLE
350
69
  3
ACAD_VISUALSTYLE
350
2A
  3
AcDbVariableDictionary
350
19A
  0
DICTIONARY
  5
1A5
330
8
100
AcDbDictionary
280
     1
281
     1
  3
ACAD_XREC_ROUNDTRIP
360
1A6
  0
DICTIONARY
  5
D
102
{ACAD_REACTORS
330
C
102
}
330
C
100
AcDbDictionary
281
     1
  0
DICTIONARY
  5
1A
102
{ACAD_REACTORS
330
C
102
}
330
C
100
AcDbDictionary
281
     1
  3
Layout1
350
1E
  3
Layout2
350
26
  3
Model
350
22
  0
DICTIONARY
  5
43
102
{ACAD_REACTORS
330
C
102
}
330
C
100
AcDbDictionary
281
     1
  3
ByBlock
350
45
  3
ByLayer
350
44
  3
Global
350
46
  0
DICTIONARY
  5
6B
102
{ACAD_REACTORS
330
C
102
}
330
C
100
AcDbDictionary
281
     1
  3
Standard
350
6C
  0
DICTIONARY
  5
17
102
{ACAD_REACTORS
330
C
102
}
330
C
100
AcDbDictionary
281
     1
  3
Standard
350
18
  0
DICTIONARY
  5
19
102
{ACAD_REACTORS
330
C
102
}
330
C
100
AcDbDictionary
281
     1
  0
ACDBDICTIONARYWDFLT
  5
E
102
{ACAD_REACTORS
330
C
102
}
330
C
100
AcDbDictionary
281
     1
  3
Normal
350
F
100
AcDbDictionaryWithDefault
340
F
  0
DICTIONARY
  5
47
102
{ACAD_REACTORS
330
C
102
}
330
C
100
AcDbDictionary
281
     1
  3
A0
350
48
  3
A1
350
49
  3
A2
350
4A
  3
A3
350
4B
  3
A4
350
4C
  3
A5
350
4D
  3
A6
350
4E
  3
A7
350
4F
  3
A8
350
50
  3
A9
350
51
  3
B0
350
52
  3
B1
350
53
  3
B2
350
54
  3
B3
350
55
  3
B4
350
56
  3
B5
350
57
  3
B6
350
58
  3
B7
350
59
  3
B8
350
5A
  3
B9
350
5B
  3
C0
350
5C
  3
C1
350
5D
  3
C2
350
5E
  3
C3
350
5F
  3
C4
350
60
  3
C5
350
61
  3
C6
350
62
  3
C7
350
63
  3
C8
350
64
  3
C9
350
65
  3
D0
350
66
  3
D1
350
67
  3
D2
350
68
  0
DICTIONARY
  5
69
102
{ACAD_REACTORS
330
C
102
}
330
C
100
AcDbDictionary
281
     1
  3
Standard
350
6A
  0
DICTIONARY
  5
2A
102
{ACAD_REACTORS
330
C
102
}
330
C
100
AcDbDictionary
281
     1
  3
2dWireframe
350
2F
  3
Basic
350
32
  3
Brighten
350
36
  3
ColorChange
350
3A
  3
Conceptual
350
34
  3
Dim
350
35
  3
EdgeColorOff
350
3D
  3
Facepattern
350
39
  3
Flat
350
2B
  3
FlatWithEdges
350
2C
  3
Gouraud
350
2D
  3
GouraudWithEdges
350
2E
  3
Hidden
350
31
  3
JitterOff
350
3B
  3
Linepattern
350
38
  3
OverhangOff
350
3C
  3
Realistic
350
33
  3
Shaded
350
42
  3
Shaded with edges
350
41
  3
Shades of Gray
350
3E
  3
Sketchy
350
3F
  3
Thicken
350
37
  3
Wireframe
350
30
  3
X-Ray
350
40
  0
DICTIONARY
  5
19A
102
{ACAD_REACTORS
330
C
102
}
330
C
100
AcDbDictionary
281
     1
  3
CANNOSCALE
350
1A7
  3
CENTEREXE
350
1A1
  3
CENTERLTYPEFILE
350
1A2
  3
CMLEADERSTYLE
350
19C
  3
CTABLESTYLE
350
19B
  3
DIMASSOC
350
1A3
  3
HIDETEXT
350
1A4
  3
MSLTSCALE
350
1A8
  3
PSOLHEIGHT
350
19E
  3
PSOLWIDTH
350
19D
  0
XRECORD
  5
1A6
102
{ACAD_REACTORS
330
1A5
102
}
330
1A5
100
AcDbXrecord
280
     1
102
VTR_0.000_0.000_1.000_1.000_VISUALSTYLE
340
2F
102
VTR_0.000_0.000_1.000_1.000_GRIDDISPLAY
 70
     3
102
VTR_0.000_0.000_1.000_1.000_GRIDMAJOR
 70
     5
102
VTR_0.000_0.000_1.000_1.000_DEFAULTLIGHTING
280
     1
102
VTR_0.000_0.000_1.000_1.000_DEFAULTLIGHTINGTYPE
 70
     1
102
VTR_0.000_0.000_1.000_1.000_BRIGHTNESS
141
0.0
102
VTR_0.000_0.000_1.000_1.000_CONTRAST
142
0.0
  0
LAYOUT
  5
1E
102
{ACAD_REACTORS
330
1A
102
}
330
1A
100
AcDbPlotSettings
  1

  2
none_device
  4

  6

 40
0.0
 41
0.0
 42
0.0
 43
0.0
 44
0.0
 45
0.0
 46
0.0
 47
0.0
 48
0.0
 49
0.0
140
0.0
141
0.0
142
1.0
143
1.0
 70
   688
 72
     1
 73
     0
 74
     5
  7

 75
    16
147
1.0
148
0.0
149
0.0
100
AcDbLayout
  1
Layout1
 70
     1
 71
     1
 10
0.0
 20
0.0
 11
420.0
 21
297.0
 12
0.0
 22
0.0
 32
0.0
 14
1.000000E+20
 24
1.000000E+20
 34
1.000000E+20
 15
-1.000000E+20
 25
-1.000000E+20
 35
-1.000000E+20
146
0.0
 13
0.0
 23
0.0
 33
0.0
 16
1.0
 26
0.0
 36
0.0
 17
0.0
 27
1.0
 37
0.0
 76
     0
330
1B
  0
LAYOUT
  5
26
102
{ACAD_REACTORS
330
1A
102
}
330
1A
100
AcDbPlotSettings
  1

  2
none_device
  4

  6

 40
0.0
 41
0.0
 42
0.0
 43
0.0
 44
0.0
 45
0.0
 46
0.0
 47
0.0
 48
0.0
 49
0.0
140
0.0
141
0.0
142
1.0
143
1.0
 70
   688
 72
     1
 73
     0
 74
     5
  7

 75
    16
147
1.0
148
0.0
149
0.0
100
AcDbLayout
  1
Layout2
 70
     1
 71
     2
 10
0.0
 20
0.0
 11
0.0
 21
0.0
 12
0.0
 22
0.0
 32
0.0
 14
0.0
 24
0.0
 34
0.0
 15
0.0
 25
0.0
 35
0.0
146
0.0
 13
0.0
 23
0.0
 33
0.0
 16
1.0
 26
0.0
 36
0.0
 17
0.0
 27
1.0
 37
0.0
 76
     0
330
23
  0
LAYOUT
  5
22
102
{ACAD_REACTORS
330
1A
102
}
330
1A
100
AcDbPlotSettings
  1

  2
none_device
  4
Letter_(8.50_x_11.00_Inches)
  6

 40
6.35
 41
6.35
 42
6.350005
 43
6.350005
 44
215.9
 45
279.4
 46
0.0
 47
0.0
 48
0.0
 49
0.0
140
0.0
141
0.0
142
1.0
143
1.0
 70
  1712
 72
     1
 73
     0
 74
     0
  7

 75
     0
147
1.0
148
0.0
149
0.0
100
AcDbLayout
  1
Model
 70
     1
 71
     0
 10
-7.040723
 20
-34.609238
 11
315.148926
 21
323.848572
 12
0.0
 22
0.0
 32
0.0
 14
-7.040723
 24
-34.609238
 34
0.0
 15
315.148926
 25
323.848572
 35
0.0
146
0.0
 13
0.0
 23
0.0
 33
0.0
 16
1.0
 26
0.0
 36
0.0
 17
0.0
 27
1.0
 37
0.0
 76
     0
330
1F
331
29
  0
MATERIAL
  5
45
102
{ACAD_REACTORS
330
43
102
}
102
{ACAD_XDICTIONARY
360
1DB
102
}
330
43
100
AcDbMaterial
  1
ByBlock
  0
MATERIAL
  5
44
102
{ACAD_REACTORS
330
43
102
}
102
{ACAD_XDICTIONARY
360
1D9
102
}
330
43
100
AcDbMaterial
  1
ByLayer
  0
MATERIAL
  5
46
102
{ACAD_REACTORS
330
43
102
}
102
{ACAD_XDICTIONARY
360
1DD
102
}
330
43
100
AcDbMaterial
  1
Global
  0
MLEADERSTYLE
  5
6C
102
{ACAD_REACTORS
330
6B
102
}
102
{ACAD_XDICTIONARY
360
1E0
102
}
330
6B
100
AcDbMLeaderStyle
170
     2
171
     1
172
     0
 90
        2
 40
0.0
 41
0.0
173
     1
 91
-1056964608
340
14
 92
       -2
290
     1
 42
2.0
291
     1
 43
8.0
  3
Standard
341
0
 44
4.0
300

342
11
174
     1
178
     6
175
     1
176
     0
 93
-1056964608
 45
4.0
292
     0
297
     0
 46
4.0
343
0
 94
-1056964608
 47
1.0
 49
1.0
140
1.0
293
     1
141
0.0
294
     1
177
     0
142
1.0
295
     0
296
     0
143
3.75
1001
ACAD_MLEADERVER
1070
     2
  0
MLINESTYLE
  5
18
102
{ACAD_REACTORS
330
17
102
}
330
17
100
AcDbMlineStyle
  2
Standard
 70
     0
  3

 62
   256
 51
90.0
 52
90.0
 71
     2
 49
0.5
 62
   256
  6
BYLAYER
 49
-0.5
 62
   256
  6
BYLAYER
  0
ACDBPLACEHOLDER
  5
F
102
{ACAD_REACTORS
330
E
102
}
330
E
  0
SCALE
  5
48
102
{ACAD_REACTORS
330
47
102
}
330
47
100
AcDbScale
 70
     0
300
1:1
140
1.0
141
1.0
290
     1
  0
SCALE
  5
49
102
{ACAD_REACTORS
330
47
102
}
330
47
100
AcDbScale
 70
     0
300
1:2
140
1.0
141
2.0
290
     0
  0
SCALE
  5
4A
102
{ACAD_REACTORS
330
47
102
}
330
47
100
AcDbScale
 70
     0
300
1:4
140
1.0
141
4.0
290
     0
  0
SCALE
  5
4B
102
{ACAD_REACTORS
330
47
102
}
330
47
100
AcDbScale
 70
     0
300
1:5
140
1.0
141
5.0
290
     0
  0
SCALE
  5
4C
102
{ACAD_REACTORS
330
47
102
}
330
47
100
AcDbScale
 70
     0
300
1:8
140
1.0
141
8.0
290
     0
  0
SCALE
  5
4D
102
{ACAD_REACTORS
330
47
102
}
330
47
100
AcDbScale
 70
     0
300
1:10
140
1.0
141
10.0
290
     0
  0
SCALE
  5
4E
102
{ACAD_REACTORS
330
47
102
}
330
47
100
AcDbScale
 70
     0
300
1:16
140
1.0
141
16.0
290
     0
  0
SCALE
  5
4F
102
{ACAD_REACTORS
330
47
102
}
330
47
100
AcDbScale
 70
     0
300
1:20
140
1.0
141
20.0
290
     0
  0
SCALE
  5
50
102
{ACAD_REACTORS
330
47
102
}
330
47
100
AcDbScale
 70
     0
300
1:30
140
1.0
141
30.0
290
     0
  0
SCALE
  5
51
102
{ACAD_REACTORS
330
47
102
}
330
47
100
AcDbScale
 70
     0
300
1:40
140
1.0
141
40.0
290
     0
  0
SCALE
  5
52
102
{ACAD_REACTORS
330
47
102
}
330
47
100
AcDbScale
 70
     0
300
1:50
140
1.0
141
50.0
290
     0
  0
SCALE
  5
53
102
{ACAD_REACTORS
330
47
102
}
330
47
100
AcDbScale
 70
     0
300
1:100
140
1.0
141
100.0
290
     0
  0
SCALE
  5
54
102
{ACAD_REACTORS
330
47
102
}
330
47
100
AcDbScale
 70
     0
300
2:1
140
2.0
141
1.0
290
     0
  0
SCALE
  5
55
102
{ACAD_REACTORS
330
47
102
}
330
47
100
AcDbScale
 70
     0
300
4:1
140
4.0
141
1.0
290
     0
  0
SCALE
  5
56
102
{ACAD_REACTORS
330
47
102
}
330
47
100
AcDbScale
 70
     0
300
8:1
140
8.0
141
1.0
290
     0
  0
SCALE
  5
57
102
{ACAD_REACTORS
330
47
102
}
330
47
100
AcDbScale
 70
     0
300
10:1
140
10.0
141
1.0
290
     0
  0
SCALE
  5
58
102
{ACAD_REACTORS
330
47
102
}
330
47
100
AcDbScale
 70
     0
300
100:1
140
100.0
141
1.0
290
     0
  0
SCALE
  5
59
102
{ACAD_REACTORS
330
47
102
}
330
47
100
AcDbScale
 70
     0
300
1/128" = 1'-0"
140
0.007812
141
12.0
290
     0
  0
SCALE
  5
5A
102
{ACAD_REACTORS
330
47
102
}
330
47
100
AcDbScale
 70
     0
300
1/64" = 1'-0"
140
0.015625
141
12.0
290
     0
  0
SCALE
  5
5B
102
{ACAD_REACTORS
330
47
102
}
330
47
100
AcDbScale
 70
     0
300
1/32" = 1'-0"
140
0.03125
141
12.0
290
     0
  0
SCALE
  5
5C
102
{ACAD_REACTORS
330
47
102
}
330
47
100
AcDbScale
 70
     0
300
1/16" = 1'-0"
140
0.0625
141
12.0
290
     0
  0
SCALE
  5
5D
102
{ACAD_REACTORS
330
47
102
}
330
47
100
AcDbScale
 70
     0
300
3/32" = 1'-0"
140
0.09375
141
12.0
290
     0
  0
SCALE
  5
5E
102
{ACAD_REACTORS
330
47
102
}
330
47
100
AcDbScale
 70
     0
300
1/8" = 1'-0"
140
0.125
141
12.0
290
     0
  0
SCALE
  5
5F
102
{ACAD_REACTORS
330
47
102
}
330
47
100
AcDbScale
 70
     0
300
3/16" = 1'-0"
140
0.1875
141
12.0
290
     0
  0
SCALE
  5
60
102
{ACAD_REACTORS
330
47
102
}
330
47
100
AcDbScale
 70
     0
300
1/4" = 1'-0"
140
0.25
141
12.0
290
     0
  0
SCALE
  5
61
102
{ACAD_REACTORS
330
47
102
}
330
47
100
AcDbScale
 70
     0
300
3/8" = 1'-0"
140
0.375
141
12.0
290
     0
  0
SCALE
  5
62
102
{ACAD_REACTORS
330
47
102
}
330
47
100
AcDbScale
 70
     0
300
1/2" = 1'-0"
140
0.5
141
12.0
290
     0
  0
SCALE
  5
63
102
{ACAD_REACTORS
330
47
102
}
330
47
100
AcDbScale
 70
     0
300
3/4" = 1'-0"
140
0.75
141
12.0
290
     0
  0
SCALE
  5
64
102
{ACAD_REACTORS
330
47
102
}
330
47
100
AcDbScale
 70
     0
300
1" = 1'-0"
140
1.0
141
12.0
290
     0
  0
SCALE
  5
65
102
{ACAD_REACTORS
330
47
102
}
330
47
100
AcDbScale
 70
     0
300
1-1/2" = 1'-0"
140
1.5
141
12.0
290
     0
  0
SCALE
  5
66
102
{ACAD_REACTORS
330
47
102
}
330
47
100
AcDbScale
 70
     0
300
3" = 1'-0"
140
3.0
141
12.0
290
     0
  0
SCALE
  5
67
102
{ACAD_REACTORS
330
47
102
}
330
47
100
AcDbScale
 70
     0
300
6" = 1'-0"
140
6.0
141
12.0
290
     0
  0
SCALE
  5
68
102
{ACAD_REACTORS
330
47
102
}
330
47
100
AcDbScale
 70
     0
300
1'-0" = 1'-0"
140
12.0
141
12.0
290
     0
  0
TABLESTYLE
  5
6A
102
{ACAD_REACTORS
330
69
102
}
330
69
100
AcDbTableStyle
  3
Standard
 70
     0
 71
     0
 40
1.5
 41
1.5
280
     0
281
     0
  7
Standard
140
4.5
170
     2
 62
     0
 63
   257
283
     0
274
    -2
284
     1
 64
     0
275
    -2
285
     1
 65
     0
276
    -2
286
     1
 66
     0
277
    -2
287
     1
 67
     0
278
    -2
288
     1
 68
     0
279
    -2
289
     1
 69
     0
  7
Standard
140
6.0
170
     5
 62
     0
 63
   257
283
     0
274
    -2
284
     1
 64
     0
275
    -2
285
     1
 65
     0
276
    -2
286
     1
 66
     0
277
    -2
287
     1
 67
     0
278
    -2
288
     1
 68
     0
279
    -2
289
     1
 69
     0
  7
Standard
140
4.5
170
     5
 62
     0
 63
   257
283
     0
274
    -2
284
     1
 64
     0
275
    -2
285
     1
 65
     0
276
    -2
286
     1
 66
     0
277
    -2
287
     1
 67
     0
278
    -2
288
     1
 68
     0
279
    -2
289
     1
 69
     0
  0
VISUALSTYLE
  5
2F
102
{ACAD_REACTORS
330
2A
102
}
102
{ACAD_XDICTIONARY
360
1B1
102
}
330
2A
100
AcDbVisualStyle
  2
2dWireframe
 70
     4
 71
     0
 72
     2
 73
     0
 90
        0
 40
0.6
 41
30.0
 62
     5
 63
     7
 74
     1
 91
        4
 64
     7
 65
   257
 75
     1
175
     1
 42
1.0
 92
        0
 66
   257
 43
1.0
 76
     1
 77
     6
 78
     2
 67
     7
 79
     5
170
     0
171
     0
290
     0
174
     0
 93
        1
 44
0.0
173
     0
291
     0
 45
0.0
1001
ACAD
1000
AcDbSavedByObjectVersion
1070
     0
  0
VISUALSTYLE
  5
32
102
{ACAD_REACTORS
330
2A
102
}
102
{ACAD_XDICTIONARY
360
1B7
102
}
330
2A
100
AcDbVisualStyle
  2
Basic
 70
     7
 71
     1
 72
     0
 73
     1
 90
        0
 40
0.6
 41
30.0
 62
     5
 63
     7
 74
     0
 91
        4
 64
     7
 65
   257
 75
     1
175
     1
 42
1.0
 92
        8
 66
     7
 43
1.0
 76
     1
 77
     6
 78
     2
 67
     7
 79
     5
170
     0
171
     0
290
     0
174
     0
 93
        1
 44
0.0
173
     0
291
     1
 45
0.0
1001
ACAD
1000
AcDbSavedByObjectVersion
1070
     0
  0
VISUALSTYLE
  5
36
102
{ACAD_REACTORS
330
2A
102
}
102
{ACAD_XDICTIONARY
360
1BF
102
}
330
2A
100
AcDbVisualStyle
  2
Brighten
 70
    12
 71
     2
 72
     2
 73
     0
 90
        0
 40
0.6
 41
30.0
 62
     5
 63
     7
 74
     1
 91
        4
 64
     7
 65
   257
 75
     1
175
     1
 42
1.0
 92
        8
 66
     7
 43
1.0
 76
     1
 77
     6
 78
     2
 67
     7
 79
     5
170
     0
171
     0
290
     0
174
     0
 93
        1
 44
50.0
173
     0
291
     1
 45
0.0
1001
ACAD
1000
AcDbSavedByObjectVersion
1070
     0
  0
VISUALSTYLE
  5
3A
102
{ACAD_REACTORS
330
2A
102
}
102
{ACAD_XDICTIONARY
360
1C7
102
}
330
2A
100
AcDbVisualStyle
  2
ColorChange
 70
    16
 71
     2
 72
     2
 73
     3
 90
        0
 40
0.6
 41
30.0
 62
     5
 63
     8
 74
     1
 91
        4
 64
     7
 65
   257
 75
     1
175
     1
 42
1.0
 92
        8
 66
     8
 43
1.0
 76
     1
 77
     6
 78
     2
 67
     7
 79
     5
170
     0
171
     0
290
     0
174
     0
 93
        1
 44
0.0
173
     0
291
     1
 45
0.0
1001
ACAD
1000
AcDbSavedByObjectVersion
1070
     0
  0
VISUALSTYLE
  5
34
102
{ACAD_REACTORS
330
2A
102
}
102
{ACAD_XDICTIONARY
360
1BB
102
}
330
2A
100
AcDbVisualStyle
  2
Conceptual
 70
     9
 71
     3
 72
     2
 73
     0
 90
        0
 40
0.6
 41
30.0
 62
     5
 63
     7
 74
     2
 91
        2
 64
     7
 65
   257
 75
     1
175
     1
 42
179.0
 92
        8
 66
     7
 43
1.0
 76
     1
 77
     6
 78
     2
 67
     7
 79
     3
170
     0
171
     0
290
     0
174
     0
 93
        1
 44
0.0
173
     0
291
     0
 45
0.0
1001
ACAD
1000
AcDbSavedByObjectVersion
1070
     0
  0
VISUALSTYLE
  5
35
102
{ACAD_REACTORS
330
2A
102
}
102
{ACAD_XDICTIONARY
360
1BD
102
}
330
2A
100
AcDbVisualStyle
  2
Dim
 70
    11
 71
     2
 72
     2
 73
     0
 90
        0
 40
0.6
 41
30.0
 62
     5
 63
     7
 74
     1
 91
        4
 64
     7
 65
   257
 75
     1
175
     1
 42
1.0
 92
        8
 66
     7
 43
1.0
 76
     1
 77
     6
 78
     2
 67
     7
 79
     5
170
     0
171
     0
290
     0
174
     0
 93
        1
 44
-50.0
173
     0
291
     1
 45
0.0
1001
ACAD
1000
AcDbSavedByObjectVersion
1070
     0
  0
VISUALSTYLE
  5
3D
102
{ACAD_REACTORS
330
2A
102
}
102
{ACAD_XDICTIONARY
360
1CD
102
}
330
2A
100
AcDbVisualStyle
  2
EdgeColorOff
 70
    22
 71
     2
 72
     2
 73
     0
 90
        0
 40
0.6
 41
30.0
 62
     5
 63
     7
 74
     1
 91
        4
 64
     7
 65
   257
 75
     1
175
     1
 42
1.0
 92
        8
 66
     7
 43
1.0
 76
     1
 77
     6
 78
     2
 67
     7
 79
     5
170
     0
171
     0
290
     0
174
     0
 93
        1
 44
0.0
173
     0
291
     1
 45
0.0
1001
ACAD
1000
AcDbSavedByObjectVersion
1070
     0
  0
VISUALSTYLE
  5
39
102
{ACAD_REACTORS
330
2A
102
}
102
{ACAD_XDICTIONARY
360
1C5
102
}
330
2A
100
AcDbVisualStyle
  2
Facepattern
 70
    15
 71
     2
 72
     2
 73
     0
 90
        0
 40
0.6
 41
30.0
 62
     5
 63
     7
 74
     1
 91
        4
 64
     7
 65
   257
 75
     1
175
     1
 42
1.0
 92
        8
 66
     7
 43
1.0
 76
     1
 77
     6
 78
     2
 67
     7
 79
     5
170
     0
171
     0
290
     0
174
     0
 93
        1
 44
0.0
173
     0
291
     1
 45
0.0
1001
ACAD
1000
AcDbSavedByObjectVersion
1070
     0
  0
VISUALSTYLE
  5
2B
102
{ACAD_REACTORS
330
2A
102
}
102
{ACAD_XDICTIONARY
360
1A9
102
}
330
2A
100
AcDbVisualStyle
  2
Flat
 70
     0
 71
     2
 72
     1
 73
     1
 90
        2
 40
0.6
 41
30.0
 62
     5
 63
     7
 74
     0
 91
        0
 64
     7
 65
   257
 75
     1
175
     1
 42
1.0
 92
        8
 66
     7
 43
1.0
 76
     1
 77
     6
 78
     2
 67
     7
 79
     5
170
     0
171
     0
290
     0
174
     0
 93
       13
 44
0.0
173
     0
291
     1
 45
0.0
1001
ACAD
1000
AcDbSavedByObjectVersion
1070
     0
  0
VISUALSTYLE
  5
2C
102
{ACAD_REACTORS
330
2A
102
}
102
{ACAD_XDICTIONARY
360
1AB
102
}
330
2A
100
AcDbVisualStyle
  2
FlatWithEdges
 70
     1
 71
     2
 72
     1
 73
     1
 90
        2
 40
0.6
 41
30.0
 62
     5
 63
     7
 74
     1
 91
        0
 64
     7
 65
   257
 75
     1
175
     1
 42
1.0
 92
        0
 66
   257
 43
1.0
 76
     1
 77
     6
 78
     2
 67
     7
 79
     5
170
     0
171
     0
290
     0
174
     0
 93
       13
 44
0.0
173
     0
291
     1
 45
0.0
1001
ACAD
1000
AcDbSavedByObjectVersion
1070
     0
  0
VISUALSTYLE
  5
2D
102
{ACAD_REACTORS
330
2A
102
}
102
{ACAD_XDICTIONARY
360
1AD
102
}
330
2A
100
AcDbVisualStyle
  2
Gouraud
 70
     2
 71
     2
 72
     2
 73
     1
 90
        2
 40
0.6
 41
30.0
 62
     5
 63
     7
 74
     0
 91
        0
 64
     7
 65
   257
 75
     1
175
     1
 42
1.0
 92
        0
 66
     7
 43
1.0
 76
     1
 77
     6
 78
     2
 67
     7
 79
     5
170
     0
171
     0
290
     0
174
     0
 93
       13
 44
0.0
173
     0
291
     1
 45
0.0
1001
ACAD
1000
AcDbSavedByObjectVersion
1070
     0
  0
VISUALSTYLE
  5
2E
102
{ACAD_REACTORS
330
2A
102
}
102
{ACAD_XDICTIONARY
360
1AF
102
}
330
2A
100
AcDbVisualStyle
  2
GouraudWithEdges
 70
     3
 71
     2
 72
     2
 73
     1
 90
        2
 40
0.6
 41
30.0
 62
     5
 63
     7
 74
     1
 91
        0
 64
     7
 65
   257
 75
     1
175
     1
 42
1.0
 92
        0
 66
   257
 43
1.0
 76
     1
 77
     6
 78
     2
 67
     7
 79
     5
170
     0
171
     0
290
     0
174
     0
 93
       13
 44
0.0
173
     0
291
     1
 45
0.0
1001
ACAD
1000
AcDbSavedByObjectVersion
1070
     0
  0
VISUALSTYLE
  5
31
102
{ACAD_REACTORS
330
2A
102
}
102
{ACAD_XDICTIONARY
360
1B5
102
}
330
2A
100
AcDbVisualStyle
  2
Hidden
 70
     6
 71
     1
 72
     2
 73
     2
 90
        0
 40
0.6
 41
30.0
 62
     5
 63
     7
 74
     2
 91
        2
 64
     7
 65
   257
 75
     2
175
     1
 42
40.0
 92
        0
 66
   257
 43
1.0
 76
     1
 77
     6
 78
     2
 67
     7
 79
     3
170
     0
171
     0
290
     0
174
     0
 93
        1
 44
0.0
173
     0
291
     0
 45
0.0
1001
ACAD
1000
AcDbSavedByObjectVersion
1070
     0
  0
VISUALSTYLE
  5
3B
102
{ACAD_REACTORS
330
2A
102
}
102
{ACAD_XDICTIONARY
360
1C9
102
}
330
2A
100
AcDbVisualStyle
  2
JitterOff
 70
    20
 71
     2
 72
     2
 73
     0
 90
        0
 40
0.6
 41
30.0
 62
     5
 63
     7
 74
     1
 91
        4
 64
     7
 65
   257
 75
     1
175
     1
 42
1.0
 92
       10
 66
     7
 43
1.0
 76
     1
 77
     6
 78
     2
 67
     7
 79
     5
170
     0
171
     0
290
     0
174
     0
 93
        1
 44
0.0
173
     0
291
     1
 45
0.0
1001
ACAD
1000
AcDbSavedByObjectVersion
1070
     0
  0
VISUALSTYLE
  5
38
102
{ACAD_REACTORS
330
2A
102
}
102
{ACAD_XDICTIONARY
360
1C3
102
}
330
2A
100
AcDbVisualStyle
  2
Linepattern
 70
    14
 71
     2
 72
     2
 73
     0
 90
        0
 40
0.6
 41
30.0
 62
     5
 63
     7
 74
     1
 91
        4
 64
     7
 65
   257
 75
     7
175
     7
 42
1.0
 92
        8
 66
     7
 43
1.0
 76
     1
 77
     6
 78
     2
 67
     7
 79
     5
170
     0
171
     0
290
     0
174
     0
 93
        1
 44
0.0
173
     0
291
     1
 45
0.0
1001
ACAD
1000
AcDbSavedByObjectVersion
1070
     0
  0
VISUALSTYLE
  5
3C
102
{ACAD_REACTORS
330
2A
102
}
102
{ACAD_XDICTIONARY
360
1CB
102
}
330
2A
100
AcDbVisualStyle
  2
OverhangOff
 70
    21
 71
     2
 72
     2
 73
     0
 90
        0
 40
0.6
 41
30.0
 62
     5
 63
     7
 74
     1
 91
        4
 64
     7
 65
   257
 75
     1
175
     1
 42
1.0
 92
        9
 66
     7
 43
1.0
 76
     1
 77
     6
 78
     2
 67
     7
 79
     5
170
     0
171
     0
290
     0
174
     0
 93
        1
 44
0.0
173
     0
291
     1
 45
0.0
1001
ACAD
1000
AcDbSavedByObjectVersion
1070
     0
  0
VISUALSTYLE
  5
33
102
{ACAD_REACTORS
330
2A
102
}
102
{ACAD_XDICTIONARY
360
1B9
102
}
330
2A
100
AcDbVisualStyle
  2
Realistic
 70
     8
 71
     2
 72
     3
 73
     0
 90
        2
 40
0.6
 41
30.0
 62
     5
 63
     7
 74
     0
 91
        0
 64
     7
 65
   257
 75
     1
175
     1
 42
1.0
 92
        8
 66
   257
 43
1.0
 76
     1
 77
     6
 78
     2
 67
     7
 79
     3
170
     0
171
     0
290
     0
174
     0
 93
       13
 44
0.0
173
     0
291
     0
 45
0.0
1001
ACAD
1000
AcDbSavedByObjectVersion
1070
     0
  0
VISUALSTYLE
  5
42
102
{ACAD_REACTORS
330
2A
102
}
102
{ACAD_XDICTIONARY
360
1D7
102
}
330
2A
100
AcDbVisualStyle
  2
Shaded
 70
    27
 71
     2
 72
     2
 73
     1
 90
        2
 40
0.6
 41
30.0
 62
     5
 63
     7
 74
     0
 91
        4
 64
     7
 65
   257
 75
     1
175
     1
 42
1.0
 92
        8
 66
   257
 43
1.0
 76
     1
 77
     6
 78
     2
 67
     8
 79
     3
170
     0
171
     0
290
     0
174
     0
 93
        5
 44
0.0
173
     0
291
     0
 45
0.0
1001
ACAD
1000
AcDbSavedByObjectVersion
1070
     0
  0
VISUALSTYLE
  5
41
102
{ACAD_REACTORS
330
2A
102
}
102
{ACAD_XDICTIONARY
360
1D5
102
}
330
2A
100
AcDbVisualStyle
  2
Shaded with edges
 70
    26
 71
     2
 72
     2
 73
     1
 90
        2
 40
0.6
 41
30.0
 62
     5
 63
     7
 74
     1
 91
       10
 64
     7
 65
   257
 75
     2
175
     1
 42
1.0
 92
        8
 66
   257
 43
1.0
 76
     1
 77
     6
 78
     2
 67
     7
 79
     3
170
     0
171
     0
290
     0
174
     0
 93
        5
 44
0.0
173
     0
291
     0
 45
0.0
1001
ACAD
1000
AcDbSavedByObjectVersion
1070
     0
  0
VISUALSTYLE
  5
3E
102
{ACAD_REACTORS
330
2A
102
}
102
{ACAD_XDICTIONARY
360
1CF
102
}
330
2A
100
AcDbVisualStyle
  2
Shades of Gray
 70
    23
 71
     2
 72
     2
 73
     3
 90
        0
 40
0.6
 41
30.0
 62
     5
 63
     7
 74
     2
 91
        2
 64
     7
 65
     7
 75
     1
175
     1
 42
40.0
 92
        8
 66
     7
 43
1.0
 76
     1
 77
     6
 78
     2
 67
     7
 79
     3
170
     0
171
     0
290
     0
174
     0
 93
        1
 44
0.0
173
     0
291
     0
 45
0.0
1001
ACAD
1000
AcDbSavedByObjectVersion
1070
     0
  0
VISUALSTYLE
  5
3F
102
{ACAD_REACTORS
330
2A
102
}
102
{ACAD_XDICTIONARY
360
1D1
102
}
330
2A
100
AcDbVisualStyle
  2
Sketchy
 70
    24
 71
     1
 72
     2
 73
     2
 90
        0
 40
0.6
 41
30.0
 62
     5
 63
     7
 74
     2
 91
        2
 64
     7
 65
     7
 75
     1
175
     1
 42
40.0
 92
       11
 66
     7
 43
1.0
 76
     1
 77
     6
 78
     2
 67
     7
 79
     6
170
     0
171
     0
290
     0
174
     0
 93
        1
 44
0.0
173
     0
291
     0
 45
0.0
1001
ACAD
1000
AcDbSavedByObjectVersion
1070
     0
  0
VISUALSTYLE
  5
37
102
{ACAD_REACTORS
330
2A
102
}
102
{ACAD_XDICTIONARY
360
1C1
102
}
330
2A
100
AcDbVisualStyle
  2
Thicken
 70
    13
 71
     2
 72
     2
 73
     0
 90
        0
 40
0.6
 41
30.0
 62
     5
 63
     7
 74
     1
 91
        4
 64
     7
 65
   257
 75
     1
175
     1
 42
1.0
 92
       12
 66
     7
 43
1.0
 76
     1
 77
     6
 78
     2
 67
     7
 79
     5
170
     0
171
     0
290
     0
174
     0
 93
        1
 44
0.0
173
     0
291
     1
 45
0.0
1001
ACAD
1000
AcDbSavedByObjectVersion
1070
     0
  0
VISUALSTYLE
  5
30
102
{ACAD_REACTORS
330
2A
102
}
102
{ACAD_XDICTIONARY
360
1B3
102
}
330
2A
100
AcDbVisualStyle
  2
Wireframe
 70
     5
 71
     0
 72
     2
 73
     0
 90
        0
 40
0.6
 41
30.0
 62
     5
 63
     7
 74
     1
 91
        4
 64
     7
 65
   257
 75
     1
175
     1
 42
1.0
 92
        0
 66
   257
 43
1.0
 76
     1
 77
     6
 78
     2
 67
     7
 79
     3
170
     0
171
     0
290
     0
174
     0
 93
        1
 44
0.0
173
     0
291
     0
 45
0.0
1001
ACAD
1000
AcDbSavedByObjectVersion
1070
     0
  0
VISUALSTYLE
  5
40
102
{ACAD_REACTORS
330
2A
102
}
102
{ACAD_XDICTIONARY
360
1D3
102
}
330
2A
100
AcDbVisualStyle
  2
X-Ray
 70
    25
 71
     2
 72
     2
 73
     1
 90
        1
 40
0.5
 41
30.0
 62
     5
 63
     7
 74
     1
 91
        0
 64
     7
 65
   257
 75
     1
175
     1
 42
1.0
 92
        8
 66
     7
 43
1.0
 76
     1
 77
     6
 78
     2
 67
     7
 79
     3
170
     0
171
     0
290
     0
174
     0
 93
       13
 44
0.0
173
     0
291
     0
 45
0.0
1001
ACAD
1000
AcDbSavedByObjectVersion
1070
     0
  0
DICTIONARYVAR
  5
1A7
102
{ACAD_REACTORS
330
19A
102
}
330
19A
100
DictionaryVariables
280
     0
  1
1:1
  0
DICTIONARYVAR
  5
1A1
102
{ACAD_REACTORS
330
19A
102
}
330
19A
100
DictionaryVariables
280
     0
  1
3.500000
  0
DICTIONARYVAR
  5
1A2
102
{ACAD_REACTORS
330
19A
102
}
330
19A
100
DictionaryVariables
280
     0
  1
acadiso.lin
  0
DICTIONARYVAR
  5
19C
102
{ACAD_REACTORS
330
19A
102
}
330
19A
100
DictionaryVariables
280
     0
  1
Standard
  0
DICTIONARYVAR
  5
19B
102
{ACAD_REACTORS
330
19A
102
}
330
19A
100
DictionaryVariables
280
     0
  1
Standard
  0
DICTIONARYVAR
  5
1A3
102
{ACAD_REACTORS
330
19A
102
}
330
19A
100
DictionaryVariables
280
     0
  1
2
  0
DICTIONARYVAR
  5
1A4
102
{ACAD_REACTORS
330
19A
102
}
330
19A
100
DictionaryVariables
280
     0
  1
1
  0
DICTIONARYVAR
  5
1A8
102
{ACAD_REACTORS
330
19A
102
}
330
19A
100
DictionaryVariables
280
     0
  1
1
  0
DICTIONARYVAR
  5
19E
102
{ACAD_REACTORS
330
19A
102
}
330
19A
100
DictionaryVariables
280
     0
  1
80.000000
  0
DICTIONARYVAR
  5
19D
102
{ACAD_REACTORS
330
19A
102
}
330
19A
100
DictionaryVariables
280
     0
  1
5.000000
  0
DICTIONARY
  5
1DB
330
45
100
AcDbDictionary
280
     1
281
     1
  3
ACAD_XREC_ROUNDTRIP
360
1DC
  0
DICTIONARY
  5
1D9
330
44
100
AcDbDictionary
280
     1
281
     1
  3
ACAD_XREC_ROUNDTRIP
360
1DA
  0
DICTIONARY
  5
1DD
330
46
100
AcDbDictionary
280
     1
281
     1
  3
ACAD_XREC_ROUNDTRIP
360
1DE
  0
DICTIONARY
  5
1E0
330
6C
100
AcDbDictionary
280
     1
281
     1
  3
ACAD_XREC_ROUNDTRIP
360
1E1
  0
DICTIONARY
  5
1B1
330
2F
100
AcDbDictionary
280
     1
281
     1
  3
ACAD_XREC_ROUNDTRIP
360
1B2
  0
DICTIONARY
  5
1B7
330
32
100
AcDbDictionary
280
     1
281
     1
  3
ACAD_XREC_ROUNDTRIP
360
1B8
  0
DICTIONARY
  5
1BF
330
36
100
AcDbDictionary
280
     1
281
     1
  3
ACAD_XREC_ROUNDTRIP
360
1C0
  0
DICTIONARY
  5
1C7
330
3A
100
AcDbDictionary
280
     1
281
     1
  3
ACAD_XREC_ROUNDTRIP
360
1C8
  0
DICTIONARY
  5
1BB
330
34
100
AcDbDictionary
280
     1
281
     1
  3
ACAD_XREC_ROUNDTRIP
360
1BC
  0
DICTIONARY
  5
1BD
330
35
100
AcDbDictionary
280
     1
281
     1
  3
ACAD_XREC_ROUNDTRIP
360
1BE
  0
DICTIONARY
  5
1CD
330
3D
100
AcDbDictionary
280
     1
281
     1
  3
ACAD_XREC_ROUNDTRIP
360
1CE
  0
DICTIONARY
  5
1C5
330
39
100
AcDbDictionary
280
     1
281
     1
  3
ACAD_XREC_ROUNDTRIP
360
1C6
  0
DICTIONARY
  5
1A9
330
2B
100
AcDbDictionary
280
     1
281
     1
  3
ACAD_XREC_ROUNDTRIP
360
1AA
  0
DICTIONARY
  5
1AB
330
2C
100
AcDbDictionary
280
     1
281
     1
  3
ACAD_XREC_ROUNDTRIP
360
1AC
  0
DICTIONARY
  5
1AD
330
2D
100
AcDbDictionary
280
     1
281
     1
  3
ACAD_XREC_ROUNDTRIP
360
1AE
  0
DICTIONARY
  5
1AF
330
2E
100
AcDbDictionary
280
     1
281
     1
  3
ACAD_XREC_ROUNDTRIP
360
1B0
  0
DICTIONARY
  5
1B5
330
31
100
AcDbDictionary
280
     1
281
     1
  3
ACAD_XREC_ROUNDTRIP
360
1B6
  0
DICTIONARY
  5
1C9
330
3B
100
AcDbDictionary
280
     1
281
     1
  3
ACAD_XREC_ROUNDTRIP
360
1CA
  0
DICTIONARY
  5
1C3
330
38
100
AcDbDictionary
280
     1
281
     1
  3
ACAD_XREC_ROUNDTRIP
360
1C4
  0
DICTIONARY
  5
1CB
330
3C
100
AcDbDictionary
280
     1
281
     1
  3
ACAD_XREC_ROUNDTRIP
360
1CC
  0
DICTIONARY
  5
1B9
330
33
100
AcDbDictionary
280
     1
281
     1
  3
ACAD_XREC_ROUNDTRIP
360
1BA
  0
DICTIONARY
  5
1D7
330
42
100
AcDbDictionary
280
     1
281
     1
  3
ACAD_XREC_ROUNDTRIP
360
1D8
  0
DICTIONARY
  5
1D5
330
41
100
AcDbDictionary
280
     1
281
     1
  3
ACAD_XREC_ROUNDTRIP
360
1D6
  0
DICTIONARY
  5
1CF
330
3E
100
AcDbDictionary
280
     1
281
     1
  3
ACAD_XREC_ROUNDTRIP
360
1D0
  0
DICTIONARY
  5
1D1
330
3F
100
AcDbDictionary
280
     1
281
     1
  3
ACAD_XREC_ROUNDTRIP
360
1D2
  0
DICTIONARY
  5
1C1
330
37
100
AcDbDictionary
280
     1
281
     1
  3
ACAD_XREC_ROUNDTRIP
360
1C2
  0
DICTIONARY
  5
1B3
330
30
100
AcDbDictionary
280
     1
281
     1
  3
ACAD_XREC_ROUNDTRIP
360
1B4
  0
DICTIONARY
  5
1D3
330
40
100
AcDbDictionary
280
     1
281
     1
  3
ACAD_XREC_ROUNDTRIP
360
1D4
  0
XRECORD
  5
1DC
102
{ACAD_REACTORS
330
1DB
102
}
330
1DB
100
AcDbXrecord
280
     1
102
MATERIAL
148
0.0
149
0.0
149
0.0
 93
        0
 94
      127
282
     0
 72
     1
 77
     1
171
     1
175
     1
179
     1
273
     0
  0
XRECORD
  5
1DA
102
{ACAD_REACTORS
330
1D9
102
}
330
1D9
100
AcDbXrecord
280
     1
102
MATERIAL
148
0.0
149
0.0
149
0.0
 93
        0
 94
      127
282
     0
 72
     1
 77
     1
171
     1
175
     1
179
     1
273
     0
  0
XRECORD
  5
1DE
102
{ACAD_REACTORS
330
1DD
102
}
330
1DD
100
AcDbXrecord
280
     1
102
MATERIAL
148
0.0
149
0.0
149
0.0
 93
        0
 94
      127
282
     0
 72
     1
 77
     1
171
     1
175
     1
179
     1
273
     0
  0
XRECORD
  5
1E1
102
{ACAD_REACTORS
330
1E0
102
}
330
1E0
100
AcDbXrecord
280
     1
102
ACAD_ROUNDTRIP_2010_MLEADER_STYLE
  0
XRECORD
  5
1B2
102
{ACAD_REACTORS
330
1B1
102
}
330
1B1
100
AcDbXrecord
280
     1
102
RTVSPropertyOp0
 70
     1
102
RTVSPropertyOp1
 70
     1
102
RTVSPropertyOp2
 70
     1
102
RTVSPropertyOp3
 70
     1
102
RTVSPropertyOp4
 70
     1
102
RTVSPropertyOp5
 70
     1
102
RTVSPropertyOp6
 70
     1
102
RTVSPropertyOp7
 70
     1
102
RTVSPropertyOp8
 70
     1
102
RTVSPropertyOp9
 70
     1
102
RTVSPropertyOp10
 70
     1
102
RTVSPropertyOp11
 70
     1
102
RTVSPropertyOp12
 70
     1
102
RTVSPropertyOp13
 70
     1
102
RTVSPropertyOp14
 70
     1
102
RTVSPropertyOp15
 70
     1
102
RTVSPropertyOp16
 70
     1
102
RTVSPropertyOp17
 70
     1
102
RTVSPropertyOp18
 70
     1
102
RTVSPropertyOp19
 70
     1
102
RTVSPropertyOp20
 70
     1
102
RTVSPropertyOp21
 70
     1
102
RTVSPropertyOp22
 70
     1
102
RTVSPropertyOp23
 70
     1
102
RTVSPropertyOp24
 70
     1
102
RTVSPropertyOp25
 70
     1
102
RTVSPropertyOp26
 70
     1
102
RTVSPropertyOp27
 70
     1
102
RTVSPropertyOp28
 70
     1
102
RTVSPropertyOp29
 70
     1
102
RTVSPropertyOp30
 70
     1
102
RTVSPropertyOp31
 70
     1
102
RTVSPropertyOp32
 70
     1
102
RTVSPropertyOp33
 70
     1
102
RTVSPropertyOp34
 70
     1
102
RTVSPropertyOp35
 70
     1
102
RTVSPropertyOp36
 70
     1
102
RTVSPropertyOp37
 70
     1
102
RTVSPropertyOp38
 70
     1
102
RTVSPropertyOp39
 70
     1
102
RTVSPropertyOp40
 70
     1
102
RTVSPropertyOp41
 70
     1
102
RTVSPropertyOp42
 70
     1
102
RTVSPropertyOp43
 70
     1
102
RTVSPropertyOp44
 70
     1
102
RTVSPropertyOp45
 70
     1
102
RTVSPropertyOp46
 70
     1
102
RTVSPropertyOp47
 70
     1
102
RTVSPropertyOp48
 70
     1
102
RTVSPropertyOp49
 70
     1
102
RTVSPropertyOp50
 70
     1
102
RTVSPropertyOp51
 70
     0
102
RTVSPropertyOp52
 70
     0
102
RTVSPropertyOp53
 70
     1
102
RTVSPropertyOp54
 70
     1
102
RTVSPropertyOp55
 70
     1
102
RTVSPropertyOp56
 70
     1
102
RTVSPropertyOp57
 70
     1
102
RTVSPost2010Prop28
280
     1
102
RTVSPost2010PropOp28
 70
     1
102
RTVSPost2010Prop29
280
     1
102
RTVSPost2010PropOp29
 70
     1
102
RTVSPost2010Prop30
280
     0
102
RTVSPost2010PropOp30
 70
     1
102
RTVSPost2010Prop31
280
     0
102
RTVSPost2010PropOp31
 70
     1
102
RTVSPost2010Prop32
280
     0
102
RTVSPost2010PropOp32
 70
     1
102
RTVSPost2010Prop33
280
     0
102
RTVSPost2010PropOp33
 70
     1
102
RTVSPost2010Prop34
280
     0
102
RTVSPost2010PropOp34
 70
     1
102
RTVSPost2010Prop35
280
     0
102
RTVSPost2010PropOp35
 70
     1
102
RTVSPost2010Prop36
280
     0
102
RTVSPost2010PropOp36
 70
     1
102
RTVSPost2010Prop37
 90
       50
102
RTVSPost2010PropOp37
 70
     1
102
RTVSPost2010Prop38
140
0.0
102
RTVSPost2010PropOp38
 70
     1
102
RTVSPost2010Prop39
140
1.0
102
RTVSPost2010PropOp39
 70
     1
102
RTVSPost2010Prop40
 90
        0
102
RTVSPost2010PropOp40
 70
     1
102
RTVSPost2010Prop41ColorIndex
 90
       18
102
RTVSPost2010Prop41ColorRGB
 90
        0
102
RTVSPost2010PropOp41
 70
     1
102
RTVSPost2010Prop42
 90
       50
102
RTVSPost2010PropOp42
 70
     1
102
RTVSPost2010Prop43
 90
        3
102
RTVSPost2010PropOp43
 70
     1
102
RTVSPost2010Prop44ColorIndex
 90
        5
102
RTVSPost2010Prop44ColorRGB
 90
      255
102
RTVSPost2010PropOp44
 70
     1
102
RTVSPost2010Prop45
280
     0
102
RTVSPost2010PropOp45
 70
     1
102
RTVSPost2010Prop46
 90
       50
102
RTVSPost2010PropOp46
 70
     1
102
RTVSPost2010Prop47
 90
       50
102
RTVSPost2010PropOp47
 70
     1
102
RTVSPost2010Prop48
 90
       50
102
RTVSPost2010PropOp48
 70
     1
102
RTVSPost2010Prop49
280
     0
102
RTVSPost2010PropOp49
 70
     1
102
RTVSPost2010Prop50
 90
       50
102
RTVSPost2010PropOp50
 70
     1
102
RTVSPost2010Prop51ColorIndex
 90
      256
102
RTVSPost2010Prop51ColorRGB
 90
-16777216
102
RTVSPost2010PropOp51
 70
     0
102
RTVSPost2010Prop52
140
1.0
102
RTVSPost2010PropOp52
 70
     0
102
RTVSPost2010Prop53
 90
        2
102
RTVSPost2010PropOp53
 70
     1
102
RTVSPost2010Prop54
  1
strokes_ogs.tif
102
RTVSPost2010PropOp54
 70
     1
102
RTVSPost2010Prop55
280
     0
102
RTVSPost2010PropOp55
 70
     1
102
RTVSPost2010Prop56
140
1.0
102
RTVSPost2010PropOp56
 70
     1
102
RTVSPost2010Prop57
140
1.0
102
RTVSPost2010PropOp57
 70
     1
  0
XRECORD
  5
1B8
102
{ACAD_REACTORS
330
1B7
102
}
330
1B7
100
AcDbXrecord
280
     1
102
RTVSPropertyOp0
 70
     1
102
RTVSPropertyOp1
 70
     1
102
RTVSPropertyOp2
 70
     1
102
RTVSPropertyOp3
 70
     1
102
RTVSPropertyOp4
 70
     1
102
RTVSPropertyOp5
 70
     1
102
RTVSPropertyOp6
 70
     1
102
RTVSPropertyOp7
 70
     1
102
RTVSPropertyOp8
 70
     1
102
RTVSPropertyOp9
 70
     1
102
RTVSPropertyOp10
 70
     1
102
RTVSPropertyOp11
 70
     1
102
RTVSPropertyOp12
 70
     1
102
RTVSPropertyOp13
 70
     1
102
RTVSPropertyOp14
 70
     1
102
RTVSPropertyOp15
 70
     1
102
RTVSPropertyOp16
 70
     1
102
RTVSPropertyOp17
 70
     1
102
RTVSPropertyOp18
 70
     1
102
RTVSPropertyOp19
 70
     1
102
RTVSPropertyOp20
 70
     1
102
RTVSPropertyOp21
 70
     1
102
RTVSPropertyOp22
 70
     1
102
RTVSPropertyOp23
 70
     1
102
RTVSPropertyOp24
 70
     1
102
RTVSPropertyOp25
 70
     1
102
RTVSPropertyOp26
 70
     1
102
RTVSPropertyOp27
 70
     1
102
RTVSPropertyOp28
 70
     1
102
RTVSPropertyOp29
 70
     1
102
RTVSPropertyOp30
 70
     1
102
RTVSPropertyOp31
 70
     1
102
RTVSPropertyOp32
 70
     1
102
RTVSPropertyOp33
 70
     1
102
RTVSPropertyOp34
 70
     1
102
RTVSPropertyOp35
 70
     1
102
RTVSPropertyOp36
 70
     1
102
RTVSPropertyOp37
 70
     1
102
RTVSPropertyOp38
 70
     1
102
RTVSPropertyOp39
 70
     1
102
RTVSPropertyOp40
 70
     1
102
RTVSPropertyOp41
 70
     1
102
RTVSPropertyOp42
 70
     1
102
RTVSPropertyOp43
 70
     1
102
RTVSPropertyOp44
 70
     1
102
RTVSPropertyOp45
 70
     1
102
RTVSPropertyOp46
 70
     1
102
RTVSPropertyOp47
 70
     1
102
RTVSPropertyOp48
 70
     1
102
RTVSPropertyOp49
 70
     1
102
RTVSPropertyOp50
 70
     1
102
RTVSPropertyOp51
 70
     0
102
RTVSPropertyOp52
 70
     0
102
RTVSPropertyOp53
 70
     1
102
RTVSPropertyOp54
 70
     1
102
RTVSPropertyOp55
 70
     1
102
RTVSPropertyOp56
 70
     1
102
RTVSPropertyOp57
 70
     1
102
RTVSPost2010Prop28
280
     0
102
RTVSPost2010PropOp28
 70
     1
102
RTVSPost2010Prop29
280
     1
102
RTVSPost2010PropOp29
 70
     1
102
RTVSPost2010Prop30
280
     1
102
RTVSPost2010PropOp30
 70
     1
102
RTVSPost2010Prop31
280
     0
102
RTVSPost2010PropOp31
 70
     1
102
RTVSPost2010Prop32
280
     0
102
RTVSPost2010PropOp32
 70
     1
102
RTVSPost2010Prop33
280
     0
102
RTVSPost2010PropOp33
 70
     1
102
RTVSPost2010Prop34
280
     0
102
RTVSPost2010PropOp34
 70
     1
102
RTVSPost2010Prop35
280
     0
102
RTVSPost2010PropOp35
 70
     1
102
RTVSPost2010Prop36
280
     0
102
RTVSPost2010PropOp36
 70
     1
102
RTVSPost2010Prop37
 90
       50
102
RTVSPost2010PropOp37
 70
     1
102
RTVSPost2010Prop38
140
0.0
102
RTVSPost2010PropOp38
 70
     1
102
RTVSPost2010Prop39
140
1.0
102
RTVSPost2010PropOp39
 70
     1
102
RTVSPost2010Prop40
 90
        0
102
RTVSPost2010PropOp40
 70
     1
102
RTVSPost2010Prop41ColorIndex
 90
       18
102
RTVSPost2010Prop41ColorRGB
 90
        0
102
RTVSPost2010PropOp41
 70
     1
102
RTVSPost2010Prop42
 90
       50
102
RTVSPost2010PropOp42
 70
     1
102
RTVSPost2010Prop43
 90
        3
102
RTVSPost2010PropOp43
 70
     1
102
RTVSPost2010Prop44ColorIndex
 90
        5
102
RTVSPost2010Prop44ColorRGB
 90
      255
102
RTVSPost2010PropOp44
 70
     1
102
RTVSPost2010Prop45
280
     0
102
RTVSPost2010PropOp45
 70
     1
102
RTVSPost2010Prop46
 90
       50
102
RTVSPost2010PropOp46
 70
     1
102
RTVSPost2010Prop47
 90
       50
102
RTVSPost2010PropOp47
 70
     1
102
RTVSPost2010Prop48
 90
       50
102
RTVSPost2010PropOp48
 70
     1
102
RTVSPost2010Prop49
280
     0
102
RTVSPost2010PropOp49
 70
     1
102
RTVSPost2010Prop50
 90
       50
102
RTVSPost2010PropOp50
 70
     1
102
RTVSPost2010Prop51ColorIndex
 90
      256
102
RTVSPost2010Prop51ColorRGB
 90
-16777216
102
RTVSPost2010PropOp51
 70
     0
102
RTVSPost2010Prop52
140
1.0
102
RTVSPost2010PropOp52
 70
     0
102
RTVSPost2010Prop53
 90
        2
102
RTVSPost2010PropOp53
 70
     1
102
RTVSPost2010Prop54
  1
strokes_ogs.tif
102
RTVSPost2010PropOp54
 70
     1
102
RTVSPost2010Prop55
280
     0
102
RTVSPost2010PropOp55
 70
     1
102
RTVSPost2010Prop56
140
1.0
102
RTVSPost2010PropOp56
 70
     1
102
RTVSPost2010Prop57
140
1.0
102
RTVSPost2010PropOp57
 70
     1
  0
XRECORD
  5
1C0
102
{ACAD_REACTORS
330
1BF
102
}
330
1BF
100
AcDbXrecord
280
     1
102
RTVSPropertyOp0
 70
     1
102
RTVSPropertyOp1
 70
     1
102
RTVSPropertyOp2
 70
     1
102
RTVSPropertyOp3
 70
     1
102
RTVSPropertyOp4
 70
     1
102
RTVSPropertyOp5
 70
     1
102
RTVSPropertyOp6
 70
     1
102
RTVSPropertyOp7
 70
     1
102
RTVSPropertyOp8
 70
     1
102
RTVSPropertyOp9
 70
     1
102
RTVSPropertyOp10
 70
     1
102
RTVSPropertyOp11
 70
     1
102
RTVSPropertyOp12
 70
     1
102
RTVSPropertyOp13
 70
     1
102
RTVSPropertyOp14
 70
     1
102
RTVSPropertyOp15
 70
     1
102
RTVSPropertyOp16
 70
     1
102
RTVSPropertyOp17
 70
     1
102
RTVSPropertyOp18
 70
     1
102
RTVSPropertyOp19
 70
     1
102
RTVSPropertyOp20
 70
     1
102
RTVSPropertyOp21
 70
     1
102
RTVSPropertyOp22
 70
     1
102
RTVSPropertyOp23
 70
     1
102
RTVSPropertyOp24
 70
     1
102
RTVSPropertyOp25
 70
     1
102
RTVSPropertyOp26
 70
     1
102
RTVSPropertyOp27
 70
     1
102
RTVSPropertyOp28
 70
     1
102
RTVSPropertyOp29
 70
     1
102
RTVSPropertyOp30
 70
     1
102
RTVSPropertyOp31
 70
     1
102
RTVSPropertyOp32
 70
     1
102
RTVSPropertyOp33
 70
     1
102
RTVSPropertyOp34
 70
     1
102
RTVSPropertyOp35
 70
     1
102
RTVSPropertyOp36
 70
     1
102
RTVSPropertyOp37
 70
     1
102
RTVSPropertyOp38
 70
     1
102
RTVSPropertyOp39
 70
     1
102
RTVSPropertyOp40
 70
     1
102
RTVSPropertyOp41
 70
     1
102
RTVSPropertyOp42
 70
     1
102
RTVSPropertyOp43
 70
     1
102
RTVSPropertyOp44
 70
     1
102
RTVSPropertyOp45
 70
     1
102
RTVSPropertyOp46
 70
     1
102
RTVSPropertyOp47
 70
     1
102
RTVSPropertyOp48
 70
     1
102
RTVSPropertyOp49
 70
     1
102
RTVSPropertyOp50
 70
     1
102
RTVSPropertyOp51
 70
     0
102
RTVSPropertyOp52
 70
     0
102
RTVSPropertyOp53
 70
     1
102
RTVSPropertyOp54
 70
     1
102
RTVSPropertyOp55
 70
     1
102
RTVSPropertyOp56
 70
     1
102
RTVSPropertyOp57
 70
     1
102
RTVSPost2010Prop28
280
     0
102
RTVSPost2010PropOp28
 70
     1
102
RTVSPost2010Prop29
280
     1
102
RTVSPost2010PropOp29
 70
     1
102
RTVSPost2010Prop30
280
     1
102
RTVSPost2010PropOp30
 70
     1
102
RTVSPost2010Prop31
280
     0
102
RTVSPost2010PropOp31
 70
     1
102
RTVSPost2010Prop32
280
     0
102
RTVSPost2010PropOp32
 70
     1
102
RTVSPost2010Prop33
280
     0
102
RTVSPost2010PropOp33
 70
     1
102
RTVSPost2010Prop34
280
     0
102
RTVSPost2010PropOp34
 70
     1
102
RTVSPost2010Prop35
280
     0
102
RTVSPost2010PropOp35
 70
     1
102
RTVSPost2010Prop36
280
     0
102
RTVSPost2010PropOp36
 70
     1
102
RTVSPost2010Prop37
 90
       50
102
RTVSPost2010PropOp37
 70
     1
102
RTVSPost2010Prop38
140
0.0
102
RTVSPost2010PropOp38
 70
     1
102
RTVSPost2010Prop39
140
1.0
102
RTVSPost2010PropOp39
 70
     1
102
RTVSPost2010Prop40
 90
        0
102
RTVSPost2010PropOp40
 70
     1
102
RTVSPost2010Prop41ColorIndex
 90
       18
102
RTVSPost2010Prop41ColorRGB
 90
        0
102
RTVSPost2010PropOp41
 70
     1
102
RTVSPost2010Prop42
 90
       50
102
RTVSPost2010PropOp42
 70
     1
102
RTVSPost2010Prop43
 90
        3
102
RTVSPost2010PropOp43
 70
     1
102
RTVSPost2010Prop44ColorIndex
 90
        5
102
RTVSPost2010Prop44ColorRGB
 90
      255
102
RTVSPost2010PropOp44
 70
     1
102
RTVSPost2010Prop45
280
     0
102
RTVSPost2010PropOp45
 70
     1
102
RTVSPost2010Prop46
 90
       50
102
RTVSPost2010PropOp46
 70
     1
102
RTVSPost2010Prop47
 90
       50
102
RTVSPost2010PropOp47
 70
     1
102
RTVSPost2010Prop48
 90
       50
102
RTVSPost2010PropOp48
 70
     1
102
RTVSPost2010Prop49
280
     0
102
RTVSPost2010PropOp49
 70
     1
102
RTVSPost2010Prop50
 90
       50
102
RTVSPost2010PropOp50
 70
     1
102
RTVSPost2010Prop51ColorIndex
 90
      256
102
RTVSPost2010Prop51ColorRGB
 90
-16777216
102
RTVSPost2010PropOp51
 70
     0
102
RTVSPost2010Prop52
140
1.0
102
RTVSPost2010PropOp52
 70
     0
102
RTVSPost2010Prop53
 90
        2
102
RTVSPost2010PropOp53
 70
     1
102
RTVSPost2010Prop54
  1
strokes_ogs.tif
102
RTVSPost2010PropOp54
 70
     1
102
RTVSPost2010Prop55
280
     0
102
RTVSPost2010PropOp55
 70
     1
102
RTVSPost2010Prop56
140
1.0
102
RTVSPost2010PropOp56
 70
     1
102
RTVSPost2010Prop57
140
1.0
102
RTVSPost2010PropOp57
 70
     1
  0
XRECORD
  5
1C8
102
{ACAD_REACTORS
330
1C7
102
}
330
1C7
100
AcDbXrecord
280
     1
102
RTVSPropertyOp0
 70
     1
102
RTVSPropertyOp1
 70
     1
102
RTVSPropertyOp2
 70
     1
102
RTVSPropertyOp3
 70
     1
102
RTVSPropertyOp4
 70
     1
102
RTVSPropertyOp5
 70
     1
102
RTVSPropertyOp6
 70
     1
102
RTVSPropertyOp7
 70
     1
102
RTVSPropertyOp8
 70
     1
102
RTVSPropertyOp9
 70
     1
102
RTVSPropertyOp10
 70
     1
102
RTVSPropertyOp11
 70
     1
102
RTVSPropertyOp12
 70
     1
102
RTVSPropertyOp13
 70
     1
102
RTVSPropertyOp14
 70
     1
102
RTVSPropertyOp15
 70
     1
102
RTVSPropertyOp16
 70
     1
102
RTVSPropertyOp17
 70
     1
102
RTVSPropertyOp18
 70
     1
102
RTVSPropertyOp19
 70
     1
102
RTVSPropertyOp20
 70
     1
102
RTVSPropertyOp21
 70
     1
102
RTVSPropertyOp22
 70
     1
102
RTVSPropertyOp23
 70
     1
102
RTVSPropertyOp24
 70
     1
102
RTVSPropertyOp25
 70
     1
102
RTVSPropertyOp26
 70
     1
102
RTVSPropertyOp27
 70
     1
102
RTVSPropertyOp28
 70
     1
102
RTVSPropertyOp29
 70
     1
102
RTVSPropertyOp30
 70
     1
102
RTVSPropertyOp31
 70
     1
102
RTVSPropertyOp32
 70
     1
102
RTVSPropertyOp33
 70
     1
102
RTVSPropertyOp34
 70
     1
102
RTVSPropertyOp35
 70
     1
102
RTVSPropertyOp36
 70
     1
102
RTVSPropertyOp37
 70
     1
102
RTVSPropertyOp38
 70
     1
102
RTVSPropertyOp39
 70
     1
102
RTVSPropertyOp40
 70
     1
102
RTVSPropertyOp41
 70
     1
102
RTVSPropertyOp42
 70
     1
102
RTVSPropertyOp43
 70
     1
102
RTVSPropertyOp44
 70
     1
102
RTVSPropertyOp45
 70
     1
102
RTVSPropertyOp46
 70
     1
102
RTVSPropertyOp47
 70
     1
102
RTVSPropertyOp48
 70
     1
102
RTVSPropertyOp49
 70
     1
102
RTVSPropertyOp50
 70
     1
102
RTVSPropertyOp51
 70
     0
102
RTVSPropertyOp52
 70
     0
102
RTVSPropertyOp53
 70
     1
102
RTVSPropertyOp54
 70
     1
102
RTVSPropertyOp55
 70
     1
102
RTVSPropertyOp56
 70
     1
102
RTVSPropertyOp57
 70
     1
102
RTVSPost2010Prop28
280
     0
102
RTVSPost2010PropOp28
 70
     1
102
RTVSPost2010Prop29
280
     1
102
RTVSPost2010PropOp29
 70
     1
102
RTVSPost2010Prop30
280
     1
102
RTVSPost2010PropOp30
 70
     1
102
RTVSPost2010Prop31
280
     0
102
RTVSPost2010PropOp31
 70
     1
102
RTVSPost2010Prop32
280
     0
102
RTVSPost2010PropOp32
 70
     1
102
RTVSPost2010Prop33
280
     0
102
RTVSPost2010PropOp33
 70
     1
102
RTVSPost2010Prop34
280
     0
102
RTVSPost2010PropOp34
 70
     1
102
RTVSPost2010Prop35
280
     0
102
RTVSPost2010PropOp35
 70
     1
102
RTVSPost2010Prop36
280
     0
102
RTVSPost2010PropOp36
 70
     1
102
RTVSPost2010Prop37
 90
       50
102
RTVSPost2010PropOp37
 70
     1
102
RTVSPost2010Prop38
140
0.0
102
RTVSPost2010PropOp38
 70
     1
102
RTVSPost2010Prop39
140
1.0
102
RTVSPost2010PropOp39
 70
     1
102
RTVSPost2010Prop40
 90
        0
102
RTVSPost2010PropOp40
 70
     1
102
RTVSPost2010Prop41ColorIndex
 90
       18
102
RTVSPost2010Prop41ColorRGB
 90
        0
102
RTVSPost2010PropOp41
 70
     1
102
RTVSPost2010Prop42
 90
       50
102
RTVSPost2010PropOp42
 70
     1
102
RTVSPost2010Prop43
 90
        3
102
RTVSPost2010PropOp43
 70
     1
102
RTVSPost2010Prop44ColorIndex
 90
        5
102
RTVSPost2010Prop44ColorRGB
 90
      255
102
RTVSPost2010PropOp44
 70
     1
102
RTVSPost2010Prop45
280
     0
102
RTVSPost2010PropOp45
 70
     1
102
RTVSPost2010Prop46
 90
       50
102
RTVSPost2010PropOp46
 70
     1
102
RTVSPost2010Prop47
 90
       50
102
RTVSPost2010PropOp47
 70
     1
102
RTVSPost2010Prop48
 90
       50
102
RTVSPost2010PropOp48
 70
     1
102
RTVSPost2010Prop49
280
     0
102
RTVSPost2010PropOp49
 70
     1
102
RTVSPost2010Prop50
 90
       50
102
RTVSPost2010PropOp50
 70
     1
102
RTVSPost2010Prop51ColorIndex
 90
      256
102
RTVSPost2010Prop51ColorRGB
 90
-16777216
102
RTVSPost2010PropOp51
 70
     0
102
RTVSPost2010Prop52
140
1.0
102
RTVSPost2010PropOp52
 70
     0
102
RTVSPost2010Prop53
 90
        2
102
RTVSPost2010PropOp53
 70
     1
102
RTVSPost2010Prop54
  1
strokes_ogs.tif
102
RTVSPost2010PropOp54
 70
     1
102
RTVSPost2010Prop55
280
     0
102
RTVSPost2010PropOp55
 70
     1
102
RTVSPost2010Prop56
140
1.0
102
RTVSPost2010PropOp56
 70
     1
102
RTVSPost2010Prop57
140
1.0
102
RTVSPost2010PropOp57
 70
     1
  0
XRECORD
  5
1BC
102
{ACAD_REACTORS
330
1BB
102
}
330
1BB
100
AcDbXrecord
280
     1
102
RTVSPropertyOp0
 70
     1
102
RTVSPropertyOp1
 70
     1
102
RTVSPropertyOp2
 70
     1
102
RTVSPropertyOp3
 70
     1
102
RTVSPropertyOp4
 70
     1
102
RTVSPropertyOp5
 70
     1
102
RTVSPropertyOp6
 70
     1
102
RTVSPropertyOp7
 70
     1
102
RTVSPropertyOp8
 70
     1
102
RTVSPropertyOp9
 70
     1
102
RTVSPropertyOp10
 70
     1
102
RTVSPropertyOp11
 70
     1
102
RTVSPropertyOp12
 70
     1
102
RTVSPropertyOp13
 70
     1
102
RTVSPropertyOp14
 70
     1
102
RTVSPropertyOp15
 70
     1
102
RTVSPropertyOp16
 70
     1
102
RTVSPropertyOp17
 70
     1
102
RTVSPropertyOp18
 70
     1
102
RTVSPropertyOp19
 70
     1
102
RTVSPropertyOp20
 70
     1
102
RTVSPropertyOp21
 70
     1
102
RTVSPropertyOp22
 70
     1
102
RTVSPropertyOp23
 70
     1
102
RTVSPropertyOp24
 70
     1
102
RTVSPropertyOp25
 70
     1
102
RTVSPropertyOp26
 70
     1
102
RTVSPropertyOp27
 70
     1
102
RTVSPropertyOp28
 70
     1
102
RTVSPropertyOp29
 70
     1
102
RTVSPropertyOp30
 70
     1
102
RTVSPropertyOp31
 70
     1
102
RTVSPropertyOp32
 70
     1
102
RTVSPropertyOp33
 70
     1
102
RTVSPropertyOp34
 70
     1
102
RTVSPropertyOp35
 70
     1
102
RTVSPropertyOp36
 70
     1
102
RTVSPropertyOp37
 70
     1
102
RTVSPropertyOp38
 70
     1
102
RTVSPropertyOp39
 70
     1
102
RTVSPropertyOp40
 70
     1
102
RTVSPropertyOp41
 70
     1
102
RTVSPropertyOp42
 70
     1
102
RTVSPropertyOp43
 70
     1
102
RTVSPropertyOp44
 70
     1
102
RTVSPropertyOp45
 70
     1
102
RTVSPropertyOp46
 70
     1
102
RTVSPropertyOp47
 70
     1
102
RTVSPropertyOp48
 70
     1
102
RTVSPropertyOp49
 70
     1
102
RTVSPropertyOp50
 70
     1
102
RTVSPropertyOp51
 70
     0
102
RTVSPropertyOp52
 70
     0
102
RTVSPropertyOp53
 70
     1
102
RTVSPropertyOp54
 70
     1
102
RTVSPropertyOp55
 70
     1
102
RTVSPropertyOp56
 70
     1
102
RTVSPropertyOp57
 70
     1
102
RTVSPost2010Prop28
280
     0
102
RTVSPost2010PropOp28
 70
     1
102
RTVSPost2010Prop29
280
     1
102
RTVSPost2010PropOp29
 70
     1
102
RTVSPost2010Prop30
280
     1
102
RTVSPost2010PropOp30
 70
     1
102
RTVSPost2010Prop31
280
     0
102
RTVSPost2010PropOp31
 70
     1
102
RTVSPost2010Prop32
280
     0
102
RTVSPost2010PropOp32
 70
     1
102
RTVSPost2010Prop33
280
     0
102
RTVSPost2010PropOp33
 70
     1
102
RTVSPost2010Prop34
280
     0
102
RTVSPost2010PropOp34
 70
     1
102
RTVSPost2010Prop35
280
     0
102
RTVSPost2010PropOp35
 70
     1
102
RTVSPost2010Prop36
280
     0
102
RTVSPost2010PropOp36
 70
     1
102
RTVSPost2010Prop37
 90
       50
102
RTVSPost2010PropOp37
 70
     1
102
RTVSPost2010Prop38
140
0.0
102
RTVSPost2010PropOp38
 70
     1
102
RTVSPost2010Prop39
140
1.0
102
RTVSPost2010PropOp39
 70
     1
102
RTVSPost2010Prop40
 90
        0
102
RTVSPost2010PropOp40
 70
     1
102
RTVSPost2010Prop41ColorIndex
 90
       18
102
RTVSPost2010Prop41ColorRGB
 90
        0
102
RTVSPost2010PropOp41
 70
     1
102
RTVSPost2010Prop42
 90
       50
102
RTVSPost2010PropOp42
 70
     1
102
RTVSPost2010Prop43
 90
        3
102
RTVSPost2010PropOp43
 70
     1
102
RTVSPost2010Prop44ColorIndex
 90
        5
102
RTVSPost2010Prop44ColorRGB
 90
      255
102
RTVSPost2010PropOp44
 70
     1
102
RTVSPost2010Prop45
280
     0
102
RTVSPost2010PropOp45
 70
     1
102
RTVSPost2010Prop46
 90
       50
102
RTVSPost2010PropOp46
 70
     1
102
RTVSPost2010Prop47
 90
       50
102
RTVSPost2010PropOp47
 70
     1
102
RTVSPost2010Prop48
 90
       50
102
RTVSPost2010PropOp48
 70
     1
102
RTVSPost2010Prop49
280
     0
102
RTVSPost2010PropOp49
 70
     1
102
RTVSPost2010Prop50
 90
       50
102
RTVSPost2010PropOp50
 70
     1
102
RTVSPost2010Prop51ColorIndex
 90
      256
102
RTVSPost2010Prop51ColorRGB
 90
-16777216
102
RTVSPost2010PropOp51
 70
     0
102
RTVSPost2010Prop52
140
1.0
102
RTVSPost2010PropOp52
 70
     0
102
RTVSPost2010Prop53
 90
        2
102
RTVSPost2010PropOp53
 70
     1
102
RTVSPost2010Prop54
  1
strokes_ogs.tif
102
RTVSPost2010PropOp54
 70
     1
102
RTVSPost2010Prop55
280
     0
102
RTVSPost2010PropOp55
 70
     1
102
RTVSPost2010Prop56
140
1.0
102
RTVSPost2010PropOp56
 70
     1
102
RTVSPost2010Prop57
140
1.0
102
RTVSPost2010PropOp57
 70
     1
  0
XRECORD
  5
1BE
102
{ACAD_REACTORS
330
1BD
102
}
330
1BD
100
AcDbXrecord
280
     1
102
RTVSPropertyOp0
 70
     1
102
RTVSPropertyOp1
 70
     1
102
RTVSPropertyOp2
 70
     1
102
RTVSPropertyOp3
 70
     1
102
RTVSPropertyOp4
 70
     1
102
RTVSPropertyOp5
 70
     1
102
RTVSPropertyOp6
 70
     1
102
RTVSPropertyOp7
 70
     1
102
RTVSPropertyOp8
 70
     1
102
RTVSPropertyOp9
 70
     1
102
RTVSPropertyOp10
 70
     1
102
RTVSPropertyOp11
 70
     1
102
RTVSPropertyOp12
 70
     1
102
RTVSPropertyOp13
 70
     1
102
RTVSPropertyOp14
 70
     1
102
RTVSPropertyOp15
 70
     1
102
RTVSPropertyOp16
 70
     1
102
RTVSPropertyOp17
 70
     1
102
RTVSPropertyOp18
 70
     1
102
RTVSPropertyOp19
 70
     1
102
RTVSPropertyOp20
 70
     1
102
RTVSPropertyOp21
 70
     1
102
RTVSPropertyOp22
 70
     1
102
RTVSPropertyOp23
 70
     1
102
RTVSPropertyOp24
 70
     1
102
RTVSPropertyOp25
 70
     1
102
RTVSPropertyOp26
 70
     1
102
RTVSPropertyOp27
 70
     1
102
RTVSPropertyOp28
 70
     1
102
RTVSPropertyOp29
 70
     1
102
RTVSPropertyOp30
 70
     1
102
RTVSPropertyOp31
 70
     1
102
RTVSPropertyOp32
 70
     1
102
RTVSPropertyOp33
 70
     1
102
RTVSPropertyOp34
 70
     1
102
RTVSPropertyOp35
 70
     1
102
RTVSPropertyOp36
 70
     1
102
RTVSPropertyOp37
 70
     1
102
RTVSPropertyOp38
 70
     1
102
RTVSPropertyOp39
 70
     1
102
RTVSPropertyOp40
 70
     1
102
RTVSPropertyOp41
 70
     1
102
RTVSPropertyOp42
 70
     1
102
RTVSPropertyOp43
 70
     1
102
RTVSPropertyOp44
 70
     1
102
RTVSPropertyOp45
 70
     1
102
RTVSPropertyOp46
 70
     1
102
RTVSPropertyOp47
 70
     1
102
RTVSPropertyOp48
 70
     1
102
RTVSPropertyOp49
 70
     1
102
RTVSPropertyOp50
 70
     1
102
RTVSPropertyOp51
 70
     0
102
RTVSPropertyOp52
 70
     0
102
RTVSPropertyOp53
 70
     1
102
RTVSPropertyOp54
 70
     1
102
RTVSPropertyOp55
 70
     1
102
RTVSPropertyOp56
 70
     1
102
RTVSPropertyOp57
 70
     1
102
RTVSPost2010Prop28
280
     0
102
RTVSPost2010PropOp28
 70
     1
102
RTVSPost2010Prop29
280
     1
102
RTVSPost2010PropOp29
 70
     1
102
RTVSPost2010Prop30
280
     1
102
RTVSPost2010PropOp30
 70
     1
102
RTVSPost2010Prop31
280
     0
102
RTVSPost2010PropOp31
 70
     1
102
RTVSPost2010Prop32
280
     0
102
RTVSPost2010PropOp32
 70
     1
102
RTVSPost2010Prop33
280
     0
102
RTVSPost2010PropOp33
 70
     1
102
RTVSPost2010Prop34
280
     0
102
RTVSPost2010PropOp34
 70
     1
102
RTVSPost2010Prop35
280
     0
102
RTVSPost2010PropOp35
 70
     1
102
RTVSPost2010Prop36
280
     0
102
RTVSPost2010PropOp36
 70
     1
102
RTVSPost2010Prop37
 90
       50
102
RTVSPost2010PropOp37
 70
     1
102
RTVSPost2010Prop38
140
0.0
102
RTVSPost2010PropOp38
 70
     1
102
RTVSPost2010Prop39
140
1.0
102
RTVSPost2010PropOp39
 70
     1
102
RTVSPost2010Prop40
 90
        0
102
RTVSPost2010PropOp40
 70
     1
102
RTVSPost2010Prop41ColorIndex
 90
       18
102
RTVSPost2010Prop41ColorRGB
 90
        0
102
RTVSPost2010PropOp41
 70
     1
102
RTVSPost2010Prop42
 90
       50
102
RTVSPost2010PropOp42
 70
     1
102
RTVSPost2010Prop43
 90
        3
102
RTVSPost2010PropOp43
 70
     1
102
RTVSPost2010Prop44ColorIndex
 90
        5
102
RTVSPost2010Prop44ColorRGB
 90
      255
102
RTVSPost2010PropOp44
 70
     1
102
RTVSPost2010Prop45
280
     0
102
RTVSPost2010PropOp45
 70
     1
102
RTVSPost2010Prop46
 90
       50
102
RTVSPost2010PropOp46
 70
     1
102
RTVSPost2010Prop47
 90
       50
102
RTVSPost2010PropOp47
 70
     1
102
RTVSPost2010Prop48
 90
       50
102
RTVSPost2010PropOp48
 70
     1
102
RTVSPost2010Prop49
280
     0
102
RTVSPost2010PropOp49
 70
     1
102
RTVSPost2010Prop50
 90
       50
102
RTVSPost2010PropOp50
 70
     1
102
RTVSPost2010Prop51ColorIndex
 90
      256
102
RTVSPost2010Prop51ColorRGB
 90
-16777216
102
RTVSPost2010PropOp51
 70
     0
102
RTVSPost2010Prop52
140
1.0
102
RTVSPost2010PropOp52
 70
     0
102
RTVSPost2010Prop53
 90
        2
102
RTVSPost2010PropOp53
 70
     1
102
RTVSPost2010Prop54
  1
strokes_ogs.tif
102
RTVSPost2010PropOp54
 70
     1
102
RTVSPost2010Prop55
280
     0
102
RTVSPost2010PropOp55
 70
     1
102
RTVSPost2010Prop56
140
1.0
102
RTVSPost2010PropOp56
 70
     1
102
RTVSPost2010Prop57
140
1.0
102
RTVSPost2010PropOp57
 70
     1
  0
XRECORD
  5
1CE
102
{ACAD_REACTORS
330
1CD
102
}
330
1CD
100
AcDbXrecord
280
     1
102
RTVSPropertyOp0
 70
     0
102
RTVSPropertyOp1
 70
     0
102
RTVSPropertyOp2
 70
     0
102
RTVSPropertyOp3
 70
     0
102
RTVSPropertyOp4
 70
     0
102
RTVSPropertyOp5
 70
     0
102
RTVSPropertyOp6
 70
     0
102
RTVSPropertyOp7
 70
     0
102
RTVSPropertyOp8
 70
     0
102
RTVSPropertyOp9
 70
     0
102
RTVSPropertyOp10
 70
     0
102
RTVSPropertyOp11
 70
     0
102
RTVSPropertyOp12
 70
     0
102
RTVSPropertyOp13
 70
     0
102
RTVSPropertyOp14
 70
     2
102
RTVSPropertyOp15
 70
     0
102
RTVSPropertyOp16
 70
     0
102
RTVSPropertyOp17
 70
     0
102
RTVSPropertyOp18
 70
     0
102
RTVSPropertyOp19
 70
     0
102
RTVSPropertyOp20
 70
     0
102
RTVSPropertyOp21
 70
     0
102
RTVSPropertyOp22
 70
     0
102
RTVSPropertyOp23
 70
     0
102
RTVSPropertyOp24
 70
     0
102
RTVSPropertyOp25
 70
     0
102
RTVSPropertyOp26
 70
     0
102
RTVSPropertyOp27
 70
     0
102
RTVSPropertyOp28
 70
     0
102
RTVSPropertyOp29
 70
     0
102
RTVSPropertyOp30
 70
     0
102
RTVSPropertyOp31
 70
     0
102
RTVSPropertyOp32
 70
     0
102
RTVSPropertyOp33
 70
     0
102
RTVSPropertyOp34
 70
     0
102
RTVSPropertyOp35
 70
     0
102
RTVSPropertyOp36
 70
     0
102
RTVSPropertyOp37
 70
     0
102
RTVSPropertyOp38
 70
     0
102
RTVSPropertyOp39
 70
     0
102
RTVSPropertyOp40
 70
     0
102
RTVSPropertyOp41
 70
     0
102
RTVSPropertyOp42
 70
     0
102
RTVSPropertyOp43
 70
     0
102
RTVSPropertyOp44
 70
     0
102
RTVSPropertyOp45
 70
     0
102
RTVSPropertyOp46
 70
     0
102
RTVSPropertyOp47
 70
     0
102
RTVSPropertyOp48
 70
     0
102
RTVSPropertyOp49
 70
     0
102
RTVSPropertyOp50
 70
     0
102
RTVSPropertyOp51
 70
     0
102
RTVSPropertyOp52
 70
     0
102
RTVSPropertyOp53
 70
     0
102
RTVSPropertyOp54
 70
     0
102
RTVSPropertyOp55
 70
     0
102
RTVSPropertyOp56
 70
     0
102
RTVSPropertyOp57
 70
     0
102
RTVSPost2010Prop28
280
     0
102
RTVSPost2010PropOp28
 70
     0
102
RTVSPost2010Prop29
280
     1
102
RTVSPost2010PropOp29
 70
     0
102
RTVSPost2010Prop30
280
     1
102
RTVSPost2010PropOp30
 70
     0
102
RTVSPost2010Prop31
280
     0
102
RTVSPost2010PropOp31
 70
     0
102
RTVSPost2010Prop32
280
     0
102
RTVSPost2010PropOp32
 70
     0
102
RTVSPost2010Prop33
280
     0
102
RTVSPost2010PropOp33
 70
     0
102
RTVSPost2010Prop34
280
     0
102
RTVSPost2010PropOp34
 70
     0
102
RTVSPost2010Prop35
280
     0
102
RTVSPost2010PropOp35
 70
     0
102
RTVSPost2010Prop36
280
     0
102
RTVSPost2010PropOp36
 70
     0
102
RTVSPost2010Prop37
 90
       50
102
RTVSPost2010PropOp37
 70
     0
102
RTVSPost2010Prop38
140
0.0
102
RTVSPost2010PropOp38
 70
     0
102
RTVSPost2010Prop39
140
1.0
102
RTVSPost2010PropOp39
 70
     0
102
RTVSPost2010Prop40
 90
        0
102
RTVSPost2010PropOp40
 70
     0
102
RTVSPost2010Prop41ColorIndex
 90
       18
102
RTVSPost2010Prop41ColorRGB
 90
        0
102
RTVSPost2010PropOp41
 70
     0
102
RTVSPost2010Prop42
 90
       50
102
RTVSPost2010PropOp42
 70
     0
102
RTVSPost2010Prop43
 90
        3
102
RTVSPost2010PropOp43
 70
     0
102
RTVSPost2010Prop44ColorIndex
 90
        5
102
RTVSPost2010Prop44ColorRGB
 90
      255
102
RTVSPost2010PropOp44
 70
     0
102
RTVSPost2010Prop45
280
     0
102
RTVSPost2010PropOp45
 70
     0
102
RTVSPost2010Prop46
 90
       50
102
RTVSPost2010PropOp46
 70
     0
102
RTVSPost2010Prop47
 90
       50
102
RTVSPost2010PropOp47
 70
     0
102
RTVSPost2010Prop48
 90
       50
102
RTVSPost2010PropOp48
 70
     0
102
RTVSPost2010Prop49
280
     0
102
RTVSPost2010PropOp49
 70
     0
102
RTVSPost2010Prop50
 90
       50
102
RTVSPost2010PropOp50
 70
     0
102
RTVSPost2010Prop51ColorIndex
 90
      256
102
RTVSPost2010Prop51ColorRGB
 90
-16777216
102
RTVSPost2010PropOp51
 70
     0
102
RTVSPost2010Prop52
140
1.0
102
RTVSPost2010PropOp52
 70
     0
102
RTVSPost2010Prop53
 90
        2
102
RTVSPost2010PropOp53
 70
     0
102
RTVSPost2010Prop54
  1
strokes_ogs.tif
102
RTVSPost2010PropOp54
 70
     0
102
RTVSPost2010Prop55
280
     0
102
RTVSPost2010PropOp55
 70
     0
102
RTVSPost2010Prop56
140
1.0
102
RTVSPost2010PropOp56
 70
     0
102
RTVSPost2010Prop57
140
1.0
102
RTVSPost2010PropOp57
 70
     0
  0
XRECORD
  5
1C6
102
{ACAD_REACTORS
330
1C5
102
}
330
1C5
100
AcDbXrecord
280
     1
102
RTVSPropertyOp0
 70
     1
102
RTVSPropertyOp1
 70
     1
102
RTVSPropertyOp2
 70
     1
102
RTVSPropertyOp3
 70
     1
102
RTVSPropertyOp4
 70
     1
102
RTVSPropertyOp5
 70
     1
102
RTVSPropertyOp6
 70
     1
102
RTVSPropertyOp7
 70
     1
102
RTVSPropertyOp8
 70
     1
102
RTVSPropertyOp9
 70
     1
102
RTVSPropertyOp10
 70
     1
102
RTVSPropertyOp11
 70
     1
102
RTVSPropertyOp12
 70
     1
102
RTVSPropertyOp13
 70
     1
102
RTVSPropertyOp14
 70
     1
102
RTVSPropertyOp15
 70
     1
102
RTVSPropertyOp16
 70
     1
102
RTVSPropertyOp17
 70
     1
102
RTVSPropertyOp18
 70
     1
102
RTVSPropertyOp19
 70
     1
102
RTVSPropertyOp20
 70
     1
102
RTVSPropertyOp21
 70
     1
102
RTVSPropertyOp22
 70
     1
102
RTVSPropertyOp23
 70
     1
102
RTVSPropertyOp24
 70
     1
102
RTVSPropertyOp25
 70
     1
102
RTVSPropertyOp26
 70
     1
102
RTVSPropertyOp27
 70
     1
102
RTVSPropertyOp28
 70
     1
102
RTVSPropertyOp29
 70
     1
102
RTVSPropertyOp30
 70
     1
102
RTVSPropertyOp31
 70
     1
102
RTVSPropertyOp32
 70
     1
102
RTVSPropertyOp33
 70
     1
102
RTVSPropertyOp34
 70
     1
102
RTVSPropertyOp35
 70
     1
102
RTVSPropertyOp36
 70
     1
102
RTVSPropertyOp37
 70
     1
102
RTVSPropertyOp38
 70
     1
102
RTVSPropertyOp39
 70
     1
102
RTVSPropertyOp40
 70
     1
102
RTVSPropertyOp41
 70
     1
102
RTVSPropertyOp42
 70
     1
102
RTVSPropertyOp43
 70
     1
102
RTVSPropertyOp44
 70
     1
102
RTVSPropertyOp45
 70
     1
102
RTVSPropertyOp46
 70
     1
102
RTVSPropertyOp47
 70
     1
102
RTVSPropertyOp48
 70
     1
102
RTVSPropertyOp49
 70
     1
102
RTVSPropertyOp50
 70
     1
102
RTVSPropertyOp51
 70
     0
102
RTVSPropertyOp52
 70
     0
102
RTVSPropertyOp53
 70
     1
102
RTVSPropertyOp54
 70
     1
102
RTVSPropertyOp55
 70
     1
102
RTVSPropertyOp56
 70
     1
102
RTVSPropertyOp57
 70
     1
102
RTVSPost2010Prop28
280
     0
102
RTVSPost2010PropOp28
 70
     1
102
RTVSPost2010Prop29
280
     1
102
RTVSPost2010PropOp29
 70
     1
102
RTVSPost2010Prop30
280
     1
102
RTVSPost2010PropOp30
 70
     1
102
RTVSPost2010Prop31
280
     0
102
RTVSPost2010PropOp31
 70
     1
102
RTVSPost2010Prop32
280
     0
102
RTVSPost2010PropOp32
 70
     1
102
RTVSPost2010Prop33
280
     0
102
RTVSPost2010PropOp33
 70
     1
102
RTVSPost2010Prop34
280
     0
102
RTVSPost2010PropOp34
 70
     1
102
RTVSPost2010Prop35
280
     0
102
RTVSPost2010PropOp35
 70
     1
102
RTVSPost2010Prop36
280
     0
102
RTVSPost2010PropOp36
 70
     1
102
RTVSPost2010Prop37
 90
       50
102
RTVSPost2010PropOp37
 70
     1
102
RTVSPost2010Prop38
140
0.0
102
RTVSPost2010PropOp38
 70
     1
102
RTVSPost2010Prop39
140
1.0
102
RTVSPost2010PropOp39
 70
     1
102
RTVSPost2010Prop40
 90
        0
102
RTVSPost2010PropOp40
 70
     1
102
RTVSPost2010Prop41ColorIndex
 90
       18
102
RTVSPost2010Prop41ColorRGB
 90
        0
102
RTVSPost2010PropOp41
 70
     1
102
RTVSPost2010Prop42
 90
       50
102
RTVSPost2010PropOp42
 70
     1
102
RTVSPost2010Prop43
 90
        3
102
RTVSPost2010PropOp43
 70
     1
102
RTVSPost2010Prop44ColorIndex
 90
        5
102
RTVSPost2010Prop44ColorRGB
 90
      255
102
RTVSPost2010PropOp44
 70
     1
102
RTVSPost2010Prop45
280
     0
102
RTVSPost2010PropOp45
 70
     1
102
RTVSPost2010Prop46
 90
       50
102
RTVSPost2010PropOp46
 70
     1
102
RTVSPost2010Prop47
 90
       50
102
RTVSPost2010PropOp47
 70
     1
102
RTVSPost2010Prop48
 90
       50
102
RTVSPost2010PropOp48
 70
     1
102
RTVSPost2010Prop49
280
     0
102
RTVSPost2010PropOp49
 70
     1
102
RTVSPost2010Prop50
 90
       50
102
RTVSPost2010PropOp50
 70
     1
102
RTVSPost2010Prop51ColorIndex
 90
      256
102
RTVSPost2010Prop51ColorRGB
 90
-16777216
102
RTVSPost2010PropOp51
 70
     0
102
RTVSPost2010Prop52
140
1.0
102
RTVSPost2010PropOp52
 70
     0
102
RTVSPost2010Prop53
 90
        2
102
RTVSPost2010PropOp53
 70
     1
102
RTVSPost2010Prop54
  1
strokes_ogs.tif
102
RTVSPost2010PropOp54
 70
     1
102
RTVSPost2010Prop55
280
     0
102
RTVSPost2010PropOp55
 70
     1
102
RTVSPost2010Prop56
140
1.0
102
RTVSPost2010PropOp56
 70
     1
102
RTVSPost2010Prop57
140
1.0
102
RTVSPost2010PropOp57
 70
     1
  0
XRECORD
  5
1AA
102
{ACAD_REACTORS
330
1A9
102
}
330
1A9
100
AcDbXrecord
280
     1
102
RTVSPropertyOp0
 70
     1
102
RTVSPropertyOp1
 70
     1
102
RTVSPropertyOp2
 70
     1
102
RTVSPropertyOp3
 70
     1
102
RTVSPropertyOp4
 70
     1
102
RTVSPropertyOp5
 70
     1
102
RTVSPropertyOp6
 70
     1
102
RTVSPropertyOp7
 70
     1
102
RTVSPropertyOp8
 70
     1
102
RTVSPropertyOp9
 70
     1
102
RTVSPropertyOp10
 70
     1
102
RTVSPropertyOp11
 70
     1
102
RTVSPropertyOp12
 70
     1
102
RTVSPropertyOp13
 70
     1
102
RTVSPropertyOp14
 70
     1
102
RTVSPropertyOp15
 70
     1
102
RTVSPropertyOp16
 70
     1
102
RTVSPropertyOp17
 70
     1
102
RTVSPropertyOp18
 70
     1
102
RTVSPropertyOp19
 70
     1
102
RTVSPropertyOp20
 70
     1
102
RTVSPropertyOp21
 70
     1
102
RTVSPropertyOp22
 70
     1
102
RTVSPropertyOp23
 70
     1
102
RTVSPropertyOp24
 70
     1
102
RTVSPropertyOp25
 70
     1
102
RTVSPropertyOp26
 70
     1
102
RTVSPropertyOp27
 70
     1
102
RTVSPropertyOp28
 70
     1
102
RTVSPropertyOp29
 70
     1
102
RTVSPropertyOp30
 70
     1
102
RTVSPropertyOp31
 70
     1
102
RTVSPropertyOp32
 70
     1
102
RTVSPropertyOp33
 70
     1
102
RTVSPropertyOp34
 70
     1
102
RTVSPropertyOp35
 70
     1
102
RTVSPropertyOp36
 70
     1
102
RTVSPropertyOp37
 70
     1
102
RTVSPropertyOp38
 70
     1
102
RTVSPropertyOp39
 70
     1
102
RTVSPropertyOp40
 70
     1
102
RTVSPropertyOp41
 70
     1
102
RTVSPropertyOp42
 70
     1
102
RTVSPropertyOp43
 70
     1
102
RTVSPropertyOp44
 70
     1
102
RTVSPropertyOp45
 70
     1
102
RTVSPropertyOp46
 70
     1
102
RTVSPropertyOp47
 70
     1
102
RTVSPropertyOp48
 70
     1
102
RTVSPropertyOp49
 70
     1
102
RTVSPropertyOp50
 70
     1
102
RTVSPropertyOp51
 70
     0
102
RTVSPropertyOp52
 70
     0
102
RTVSPropertyOp53
 70
     1
102
RTVSPropertyOp54
 70
     1
102
RTVSPropertyOp55
 70
     1
102
RTVSPropertyOp56
 70
     1
102
RTVSPropertyOp57
 70
     1
102
RTVSPost2010Prop28
280
     0
102
RTVSPost2010PropOp28
 70
     1
102
RTVSPost2010Prop29
280
     1
102
RTVSPost2010PropOp29
 70
     1
102
RTVSPost2010Prop30
280
     1
102
RTVSPost2010PropOp30
 70
     1
102
RTVSPost2010Prop31
280
     0
102
RTVSPost2010PropOp31
 70
     1
102
RTVSPost2010Prop32
280
     0
102
RTVSPost2010PropOp32
 70
     1
102
RTVSPost2010Prop33
280
     0
102
RTVSPost2010PropOp33
 70
     1
102
RTVSPost2010Prop34
280
     0
102
RTVSPost2010PropOp34
 70
     1
102
RTVSPost2010Prop35
280
     0
102
RTVSPost2010PropOp35
 70
     1
102
RTVSPost2010Prop36
280
     0
102
RTVSPost2010PropOp36
 70
     1
102
RTVSPost2010Prop37
 90
       50
102
RTVSPost2010PropOp37
 70
     1
102
RTVSPost2010Prop38
140
0.0
102
RTVSPost2010PropOp38
 70
     1
102
RTVSPost2010Prop39
140
1.0
102
RTVSPost2010PropOp39
 70
     1
102
RTVSPost2010Prop40
 90
        0
102
RTVSPost2010PropOp40
 70
     1
102
RTVSPost2010Prop41ColorIndex
 90
       18
102
RTVSPost2010Prop41ColorRGB
 90
        0
102
RTVSPost2010PropOp41
 70
     1
102
RTVSPost2010Prop42
 90
       50
102
RTVSPost2010PropOp42
 70
     1
102
RTVSPost2010Prop43
 90
        3
102
RTVSPost2010PropOp43
 70
     1
102
RTVSPost2010Prop44ColorIndex
 90
        5
102
RTVSPost2010Prop44ColorRGB
 90
      255
102
RTVSPost2010PropOp44
 70
     1
102
RTVSPost2010Prop45
280
     0
102
RTVSPost2010PropOp45
 70
     1
102
RTVSPost2010Prop46
 90
       50
102
RTVSPost2010PropOp46
 70
     1
102
RTVSPost2010Prop47
 90
       50
102
RTVSPost2010PropOp47
 70
     1
102
RTVSPost2010Prop48
 90
       50
102
RTVSPost2010PropOp48
 70
     1
102
RTVSPost2010Prop49
280
     0
102
RTVSPost2010PropOp49
 70
     1
102
RTVSPost2010Prop50
 90
       50
102
RTVSPost2010PropOp50
 70
     1
102
RTVSPost2010Prop51ColorIndex
 90
      256
102
RTVSPost2010Prop51ColorRGB
 90
-16777216
102
RTVSPost2010PropOp51
 70
     0
102
RTVSPost2010Prop52
140
1.0
102
RTVSPost2010PropOp52
 70
     0
102
RTVSPost2010Prop53
 90
        2
102
RTVSPost2010PropOp53
 70
     1
102
RTVSPost2010Prop54
  1
strokes_ogs.tif
102
RTVSPost2010PropOp54
 70
     1
102
RTVSPost2010Prop55
280
     0
102
RTVSPost2010PropOp55
 70
     1
102
RTVSPost2010Prop56
140
1.0
102
RTVSPost2010PropOp56
 70
     1
102
RTVSPost2010Prop57
140
1.0
102
RTVSPost2010PropOp57
 70
     1
  0
XRECORD
  5
1AC
102
{ACAD_REACTORS
330
1AB
102
}
330
1AB
100
AcDbXrecord
280
     1
102
RTVSPropertyOp0
 70
     1
102
RTVSPropertyOp1
 70
     1
102
RTVSPropertyOp2
 70
     1
102
RTVSPropertyOp3
 70
     1
102
RTVSPropertyOp4
 70
     1
102
RTVSPropertyOp5
 70
     1
102
RTVSPropertyOp6
 70
     1
102
RTVSPropertyOp7
 70
     1
102
RTVSPropertyOp8
 70
     1
102
RTVSPropertyOp9
 70
     1
102
RTVSPropertyOp10
 70
     1
102
RTVSPropertyOp11
 70
     1
102
RTVSPropertyOp12
 70
     1
102
RTVSPropertyOp13
 70
     1
102
RTVSPropertyOp14
 70
     1
102
RTVSPropertyOp15
 70
     1
102
RTVSPropertyOp16
 70
     1
102
RTVSPropertyOp17
 70
     1
102
RTVSPropertyOp18
 70
     1
102
RTVSPropertyOp19
 70
     1
102
RTVSPropertyOp20
 70
     1
102
RTVSPropertyOp21
 70
     1
102
RTVSPropertyOp22
 70
     1
102
RTVSPropertyOp23
 70
     1
102
RTVSPropertyOp24
 70
     1
102
RTVSPropertyOp25
 70
     1
102
RTVSPropertyOp26
 70
     1
102
RTVSPropertyOp27
 70
     1
102
RTVSPropertyOp28
 70
     1
102
RTVSPropertyOp29
 70
     1
102
RTVSPropertyOp30
 70
     1
102
RTVSPropertyOp31
 70
     1
102
RTVSPropertyOp32
 70
     1
102
RTVSPropertyOp33
 70
     1
102
RTVSPropertyOp34
 70
     1
102
RTVSPropertyOp35
 70
     1
102
RTVSPropertyOp36
 70
     1
102
RTVSPropertyOp37
 70
     1
102
RTVSPropertyOp38
 70
     1
102
RTVSPropertyOp39
 70
     1
102
RTVSPropertyOp40
 70
     1
102
RTVSPropertyOp41
 70
     1
102
RTVSPropertyOp42
 70
     1
102
RTVSPropertyOp43
 70
     1
102
RTVSPropertyOp44
 70
     1
102
RTVSPropertyOp45
 70
     1
102
RTVSPropertyOp46
 70
     1
102
RTVSPropertyOp47
 70
     1
102
RTVSPropertyOp48
 70
     1
102
RTVSPropertyOp49
 70
     1
102
RTVSPropertyOp50
 70
     1
102
RTVSPropertyOp51
 70
     0
102
RTVSPropertyOp52
 70
     0
102
RTVSPropertyOp53
 70
     1
102
RTVSPropertyOp54
 70
     1
102
RTVSPropertyOp55
 70
     1
102
RTVSPropertyOp56
 70
     1
102
RTVSPropertyOp57
 70
     1
102
RTVSPost2010Prop28
280
     0
102
RTVSPost2010PropOp28
 70
     1
102
RTVSPost2010Prop29
280
     1
102
RTVSPost2010PropOp29
 70
     1
102
RTVSPost2010Prop30
280
     1
102
RTVSPost2010PropOp30
 70
     1
102
RTVSPost2010Prop31
280
     0
102
RTVSPost2010PropOp31
 70
     1
102
RTVSPost2010Prop32
280
     0
102
RTVSPost2010PropOp32
 70
     1
102
RTVSPost2010Prop33
280
     0
102
RTVSPost2010PropOp33
 70
     1
102
RTVSPost2010Prop34
280
     0
102
RTVSPost2010PropOp34
 70
     1
102
RTVSPost2010Prop35
280
     0
102
RTVSPost2010PropOp35
 70
     1
102
RTVSPost2010Prop36
280
     0
102
RTVSPost2010PropOp36
 70
     1
102
RTVSPost2010Prop37
 90
       50
102
RTVSPost2010PropOp37
 70
     1
102
RTVSPost2010Prop38
140
0.0
102
RTVSPost2010PropOp38
 70
     1
102
RTVSPost2010Prop39
140
1.0
102
RTVSPost2010PropOp39
 70
     1
102
RTVSPost2010Prop40
 90
        0
102
RTVSPost2010PropOp40
 70
     1
102
RTVSPost2010Prop41ColorIndex
 90
       18
102
RTVSPost2010Prop41ColorRGB
 90
        0
102
RTVSPost2010PropOp41
 70
     1
102
RTVSPost2010Prop42
 90
       50
102
RTVSPost2010PropOp42
 70
     1
102
RTVSPost2010Prop43
 90
        3
102
RTVSPost2010PropOp43
 70
     1
102
RTVSPost2010Prop44ColorIndex
 90
        5
102
RTVSPost2010Prop44ColorRGB
 90
      255
102
RTVSPost2010PropOp44
 70
     1
102
RTVSPost2010Prop45
280
     0
102
RTVSPost2010PropOp45
 70
     1
102
RTVSPost2010Prop46
 90
       50
102
RTVSPost2010PropOp46
 70
     1
102
RTVSPost2010Prop47
 90
       50
102
RTVSPost2010PropOp47
 70
     1
102
RTVSPost2010Prop48
 90
       50
102
RTVSPost2010PropOp48
 70
     1
102
RTVSPost2010Prop49
280
     0
102
RTVSPost2010PropOp49
 70
     1
102
RTVSPost2010Prop50
 90
       50
102
RTVSPost2010PropOp50
 70
     1
102
RTVSPost2010Prop51ColorIndex
 90
      256
102
RTVSPost2010Prop51ColorRGB
 90
-16777216
102
RTVSPost2010PropOp51
 70
     0
102
RTVSPost2010Prop52
140
1.0
102
RTVSPost2010PropOp52
 70
     0
102
RTVSPost2010Prop53
 90
        2
102
RTVSPost2010PropOp53
 70
     1
102
RTVSPost2010Prop54
  1
strokes_ogs.tif
102
RTVSPost2010PropOp54
 70
     1
102
RTVSPost2010Prop55
280
     0
102
RTVSPost2010PropOp55
 70
     1
102
RTVSPost2010Prop56
140
1.0
102
RTVSPost2010PropOp56
 70
     1
102
RTVSPost2010Prop57
140
1.0
102
RTVSPost2010PropOp57
 70
     1
  0
XRECORD
  5
1AE
102
{ACAD_REACTORS
330
1AD
102
}
330
1AD
100
AcDbXrecord
280
     1
102
RTVSPropertyOp0
 70
     1
102
RTVSPropertyOp1
 70
     1
102
RTVSPropertyOp2
 70
     1
102
RTVSPropertyOp3
 70
     1
102
RTVSPropertyOp4
 70
     1
102
RTVSPropertyOp5
 70
     1
102
RTVSPropertyOp6
 70
     1
102
RTVSPropertyOp7
 70
     1
102
RTVSPropertyOp8
 70
     1
102
RTVSPropertyOp9
 70
     1
102
RTVSPropertyOp10
 70
     1
102
RTVSPropertyOp11
 70
     1
102
RTVSPropertyOp12
 70
     1
102
RTVSPropertyOp13
 70
     1
102
RTVSPropertyOp14
 70
     1
102
RTVSPropertyOp15
 70
     1
102
RTVSPropertyOp16
 70
     1
102
RTVSPropertyOp17
 70
     1
102
RTVSPropertyOp18
 70
     1
102
RTVSPropertyOp19
 70
     1
102
RTVSPropertyOp20
 70
     1
102
RTVSPropertyOp21
 70
     1
102
RTVSPropertyOp22
 70
     1
102
RTVSPropertyOp23
 70
     1
102
RTVSPropertyOp24
 70
     1
102
RTVSPropertyOp25
 70
     1
102
RTVSPropertyOp26
 70
     1
102
RTVSPropertyOp27
 70
     1
102
RTVSPropertyOp28
 70
     1
102
RTVSPropertyOp29
 70
     1
102
RTVSPropertyOp30
 70
     1
102
RTVSPropertyOp31
 70
     1
102
RTVSPropertyOp32
 70
     1
102
RTVSPropertyOp33
 70
     1
102
RTVSPropertyOp34
 70
     1
102
RTVSPropertyOp35
 70
     1
102
RTVSPropertyOp36
 70
     1
102
RTVSPropertyOp37
 70
     1
102
RTVSPropertyOp38
 70
     1
102
RTVSPropertyOp39
 70
     1
102
RTVSPropertyOp40
 70
     1
102
RTVSPropertyOp41
 70
     1
102
RTVSPropertyOp42
 70
     1
102
RTVSPropertyOp43
 70
     1
102
RTVSPropertyOp44
 70
     1
102
RTVSPropertyOp45
 70
     1
102
RTVSPropertyOp46
 70
     1
102
RTVSPropertyOp47
 70
     1
102
RTVSPropertyOp48
 70
     1
102
RTVSPropertyOp49
 70
     1
102
RTVSPropertyOp50
 70
     1
102
RTVSPropertyOp51
 70
     0
102
RTVSPropertyOp52
 70
     0
102
RTVSPropertyOp53
 70
     1
102
RTVSPropertyOp54
 70
     1
102
RTVSPropertyOp55
 70
     1
102
RTVSPropertyOp56
 70
     1
102
RTVSPropertyOp57
 70
     1
102
RTVSPost2010Prop28
280
     0
102
RTVSPost2010PropOp28
 70
     1
102
RTVSPost2010Prop29
280
     1
102
RTVSPost2010PropOp29
 70
     1
102
RTVSPost2010Prop30
280
     1
102
RTVSPost2010PropOp30
 70
     1
102
RTVSPost2010Prop31
280
     0
102
RTVSPost2010PropOp31
 70
     1
102
RTVSPost2010Prop32
280
     0
102
RTVSPost2010PropOp32
 70
     1
102
RTVSPost2010Prop33
280
     0
102
RTVSPost2010PropOp33
 70
     1
102
RTVSPost2010Prop34
280
     0
102
RTVSPost2010PropOp34
 70
     1
102
RTVSPost2010Prop35
280
     0
102
RTVSPost2010PropOp35
 70
     1
102
RTVSPost2010Prop36
280
     0
102
RTVSPost2010PropOp36
 70
     1
102
RTVSPost2010Prop37
 90
       50
102
RTVSPost2010PropOp37
 70
     1
102
RTVSPost2010Prop38
140
0.0
102
RTVSPost2010PropOp38
 70
     1
102
RTVSPost2010Prop39
140
1.0
102
RTVSPost2010PropOp39
 70
     1
102
RTVSPost2010Prop40
 90
        0
102
RTVSPost2010PropOp40
 70
     1
102
RTVSPost2010Prop41ColorIndex
 90
       18
102
RTVSPost2010Prop41ColorRGB
 90
        0
102
RTVSPost2010PropOp41
 70
     1
102
RTVSPost2010Prop42
 90
       50
102
RTVSPost2010PropOp42
 70
     1
102
RTVSPost2010Prop43
 90
        3
102
RTVSPost2010PropOp43
 70
     1
102
RTVSPost2010Prop44ColorIndex
 90
        5
102
RTVSPost2010Prop44ColorRGB
 90
      255
102
RTVSPost2010PropOp44
 70
     1
102
RTVSPost2010Prop45
280
     0
102
RTVSPost2010PropOp45
 70
     1
102
RTVSPost2010Prop46
 90
       50
102
RTVSPost2010PropOp46
 70
     1
102
RTVSPost2010Prop47
 90
       50
102
RTVSPost2010PropOp47
 70
     1
102
RTVSPost2010Prop48
 90
       50
102
RTVSPost2010PropOp48
 70
     1
102
RTVSPost2010Prop49
280
     0
102
RTVSPost2010PropOp49
 70
     1
102
RTVSPost2010Prop50
 90
       50
102
RTVSPost2010PropOp50
 70
     1
102
RTVSPost2010Prop51ColorIndex
 90
      256
102
RTVSPost2010Prop51ColorRGB
 90
-16777216
102
RTVSPost2010PropOp51
 70
     0
102
RTVSPost2010Prop52
140
1.0
102
RTVSPost2010PropOp52
 70
     0
102
RTVSPost2010Prop53
 90
        2
102
RTVSPost2010PropOp53
 70
     1
102
RTVSPost2010Prop54
  1
strokes_ogs.tif
102
RTVSPost2010PropOp54
 70
     1
102
RTVSPost2010Prop55
280
     0
102
RTVSPost2010PropOp55
 70
     1
102
RTVSPost2010Prop56
140
1.0
102
RTVSPost2010PropOp56
 70
     1
102
RTVSPost2010Prop57
140
1.0
102
RTVSPost2010PropOp57
 70
     1
  0
XRECORD
  5
1B0
102
{ACAD_REACTORS
330
1AF
102
}
330
1AF
100
AcDbXrecord
280
     1
102
RTVSPropertyOp0
 70
     1
102
RTVSPropertyOp1
 70
     1
102
RTVSPropertyOp2
 70
     1
102
RTVSPropertyOp3
 70
     1
102
RTVSPropertyOp4
 70
     1
102
RTVSPropertyOp5
 70
     1
102
RTVSPropertyOp6
 70
     1
102
RTVSPropertyOp7
 70
     1
102
RTVSPropertyOp8
 70
     1
102
RTVSPropertyOp9
 70
     1
102
RTVSPropertyOp10
 70
     1
102
RTVSPropertyOp11
 70
     1
102
RTVSPropertyOp12
 70
     1
102
RTVSPropertyOp13
 70
     1
102
RTVSPropertyOp14
 70
     1
102
RTVSPropertyOp15
 70
     1
102
RTVSPropertyOp16
 70
     1
102
RTVSPropertyOp17
 70
     1
102
RTVSPropertyOp18
 70
     1
102
RTVSPropertyOp19
 70
     1
102
RTVSPropertyOp20
 70
     1
102
RTVSPropertyOp21
 70
     1
102
RTVSPropertyOp22
 70
     1
102
RTVSPropertyOp23
 70
     1
102
RTVSPropertyOp24
 70
     1
102
RTVSPropertyOp25
 70
     1
102
RTVSPropertyOp26
 70
     1
102
RTVSPropertyOp27
 70
     1
102
RTVSPropertyOp28
 70
     1
102
RTVSPropertyOp29
 70
     1
102
RTVSPropertyOp30
 70
     1
102
RTVSPropertyOp31
 70
     1
102
RTVSPropertyOp32
 70
     1
102
RTVSPropertyOp33
 70
     1
102
RTVSPropertyOp34
 70
     1
102
RTVSPropertyOp35
 70
     1
102
RTVSPropertyOp36
 70
     1
102
RTVSPropertyOp37
 70
     1
102
RTVSPropertyOp38
 70
     1
102
RTVSPropertyOp39
 70
     1
102
RTVSPropertyOp40
 70
     1
102
RTVSPropertyOp41
 70
     1
102
RTVSPropertyOp42
 70
     1
102
RTVSPropertyOp43
 70
     1
102
RTVSPropertyOp44
 70
     1
102
RTVSPropertyOp45
 70
     1
102
RTVSPropertyOp46
 70
     1
102
RTVSPropertyOp47
 70
     1
102
RTVSPropertyOp48
 70
     1
102
RTVSPropertyOp49
 70
     1
102
RTVSPropertyOp50
 70
     1
102
RTVSPropertyOp51
 70
     0
102
RTVSPropertyOp52
 70
     0
102
RTVSPropertyOp53
 70
     1
102
RTVSPropertyOp54
 70
     1
102
RTVSPropertyOp55
 70
     1
102
RTVSPropertyOp56
 70
     1
102
RTVSPropertyOp57
 70
     1
102
RTVSPost2010Prop28
280
     0
102
RTVSPost2010PropOp28
 70
     1
102
RTVSPost2010Prop29
280
     1
102
RTVSPost2010PropOp29
 70
     1
102
RTVSPost2010Prop30
280
     1
102
RTVSPost2010PropOp30
 70
     1
102
RTVSPost2010Prop31
280
     0
102
RTVSPost2010PropOp31
 70
     1
102
RTVSPost2010Prop32
280
     0
102
RTVSPost2010PropOp32
 70
     1
102
RTVSPost2010Prop33
280
     0
102
RTVSPost2010PropOp33
 70
     1
102
RTVSPost2010Prop34
280
     0
102
RTVSPost2010PropOp34
 70
     1
102
RTVSPost2010Prop35
280
     0
102
RTVSPost2010PropOp35
 70
     1
102
RTVSPost2010Prop36
280
     0
102
RTVSPost2010PropOp36
 70
     1
102
RTVSPost2010Prop37
 90
       50
102
RTVSPost2010PropOp37
 70
     1
102
RTVSPost2010Prop38
140
0.0
102
RTVSPost2010PropOp38
 70
     1
102
RTVSPost2010Prop39
140
1.0
102
RTVSPost2010PropOp39
 70
     1
102
RTVSPost2010Prop40
 90
        0
102
RTVSPost2010PropOp40
 70
     1
102
RTVSPost2010Prop41ColorIndex
 90
       18
102
RTVSPost2010Prop41ColorRGB
 90
        0
102
RTVSPost2010PropOp41
 70
     1
102
RTVSPost2010Prop42
 90
       50
102
RTVSPost2010PropOp42
 70
     1
102
RTVSPost2010Prop43
 90
        3
102
RTVSPost2010PropOp43
 70
     1
102
RTVSPost2010Prop44ColorIndex
 90
        5
102
RTVSPost2010Prop44ColorRGB
 90
      255
102
RTVSPost2010PropOp44
 70
     1
102
RTVSPost2010Prop45
280
     0
102
RTVSPost2010PropOp45
 70
     1
102
RTVSPost2010Prop46
 90
       50
102
RTVSPost2010PropOp46
 70
     1
102
RTVSPost2010Prop47
 90
       50
102
RTVSPost2010PropOp47
 70
     1
102
RTVSPost2010Prop48
 90
       50
102
RTVSPost2010PropOp48
 70
     1
102
RTVSPost2010Prop49
280
     0
102
RTVSPost2010PropOp49
 70
     1
102
RTVSPost2010Prop50
 90
       50
102
RTVSPost2010PropOp50
 70
     1
102
RTVSPost2010Prop51ColorIndex
 90
      256
102
RTVSPost2010Prop51ColorRGB
 90
-16777216
102
RTVSPost2010PropOp51
 70
     0
102
RTVSPost2010Prop52
140
1.0
102
RTVSPost2010PropOp52
 70
     0
102
RTVSPost2010Prop53
 90
        2
102
RTVSPost2010PropOp53
 70
     1
102
RTVSPost2010Prop54
  1
strokes_ogs.tif
102
RTVSPost2010PropOp54
 70
     1
102
RTVSPost2010Prop55
280
     0
102
RTVSPost2010PropOp55
 70
     1
102
RTVSPost2010Prop56
140
1.0
102
RTVSPost2010PropOp56
 70
     1
102
RTVSPost2010Prop57
140
1.0
102
RTVSPost2010PropOp57
 70
     1
  0
XRECORD
  5
1B6
102
{ACAD_REACTORS
330
1B5
102
}
330
1B5
100
AcDbXrecord
280
     1
102
RTVSPropertyOp0
 70
     1
102
RTVSPropertyOp1
 70
     1
102
RTVSPropertyOp2
 70
     1
102
RTVSPropertyOp3
 70
     1
102
RTVSPropertyOp4
 70
     1
102
RTVSPropertyOp5
 70
     1
102
RTVSPropertyOp6
 70
     1
102
RTVSPropertyOp7
 70
     1
102
RTVSPropertyOp8
 70
     1
102
RTVSPropertyOp9
 70
     1
102
RTVSPropertyOp10
 70
     1
102
RTVSPropertyOp11
 70
     1
102
RTVSPropertyOp12
 70
     1
102
RTVSPropertyOp13
 70
     1
102
RTVSPropertyOp14
 70
     1
102
RTVSPropertyOp15
 70
     1
102
RTVSPropertyOp16
 70
     1
102
RTVSPropertyOp17
 70
     1
102
RTVSPropertyOp18
 70
     1
102
RTVSPropertyOp19
 70
     1
102
RTVSPropertyOp20
 70
     1
102
RTVSPropertyOp21
 70
     1
102
RTVSPropertyOp22
 70
     1
102
RTVSPropertyOp23
 70
     1
102
RTVSPropertyOp24
 70
     1
102
RTVSPropertyOp25
 70
     1
102
RTVSPropertyOp26
 70
     1
102
RTVSPropertyOp27
 70
     1
102
RTVSPropertyOp28
 70
     1
102
RTVSPropertyOp29
 70
     1
102
RTVSPropertyOp30
 70
     1
102
RTVSPropertyOp31
 70
     1
102
RTVSPropertyOp32
 70
     1
102
RTVSPropertyOp33
 70
     1
102
RTVSPropertyOp34
 70
     1
102
RTVSPropertyOp35
 70
     1
102
RTVSPropertyOp36
 70
     1
102
RTVSPropertyOp37
 70
     1
102
RTVSPropertyOp38
 70
     1
102
RTVSPropertyOp39
 70
     1
102
RTVSPropertyOp40
 70
     1
102
RTVSPropertyOp41
 70
     1
102
RTVSPropertyOp42
 70
     1
102
RTVSPropertyOp43
 70
     1
102
RTVSPropertyOp44
 70
     1
102
RTVSPropertyOp45
 70
     1
102
RTVSPropertyOp46
 70
     1
102
RTVSPropertyOp47
 70
     1
102
RTVSPropertyOp48
 70
     1
102
RTVSPropertyOp49
 70
     1
102
RTVSPropertyOp50
 70
     1
102
RTVSPropertyOp51
 70
     0
102
RTVSPropertyOp52
 70
     0
102
RTVSPropertyOp53
 70
     1
102
RTVSPropertyOp54
 70
     1
102
RTVSPropertyOp55
 70
     1
102
RTVSPropertyOp56
 70
     1
102
RTVSPropertyOp57
 70
     1
102
RTVSPost2010Prop28
280
     0
102
RTVSPost2010PropOp28
 70
     1
102
RTVSPost2010Prop29
280
     1
102
RTVSPost2010PropOp29
 70
     1
102
RTVSPost2010Prop30
280
     1
102
RTVSPost2010PropOp30
 70
     1
102
RTVSPost2010Prop31
280
     0
102
RTVSPost2010PropOp31
 70
     1
102
RTVSPost2010Prop32
280
     0
102
RTVSPost2010PropOp32
 70
     1
102
RTVSPost2010Prop33
280
     0
102
RTVSPost2010PropOp33
 70
     1
102
RTVSPost2010Prop34
280
     0
102
RTVSPost2010PropOp34
 70
     1
102
RTVSPost2010Prop35
280
     0
102
RTVSPost2010PropOp35
 70
     1
102
RTVSPost2010Prop36
280
     0
102
RTVSPost2010PropOp36
 70
     1
102
RTVSPost2010Prop37
 90
       50
102
RTVSPost2010PropOp37
 70
     1
102
RTVSPost2010Prop38
140
0.0
102
RTVSPost2010PropOp38
 70
     1
102
RTVSPost2010Prop39
140
1.0
102
RTVSPost2010PropOp39
 70
     1
102
RTVSPost2010Prop40
 90
        0
102
RTVSPost2010PropOp40
 70
     1
102
RTVSPost2010Prop41ColorIndex
 90
       18
102
RTVSPost2010Prop41ColorRGB
 90
        0
102
RTVSPost2010PropOp41
 70
     1
102
RTVSPost2010Prop42
 90
       50
102
RTVSPost2010PropOp42
 70
     1
102
RTVSPost2010Prop43
 90
        3
102
RTVSPost2010PropOp43
 70
     1
102
RTVSPost2010Prop44ColorIndex
 90
        5
102
RTVSPost2010Prop44ColorRGB
 90
      255
102
RTVSPost2010PropOp44
 70
     1
102
RTVSPost2010Prop45
280
     0
102
RTVSPost2010PropOp45
 70
     1
102
RTVSPost2010Prop46
 90
       50
102
RTVSPost2010PropOp46
 70
     1
102
RTVSPost2010Prop47
 90
       50
102
RTVSPost2010PropOp47
 70
     1
102
RTVSPost2010Prop48
 90
       50
102
RTVSPost2010PropOp48
 70
     1
102
RTVSPost2010Prop49
280
     0
102
RTVSPost2010PropOp49
 70
     1
102
RTVSPost2010Prop50
 90
       50
102
RTVSPost2010PropOp50
 70
     1
102
RTVSPost2010Prop51ColorIndex
 90
      256
102
RTVSPost2010Prop51ColorRGB
 90
-16777216
102
RTVSPost2010PropOp51
 70
     0
102
RTVSPost2010Prop52
140
1.0
102
RTVSPost2010PropOp52
 70
     0
102
RTVSPost2010Prop53
 90
        2
102
RTVSPost2010PropOp53
 70
     1
102
RTVSPost2010Prop54
  1
strokes_ogs.tif
102
RTVSPost2010PropOp54
 70
     1
102
RTVSPost2010Prop55
280
     0
102
RTVSPost2010PropOp55
 70
     1
102
RTVSPost2010Prop56
140
1.0
102
RTVSPost2010PropOp56
 70
     1
102
RTVSPost2010Prop57
140
1.0
102
RTVSPost2010PropOp57
 70
     1
  0
XRECORD
  5
1CA
102
{ACAD_REACTORS
330
1C9
102
}
330
1C9
100
AcDbXrecord
280
     1
102
RTVSPropertyOp0
 70
     0
102
RTVSPropertyOp1
 70
     0
102
RTVSPropertyOp2
 70
     0
102
RTVSPropertyOp3
 70
     0
102
RTVSPropertyOp4
 70
     0
102
RTVSPropertyOp5
 70
     0
102
RTVSPropertyOp6
 70
     0
102
RTVSPropertyOp7
 70
     0
102
RTVSPropertyOp8
 70
     0
102
RTVSPropertyOp9
 70
     0
102
RTVSPropertyOp10
 70
     0
102
RTVSPropertyOp11
 70
     0
102
RTVSPropertyOp12
 70
     0
102
RTVSPropertyOp13
 70
     0
102
RTVSPropertyOp14
 70
     2
102
RTVSPropertyOp15
 70
     0
102
RTVSPropertyOp16
 70
     0
102
RTVSPropertyOp17
 70
     0
102
RTVSPropertyOp18
 70
     0
102
RTVSPropertyOp19
 70
     0
102
RTVSPropertyOp20
 70
     0
102
RTVSPropertyOp21
 70
     0
102
RTVSPropertyOp22
 70
     0
102
RTVSPropertyOp23
 70
     0
102
RTVSPropertyOp24
 70
     0
102
RTVSPropertyOp25
 70
     0
102
RTVSPropertyOp26
 70
     0
102
RTVSPropertyOp27
 70
     0
102
RTVSPropertyOp28
 70
     0
102
RTVSPropertyOp29
 70
     0
102
RTVSPropertyOp30
 70
     0
102
RTVSPropertyOp31
 70
     0
102
RTVSPropertyOp32
 70
     0
102
RTVSPropertyOp33
 70
     0
102
RTVSPropertyOp34
 70
     0
102
RTVSPropertyOp35
 70
     0
102
RTVSPropertyOp36
 70
     0
102
RTVSPropertyOp37
 70
     0
102
RTVSPropertyOp38
 70
     0
102
RTVSPropertyOp39
 70
     0
102
RTVSPropertyOp40
 70
     0
102
RTVSPropertyOp41
 70
     0
102
RTVSPropertyOp42
 70
     0
102
RTVSPropertyOp43
 70
     0
102
RTVSPropertyOp44
 70
     0
102
RTVSPropertyOp45
 70
     0
102
RTVSPropertyOp46
 70
     0
102
RTVSPropertyOp47
 70
     0
102
RTVSPropertyOp48
 70
     0
102
RTVSPropertyOp49
 70
     0
102
RTVSPropertyOp50
 70
     0
102
RTVSPropertyOp51
 70
     0
102
RTVSPropertyOp52
 70
     0
102
RTVSPropertyOp53
 70
     0
102
RTVSPropertyOp54
 70
     0
102
RTVSPropertyOp55
 70
     0
102
RTVSPropertyOp56
 70
     0
102
RTVSPropertyOp57
 70
     0
102
RTVSPost2010Prop28
280
     0
102
RTVSPost2010PropOp28
 70
     0
102
RTVSPost2010Prop29
280
     1
102
RTVSPost2010PropOp29
 70
     0
102
RTVSPost2010Prop30
280
     1
102
RTVSPost2010PropOp30
 70
     0
102
RTVSPost2010Prop31
280
     0
102
RTVSPost2010PropOp31
 70
     0
102
RTVSPost2010Prop32
280
     0
102
RTVSPost2010PropOp32
 70
     0
102
RTVSPost2010Prop33
280
     0
102
RTVSPost2010PropOp33
 70
     0
102
RTVSPost2010Prop34
280
     0
102
RTVSPost2010PropOp34
 70
     0
102
RTVSPost2010Prop35
280
     0
102
RTVSPost2010PropOp35
 70
     0
102
RTVSPost2010Prop36
280
     0
102
RTVSPost2010PropOp36
 70
     0
102
RTVSPost2010Prop37
 90
       50
102
RTVSPost2010PropOp37
 70
     0
102
RTVSPost2010Prop38
140
0.0
102
RTVSPost2010PropOp38
 70
     0
102
RTVSPost2010Prop39
140
1.0
102
RTVSPost2010PropOp39
 70
     0
102
RTVSPost2010Prop40
 90
        0
102
RTVSPost2010PropOp40
 70
     0
102
RTVSPost2010Prop41ColorIndex
 90
       18
102
RTVSPost2010Prop41ColorRGB
 90
        0
102
RTVSPost2010PropOp41
 70
     0
102
RTVSPost2010Prop42
 90
       50
102
RTVSPost2010PropOp42
 70
     0
102
RTVSPost2010Prop43
 90
        3
102
RTVSPost2010PropOp43
 70
     0
102
RTVSPost2010Prop44ColorIndex
 90
        5
102
RTVSPost2010Prop44ColorRGB
 90
      255
102
RTVSPost2010PropOp44
 70
     0
102
RTVSPost2010Prop45
280
     0
102
RTVSPost2010PropOp45
 70
     0
102
RTVSPost2010Prop46
 90
       50
102
RTVSPost2010PropOp46
 70
     0
102
RTVSPost2010Prop47
 90
       50
102
RTVSPost2010PropOp47
 70
     0
102
RTVSPost2010Prop48
 90
       50
102
RTVSPost2010PropOp48
 70
     0
102
RTVSPost2010Prop49
280
     0
102
RTVSPost2010PropOp49
 70
     0
102
RTVSPost2010Prop50
 90
       50
102
RTVSPost2010PropOp50
 70
     0
102
RTVSPost2010Prop51ColorIndex
 90
      256
102
RTVSPost2010Prop51ColorRGB
 90
-16777216
102
RTVSPost2010PropOp51
 70
     0
102
RTVSPost2010Prop52
140
1.0
102
RTVSPost2010PropOp52
 70
     0
102
RTVSPost2010Prop53
 90
        2
102
RTVSPost2010PropOp53
 70
     0
102
RTVSPost2010Prop54
  1
strokes_ogs.tif
102
RTVSPost2010PropOp54
 70
     0
102
RTVSPost2010Prop55
280
     0
102
RTVSPost2010PropOp55
 70
     0
102
RTVSPost2010Prop56
140
1.0
102
RTVSPost2010PropOp56
 70
     0
102
RTVSPost2010Prop57
140
1.0
102
RTVSPost2010PropOp57
 70
     0
  0
XRECORD
  5
1C4
102
{ACAD_REACTORS
330
1C3
102
}
330
1C3
100
AcDbXrecord
280
     1
102
RTVSPropertyOp0
 70
     1
102
RTVSPropertyOp1
 70
     1
102
RTVSPropertyOp2
 70
     1
102
RTVSPropertyOp3
 70
     1
102
RTVSPropertyOp4
 70
     1
102
RTVSPropertyOp5
 70
     1
102
RTVSPropertyOp6
 70
     1
102
RTVSPropertyOp7
 70
     1
102
RTVSPropertyOp8
 70
     1
102
RTVSPropertyOp9
 70
     1
102
RTVSPropertyOp10
 70
     1
102
RTVSPropertyOp11
 70
     1
102
RTVSPropertyOp12
 70
     1
102
RTVSPropertyOp13
 70
     1
102
RTVSPropertyOp14
 70
     1
102
RTVSPropertyOp15
 70
     1
102
RTVSPropertyOp16
 70
     1
102
RTVSPropertyOp17
 70
     1
102
RTVSPropertyOp18
 70
     1
102
RTVSPropertyOp19
 70
     1
102
RTVSPropertyOp20
 70
     1
102
RTVSPropertyOp21
 70
     1
102
RTVSPropertyOp22
 70
     1
102
RTVSPropertyOp23
 70
     1
102
RTVSPropertyOp24
 70
     1
102
RTVSPropertyOp25
 70
     1
102
RTVSPropertyOp26
 70
     1
102
RTVSPropertyOp27
 70
     1
102
RTVSPropertyOp28
 70
     1
102
RTVSPropertyOp29
 70
     1
102
RTVSPropertyOp30
 70
     1
102
RTVSPropertyOp31
 70
     1
102
RTVSPropertyOp32
 70
     1
102
RTVSPropertyOp33
 70
     1
102
RTVSPropertyOp34
 70
     1
102
RTVSPropertyOp35
 70
     1
102
RTVSPropertyOp36
 70
     1
102
RTVSPropertyOp37
 70
     1
102
RTVSPropertyOp38
 70
     1
102
RTVSPropertyOp39
 70
     1
102
RTVSPropertyOp40
 70
     1
102
RTVSPropertyOp41
 70
     1
102
RTVSPropertyOp42
 70
     1
102
RTVSPropertyOp43
 70
     1
102
RTVSPropertyOp44
 70
     1
102
RTVSPropertyOp45
 70
     1
102
RTVSPropertyOp46
 70
     1
102
RTVSPropertyOp47
 70
     1
102
RTVSPropertyOp48
 70
     1
102
RTVSPropertyOp49
 70
     1
102
RTVSPropertyOp50
 70
     1
102
RTVSPropertyOp51
 70
     0
102
RTVSPropertyOp52
 70
     0
102
RTVSPropertyOp53
 70
     1
102
RTVSPropertyOp54
 70
     1
102
RTVSPropertyOp55
 70
     1
102
RTVSPropertyOp56
 70
     1
102
RTVSPropertyOp57
 70
     1
102
RTVSPost2010Prop28
280
     0
102
RTVSPost2010PropOp28
 70
     1
102
RTVSPost2010Prop29
280
     1
102
RTVSPost2010PropOp29
 70
     1
102
RTVSPost2010Prop30
280
     1
102
RTVSPost2010PropOp30
 70
     1
102
RTVSPost2010Prop31
280
     0
102
RTVSPost2010PropOp31
 70
     1
102
RTVSPost2010Prop32
280
     0
102
RTVSPost2010PropOp32
 70
     1
102
RTVSPost2010Prop33
280
     0
102
RTVSPost2010PropOp33
 70
     1
102
RTVSPost2010Prop34
280
     0
102
RTVSPost2010PropOp34
 70
     1
102
RTVSPost2010Prop35
280
     0
102
RTVSPost2010PropOp35
 70
     1
102
RTVSPost2010Prop36
280
     0
102
RTVSPost2010PropOp36
 70
     1
102
RTVSPost2010Prop37
 90
       50
102
RTVSPost2010PropOp37
 70
     1
102
RTVSPost2010Prop38
140
0.0
102
RTVSPost2010PropOp38
 70
     1
102
RTVSPost2010Prop39
140
1.0
102
RTVSPost2010PropOp39
 70
     1
102
RTVSPost2010Prop40
 90
        0
102
RTVSPost2010PropOp40
 70
     1
102
RTVSPost2010Prop41ColorIndex
 90
       18
102
RTVSPost2010Prop41ColorRGB
 90
        0
102
RTVSPost2010PropOp41
 70
     1
102
RTVSPost2010Prop42
 90
       50
102
RTVSPost2010PropOp42
 70
     1
102
RTVSPost2010Prop43
 90
        3
102
RTVSPost2010PropOp43
 70
     1
102
RTVSPost2010Prop44ColorIndex
 90
        5
102
RTVSPost2010Prop44ColorRGB
 90
      255
102
RTVSPost2010PropOp44
 70
     1
102
RTVSPost2010Prop45
280
     0
102
RTVSPost2010PropOp45
 70
     1
102
RTVSPost2010Prop46
 90
       50
102
RTVSPost2010PropOp46
 70
     1
102
RTVSPost2010Prop47
 90
       50
102
RTVSPost2010PropOp47
 70
     1
102
RTVSPost2010Prop48
 90
       50
102
RTVSPost2010PropOp48
 70
     1
102
RTVSPost2010Prop49
280
     0
102
RTVSPost2010PropOp49
 70
     1
102
RTVSPost2010Prop50
 90
       50
102
RTVSPost2010PropOp50
 70
     1
102
RTVSPost2010Prop51ColorIndex
 90
      256
102
RTVSPost2010Prop51ColorRGB
 90
-16777216
102
RTVSPost2010PropOp51
 70
     0
102
RTVSPost2010Prop52
140
1.0
102
RTVSPost2010PropOp52
 70
     0
102
RTVSPost2010Prop53
 90
        2
102
RTVSPost2010PropOp53
 70
     1
102
RTVSPost2010Prop54
  1
strokes_ogs.tif
102
RTVSPost2010PropOp54
 70
     1
102
RTVSPost2010Prop55
280
     0
102
RTVSPost2010PropOp55
 70
     1
102
RTVSPost2010Prop56
140
1.0
102
RTVSPost2010PropOp56
 70
     1
102
RTVSPost2010Prop57
140
1.0
102
RTVSPost2010PropOp57
 70
     1
  0
XRECORD
  5
1CC
102
{ACAD_REACTORS
330
1CB
102
}
330
1CB
100
AcDbXrecord
280
     1
102
RTVSPropertyOp0
 70
     0
102
RTVSPropertyOp1
 70
     0
102
RTVSPropertyOp2
 70
     0
102
RTVSPropertyOp3
 70
     0
102
RTVSPropertyOp4
 70
     0
102
RTVSPropertyOp5
 70
     0
102
RTVSPropertyOp6
 70
     0
102
RTVSPropertyOp7
 70
     0
102
RTVSPropertyOp8
 70
     0
102
RTVSPropertyOp9
 70
     0
102
RTVSPropertyOp10
 70
     0
102
RTVSPropertyOp11
 70
     0
102
RTVSPropertyOp12
 70
     0
102
RTVSPropertyOp13
 70
     0
102
RTVSPropertyOp14
 70
     2
102
RTVSPropertyOp15
 70
     0
102
RTVSPropertyOp16
 70
     0
102
RTVSPropertyOp17
 70
     0
102
RTVSPropertyOp18
 70
     0
102
RTVSPropertyOp19
 70
     0
102
RTVSPropertyOp20
 70
     0
102
RTVSPropertyOp21
 70
     0
102
RTVSPropertyOp22
 70
     0
102
RTVSPropertyOp23
 70
     0
102
RTVSPropertyOp24
 70
     0
102
RTVSPropertyOp25
 70
     0
102
RTVSPropertyOp26
 70
     0
102
RTVSPropertyOp27
 70
     0
102
RTVSPropertyOp28
 70
     0
102
RTVSPropertyOp29
 70
     0
102
RTVSPropertyOp30
 70
     0
102
RTVSPropertyOp31
 70
     0
102
RTVSPropertyOp32
 70
     0
102
RTVSPropertyOp33
 70
     0
102
RTVSPropertyOp34
 70
     0
102
RTVSPropertyOp35
 70
     0
102
RTVSPropertyOp36
 70
     0
102
RTVSPropertyOp37
 70
     0
102
RTVSPropertyOp38
 70
     0
102
RTVSPropertyOp39
 70
     0
102
RTVSPropertyOp40
 70
     0
102
RTVSPropertyOp41
 70
     0
102
RTVSPropertyOp42
 70
     0
102
RTVSPropertyOp43
 70
     0
102
RTVSPropertyOp44
 70
     0
102
RTVSPropertyOp45
 70
     0
102
RTVSPropertyOp46
 70
     0
102
RTVSPropertyOp47
 70
     0
102
RTVSPropertyOp48
 70
     0
102
RTVSPropertyOp49
 70
     0
102
RTVSPropertyOp50
 70
     0
102
RTVSPropertyOp51
 70
     0
102
RTVSPropertyOp52
 70
     0
102
RTVSPropertyOp53
 70
     0
102
RTVSPropertyOp54
 70
     0
102
RTVSPropertyOp55
 70
     0
102
RTVSPropertyOp56
 70
     0
102
RTVSPropertyOp57
 70
     0
102
RTVSPost2010Prop28
280
     0
102
RTVSPost2010PropOp28
 70
     0
102
RTVSPost2010Prop29
280
     1
102
RTVSPost2010PropOp29
 70
     0
102
RTVSPost2010Prop30
280
     1
102
RTVSPost2010PropOp30
 70
     0
102
RTVSPost2010Prop31
280
     0
102
RTVSPost2010PropOp31
 70
     0
102
RTVSPost2010Prop32
280
     0
102
RTVSPost2010PropOp32
 70
     0
102
RTVSPost2010Prop33
280
     0
102
RTVSPost2010PropOp33
 70
     0
102
RTVSPost2010Prop34
280
     0
102
RTVSPost2010PropOp34
 70
     0
102
RTVSPost2010Prop35
280
     0
102
RTVSPost2010PropOp35
 70
     0
102
RTVSPost2010Prop36
280
     0
102
RTVSPost2010PropOp36
 70
     0
102
RTVSPost2010Prop37
 90
       50
102
RTVSPost2010PropOp37
 70
     0
102
RTVSPost2010Prop38
140
0.0
102
RTVSPost2010PropOp38
 70
     0
102
RTVSPost2010Prop39
140
1.0
102
RTVSPost2010PropOp39
 70
     0
102
RTVSPost2010Prop40
 90
        0
102
RTVSPost2010PropOp40
 70
     0
102
RTVSPost2010Prop41ColorIndex
 90
       18
102
RTVSPost2010Prop41ColorRGB
 90
        0
102
RTVSPost2010PropOp41
 70
     0
102
RTVSPost2010Prop42
 90
       50
102
RTVSPost2010PropOp42
 70
     0
102
RTVSPost2010Prop43
 90
        3
102
RTVSPost2010PropOp43
 70
     0
102
RTVSPost2010Prop44ColorIndex
 90
        5
102
RTVSPost2010Prop44ColorRGB
 90
      255
102
RTVSPost2010PropOp44
 70
     0
102
RTVSPost2010Prop45
280
     0
102
RTVSPost2010PropOp45
 70
     0
102
RTVSPost2010Prop46
 90
       50
102
RTVSPost2010PropOp46
 70
     0
102
RTVSPost2010Prop47
 90
       50
102
RTVSPost2010PropOp47
 70
     0
102
RTVSPost2010Prop48
 90
       50
102
RTVSPost2010PropOp48
 70
     0
102
RTVSPost2010Prop49
280
     0
102
RTVSPost2010PropOp49
 70
     0
102
RTVSPost2010Prop50
 90
       50
102
RTVSPost2010PropOp50
 70
     0
102
RTVSPost2010Prop51ColorIndex
 90
      256
102
RTVSPost2010Prop51ColorRGB
 90
-16777216
102
RTVSPost2010PropOp51
 70
     0
102
RTVSPost2010Prop52
140
1.0
102
RTVSPost2010PropOp52
 70
     0
102
RTVSPost2010Prop53
 90
        2
102
RTVSPost2010PropOp53
 70
     0
102
RTVSPost2010Prop54
  1
strokes_ogs.tif
102
RTVSPost2010PropOp54
 70
     0
102
RTVSPost2010Prop55
280
     0
102
RTVSPost2010PropOp55
 70
     0
102
RTVSPost2010Prop56
140
1.0
102
RTVSPost2010PropOp56
 70
     0
102
RTVSPost2010Prop57
140
1.0
102
RTVSPost2010PropOp57
 70
     0
  0
XRECORD
  5
1BA
102
{ACAD_REACTORS
330
1B9
102
}
330
1B9
100
AcDbXrecord
280
     1
102
RTVSPropertyOp0
 70
     1
102
RTVSPropertyOp1
 70
     1
102
RTVSPropertyOp2
 70
     1
102
RTVSPropertyOp3
 70
     1
102
RTVSPropertyOp4
 70
     1
102
RTVSPropertyOp5
 70
     1
102
RTVSPropertyOp6
 70
     1
102
RTVSPropertyOp7
 70
     1
102
RTVSPropertyOp8
 70
     1
102
RTVSPropertyOp9
 70
     1
102
RTVSPropertyOp10
 70
     1
102
RTVSPropertyOp11
 70
     1
102
RTVSPropertyOp12
 70
     1
102
RTVSPropertyOp13
 70
     1
102
RTVSPropertyOp14
 70
     1
102
RTVSPropertyOp15
 70
     1
102
RTVSPropertyOp16
 70
     1
102
RTVSPropertyOp17
 70
     1
102
RTVSPropertyOp18
 70
     1
102
RTVSPropertyOp19
 70
     1
102
RTVSPropertyOp20
 70
     1
102
RTVSPropertyOp21
 70
     1
102
RTVSPropertyOp22
 70
     1
102
RTVSPropertyOp23
 70
     1
102
RTVSPropertyOp24
 70
     1
102
RTVSPropertyOp25
 70
     1
102
RTVSPropertyOp26
 70
     1
102
RTVSPropertyOp27
 70
     1
102
RTVSPropertyOp28
 70
     1
102
RTVSPropertyOp29
 70
     1
102
RTVSPropertyOp30
 70
     1
102
RTVSPropertyOp31
 70
     1
102
RTVSPropertyOp32
 70
     1
102
RTVSPropertyOp33
 70
     1
102
RTVSPropertyOp34
 70
     1
102
RTVSPropertyOp35
 70
     1
102
RTVSPropertyOp36
 70
     1
102
RTVSPropertyOp37
 70
     1
102
RTVSPropertyOp38
 70
     1
102
RTVSPropertyOp39
 70
     1
102
RTVSPropertyOp40
 70
     1
102
RTVSPropertyOp41
 70
     1
102
RTVSPropertyOp42
 70
     1
102
RTVSPropertyOp43
 70
     1
102
RTVSPropertyOp44
 70
     1
102
RTVSPropertyOp45
 70
     1
102
RTVSPropertyOp46
 70
     1
102
RTVSPropertyOp47
 70
     1
102
RTVSPropertyOp48
 70
     1
102
RTVSPropertyOp49
 70
     1
102
RTVSPropertyOp50
 70
     1
102
RTVSPropertyOp51
 70
     0
102
RTVSPropertyOp52
 70
     0
102
RTVSPropertyOp53
 70
     1
102
RTVSPropertyOp54
 70
     1
102
RTVSPropertyOp55
 70
     1
102
RTVSPropertyOp56
 70
     1
102
RTVSPropertyOp57
 70
     1
102
RTVSPost2010Prop28
280
     0
102
RTVSPost2010PropOp28
 70
     1
102
RTVSPost2010Prop29
280
     1
102
RTVSPost2010PropOp29
 70
     1
102
RTVSPost2010Prop30
280
     1
102
RTVSPost2010PropOp30
 70
     1
102
RTVSPost2010Prop31
280
     0
102
RTVSPost2010PropOp31
 70
     1
102
RTVSPost2010Prop32
280
     0
102
RTVSPost2010PropOp32
 70
     1
102
RTVSPost2010Prop33
280
     0
102
RTVSPost2010PropOp33
 70
     1
102
RTVSPost2010Prop34
280
     0
102
RTVSPost2010PropOp34
 70
     1
102
RTVSPost2010Prop35
280
     0
102
RTVSPost2010PropOp35
 70
     1
102
RTVSPost2010Prop36
280
     0
102
RTVSPost2010PropOp36
 70
     1
102
RTVSPost2010Prop37
 90
       50
102
RTVSPost2010PropOp37
 70
     1
102
RTVSPost2010Prop38
140
0.0
102
RTVSPost2010PropOp38
 70
     1
102
RTVSPost2010Prop39
140
1.0
102
RTVSPost2010PropOp39
 70
     1
102
RTVSPost2010Prop40
 90
        0
102
RTVSPost2010PropOp40
 70
     1
102
RTVSPost2010Prop41ColorIndex
 90
       18
102
RTVSPost2010Prop41ColorRGB
 90
        0
102
RTVSPost2010PropOp41
 70
     1
102
RTVSPost2010Prop42
 90
       50
102
RTVSPost2010PropOp42
 70
     1
102
RTVSPost2010Prop43
 90
        3
102
RTVSPost2010PropOp43
 70
     1
102
RTVSPost2010Prop44ColorIndex
 90
        5
102
RTVSPost2010Prop44ColorRGB
 90
      255
102
RTVSPost2010PropOp44
 70
     1
102
RTVSPost2010Prop45
280
     0
102
RTVSPost2010PropOp45
 70
     1
102
RTVSPost2010Prop46
 90
       50
102
RTVSPost2010PropOp46
 70
     1
102
RTVSPost2010Prop47
 90
       50
102
RTVSPost2010PropOp47
 70
     1
102
RTVSPost2010Prop48
 90
       50
102
RTVSPost2010PropOp48
 70
     1
102
RTVSPost2010Prop49
280
     0
102
RTVSPost2010PropOp49
 70
     1
102
RTVSPost2010Prop50
 90
       50
102
RTVSPost2010PropOp50
 70
     1
102
RTVSPost2010Prop51ColorIndex
 90
      256
102
RTVSPost2010Prop51ColorRGB
 90
-16777216
102
RTVSPost2010PropOp51
 70
     0
102
RTVSPost2010Prop52
140
1.0
102
RTVSPost2010PropOp52
 70
     0
102
RTVSPost2010Prop53
 90
        2
102
RTVSPost2010PropOp53
 70
     1
102
RTVSPost2010Prop54
  1
strokes_ogs.tif
102
RTVSPost2010PropOp54
 70
     1
102
RTVSPost2010Prop55
280
     0
102
RTVSPost2010PropOp55
 70
     1
102
RTVSPost2010Prop56
140
1.0
102
RTVSPost2010PropOp56
 70
     1
102
RTVSPost2010Prop57
140
1.0
102
RTVSPost2010PropOp57
 70
     1
  0
XRECORD
  5
1D8
102
{ACAD_REACTORS
330
1D7
102
}
330
1D7
100
AcDbXrecord
280
     1
102
RTVSPropertyOp0
 70
     1
102
RTVSPropertyOp1
 70
     1
102
RTVSPropertyOp2
 70
     1
102
RTVSPropertyOp3
 70
     1
102
RTVSPropertyOp4
 70
     1
102
RTVSPropertyOp5
 70
     1
102
RTVSPropertyOp6
 70
     1
102
RTVSPropertyOp7
 70
     1
102
RTVSPropertyOp8
 70
     1
102
RTVSPropertyOp9
 70
     1
102
RTVSPropertyOp10
 70
     1
102
RTVSPropertyOp11
 70
     1
102
RTVSPropertyOp12
 70
     1
102
RTVSPropertyOp13
 70
     1
102
RTVSPropertyOp14
 70
     1
102
RTVSPropertyOp15
 70
     1
102
RTVSPropertyOp16
 70
     1
102
RTVSPropertyOp17
 70
     1
102
RTVSPropertyOp18
 70
     1
102
RTVSPropertyOp19
 70
     1
102
RTVSPropertyOp20
 70
     1
102
RTVSPropertyOp21
 70
     1
102
RTVSPropertyOp22
 70
     1
102
RTVSPropertyOp23
 70
     1
102
RTVSPropertyOp24
 70
     1
102
RTVSPropertyOp25
 70
     1
102
RTVSPropertyOp26
 70
     1
102
RTVSPropertyOp27
 70
     1
102
RTVSPropertyOp28
 70
     1
102
RTVSPropertyOp29
 70
     1
102
RTVSPropertyOp30
 70
     1
102
RTVSPropertyOp31
 70
     1
102
RTVSPropertyOp32
 70
     1
102
RTVSPropertyOp33
 70
     1
102
RTVSPropertyOp34
 70
     1
102
RTVSPropertyOp35
 70
     1
102
RTVSPropertyOp36
 70
     1
102
RTVSPropertyOp37
 70
     1
102
RTVSPropertyOp38
 70
     1
102
RTVSPropertyOp39
 70
     1
102
RTVSPropertyOp40
 70
     1
102
RTVSPropertyOp41
 70
     1
102
RTVSPropertyOp42
 70
     1
102
RTVSPropertyOp43
 70
     1
102
RTVSPropertyOp44
 70
     1
102
RTVSPropertyOp45
 70
     1
102
RTVSPropertyOp46
 70
     1
102
RTVSPropertyOp47
 70
     1
102
RTVSPropertyOp48
 70
     1
102
RTVSPropertyOp49
 70
     1
102
RTVSPropertyOp50
 70
     1
102
RTVSPropertyOp51
 70
     0
102
RTVSPropertyOp52
 70
     0
102
RTVSPropertyOp53
 70
     1
102
RTVSPropertyOp54
 70
     1
102
RTVSPropertyOp55
 70
     1
102
RTVSPropertyOp56
 70
     1
102
RTVSPropertyOp57
 70
     1
102
RTVSPost2010Prop28
280
     0
102
RTVSPost2010PropOp28
 70
     1
102
RTVSPost2010Prop29
280
     1
102
RTVSPost2010PropOp29
 70
     1
102
RTVSPost2010Prop30
280
     1
102
RTVSPost2010PropOp30
 70
     1
102
RTVSPost2010Prop31
280
     0
102
RTVSPost2010PropOp31
 70
     1
102
RTVSPost2010Prop32
280
     0
102
RTVSPost2010PropOp32
 70
     1
102
RTVSPost2010Prop33
280
     0
102
RTVSPost2010PropOp33
 70
     1
102
RTVSPost2010Prop34
280
     0
102
RTVSPost2010PropOp34
 70
     1
102
RTVSPost2010Prop35
280
     0
102
RTVSPost2010PropOp35
 70
     1
102
RTVSPost2010Prop36
280
     0
102
RTVSPost2010PropOp36
 70
     1
102
RTVSPost2010Prop37
 90
       50
102
RTVSPost2010PropOp37
 70
     1
102
RTVSPost2010Prop38
140
0.0
102
RTVSPost2010PropOp38
 70
     1
102
RTVSPost2010Prop39
140
1.0
102
RTVSPost2010PropOp39
 70
     1
102
RTVSPost2010Prop40
 90
        0
102
RTVSPost2010PropOp40
 70
     1
102
RTVSPost2010Prop41ColorIndex
 90
       18
102
RTVSPost2010Prop41ColorRGB
 90
        0
102
RTVSPost2010PropOp41
 70
     1
102
RTVSPost2010Prop42
 90
       50
102
RTVSPost2010PropOp42
 70
     1
102
RTVSPost2010Prop43
 90
        3
102
RTVSPost2010PropOp43
 70
     1
102
RTVSPost2010Prop44ColorIndex
 90
        5
102
RTVSPost2010Prop44ColorRGB
 90
      255
102
RTVSPost2010PropOp44
 70
     1
102
RTVSPost2010Prop45
280
     0
102
RTVSPost2010PropOp45
 70
     1
102
RTVSPost2010Prop46
 90
       50
102
RTVSPost2010PropOp46
 70
     1
102
RTVSPost2010Prop47
 90
       50
102
RTVSPost2010PropOp47
 70
     1
102
RTVSPost2010Prop48
 90
       50
102
RTVSPost2010PropOp48
 70
     1
102
RTVSPost2010Prop49
280
     0
102
RTVSPost2010PropOp49
 70
     1
102
RTVSPost2010Prop50
 90
       50
102
RTVSPost2010PropOp50
 70
     1
102
RTVSPost2010Prop51ColorIndex
 90
      256
102
RTVSPost2010Prop51ColorRGB
 90
-16777216
102
RTVSPost2010PropOp51
 70
     0
102
RTVSPost2010Prop52
140
1.0
102
RTVSPost2010PropOp52
 70
     0
102
RTVSPost2010Prop53
 90
        2
102
RTVSPost2010PropOp53
 70
     1
102
RTVSPost2010Prop54
  1
strokes_ogs.tif
102
RTVSPost2010PropOp54
 70
     1
102
RTVSPost2010Prop55
280
     0
102
RTVSPost2010PropOp55
 70
     1
102
RTVSPost2010Prop56
140
1.0
102
RTVSPost2010PropOp56
 70
     1
102
RTVSPost2010Prop57
140
1.0
102
RTVSPost2010PropOp57
 70
     1
  0
XRECORD
  5
1D6
102
{ACAD_REACTORS
330
1D5
102
}
330
1D5
100
AcDbXrecord
280
     1
102
RTVSPropertyOp0
 70
     1
102
RTVSPropertyOp1
 70
     1
102
RTVSPropertyOp2
 70
     1
102
RTVSPropertyOp3
 70
     1
102
RTVSPropertyOp4
 70
     1
102
RTVSPropertyOp5
 70
     1
102
RTVSPropertyOp6
 70
     1
102
RTVSPropertyOp7
 70
     1
102
RTVSPropertyOp8
 70
     1
102
RTVSPropertyOp9
 70
     1
102
RTVSPropertyOp10
 70
     1
102
RTVSPropertyOp11
 70
     1
102
RTVSPropertyOp12
 70
     1
102
RTVSPropertyOp13
 70
     1
102
RTVSPropertyOp14
 70
     1
102
RTVSPropertyOp15
 70
     1
102
RTVSPropertyOp16
 70
     1
102
RTVSPropertyOp17
 70
     1
102
RTVSPropertyOp18
 70
     1
102
RTVSPropertyOp19
 70
     1
102
RTVSPropertyOp20
 70
     1
102
RTVSPropertyOp21
 70
     1
102
RTVSPropertyOp22
 70
     1
102
RTVSPropertyOp23
 70
     1
102
RTVSPropertyOp24
 70
     1
102
RTVSPropertyOp25
 70
     1
102
RTVSPropertyOp26
 70
     1
102
RTVSPropertyOp27
 70
     1
102
RTVSPropertyOp28
 70
     1
102
RTVSPropertyOp29
 70
     1
102
RTVSPropertyOp30
 70
     1
102
RTVSPropertyOp31
 70
     1
102
RTVSPropertyOp32
 70
     1
102
RTVSPropertyOp33
 70
     1
102
RTVSPropertyOp34
 70
     1
102
RTVSPropertyOp35
 70
     1
102
RTVSPropertyOp36
 70
     1
102
RTVSPropertyOp37
 70
     1
102
RTVSPropertyOp38
 70
     1
102
RTVSPropertyOp39
 70
     1
102
RTVSPropertyOp40
 70
     1
102
RTVSPropertyOp41
 70
     1
102
RTVSPropertyOp42
 70
     1
102
RTVSPropertyOp43
 70
     1
102
RTVSPropertyOp44
 70
     1
102
RTVSPropertyOp45
 70
     1
102
RTVSPropertyOp46
 70
     1
102
RTVSPropertyOp47
 70
     1
102
RTVSPropertyOp48
 70
     1
102
RTVSPropertyOp49
 70
     1
102
RTVSPropertyOp50
 70
     1
102
RTVSPropertyOp51
 70
     0
102
RTVSPropertyOp52
 70
     0
102
RTVSPropertyOp53
 70
     1
102
RTVSPropertyOp54
 70
     1
102
RTVSPropertyOp55
 70
     1
102
RTVSPropertyOp56
 70
     1
102
RTVSPropertyOp57
 70
     1
102
RTVSPost2010Prop28
280
     0
102
RTVSPost2010PropOp28
 70
     1
102
RTVSPost2010Prop29
280
     1
102
RTVSPost2010PropOp29
 70
     1
102
RTVSPost2010Prop30
280
     1
102
RTVSPost2010PropOp30
 70
     1
102
RTVSPost2010Prop31
280
     0
102
RTVSPost2010PropOp31
 70
     1
102
RTVSPost2010Prop32
280
     0
102
RTVSPost2010PropOp32
 70
     1
102
RTVSPost2010Prop33
280
     0
102
RTVSPost2010PropOp33
 70
     1
102
RTVSPost2010Prop34
280
     0
102
RTVSPost2010PropOp34
 70
     1
102
RTVSPost2010Prop35
280
     0
102
RTVSPost2010PropOp35
 70
     1
102
RTVSPost2010Prop36
280
     0
102
RTVSPost2010PropOp36
 70
     1
102
RTVSPost2010Prop37
 90
       50
102
RTVSPost2010PropOp37
 70
     1
102
RTVSPost2010Prop38
140
0.0
102
RTVSPost2010PropOp38
 70
     1
102
RTVSPost2010Prop39
140
1.0
102
RTVSPost2010PropOp39
 70
     1
102
RTVSPost2010Prop40
 90
        0
102
RTVSPost2010PropOp40
 70
     1
102
RTVSPost2010Prop41ColorIndex
 90
       18
102
RTVSPost2010Prop41ColorRGB
 90
        0
102
RTVSPost2010PropOp41
 70
     1
102
RTVSPost2010Prop42
 90
       50
102
RTVSPost2010PropOp42
 70
     1
102
RTVSPost2010Prop43
 90
        3
102
RTVSPost2010PropOp43
 70
     1
102
RTVSPost2010Prop44ColorIndex
 90
        5
102
RTVSPost2010Prop44ColorRGB
 90
      255
102
RTVSPost2010PropOp44
 70
     1
102
RTVSPost2010Prop45
280
     0
102
RTVSPost2010PropOp45
 70
     1
102
RTVSPost2010Prop46
 90
       50
102
RTVSPost2010PropOp46
 70
     1
102
RTVSPost2010Prop47
 90
       50
102
RTVSPost2010PropOp47
 70
     1
102
RTVSPost2010Prop48
 90
       50
102
RTVSPost2010PropOp48
 70
     1
102
RTVSPost2010Prop49
280
     0
102
RTVSPost2010PropOp49
 70
     1
102
RTVSPost2010Prop50
 90
       50
102
RTVSPost2010PropOp50
 70
     1
102
RTVSPost2010Prop51ColorIndex
 90
      256
102
RTVSPost2010Prop51ColorRGB
 90
-16777216
102
RTVSPost2010PropOp51
 70
     0
102
RTVSPost2010Prop52
140
1.0
102
RTVSPost2010PropOp52
 70
     0
102
RTVSPost2010Prop53
 90
        2
102
RTVSPost2010PropOp53
 70
     1
102
RTVSPost2010Prop54
  1
strokes_ogs.tif
102
RTVSPost2010PropOp54
 70
     1
102
RTVSPost2010Prop55
280
     0
102
RTVSPost2010PropOp55
 70
     1
102
RTVSPost2010Prop56
140
1.0
102
RTVSPost2010PropOp56
 70
     1
102
RTVSPost2010Prop57
140
1.0
102
RTVSPost2010PropOp57
 70
     1
  0
XRECORD
  5
1D0
102
{ACAD_REACTORS
330
1CF
102
}
330
1CF
100
AcDbXrecord
280
     1
102
RTVSPropertyOp0
 70
     1
102
RTVSPropertyOp1
 70
     1
102
RTVSPropertyOp2
 70
     1
102
RTVSPropertyOp3
 70
     1
102
RTVSPropertyOp4
 70
     1
102
RTVSPropertyOp5
 70
     1
102
RTVSPropertyOp6
 70
     1
102
RTVSPropertyOp7
 70
     1
102
RTVSPropertyOp8
 70
     1
102
RTVSPropertyOp9
 70
     1
102
RTVSPropertyOp10
 70
     1
102
RTVSPropertyOp11
 70
     1
102
RTVSPropertyOp12
 70
     1
102
RTVSPropertyOp13
 70
     1
102
RTVSPropertyOp14
 70
     1
102
RTVSPropertyOp15
 70
     1
102
RTVSPropertyOp16
 70
     1
102
RTVSPropertyOp17
 70
     1
102
RTVSPropertyOp18
 70
     1
102
RTVSPropertyOp19
 70
     1
102
RTVSPropertyOp20
 70
     1
102
RTVSPropertyOp21
 70
     1
102
RTVSPropertyOp22
 70
     1
102
RTVSPropertyOp23
 70
     1
102
RTVSPropertyOp24
 70
     1
102
RTVSPropertyOp25
 70
     1
102
RTVSPropertyOp26
 70
     1
102
RTVSPropertyOp27
 70
     1
102
RTVSPropertyOp28
 70
     1
102
RTVSPropertyOp29
 70
     1
102
RTVSPropertyOp30
 70
     1
102
RTVSPropertyOp31
 70
     1
102
RTVSPropertyOp32
 70
     1
102
RTVSPropertyOp33
 70
     1
102
RTVSPropertyOp34
 70
     1
102
RTVSPropertyOp35
 70
     1
102
RTVSPropertyOp36
 70
     1
102
RTVSPropertyOp37
 70
     1
102
RTVSPropertyOp38
 70
     1
102
RTVSPropertyOp39
 70
     1
102
RTVSPropertyOp40
 70
     1
102
RTVSPropertyOp41
 70
     1
102
RTVSPropertyOp42
 70
     1
102
RTVSPropertyOp43
 70
     1
102
RTVSPropertyOp44
 70
     1
102
RTVSPropertyOp45
 70
     1
102
RTVSPropertyOp46
 70
     1
102
RTVSPropertyOp47
 70
     1
102
RTVSPropertyOp48
 70
     1
102
RTVSPropertyOp49
 70
     1
102
RTVSPropertyOp50
 70
     1
102
RTVSPropertyOp51
 70
     0
102
RTVSPropertyOp52
 70
     0
102
RTVSPropertyOp53
 70
     1
102
RTVSPropertyOp54
 70
     1
102
RTVSPropertyOp55
 70
     1
102
RTVSPropertyOp56
 70
     1
102
RTVSPropertyOp57
 70
     1
102
RTVSPost2010Prop28
280
     0
102
RTVSPost2010PropOp28
 70
     1
102
RTVSPost2010Prop29
280
     1
102
RTVSPost2010PropOp29
 70
     1
102
RTVSPost2010Prop30
280
     1
102
RTVSPost2010PropOp30
 70
     1
102
RTVSPost2010Prop31
280
     0
102
RTVSPost2010PropOp31
 70
     1
102
RTVSPost2010Prop32
280
     0
102
RTVSPost2010PropOp32
 70
     1
102
RTVSPost2010Prop33
280
     0
102
RTVSPost2010PropOp33
 70
     1
102
RTVSPost2010Prop34
280
     0
102
RTVSPost2010PropOp34
 70
     1
102
RTVSPost2010Prop35
280
     0
102
RTVSPost2010PropOp35
 70
     1
102
RTVSPost2010Prop36
280
     0
102
RTVSPost2010PropOp36
 70
     1
102
RTVSPost2010Prop37
 90
       50
102
RTVSPost2010PropOp37
 70
     1
102
RTVSPost2010Prop38
140
0.0
102
RTVSPost2010PropOp38
 70
     1
102
RTVSPost2010Prop39
140
1.0
102
RTVSPost2010PropOp39
 70
     1
102
RTVSPost2010Prop40
 90
        0
102
RTVSPost2010PropOp40
 70
     1
102
RTVSPost2010Prop41ColorIndex
 90
       18
102
RTVSPost2010Prop41ColorRGB
 90
        0
102
RTVSPost2010PropOp41
 70
     1
102
RTVSPost2010Prop42
 90
       50
102
RTVSPost2010PropOp42
 70
     1
102
RTVSPost2010Prop43
 90
        3
102
RTVSPost2010PropOp43
 70
     1
102
RTVSPost2010Prop44ColorIndex
 90
        5
102
RTVSPost2010Prop44ColorRGB
 90
      255
102
RTVSPost2010PropOp44
 70
     1
102
RTVSPost2010Prop45
280
     0
102
RTVSPost2010PropOp45
 70
     1
102
RTVSPost2010Prop46
 90
       50
102
RTVSPost2010PropOp46
 70
     1
102
RTVSPost2010Prop47
 90
       50
102
RTVSPost2010PropOp47
 70
     1
102
RTVSPost2010Prop48
 90
       50
102
RTVSPost2010PropOp48
 70
     1
102
RTVSPost2010Prop49
280
     0
102
RTVSPost2010PropOp49
 70
     1
102
RTVSPost2010Prop50
 90
       50
102
RTVSPost2010PropOp50
 70
     1
102
RTVSPost2010Prop51ColorIndex
 90
      256
102
RTVSPost2010Prop51ColorRGB
 90
-16777216
102
RTVSPost2010PropOp51
 70
     0
102
RTVSPost2010Prop52
140
1.0
102
RTVSPost2010PropOp52
 70
     0
102
RTVSPost2010Prop53
 90
        2
102
RTVSPost2010PropOp53
 70
     1
102
RTVSPost2010Prop54
  1
strokes_ogs.tif
102
RTVSPost2010PropOp54
 70
     1
102
RTVSPost2010Prop55
280
     0
102
RTVSPost2010PropOp55
 70
     1
102
RTVSPost2010Prop56
140
1.0
102
RTVSPost2010PropOp56
 70
     1
102
RTVSPost2010Prop57
140
1.0
102
RTVSPost2010PropOp57
 70
     1
  0
XRECORD
  5
1D2
102
{ACAD_REACTORS
330
1D1
102
}
330
1D1
100
AcDbXrecord
280
     1
102
RTVSPropertyOp0
 70
     1
102
RTVSPropertyOp1
 70
     1
102
RTVSPropertyOp2
 70
     1
102
RTVSPropertyOp3
 70
     1
102
RTVSPropertyOp4
 70
     1
102
RTVSPropertyOp5
 70
     1
102
RTVSPropertyOp6
 70
     1
102
RTVSPropertyOp7
 70
     1
102
RTVSPropertyOp8
 70
     1
102
RTVSPropertyOp9
 70
     1
102
RTVSPropertyOp10
 70
     1
102
RTVSPropertyOp11
 70
     1
102
RTVSPropertyOp12
 70
     1
102
RTVSPropertyOp13
 70
     1
102
RTVSPropertyOp14
 70
     1
102
RTVSPropertyOp15
 70
     1
102
RTVSPropertyOp16
 70
     1
102
RTVSPropertyOp17
 70
     1
102
RTVSPropertyOp18
 70
     1
102
RTVSPropertyOp19
 70
     1
102
RTVSPropertyOp20
 70
     1
102
RTVSPropertyOp21
 70
     1
102
RTVSPropertyOp22
 70
     1
102
RTVSPropertyOp23
 70
     1
102
RTVSPropertyOp24
 70
     1
102
RTVSPropertyOp25
 70
     1
102
RTVSPropertyOp26
 70
     1
102
RTVSPropertyOp27
 70
     1
102
RTVSPropertyOp28
 70
     1
102
RTVSPropertyOp29
 70
     1
102
RTVSPropertyOp30
 70
     1
102
RTVSPropertyOp31
 70
     1
102
RTVSPropertyOp32
 70
     1
102
RTVSPropertyOp33
 70
     1
102
RTVSPropertyOp34
 70
     1
102
RTVSPropertyOp35
 70
     1
102
RTVSPropertyOp36
 70
     1
102
RTVSPropertyOp37
 70
     1
102
RTVSPropertyOp38
 70
     1
102
RTVSPropertyOp39
 70
     1
102
RTVSPropertyOp40
 70
     1
102
RTVSPropertyOp41
 70
     1
102
RTVSPropertyOp42
 70
     1
102
RTVSPropertyOp43
 70
     1
102
RTVSPropertyOp44
 70
     1
102
RTVSPropertyOp45
 70
     1
102
RTVSPropertyOp46
 70
     1
102
RTVSPropertyOp47
 70
     1
102
RTVSPropertyOp48
 70
     1
102
RTVSPropertyOp49
 70
     1
102
RTVSPropertyOp50
 70
     1
102
RTVSPropertyOp51
 70
     0
102
RTVSPropertyOp52
 70
     0
102
RTVSPropertyOp53
 70
     1
102
RTVSPropertyOp54
 70
     1
102
RTVSPropertyOp55
 70
     1
102
RTVSPropertyOp56
 70
     1
102
RTVSPropertyOp57
 70
     1
102
RTVSPost2010Prop28
280
     0
102
RTVSPost2010PropOp28
 70
     1
102
RTVSPost2010Prop29
280
     1
102
RTVSPost2010PropOp29
 70
     1
102
RTVSPost2010Prop30
280
     1
102
RTVSPost2010PropOp30
 70
     1
102
RTVSPost2010Prop31
280
     0
102
RTVSPost2010PropOp31
 70
     1
102
RTVSPost2010Prop32
280
     0
102
RTVSPost2010PropOp32
 70
     1
102
RTVSPost2010Prop33
280
     0
102
RTVSPost2010PropOp33
 70
     1
102
RTVSPost2010Prop34
280
     0
102
RTVSPost2010PropOp34
 70
     1
102
RTVSPost2010Prop35
280
     0
102
RTVSPost2010PropOp35
 70
     1
102
RTVSPost2010Prop36
280
     0
102
RTVSPost2010PropOp36
 70
     1
102
RTVSPost2010Prop37
 90
       50
102
RTVSPost2010PropOp37
 70
     1
102
RTVSPost2010Prop38
140
0.0
102
RTVSPost2010PropOp38
 70
     1
102
RTVSPost2010Prop39
140
1.0
102
RTVSPost2010PropOp39
 70
     1
102
RTVSPost2010Prop40
 90
        0
102
RTVSPost2010PropOp40
 70
     1
102
RTVSPost2010Prop41ColorIndex
 90
       18
102
RTVSPost2010Prop41ColorRGB
 90
        0
102
RTVSPost2010PropOp41
 70
     1
102
RTVSPost2010Prop42
 90
       50
102
RTVSPost2010PropOp42
 70
     1
102
RTVSPost2010Prop43
 90
        3
102
RTVSPost2010PropOp43
 70
     1
102
RTVSPost2010Prop44ColorIndex
 90
        5
102
RTVSPost2010Prop44ColorRGB
 90
      255
102
RTVSPost2010PropOp44
 70
     1
102
RTVSPost2010Prop45
280
     0
102
RTVSPost2010PropOp45
 70
     1
102
RTVSPost2010Prop46
 90
       50
102
RTVSPost2010PropOp46
 70
     1
102
RTVSPost2010Prop47
 90
       50
102
RTVSPost2010PropOp47
 70
     1
102
RTVSPost2010Prop48
 90
       50
102
RTVSPost2010PropOp48
 70
     1
102
RTVSPost2010Prop49
280
     0
102
RTVSPost2010PropOp49
 70
     1
102
RTVSPost2010Prop50
 90
       50
102
RTVSPost2010PropOp50
 70
     1
102
RTVSPost2010Prop51ColorIndex
 90
      256
102
RTVSPost2010Prop51ColorRGB
 90
-16777216
102
RTVSPost2010PropOp51
 70
     0
102
RTVSPost2010Prop52
140
1.0
102
RTVSPost2010PropOp52
 70
     0
102
RTVSPost2010Prop53
 90
        2
102
RTVSPost2010PropOp53
 70
     1
102
RTVSPost2010Prop54
  1
strokes_ogs.tif
102
RTVSPost2010PropOp54
 70
     1
102
RTVSPost2010Prop55
280
     0
102
RTVSPost2010PropOp55
 70
     1
102
RTVSPost2010Prop56
140
1.0
102
RTVSPost2010PropOp56
 70
     1
102
RTVSPost2010Prop57
140
1.0
102
RTVSPost2010PropOp57
 70
     1
  0
XRECORD
  5
1C2
102
{ACAD_REACTORS
330
1C1
102
}
330
1C1
100
AcDbXrecord
280
     1
102
RTVSPropertyOp0
 70
     1
102
RTVSPropertyOp1
 70
     1
102
RTVSPropertyOp2
 70
     1
102
RTVSPropertyOp3
 70
     1
102
RTVSPropertyOp4
 70
     1
102
RTVSPropertyOp5
 70
     1
102
RTVSPropertyOp6
 70
     1
102
RTVSPropertyOp7
 70
     1
102
RTVSPropertyOp8
 70
     1
102
RTVSPropertyOp9
 70
     1
102
RTVSPropertyOp10
 70
     1
102
RTVSPropertyOp11
 70
     1
102
RTVSPropertyOp12
 70
     1
102
RTVSPropertyOp13
 70
     1
102
RTVSPropertyOp14
 70
     1
102
RTVSPropertyOp15
 70
     1
102
RTVSPropertyOp16
 70
     1
102
RTVSPropertyOp17
 70
     1
102
RTVSPropertyOp18
 70
     1
102
RTVSPropertyOp19
 70
     1
102
RTVSPropertyOp20
 70
     1
102
RTVSPropertyOp21
 70
     1
102
RTVSPropertyOp22
 70
     1
102
RTVSPropertyOp23
 70
     1
102
RTVSPropertyOp24
 70
     1
102
RTVSPropertyOp25
 70
     1
102
RTVSPropertyOp26
 70
     1
102
RTVSPropertyOp27
 70
     1
102
RTVSPropertyOp28
 70
     1
102
RTVSPropertyOp29
 70
     1
102
RTVSPropertyOp30
 70
     1
102
RTVSPropertyOp31
 70
     1
102
RTVSPropertyOp32
 70
     1
102
RTVSPropertyOp33
 70
     1
102
RTVSPropertyOp34
 70
     1
102
RTVSPropertyOp35
 70
     1
102
RTVSPropertyOp36
 70
     1
102
RTVSPropertyOp37
 70
     1
102
RTVSPropertyOp38
 70
     1
102
RTVSPropertyOp39
 70
     1
102
RTVSPropertyOp40
 70
     1
102
RTVSPropertyOp41
 70
     1
102
RTVSPropertyOp42
 70
     1
102
RTVSPropertyOp43
 70
     1
102
RTVSPropertyOp44
 70
     1
102
RTVSPropertyOp45
 70
     1
102
RTVSPropertyOp46
 70
     1
102
RTVSPropertyOp47
 70
     1
102
RTVSPropertyOp48
 70
     1
102
RTVSPropertyOp49
 70
     1
102
RTVSPropertyOp50
 70
     1
102
RTVSPropertyOp51
 70
     0
102
RTVSPropertyOp52
 70
     0
102
RTVSPropertyOp53
 70
     1
102
RTVSPropertyOp54
 70
     1
102
RTVSPropertyOp55
 70
     1
102
RTVSPropertyOp56
 70
     1
102
RTVSPropertyOp57
 70
     1
102
RTVSPost2010Prop28
280
     0
102
RTVSPost2010PropOp28
 70
     1
102
RTVSPost2010Prop29
280
     1
102
RTVSPost2010PropOp29
 70
     1
102
RTVSPost2010Prop30
280
     1
102
RTVSPost2010PropOp30
 70
     1
102
RTVSPost2010Prop31
280
     0
102
RTVSPost2010PropOp31
 70
     1
102
RTVSPost2010Prop32
280
     0
102
RTVSPost2010PropOp32
 70
     1
102
RTVSPost2010Prop33
280
     0
102
RTVSPost2010PropOp33
 70
     1
102
RTVSPost2010Prop34
280
     0
102
RTVSPost2010PropOp34
 70
     1
102
RTVSPost2010Prop35
280
     0
102
RTVSPost2010PropOp35
 70
     1
102
RTVSPost2010Prop36
280
     0
102
RTVSPost2010PropOp36
 70
     1
102
RTVSPost2010Prop37
 90
       50
102
RTVSPost2010PropOp37
 70
     1
102
RTVSPost2010Prop38
140
0.0
102
RTVSPost2010PropOp38
 70
     1
102
RTVSPost2010Prop39
140
1.0
102
RTVSPost2010PropOp39
 70
     1
102
RTVSPost2010Prop40
 90
        0
102
RTVSPost2010PropOp40
 70
     1
102
RTVSPost2010Prop41ColorIndex
 90
       18
102
RTVSPost2010Prop41ColorRGB
 90
        0
102
RTVSPost2010PropOp41
 70
     1
102
RTVSPost2010Prop42
 90
       50
102
RTVSPost2010PropOp42
 70
     1
102
RTVSPost2010Prop43
 90
        3
102
RTVSPost2010PropOp43
 70
     1
102
RTVSPost2010Prop44ColorIndex
 90
        5
102
RTVSPost2010Prop44ColorRGB
 90
      255
102
RTVSPost2010PropOp44
 70
     1
102
RTVSPost2010Prop45
280
     0
102
RTVSPost2010PropOp45
 70
     1
102
RTVSPost2010Prop46
 90
       50
102
RTVSPost2010PropOp46
 70
     1
102
RTVSPost2010Prop47
 90
       50
102
RTVSPost2010PropOp47
 70
     1
102
RTVSPost2010Prop48
 90
       50
102
RTVSPost2010PropOp48
 70
     1
102
RTVSPost2010Prop49
280
     0
102
RTVSPost2010PropOp49
 70
     1
102
RTVSPost2010Prop50
 90
       50
102
RTVSPost2010PropOp50
 70
     1
102
RTVSPost2010Prop51ColorIndex
 90
      256
102
RTVSPost2010Prop51ColorRGB
 90
-16777216
102
RTVSPost2010PropOp51
 70
     0
102
RTVSPost2010Prop52
140
1.0
102
RTVSPost2010PropOp52
 70
     0
102
RTVSPost2010Prop53
 90
        2
102
RTVSPost2010PropOp53
 70
     1
102
RTVSPost2010Prop54
  1
strokes_ogs.tif
102
RTVSPost2010PropOp54
 70
     1
102
RTVSPost2010Prop55
280
     0
102
RTVSPost2010PropOp55
 70
     1
102
RTVSPost2010Prop56
140
1.0
102
RTVSPost2010PropOp56
 70
     1
102
RTVSPost2010Prop57
140
1.0
102
RTVSPost2010PropOp57
 70
     1
  0
XRECORD
  5
1B4
102
{ACAD_REACTORS
330
1B3
102
}
330
1B3
100
AcDbXrecord
280
     1
102
RTVSPropertyOp0
 70
     1
102
RTVSPropertyOp1
 70
     1
102
RTVSPropertyOp2
 70
     1
102
RTVSPropertyOp3
 70
     1
102
RTVSPropertyOp4
 70
     1
102
RTVSPropertyOp5
 70
     1
102
RTVSPropertyOp6
 70
     1
102
RTVSPropertyOp7
 70
     1
102
RTVSPropertyOp8
 70
     1
102
RTVSPropertyOp9
 70
     1
102
RTVSPropertyOp10
 70
     1
102
RTVSPropertyOp11
 70
     1
102
RTVSPropertyOp12
 70
     1
102
RTVSPropertyOp13
 70
     1
102
RTVSPropertyOp14
 70
     1
102
RTVSPropertyOp15
 70
     1
102
RTVSPropertyOp16
 70
     1
102
RTVSPropertyOp17
 70
     1
102
RTVSPropertyOp18
 70
     1
102
RTVSPropertyOp19
 70
     1
102
RTVSPropertyOp20
 70
     1
102
RTVSPropertyOp21
 70
     1
102
RTVSPropertyOp22
 70
     1
102
RTVSPropertyOp23
 70
     1
102
RTVSPropertyOp24
 70
     1
102
RTVSPropertyOp25
 70
     1
102
RTVSPropertyOp26
 70
     1
102
RTVSPropertyOp27
 70
     1
102
RTVSPropertyOp28
 70
     1
102
RTVSPropertyOp29
 70
     1
102
RTVSPropertyOp30
 70
     1
102
RTVSPropertyOp31
 70
     1
102
RTVSPropertyOp32
 70
     1
102
RTVSPropertyOp33
 70
     1
102
RTVSPropertyOp34
 70
     1
102
RTVSPropertyOp35
 70
     1
102
RTVSPropertyOp36
 70
     1
102
RTVSPropertyOp37
 70
     1
102
RTVSPropertyOp38
 70
     1
102
RTVSPropertyOp39
 70
     1
102
RTVSPropertyOp40
 70
     1
102
RTVSPropertyOp41
 70
     1
102
RTVSPropertyOp42
 70
     1
102
RTVSPropertyOp43
 70
     1
102
RTVSPropertyOp44
 70
     1
102
RTVSPropertyOp45
 70
     1
102
RTVSPropertyOp46
 70
     1
102
RTVSPropertyOp47
 70
     1
102
RTVSPropertyOp48
 70
     1
102
RTVSPropertyOp49
 70
     1
102
RTVSPropertyOp50
 70
     1
102
RTVSPropertyOp51
 70
     0
102
RTVSPropertyOp52
 70
     0
102
RTVSPropertyOp53
 70
     1
102
RTVSPropertyOp54
 70
     1
102
RTVSPropertyOp55
 70
     1
102
RTVSPropertyOp56
 70
     1
102
RTVSPropertyOp57
 70
     1
102
RTVSPost2010Prop28
280
     0
102
RTVSPost2010PropOp28
 70
     1
102
RTVSPost2010Prop29
280
     1
102
RTVSPost2010PropOp29
 70
     1
102
RTVSPost2010Prop30
280
     1
102
RTVSPost2010PropOp30
 70
     1
102
RTVSPost2010Prop31
280
     0
102
RTVSPost2010PropOp31
 70
     1
102
RTVSPost2010Prop32
280
     0
102
RTVSPost2010PropOp32
 70
     1
102
RTVSPost2010Prop33
280
     0
102
RTVSPost2010PropOp33
 70
     1
102
RTVSPost2010Prop34
280
     0
102
RTVSPost2010PropOp34
 70
     1
102
RTVSPost2010Prop35
280
     0
102
RTVSPost2010PropOp35
 70
     1
102
RTVSPost2010Prop36
280
     0
102
RTVSPost2010PropOp36
 70
     1
102
RTVSPost2010Prop37
 90
       50
102
RTVSPost2010PropOp37
 70
     1
102
RTVSPost2010Prop38
140
0.0
102
RTVSPost2010PropOp38
 70
     1
102
RTVSPost2010Prop39
140
1.0
102
RTVSPost2010PropOp39
 70
     1
102
RTVSPost2010Prop40
 90
        0
102
RTVSPost2010PropOp40
 70
     1
102
RTVSPost2010Prop41ColorIndex
 90
       18
102
RTVSPost2010Prop41ColorRGB
 90
        0
102
RTVSPost2010PropOp41
 70
     1
102
RTVSPost2010Prop42
 90
       50
102
RTVSPost2010PropOp42
 70
     1
102
RTVSPost2010Prop43
 90
        3
102
RTVSPost2010PropOp43
 70
     1
102
RTVSPost2010Prop44ColorIndex
 90
        5
102
RTVSPost2010Prop44ColorRGB
 90
      255
102
RTVSPost2010PropOp44
 70
     1
102
RTVSPost2010Prop45
280
     0
102
RTVSPost2010PropOp45
 70
     1
102
RTVSPost2010Prop46
 90
       50
102
RTVSPost2010PropOp46
 70
     1
102
RTVSPost2010Prop47
 90
       50
102
RTVSPost2010PropOp47
 70
     1
102
RTVSPost2010Prop48
 90
       50
102
RTVSPost2010PropOp48
 70
     1
102
RTVSPost2010Prop49
280
     0
102
RTVSPost2010PropOp49
 70
     1
102
RTVSPost2010Prop50
 90
       50
102
RTVSPost2010PropOp50
 70
     1
102
RTVSPost2010Prop51ColorIndex
 90
      256
102
RTVSPost2010Prop51ColorRGB
 90
-16777216
102
RTVSPost2010PropOp51
 70
     0
102
RTVSPost2010Prop52
140
1.0
102
RTVSPost2010PropOp52
 70
     0
102
RTVSPost2010Prop53
 90
        2
102
RTVSPost2010PropOp53
 70
     1
102
RTVSPost2010Prop54
  1
strokes_ogs.tif
102
RTVSPost2010PropOp54
 70
     1
102
RTVSPost2010Prop55
280
     0
102
RTVSPost2010PropOp55
 70
     1
102
RTVSPost2010Prop56
140
1.0
102
RTVSPost2010PropOp56
 70
     1
102
RTVSPost2010Prop57
140
1.0
102
RTVSPost2010PropOp57
 70
     1
  0
XRECORD
  5
1D4
102
{ACAD_REACTORS
330
1D3
102
}
330
1D3
100
AcDbXrecord
280
     1
102
RTVSPropertyOp0
 70
     1
102
RTVSPropertyOp1
 70
     1
102
RTVSPropertyOp2
 70
     1
102
RTVSPropertyOp3
 70
     1
102
RTVSPropertyOp4
 70
     1
102
RTVSPropertyOp5
 70
     1
102
RTVSPropertyOp6
 70
     1
102
RTVSPropertyOp7
 70
     1
102
RTVSPropertyOp8
 70
     1
102
RTVSPropertyOp9
 70
     1
102
RTVSPropertyOp10
 70
     1
102
RTVSPropertyOp11
 70
     1
102
RTVSPropertyOp12
 70
     1
102
RTVSPropertyOp13
 70
     1
102
RTVSPropertyOp14
 70
     1
102
RTVSPropertyOp15
 70
     1
102
RTVSPropertyOp16
 70
     1
102
RTVSPropertyOp17
 70
     1
102
RTVSPropertyOp18
 70
     1
102
RTVSPropertyOp19
 70
     1
102
RTVSPropertyOp20
 70
     1
102
RTVSPropertyOp21
 70
     1
102
RTVSPropertyOp22
 70
     1
102
RTVSPropertyOp23
 70
     1
102
RTVSPropertyOp24
 70
     1
102
RTVSPropertyOp25
 70
     1
102
RTVSPropertyOp26
 70
     1
102
RTVSPropertyOp27
 70
     1
102
RTVSPropertyOp28
 70
     1
102
RTVSPropertyOp29
 70
     1
102
RTVSPropertyOp30
 70
     1
102
RTVSPropertyOp31
 70
     1
102
RTVSPropertyOp32
 70
     1
102
RTVSPropertyOp33
 70
     1
102
RTVSPropertyOp34
 70
     1
102
RTVSPropertyOp35
 70
     1
102
RTVSPropertyOp36
 70
     1
102
RTVSPropertyOp37
 70
     1
102
RTVSPropertyOp38
 70
     1
102
RTVSPropertyOp39
 70
     1
102
RTVSPropertyOp40
 70
     1
102
RTVSPropertyOp41
 70
     1
102
RTVSPropertyOp42
 70
     1
102
RTVSPropertyOp43
 70
     1
102
RTVSPropertyOp44
 70
     1
102
RTVSPropertyOp45
 70
     1
102
RTVSPropertyOp46
 70
     1
102
RTVSPropertyOp47
 70
     1
102
RTVSPropertyOp48
 70
     1
102
RTVSPropertyOp49
 70
     1
102
RTVSPropertyOp50
 70
     1
102
RTVSPropertyOp51
 70
     0
102
RTVSPropertyOp52
 70
     0
102
RTVSPropertyOp53
 70
     1
102
RTVSPropertyOp54
 70
     1
102
RTVSPropertyOp55
 70
     1
102
RTVSPropertyOp56
 70
     1
102
RTVSPropertyOp57
 70
     1
102
RTVSPost2010Prop28
280
     0
102
RTVSPost2010PropOp28
 70
     1
102
RTVSPost2010Prop29
280
     1
102
RTVSPost2010PropOp29
 70
     1
102
RTVSPost2010Prop30
280
     1
102
RTVSPost2010PropOp30
 70
     1
102
RTVSPost2010Prop31
280
     0
102
RTVSPost2010PropOp31
 70
     1
102
RTVSPost2010Prop32
280
     0
102
RTVSPost2010PropOp32
 70
     1
102
RTVSPost2010Prop33
280
     0
102
RTVSPost2010PropOp33
 70
     1
102
RTVSPost2010Prop34
280
     0
102
RTVSPost2010PropOp34
 70
     1
102
RTVSPost2010Prop35
280
     0
102
RTVSPost2010PropOp35
 70
     1
102
RTVSPost2010Prop36
280
     0
102
RTVSPost2010PropOp36
 70
     1
102
RTVSPost2010Prop37
 90
       50
102
RTVSPost2010PropOp37
 70
     1
102
RTVSPost2010Prop38
140
0.0
102
RTVSPost2010PropOp38
 70
     1
102
RTVSPost2010Prop39
140
1.0
102
RTVSPost2010PropOp39
 70
     1
102
RTVSPost2010Prop40
 90
        0
102
RTVSPost2010PropOp40
 70
     1
102
RTVSPost2010Prop41ColorIndex
 90
       18
102
RTVSPost2010Prop41ColorRGB
 90
        0
102
RTVSPost2010PropOp41
 70
     1
102
RTVSPost2010Prop42
 90
       50
102
RTVSPost2010PropOp42
 70
     1
102
RTVSPost2010Prop43
 90
        3
102
RTVSPost2010PropOp43
 70
     1
102
RTVSPost2010Prop44ColorIndex
 90
        5
102
RTVSPost2010Prop44ColorRGB
 90
      255
102
RTVSPost2010PropOp44
 70
     1
102
RTVSPost2010Prop45
280
     0
102
RTVSPost2010PropOp45
 70
     1
102
RTVSPost2010Prop46
 90
       50
102
RTVSPost2010PropOp46
 70
     1
102
RTVSPost2010Prop47
 90
       50
102
RTVSPost2010PropOp47
 70
     1
102
RTVSPost2010Prop48
 90
       50
102
RTVSPost2010PropOp48
 70
     1
102
RTVSPost2010Prop49
280
     0
102
RTVSPost2010PropOp49
 70
     1
102
RTVSPost2010Prop50
 90
       50
102
RTVSPost2010PropOp50
 70
     1
102
RTVSPost2010Prop51ColorIndex
 90
      256
102
RTVSPost2010Prop51ColorRGB
 90
-16777216
102
RTVSPost2010PropOp51
 70
     0
102
RTVSPost2010Prop52
140
1.0
102
RTVSPost2010PropOp52
 70
     0
102
RTVSPost2010Prop53
 90
        2
102
RTVSPost2010PropOp53
 70
     1
102
RTVSPost2010Prop54
  1
strokes_ogs.tif
102
RTVSPost2010PropOp54
 70
     1
102
RTVSPost2010Prop55
280
     0
102
RTVSPost2010PropOp55
 70
     1
102
RTVSPost2010Prop56
140
1.0
102
RTVSPost2010PropOp56
 70
     1
102
RTVSPost2010Prop57
140
1.0
102
RTVSPost2010PropOp57
 70
     1
  0
ENDSEC
  0
EOF
