  0
SECTION
  2
HEADER
  9
$ACADVER
  1
AC1015
  9
$ACADMAINTVER
 70
     6
  9
$DWGCODEPAGE
  3
ANSI_1252
  9
$INSBASE
 10
0.0
 20
0.0
 30
0.0
  9
$EXTMIN
 10
14.212273
 20
102.154778
 30
0.0
  9
$EXTMAX
 10
424.75238
 20
355.501526
 30
0.0
  9
$LIMMIN
 10
14.212273
 20
102.154778
  9
$LIMMAX
 10
424.75238
 20
355.501526
  9
$ORTHOMODE
 70
     0
  9
$REGENMODE
 70
     1
  9
$FILLMODE
 70
     1
  9
$QTEXTMODE
 70
     0
  9
$MIRRTEXT
 70
     1
  9
$LTSCALE
 40
1.0
  9
$ATTMODE
 70
     1
  9
$TEXTSIZE
 40
2.5
  9
$TRACEWID
 40
1.0
  9
$TEXTSTYLE
  7
Standard
  9
$CLAYER
  8
0
  9
$CELTYPE
  6
ByLayer
  9
$CECOLOR
 62
   256
  9
$CELTSCALE
 40
1.0
  9
$DISPSILH
 70
     0
  9
$DIMSCALE
 40
1.0
  9
$DIMASZ
 40
2.5
  9
$DIMEXO
 40
0.625
  9
$DIMDLI
 40
3.75
  9
$DIMRND
 40
0.0
  9
$DIMDLE
 40
0.0
  9
$DIMEXE
 40
1.25
  9
$DIMTP
 40
0.0
  9
$DIMTM
 40
0.0
  9
$DIMTXT
 40
2.5
  9
$DIMCEN
 40
2.5
  9
$DIMTSZ
 40
0.0
  9
$DIMTOL
 70
     0
  9
$DIMLIM
 70
     0
  9
$DIMTIH
 70
     0
  9
$DIMTOH
 70
     0
  9
$DIMSE1
 70
     0
  9
$DIMSE2
 70
     0
  9
$DIMTAD
 70
     1
  9
$DIMZIN
 70
     8
  9
$DIMBLK
  1

  9
$DIMASO
 70
     1
  9
$DIMSHO
 70
     1
  9
$DIMPOST
  1

  9
$DIMAPOST
  1

  9
$DIMALT
 70
     0
  9
$DIMALTD
 70
     3
  9
$DIMALTF
 40
0.03937
  9
$DIMLFAC
 40
1.0
  9
$DIMTOFL
 70
     1
  9
$DIMTVP
 40
0.0
  9
$DIMTIX
 70
     0
  9
$DIMSOXD
 70
     0
  9
$DIMSAH
 70
     0
  9
$DIMBLK1
  1

  9
$DIMBLK2
  1

  9
$DIMSTYLE
  2
ISO-25
  9
$DIMCLRD
 70
     0
  9
$DIMCLRE
 70
     0
  9
$DIMCLRT
 70
     0
  9
$DIMTFAC
 40
1.0
  9
$DIMGAP
 40
0.625
  9
$DIMJUST
 70
     0
  9
$DIMSD1
 70
     0
  9
$DIMSD2
 70
     0
  9
$DIMTOLJ
 70
     0
  9
$DIMTZIN
 70
     8
  9
$DIMALTZ
 70
     0
  9
$DIMALTTZ
 70
     0
  9
$DIMUPT
 70
     0
  9
$DIMDEC
 70
     2
  9
$DIMTDEC
 70
     2
  9
$DIMALTU
 70
     2
  9
$DIMALTTD
 70
     3
  9
$DIMTXSTY
  7
Standard
  9
$DIMAUNIT
 70
     0
  9
$DIMADEC
 70
     0
  9
$DIMALTRND
 40
0.0
  9
$DIMAZIN
 70
     0
  9
$DIMDSEP
 70
    44
  9
$DIMATFIT
 70
     3
  9
$DIMFRAC
 70
     0
  9
$DIMLDRBLK
  1

  9
$DIMLUNIT
 70
     2
  9
$DIMLWD
 70
    -2
  9
$DIMLWE
 70
    -2
  9
$DIMTMOVE
 70
     0
  9
$LUNITS
 70
     2
  9
$LUPREC
 70
     4
  9
$SKETCHINC
 40
1.0
  9
$FILLETRAD
 40
10.0
  9
$AUNITS
 70
     0
  9
$AUPREC
 70
     0
  9
$MENU
  1
.
  9
$ELEVATION
 40
0.0
  9
$PELEVATION
 40
0.0
  9
$THICKNESS
 40
0.0
  9
$LIMCHECK
 70
     0
  9
$CHAMFERA
 40
10.0
  9
$CHAMFERB
 40
10.0
  9
$CHAMFERC
 40
20.0
  9
$CHAMFERD
 40
0.0
  9
$SKPOLY
 70
     0
  9
$TDCREATE
 40
2455554.628046042
  9
$TDUCREATE
 40
2455554.586379375
  9
$TDUPDATE
 40
2455554.628046053
  9
$TDUUPDATE
 40
2455554.586379386
  9
$TDINDWG
 40
0.0000000116
  9
$TDUSRTIMER
 40
0.0000000116
  9
$USRTIMER
 70
     1
  9
$ANGBASE
 50
0.0
  9
$ANGDIR
 70
     0
  9
$PDMODE
 70
     0
  9
$PDSIZE
 40
0.0
  9
$PLINEWID
 40
0.0
  9
$SPLFRAME
 70
     0
  9
$SPLINETYPE
 70
     6
  9
$SPLINESEGS
 70
     8
  9
$HANDSEED
  5
FB
  9
$SURFTAB1
 70
     6
  9
$SURFTAB2
 70
     6
  9
$SURFTYPE
 70
     6
  9
$SURFU
 70
     6
  9
$SURFV
 70
     6
  9
$UCSBASE
  2

  9
$UCSNAME
  2

  9
$UCSORG
 10
0.0
 20
0.0
 30
0.0
  9
$UCSXDIR
 10
1.0
 20
0.0
 30
0.0
  9
$UCSYDIR
 10
0.0
 20
1.0
 30
0.0
  9
$UCSORTHOREF
  2

  9
$UCSORTHOVIEW
 70
     0
  9
$UCSORGTOP
 10
0.0
 20
0.0
 30
0.0
  9
$UCSORGBOTTOM
 10
0.0
 20
0.0
 30
0.0
  9
$UCSORGLEFT
 10
0.0
 20
0.0
 30
0.0
  9
$UCSORGRIGHT
 10
0.0
 20
0.0
 30
0.0
  9
$UCSORGFRONT
 10
0.0
 20
0.0
 30
0.0
  9
$UCSORGBACK
 10
0.0
 20
0.0
 30
0.0
  9
$PUCSBASE
  2

  9
$PUCSNAME
  2

  9
$PUCSORG
 10
0.0
 20
0.0
 30
0.0
  9
$PUCSXDIR
 10
1.0
 20
0.0
 30
0.0
  9
$PUCSYDIR
 10
0.0
 20
1.0
 30
0.0
  9
$PUCSORTHOREF
  2

  9
$PUCSORTHOVIEW
 70
     0
  9
$PUCSORGTOP
 10
0.0
 20
0.0
 30
0.0
  9
$PUCSORGBOTTOM
 10
0.0
 20
0.0
 30
0.0
  9
$PUCSORGLEFT
 10
0.0
 20
0.0
 30
0.0
  9
$PUCSORGRIGHT
 10
0.0
 20
0.0
 30
0.0
  9
$PUCSORGFRONT
 10
0.0
 20
0.0
 30
0.0
  9
$PUCSORGBACK
 10
0.0
 20
0.0
 30
0.0
  9
$USERI1
 70
     0
  9
$USERI2
 70
     0
  9
$USERI3
 70
     0
  9
$USERI4
 70
     0
  9
$USERI5
 70
     0
  9
$USERR1
 40
0.0
  9
$USERR2
 40
0.0
  9
$USERR3
 40
0.0
  9
$USERR4
 40
0.0
  9
$USERR5
 40
0.0
  9
$WORLDVIEW
 70
     1
  9
$SHADEDGE
 70
     3
  9
$SHADEDIF
 70
    70
  9
$TILEMODE
 70
     1
  9
$MAXACTVP
 70
    64
  9
$PINSBASE
 10
0.0
 20
0.0
 30
0.0
  9
$PLIMCHECK
 70
     0
  9
$PEXTMIN
 10
1.000000E+20
 20
1.000000E+20
 30
1.000000E+20
  9
$PEXTMAX
 10
-1.000000E+20
 20
-1.000000E+20
 30
-1.000000E+20
  9
$PLIMMIN
 10
0.0
 20
0.0
  9
$PLIMMAX
 10
420.0
 20
297.0
  9
$UNITMODE
 70
     0
  9
$VISRETAIN
 70
     1
  9
$PLINEGEN
 70
     0
  9
$PSLTSCALE
 70
     1
  9
$TREEDEPTH
 70
  3020
  9
$CMLSTYLE
  2
Standard
  9
$CMLJUST
 70
     0
  9
$CMLSCALE
 40
20.0
  9
$PROXYGRAPHICS
 70
     1
  9
$MEASUREMENT
 70
     1
  9
$CELWEIGHT
370
    -1
  9
$ENDCAPS
280
     0
  9
$JOINSTYLE
280
     0
  9
$LWDISPLAY
290
     0
  9
$INSUNITS
 70
     4
  9
$HYPERLINKBASE
  1

  9
$STYLESHEET
  1

  9
$XEDIT
290
     1
  9
$CEPSNTYPE
380
     0
  9
$PSTYLEMODE
290
     1
  9
$FINGERPRINTGUID
  2
{7CBC53F9-0C92-4F1B-8F2C-085A1596F5B6}
  9
$VERSIONGUID
  2
{FAEB1C32-E019-11D5-929B-00C0DF256EC4}
  9
$EXTNAMES
290
     1
  9
$PSVPSCALE
 40
0.0
  9
$OLESTARTUP
290
     0
  0
ENDSEC
  0
SECTION
  2
CLASSES
  0
CLASS
  1
ACDBDICTIONARYWDFLT
  2
AcDbDictionaryWithDefault
  3
ObjectDBX Classes
 90
        0
280
     0
281
     0
  0
CLASS
  1
VISUALSTYLE
  2
AcDbVisualStyle
  3
ObjectDBX Classes
 90
     4095
280
     0
281
     0
  0
CLASS
  1
DICTIONARYVAR
  2
AcDbDictionaryVar
  3
ObjectDBX Classes
 90
        0
280
     0
281
     0
  0
CLASS
  1
ACDBPLACEHOLDER
  2
AcDbPlaceHolder
  3
ObjectDBX Classes
 90
        0
280
     0
281
     0
  0
CLASS
  1
LAYOUT
  2
AcDbLayout
  3
ObjectDBX Classes
 90
        0
280
     0
281
     0
  0
ENDSEC
  0
SECTION
  2
TABLES
  0
TABLE
  2
VPORT
  5
8
330
0
100
AcDbSymbolTable
 70
     1
  0
VPORT
  5
29
330
8
100
AcDbSymbolTableRecord
100
AcDbViewportTableRecord
  2
*Active
 70
     0
 10
0.0
 20
0.0
 11
1.0
 21
1.0
 12
344.186916
 22
148.5
 13
0.0
 23
0.0
 14
10.0
 24
10.0
 15
10.0
 25
10.0
 16
0.0
 26
0.0
 36
1.0
 17
0.0
 27
0.0
 37
0.0
 40
297.0
 41
1.972973
 42
50.0
 43
0.0
 44
0.0
 50
0.0
 51
0.0
 71
     0
 72
   100
 73
     1
 74
     3
 75
     0
 76
     0
 77
     0
 78
     0
281
     0
 65
     1
110
0.0
120
0.0
130
0.0
111
1.0
121
0.0
131
0.0
112
0.0
122
1.0
132
0.0
 79
     0
146
0.0
  0
ENDTAB
  0
TABLE
  2
LTYPE
  5
5
330
0
100
AcDbSymbolTable
 70
     1
  0
LTYPE
  5
14
330
5
100
AcDbSymbolTableRecord
100
AcDbLinetypeTableRecord
  2
ByBlock
 70
     0
  3

 72
    65
 73
     0
 40
0.0
  0
LTYPE
  5
15
330
5
100
AcDbSymbolTableRecord
100
AcDbLinetypeTableRecord
  2
ByLayer
 70
     0
  3

 72
    65
 73
     0
 40
0.0
  0
LTYPE
  5
16
330
5
100
AcDbSymbolTableRecord
100
AcDbLinetypeTableRecord
  2
Continuous
 70
     0
  3
Solid line
 72
    65
 73
     0
 40
0.0
  0
ENDTAB
  0
TABLE
  2
LAYER
  5
2
330
0
100
AcDbSymbolTable
 70
     1
  0
LAYER
  5
10
330
2
100
AcDbSymbolTableRecord
100
AcDbLayerTableRecord
  2
0
 70
     0
 62
   106
  6
Continuous
370
     0
390
F
  0
ENDTAB
  0
TABLE
  2
STYLE
  5
3
330
0
100
AcDbSymbolTable
 70
     4
  0
STYLE
  5
11
330
3
100
AcDbSymbolTableRecord
100
AcDbTextStyleTableRecord
  2
Standard
 70
     0
 40
0.0
 41
1.0
 50
0.0
 71
     0
 42
2.5
  3
txt
  4

  0
STYLE
  5
3B
330
3
100
AcDbSymbolTableRecord
100
AcDbTextStyleTableRecord
  2
Default
 70
     0
 40
0.0
 41
1.0
 50
0.0
 71
     0
 42
0.2
  3

  4

1001
ACAD
1000
txt
1071
        0
  0
STYLE
  5
3C
330
3
100
AcDbSymbolTableRecord
100
AcDbTextStyleTableRecord
  2
ISO
 70
     0
 40
0.0
 41
1.0
 50
0.0
 71
     0
 42
0.2
  3

  4

1001
ACAD
1000
txt
1071
        0
  0
STYLE
  5
3D
330
3
100
AcDbSymbolTableRecord
100
AcDbTextStyleTableRecord
  2
GIANLU
 70
     0
 40
0.0
 41
1.0
 50
0.0
 71
     0
 42
0.2
  3

  4

1001
ACAD
1000
Arial
1071
        0
  0
ENDTAB
  0
TABLE
  2
VIEW
  5
6
330
0
100
AcDbSymbolTable
 70
     0
  0
ENDTAB
  0
TABLE
  2
UCS
  5
7
330
0
100
AcDbSymbolTable
 70
     0
  0
ENDTAB
  0
TABLE
  2
APPID
  5
9
330
0
100
AcDbSymbolTable
 70
     1
  0
APPID
  5
12
330
9
100
AcDbSymbolTableRecord
100
AcDbRegAppTableRecord
  2
ACAD
 70
     0
  0
ENDTAB
  0
TABLE
  2
DIMSTYLE
  5
A
330
0
100
AcDbSymbolTable
 70
     4
100
AcDbDimStyleTable
  0
DIMSTYLE
105
27
330
A
100
AcDbSymbolTableRecord
100
AcDbDimStyleTableRecord
  2
ISO-25
 70
     0
 41
2.5
 42
0.625
 43
3.75
 44
1.25
 73
     0
 74
     0
 77
     1
 78
     8
140
2.5
141
2.5
143
0.03937
147
0.625
171
     3
172
     1
271
     2
272
     2
274
     3
278
    44
283
     0
284
     8
340
11
  0
DIMSTYLE
105
3E
330
A
100
AcDbSymbolTableRecord
100
AcDbDimStyleTableRecord
  2
Default
 70
     0
  3
<>
 41
4.375
 42
1.05
 44
2.1
 73
     0
 74
     0
 77
     1
 78
     8
140
3.5
146
0.4
147
1.75
178
     3
271
     2
272
     3
284
     8
340
3B
341
3F
342
3F
  0
DIMSTYLE
105
46
330
A
100
AcDbSymbolTableRecord
100
AcDbDimStyleTableRecord
  2
ISO
 70
     0
  3
<>
 41
4.375
 42
1.05
 44
2.1
 73
     0
 74
     0
 77
     1
 78
     8
140
3.5
146
0.4
147
1.75
178
     3
271
     2
272
     3
284
     8
340
3C
341
3F
342
3F
  0
DIMSTYLE
105
47
330
A
100
AcDbSymbolTableRecord
100
AcDbDimStyleTableRecord
  2
zucchetti_unico
 70
     0
  3
<>
 41
3.0
 42
0.9
 44
1.8
 73
     0
 74
     0
 77
     1
 78
     8
140
3.0
146
0.6
147
1.5
176
   104
177
     3
178
     3
271
     2
272
     2
284
     8
340
3D
  0
ENDTAB
  0
TABLE
  2
BLOCK_RECORD
  5
1
330
0
100
AcDbSymbolTable
 70
     7
  0
BLOCK_RECORD
  5
1F
330
1
100
AcDbSymbolTableRecord
100
AcDbBlockTableRecord
  2
*Model_Space
340
22
  0
BLOCK_RECORD
  5
1B
330
1
100
AcDbSymbolTableRecord
100
AcDbBlockTableRecord
  2
*Paper_Space
340
1E
  0
BLOCK_RECORD
  5
23
330
1
100
AcDbSymbolTableRecord
100
AcDbBlockTableRecord
  2
*Paper_Space0
340
26
  0
BLOCK_RECORD
  5
3F
330
1
100
AcDbSymbolTableRecord
100
AcDbBlockTableRecord
  2
_CLOSED
340
0
  0
BLOCK_RECORD
  5
48
330
1
100
AcDbSymbolTableRecord
100
AcDbBlockTableRecord
  2
a
340
0
102
{BLKREFS
331
5F
102
}
  0
BLOCK_RECORD
  5
60
330
1
100
AcDbSymbolTableRecord
100
AcDbBlockTableRecord
  2
b
340
0
102
{BLKREFS
331
80
102
}
  0
BLOCK_RECORD
  5
81
330
1
100
AcDbSymbolTableRecord
100
AcDbBlockTableRecord
  2
c
340
0
102
{BLKREFS
331
A5
102
}
  0
BLOCK_RECORD
  5
A6
330
1
100
AcDbSymbolTableRecord
100
AcDbBlockTableRecord
  2
d
340
0
102
{BLKREFS
331
D0
102
}
  0
BLOCK_RECORD
  5
D1
330
1
100
AcDbSymbolTableRecord
100
AcDbBlockTableRecord
  2
e
340
0
102
{BLKREFS
331
F5
102
}
  0
ENDTAB
  0
ENDSEC
  0
SECTION
  2
BLOCKS
  0
BLOCK
  5
20
330
1F
100
AcDbEntity
  8
0
100
AcDbBlockBegin
  2
*Model_Space
 70
     0
 10
0.0
 20
0.0
 30
0.0
  3
*Model_Space
  1

  0
ENDBLK
  5
21
330
1F
100
AcDbEntity
  8
0
100
AcDbBlockEnd
  0
BLOCK
  5
1C
330
1B
100
AcDbEntity
 67
     1
  8
0
100
AcDbBlockBegin
  2
*Paper_Space
 70
     0
 10
0.0
 20
0.0
 30
0.0
  3
*Paper_Space
  1

  0
ENDBLK
  5
1D
330
1B
100
AcDbEntity
 67
     1
  8
0
100
AcDbBlockEnd
  0
BLOCK
  5
24
330
23
100
AcDbEntity
  8
0
100
AcDbBlockBegin
  2
*Paper_Space0
 70
     0
 10
0.0
 20
0.0
 30
0.0
  3
*Paper_Space0
  1

  0
ENDBLK
  5
25
330
23
100
AcDbEntity
  8
0
100
AcDbBlockEnd
  0
BLOCK
  5
40
330
3F
100
AcDbEntity
  8
0
100
AcDbBlockBegin
  2
_CLOSED
 70
     0
 10
0.0
 20
0.0
 30
0.0
  3
_CLOSED
  1

  0
LINE
  5
42
330
3F
100
AcDbEntity
  8
0
  6
ByBlock
 62
     0
370
    -2
100
AcDbLine
 10
-1.0
 20
0.166667
 30
0.0
 11
0.0
 21
0.0
 31
0.0
  0
LINE
  5
43
330
3F
100
AcDbEntity
  8
0
  6
ByBlock
 62
     0
370
    -2
100
AcDbLine
 10
0.0
 20
0.0
 30
0.0
 11
-1.0
 21
-0.166667
 31
0.0
  0
LINE
  5
44
330
3F
100
AcDbEntity
  8
0
  6
ByBlock
 62
     0
370
    -2
100
AcDbLine
 10
-1.0
 20
0.166667
 30
0.0
 11
-1.0
 21
-0.166667
 31
0.0
  0
LINE
  5
45
330
3F
100
AcDbEntity
  8
0
  6
ByBlock
 62
     0
370
    -2
100
AcDbLine
 10
0.0
 20
0.0
 30
0.0
 11
-1.0
 21
0.0
 31
0.0
  0
ENDBLK
  5
41
330
3F
100
AcDbEntity
  8
0
100
AcDbBlockEnd
  0
BLOCK
  5
5D
330
48
100
AcDbEntity
  8
0
100
AcDbBlockBegin
  2
a
 70
     0
 10
133.591354
 20
113.195343
 30
0.0
  3
a
  1

  0
LINE
  5
49
330
48
100
AcDbEntity
  8
0
  6
Continuous
 62
     0
370
     0
100
AcDbLine
 10
199.753392
 20
349.003445
 30
0.0
 11
206.373232
 21
349.004782
 31
0.0
  0
LINE
  5
4A
330
48
100
AcDbEntity
  8
0
  6
Continuous
 62
     0
370
     0
100
AcDbLine
 10
206.373232
 20
349.004782
 30
0.0
 11
212.993072
 21
349.00612
 31
0.0
  0
LINE
  5
4B
330
48
100
AcDbEntity
  8
0
  6
Continuous
 62
     0
370
    30
100
AcDbLine
 10
212.492971
 20
349.506019
 30
0.0
 11
206.373131
 21
349.504782
 31
0.0
  0
LINE
  5
4C
330
48
100
AcDbEntity
  8
0
  6
Continuous
 62
     0
370
    30
100
AcDbLine
 10
206.373131
 20
349.504782
 30
0.0
 11
200.253291
 21
349.503546
 31
0.0
  0
ARC
  5
4D
330
48
100
AcDbEntity
  8
0
  6
Continuous
 62
     0
370
    30
100
AcDbCircle
 10
206.381012
 20
310.49444
 30
0.0
 40
28.0
100
AcDbArc
 50
90.011575
 51
270.011575
  0
ARC
  5
4E
330
48
100
AcDbEntity
  8
0
  6
Continuous
 62
     0
370
    30
100
AcDbCircle
 10
206.381012
 20
310.49444
 30
0.0
 40
28.0
100
AcDbArc
 50
270.011575
 51
90.011575
  0
ARC
  5
4F
330
48
100
AcDbEntity
  8
0
  6
Continuous
 62
     0
370
     0
100
AcDbCircle
 10
206.381012
 20
310.49444
 30
0.0
 40
27.5
100
AcDbArc
 50
270.011575
 51
90.011575
  0
ARC
  5
50
330
48
100
AcDbEntity
  8
0
  6
Continuous
 62
     0
370
     0
100
AcDbCircle
 10
206.381012
 20
310.49444
 30
0.0
 40
27.5
100
AcDbArc
 50
90.011575
 51
270.011575
  0
ARC
  5
51
330
48
100
AcDbEntity
  8
0
  6
Continuous
 62
     0
370
    30
100
AcDbCircle
 10
171.388083
 20
275.487368
 30
0.0
 40
10.0
100
AcDbArc
 50
180.011575
 51
270.011575
  0
ARC
  5
52
330
48
100
AcDbEntity
  8
0
  6
Continuous
 62
     0
370
    30
100
AcDbCircle
 10
171.373942
 20
345.487367
 30
0.0
 40
9.999999999999996
100
AcDbArc
 50
90.011575
 51
180.011575
  0
LINE
  5
53
330
48
100
AcDbEntity
  8
0
  6
Continuous
 62
     0
370
    30
100
AcDbLine
 10
161.388083
 20
275.485348
 30
0.0
 11
161.373942
 21
345.485347
 31
0.0
  0
LINE
  5
54
330
48
100
AcDbEntity
  8
0
  6
Continuous
 62
     0
370
    30
100
AcDbLine
 10
241.390102
 20
265.50151
 30
0.0
 11
171.390103
 21
265.487368
 31
0.0
  0
ARC
  5
55
330
48
100
AcDbEntity
  8
0
  6
Continuous
 62
     0
370
    30
100
AcDbCircle
 10
241.388082
 20
275.501509
 30
0.0
 40
10.0
100
AcDbArc
 50
270.011575
 51
0.011575
  0
LINE
  5
56
330
48
100
AcDbEntity
  8
0
  6
Continuous
 62
     0
370
    30
100
AcDbLine
 10
251.37394
 20
345.503528
 30
0.0
 11
251.388082
 21
275.50353
 31
0.0
  0
ARC
  5
57
330
48
100
AcDbEntity
  8
0
  6
Continuous
 62
     0
370
    30
100
AcDbCircle
 10
241.373941
 20
345.501508
 30
0.0
 40
9.999999999999991
100
AcDbArc
 50
0.011575
 51
90.011575
  0
LINE
  5
58
330
48
100
AcDbEntity
  8
0
  6
Continuous
 62
     0
370
    30
100
AcDbLine
 10
171.371922
 20
355.487367
 30
0.0
 11
241.37192
 21
355.501508
 31
0.0
  0
ARC
  5
59
330
48
100
AcDbEntity
  8
0
  6
Continuous
 62
     0
370
    30
100
AcDbCircle
 10
200.253395
 20
349.003543
 30
0.0
 40
0.5000027448169122
100
AcDbArc
 50
90.013348
 51
180.01126
  0
ARC
  5
5A
330
48
100
AcDbEntity
  8
0
  6
Continuous
 62
     0
370
    30
100
AcDbCircle
 10
212.49307
 20
349.006016
 30
0.0
 40
0.5000027446801973
100
AcDbArc
 50
0.011889
 51
90.009872
  0
LINE
  5
5B
330
48
100
AcDbEntity
  8
0
  6
Continuous
 62
     0
370
    30
100
AcDbLine
 10
212.995356
 20
337.701614
 30
0.0
 11
212.993072
 21
349.00612
 31
0.0
  0
LINE
  5
5C
330
48
100
AcDbEntity
  8
0
  6
Continuous
 62
     0
370
    30
100
AcDbLine
 10
199.755676
 20
337.69894
 30
0.0
 11
199.753392
 21
349.003445
 31
0.0
  0
ENDBLK
  5
5E
330
48
100
AcDbEntity
  8
0
100
AcDbBlockEnd
  0
BLOCK
  5
7E
330
60
100
AcDbEntity
  8
0
100
AcDbBlockBegin
  2
b
 70
     0
 10
133.591354
 20
113.195343
 30
0.0
  3
b
  1

  0
LINE
  5
61
330
60
100
AcDbEntity
  8
0
  6
Continuous
 62
     0
370
    30
100
AcDbLine
 10
234.381012
 20
159.498485
 30
0.0
 11
178.381012
 21
159.498485
 31
0.0
  0
ARC
  5
62
330
60
100
AcDbEntity
  8
0
  6
Continuous
 62
     0
370
    30
100
AcDbCircle
 10
206.373232
 20
127.391745
 30
0.0
 40
6.619840312679793
100
AcDbArc
 50
90.000001
 51
269.999999
  0
ARC
  5
63
330
60
100
AcDbEntity
  8
0
  6
Continuous
 62
     0
370
    30
100
AcDbCircle
 10
206.373232
 20
127.391745
 30
0.0
 40
6.619840312679793
100
AcDbArc
 50
270.000001
 51
89.999999
  0
ARC
  5
64
330
60
100
AcDbEntity
  8
0
  6
Continuous
 62
     0
370
    30
100
AcDbCircle
 10
206.375516
 20
127.391746
 30
0.0
 40
6.619840314566034
100
AcDbArc
 50
269.998613
 51
90.001354
  0
ARC
  5
65
330
60
100
AcDbEntity
  8
0
  6
Continuous
 62
     0
370
     0
100
AcDbCircle
 10
206.373131
 20
127.391745
 30
0.0
 40
6.119840312679792
100
AcDbArc
 50
270.000001
 51
89.999999
  0
ARC
  5
66
330
60
100
AcDbEntity
  8
0
  6
Continuous
 62
     0
370
     0
100
AcDbCircle
 10
206.373131
 20
127.391745
 30
0.0
 40
6.119840312679793
100
AcDbArc
 50
90.000001
 51
269.999999
  0
LINE
  5
67
330
60
100
AcDbEntity
  8
0
  6
Continuous
 62
     0
370
     0
100
AcDbLine
 10
206.375355
 20
117.998485
 30
0.0
 11
178.381012
 21
117.998485
 31
0.0
  0
LINE
  5
68
330
60
100
AcDbEntity
  8
0
  6
Continuous
 62
     0
370
     0
100
AcDbLine
 10
234.381012
 20
117.998485
 30
0.0
 11
206.375355
 21
117.998485
 31
0.0
  0
LINE
  5
69
330
60
100
AcDbEntity
  8
0
  6
Continuous
 62
     0
370
    30
100
AcDbLine
 10
206.375456
 20
117.498485
 30
0.0
 11
233.881012
 21
117.498485
 31
0.0
  0
LINE
  5
6A
330
60
100
AcDbEntity
  8
0
  6
Continuous
 62
     0
370
    30
100
AcDbLine
 10
178.881012
 20
117.498485
 30
0.0
 11
206.375456
 21
117.498485
 31
0.0
  0
LINE
  5
6B
330
60
100
AcDbEntity
  8
0
  6
Continuous
 62
     0
370
    30
100
AcDbLine
 10
171.371922
 20
173.498483
 30
0.0
 11
241.37192
 21
173.498483
 31
0.0
  0
LINE
  5
6C
330
60
100
AcDbEntity
  8
0
  6
Continuous
 62
     0
370
    30
100
AcDbLine
 10
251.37394
 20
173.498483
 30
0.0
 11
241.37192
 21
173.498483
 31
0.0
  0
LINE
  5
6D
330
60
100
AcDbEntity
  8
0
  6
Continuous
 62
     0
370
    30
100
AcDbLine
 10
251.37394
 20
173.498486
 30
0.0
 11
251.388082
 21
173.498486
 31
0.0
  0
LINE
  5
6E
330
60
100
AcDbEntity
  8
0
  6
Continuous
 62
     0
370
    30
100
AcDbLine
 10
171.371922
 20
173.498483
 30
0.0
 11
161.373942
 21
173.498483
 31
0.0
  0
LINE
  5
6F
330
60
100
AcDbEntity
  8
0
  6
Continuous
 62
     0
370
    30
100
AcDbLine
 10
171.371922
 20
164.498483
 30
0.0
 11
161.373942
 21
164.498483
 31
0.0
  0
LINE
  5
70
330
60
100
AcDbEntity
  8
0
  6
Continuous
 62
     0
370
    30
100
AcDbLine
 10
251.37394
 20
164.498486
 30
0.0
 11
251.388082
 21
164.498486
 31
0.0
  0
LINE
  5
71
330
60
100
AcDbEntity
  8
0
  6
Continuous
 62
     0
370
    30
100
AcDbLine
 10
251.37394
 20
164.498483
 30
0.0
 11
241.37192
 21
164.498483
 31
0.0
  0
LINE
  5
72
330
60
100
AcDbEntity
  8
0
  6
Continuous
 62
     0
370
    30
100
AcDbLine
 10
171.371922
 20
164.498483
 30
0.0
 11
241.37192
 21
164.498483
 31
0.0
  0
LINE
  5
73
330
60
100
AcDbEntity
  8
0
  6
Continuous
 62
     0
370
    30
100
AcDbLine
 10
251.388082
 20
164.498486
 30
0.0
 11
251.388082
 21
173.498486
 31
0.0
  0
LINE
  5
74
330
60
100
AcDbEntity
  8
0
  6
Continuous
 62
     0
370
    30
100
AcDbLine
 10
251.37394
 20
164.498483
 30
0.0
 11
251.37394
 21
173.498483
 31
0.0
  0
LINE
  5
75
330
60
100
AcDbEntity
  8
0
  6
Continuous
 62
     0
370
     0
100
AcDbLine
 10
241.37192
 20
164.498483
 30
0.0
 11
241.37192
 21
173.498483
 31
0.0
  0
LINE
  5
76
330
60
100
AcDbEntity
  8
0
  6
Continuous
 62
     0
370
     0
100
AcDbLine
 10
171.371922
 20
164.498483
 30
0.0
 11
171.371922
 21
173.498483
 31
0.0
  0
LINE
  5
77
330
60
100
AcDbEntity
  8
0
  6
Continuous
 62
     0
370
    30
100
AcDbLine
 10
161.373942
 20
173.498483
 30
0.0
 11
161.373942
 21
164.498483
 31
0.0
  0
LINE
  5
78
330
60
100
AcDbEntity
  8
0
  6
Continuous
 62
     0
370
    30
100
AcDbLine
 10
183.381012
 20
164.498485
 30
0.0
 11
183.381012
 21
159.498485
 31
0.0
  0
LINE
  5
79
330
60
100
AcDbEntity
  8
0
  6
Continuous
 62
     0
370
    30
100
AcDbLine
 10
229.381012
 20
164.498485
 30
0.0
 11
229.381012
 21
159.498485
 31
0.0
  0
ARC
  5
7A
330
60
100
AcDbEntity
  8
0
  6
Continuous
 62
     0
370
    30
100
AcDbCircle
 10
178.881015
 20
117.998488
 30
0.0
 40
0.5000027626625319
100
AcDbArc
 50
180.000317
 51
269.993609
  0
ARC
  5
7B
330
60
100
AcDbEntity
  8
0
  6
Continuous
 62
     0
370
    30
100
AcDbCircle
 10
233.881009
 20
117.998488
 30
0.0
 40
0.5000027626698861
100
AcDbArc
 50
270.006392
 51
359.999683
  0
LINE
  5
7C
330
60
100
AcDbEntity
  8
0
  6
Continuous
 62
     0
370
    30
100
AcDbLine
 10
234.381012
 20
159.498485
 30
0.0
 11
234.381012
 21
117.998485
 31
0.0
  0
LINE
  5
7D
330
60
100
AcDbEntity
  8
0
  6
Continuous
 62
     0
370
    30
100
AcDbLine
 10
178.381012
 20
159.498485
 30
0.0
 11
178.381012
 21
117.998485
 31
0.0
  0
ENDBLK
  5
7F
330
60
100
AcDbEntity
  8
0
100
AcDbBlockEnd
  0
BLOCK
  5
A3
330
81
100
AcDbEntity
  8
0
100
AcDbBlockBegin
  2
c
 70
     0
 10
133.591354
 20
130.884827
 30
0.0
  3
c
  1

  0
LINE
  5
82
330
81
100
AcDbEntity
  8
0
  6
Continuous
 62
     0
370
    30
100
AcDbLine
 10
347.205379
 20
338.494455
 30
0.0
 11
347.205379
 21
307.886683
 31
0.0
  0
LINE
  5
83
330
81
100
AcDbEntity
  8
0
  6
Continuous
 62
     0
370
    30
100
AcDbLine
 10
385.931958
 20
338.494455
 30
0.0
 11
385.931958
 21
349.004798
 31
0.0
  0
ELLIPSE
  5
84
330
81
100
AcDbEntity
  8
0
  6
Continuous
 62
     0
370
     0
100
AcDbEllipse
 10
379.312117
 20
349.004798
 30
0.0
 11
-6.619840312679797
 21
5.845545338469664E-11
 31
0.0
210
0.0
220
0.0
230
1.0
 40
0.000202
 41
0.0000000437113892
 42
3.141592697301182
  0
LWPOLYLINE
  5
85
330
81
100
AcDbEntity
  8
0
  6
Continuous
 62
     0
370
    30
100
AcDbPolyline
 90
       22
 70
     0
 43
0.0
 10
385.931946
 20
338.494446
 10
385.857727
 20
338.476654
 10
385.63681
 20
338.425568
 10
385.27533
 20
338.345734
 10
384.781952
 20
338.244019
 10
384.16806
 20
338.129669
 10
383.44693
 20
338.012329
 10
382.633606
 20
337.901703
 10
381.745026
 20
337.808014
 10
380.800262
 20
337.740021
 10
379.820526
 20
337.704132
 10
378.828766
 20
337.703674
 10
377.848419
 20
337.738708
 10
376.902527
 20
337.805969
 10
376.012268
 20
337.899109
 10
375.196808
 20
338.00943
 10
374.473145
 20
338.126678
 10
373.856384
 20
338.24118
 10
373.359802
 20
338.343353
 10
372.994812
 20
338.424011
 10
372.770386
 20
338.475891
 10
372.692291
 20
338.494446
  0
ELLIPSE
  5
86
330
81
100
AcDbEntity
  8
0
  6
Continuous
 62
     0
370
     0
100
AcDbEllipse
 10
379.312117
 20
349.504798
 30
0.0
 11
6.119840312679797
 21
-5.404028242711859E-11
 31
0.0
210
0.0
220
0.0
230
-1.0
 40
0.000202
 41
3.141592609878404
 42
6.283185263468197
  0
ELLIPSE
  5
87
330
81
100
AcDbEntity
  8
0
  6
Continuous
 62
     0
370
     0
100
AcDbEllipse
 10
379.312117
 20
349.504798
 30
0.0
 11
6.119840312679797
 21
-5.404028242711859E-11
 31
0.0
210
0.0
220
0.0
230
-1.0
 40
0.000202
 41
6.283185263468197
 42
9.424777917057991
  0
ARC
  5
88
330
81
100
AcDbEntity
  8
0
  6
Continuous
 62
     0
370
    30
100
AcDbCircle
 10
385.431958
 20
349.004798
 30
0.0
 40
0.5
100
AcDbArc
 50
360.0
 51
90.0
  0
ARC
  5
89
330
81
100
AcDbEntity
  8
0
  6
Continuous
 62
     0
370
    30
100
AcDbCircle
 10
77422.226227
 20
37472.138909
 30
0.0
 40
85567.16941705682
100
AcDbArc
 50
205.742567
 51
205.761444
  0
LINE
  5
8A
330
81
100
AcDbEntity
  8
0
  6
Continuous
 62
     0
370
     0
100
AcDbLine
 10
388.705379
 20
338.494455
 30
0.0
 11
388.705379
 21
282.494455
 31
0.0
  0
LINE
  5
8B
330
81
100
AcDbEntity
  8
0
  6
Continuous
 62
     0
370
    30
100
AcDbLine
 10
389.205379
 20
282.994455
 30
0.0
 11
389.205379
 21
337.994455
 31
0.0
  0
ARC
  5
8C
330
81
100
AcDbEntity
  8
0
  6
Continuous
 62
     0
370
    30
100
AcDbCircle
 10
388.705379
 20
282.994456
 30
0.0
 40
0.5
100
AcDbArc
 50
270.0
 51
0.0
  0
LINE
  5
8D
330
81
100
AcDbEntity
  8
0
  6
Continuous
 62
     0
370
    30
100
AcDbLine
 10
347.20538
 20
287.494453
 30
0.0
 11
347.20538
 21
307.886683
 31
0.0
  0
LINE
  5
8E
330
81
100
AcDbEntity
  8
0
  6
Continuous
 62
     0
370
    30
100
AcDbLine
 10
342.20538
 20
333.494453
 30
0.0
 11
347.205379
 21
333.494453
 31
0.0
  0
LINE
  5
8F
330
81
100
AcDbEntity
  8
0
  6
Continuous
 62
     0
370
    30
100
AcDbLine
 10
333.205378
 20
355.487382
 30
0.0
 11
333.205378
 21
355.501523
 31
0.0
  0
LINE
  5
90
330
81
100
AcDbEntity
  8
0
  6
Continuous
 62
     0
370
    30
100
AcDbLine
 10
333.205381
 20
275.485363
 30
0.0
 11
333.205381
 21
265.487384
 31
0.0
  0
LINE
  5
91
330
81
100
AcDbEntity
  8
0
  6
Continuous
 62
     0
370
    30
100
AcDbLine
 10
333.205382
 20
275.485363
 30
0.0
 11
333.205382
 21
345.485362
 31
0.0
  0
LINE
  5
92
330
81
100
AcDbEntity
  8
0
  6
Continuous
 62
     0
370
    30
100
AcDbLine
 10
333.205381
 20
355.487382
 30
0.0
 11
333.205381
 21
345.485362
 31
0.0
  0
LINE
  5
93
330
81
100
AcDbEntity
  8
0
  6
Continuous
 62
     0
370
     0
100
AcDbLine
 10
342.205382
 20
275.485363
 30
0.0
 11
333.205382
 21
275.485363
 31
0.0
  0
LINE
  5
94
330
81
100
AcDbEntity
  8
0
  6
Continuous
 62
     0
370
    30
100
AcDbLine
 10
342.205381
 20
275.485363
 30
0.0
 11
342.205381
 21
265.487384
 31
0.0
  0
LINE
  5
95
330
81
100
AcDbEntity
  8
0
  6
Continuous
 62
     0
370
    30
100
AcDbLine
 10
342.205381
 20
355.487382
 30
0.0
 11
342.205381
 21
345.485362
 31
0.0
  0
LINE
  5
96
330
81
100
AcDbEntity
  8
0
  6
Continuous
 62
     0
370
    30
100
AcDbLine
 10
342.205382
 20
275.485363
 30
0.0
 11
342.205382
 21
345.485362
 31
0.0
  0
LINE
  5
97
330
81
100
AcDbEntity
  8
0
  6
Continuous
 62
     0
370
    30
100
AcDbLine
 10
342.205378
 20
355.487382
 30
0.0
 11
342.205378
 21
355.501523
 31
0.0
  0
LINE
  5
98
330
81
100
AcDbEntity
  8
0
  6
Continuous
 62
     0
370
    30
100
AcDbLine
 10
342.205378
 20
355.501523
 30
0.0
 11
333.205378
 21
355.501523
 31
0.0
  0
LINE
  5
99
330
81
100
AcDbEntity
  8
0
  6
Continuous
 62
     0
370
    30
100
AcDbLine
 10
342.205381
 20
355.487382
 30
0.0
 11
333.205381
 21
355.487382
 31
0.0
  0
LINE
  5
9A
330
81
100
AcDbEntity
  8
0
  6
Continuous
 62
     0
370
     0
100
AcDbLine
 10
342.205382
 20
345.485362
 30
0.0
 11
333.205382
 21
345.485362
 31
0.0
  0
LINE
  5
9B
330
81
100
AcDbEntity
  8
0
  6
Continuous
 62
     0
370
    30
100
AcDbLine
 10
333.205381
 20
265.487384
 30
0.0
 11
342.205381
 21
265.487384
 31
0.0
  0
LINE
  5
9C
330
81
100
AcDbEntity
  8
0
  6
Continuous
 62
     0
370
    30
100
AcDbLine
 10
342.20538
 20
287.494453
 30
0.0
 11
347.20538
 21
287.494453
 31
0.0
  0
ARC
  5
9D
330
81
100
AcDbEntity
  8
0
  6
Continuous
 62
     0
370
    30
100
AcDbCircle
 10
388.705377
 20
337.994453
 30
0.0
 40
0.500002685572492
100
AcDbArc
 50
0.000331
 51
89.999692
  0
LINE
  5
9E
330
81
100
AcDbEntity
  8
0
  6
Continuous
 62
     0
370
    30
100
AcDbLine
 10
347.205379
 20
338.494455
 30
0.0
 11
372.692347
 21
338.494455
 31
0.0
  0
LINE
  5
9F
330
81
100
AcDbEntity
  8
0
  6
Continuous
 62
     0
370
    30
100
AcDbLine
 10
385.931928
 20
338.494455
 30
0.0
 11
388.705379
 21
338.494455
 31
0.0
  0
LINE
  5
A0
330
81
100
AcDbEntity
  8
0
  6
Continuous
 62
     0
370
    30
100
AcDbLine
 10
359.454215
 20
282.494455
 30
0.0
 11
388.705379
 21
282.494455
 31
0.0
  0
LWPOLYLINE
  5
A1
330
81
100
AcDbEntity
  8
0
  6
Continuous
 62
     0
370
    30
100
AcDbPolyline
 90
       15
 70
     0
 43
0.0
 10
372.692291
 20
349.004791
 10
372.745697
 20
349.229706
 10
372.894562
 20
349.406494
 10
373.107025
 20
349.497406
 10
373.192108
 20
349.504822
 10
373.205505
 20
349.504883
 10
373.226593
 20
349.504944
 10
373.256226
 20
349.504974
 10
373.294495
 20
349.505035
 10
373.3414
 20
349.505066
 10
373.396881
 20
349.505127
 10
373.461029
 20
349.505157
 10
373.533417
 20
349.505219
 10
373.613831
 20
349.505249
 10
373.704193
 20
349.50528
  0
LINE
  5
A2
330
81
100
AcDbEntity
  8
0
  6
Continuous
 62
     0
370
    30
100
AcDbLine
 10
372.692277
 20
338.494432
 30
0.0
 11
372.692277
 21
349.004798
 31
0.0
  0
ENDBLK
  5
A4
330
81
100
AcDbEntity
  8
0
100
AcDbBlockEnd
  0
BLOCK
  5
CE
330
A6
100
AcDbEntity
  8
0
100
AcDbBlockBegin
  2
d
 70
     0
 10
133.591354
 20
113.195343
 30
0.0
  3
d
  1

  0
ELLIPSE
  5
A7
330
A6
100
AcDbEntity
  8
0
  6
Continuous
 62
     0
370
    30
100
AcDbEllipse
 10
383.028083
 20
166.208626
 30
0.0
 11
16.16580744508752
 21
-22.86190433118713
 31
0.0
210
0.0
220
0.0
230
1.0
 40
0.5
 41
0.5226138395290265
 42
3.141592657623665
  0
ELLIPSE
  5
A8
330
A6
100
AcDbEntity
  8
0
  6
Continuous
 62
     0
370
     0
100
AcDbEllipse
 10
360.319689
 20
177.390072
 30
0.0
 11
-6.619840177637383
 21
-0.001337130660709908
 31
0.0
210
0.0
220
0.0
230
1.0
 40
0.707006
 41
6.283102271526117
 42
7.068440653442914
  0
ELLIPSE
  5
A9
330
A6
100
AcDbEntity
  8
0
  6
Continuous
 62
     0
370
     0
100
AcDbEllipse
 10
360.319689
 20
177.390072
 30
0.0
 11
-6.619840177637383
 21
-0.001337130660709908
 31
0.0
210
0.0
220
0.0
230
1.0
 40
0.707006
 41
0.7852553462633276
 42
3.165563500196208
  0
LWPOLYLINE
  5
AA
330
A6
100
AcDbEntity
  8
0
  6
Continuous
 62
     0
370
    30
100
AcDbPolyline
 90
       17
 70
     0
 43
0.0
 10
366.941071
 20
169.67984
 10
366.870575
 20
168.916885
 10
366.659912
 20
168.174179
 10
366.312805
 20
167.471832
 10
365.835938
 20
166.829376
 10
365.239014
 20
166.264664
 10
364.53537
 20
165.791962
 10
363.74118
 20
165.421555
 10
362.874573
 20
165.15979
 10
361.954956
 20
165.008408
 10
361.001923
 20
164.965591
 10
360.035126
 20
165.026794
 10
359.073944
 20
165.18541
 10
358.138184
 20
165.433533
 10
357.247681
 20
165.762238
 10
356.420898
 20
166.161789
 10
355.640259
 20
166.647156
  0
LWPOLYLINE
  5
AB
330
A6
100
AcDbEntity
  8
0
  6
Continuous
 62
     0
370
    30
100
AcDbPolyline
 90
        7
 70
     0
 43
0.0
 10
355.640259
 20
166.647156
 10
355.088654
 20
167.080856
 10
354.619537
 20
167.543762
 10
354.242188
 20
168.027817
 10
353.96167
 20
168.527313
 10
353.781616
 20
169.03714
 10
353.701416
 20
169.676651
  0
ELLIPSE
  5
AC
330
A6
100
AcDbEntity
  8
0
  6
Continuous
 62
     0
370
     0
100
AcDbEllipse
 10
360.319618
 20
177.743676
 30
0.0
 11
6.119840187837207
 21
0.001236136482787765
 31
0.0
210
0.0
220
0.0
230
-1.0
 40
0.707006
 41
5.497929960916256
 42
8.639522614506053
  0
ELLIPSE
  5
AD
330
A6
100
AcDbEntity
  8
0
  6
Continuous
 62
     0
370
     0
100
AcDbEllipse
 10
360.319618
 20
177.743676
 30
0.0
 11
6.119840187837207
 21
0.001236136482787765
 31
0.0
210
0.0
220
0.0
230
-1.0
 40
0.707006
 41
2.356337307326466
 42
5.497929960916256
  0
LWPOLYLINE
  5
AE
330
A6
100
AcDbEntity
  8
0
  6
Continuous
 62
     0
370
    30
100
AcDbPolyline
 90
        9
 70
     0
 43
0.0
 10
394.560516
 20
140.070419
 10
395.836548
 20
141.050476
 10
397.046631
 20
142.137543
 10
398.18457
 20
143.320862
 10
399.245544
 20
144.588898
 10
400.225891
 20
145.929581
 10
401.123291
 20
147.330704
 10
401.936584
 20
148.780106
 10
402.74176
 20
150.432938
  0
ELLIPSE
  5
AF
330
A6
100
AcDbEntity
  8
0
  6
Continuous
 62
     0
370
     0
100
AcDbEllipse
 10
353.683151
 20
145.458626
 30
0.0
 11
16.16580744508752
 21
-22.86190433118713
 31
0.0
210
0.0
220
0.0
230
1.0
 40
0.5
 41
2.186478060745555
 42
3.146685196351472
  0
ELLIPSE
  5
B0
330
A6
100
AcDbEntity
  8
0
  6
Continuous
 62
     0
370
     0
100
AcDbEllipse
 10
353.683151
 20
145.458626
 30
0.0
 11
16.16580744508752
 21
-22.86190433118713
 31
0.0
210
0.0
220
0.0
230
1.0
 40
0.5
 41
6.275858953748032
 42
8.46966336792514
  0
ELLIPSE
  5
B1
330
A6
100
AcDbEntity
  8
0
  6
Continuous
 62
     0
370
     0
100
AcDbEllipse
 10
353.329598
 20
145.208627
 30
0.0
 11
-15.87713231213953
 21
22.45365603955879
 31
0.0
210
0.0
220
0.0
230
-1.0
 40
0.5
 41
0.9551145928442383
 42
4.096707246434031
  0
ELLIPSE
  5
B2
330
A6
100
AcDbEntity
  8
0
  6
Continuous
 62
     0
370
     0
100
AcDbEllipse
 10
353.329598
 20
145.208627
 30
0.0
 11
-15.87713231213953
 21
22.45365603955879
 31
0.0
210
0.0
220
0.0
230
-1.0
 40
0.5
 41
4.096707246434032
 42
7.238299900023825
  0
ELLIPSE
  5
B3
330
A6
100
AcDbEntity
  8
0
  6
Continuous
 62
     0
370
    30
100
AcDbEllipse
 10
386.563616
 20
168.708625
 30
0.0
 11
13.2790561156076
 21
-18.77942141490372
 31
0.0
210
0.0
220
0.0
230
0.9999999999999999
 40
0.5
 41
2.186478060745555
 42
2.672766248597452
  0
ELLIPSE
  5
B4
330
A6
100
AcDbEntity
  8
0
  6
Continuous
 62
     0
370
    30
100
AcDbEllipse
 10
386.563616
 20
168.708625
 30
0.0
 11
13.2790561156076
 21
-18.77942141490372
 31
0.0
210
0.0
220
0.0
230
0.9999999999999999
 40
0.5
 41
0.4688261621318084
 42
2.186478060745555
  0
LINE
  5
B5
330
A6
100
AcDbEntity
  8
0
  6
Continuous
 62
     0
370
    30
100
AcDbLine
 10
368.172412
 20
222.527975
 30
0.0
 11
417.669886
 21
187.537975
 31
0.0
  0
ELLIPSE
  5
B6
330
A6
100
AcDbEntity
  8
0
  6
Continuous
 62
     0
370
    30
100
AcDbEllipse
 10
417.671314
 20
180.465897
 30
0.0
 11
5.773502658959823
 21
-8.164965832566827
 31
0.0
210
0.0
220
0.0
230
0.9999999999999999
 40
0.5
 41
0.615681733950658
 42
2.186478060745556
  0
LINE
  5
B7
330
A6
100
AcDbEntity
  8
0
  6
Continuous
 62
     0
370
    30
100
AcDbLine
 10
424.742382
 20
175.467326
 30
0.0
 11
424.752381
 21
125.962781
 31
0.0
  0
ELLIPSE
  5
B8
330
A6
100
AcDbEntity
  8
0
  6
Continuous
 62
     0
370
    30
100
AcDbEllipse
 10
417.681314
 20
130.961353
 30
0.0
 11
5.77350265895983
 21
-8.164965832566834
 31
0.0
210
0.0
220
0.0
230
0.9999999999999999
 40
0.5
 41
0.0000000040338719
 42
0.6156817339506624
  0
ELLIPSE
  5
B9
330
A6
100
AcDbEntity
  8
0
  6
Continuous
 62
     0
370
    30
100
AcDbEllipse
 10
368.173841
 20
215.455897
 30
0.0
 11
5.773502658959826
 21
-8.16496583256683
 31
0.0
210
0.0
220
0.0
230
1.0
 40
0.5
 41
2.186478060745555
 42
3.141592657623665
  0
ELLIPSE
  5
BA
330
A6
100
AcDbEntity
  8
0
  6
Continuous
 62
     0
370
    30
100
AcDbEllipse
 10
361.80988
 20
210.955897
 30
0.0
 11
5.773502658959826
 21
-8.16496583256683
 31
0.0
210
0.0
220
0.0
230
1.0
 40
0.5
 41
2.186478060745555
 42
3.757274387540451
  0
LINE
  5
BB
330
A6
100
AcDbEntity
  8
0
  6
Continuous
 62
     0
370
    30
100
AcDbLine
 10
354.745973
 20
180.503011
 30
0.0
 11
354.738812
 21
215.954468
 31
0.0
  0
LINE
  5
BC
330
A6
100
AcDbEntity
  8
0
  6
Continuous
 62
     0
370
    30
100
AcDbLine
 10
411.318781
 20
119.389275
 30
0.0
 11
388.312576
 21
135.652471
 31
0.0
  0
ELLIPSE
  5
BD
330
A6
100
AcDbEntity
  8
0
  6
Continuous
 62
     0
370
    30
100
AcDbEllipse
 10
411.317353
 20
126.461353
 30
0.0
 11
5.77350265895983
 21
-8.164965832566834
 31
0.0
210
0.0
220
0.0
230
0.9999999999999999
 40
0.5
 41
5.328070714335349
 42
6.898867041130246
  0
LINE
  5
BE
330
A6
100
AcDbEntity
  8
0
  6
Continuous
 62
     0
370
    30
100
AcDbLine
 10
418.378421
 20
170.967326
 30
0.0
 11
418.38842
 21
121.462781
 31
0.0
  0
ELLIPSE
  5
BF
330
A6
100
AcDbEntity
  8
0
  6
Continuous
 62
     0
370
    30
100
AcDbEllipse
 10
411.307353
 20
175.965897
 30
0.0
 11
5.773502658959823
 21
-8.164965832566827
 31
0.0
210
0.0
220
0.0
230
0.9999999999999999
 40
0.5
 41
0.6156817339506597
 42
2.186478060745555
  0
LINE
  5
C0
330
A6
100
AcDbEntity
  8
0
  6
Continuous
 62
     0
370
    30
100
AcDbLine
 10
361.808451
 20
218.027975
 30
0.0
 11
411.305925
 21
183.037975
 31
0.0
  0
LINE
  5
C1
330
A6
100
AcDbEntity
  8
0
  6
Continuous
 62
     0
370
     0
100
AcDbLine
 10
418.38842
 20
121.462781
 30
0.0
 11
424.752381
 21
125.962781
 31
0.0
  0
LINE
  5
C2
330
A6
100
AcDbEntity
  8
0
  6
Continuous
 62
     0
370
     0
100
AcDbLine
 10
418.378421
 20
170.967326
 30
0.0
 11
424.742382
 21
175.467326
 31
0.0
  0
LINE
  5
C3
330
A6
100
AcDbEntity
  8
0
  6
Continuous
 62
     0
370
     0
100
AcDbLine
 10
411.305925
 20
183.037975
 30
0.0
 11
417.669886
 21
187.537975
 31
0.0
  0
LINE
  5
C4
330
A6
100
AcDbEntity
  8
0
  6
Continuous
 62
     0
370
     0
100
AcDbLine
 10
361.808451
 20
218.027975
 30
0.0
 11
368.172412
 21
222.527975
 31
0.0
  0
LINE
  5
C5
330
A6
100
AcDbEntity
  8
0
  6
Continuous
 62
     0
370
    30
100
AcDbLine
 10
362.400338
 20
223.620863
 30
0.0
 11
356.036377
 21
219.120863
 31
0.0
  0
LINE
  5
C6
330
A6
100
AcDbEntity
  8
0
  6
Continuous
 62
     0
370
    30
100
AcDbLine
 10
423.454816
 20
122.796387
 30
0.0
 11
417.090855
 21
118.296387
 31
0.0
  0
LWPOLYLINE
  5
C7
330
A6
100
AcDbEntity
  8
0
  6
Continuous
 62
     0
370
    30
100
AcDbPolyline
 90
       14
 70
     0
 43
0.0
 10
353.398468
 20
125.602142
 10
354.851654
 20
124.628624
 10
356.299011
 20
123.766136
 10
357.733032
 20
123.019493
 10
359.146576
 20
122.393036
 10
360.532745
 20
121.890244
 10
361.884827
 20
121.514137
 10
363.196564
 20
121.267296
 10
364.461487
 20
121.152039
 10
365.67276
 20
121.17009
 10
366.823578
 20
121.323044
 10
367.907745
 20
121.611946
 10
368.917175
 20
122.035889
 10
369.849579
 20
122.597198
  0
LWPOLYLINE
  5
C8
330
A6
100
AcDbEntity
  8
0
  6
Continuous
 62
     0
370
    30
100
AcDbPolyline
 90
       31
 70
     0
 43
0.0
 10
337.516724
 20
168.320068
 10
336.691559
 20
167.641983
 10
335.961121
 20
166.84314
 10
335.331146
 20
165.931107
 10
334.804352
 20
164.912781
 10
334.381989
 20
163.794678
 10
334.065216
 20
162.583267
 10
333.854706
 20
161.285126
 10
333.750366
 20
159.906876
 10
333.751709
 20
158.455368
 10
333.858124
 20
156.937653
 10
334.068909
 20
155.36087
 10
334.382477
 20
153.733002
 10
334.796844
 20
152.062332
 10
335.309967
 20
150.357239
 10
335.91925
 20
148.626297
 10
336.621094
 20
146.87854
 10
337.411713
 20
145.123077
 10
338.287323
 20
143.368973
 10
339.243195
 20
141.62532
 10
340.274048
 20
139.901245
 10
341.374542
 20
138.205872
 10
342.539154
 20
136.548187
 10
343.761566
 20
134.936707
 10
345.035248
 20
133.379868
 10
346.353668
 20
131.886047
 10
347.70993
 20
130.463074
 10
349.096954
 20
129.118393
 10
350.507507
 20
127.859123
 10
351.934326
 20
126.691734
 10
353.398468
 20
125.602142
  0
LINE
  5
C9
330
A6
100
AcDbEntity
  8
0
  6
Continuous
 62
     0
370
    30
100
AcDbLine
 10
394.566796
 20
140.074873
 30
0.0
 11
369.848959
 21
122.596722
 31
0.0
  0
LINE
  5
CA
330
A6
100
AcDbEntity
  8
0
  6
Continuous
 62
     0
370
    30
100
AcDbLine
 10
366.862275
 20
189.070531
 30
0.0
 11
337.517344
 21
168.320531
 31
0.0
  0
LWPOLYLINE
  5
CB
330
A6
100
AcDbEntity
  8
0
  6
Continuous
 62
     0
370
    30
100
AcDbPolyline
 90
       22
 70
     0
 43
0.0
 10
366.939545
 20
177.388046
 10
366.862183
 20
178.125916
 10
366.634979
 20
178.843689
 10
366.264893
 20
179.522446
 10
365.762634
 20
180.147018
 10
365.142029
 20
180.705673
 10
364.417175
 20
181.188019
 10
363.604462
 20
181.585541
 10
362.721375
 20
181.890747
 10
361.786316
 20
182.097519
 10
360.819763
 20
182.202881
 10
359.842468
 20
182.204453
 10
358.875519
 20
182.101379
 10
357.939758
 20
181.896164
 10
357.054993
 20
181.593231
 10
356.240417
 20
181.197815
 10
355.513397
 20
180.717148
 10
354.889984
 20
180.160095
 10
354.384949
 20
179.536972
 10
354.01123
 20
178.859299
 10
353.780029
 20
178.142059
 10
353.69986
 20
177.388702
  0
LINE
  5
CC
330
A6
100
AcDbEntity
  8
0
  6
Continuous
 62
     0
370
    30
100
AcDbLine
 10
366.941087
 20
169.679847
 30
0.0
 11
366.93953
 21
177.388052
 31
0.0
  0
LINE
  5
CD
330
A6
100
AcDbEntity
  8
0
  6
Continuous
 62
     0
370
    30
100
AcDbLine
 10
353.701407
 20
169.677311
 30
0.0
 11
353.699849
 21
177.388735
 31
0.0
  0
ENDBLK
  5
CF
330
A6
100
AcDbEntity
  8
0
100
AcDbBlockEnd
  0
BLOCK
  5
F3
330
D1
100
AcDbEntity
  8
0
100
AcDbBlockBegin
  2
e
 70
     0
 10
93.158936
 20
0.0
 30
0.0
  3
e
  1

  0
LINE
  5
D2
330
D1
100
AcDbEntity
  8
0
  6
Continuous
 62
     0
370
    30
100
AcDbLine
 10
56.212273
 20
307.897947
 30
0.0
 11
56.212273
 21
338.494455
 31
0.0
  0
LINE
  5
D3
330
D1
100
AcDbEntity
  8
0
  6
Continuous
 62
     0
370
    30
100
AcDbLine
 10
17.485695
 20
338.494455
 30
0.0
 11
17.485695
 21
349.004798
 31
0.0
  0
ELLIPSE
  5
D4
330
D1
100
AcDbEntity
  8
0
  6
Continuous
 62
     0
370
     0
100
AcDbEllipse
 10
24.105535
 20
349.004798
 30
0.0
 11
-6.619840312679797
 21
5.845692328452354E-11
 31
0.0
210
0.0
220
0.0
230
-1.0
 40
0.000202
 41
6.283185263468197
 42
9.424777917057991
  0
LWPOLYLINE
  5
D5
330
D1
100
AcDbEntity
  8
0
  6
Continuous
 62
     0
370
    30
100
AcDbPolyline
 90
       22
 70
     0
 43
0.0
 10
30.725376
 20
338.494446
 10
30.651058
 20
338.477112
 10
30.430271
 20
338.426575
 10
30.068748
 20
338.347107
 10
29.575369
 20
338.245544
 10
28.961502
 20
338.131256
 10
28.240385
 20
338.014191
 10
27.42701
 20
337.904236
 10
26.53841
 20
337.810822
 10
25.593678
 20
337.742615
 10
24.613934
 20
337.706757
 10
23.622175
 20
337.70639
 10
22.64184
 20
337.741364
 10
21.695925
 20
337.808441
 10
20.805656
 20
337.901245
 10
19.990198
 20
338.011292
 10
19.266586
 20
338.128662
 10
18.649813
 20
338.242981
 10
18.153212
 20
338.344543
 10
17.788273
 20
338.424744
 10
17.563734
 20
338.476257
 10
17.485695
 20
338.494446
  0
ELLIPSE
  5
D6
330
D1
100
AcDbEntity
  8
0
  6
Continuous
 62
     0
370
     0
100
AcDbEllipse
 10
24.105535
 20
349.504798
 30
0.0
 11
6.119840312679797
 21
-5.404164130464302E-11
 31
0.0
210
0.0
220
0.0
230
1.0
 40
0.000202
 41
0.0000000437113892
 42
3.141592697301182
  0
ARC
  5
D7
330
D1
100
AcDbEntity
  8
0
  6
Continuous
 62
     0
370
    30
100
AcDbCircle
 10
17.985695
 20
349.004798
 30
0.0
 40
0.5
100
AcDbArc
 50
90.0
 51
180.0
  0
ARC
  5
D8
330
D1
100
AcDbEntity
  8
0
  6
Continuous
 62
     0
370
    30
100
AcDbCircle
 10
-76949.693747
 20
37438.806284
 30
0.0
 40
85490.43661477852
100
AcDbArc
 50
334.238543
 51
334.257437
  0
ARC
  5
D9
330
D1
100
AcDbEntity
  8
0
  6
Continuous
 62
     0
370
    30
100
AcDbCircle
 10
77161.860132
 20
-36885.941281
 30
0.0
 40
85607.60835603249
100
AcDbArc
 50
154.248499
 51
154.267375
  0
LINE
  5
DA
330
D1
100
AcDbEntity
  8
0
  6
Continuous
 62
     0
370
    30
100
AcDbLine
 10
43.96342
 20
282.494456
 30
0.0
 11
14.712273
 21
282.494456
 31
0.0
  0
LINE
  5
DB
330
D1
100
AcDbEntity
  8
0
  6
Continuous
 62
     0
370
     0
100
AcDbLine
 10
14.712273
 20
282.494456
 30
0.0
 11
14.712273
 21
338.494455
 31
0.0
  0
LINE
  5
DC
330
D1
100
AcDbEntity
  8
0
  6
Continuous
 62
     0
370
    30
100
AcDbLine
 10
14.212273
 20
337.994455
 30
0.0
 11
14.212273
 21
282.994456
 31
0.0
  0
ARC
  5
DD
330
D1
100
AcDbEntity
  8
0
  6
Continuous
 62
     0
370
    30
100
AcDbCircle
 10
14.712273
 20
282.994456
 30
0.0
 40
0.5
100
AcDbArc
 50
180.0
 51
270.0
  0
LINE
  5
DE
330
D1
100
AcDbEntity
  8
0
  6
Continuous
 62
     0
370
    30
100
AcDbLine
 10
56.212273
 20
307.896931
 30
0.0
 11
56.212273
 21
287.494453
 31
0.0
  0
LINE
  5
DF
330
D1
100
AcDbEntity
  8
0
  6
Continuous
 62
     0
370
    30
100
AcDbLine
 10
70.212271
 20
345.503543
 30
0.0
 11
70.212271
 21
355.501523
 31
0.0
  0
LINE
  5
E0
330
D1
100
AcDbEntity
  8
0
  6
Continuous
 62
     0
370
    30
100
AcDbLine
 10
70.212271
 20
345.503543
 30
0.0
 11
70.212271
 21
275.503545
 31
0.0
  0
LINE
  5
E1
330
D1
100
AcDbEntity
  8
0
  6
Continuous
 62
     0
370
    30
100
AcDbLine
 10
70.212271
 20
265.501525
 30
0.0
 11
70.212271
 21
275.503545
 31
0.0
  0
LINE
  5
E2
330
D1
100
AcDbEntity
  8
0
  6
Continuous
 62
     0
370
    30
100
AcDbLine
 10
70.212274
 20
265.501525
 30
0.0
 11
70.212274
 21
265.487384
 31
0.0
  0
LINE
  5
E3
330
D1
100
AcDbEntity
  8
0
  6
Continuous
 62
     0
370
    30
100
AcDbLine
 10
61.212274
 20
265.487384
 30
0.0
 11
70.212274
 21
265.487384
 31
0.0
  0
LINE
  5
E4
330
D1
100
AcDbEntity
  8
0
  6
Continuous
 62
     0
370
    30
100
AcDbLine
 10
61.212274
 20
265.501525
 30
0.0
 11
61.212274
 21
265.487384
 31
0.0
  0
LINE
  5
E5
330
D1
100
AcDbEntity
  8
0
  6
Continuous
 62
     0
370
    30
100
AcDbLine
 10
61.212271
 20
265.501525
 30
0.0
 11
61.212271
 21
275.503545
 31
0.0
  0
LINE
  5
E6
330
D1
100
AcDbEntity
  8
0
  6
Continuous
 62
     0
370
    30
100
AcDbLine
 10
61.212271
 20
345.503543
 30
0.0
 11
61.212271
 21
275.503545
 31
0.0
  0
LINE
  5
E7
330
D1
100
AcDbEntity
  8
0
  6
Continuous
 62
     0
370
    30
100
AcDbLine
 10
61.212271
 20
345.503543
 30
0.0
 11
61.212271
 21
355.501523
 31
0.0
  0
LINE
  5
E8
330
D1
100
AcDbEntity
  8
0
  6
Continuous
 62
     0
370
    30
100
AcDbLine
 10
61.212271
 20
265.501525
 30
0.0
 11
70.212271
 21
265.501525
 31
0.0
  0
LINE
  5
E9
330
D1
100
AcDbEntity
  8
0
  6
Continuous
 62
     0
370
     0
100
AcDbLine
 10
61.212271
 20
275.503545
 30
0.0
 11
70.212271
 21
275.503545
 31
0.0
  0
LINE
  5
EA
330
D1
100
AcDbEntity
  8
0
  6
Continuous
 62
     0
370
     0
100
AcDbLine
 10
61.212271
 20
345.503543
 30
0.0
 11
70.212271
 21
345.503543
 31
0.0
  0
LINE
  5
EB
330
D1
100
AcDbEntity
  8
0
  6
Continuous
 62
     0
370
    30
100
AcDbLine
 10
70.212271
 20
355.501523
 30
0.0
 11
61.212271
 21
355.501523
 31
0.0
  0
LINE
  5
EC
330
D1
100
AcDbEntity
  8
0
  6
Continuous
 62
     0
370
    30
100
AcDbLine
 10
61.212273
 20
287.494453
 30
0.0
 11
56.212273
 21
287.494453
 31
0.0
  0
LINE
  5
ED
330
D1
100
AcDbEntity
  8
0
  6
Continuous
 62
     0
370
    30
100
AcDbLine
 10
61.212273
 20
333.494453
 30
0.0
 11
56.212273
 21
333.494453
 31
0.0
  0
ARC
  5
EE
330
D1
100
AcDbEntity
  8
0
  6
Continuous
 62
     0
370
    30
100
AcDbCircle
 10
14.712276
 20
337.994453
 30
0.0
 40
0.5000026855728366
100
AcDbArc
 50
90.000308
 51
179.999669
  0
LINE
  5
EF
330
D1
100
AcDbEntity
  8
0
  6
Continuous
 62
     0
370
    30
100
AcDbLine
 10
56.212273
 20
338.494455
 30
0.0
 11
30.725305
 21
338.494455
 31
0.0
  0
LINE
  5
F0
330
D1
100
AcDbEntity
  8
0
  6
Continuous
 62
     0
370
    30
100
AcDbLine
 10
17.485724
 20
338.494455
 30
0.0
 11
14.712273
 21
338.494455
 31
0.0
  0
LWPOLYLINE
  5
F1
330
D1
100
AcDbEntity
  8
0
  6
Continuous
 62
     0
370
    30
100
AcDbPolyline
 90
       15
 70
     0
 43
0.0
 10
30.725376
 20
349.004791
 10
30.671955
 20
349.229706
 10
30.523081
 20
349.406494
 10
30.310635
 20
349.497406
 10
30.225544
 20
349.504822
 10
30.212135
 20
349.504883
 10
30.191057
 20
349.504944
 10
30.161436
 20
349.504974
 10
30.123156
 20
349.505035
 10
30.076242
 20
349.505066
 10
30.020773
 20
349.505127
 10
29.956633
 20
349.505157
 10
29.884233
 20
349.505219
 10
29.803835
 20
349.505249
 10
29.713446
 20
349.50528
  0
LINE
  5
F2
330
D1
100
AcDbEntity
  8
0
  6
Continuous
 62
     0
370
    30
100
AcDbLine
 10
30.725375
 20
338.494432
 30
0.0
 11
30.725375
 21
349.004798
 31
0.0
  0
ENDBLK
  5
F4
330
D1
100
AcDbEntity
  8
0
100
AcDbBlockEnd
  0
ENDSEC
  0
SECTION
  2
ENTITIES
  0
INSERT
  5
5F
330
1F
100
AcDbEntity
  8
0
  6
Continuous
 62
   250
370
     0
100
AcDbBlockReference
  2
a
 10
133.591354
 20
113.195343
 30
0.0
  0
INSERT
  5
80
330
1F
100
AcDbEntity
  8
0
  6
Continuous
 62
   250
370
     0
100
AcDbBlockReference
  2
b
 10
133.591354
 20
113.195343
 30
0.0
  0
INSERT
  5
A5
330
1F
100
AcDbEntity
  8
0
  6
Continuous
 62
   250
370
     0
100
AcDbBlockReference
  2
c
 10
133.591354
 20
130.884827
 30
0.0
  0
INSERT
  5
D0
330
1F
100
AcDbEntity
  8
0
  6
Continuous
 62
   250
370
     0
100
AcDbBlockReference
  2
d
 10
133.591354
 20
113.195343
 30
0.0
  0
INSERT
  5
F5
330
1F
100
AcDbEntity
  8
0
  6
Continuous
 62
   250
370
     0
100
AcDbBlockReference
  2
e
 10
93.158936
 20
0.0
 30
0.0
  0
ENDSEC
  0
SECTION
  2
OBJECTS
  0
DICTIONARY
  5
C
330
0
100
AcDbDictionary
281
     1
  3
ACAD_GROUP
350
D
  3
ACAD_LAYOUT
350
1A
  3
ACAD_MLEADERSTYLE
350
F8
  3
ACAD_MLINESTYLE
350
17
  3
ACAD_PLOTSETTINGS
350
19
  3
ACAD_PLOTSTYLENAME
350
E
  3
ACAD_VISUALSTYLE
350
2A
  3
AcDbVariableDictionary
350
F6
  0
DICTIONARY
  5
D
102
{ACAD_REACTORS
330
C
102
}
330
C
100
AcDbDictionary
281
     1
  0
DICTIONARY
  5
1A
102
{ACAD_REACTORS
330
C
102
}
330
C
100
AcDbDictionary
281
     1
  3
Layout1
350
1E
  3
Layout2
350
26
  3
Model
350
22
  0
DICTIONARY
  5
F8
102
{ACAD_REACTORS
330
C
102
}
330
C
100
AcDbDictionary
281
     1
  0
DICTIONARY
  5
17
102
{ACAD_REACTORS
330
C
102
}
330
C
100
AcDbDictionary
281
     1
  3
Standard
350
18
  0
DICTIONARY
  5
19
102
{ACAD_REACTORS
330
C
102
}
330
C
100
AcDbDictionary
281
     1
  0
ACDBDICTIONARYWDFLT
  5
E
102
{ACAD_REACTORS
330
C
102
}
330
C
100
AcDbDictionary
281
     1
  3
Normal
350
F
100
AcDbDictionaryWithDefault
340
F
  0
DICTIONARY
  5
2A
102
{ACAD_REACTORS
330
C
102
}
330
C
100
AcDbDictionary
281
     1
  3
2dWireframe
350
2F
  3
3D Hidden
350
31
  3
3dWireframe
350
30
  3
Basic
350
32
  3
Brighten
350
36
  3
ColorChange
350
3A
  3
Conceptual
350
34
  3
Dim
350
35
  3
Facepattern
350
39
  3
Flat
350
2B
  3
FlatWithEdges
350
2C
  3
Gouraud
350
2D
  3
GouraudWithEdges
350
2E
  3
Linepattern
350
38
  3
Realistic
350
33
  3
Thicken
350
37
  0
DICTIONARY
  5
F6
102
{ACAD_REACTORS
330
C
102
}
330
C
100
AcDbDictionary
281
     1
  3
PSOLHEIGHT
350
FA
  3
PSOLWIDTH
350
F9
  0
LAYOUT
  5
1E
102
{ACAD_REACTORS
330
1A
102
}
330
1A
100
AcDbPlotSettings
  1

  2
none_device
  4

  6

 40
0.0
 41
0.0
 42
0.0
 43
0.0
 44
0.0
 45
0.0
 46
0.0
 47
0.0
 48
0.0
 49
0.0
140
0.0
141
0.0
142
1.0
143
1.0
 70
   688
 72
     0
 73
     0
 74
     5
  7

 75
    16
147
1.0
148
0.0
149
0.0
100
AcDbLayout
  1
Layout1
 70
     1
 71
     1
 10
0.0
 20
0.0
 11
420.0
 21
297.0
 12
0.0
 22
0.0
 32
0.0
 14
1.000000E+20
 24
1.000000E+20
 34
1.000000E+20
 15
-1.000000E+20
 25
-1.000000E+20
 35
-1.000000E+20
146
0.0
 13
0.0
 23
0.0
 33
0.0
 16
1.0
 26
0.0
 36
0.0
 17
0.0
 27
1.0
 37
0.0
 76
     0
330
1B
  0
LAYOUT
  5
26
102
{ACAD_REACTORS
330
1A
102
}
330
1A
100
AcDbPlotSettings
  1

  2
none_device
  4

  6

 40
0.0
 41
0.0
 42
0.0
 43
0.0
 44
0.0
 45
0.0
 46
0.0
 47
0.0
 48
0.0
 49
0.0
140
0.0
141
0.0
142
1.0
143
1.0
 70
   688
 72
     0
 73
     0
 74
     5
  7

 75
    16
147
1.0
148
0.0
149
0.0
100
AcDbLayout
  1
Layout2
 70
     1
 71
     2
 10
0.0
 20
0.0
 11
0.0
 21
0.0
 12
0.0
 22
0.0
 32
0.0
 14
0.0
 24
0.0
 34
0.0
 15
0.0
 25
0.0
 35
0.0
146
0.0
 13
0.0
 23
0.0
 33
0.0
 16
1.0
 26
0.0
 36
0.0
 17
0.0
 27
1.0
 37
0.0
 76
     0
330
23
  0
LAYOUT
  5
22
102
{ACAD_REACTORS
330
1A
102
}
330
1A
100
AcDbPlotSettings
  1

  2
none_device
  4

  6

 40
0.0
 41
0.0
 42
0.0
 43
0.0
 44
0.0
 45
0.0
 46
0.0
 47
0.0
 48
0.0
 49
0.0
140
0.0
141
0.0
142
1.0
143
1.0
 70
  1712
 72
     0
 73
     0
 74
     0
  7

 75
     0
147
1.0
148
0.0
149
0.0
100
AcDbLayout
  1
Model
 70
     1
 71
     0
 10
14.212273
 20
102.154778
 11
424.75238
 21
355.501526
 12
0.0
 22
0.0
 32
0.0
 14
14.212273
 24
102.154778
 34
0.0
 15
424.75238
 25
355.501526
 35
0.0
146
0.0
 13
0.0
 23
0.0
 33
0.0
 16
1.0
 26
0.0
 36
0.0
 17
0.0
 27
1.0
 37
0.0
 76
     0
330
1F
331
29
  0
MLINESTYLE
  5
18
102
{ACAD_REACTORS
330
17
102
}
330
17
100
AcDbMlineStyle
  2
Standard
 70
     0
  3

 62
   256
 51
90.0
 52
90.0
 71
     2
 49
0.5
 62
   256
  6
BYLAYER
 49
-0.5
 62
   256
  6
BYLAYER
  0
ACDBPLACEHOLDER
  5
F
102
{ACAD_REACTORS
330
E
102
}
330
E
  0
VISUALSTYLE
  5
2F
102
{ACAD_REACTORS
330
2A
102
}
330
2A
100
AcDbVisualStyle
  2
2dWireframe
 70
     4
 71
     0
 72
     2
 73
     0
 90
        0
 40
-0.6
 41
-30.0
 62
     5
 63
     7
 74
     1
 91
        4
 64
     7
 65
   257
 75
     1
175
     1
 42
1.0
 92
        0
 66
   257
 43
1.0
 76
     1
 77
     6
 78
     2
 67
     7
 79
     5
170
     0
171
     0
290
     0
174
     0
 93
        1
 44
0.0
173
     0
291
     0
 45
0.0
1001
ACAD
1000
AcDbSavedByObjectVersion
1070
     0
  0
VISUALSTYLE
  5
31
102
{ACAD_REACTORS
330
2A
102
}
330
2A
100
AcDbVisualStyle
  2
3D Hidden
 70
     6
 71
     1
 72
     2
 73
     2
 90
        0
 40
-0.6
 41
-30.0
 62
     5
 63
     7
 74
     2
 91
        2
 64
     7
 65
   257
 75
     2
175
     1
 42
40.0
 92
        0
 66
   257
 43
1.0
 76
     1
 77
     6
 78
     2
 67
     7
 79
     3
170
     0
171
     0
290
     0
174
     0
 93
        1
 44
0.0
173
     0
291
     0
 45
0.0
1001
ACAD
1000
AcDbSavedByObjectVersion
1070
     0
  0
VISUALSTYLE
  5
30
102
{ACAD_REACTORS
330
2A
102
}
330
2A
100
AcDbVisualStyle
  2
3dWireframe
 70
     5
 71
     0
 72
     2
 73
     0
 90
        0
 40
-0.6
 41
-30.0
 62
     5
 63
     7
 74
     1
 91
        4
 64
     7
 65
   257
 75
     1
175
     1
 42
1.0
 92
        0
 66
   257
 43
1.0
 76
     1
 77
     6
 78
     2
 67
     7
 79
     5
170
     0
171
     0
290
     0
174
     0
 93
        1
 44
0.0
173
     0
291
     0
 45
0.0
1001
ACAD
1000
AcDbSavedByObjectVersion
1070
     0
  0
VISUALSTYLE
  5
32
102
{ACAD_REACTORS
330
2A
102
}
330
2A
100
AcDbVisualStyle
  2
Basic
 70
     7
 71
     1
 72
     0
 73
     1
 90
        0
 40
-0.6
 41
-30.0
 62
     5
 63
     7
 74
     0
 91
        4
 64
     7
 65
   257
 75
     1
175
     1
 42
1.0
 92
        8
 66
     7
 43
1.0
 76
     1
 77
     6
 78
     2
 67
     7
 79
     5
170
     0
171
     0
290
     0
174
     0
 93
        1
 44
0.0
173
     0
291
     1
 45
0.0
1001
ACAD
1000
AcDbSavedByObjectVersion
1070
     0
  0
VISUALSTYLE
  5
36
102
{ACAD_REACTORS
330
2A
102
}
330
2A
100
AcDbVisualStyle
  2
Brighten
 70
    12
 71
     2
 72
     2
 73
     0
 90
        0
 40
-0.6
 41
-30.0
 62
     5
 63
     7
 74
     1
 91
        4
 64
     7
 65
   257
 75
     1
175
     1
 42
1.0
 92
        8
 66
     7
 43
1.0
 76
     1
 77
     6
 78
     2
 67
     7
 79
     5
170
     0
171
     0
290
     0
174
     0
 93
        1
 44
50.0
173
     0
291
     1
 45
0.0
1001
ACAD
1000
AcDbSavedByObjectVersion
1070
     0
  0
VISUALSTYLE
  5
3A
102
{ACAD_REACTORS
330
2A
102
}
330
2A
100
AcDbVisualStyle
  2
ColorChange
 70
    16
 71
     2
 72
     2
 73
     3
 90
        0
 40
-0.6
 41
-30.0
 62
     5
 63
     8
 74
     1
 91
        4
 64
     7
 65
   257
 75
     1
175
     1
 42
1.0
 92
        8
 66
     8
 43
1.0
 76
     1
 77
     6
 78
     2
 67
     7
 79
     5
170
     0
171
     0
290
     0
174
     0
 93
        1
 44
0.0
173
     0
291
     1
 45
0.0
1001
ACAD
1000
AcDbSavedByObjectVersion
1070
     0
  0
VISUALSTYLE
  5
34
102
{ACAD_REACTORS
330
2A
102
}
330
2A
100
AcDbVisualStyle
  2
Conceptual
 70
     9
 71
     3
 72
     2
 73
     0
 90
        0
 40
-0.6
 41
-30.0
 62
     5
 63
     7
 74
     2
 91
        2
 64
     7
 65
   257
 75
     1
175
     1
 42
40.0
 92
        8
 66
     7
 43
1.0
 76
     1
 77
     6
 78
     2
 67
     7
 79
     3
170
     0
171
     0
290
     0
174
     0
 93
        1
 44
0.0
173
     0
291
     0
 45
0.0
1001
ACAD
1000
AcDbSavedByObjectVersion
1070
     0
  0
VISUALSTYLE
  5
35
102
{ACAD_REACTORS
330
2A
102
}
330
2A
100
AcDbVisualStyle
  2
Dim
 70
    11
 71
     2
 72
     2
 73
     0
 90
        0
 40
-0.6
 41
-30.0
 62
     5
 63
     7
 74
     1
 91
        4
 64
     7
 65
   257
 75
     1
175
     1
 42
1.0
 92
        8
 66
     7
 43
1.0
 76
     1
 77
     6
 78
     2
 67
     7
 79
     5
170
     0
171
     0
290
     0
174
     0
 93
        1
 44
-50.0
173
     0
291
     1
 45
0.0
1001
ACAD
1000
AcDbSavedByObjectVersion
1070
     0
  0
VISUALSTYLE
  5
39
102
{ACAD_REACTORS
330
2A
102
}
330
2A
100
AcDbVisualStyle
  2
Facepattern
 70
    15
 71
     2
 72
     2
 73
     0
 90
        0
 40
-0.6
 41
-30.0
 62
     5
 63
     7
 74
     1
 91
        4
 64
     7
 65
   257
 75
     1
175
     1
 42
1.0
 92
        8
 66
     7
 43
1.0
 76
     1
 77
     6
 78
     2
 67
     7
 79
     5
170
     0
171
     0
290
     0
174
     0
 93
        1
 44
0.0
173
     0
291
     1
 45
0.0
1001
ACAD
1000
AcDbSavedByObjectVersion
1070
     0
  0
VISUALSTYLE
  5
2B
102
{ACAD_REACTORS
330
2A
102
}
330
2A
100
AcDbVisualStyle
  2
Flat
 70
     0
 71
     2
 72
     1
 73
     1
 90
        2
 40
-0.6
 41
30.0
 62
     5
 63
     7
 74
     0
 91
        4
 64
     7
 65
   257
 75
     1
175
     1
 42
1.0
 92
        8
 66
     7
 43
1.0
 76
     1
 77
     6
 78
     2
 67
     7
 79
     5
170
     0
171
     0
290
     0
174
     0
 93
       13
 44
0.0
173
     0
291
     1
 45
0.0
1001
ACAD
1000
AcDbSavedByObjectVersion
1070
     0
  0
VISUALSTYLE
  5
2C
102
{ACAD_REACTORS
330
2A
102
}
330
2A
100
AcDbVisualStyle
  2
FlatWithEdges
 70
     1
 71
     2
 72
     1
 73
     1
 90
        2
 40
-0.6
 41
30.0
 62
     5
 63
     7
 74
     1
 91
        4
 64
     7
 65
   257
 75
     1
175
     1
 42
1.0
 92
        0
 66
   257
 43
1.0
 76
     1
 77
     6
 78
     2
 67
     7
 79
     5
170
     0
171
     0
290
     0
174
     0
 93
       13
 44
0.0
173
     0
291
     1
 45
0.0
1001
ACAD
1000
AcDbSavedByObjectVersion
1070
     0
  0
VISUALSTYLE
  5
2D
102
{ACAD_REACTORS
330
2A
102
}
330
2A
100
AcDbVisualStyle
  2
Gouraud
 70
     2
 71
     2
 72
     2
 73
     1
 90
        2
 40
-0.6
 41
30.0
 62
     5
 63
     7
 74
     0
 91
        4
 64
     7
 65
   257
 75
     1
175
     1
 42
1.0
 92
        0
 66
     7
 43
1.0
 76
     1
 77
     6
 78
     2
 67
     7
 79
     5
170
     0
171
     0
290
     0
174
     0
 93
       13
 44
0.0
173
     0
291
     1
 45
0.0
1001
ACAD
1000
AcDbSavedByObjectVersion
1070
     0
  0
VISUALSTYLE
  5
2E
102
{ACAD_REACTORS
330
2A
102
}
330
2A
100
AcDbVisualStyle
  2
GouraudWithEdges
 70
     3
 71
     2
 72
     2
 73
     1
 90
        2
 40
-0.6
 41
30.0
 62
     5
 63
     7
 74
     1
 91
        4
 64
     7
 65
   257
 75
     1
175
     1
 42
1.0
 92
        0
 66
   257
 43
1.0
 76
     1
 77
     6
 78
     2
 67
     7
 79
     5
170
     0
171
     0
290
     0
174
     0
 93
       13
 44
0.0
173
     0
291
     1
 45
0.0
1001
ACAD
1000
AcDbSavedByObjectVersion
1070
     0
  0
VISUALSTYLE
  5
38
102
{ACAD_REACTORS
330
2A
102
}
330
2A
100
AcDbVisualStyle
  2
Linepattern
 70
    14
 71
     2
 72
     2
 73
     0
 90
        0
 40
-0.6
 41
-30.0
 62
     5
 63
     7
 74
     1
 91
        4
 64
     7
 65
   257
 75
     7
175
     7
 42
1.0
 92
        8
 66
     7
 43
1.0
 76
     1
 77
     6
 78
     2
 67
     7
 79
     5
170
     0
171
     0
290
     0
174
     0
 93
        1
 44
0.0
173
     0
291
     1
 45
0.0
1001
ACAD
1000
AcDbSavedByObjectVersion
1070
     0
  0
VISUALSTYLE
  5
33
102
{ACAD_REACTORS
330
2A
102
}
330
2A
100
AcDbVisualStyle
  2
Realistic
 70
     8
 71
     2
 72
     2
 73
     0
 90
        0
 40
-0.6
 41
-30.0
 62
     5
 63
     7
 74
     1
 91
        0
 64
     7
 65
   257
 75
     1
175
     1
 42
1.0
 92
        8
 66
     8
 43
1.0
 76
     1
 77
     6
 78
     2
 67
     7
 79
     5
170
     0
171
     0
290
     0
174
     0
 93
       13
 44
0.0
173
     0
291
     0
 45
0.0
1001
ACAD
1000
AcDbSavedByObjectVersion
1070
     0
  0
VISUALSTYLE
  5
37
102
{ACAD_REACTORS
330
2A
102
}
330
2A
100
AcDbVisualStyle
  2
Thicken
 70
    13
 71
     2
 72
     2
 73
     0
 90
        0
 40
-0.6
 41
-30.0
 62
     5
 63
     7
 74
     1
 91
        4
 64
     7
 65
   257
 75
     1
175
     1
 42
1.0
 92
       12
 66
     7
 43
1.0
 76
     1
 77
     6
 78
     2
 67
     7
 79
     5
170
     0
171
     0
290
     0
174
     0
 93
        1
 44
0.0
173
     0
291
     1
 45
0.0
1001
ACAD
1000
AcDbSavedByObjectVersion
1070
     0
  0
DICTIONARYVAR
  5
FA
102
{ACAD_REACTORS
330
F6
102
}
330
F6
100
DictionaryVariables
280
     0
  1
80.000000
  0
DICTIONARYVAR
  5
F9
102
{ACAD_REACTORS
330
F6
102
}
330
F6
100
DictionaryVariables
280
     0
  1
5.000000
  0
ENDSEC
  0
EOF
