  0
SECTION
  2
HEADER
  9
$ACADVER
  1
AC1015
  9
$ACADMAINTVER
 70
     6
  9
$DWGCODEPAGE
  3
ANSI_1252
  9
$INSBASE
 10
0.0
 20
0.0
 30
0.0
  9
$EXTMIN
 10
60.266155
 20
80.130867
 30
0.0
  9
$EXTMAX
 10
424.4263
 20
384.797058
 30
0.0
  9
$LIMMIN
 10
60.266155
 20
80.130867
  9
$LIMMAX
 10
424.4263
 20
384.797058
  9
$ORTHOMODE
 70
     0
  9
$REGENMODE
 70
     1
  9
$FILLMODE
 70
     1
  9
$QTEXTMODE
 70
     0
  9
$MIRRTEXT
 70
     1
  9
$LTSCALE
 40
1.0
  9
$ATTMODE
 70
     1
  9
$TEXTSIZE
 40
2.5
  9
$TRACEWID
 40
1.0
  9
$TEXTSTYLE
  7
Standard
  9
$CLAYER
  8
0
  9
$CELTYPE
  6
ByLayer
  9
$CECOLOR
 62
   256
  9
$CELTSCALE
 40
1.0
  9
$DISPSILH
 70
     0
  9
$DIMSCALE
 40
1.0
  9
$DIMASZ
 40
2.5
  9
$DIMEXO
 40
0.625
  9
$DIMDLI
 40
3.75
  9
$DIMRND
 40
0.0
  9
$DIMDLE
 40
0.0
  9
$DIMEXE
 40
1.25
  9
$DIMTP
 40
0.0
  9
$DIMTM
 40
0.0
  9
$DIMTXT
 40
2.5
  9
$DIMCEN
 40
2.5
  9
$DIMTSZ
 40
0.0
  9
$DIMTOL
 70
     0
  9
$DIMLIM
 70
     0
  9
$DIMTIH
 70
     0
  9
$DIMTOH
 70
     0
  9
$DIMSE1
 70
     0
  9
$DIMSE2
 70
     0
  9
$DIMTAD
 70
     1
  9
$DIMZIN
 70
     8
  9
$DIMBLK
  1

  9
$DIMASO
 70
     1
  9
$DIMSHO
 70
     1
  9
$DIMPOST
  1

  9
$DIMAPOST
  1

  9
$DIMALT
 70
     0
  9
$DIMALTD
 70
     3
  9
$DIMALTF
 40
0.03937
  9
$DIMLFAC
 40
1.0
  9
$DIMTOFL
 70
     1
  9
$DIMTVP
 40
0.0
  9
$DIMTIX
 70
     0
  9
$DIMSOXD
 70
     0
  9
$DIMSAH
 70
     0
  9
$DIMBLK1
  1

  9
$DIMBLK2
  1

  9
$DIMSTYLE
  2
ISO-25
  9
$DIMCLRD
 70
     0
  9
$DIMCLRE
 70
     0
  9
$DIMCLRT
 70
     0
  9
$DIMTFAC
 40
1.0
  9
$DIMGAP
 40
0.625
  9
$DIMJUST
 70
     0
  9
$DIMSD1
 70
     0
  9
$DIMSD2
 70
     0
  9
$DIMTOLJ
 70
     0
  9
$DIMTZIN
 70
     8
  9
$DIMALTZ
 70
     0
  9
$DIMALTTZ
 70
     0
  9
$DIMUPT
 70
     0
  9
$DIMDEC
 70
     2
  9
$DIMTDEC
 70
     2
  9
$DIMALTU
 70
     2
  9
$DIMALTTD
 70
     3
  9
$DIMTXSTY
  7
Standard
  9
$DIMAUNIT
 70
     0
  9
$DIMADEC
 70
     0
  9
$DIMALTRND
 40
0.0
  9
$DIMAZIN
 70
     0
  9
$DIMDSEP
 70
    44
  9
$DIMATFIT
 70
     3
  9
$DIMFRAC
 70
     0
  9
$DIMLDRBLK
  1

  9
$DIMLUNIT
 70
     2
  9
$DIMLWD
 70
    -2
  9
$DIMLWE
 70
    -2
  9
$DIMTMOVE
 70
     0
  9
$LUNITS
 70
     2
  9
$LUPREC
 70
     4
  9
$SKETCHINC
 40
1.0
  9
$FILLETRAD
 40
10.0
  9
$AUNITS
 70
     0
  9
$AUPREC
 70
     0
  9
$MENU
  1
.
  9
$ELEVATION
 40
0.0
  9
$PELEVATION
 40
0.0
  9
$THICKNESS
 40
0.0
  9
$LIMCHECK
 70
     0
  9
$CHAMFERA
 40
10.0
  9
$CHAMFERB
 40
10.0
  9
$CHAMFERC
 40
20.0
  9
$CHAMFERD
 40
0.0
  9
$SKPOLY
 70
     0
  9
$TDCREATE
 40
2455554.626973114
  9
$TDUCREATE
 40
2455554.585306447
  9
$TDUPDATE
 40
2455554.626973125
  9
$TDUUPDATE
 40
2455554.585306458
  9
$TDINDWG
 40
0.0000000116
  9
$TDUSRTIMER
 40
0.0000000116
  9
$USRTIMER
 70
     1
  9
$ANGBASE
 50
0.0
  9
$ANGDIR
 70
     0
  9
$PDMODE
 70
     0
  9
$PDSIZE
 40
0.0
  9
$PLINEWID
 40
0.0
  9
$SPLFRAME
 70
     0
  9
$SPLINETYPE
 70
     6
  9
$SPLINESEGS
 70
     8
  9
$HANDSEED
  5
E0
  9
$SURFTAB1
 70
     6
  9
$SURFTAB2
 70
     6
  9
$SURFTYPE
 70
     6
  9
$SURFU
 70
     6
  9
$SURFV
 70
     6
  9
$UCSBASE
  2

  9
$UCSNAME
  2

  9
$UCSORG
 10
0.0
 20
0.0
 30
0.0
  9
$UCSXDIR
 10
1.0
 20
0.0
 30
0.0
  9
$UCSYDIR
 10
0.0
 20
1.0
 30
0.0
  9
$UCSORTHOREF
  2

  9
$UCSORTHOVIEW
 70
     0
  9
$UCSORGTOP
 10
0.0
 20
0.0
 30
0.0
  9
$UCSORGBOTTOM
 10
0.0
 20
0.0
 30
0.0
  9
$UCSORGLEFT
 10
0.0
 20
0.0
 30
0.0
  9
$UCSORGRIGHT
 10
0.0
 20
0.0
 30
0.0
  9
$UCSORGFRONT
 10
0.0
 20
0.0
 30
0.0
  9
$UCSORGBACK
 10
0.0
 20
0.0
 30
0.0
  9
$PUCSBASE
  2

  9
$PUCSNAME
  2

  9
$PUCSORG
 10
0.0
 20
0.0
 30
0.0
  9
$PUCSXDIR
 10
1.0
 20
0.0
 30
0.0
  9
$PUCSYDIR
 10
0.0
 20
1.0
 30
0.0
  9
$PUCSORTHOREF
  2

  9
$PUCSORTHOVIEW
 70
     0
  9
$PUCSORGTOP
 10
0.0
 20
0.0
 30
0.0
  9
$PUCSORGBOTTOM
 10
0.0
 20
0.0
 30
0.0
  9
$PUCSORGLEFT
 10
0.0
 20
0.0
 30
0.0
  9
$PUCSORGRIGHT
 10
0.0
 20
0.0
 30
0.0
  9
$PUCSORGFRONT
 10
0.0
 20
0.0
 30
0.0
  9
$PUCSORGBACK
 10
0.0
 20
0.0
 30
0.0
  9
$USERI1
 70
     0
  9
$USERI2
 70
     0
  9
$USERI3
 70
     0
  9
$USERI4
 70
     0
  9
$USERI5
 70
     0
  9
$USERR1
 40
0.0
  9
$USERR2
 40
0.0
  9
$USERR3
 40
0.0
  9
$USERR4
 40
0.0
  9
$USERR5
 40
0.0
  9
$WORLDVIEW
 70
     1
  9
$SHADEDGE
 70
     3
  9
$SHADEDIF
 70
    70
  9
$TILEMODE
 70
     1
  9
$MAXACTVP
 70
    64
  9
$PINSBASE
 10
0.0
 20
0.0
 30
0.0
  9
$PLIMCHECK
 70
     0
  9
$PEXTMIN
 10
1.000000E+20
 20
1.000000E+20
 30
1.000000E+20
  9
$PEXTMAX
 10
-1.000000E+20
 20
-1.000000E+20
 30
-1.000000E+20
  9
$PLIMMIN
 10
0.0
 20
0.0
  9
$PLIMMAX
 10
420.0
 20
297.0
  9
$UNITMODE
 70
     0
  9
$VISRETAIN
 70
     1
  9
$PLINEGEN
 70
     0
  9
$PSLTSCALE
 70
     1
  9
$TREEDEPTH
 70
  3020
  9
$CMLSTYLE
  2
Standard
  9
$CMLJUST
 70
     0
  9
$CMLSCALE
 40
20.0
  9
$PROXYGRAPHICS
 70
     1
  9
$MEASUREMENT
 70
     1
  9
$CELWEIGHT
370
    -1
  9
$ENDCAPS
280
     0
  9
$JOINSTYLE
280
     0
  9
$LWDISPLAY
290
     0
  9
$INSUNITS
 70
     4
  9
$HYPERLINKBASE
  1

  9
$STYLESHEET
  1

  9
$XEDIT
290
     1
  9
$CEPSNTYPE
380
     0
  9
$PSTYLEMODE
290
     1
  9
$FINGERPRINTGUID
  2
{9C479ADC-98F8-4F52-BE21-9C325A1E7850}
  9
$VERSIONGUID
  2
{FAEB1C32-E019-11D5-929B-00C0DF256EC4}
  9
$EXTNAMES
290
     1
  9
$PSVPSCALE
 40
0.0
  9
$OLESTARTUP
290
     0
  0
ENDSEC
  0
SECTION
  2
CLASSES
  0
CLASS
  1
ACDBDICTIONARYWDFLT
  2
AcDbDictionaryWithDefault
  3
ObjectDBX Classes
 90
        0
280
     0
281
     0
  0
CLASS
  1
VISUALSTYLE
  2
AcDbVisualStyle
  3
ObjectDBX Classes
 90
     4095
280
     0
281
     0
  0
CLASS
  1
DICTIONARYVAR
  2
AcDbDictionaryVar
  3
ObjectDBX Classes
 90
        0
280
     0
281
     0
  0
CLASS
  1
ACDBPLACEHOLDER
  2
AcDbPlaceHolder
  3
ObjectDBX Classes
 90
        0
280
     0
281
     0
  0
CLASS
  1
LAYOUT
  2
AcDbLayout
  3
ObjectDBX Classes
 90
        0
280
     0
281
     0
  0
ENDSEC
  0
SECTION
  2
TABLES
  0
TABLE
  2
VPORT
  5
8
330
0
100
AcDbSymbolTable
 70
     1
  0
VPORT
  5
29
330
8
100
AcDbSymbolTableRecord
100
AcDbViewportTableRecord
  2
*Active
 70
     0
 10
0.0
 20
0.0
 11
1.0
 21
1.0
 12
344.186916
 22
148.5
 13
0.0
 23
0.0
 14
10.0
 24
10.0
 15
10.0
 25
10.0
 16
0.0
 26
0.0
 36
1.0
 17
0.0
 27
0.0
 37
0.0
 40
297.0
 41
1.972973
 42
50.0
 43
0.0
 44
0.0
 50
0.0
 51
0.0
 71
     0
 72
   100
 73
     1
 74
     3
 75
     0
 76
     0
 77
     0
 78
     0
281
     0
 65
     1
110
0.0
120
0.0
130
0.0
111
1.0
121
0.0
131
0.0
112
0.0
122
1.0
132
0.0
 79
     0
146
0.0
  0
ENDTAB
  0
TABLE
  2
LTYPE
  5
5
330
0
100
AcDbSymbolTable
 70
     1
  0
LTYPE
  5
14
330
5
100
AcDbSymbolTableRecord
100
AcDbLinetypeTableRecord
  2
ByBlock
 70
     0
  3

 72
    65
 73
     0
 40
0.0
  0
LTYPE
  5
15
330
5
100
AcDbSymbolTableRecord
100
AcDbLinetypeTableRecord
  2
ByLayer
 70
     0
  3

 72
    65
 73
     0
 40
0.0
  0
LTYPE
  5
16
330
5
100
AcDbSymbolTableRecord
100
AcDbLinetypeTableRecord
  2
Continuous
 70
     0
  3
Solid line
 72
    65
 73
     0
 40
0.0
  0
ENDTAB
  0
TABLE
  2
LAYER
  5
2
330
0
100
AcDbSymbolTable
 70
     1
  0
LAYER
  5
10
330
2
100
AcDbSymbolTableRecord
100
AcDbLayerTableRecord
  2
0
 70
     0
 62
   106
  6
Continuous
370
     0
390
F
  0
ENDTAB
  0
TABLE
  2
STYLE
  5
3
330
0
100
AcDbSymbolTable
 70
     4
  0
STYLE
  5
11
330
3
100
AcDbSymbolTableRecord
100
AcDbTextStyleTableRecord
  2
Standard
 70
     0
 40
0.0
 41
1.0
 50
0.0
 71
     0
 42
2.5
  3
txt
  4

  0
STYLE
  5
3B
330
3
100
AcDbSymbolTableRecord
100
AcDbTextStyleTableRecord
  2
Default
 70
     0
 40
0.0
 41
1.0
 50
0.0
 71
     0
 42
0.2
  3

  4

1001
ACAD
1000
txt
1071
        0
  0
STYLE
  5
3C
330
3
100
AcDbSymbolTableRecord
100
AcDbTextStyleTableRecord
  2
ISO
 70
     0
 40
0.0
 41
1.0
 50
0.0
 71
     0
 42
0.2
  3

  4

1001
ACAD
1000
txt
1071
        0
  0
STYLE
  5
3D
330
3
100
AcDbSymbolTableRecord
100
AcDbTextStyleTableRecord
  2
GIANLU
 70
     0
 40
0.0
 41
1.0
 50
0.0
 71
     0
 42
0.2
  3

  4

1001
ACAD
1000
Arial
1071
        0
  0
ENDTAB
  0
TABLE
  2
VIEW
  5
6
330
0
100
AcDbSymbolTable
 70
     0
  0
ENDTAB
  0
TABLE
  2
UCS
  5
7
330
0
100
AcDbSymbolTable
 70
     0
  0
ENDTAB
  0
TABLE
  2
APPID
  5
9
330
0
100
AcDbSymbolTable
 70
     1
  0
APPID
  5
12
330
9
100
AcDbSymbolTableRecord
100
AcDbRegAppTableRecord
  2
ACAD
 70
     0
  0
ENDTAB
  0
TABLE
  2
DIMSTYLE
  5
A
330
0
100
AcDbSymbolTable
 70
     4
100
AcDbDimStyleTable
  0
DIMSTYLE
105
27
330
A
100
AcDbSymbolTableRecord
100
AcDbDimStyleTableRecord
  2
ISO-25
 70
     0
 41
2.5
 42
0.625
 43
3.75
 44
1.25
 73
     0
 74
     0
 77
     1
 78
     8
140
2.5
141
2.5
143
0.03937
147
0.625
171
     3
172
     1
271
     2
272
     2
274
     3
278
    44
283
     0
284
     8
340
11
  0
DIMSTYLE
105
3E
330
A
100
AcDbSymbolTableRecord
100
AcDbDimStyleTableRecord
  2
Default
 70
     0
  3
<>
 41
4.375
 42
1.05
 44
2.1
 73
     0
 74
     0
 77
     1
 78
     8
140
3.5
146
0.4
147
1.75
178
     3
271
     2
272
     3
284
     8
340
3B
341
3F
342
3F
  0
DIMSTYLE
105
46
330
A
100
AcDbSymbolTableRecord
100
AcDbDimStyleTableRecord
  2
ISO
 70
     0
  3
<>
 41
4.375
 42
1.05
 44
2.1
 73
     0
 74
     0
 77
     1
 78
     8
140
3.5
146
0.4
147
1.75
178
     3
271
     2
272
     3
284
     8
340
3C
341
3F
342
3F
  0
DIMSTYLE
105
47
330
A
100
AcDbSymbolTableRecord
100
AcDbDimStyleTableRecord
  2
zucchetti_unico
 70
     0
  3
<>
 41
3.0
 42
0.9
 44
1.8
 73
     0
 74
     0
 77
     1
 78
     8
140
3.0
146
0.6
147
1.5
176
   104
177
     3
178
     3
271
     2
272
     2
284
     8
340
3D
  0
ENDTAB
  0
TABLE
  2
BLOCK_RECORD
  5
1
330
0
100
AcDbSymbolTable
 70
     7
  0
BLOCK_RECORD
  5
1F
330
1
100
AcDbSymbolTableRecord
100
AcDbBlockTableRecord
  2
*Model_Space
340
22
  0
BLOCK_RECORD
  5
1B
330
1
100
AcDbSymbolTableRecord
100
AcDbBlockTableRecord
  2
*Paper_Space
340
1E
  0
BLOCK_RECORD
  5
23
330
1
100
AcDbSymbolTableRecord
100
AcDbBlockTableRecord
  2
*Paper_Space0
340
26
  0
BLOCK_RECORD
  5
3F
330
1
100
AcDbSymbolTableRecord
100
AcDbBlockTableRecord
  2
_CLOSED
340
0
  0
BLOCK_RECORD
  5
48
330
1
100
AcDbSymbolTableRecord
100
AcDbBlockTableRecord
  2
a
340
0
102
{BLKREFS
331
5B
102
}
  0
BLOCK_RECORD
  5
5C
330
1
100
AcDbSymbolTableRecord
100
AcDbBlockTableRecord
  2
b
340
0
102
{BLKREFS
331
78
102
}
  0
BLOCK_RECORD
  5
79
330
1
100
AcDbSymbolTableRecord
100
AcDbBlockTableRecord
  2
c
340
0
102
{BLKREFS
331
98
102
}
  0
BLOCK_RECORD
  5
99
330
1
100
AcDbSymbolTableRecord
100
AcDbBlockTableRecord
  2
d
340
0
102
{BLKREFS
331
BC
102
}
  0
BLOCK_RECORD
  5
BD
330
1
100
AcDbSymbolTableRecord
100
AcDbBlockTableRecord
  2
e
340
0
102
{BLKREFS
331
DA
102
}
  0
ENDTAB
  0
ENDSEC
  0
SECTION
  2
BLOCKS
  0
BLOCK
  5
20
330
1F
100
AcDbEntity
  8
0
100
AcDbBlockBegin
  2
*Model_Space
 70
     0
 10
0.0
 20
0.0
 30
0.0
  3
*Model_Space
  1

  0
ENDBLK
  5
21
330
1F
100
AcDbEntity
  8
0
100
AcDbBlockEnd
  0
BLOCK
  5
1C
330
1B
100
AcDbEntity
 67
     1
  8
0
100
AcDbBlockBegin
  2
*Paper_Space
 70
     0
 10
0.0
 20
0.0
 30
0.0
  3
*Paper_Space
  1

  0
ENDBLK
  5
1D
330
1B
100
AcDbEntity
 67
     1
  8
0
100
AcDbBlockEnd
  0
BLOCK
  5
24
330
23
100
AcDbEntity
  8
0
100
AcDbBlockBegin
  2
*Paper_Space0
 70
     0
 10
0.0
 20
0.0
 30
0.0
  3
*Paper_Space0
  1

  0
ENDBLK
  5
25
330
23
100
AcDbEntity
  8
0
100
AcDbBlockEnd
  0
BLOCK
  5
40
330
3F
100
AcDbEntity
  8
0
100
AcDbBlockBegin
  2
_CLOSED
 70
     0
 10
0.0
 20
0.0
 30
0.0
  3
_CLOSED
  1

  0
LINE
  5
42
330
3F
100
AcDbEntity
  8
0
  6
ByBlock
 62
     0
370
    -2
100
AcDbLine
 10
-1.0
 20
0.166667
 30
0.0
 11
0.0
 21
0.0
 31
0.0
  0
LINE
  5
43
330
3F
100
AcDbEntity
  8
0
  6
ByBlock
 62
     0
370
    -2
100
AcDbLine
 10
0.0
 20
0.0
 30
0.0
 11
-1.0
 21
-0.166667
 31
0.0
  0
LINE
  5
44
330
3F
100
AcDbEntity
  8
0
  6
ByBlock
 62
     0
370
    -2
100
AcDbLine
 10
-1.0
 20
0.166667
 30
0.0
 11
-1.0
 21
-0.166667
 31
0.0
  0
LINE
  5
45
330
3F
100
AcDbEntity
  8
0
  6
ByBlock
 62
     0
370
    -2
100
AcDbLine
 10
0.0
 20
0.0
 30
0.0
 11
-1.0
 21
0.0
 31
0.0
  0
ENDBLK
  5
41
330
3F
100
AcDbEntity
  8
0
100
AcDbBlockEnd
  0
BLOCK
  5
59
330
48
100
AcDbEntity
  8
0
100
AcDbBlockBegin
  2
a
 70
     0
 10
141.193481
 20
85.454987
 30
0.0
  3
a
  1

  0
LINE
  5
49
330
48
100
AcDbEntity
  8
0
  6
Continuous
 62
     0
370
     0
100
AcDbLine
 10
222.953848
 20
363.307399
 30
0.0
 11
229.573688
 21
363.307399
 31
0.0
  0
LINE
  5
4A
330
48
100
AcDbEntity
  8
0
  6
Continuous
 62
     0
370
     0
100
AcDbLine
 10
229.573688
 20
363.307399
 30
0.0
 11
236.193529
 21
363.307399
 31
0.0
  0
LINE
  5
4B
330
48
100
AcDbEntity
  8
0
  6
Continuous
 62
     0
370
    30
100
AcDbLine
 10
235.693529
 20
363.807399
 30
0.0
 11
229.573688
 21
363.807399
 31
0.0
  0
LINE
  5
4C
330
48
100
AcDbEntity
  8
0
  6
Continuous
 62
     0
370
    30
100
AcDbLine
 10
229.573688
 20
363.807399
 30
0.0
 11
223.453848
 21
363.807399
 31
0.0
  0
ARC
  5
4D
330
48
100
AcDbEntity
  8
0
  6
Continuous
 62
     0
370
    30
100
AcDbCircle
 10
229.573688
 20
324.797056
 30
0.0
 40
28.0
100
AcDbArc
 50
90.0
 51
270.0
  0
ARC
  5
4E
330
48
100
AcDbEntity
  8
0
  6
Continuous
 62
     0
370
    30
100
AcDbCircle
 10
229.573688
 20
324.797056
 30
0.0
 40
28.0
100
AcDbArc
 50
270.0
 51
90.0
  0
ARC
  5
4F
330
48
100
AcDbEntity
  8
0
  6
Continuous
 62
     0
370
     0
100
AcDbCircle
 10
229.573688
 20
324.797056
 30
0.0
 40
27.5
100
AcDbArc
 50
270.0
 51
90.0
  0
ARC
  5
50
330
48
100
AcDbEntity
  8
0
  6
Continuous
 62
     0
370
     0
100
AcDbCircle
 10
229.573688
 20
324.797056
 30
0.0
 40
27.5
100
AcDbArc
 50
90.0
 51
270.0
  0
ARC
  5
51
330
48
100
AcDbEntity
  8
0
  6
Continuous
 62
     0
370
     0
100
AcDbCircle
 10
229.573689
 20
324.797054
 30
0.0
 40
59.5
100
AcDbArc
 50
90.0
 51
270.0
  0
ARC
  5
52
330
48
100
AcDbEntity
  8
0
  6
Continuous
 62
     0
370
     0
100
AcDbCircle
 10
229.573689
 20
324.797054
 30
0.0
 40
59.5
100
AcDbArc
 50
270.0
 51
90.0
  0
ARC
  5
53
330
48
100
AcDbEntity
  8
0
  6
Continuous
 62
     0
370
    30
100
AcDbCircle
 10
229.573689
 20
324.797054
 30
0.0
 40
60.0
100
AcDbArc
 50
270.0
 51
90.0
  0
ARC
  5
54
330
48
100
AcDbEntity
  8
0
  6
Continuous
 62
     0
370
    30
100
AcDbCircle
 10
229.573689
 20
324.797054
 30
0.0
 40
60.0
100
AcDbArc
 50
90.0
 51
270.0
  0
ARC
  5
55
330
48
100
AcDbEntity
  8
0
  6
Continuous
 62
     0
370
    30
100
AcDbCircle
 10
223.453851
 20
363.307397
 30
0.0
 40
0.5000027448334241
100
AcDbArc
 50
90.001774
 51
179.999685
  0
ARC
  5
56
330
48
100
AcDbEntity
  8
0
  6
Continuous
 62
     0
370
    30
100
AcDbCircle
 10
235.693526
 20
363.307397
 30
0.0
 40
0.5000027446343367
100
AcDbArc
 50
0.000315
 51
89.998297
  0
LINE
  5
57
330
48
100
AcDbEntity
  8
0
  6
Continuous
 62
     0
370
    30
100
AcDbLine
 10
236.193529
 20
352.002894
 30
0.0
 11
236.193529
 21
363.307399
 31
0.0
  0
LINE
  5
58
330
48
100
AcDbEntity
  8
0
  6
Continuous
 62
     0
370
    30
100
AcDbLine
 10
222.953848
 20
352.002894
 30
0.0
 11
222.953848
 21
363.307399
 31
0.0
  0
ENDBLK
  5
5A
330
48
100
AcDbEntity
  8
0
100
AcDbBlockEnd
  0
BLOCK
  5
76
330
5C
100
AcDbEntity
  8
0
100
AcDbBlockBegin
  2
b
 70
     0
 10
141.193481
 20
85.454987
 30
0.0
  3
b
  1

  0
LINE
  5
5D
330
5C
100
AcDbEntity
  8
0
  6
Continuous
 62
     0
370
    30
100
AcDbLine
 10
257.573692
 20
130.202945
 30
0.0
 11
201.573692
 21
130.202945
 31
0.0
  0
ARC
  5
5E
330
5C
100
AcDbEntity
  8
0
  6
Continuous
 62
     0
370
    30
100
AcDbCircle
 10
229.573692
 20
98.096206
 30
0.0
 40
6.619840312679797
100
AcDbArc
 50
90.0
 51
270.0
  0
ARC
  5
5F
330
5C
100
AcDbEntity
  8
0
  6
Continuous
 62
     0
370
    30
100
AcDbCircle
 10
229.573692
 20
98.096206
 30
0.0
 40
6.619840312679797
100
AcDbArc
 50
270.0
 51
90.0
  0
ARC
  5
60
330
5C
100
AcDbEntity
  8
0
  6
Continuous
 62
     0
370
     0
100
AcDbCircle
 10
229.573692
 20
98.096205
 30
0.0
 40
6.119840312679797
100
AcDbArc
 50
270.0
 51
90.0
  0
ARC
  5
61
330
5C
100
AcDbEntity
  8
0
  6
Continuous
 62
     0
370
     0
100
AcDbCircle
 10
229.573692
 20
98.096205
 30
0.0
 40
6.119840312679797
100
AcDbArc
 50
90.0
 51
270.0
  0
LINE
  5
62
330
5C
100
AcDbEntity
  8
0
  6
Continuous
 62
     0
370
     0
100
AcDbLine
 10
229.573692
 20
88.702945
 30
0.0
 11
201.573692
 21
88.702945
 31
0.0
  0
LINE
  5
63
330
5C
100
AcDbEntity
  8
0
  6
Continuous
 62
     0
370
     0
100
AcDbLine
 10
257.573692
 20
88.702945
 30
0.0
 11
229.573692
 21
88.702945
 31
0.0
  0
LINE
  5
64
330
5C
100
AcDbEntity
  8
0
  6
Continuous
 62
     0
370
    30
100
AcDbLine
 10
229.573692
 20
88.202945
 30
0.0
 11
257.073692
 21
88.202945
 31
0.0
  0
LINE
  5
65
330
5C
100
AcDbEntity
  8
0
  6
Continuous
 62
     0
370
    30
100
AcDbLine
 10
202.073692
 20
88.202945
 30
0.0
 11
229.573692
 21
88.202945
 31
0.0
  0
LINE
  5
66
330
5C
100
AcDbEntity
  8
0
  6
Continuous
 62
     0
370
    30
100
AcDbLine
 10
289.573692
 20
145.202945
 30
0.0
 11
229.573692
 21
145.202945
 31
0.0
  0
LINE
  5
67
330
5C
100
AcDbEntity
  8
0
  6
Continuous
 62
     0
370
    30
100
AcDbLine
 10
229.573692
 20
145.202945
 30
0.0
 11
169.573692
 21
145.202945
 31
0.0
  0
LINE
  5
68
330
5C
100
AcDbEntity
  8
0
  6
Continuous
 62
     0
370
    30
100
AcDbLine
 10
229.573692
 20
135.202945
 30
0.0
 11
170.073692
 21
135.202945
 31
0.0
  0
LINE
  5
69
330
5C
100
AcDbEntity
  8
0
  6
Continuous
 62
     0
370
    30
100
AcDbLine
 10
289.073692
 20
135.202945
 30
0.0
 11
229.573692
 21
135.202945
 31
0.0
  0
LINE
  5
6A
330
5C
100
AcDbEntity
  8
0
  6
Continuous
 62
     0
370
     0
100
AcDbLine
 10
229.573692
 20
135.702945
 30
0.0
 11
289.573692
 21
135.702945
 31
0.0
  0
LINE
  5
6B
330
5C
100
AcDbEntity
  8
0
  6
Continuous
 62
     0
370
     0
100
AcDbLine
 10
169.573692
 20
135.702945
 30
0.0
 11
229.573692
 21
135.702945
 31
0.0
  0
ARC
  5
6C
330
5C
100
AcDbEntity
  8
0
  6
Continuous
 62
     0
370
    30
100
AcDbCircle
 10
289.073689
 20
135.702948
 30
0.0
 40
0.5000034729023892
100
AcDbArc
 50
270.014742
 51
359.999602
  0
ARC
  5
6D
330
5C
100
AcDbEntity
  8
0
  6
Continuous
 62
     0
370
    30
100
AcDbCircle
 10
170.073696
 20
135.702948
 30
0.0
 40
0.5000034729015302
100
AcDbArc
 50
180.000398
 51
269.985258
  0
LINE
  5
6E
330
5C
100
AcDbEntity
  8
0
  6
Continuous
 62
     0
370
    30
100
AcDbLine
 10
169.573692
 20
145.202945
 30
0.0
 11
169.573692
 21
135.702945
 31
0.0
  0
LINE
  5
6F
330
5C
100
AcDbEntity
  8
0
  6
Continuous
 62
     0
370
    30
100
AcDbLine
 10
289.573692
 20
145.202945
 30
0.0
 11
289.573692
 21
135.702945
 31
0.0
  0
LINE
  5
70
330
5C
100
AcDbEntity
  8
0
  6
Continuous
 62
     0
370
    30
100
AcDbLine
 10
206.573692
 20
135.202945
 30
0.0
 11
206.573692
 21
130.202945
 31
0.0
  0
LINE
  5
71
330
5C
100
AcDbEntity
  8
0
  6
Continuous
 62
     0
370
    30
100
AcDbLine
 10
252.573692
 20
135.202945
 30
0.0
 11
252.573692
 21
130.202945
 31
0.0
  0
ARC
  5
72
330
5C
100
AcDbEntity
  8
0
  6
Continuous
 62
     0
370
    30
100
AcDbCircle
 10
202.073695
 20
88.702948
 30
0.0
 40
0.5000027626815744
100
AcDbArc
 50
180.000317
 51
269.993609
  0
ARC
  5
73
330
5C
100
AcDbEntity
  8
0
  6
Continuous
 62
     0
370
    30
100
AcDbCircle
 10
257.07369
 20
88.702948
 30
0.0
 40
0.5000027626808266
100
AcDbArc
 50
270.006391
 51
359.999683
  0
LINE
  5
74
330
5C
100
AcDbEntity
  8
0
  6
Continuous
 62
     0
370
    30
100
AcDbLine
 10
257.573692
 20
130.202945
 30
0.0
 11
257.573692
 21
88.702945
 31
0.0
  0
LINE
  5
75
330
5C
100
AcDbEntity
  8
0
  6
Continuous
 62
     0
370
    30
100
AcDbLine
 10
201.573692
 20
130.202945
 30
0.0
 11
201.573692
 21
88.702945
 31
0.0
  0
ENDBLK
  5
77
330
5C
100
AcDbEntity
  8
0
100
AcDbBlockEnd
  0
BLOCK
  5
96
330
79
100
AcDbEntity
  8
0
100
AcDbBlockBegin
  2
c
 70
     0
 10
141.193481
 20
126.942078
 30
0.0
  3
c
  1

  0
LINE
  5
7A
330
79
100
AcDbEntity
  8
0
  6
Continuous
 62
     0
370
    30
100
AcDbLine
 10
357.402687
 20
352.797041
 30
0.0
 11
357.402687
 21
322.1949
 31
0.0
  0
LINE
  5
7B
330
79
100
AcDbEntity
  8
0
  6
Continuous
 62
     0
370
    30
100
AcDbLine
 10
396.129265
 20
352.797041
 30
0.0
 11
396.129265
 21
363.307384
 31
0.0
  0
LINE
  5
7C
330
79
100
AcDbEntity
  8
0
  6
Continuous
 62
     0
370
     0
100
AcDbLine
 10
382.889585
 20
363.307384
 30
0.0
 11
396.129265
 21
363.307384
 31
0.0
  0
LWPOLYLINE
  5
7D
330
79
100
AcDbEntity
  8
0
  6
Continuous
 62
     0
370
    30
100
AcDbPolyline
 90
       22
 70
     0
 43
0.0
 10
396.129272
 20
352.797028
 10
396.055023
 20
352.779419
 10
395.834137
 20
352.728546
 10
395.472656
 20
352.648895
 10
394.979248
 20
352.547363
 10
394.365356
 20
352.433167
 10
393.644257
 20
352.315948
 10
392.830902
 20
352.205444
 10
391.942322
 20
352.111847
 10
390.997559
 20
352.043915
 10
390.017822
 20
352.008026
 10
389.026062
 20
352.007568
 10
388.045746
 20
352.042603
 10
387.099823
 20
352.109772
 10
386.209564
 20
352.20285
 10
385.394104
 20
352.313049
 10
384.670471
 20
352.430206
 10
384.05368
 20
352.544525
 10
383.557098
 20
352.646515
 10
383.192139
 20
352.72699
 10
382.967712
 20
352.778687
 10
382.889587
 20
352.797028
  0
LINE
  5
7E
330
79
100
AcDbEntity
  8
0
  6
Continuous
 62
     0
370
    30
100
AcDbLine
 10
395.629265
 20
363.807384
 30
0.0
 11
383.389585
 21
363.807384
 31
0.0
  0
ARC
  5
7F
330
79
100
AcDbEntity
  8
0
  6
Continuous
 62
     0
370
    30
100
AcDbCircle
 10
395.629265
 20
363.307384
 30
0.0
 40
0.5
100
AcDbArc
 50
0.0
 51
90.0
  0
LINE
  5
80
330
79
100
AcDbEntity
  8
0
  6
Continuous
 62
     0
370
    30
100
AcDbLine
 10
357.402688
 20
322.1949
 30
0.0
 11
369.65154
 21
296.797041
 31
0.0
  0
LINE
  5
81
330
79
100
AcDbEntity
  8
0
  6
Continuous
 62
     0
370
    30
100
AcDbLine
 10
369.65154
 20
296.797041
 30
0.0
 11
398.902687
 21
296.797041
 31
0.0
  0
LINE
  5
82
330
79
100
AcDbEntity
  8
0
  6
Continuous
 62
     0
370
     0
100
AcDbLine
 10
398.902687
 20
352.797041
 30
0.0
 11
398.902687
 21
296.797041
 31
0.0
  0
LINE
  5
83
330
79
100
AcDbEntity
  8
0
  6
Continuous
 62
     0
370
    30
100
AcDbLine
 10
399.402687
 20
297.297041
 30
0.0
 11
399.402687
 21
352.297041
 31
0.0
  0
ARC
  5
84
330
79
100
AcDbEntity
  8
0
  6
Continuous
 62
     0
370
    30
100
AcDbCircle
 10
398.902687
 20
297.297041
 30
0.0
 40
0.5
100
AcDbArc
 50
270.0
 51
353.100498
  0
LINE
  5
85
330
79
100
AcDbEntity
  8
0
  6
Continuous
 62
     0
370
    30
100
AcDbLine
 10
342.402688
 20
384.797039
 30
0.0
 11
342.402688
 21
264.797039
 31
0.0
  0
LINE
  5
86
330
79
100
AcDbEntity
  8
0
  6
Continuous
 62
     0
370
    30
100
AcDbLine
 10
352.402688
 20
347.797039
 30
0.0
 11
357.402687
 21
347.797039
 31
0.0
  0
LINE
  5
87
330
79
100
AcDbEntity
  8
0
  6
Continuous
 62
     0
370
    30
100
AcDbLine
 10
357.402688
 20
301.797039
 30
0.0
 11
357.402688
 21
322.1949
 31
0.0
  0
LINE
  5
88
330
79
100
AcDbEntity
  8
0
  6
Continuous
 62
     0
370
    30
100
AcDbLine
 10
352.402688
 20
384.297039
 30
0.0
 11
352.402688
 21
265.297039
 31
0.0
  0
LINE
  5
89
330
79
100
AcDbEntity
  8
0
  6
Continuous
 62
     0
370
    30
100
AcDbLine
 10
342.402688
 20
384.797039
 30
0.0
 11
351.902688
 21
384.797039
 31
0.0
  0
LINE
  5
8A
330
79
100
AcDbEntity
  8
0
  6
Continuous
 62
     0
370
     0
100
AcDbLine
 10
351.902688
 20
264.797039
 30
0.0
 11
351.902688
 21
384.797039
 31
0.0
  0
ARC
  5
8B
330
79
100
AcDbEntity
  8
0
  6
Continuous
 62
     0
370
    30
100
AcDbCircle
 10
351.902688
 20
384.297039
 30
0.0
 40
0.5
100
AcDbArc
 50
6.899503
 51
90.0
  0
ARC
  5
8C
330
79
100
AcDbEntity
  8
0
  6
Continuous
 62
     0
370
    30
100
AcDbCircle
 10
351.902684
 20
265.297042
 30
0.0
 40
0.500003442282595
100
AcDbArc
 50
270.000394
 51
359.999606
  0
ARC
  5
8D
330
79
100
AcDbEntity
  8
0
  6
Continuous
 62
     0
370
    30
100
AcDbCircle
 10
351.906276
 20
384.296872
 30
0.0
 40
0.4964118681668769
100
AcDbArc
 50
0.019278
 51
6.968379
  0
LINE
  5
8E
330
79
100
AcDbEntity
  8
0
  6
Continuous
 62
     0
370
    30
100
AcDbLine
 10
342.402688
 20
264.797039
 30
0.0
 11
351.902688
 21
264.797039
 31
0.0
  0
LINE
  5
8F
330
79
100
AcDbEntity
  8
0
  6
Continuous
 62
     0
370
    30
100
AcDbLine
 10
352.402688
 20
301.797039
 30
0.0
 11
357.402688
 21
301.797039
 31
0.0
  0
ARC
  5
90
330
79
100
AcDbEntity
  8
0
  6
Continuous
 62
     0
370
    30
100
AcDbCircle
 10
398.902685
 20
352.297038
 30
0.0
 40
0.5000026860658864
100
AcDbArc
 50
0.000308
 51
89.999692
  0
ARC
  5
91
330
79
100
AcDbEntity
  8
0
  6
Continuous
 62
     0
370
    30
100
AcDbCircle
 10
398.906275
 20
297.297208
 30
0.0
 40
0.4964121663617879
100
AcDbArc
 50
353.031623
 51
359.980721
  0
LINE
  5
92
330
79
100
AcDbEntity
  8
0
  6
Continuous
 62
     0
370
    30
100
AcDbLine
 10
357.402687
 20
352.797041
 30
0.0
 11
382.889585
 21
352.797041
 31
0.0
  0
LINE
  5
93
330
79
100
AcDbEntity
  8
0
  6
Continuous
 62
     0
370
    30
100
AcDbLine
 10
396.129265
 20
352.797041
 30
0.0
 11
398.902687
 21
352.797041
 31
0.0
  0
ARC
  5
94
330
79
100
AcDbEntity
  8
0
  6
Continuous
 62
     0
370
    30
100
AcDbCircle
 10
383.389588
 20
363.307381
 30
0.0
 40
0.50000344228165
100
AcDbArc
 50
90.000394
 51
179.999606
  0
LINE
  5
95
330
79
100
AcDbEntity
  8
0
  6
Continuous
 62
     0
370
    30
100
AcDbLine
 10
382.889585
 20
352.797018
 30
0.0
 11
382.889585
 21
363.307384
 31
0.0
  0
ENDBLK
  5
97
330
79
100
AcDbEntity
  8
0
100
AcDbBlockEnd
  0
BLOCK
  5
BA
330
99
100
AcDbEntity
  8
0
100
AcDbBlockBegin
  2
d
 70
     0
 10
141.193481
 20
85.454987
 30
0.0
  3
d
  1

  0
ELLIPSE
  5
9A
330
99
100
AcDbEntity
  8
0
  6
Continuous
 62
     0
370
    30
100
AcDbEllipse
 10
371.393894
 20
165.533708
 30
0.0
 11
16.16580789931272
 21
-22.86190401000141
 31
0.0
210
0.0
220
0.0
230
0.9999999999999998
 40
0.5
 41
0.5224117825800718
 42
3.141592690335621
  0
ELLIPSE
  5
9B
330
99
100
AcDbEntity
  8
0
  6
Continuous
 62
     0
370
     0
100
AcDbEllipse
 10
348.691002
 20
176.711262
 30
0.0
 11
-6.619840312679797
 21
0.0
 31
0.0
210
0.0
220
0.0
230
1.0
 40
0.707107
 41
6.283005754416866
 42
7.068583470577035
  0
ELLIPSE
  5
9C
330
99
100
AcDbEntity
  8
0
  6
Continuous
 62
     0
370
     0
100
AcDbEllipse
 10
348.691002
 20
176.711262
 30
0.0
 11
-6.619840312679797
 21
0.0
 31
0.0
210
0.0
220
0.0
230
1.0
 40
0.707107
 41
0.7853981633974483
 42
3.165391989300298
  0
LWPOLYLINE
  5
9D
330
99
100
AcDbEntity
  8
0
  6
Continuous
 62
     0
370
    30
100
AcDbPolyline
 90
       17
 70
     0
 43
0.0
 10
355.310822
 20
169.000717
 10
355.240204
 20
168.237747
 10
355.029419
 20
167.495041
 10
354.68219
 20
166.792725
 10
354.205231
 20
166.150345
 10
353.608276
 20
165.585709
 10
352.904633
 20
165.113098
 10
352.110443
 20
164.742798
 10
351.243866
 20
164.48114
 10
350.32431
 20
164.329865
 10
349.371368
 20
164.287155
 10
348.404633
 20
164.34848
 10
347.443542
 20
164.507202
 10
346.507874
 20
164.755432
 10
345.617401
 20
165.084244
 10
344.79071
 20
165.483902
 10
344.010071
 20
165.969406
  0
LWPOLYLINE
  5
9E
330
99
100
AcDbEntity
  8
0
  6
Continuous
 62
     0
370
    30
100
AcDbPolyline
 90
        7
 70
     0
 43
0.0
 10
344.010071
 20
165.969406
 10
343.458344
 20
166.403336
 10
342.989166
 20
166.86647
 10
342.611786
 20
167.350769
 10
342.331238
 20
167.850494
 10
342.151245
 20
168.36055
 10
342.071198
 20
169.000198
  0
ELLIPSE
  5
9F
330
99
100
AcDbEntity
  8
0
  6
Continuous
 62
     0
370
     0
100
AcDbEllipse
 10
348.691002
 20
177.064816
 30
0.0
 11
6.119840312679797
 21
0.0
 31
0.0
210
0.0
220
0.0
230
-1.0
 40
0.707107
 41
5.497787143782138
 42
8.63937979737193
  0
ELLIPSE
  5
A0
330
99
100
AcDbEntity
  8
0
  6
Continuous
 62
     0
370
     0
100
AcDbEllipse
 10
348.691002
 20
177.064816
 30
0.0
 11
6.119840312679797
 21
0.0
 31
0.0
210
0.0
220
0.0
230
-1.0
 40
0.707107
 41
2.356194490192344
 42
5.497787143782138
  0
LWPOLYLINE
  5
A1
330
99
100
AcDbEntity
  8
0
  6
Continuous
 62
     0
370
    30
100
AcDbPolyline
 90
        9
 70
     0
 43
0.0
 10
382.927765
 20
139.39653
 10
384.203369
 20
140.376175
 10
385.412994
 20
141.462723
 10
386.550568
 20
142.645432
 10
387.611237
 20
143.912781
 10
388.591309
 20
145.252716
 10
389.488556
 20
146.653061
 10
390.301727
 20
148.101639
 10
391.107208
 20
149.754303
  0
ELLIPSE
  5
A2
330
99
100
AcDbEntity
  8
0
  6
Continuous
 62
     0
370
     0
100
AcDbEllipse
 10
342.048963
 20
144.783707
 30
0.0
 11
16.16580789931272
 21
-22.86190401000141
 31
0.0
210
0.0
220
0.0
230
0.9999999999999998
 40
0.5
 41
2.1862760037966
 42
3.146650666194784
  0
ELLIPSE
  5
A3
330
99
100
AcDbEntity
  8
0
  6
Continuous
 62
     0
370
     0
100
AcDbEllipse
 10
342.048963
 20
144.783707
 30
0.0
 11
16.16580789931272
 21
-22.86190401000141
 31
0.0
210
0.0
220
0.0
230
0.9999999999999998
 40
0.5
 41
6.275899453708632
 42
8.469461310976186
  0
ELLIPSE
  5
A4
330
99
100
AcDbEntity
  8
0
  6
Continuous
 62
     0
370
     0
100
AcDbEllipse
 10
341.69541
 20
144.533707
 30
0.0
 11
-15.87713275825357
 21
22.45365572410853
 31
0.0
210
0.0
220
0.0
230
-0.9999999999999998
 40
0.5
 41
0.9553166497931929
 42
4.096909303382986
  0
ELLIPSE
  5
A5
330
99
100
AcDbEntity
  8
0
  6
Continuous
 62
     0
370
     0
100
AcDbEllipse
 10
341.69541
 20
144.533707
 30
0.0
 11
-15.87713275825357
 21
22.45365572410853
 31
0.0
210
0.0
220
0.0
230
-0.9999999999999998
 40
0.5
 41
4.096909303382986
 42
7.23850195697278
  0
ELLIPSE
  5
A6
330
99
100
AcDbEntity
  8
0
  6
Continuous
 62
     0
370
    30
100
AcDbEllipse
 10
382.000496
 20
173.033707
 30
0.0
 11
34.64101692709869
 21
-48.98979430714588
 31
0.0
210
0.0
220
0.0
230
0.9999999999999998
 40
0.5
 41
0.0000000367458277
 42
2.1862760037966
  0
ELLIPSE
  5
A7
330
99
100
AcDbEntity
  8
0
  6
Continuous
 62
     0
370
    30
100
AcDbEllipse
 10
382.000496
 20
173.033707
 30
0.0
 11
34.64101692709869
 21
-48.98979430714588
 31
0.0
210
0.0
220
0.0
230
0.9999999999999998
 40
0.5
 41
2.1862760037966
 42
3.141592690335621
  0
ELLIPSE
  5
A8
330
99
100
AcDbEntity
  8
0
  6
Continuous
 62
     0
370
    30
100
AcDbEllipse
 10
374.929428
 20
168.033706
 30
0.0
 11
13.27905648872116
 21
-18.77942115107259
 31
0.0
210
0.0
220
0.0
230
0.9999999999999998
 40
0.5
 41
2.1862760037966
 42
2.672766404131413
  0
ELLIPSE
  5
A9
330
99
100
AcDbEntity
  8
0
  6
Continuous
 62
     0
370
    30
100
AcDbEllipse
 10
374.929428
 20
168.033706
 30
0.0
 11
13.27905648872116
 21
-18.77942115107259
 31
0.0
210
0.0
220
0.0
230
0.9999999999999998
 40
0.5
 41
0.4688260720891169
 42
2.1862760037966
  0
ELLIPSE
  5
AA
330
99
100
AcDbEntity
  8
0
  6
Continuous
 62
     0
370
     0
100
AcDbEllipse
 10
374.929428
 20
168.033706
 30
0.0
 11
34.35234178603954
 21
-48.581546021253
 31
0.0
210
0.0
220
0.0
230
0.9999999999999998
 40
0.5
 41
5.202346322693588
 42
5.327868657386393
  0
ELLIPSE
  5
AB
330
99
100
AcDbEntity
  8
0
  6
Continuous
 62
     0
370
     0
100
AcDbEllipse
 10
374.929428
 20
168.033706
 30
0.0
 11
34.35234178603954
 21
-48.581546021253
 31
0.0
210
0.0
220
0.0
230
0.9999999999999998
 40
0.5
 41
2.1862760037966
 42
4.222431670186131
  0
ELLIPSE
  5
AC
330
99
100
AcDbEntity
  8
0
  6
Continuous
 62
     0
370
     0
100
AcDbEllipse
 10
374.929428
 20
168.033706
 30
0.0
 11
34.35234178603954
 21
-48.581546021253
 31
0.0
210
0.0
220
0.0
230
0.9999999999999998
 40
0.5
 41
5.327868657386393
 42
8.469461310976186
  0
ELLIPSE
  5
AD
330
99
100
AcDbEntity
  8
0
  6
Continuous
 62
     0
370
     0
100
AcDbEllipse
 10
375.282981
 20
168.283707
 30
0.0
 11
-34.64101692709869
 21
48.98979430714588
 31
0.0
210
0.0
220
0.0
230
-0.9999999999999998
 40
0.5
 41
0.9553166497931933
 42
3.15286581925453
  0
ELLIPSE
  5
AE
330
99
100
AcDbEntity
  8
0
  6
Continuous
 62
     0
370
     0
100
AcDbEllipse
 10
375.282981
 20
168.283707
 30
0.0
 11
-34.64101692709869
 21
48.98979430714588
 31
0.0
210
0.0
220
0.0
230
-0.9999999999999998
 40
0.5
 41
6.272169826629882
 42
7.238501956972779
  0
LWPOLYLINE
  5
AF
330
99
100
AcDbEntity
  8
0
  6
Continuous
 62
     0
370
    30
100
AcDbPolyline
 90
       23
 70
     0
 43
0.0
 10
337.26181
 20
175.691528
 10
336.368622
 20
178.204849
 10
335.569
 20
180.694229
 10
334.864685
 20
183.153793
 10
334.257416
 20
185.577698
 10
333.748962
 20
187.960083
 10
333.340485
 20
190.295364
 10
333.032867
 20
192.578156
 10
332.826904
 20
194.803055
 10
332.72345
 20
196.964722
 10
332.722839
 20
199.058151
 10
332.825134
 20
201.078659
 10
333.030426
 20
203.02153
 10
333.338654
 20
204.882126
 10
333.749176
 20
206.656097
 10
334.261322
 20
208.339111
 10
334.874359
 20
209.926941
 10
335.587219
 20
211.415558
 10
336.398804
 20
212.801132
 10
337.307465
 20
214.079865
 10
338.310944
 20
215.247971
 10
339.406464
 20
216.301636
 10
340.63913
 20
217.271317
  0
LWPOLYLINE
  5
B0
330
99
100
AcDbEntity
  8
0
  6
Continuous
 62
     0
370
    30
100
AcDbPolyline
 90
       23
 70
     0
 43
0.0
 10
409.925293
 20
119.294891
 10
408.6521
 20
118.485168
 10
407.296844
 20
117.798073
 10
405.864166
 20
117.235779
 10
404.358521
 20
116.799942
 10
402.784332
 20
116.491333
 10
401.145782
 20
116.309845
 10
399.446808
 20
116.2556
 10
397.691467
 20
116.328499
 10
395.884033
 20
116.527672
 10
394.028809
 20
116.852112
 10
392.130157
 20
117.300819
 10
390.192413
 20
117.872726
 10
388.220001
 20
118.566269
 10
386.217438
 20
119.379524
 10
384.18924
 20
120.310532
 10
382.140106
 20
121.356941
 10
380.07489
 20
122.516075
 10
377.998413
 20
123.785233
 10
375.915497
 20
125.16153
 10
373.831116
 20
126.641426
 10
371.750214
 20
128.221252
 10
369.593445
 20
129.967728
  0
LINE
  5
B1
330
99
100
AcDbEntity
  8
0
  6
Continuous
 62
     0
370
    30
100
AcDbLine
 10
347.359478
 20
222.0235
 30
0.0
 11
340.641964
 21
217.2735
 31
0.0
  0
LINE
  5
B2
330
99
100
AcDbEntity
  8
0
  6
Continuous
 62
     0
370
    30
100
AcDbLine
 10
416.641514
 20
124.043913
 30
0.0
 11
409.923999
 21
119.293913
 31
0.0
  0
LWPOLYLINE
  5
B3
330
99
100
AcDbEntity
  8
0
  6
Continuous
 62
     0
370
    30
100
AcDbPolyline
 90
       14
 70
     0
 43
0.0
 10
341.760284
 20
124.930038
 10
343.213806
 20
123.956017
 10
344.66153
 20
123.093056
 10
346.095917
 20
122.345985
 10
347.509827
 20
121.719154
 10
348.896362
 20
121.216026
 10
350.24881
 20
120.839645
 10
351.560883
 20
120.59259
 10
352.826172
 20
120.477165
 10
354.03775
 20
120.495117
 10
355.188873
 20
120.648026
 10
356.273315
 20
120.936943
 10
357.28299
 20
121.36097
 10
358.215393
 20
121.922279
  0
LWPOLYLINE
  5
B4
330
99
100
AcDbEntity
  8
0
  6
Continuous
 62
     0
370
    30
100
AcDbPolyline
 90
       31
 70
     0
 43
0.0
 10
325.882538
 20
167.645157
 10
325.057434
 20
166.967133
 10
324.327057
 20
166.168381
 10
323.697113
 20
165.256454
 10
323.170349
 20
164.238266
 10
322.747955
 20
163.120316
 10
322.431183
 20
161.909073
 10
322.220642
 20
160.611099
 10
322.116211
 20
159.233032
 10
322.117462
 20
157.781723
 10
322.223785
 20
156.264206
 10
322.434448
 20
154.687653
 10
322.747894
 20
153.059967
 10
323.162079
 20
151.389511
 10
323.675018
 20
149.684616
 10
324.284119
 20
147.953873
 10
324.985748
 20
146.206314
 10
325.776154
 20
144.451019
 10
326.65155
 20
142.697067
 10
327.607208
 20
140.953552
 10
328.637817
 20
139.229614
 10
329.738068
 20
137.534332
 10
330.902466
 20
135.876709
 10
332.124634
 20
134.265274
 10
333.398071
 20
132.708466
 10
334.716278
 20
131.21463
 10
336.072327
 20
129.791611
 10
337.459167
 20
128.446854
 10
338.869537
 20
127.187462
 10
340.296173
 20
126.019928
 10
341.760284
 20
124.930038
  0
LINE
  5
B5
330
99
100
AcDbEntity
  8
0
  6
Continuous
 62
     0
370
    30
100
AcDbLine
 10
382.934184
 20
139.401069
 30
0.0
 11
358.214771
 21
121.921803
 31
0.0
  0
LINE
  5
B6
330
99
100
AcDbEntity
  8
0
  6
Continuous
 62
     0
370
    30
100
AcDbLine
 10
355.228086
 20
188.395612
 30
0.0
 11
325.883155
 21
167.645611
 31
0.0
  0
LWPOLYLINE
  5
B7
330
99
100
AcDbEntity
  8
0
  6
Continuous
 62
     0
370
    30
100
AcDbPolyline
 90
       22
 70
     0
 43
0.0
 10
355.310852
 20
176.707916
 10
355.233643
 20
177.445877
 10
355.006592
 20
178.163773
 10
354.636658
 20
178.842682
 10
354.134521
 20
179.467438
 10
353.514038
 20
180.026306
 10
352.789276
 20
180.50885
 10
351.976624
 20
180.906601
 10
351.093597
 20
181.212021
 10
350.1586
 20
181.419006
 10
349.192047
 20
181.524597
 10
348.214752
 20
181.526367
 10
347.247772
 20
181.423462
 10
346.311951
 20
181.218414
 10
345.427155
 20
180.915604
 10
344.612488
 20
180.520294
 10
343.885345
 20
180.039719
 10
343.261841
 20
179.482712
 10
342.756683
 20
178.859604
 10
342.382843
 20
178.181931
 10
342.151489
 20
177.464661
 10
342.071167
 20
176.711227
  0
LINE
  5
B8
330
99
100
AcDbEntity
  8
0
  6
Continuous
 62
     0
370
    30
100
AcDbLine
 10
355.310843
 20
169.000723
 30
0.0
 11
355.310843
 21
176.707913
 31
0.0
  0
LINE
  5
B9
330
99
100
AcDbEntity
  8
0
  6
Continuous
 62
     0
370
    30
100
AcDbLine
 10
342.071162
 20
169.000861
 30
0.0
 11
342.071162
 21
176.711262
 31
0.0
  0
ENDBLK
  5
BB
330
99
100
AcDbEntity
  8
0
100
AcDbBlockEnd
  0
BLOCK
  5
D8
330
BD
100
AcDbEntity
  8
0
100
AcDbBlockBegin
  2
e
 70
     0
 10
140.232819
 20
0.0
 30
0.0
  3
e
  1

  0
LINE
  5
BE
330
BD
100
AcDbEntity
  8
0
  6
Continuous
 62
     0
370
    30
100
AcDbLine
 10
102.266156
 20
322.194931
 30
0.0
 11
102.266156
 21
352.797071
 31
0.0
  0
LINE
  5
BF
330
BD
100
AcDbEntity
  8
0
  6
Continuous
 62
     0
370
    30
100
AcDbLine
 10
63.539577
 20
352.797071
 30
0.0
 11
63.539577
 21
363.307415
 31
0.0
  0
LINE
  5
C0
330
BD
100
AcDbEntity
  8
0
  6
Continuous
 62
     0
370
     0
100
AcDbLine
 10
63.539577
 20
363.307415
 30
0.0
 11
76.779258
 21
363.307415
 31
0.0
  0
LWPOLYLINE
  5
C1
330
BD
100
AcDbEntity
  8
0
  6
Continuous
 62
     0
370
    30
100
AcDbPolyline
 90
       22
 70
     0
 43
0.0
 10
76.779259
 20
352.797058
 10
76.704941
 20
352.779541
 10
76.484154
 20
352.72879
 10
76.122635
 20
352.649139
 10
75.62925
 20
352.547424
 10
75.015388
 20
352.432953
 10
74.294266
 20
352.315765
 10
73.480896
 20
352.205688
 10
72.592293
 20
352.112183
 10
71.64756
 20
352.043915
 10
70.667816
 20
352.008057
 10
69.676056
 20
352.00769
 10
68.695724
 20
352.042664
 10
67.749809
 20
352.109802
 10
66.859543
 20
352.202698
 10
66.044083
 20
352.312866
 10
65.320465
 20
352.430389
 10
64.703697
 20
352.544861
 10
64.207092
 20
352.646576
 10
63.842155
 20
352.726959
 10
63.617619
 20
352.778687
 10
63.539577
 20
352.797058
  0
LINE
  5
C2
330
BD
100
AcDbEntity
  8
0
  6
Continuous
 62
     0
370
    30
100
AcDbLine
 10
76.279258
 20
363.807415
 30
0.0
 11
64.039577
 21
363.807415
 31
0.0
  0
ARC
  5
C3
330
BD
100
AcDbEntity
  8
0
  6
Continuous
 62
     0
370
    30
100
AcDbCircle
 10
64.039577
 20
363.307415
 30
0.0
 40
0.5
100
AcDbArc
 50
90.0
 51
180.0
  0
LWPOLYLINE
  5
C4
330
BD
100
AcDbEntity
  8
0
  6
Continuous
 62
     0
370
    30
100
AcDbPolyline
 90
       22
 70
     0
 43
0.0
 10
90.017303
 20
296.797058
 10
90.045731
 20
296.856018
 10
90.133553
 20
297.038116
 10
90.284142
 20
297.350372
 10
90.500229
 20
297.798401
 10
90.783699
 20
298.3862
 10
91.135521
 20
299.115692
 10
91.555611
 20
299.986725
 10
92.042786
 20
300.996887
 10
92.594727
 20
302.141327
 10
93.207985
 20
303.412903
 10
93.878059
 20
304.802307
 10
94.599518
 20
306.298248
 10
95.366104
 20
307.887756
 10
96.170952
 20
309.55661
 10
97.00676
 20
311.289642
 10
97.86602
 20
313.071289
 10
98.741188
 20
314.885956
 10
99.624924
 20
316.718384
 10
100.510216
 20
318.554016
 10
101.390549
 20
320.379364
 10
102.266151
 20
322.194916
  0
LINE
  5
C5
330
BD
100
AcDbEntity
  8
0
  6
Continuous
 62
     0
370
    30
100
AcDbLine
 10
90.017302
 20
296.797071
 30
0.0
 11
60.766156
 21
296.797071
 31
0.0
  0
LINE
  5
C6
330
BD
100
AcDbEntity
  8
0
  6
Continuous
 62
     0
370
     0
100
AcDbLine
 10
60.766156
 20
296.797071
 30
0.0
 11
60.766156
 21
352.797071
 31
0.0
  0
LINE
  5
C7
330
BD
100
AcDbEntity
  8
0
  6
Continuous
 62
     0
370
    30
100
AcDbLine
 10
60.266156
 20
352.297071
 30
0.0
 11
60.266156
 21
297.297071
 31
0.0
  0
ARC
  5
C8
330
BD
100
AcDbEntity
  8
0
  6
Continuous
 62
     0
370
    30
100
AcDbCircle
 10
60.766156
 20
297.297071
 30
0.0
 40
0.5
100
AcDbArc
 50
180.0
 51
270.0
  0
LINE
  5
C9
330
BD
100
AcDbEntity
  8
0
  6
Continuous
 62
     0
370
    30
100
AcDbLine
 10
117.266155
 20
264.79707
 30
0.0
 11
117.266155
 21
384.79707
 31
0.0
  0
LINE
  5
CA
330
BD
100
AcDbEntity
  8
0
  6
Continuous
 62
     0
370
    30
100
AcDbLine
 10
107.266155
 20
347.79707
 30
0.0
 11
102.266156
 21
347.79707
 31
0.0
  0
LINE
  5
CB
330
BD
100
AcDbEntity
  8
0
  6
Continuous
 62
     0
370
    30
100
AcDbLine
 10
102.266155
 20
322.194931
 30
0.0
 11
102.266155
 21
301.79707
 31
0.0
  0
LINE
  5
CC
330
BD
100
AcDbEntity
  8
0
  6
Continuous
 62
     0
370
    30
100
AcDbLine
 10
107.266155
 20
265.29707
 30
0.0
 11
107.266155
 21
384.29707
 31
0.0
  0
LINE
  5
CD
330
BD
100
AcDbEntity
  8
0
  6
Continuous
 62
     0
370
    30
100
AcDbLine
 10
117.266155
 20
384.79707
 30
0.0
 11
107.766155
 21
384.79707
 31
0.0
  0
LINE
  5
CE
330
BD
100
AcDbEntity
  8
0
  6
Continuous
 62
     0
370
     0
100
AcDbLine
 10
107.766155
 20
384.79707
 30
0.0
 11
107.766155
 21
264.79707
 31
0.0
  0
ARC
  5
CF
330
BD
100
AcDbEntity
  8
0
  6
Continuous
 62
     0
370
    30
100
AcDbCircle
 10
107.766155
 20
384.29707
 30
0.0
 40
0.5
100
AcDbArc
 50
90.0
 51
180.0
  0
ARC
  5
D0
330
BD
100
AcDbEntity
  8
0
  6
Continuous
 62
     0
370
    30
100
AcDbCircle
 10
107.766159
 20
265.297073
 30
0.0
 40
0.500003442282595
100
AcDbArc
 50
180.000394
 51
269.999606
  0
LINE
  5
D1
330
BD
100
AcDbEntity
  8
0
  6
Continuous
 62
     0
370
    30
100
AcDbLine
 10
117.266155
 20
264.79707
 30
0.0
 11
107.766155
 21
264.79707
 31
0.0
  0
LINE
  5
D2
330
BD
100
AcDbEntity
  8
0
  6
Continuous
 62
     0
370
    30
100
AcDbLine
 10
107.266155
 20
301.79707
 30
0.0
 11
102.266155
 21
301.79707
 31
0.0
  0
ARC
  5
D3
330
BD
100
AcDbEntity
  8
0
  6
Continuous
 62
     0
370
    30
100
AcDbCircle
 10
60.766158
 20
352.297069
 30
0.0
 40
0.5000026860668455
100
AcDbArc
 50
90.000308
 51
179.999692
  0
LINE
  5
D4
330
BD
100
AcDbEntity
  8
0
  6
Continuous
 62
     0
370
    30
100
AcDbLine
 10
102.266156
 20
352.797071
 30
0.0
 11
76.779258
 21
352.797071
 31
0.0
  0
LINE
  5
D5
330
BD
100
AcDbEntity
  8
0
  6
Continuous
 62
     0
370
    30
100
AcDbLine
 10
63.539577
 20
352.797071
 30
0.0
 11
60.766156
 21
352.797071
 31
0.0
  0
ARC
  5
D6
330
BD
100
AcDbEntity
  8
0
  6
Continuous
 62
     0
370
    30
100
AcDbCircle
 10
76.279255
 20
363.307411
 30
0.0
 40
0.50000344228165
100
AcDbArc
 50
0.000394
 51
89.999606
  0
LINE
  5
D7
330
BD
100
AcDbEntity
  8
0
  6
Continuous
 62
     0
370
    30
100
AcDbLine
 10
76.779258
 20
352.797049
 30
0.0
 11
76.779258
 21
363.307415
 31
0.0
  0
ENDBLK
  5
D9
330
BD
100
AcDbEntity
  8
0
100
AcDbBlockEnd
  0
ENDSEC
  0
SECTION
  2
ENTITIES
  0
INSERT
  5
5B
330
1F
100
AcDbEntity
  8
0
  6
Continuous
 62
   250
370
     0
100
AcDbBlockReference
  2
a
 10
141.193481
 20
85.454987
 30
0.0
  0
INSERT
  5
78
330
1F
100
AcDbEntity
  8
0
  6
Continuous
 62
   250
370
     0
100
AcDbBlockReference
  2
b
 10
141.193481
 20
85.454987
 30
0.0
  0
INSERT
  5
98
330
1F
100
AcDbEntity
  8
0
  6
Continuous
 62
   250
370
     0
100
AcDbBlockReference
  2
c
 10
141.193481
 20
126.942078
 30
0.0
  0
INSERT
  5
BC
330
1F
100
AcDbEntity
  8
0
  6
Continuous
 62
   250
370
     0
100
AcDbBlockReference
  2
d
 10
141.193481
 20
85.454987
 30
0.0
  0
INSERT
  5
DA
330
1F
100
AcDbEntity
  8
0
  6
Continuous
 62
   250
370
     0
100
AcDbBlockReference
  2
e
 10
140.232819
 20
0.0
 30
0.0
  0
ENDSEC
  0
SECTION
  2
OBJECTS
  0
DICTIONARY
  5
C
330
0
100
AcDbDictionary
281
     1
  3
ACAD_GROUP
350
D
  3
ACAD_LAYOUT
350
1A
  3
ACAD_MLEADERSTYLE
350
DD
  3
ACAD_MLINESTYLE
350
17
  3
ACAD_PLOTSETTINGS
350
19
  3
ACAD_PLOTSTYLENAME
350
E
  3
ACAD_VISUALSTYLE
350
2A
  3
AcDbVariableDictionary
350
DB
  0
DICTIONARY
  5
D
102
{ACAD_REACTORS
330
C
102
}
330
C
100
AcDbDictionary
281
     1
  0
DICTIONARY
  5
1A
102
{ACAD_REACTORS
330
C
102
}
330
C
100
AcDbDictionary
281
     1
  3
Layout1
350
1E
  3
Layout2
350
26
  3
Model
350
22
  0
DICTIONARY
  5
DD
102
{ACAD_REACTORS
330
C
102
}
330
C
100
AcDbDictionary
281
     1
  0
DICTIONARY
  5
17
102
{ACAD_REACTORS
330
C
102
}
330
C
100
AcDbDictionary
281
     1
  3
Standard
350
18
  0
DICTIONARY
  5
19
102
{ACAD_REACTORS
330
C
102
}
330
C
100
AcDbDictionary
281
     1
  0
ACDBDICTIONARYWDFLT
  5
E
102
{ACAD_REACTORS
330
C
102
}
330
C
100
AcDbDictionary
281
     1
  3
Normal
350
F
100
AcDbDictionaryWithDefault
340
F
  0
DICTIONARY
  5
2A
102
{ACAD_REACTORS
330
C
102
}
330
C
100
AcDbDictionary
281
     1
  3
2dWireframe
350
2F
  3
3D Hidden
350
31
  3
3dWireframe
350
30
  3
Basic
350
32
  3
Brighten
350
36
  3
ColorChange
350
3A
  3
Conceptual
350
34
  3
Dim
350
35
  3
Facepattern
350
39
  3
Flat
350
2B
  3
FlatWithEdges
350
2C
  3
Gouraud
350
2D
  3
GouraudWithEdges
350
2E
  3
Linepattern
350
38
  3
Realistic
350
33
  3
Thicken
350
37
  0
DICTIONARY
  5
DB
102
{ACAD_REACTORS
330
C
102
}
330
C
100
AcDbDictionary
281
     1
  3
PSOLHEIGHT
350
DF
  3
PSOLWIDTH
350
DE
  0
LAYOUT
  5
1E
102
{ACAD_REACTORS
330
1A
102
}
330
1A
100
AcDbPlotSettings
  1

  2
none_device
  4

  6

 40
0.0
 41
0.0
 42
0.0
 43
0.0
 44
0.0
 45
0.0
 46
0.0
 47
0.0
 48
0.0
 49
0.0
140
0.0
141
0.0
142
1.0
143
1.0
 70
   688
 72
     0
 73
     0
 74
     5
  7

 75
    16
147
1.0
148
0.0
149
0.0
100
AcDbLayout
  1
Layout1
 70
     1
 71
     1
 10
0.0
 20
0.0
 11
420.0
 21
297.0
 12
0.0
 22
0.0
 32
0.0
 14
1.000000E+20
 24
1.000000E+20
 34
1.000000E+20
 15
-1.000000E+20
 25
-1.000000E+20
 35
-1.000000E+20
146
0.0
 13
0.0
 23
0.0
 33
0.0
 16
1.0
 26
0.0
 36
0.0
 17
0.0
 27
1.0
 37
0.0
 76
     0
330
1B
  0
LAYOUT
  5
26
102
{ACAD_REACTORS
330
1A
102
}
330
1A
100
AcDbPlotSettings
  1

  2
none_device
  4

  6

 40
0.0
 41
0.0
 42
0.0
 43
0.0
 44
0.0
 45
0.0
 46
0.0
 47
0.0
 48
0.0
 49
0.0
140
0.0
141
0.0
142
1.0
143
1.0
 70
   688
 72
     0
 73
     0
 74
     5
  7

 75
    16
147
1.0
148
0.0
149
0.0
100
AcDbLayout
  1
Layout2
 70
     1
 71
     2
 10
0.0
 20
0.0
 11
0.0
 21
0.0
 12
0.0
 22
0.0
 32
0.0
 14
0.0
 24
0.0
 34
0.0
 15
0.0
 25
0.0
 35
0.0
146
0.0
 13
0.0
 23
0.0
 33
0.0
 16
1.0
 26
0.0
 36
0.0
 17
0.0
 27
1.0
 37
0.0
 76
     0
330
23
  0
LAYOUT
  5
22
102
{ACAD_REACTORS
330
1A
102
}
330
1A
100
AcDbPlotSettings
  1

  2
none_device
  4

  6

 40
0.0
 41
0.0
 42
0.0
 43
0.0
 44
0.0
 45
0.0
 46
0.0
 47
0.0
 48
0.0
 49
0.0
140
0.0
141
0.0
142
1.0
143
1.0
 70
  1712
 72
     0
 73
     0
 74
     0
  7

 75
     0
147
1.0
148
0.0
149
0.0
100
AcDbLayout
  1
Model
 70
     1
 71
     0
 10
60.266155
 20
80.130867
 11
424.4263
 21
384.797058
 12
0.0
 22
0.0
 32
0.0
 14
60.266155
 24
80.130867
 34
0.0
 15
424.4263
 25
384.797058
 35
0.0
146
0.0
 13
0.0
 23
0.0
 33
0.0
 16
1.0
 26
0.0
 36
0.0
 17
0.0
 27
1.0
 37
0.0
 76
     0
330
1F
331
29
  0
MLINESTYLE
  5
18
102
{ACAD_REACTORS
330
17
102
}
330
17
100
AcDbMlineStyle
  2
Standard
 70
     0
  3

 62
   256
 51
90.0
 52
90.0
 71
     2
 49
0.5
 62
   256
  6
BYLAYER
 49
-0.5
 62
   256
  6
BYLAYER
  0
ACDBPLACEHOLDER
  5
F
102
{ACAD_REACTORS
330
E
102
}
330
E
  0
VISUALSTYLE
  5
2F
102
{ACAD_REACTORS
330
2A
102
}
330
2A
100
AcDbVisualStyle
  2
2dWireframe
 70
     4
 71
     0
 72
     2
 73
     0
 90
        0
 40
-0.6
 41
-30.0
 62
     5
 63
     7
 74
     1
 91
        4
 64
     7
 65
   257
 75
     1
175
     1
 42
1.0
 92
        0
 66
   257
 43
1.0
 76
     1
 77
     6
 78
     2
 67
     7
 79
     5
170
     0
171
     0
290
     0
174
     0
 93
        1
 44
0.0
173
     0
291
     0
 45
0.0
1001
ACAD
1000
AcDbSavedByObjectVersion
1070
     0
  0
VISUALSTYLE
  5
31
102
{ACAD_REACTORS
330
2A
102
}
330
2A
100
AcDbVisualStyle
  2
3D Hidden
 70
     6
 71
     1
 72
     2
 73
     2
 90
        0
 40
-0.6
 41
-30.0
 62
     5
 63
     7
 74
     2
 91
        2
 64
     7
 65
   257
 75
     2
175
     1
 42
40.0
 92
        0
 66
   257
 43
1.0
 76
     1
 77
     6
 78
     2
 67
     7
 79
     3
170
     0
171
     0
290
     0
174
     0
 93
        1
 44
0.0
173
     0
291
     0
 45
0.0
1001
ACAD
1000
AcDbSavedByObjectVersion
1070
     0
  0
VISUALSTYLE
  5
30
102
{ACAD_REACTORS
330
2A
102
}
330
2A
100
AcDbVisualStyle
  2
3dWireframe
 70
     5
 71
     0
 72
     2
 73
     0
 90
        0
 40
-0.6
 41
-30.0
 62
     5
 63
     7
 74
     1
 91
        4
 64
     7
 65
   257
 75
     1
175
     1
 42
1.0
 92
        0
 66
   257
 43
1.0
 76
     1
 77
     6
 78
     2
 67
     7
 79
     5
170
     0
171
     0
290
     0
174
     0
 93
        1
 44
0.0
173
     0
291
     0
 45
0.0
1001
ACAD
1000
AcDbSavedByObjectVersion
1070
     0
  0
VISUALSTYLE
  5
32
102
{ACAD_REACTORS
330
2A
102
}
330
2A
100
AcDbVisualStyle
  2
Basic
 70
     7
 71
     1
 72
     0
 73
     1
 90
        0
 40
-0.6
 41
-30.0
 62
     5
 63
     7
 74
     0
 91
        4
 64
     7
 65
   257
 75
     1
175
     1
 42
1.0
 92
        8
 66
     7
 43
1.0
 76
     1
 77
     6
 78
     2
 67
     7
 79
     5
170
     0
171
     0
290
     0
174
     0
 93
        1
 44
0.0
173
     0
291
     1
 45
0.0
1001
ACAD
1000
AcDbSavedByObjectVersion
1070
     0
  0
VISUALSTYLE
  5
36
102
{ACAD_REACTORS
330
2A
102
}
330
2A
100
AcDbVisualStyle
  2
Brighten
 70
    12
 71
     2
 72
     2
 73
     0
 90
        0
 40
-0.6
 41
-30.0
 62
     5
 63
     7
 74
     1
 91
        4
 64
     7
 65
   257
 75
     1
175
     1
 42
1.0
 92
        8
 66
     7
 43
1.0
 76
     1
 77
     6
 78
     2
 67
     7
 79
     5
170
     0
171
     0
290
     0
174
     0
 93
        1
 44
50.0
173
     0
291
     1
 45
0.0
1001
ACAD
1000
AcDbSavedByObjectVersion
1070
     0
  0
VISUALSTYLE
  5
3A
102
{ACAD_REACTORS
330
2A
102
}
330
2A
100
AcDbVisualStyle
  2
ColorChange
 70
    16
 71
     2
 72
     2
 73
     3
 90
        0
 40
-0.6
 41
-30.0
 62
     5
 63
     8
 74
     1
 91
        4
 64
     7
 65
   257
 75
     1
175
     1
 42
1.0
 92
        8
 66
     8
 43
1.0
 76
     1
 77
     6
 78
     2
 67
     7
 79
     5
170
     0
171
     0
290
     0
174
     0
 93
        1
 44
0.0
173
     0
291
     1
 45
0.0
1001
ACAD
1000
AcDbSavedByObjectVersion
1070
     0
  0
VISUALSTYLE
  5
34
102
{ACAD_REACTORS
330
2A
102
}
330
2A
100
AcDbVisualStyle
  2
Conceptual
 70
     9
 71
     3
 72
     2
 73
     0
 90
        0
 40
-0.6
 41
-30.0
 62
     5
 63
     7
 74
     2
 91
        2
 64
     7
 65
   257
 75
     1
175
     1
 42
40.0
 92
        8
 66
     7
 43
1.0
 76
     1
 77
     6
 78
     2
 67
     7
 79
     3
170
     0
171
     0
290
     0
174
     0
 93
        1
 44
0.0
173
     0
291
     0
 45
0.0
1001
ACAD
1000
AcDbSavedByObjectVersion
1070
     0
  0
VISUALSTYLE
  5
35
102
{ACAD_REACTORS
330
2A
102
}
330
2A
100
AcDbVisualStyle
  2
Dim
 70
    11
 71
     2
 72
     2
 73
     0
 90
        0
 40
-0.6
 41
-30.0
 62
     5
 63
     7
 74
     1
 91
        4
 64
     7
 65
   257
 75
     1
175
     1
 42
1.0
 92
        8
 66
     7
 43
1.0
 76
     1
 77
     6
 78
     2
 67
     7
 79
     5
170
     0
171
     0
290
     0
174
     0
 93
        1
 44
-50.0
173
     0
291
     1
 45
0.0
1001
ACAD
1000
AcDbSavedByObjectVersion
1070
     0
  0
VISUALSTYLE
  5
39
102
{ACAD_REACTORS
330
2A
102
}
330
2A
100
AcDbVisualStyle
  2
Facepattern
 70
    15
 71
     2
 72
     2
 73
     0
 90
        0
 40
-0.6
 41
-30.0
 62
     5
 63
     7
 74
     1
 91
        4
 64
     7
 65
   257
 75
     1
175
     1
 42
1.0
 92
        8
 66
     7
 43
1.0
 76
     1
 77
     6
 78
     2
 67
     7
 79
     5
170
     0
171
     0
290
     0
174
     0
 93
        1
 44
0.0
173
     0
291
     1
 45
0.0
1001
ACAD
1000
AcDbSavedByObjectVersion
1070
     0
  0
VISUALSTYLE
  5
2B
102
{ACAD_REACTORS
330
2A
102
}
330
2A
100
AcDbVisualStyle
  2
Flat
 70
     0
 71
     2
 72
     1
 73
     1
 90
        2
 40
-0.6
 41
30.0
 62
     5
 63
     7
 74
     0
 91
        4
 64
     7
 65
   257
 75
     1
175
     1
 42
1.0
 92
        8
 66
     7
 43
1.0
 76
     1
 77
     6
 78
     2
 67
     7
 79
     5
170
     0
171
     0
290
     0
174
     0
 93
       13
 44
0.0
173
     0
291
     1
 45
0.0
1001
ACAD
1000
AcDbSavedByObjectVersion
1070
     0
  0
VISUALSTYLE
  5
2C
102
{ACAD_REACTORS
330
2A
102
}
330
2A
100
AcDbVisualStyle
  2
FlatWithEdges
 70
     1
 71
     2
 72
     1
 73
     1
 90
        2
 40
-0.6
 41
30.0
 62
     5
 63
     7
 74
     1
 91
        4
 64
     7
 65
   257
 75
     1
175
     1
 42
1.0
 92
        0
 66
   257
 43
1.0
 76
     1
 77
     6
 78
     2
 67
     7
 79
     5
170
     0
171
     0
290
     0
174
     0
 93
       13
 44
0.0
173
     0
291
     1
 45
0.0
1001
ACAD
1000
AcDbSavedByObjectVersion
1070
     0
  0
VISUALSTYLE
  5
2D
102
{ACAD_REACTORS
330
2A
102
}
330
2A
100
AcDbVisualStyle
  2
Gouraud
 70
     2
 71
     2
 72
     2
 73
     1
 90
        2
 40
-0.6
 41
30.0
 62
     5
 63
     7
 74
     0
 91
        4
 64
     7
 65
   257
 75
     1
175
     1
 42
1.0
 92
        0
 66
     7
 43
1.0
 76
     1
 77
     6
 78
     2
 67
     7
 79
     5
170
     0
171
     0
290
     0
174
     0
 93
       13
 44
0.0
173
     0
291
     1
 45
0.0
1001
ACAD
1000
AcDbSavedByObjectVersion
1070
     0
  0
VISUALSTYLE
  5
2E
102
{ACAD_REACTORS
330
2A
102
}
330
2A
100
AcDbVisualStyle
  2
GouraudWithEdges
 70
     3
 71
     2
 72
     2
 73
     1
 90
        2
 40
-0.6
 41
30.0
 62
     5
 63
     7
 74
     1
 91
        4
 64
     7
 65
   257
 75
     1
175
     1
 42
1.0
 92
        0
 66
   257
 43
1.0
 76
     1
 77
     6
 78
     2
 67
     7
 79
     5
170
     0
171
     0
290
     0
174
     0
 93
       13
 44
0.0
173
     0
291
     1
 45
0.0
1001
ACAD
1000
AcDbSavedByObjectVersion
1070
     0
  0
VISUALSTYLE
  5
38
102
{ACAD_REACTORS
330
2A
102
}
330
2A
100
AcDbVisualStyle
  2
Linepattern
 70
    14
 71
     2
 72
     2
 73
     0
 90
        0
 40
-0.6
 41
-30.0
 62
     5
 63
     7
 74
     1
 91
        4
 64
     7
 65
   257
 75
     7
175
     7
 42
1.0
 92
        8
 66
     7
 43
1.0
 76
     1
 77
     6
 78
     2
 67
     7
 79
     5
170
     0
171
     0
290
     0
174
     0
 93
        1
 44
0.0
173
     0
291
     1
 45
0.0
1001
ACAD
1000
AcDbSavedByObjectVersion
1070
     0
  0
VISUALSTYLE
  5
33
102
{ACAD_REACTORS
330
2A
102
}
330
2A
100
AcDbVisualStyle
  2
Realistic
 70
     8
 71
     2
 72
     2
 73
     0
 90
        0
 40
-0.6
 41
-30.0
 62
     5
 63
     7
 74
     1
 91
        0
 64
     7
 65
   257
 75
     1
175
     1
 42
1.0
 92
        8
 66
     8
 43
1.0
 76
     1
 77
     6
 78
     2
 67
     7
 79
     5
170
     0
171
     0
290
     0
174
     0
 93
       13
 44
0.0
173
     0
291
     0
 45
0.0
1001
ACAD
1000
AcDbSavedByObjectVersion
1070
     0
  0
VISUALSTYLE
  5
37
102
{ACAD_REACTORS
330
2A
102
}
330
2A
100
AcDbVisualStyle
  2
Thicken
 70
    13
 71
     2
 72
     2
 73
     0
 90
        0
 40
-0.6
 41
-30.0
 62
     5
 63
     7
 74
     1
 91
        4
 64
     7
 65
   257
 75
     1
175
     1
 42
1.0
 92
       12
 66
     7
 43
1.0
 76
     1
 77
     6
 78
     2
 67
     7
 79
     5
170
     0
171
     0
290
     0
174
     0
 93
        1
 44
0.0
173
     0
291
     1
 45
0.0
1001
ACAD
1000
AcDbSavedByObjectVersion
1070
     0
  0
DICTIONARYVAR
  5
DF
102
{ACAD_REACTORS
330
DB
102
}
330
DB
100
DictionaryVariables
280
     0
  1
80.000000
  0
DICTIONARYVAR
  5
DE
102
{ACAD_REACTORS
330
DB
102
}
330
DB
100
DictionaryVariables
280
     0
  1
5.000000
  0
ENDSEC
  0
EOF
