  0
SECTION
  2
HEADER
  9
$ACADVER
  1
AC1024
  9
$ACADMAINTVER
 70
     6
  9
$DWGCODEPAGE
  3
ANSI_1252
  9
$INSBASE
 10
0.0
 20
0.0
 30
0.0
  9
$EXTMIN
 10
1.000000E+20
 20
1.000000E+20
 30
1.000000E+20
  9
$EXTMAX
 10
-1.000000E+20
 20
-1.000000E+20
 30
-1.000000E+20
  9
$LIMMIN
 10
0.0
 20
0.0
  9
$LIMMAX
 10
420.0
 20
297.0
  9
$ORTHOMODE
 70
     0
  9
$REGENMODE
 70
     1
  9
$FILLMODE
 70
     1
  9
$QTEXTMODE
 70
     0
  9
$MIRRTEXT
 70
     1
  9
$LTSCALE
 40
1.0
  9
$ATTMODE
 70
     1
  9
$TEXTSIZE
 40
2.5
  9
$TRACEWID
 40
1.0
  9
$TEXTSTYLE
  7
Standard
  9
$CLAYER
  8
0
  9
$CELTYPE
  6
ByLayer
  9
$CECOLOR
 62
   256
  9
$CELTSCALE
 40
1.0
  9
$DISPSILH
 70
     0
  9
$DIMSCALE
 40
1.0
  9
$DIMASZ
 40
2.5
  9
$DIMEXO
 40
0.625
  9
$DIMDLI
 40
3.75
  9
$DIMRND
 40
0.0
  9
$DIMDLE
 40
0.0
  9
$DIMEXE
 40
1.25
  9
$DIMTP
 40
0.0
  9
$DIMTM
 40
0.0
  9
$DIMTXT
 40
2.5
  9
$DIMCEN
 40
2.5
  9
$DIMTSZ
 40
0.0
  9
$DIMTOL
 70
     0
  9
$DIMLIM
 70
     0
  9
$DIMTIH
 70
     0
  9
$DIMTOH
 70
     0
  9
$DIMSE1
 70
     0
  9
$DIMSE2
 70
     0
  9
$DIMTAD
 70
     1
  9
$DIMZIN
 70
     8
  9
$DIMBLK
  1

  9
$DIMASO
 70
     1
  9
$DIMSHO
 70
     1
  9
$DIMPOST
  1

  9
$DIMAPOST
  1

  9
$DIMALT
 70
     0
  9
$DIMALTD
 70
     3
  9
$DIMALTF
 40
0.03937
  9
$DIMLFAC
 40
1.0
  9
$DIMTOFL
 70
     1
  9
$DIMTVP
 40
0.0
  9
$DIMTIX
 70
     0
  9
$DIMSOXD
 70
     0
  9
$DIMSAH
 70
     0
  9
$DIMBLK1
  1

  9
$DIMBLK2
  1

  9
$DIMSTYLE
  2
ISO-25
  9
$DIMCLRD
 70
     0
  9
$DIMCLRE
 70
     0
  9
$DIMCLRT
 70
     0
  9
$DIMTFAC
 40
1.0
  9
$DIMGAP
 40
0.625
  9
$DIMJUST
 70
     0
  9
$DIMSD1
 70
     0
  9
$DIMSD2
 70
     0
  9
$DIMTOLJ
 70
     0
  9
$DIMTZIN
 70
     8
  9
$DIMALTZ
 70
     0
  9
$DIMALTTZ
 70
     0
  9
$DIMUPT
 70
     0
  9
$DIMDEC
 70
     2
  9
$DIMTDEC
 70
     2
  9
$DIMALTU
 70
     2
  9
$DIMALTTD
 70
     3
  9
$DIMTXSTY
  7
Standard
  9
$DIMAUNIT
 70
     0
  9
$DIMADEC
 70
     0
  9
$DIMALTRND
 40
0.0
  9
$DIMAZIN
 70
     0
  9
$DIMDSEP
 70
    44
  9
$DIMATFIT
 70
     3
  9
$DIMFRAC
 70
     0
  9
$DIMLDRBLK
  1

  9
$DIMLUNIT
 70
     2
  9
$DIMLWD
 70
    -2
  9
$DIMLWE
 70
    -2
  9
$DIMTMOVE
 70
     0
  9
$DIMFXL
 40
1.0
  9
$DIMFXLON
 70
     0
  9
$DIMJOGANG
 40
0.785398
  9
$DIMTFILL
 70
     0
  9
$DIMTFILLCLR
 70
     0
  9
$DIMARCSYM
 70
     0
  9
$DIMLTYPE
  6

  9
$DIMLTEX1
  6

  9
$DIMLTEX2
  6

  9
$DIMTXTDIRECTION
 70
     0
  9
$LUNITS
 70
     2
  9
$LUPREC
 70
     4
  9
$SKETCHINC
 40
1.0
  9
$FILLETRAD
 40
10.0
  9
$AUNITS
 70
     0
  9
$AUPREC
 70
     0
  9
$MENU
  1
.
  9
$ELEVATION
 40
0.0
  9
$PELEVATION
 40
0.0
  9
$THICKNESS
 40
0.0
  9
$LIMCHECK
 70
     0
  9
$CHAMFERA
 40
0.0
  9
$CHAMFERB
 40
0.0
  9
$CHAMFERC
 40
0.0
  9
$CHAMFERD
 40
0.0
  9
$SKPOLY
 70
     0
  9
$TDCREATE
 40
2458626.494784664
  9
$TDUCREATE
 40
2458626.411451331
  9
$TDUPDATE
 40
2458626.494785556
  9
$TDUUPDATE
 40
2458626.411452222
  9
$TDINDWG
 40
0.0000000116
  9
$TDUSRTIMER
 40
0.0000000116
  9
$USRTIMER
 70
     1
  9
$ANGBASE
 50
0.0
  9
$ANGDIR
 70
     0
  9
$PDMODE
 70
     0
  9
$PDSIZE
 40
0.0
  9
$PLINEWID
 40
0.0
  9
$SPLFRAME
 70
     0
  9
$SPLINETYPE
 70
     6
  9
$SPLINESEGS
 70
     8
  9
$HANDSEED
  5
3F3
  9
$SURFTAB1
 70
     6
  9
$SURFTAB2
 70
     6
  9
$SURFTYPE
 70
     6
  9
$SURFU
 70
     6
  9
$SURFV
 70
     6
  9
$UCSBASE
  2

  9
$UCSNAME
  2

  9
$UCSORG
 10
0.0
 20
0.0
 30
0.0
  9
$UCSXDIR
 10
1.0
 20
0.0
 30
0.0
  9
$UCSYDIR
 10
0.0
 20
1.0
 30
0.0
  9
$UCSORTHOREF
  2

  9
$UCSORTHOVIEW
 70
     0
  9
$UCSORGTOP
 10
0.0
 20
0.0
 30
0.0
  9
$UCSORGBOTTOM
 10
0.0
 20
0.0
 30
0.0
  9
$UCSORGLEFT
 10
0.0
 20
0.0
 30
0.0
  9
$UCSORGRIGHT
 10
0.0
 20
0.0
 30
0.0
  9
$UCSORGFRONT
 10
0.0
 20
0.0
 30
0.0
  9
$UCSORGBACK
 10
0.0
 20
0.0
 30
0.0
  9
$PUCSBASE
  2

  9
$PUCSNAME
  2

  9
$PUCSORG
 10
0.0
 20
0.0
 30
0.0
  9
$PUCSXDIR
 10
1.0
 20
0.0
 30
0.0
  9
$PUCSYDIR
 10
0.0
 20
1.0
 30
0.0
  9
$PUCSORTHOREF
  2

  9
$PUCSORTHOVIEW
 70
     0
  9
$PUCSORGTOP
 10
0.0
 20
0.0
 30
0.0
  9
$PUCSORGBOTTOM
 10
0.0
 20
0.0
 30
0.0
  9
$PUCSORGLEFT
 10
0.0
 20
0.0
 30
0.0
  9
$PUCSORGRIGHT
 10
0.0
 20
0.0
 30
0.0
  9
$PUCSORGFRONT
 10
0.0
 20
0.0
 30
0.0
  9
$PUCSORGBACK
 10
0.0
 20
0.0
 30
0.0
  9
$USERI1
 70
     0
  9
$USERI2
 70
     0
  9
$USERI3
 70
     0
  9
$USERI4
 70
     0
  9
$USERI5
 70
     0
  9
$USERR1
 40
0.0
  9
$USERR2
 40
0.0
  9
$USERR3
 40
0.0
  9
$USERR4
 40
0.0
  9
$USERR5
 40
0.0
  9
$WORLDVIEW
 70
     1
  9
$SHADEDGE
 70
     3
  9
$SHADEDIF
 70
    70
  9
$TILEMODE
 70
     1
  9
$MAXACTVP
 70
    64
  9
$PINSBASE
 10
0.0
 20
0.0
 30
0.0
  9
$PLIMCHECK
 70
     0
  9
$PEXTMIN
 10
1.000000E+20
 20
1.000000E+20
 30
1.000000E+20
  9
$PEXTMAX
 10
-1.000000E+20
 20
-1.000000E+20
 30
-1.000000E+20
  9
$PLIMMIN
 10
0.0
 20
0.0
  9
$PLIMMAX
 10
420.0
 20
297.0
  9
$UNITMODE
 70
     0
  9
$VISRETAIN
 70
     1
  9
$PLINEGEN
 70
     0
  9
$PSLTSCALE
 70
     1
  9
$TREEDEPTH
 70
  3020
  9
$CMLSTYLE
  2
Standard
  9
$CMLJUST
 70
     0
  9
$CMLSCALE
 40
20.0
  9
$PROXYGRAPHICS
 70
     1
  9
$MEASUREMENT
 70
     1
  9
$CELWEIGHT
370
    -1
  9
$ENDCAPS
280
     0
  9
$JOINSTYLE
280
     0
  9
$LWDISPLAY
290
     0
  9
$INSUNITS
 70
     4
  9
$HYPERLINKBASE
  1

  9
$STYLESHEET
  1

  9
$XEDIT
290
     1
  9
$CEPSNTYPE
380
     0
  9
$PSTYLEMODE
290
     1
  9
$FINGERPRINTGUID
  2
{95C1ABF6-04EA-4B09-8CF1-6A2A7C7F0261}
  9
$VERSIONGUID
  2
{FAEB1C32-E019-11D5-929B-00C0DF256EC4}
  9
$EXTNAMES
290
     1
  9
$PSVPSCALE
 40
0.0
  9
$OLESTARTUP
290
     0
  9
$SORTENTS
280
   127
  9
$INDEXCTL
280
     0
  9
$HIDETEXT
280
     1
  9
$XCLIPFRAME
280
     2
  9
$HALOGAP
280
     0
  9
$OBSCOLOR
 70
   257
  9
$OBSLTYPE
280
     0
  9
$INTERSECTIONDISPLAY
280
     0
  9
$INTERSECTIONCOLOR
 70
   257
  9
$DIMASSOC
280
     2
  9
$PROJECTNAME
  1

  9
$CAMERADISPLAY
290
     0
  9
$LENSLENGTH
 40
50.0
  9
$CAMERAHEIGHT
 40
0.0
  9
$STEPSPERSEC
 40
2.0
  9
$STEPSIZE
 40
6.0
  9
$3DDWFPREC
 40
2.0
  9
$PSOLWIDTH
 40
5.0
  9
$PSOLHEIGHT
 40
80.0
  9
$LOFTANG1
 40
1.570796
  9
$LOFTANG2
 40
1.570796
  9
$LOFTMAG1
 40
0.0
  9
$LOFTMAG2
 40
0.0
  9
$LOFTPARAM
 70
     7
  9
$LOFTNORMALS
280
     1
  9
$LATITUDE
 40
37.795
  9
$LONGITUDE
 40
-122.394
  9
$NORTHDIRECTION
 40
0.0
  9
$TIMEZONE
 70
 -8000
  9
$LIGHTGLYPHDISPLAY
280
     1
  9
$TILEMODELIGHTSYNCH
280
     1
  9
$CMATERIAL
347
44
  9
$SOLIDHIST
280
     0
  9
$SHOWHIST
280
     1
  9
$DWFFRAME
280
     2
  9
$DGNFRAME
280
     2
  9
$REALWORLDSCALE
290
     1
  9
$INTERFERECOLOR
 62
   256
  9
$CSHADOW
280
     0
  9
$SHADOWPLANELOCATION
 40
0.0
  0
ENDSEC
  0
SECTION
  2
CLASSES
  0
CLASS
  1
ACDBDICTIONARYWDFLT
  2
AcDbDictionaryWithDefault
  3
ObjectDBX Classes
 90
        0
 91
        4
280
     0
281
     0
  0
CLASS
  1
VISUALSTYLE
  2
AcDbVisualStyle
  3
ObjectDBX Classes
 90
     4095
 91
        4
280
     0
281
     0
  0
CLASS
  1
MATERIAL
  2
AcDbMaterial
  3
ObjectDBX Classes
 90
     1153
 91
        4
280
     0
281
     0
  0
CLASS
  1
SCALE
  2
AcDbScale
  3
ObjectDBX Classes
 90
     1153
 91
        4
280
     0
281
     0
  0
CLASS
  1
TABLESTYLE
  2
AcDbTableStyle
  3
ObjectDBX Classes
 90
     4095
 91
        4
280
     0
281
     0
  0
CLASS
  1
MLEADERSTYLE
  2
AcDbMLeaderStyle
  3
ACDB_MLEADERSTYLE_CLASS
 90
     4095
 91
        4
280
     0
281
     0
  0
CLASS
  1
SUN
  2
AcDbSun
  3
SCENEOE
 90
     1153
 91
        4
280
     0
281
     0
  0
CLASS
  1
DICTIONARYVAR
  2
AcDbDictionaryVar
  3
ObjectDBX Classes
 90
        0
 91
        4
280
     0
281
     0
  0
CLASS
  1
CELLSTYLEMAP
  2
AcDbCellStyleMap
  3
ObjectDBX Classes
 90
     1152
 91
        4
280
     0
281
     0
  0
ENDSEC
  0
SECTION
  2
TABLES
  0
TABLE
  2
VPORT
  5
8
330
0
100
AcDbSymbolTable
 70
     1
  0
VPORT
  5
29
330
8
100
AcDbSymbolTableRecord
100
AcDbViewportTableRecord
  2
*Active
 70
     0
 10
0.0
 20
0.0
 11
1.0
 21
1.0
 12
344.186916
 22
148.5
 13
0.0
 23
0.0
 14
10.0
 24
10.0
 15
10.0
 25
10.0
 16
0.0
 26
0.0
 36
1.0
 17
0.0
 27
0.0
 37
0.0
 40
297.0
 41
1.972973
 42
50.0
 43
0.0
 44
0.0
 50
0.0
 51
0.0
 71
     0
 72
   100
 73
     1
 74
     3
 75
     0
 76
     0
 77
     0
 78
     0
281
     0
 65
     1
110
0.0
120
0.0
130
0.0
111
1.0
121
0.0
131
0.0
112
0.0
122
1.0
132
0.0
 79
     0
146
0.0
348
2F
 60
     3
 61
     5
292
     1
282
     1
141
0.0
142
0.0
 63
   250
361
6D
  0
ENDTAB
  0
TABLE
  2
LTYPE
  5
5
330
0
100
AcDbSymbolTable
 70
     1
  0
LTYPE
  5
14
330
5
100
AcDbSymbolTableRecord
100
AcDbLinetypeTableRecord
  2
ByBlock
 70
     0
  3

 72
    65
 73
     0
 40
0.0
  0
LTYPE
  5
15
330
5
100
AcDbSymbolTableRecord
100
AcDbLinetypeTableRecord
  2
ByLayer
 70
     0
  3

 72
    65
 73
     0
 40
0.0
  0
LTYPE
  5
16
330
5
100
AcDbSymbolTableRecord
100
AcDbLinetypeTableRecord
  2
Continuous
 70
     0
  3
Solid line
 72
    65
 73
     0
 40
0.0
  0
ENDTAB
  0
TABLE
  2
LAYER
  5
2
330
0
100
AcDbSymbolTable
 70
     1
  0
LAYER
  5
10
330
2
100
AcDbSymbolTableRecord
100
AcDbLayerTableRecord
  2
0
 70
     0
 62
   106
  6
Continuous
370
     0
390
F
347
46
  0
ENDTAB
  0
TABLE
  2
STYLE
  5
3
330
0
100
AcDbSymbolTable
 70
     4
  0
STYLE
  5
11
330
3
100
AcDbSymbolTableRecord
100
AcDbTextStyleTableRecord
  2
Standard
 70
     0
 40
0.0
 41
1.0
 50
0.0
 71
     0
 42
2.5
  3
txt
  4

  0
STYLE
  5
6E
330
3
100
AcDbSymbolTableRecord
100
AcDbTextStyleTableRecord
  2
Default
 70
     0
 40
0.0
 41
1.0
 50
0.0
 71
     0
 42
2.5
  3

  4

1001
ACAD
1000
txt
1071
        0
  0
STYLE
  5
6F
330
3
100
AcDbSymbolTableRecord
100
AcDbTextStyleTableRecord
  2
ISO
 70
     0
 40
0.0
 41
1.0
 50
0.0
 71
     0
 42
2.5
  3

  4

1001
ACAD
1000
txt
1071
        0
  0
STYLE
  5
70
330
3
100
AcDbSymbolTableRecord
100
AcDbTextStyleTableRecord
  2
zucchetti
 70
     0
 40
0.0
 41
1.0
 50
0.0
 71
     0
 42
2.5
  3

  4

1001
ACAD
1000
Arial
1071
        0
  0
ENDTAB
  0
TABLE
  2
VIEW
  5
6
330
0
100
AcDbSymbolTable
 70
     0
  0
ENDTAB
  0
TABLE
  2
UCS
  5
7
330
0
100
AcDbSymbolTable
 70
     0
  0
ENDTAB
  0
TABLE
  2
APPID
  5
9
330
0
100
AcDbSymbolTable
 70
     1
  0
APPID
  5
12
330
9
100
AcDbSymbolTableRecord
100
AcDbRegAppTableRecord
  2
ACAD
 70
     0
  0
ENDTAB
  0
TABLE
  2
DIMSTYLE
  5
A
330
0
100
AcDbSymbolTable
 70
     4
100
AcDbDimStyleTable
  0
DIMSTYLE
105
27
330
A
100
AcDbSymbolTableRecord
100
AcDbDimStyleTableRecord
  2
ISO-25
 70
     0
 41
2.5
 42
0.625
 43
3.75
 44
1.25
 73
     0
 74
     0
 77
     1
 78
     8
140
2.5
141
2.5
143
0.03937
147
0.625
171
     3
172
     1
178
     0
271
     2
272
     2
274
     3
278
    44
283
     0
284
     8
340
11
  0
DIMSTYLE
105
71
330
A
100
AcDbSymbolTableRecord
100
AcDbDimStyleTableRecord
  2
Default
 70
     0
  3
<>
 41
4.375
 42
1.05
 44
2.1
 49
10.01
 73
     0
 74
     0
 77
     1
 78
     8
140
3.5
146
0.4
147
1.75
172
     1
271
     2
178
     3
271
     2
272
     3
284
     8
340
6E
341
72
342
72
  0
DIMSTYLE
105
79
330
A
100
AcDbSymbolTableRecord
100
AcDbDimStyleTableRecord
  2
ISO
 70
     0
  3
<>
 41
4.375
 42
1.05
 44
2.1
 49
10.01
 73
     0
 74
     0
 77
     1
 78
     8
140
3.5
146
0.4
147
1.75
172
     1
271
     2
178
     3
271
     2
272
     3
284
     8
340
6F
341
72
342
72
  0
DIMSTYLE
105
7A
330
A
100
AcDbSymbolTableRecord
100
AcDbDimStyleTableRecord
  2
zucchetti
 70
     0
  3
<>
 41
3.0
 42
0.9
 44
1.8
 49
8.58
 73
     0
 74
     0
 77
     1
 78
     8
140
3.0
146
0.6
147
1.5
172
     1
176
     3
177
     3
271
     2
178
     3
271
     2
272
     2
284
     8
340
70
  0
ENDTAB
  0
TABLE
  2
BLOCK_RECORD
  5
1
330
0
100
AcDbSymbolTable
 70
     4
  0
BLOCK_RECORD
  5
1F
330
1
100
AcDbSymbolTableRecord
100
AcDbBlockTableRecord
  2
*Model_Space
340
22
 70
     0
280
     1
281
     0
  0
BLOCK_RECORD
  5
1B
330
1
100
AcDbSymbolTableRecord
100
AcDbBlockTableRecord
  2
*Paper_Space
340
1E
 70
     0
280
     1
281
     0
  0
BLOCK_RECORD
  5
23
330
1
100
AcDbSymbolTableRecord
100
AcDbBlockTableRecord
  2
*Paper_Space0
340
26
 70
     0
280
     1
281
     0
  0
BLOCK_RECORD
  5
72
330
1
100
AcDbSymbolTableRecord
100
AcDbBlockTableRecord
  2
_CLOSED
340
0
 70
     0
280
     1
281
     0
  0
BLOCK_RECORD
  5
7B
330
1
100
AcDbSymbolTableRecord
100
AcDbBlockTableRecord
  2
a
340
0
102
{BLKREFS
331
23F
102
}
 70
     0
280
     1
281
     0
  0
BLOCK_RECORD
  5
240
330
1
100
AcDbSymbolTableRecord
100
AcDbBlockTableRecord
  2
b
340
0
102
{BLKREFS
331
3B9
102
}
 70
     0
280
     1
281
     0
  0
ENDTAB
  0
ENDSEC
  0
SECTION
  2
BLOCKS
  0
BLOCK
  5
20
330
1F
100
AcDbEntity
  8
0
100
AcDbBlockBegin
  2
*Model_Space
 70
     0
 10
0.0
 20
0.0
 30
0.0
  3
*Model_Space
  1

  0
ENDBLK
  5
21
330
1F
100
AcDbEntity
  8
0
100
AcDbBlockEnd
  0
BLOCK
  5
1C
330
1B
100
AcDbEntity
 67
     1
  8
0
100
AcDbBlockBegin
  2
*Paper_Space
 70
     0
 10
0.0
 20
0.0
 30
0.0
  3
*Paper_Space
  1

  0
ENDBLK
  5
1D
330
1B
100
AcDbEntity
 67
     1
  8
0
100
AcDbBlockEnd
  0
BLOCK
  5
24
330
23
100
AcDbEntity
  8
0
100
AcDbBlockBegin
  2
*Paper_Space0
 70
     0
 10
0.0
 20
0.0
 30
0.0
  3
*Paper_Space0
  1

  0
ENDBLK
  5
25
330
23
100
AcDbEntity
  8
0
100
AcDbBlockEnd
  0
BLOCK
  5
73
330
72
100
AcDbEntity
  8
0
100
AcDbBlockBegin
  2
_CLOSED
 70
     0
 10
0.0
 20
0.0
 30
0.0
  3
_CLOSED
  1

  0
LINE
  5
75
330
72
100
AcDbEntity
  8
0
  6
ByBlock
 62
     0
370
    -2
100
AcDbLine
 10
-1.0
 20
0.166667
 30
0.0
 11
0.0
 21
0.0
 31
0.0
  0
LINE
  5
76
330
72
100
AcDbEntity
  8
0
  6
ByBlock
 62
     0
370
    -2
100
AcDbLine
 10
0.0
 20
0.0
 30
0.0
 11
-1.0
 21
-0.166667
 31
0.0
  0
LINE
  5
77
330
72
100
AcDbEntity
  8
0
  6
ByBlock
 62
     0
370
    -2
100
AcDbLine
 10
-1.0
 20
0.166667
 30
0.0
 11
-1.0
 21
-0.166667
 31
0.0
  0
LINE
  5
78
330
72
100
AcDbEntity
  8
0
  6
ByBlock
 62
     0
370
    -2
100
AcDbLine
 10
0.0
 20
0.0
 30
0.0
 11
-1.0
 21
0.0
 31
0.0
  0
ENDBLK
  5
74
330
72
100
AcDbEntity
  8
0
100
AcDbBlockEnd
  0
BLOCK
  5
23D
330
7B
100
AcDbEntity
  8
0
100
AcDbBlockBegin
  2
a
 70
     0
 10
9.518471
 20
121.354774
 30
0.0
  3
a
  1

  0
LINE
  5
7C
330
7B
100
AcDbEntity
  8
0
  6
Continuous
 62
     0
370
    30
100
AcDbLine
 10
94.909394
 20
710.647159
 30
0.0
 11
95.563943
 21
710.647159
 31
0.0
  0
LINE
  5
7D
330
7B
100
AcDbEntity
  8
0
  6
Continuous
 62
     0
370
    30
100
AcDbLine
 10
95.563943
 20
710.647159
 30
0.0
 11
95.843431
 21
710.647159
 31
0.0
  0
LINE
  5
7E
330
7B
100
AcDbEntity
  8
0
  6
Continuous
 62
     0
370
    30
100
AcDbLine
 10
101.150224
 20
710.647159
 30
0.0
 11
102.457862
 21
710.647159
 31
0.0
  0
LINE
  5
7F
330
7B
100
AcDbEntity
  8
0
  6
Continuous
 62
     0
370
    30
100
AcDbLine
 10
102.457862
 20
710.647159
 30
0.0
 11
104.188704
 21
710.647159
 31
0.0
  0
LWPOLYLINE
  5
80
330
7B
100
AcDbEntity
  8
0
  6
Continuous
 62
     0
370
    30
100
AcDbPolyline
 90
        7
 70
     0
 43
0.0
 10
112.000381
 20
710.647156
 10
112.033524
 20
710.647156
 10
112.133842
 20
710.647156
 10
112.297005
 20
710.647156
 10
112.511787
 20
710.647156
 10
112.762451
 20
710.647156
 10
113.055473
 20
710.647156
  0
LINE
  5
81
330
7B
100
AcDbEntity
  8
0
  6
Continuous
 62
     0
370
    30
100
AcDbLine
 10
113.055471
 20
710.647159
 30
0.0
 11
113.577901
 21
710.647159
 31
0.0
  0
LINE
  5
82
330
7B
100
AcDbEntity
  8
0
  6
Continuous
 62
     0
370
    30
100
AcDbLine
 10
128.473194
 20
710.647159
 30
0.0
 11
129.90085
 21
710.647159
 31
0.0
  0
LWPOLYLINE
  5
83
330
7B
100
AcDbEntity
  8
0
  6
Continuous
 62
     0
370
    30
100
AcDbPolyline
 90
        6
 70
     0
 43
0.0
 10
143.732193
 20
710.647156
 10
143.757874
 20
710.647156
 10
143.833282
 20
710.647156
 10
143.953003
 20
710.647156
 10
144.108566
 20
710.647156
 10
144.337387
 20
710.647156
  0
LINE
  5
84
330
7B
100
AcDbEntity
  8
0
  6
Continuous
 62
     0
370
    30
100
AcDbLine
 10
144.337381
 20
710.647159
 30
0.0
 11
145.444223
 21
710.647159
 31
0.0
  0
LINE
  5
85
330
7B
100
AcDbEntity
  8
0
  6
Continuous
 62
     0
370
    30
100
AcDbLine
 10
167.139704
 20
710.647159
 30
0.0
 11
167.50501
 21
710.647159
 31
0.0
  0
LINE
  5
86
330
7B
100
AcDbEntity
  8
0
  6
Continuous
 62
     0
370
    30
100
AcDbLine
 10
237.534006
 20
710.647159
 30
0.0
 11
238.581899
 21
710.647159
 31
0.0
  0
LINE
  5
87
330
7B
100
AcDbEntity
  8
0
  6
Continuous
 62
     0
370
    30
100
AcDbLine
 10
265.166423
 20
710.647159
 30
0.0
 11
265.899091
 21
710.647159
 31
0.0
  0
LINE
  5
88
330
7B
100
AcDbEntity
  8
0
  6
Continuous
 62
     0
370
    30
100
AcDbLine
 10
290.628536
 20
710.647159
 30
0.0
 11
291.849678
 21
710.647159
 31
0.0
  0
LINE
  5
89
330
7B
100
AcDbEntity
  8
0
  6
Continuous
 62
     0
370
    30
100
AcDbLine
 10
316.642954
 20
710.647159
 30
0.0
 11
316.669424
 21
710.647159
 31
0.0
  0
LINE
  5
8A
330
7B
100
AcDbEntity
  8
0
  6
Continuous
 62
     0
370
    30
100
AcDbLine
 10
341.241897
 20
710.647159
 30
0.0
 11
341.984572
 21
710.647159
 31
0.0
  0
LINE
  5
8B
330
7B
100
AcDbEntity
  8
0
  6
Continuous
 62
     0
370
    30
100
AcDbLine
 10
365.516698
 20
710.647159
 30
0.0
 11
365.738315
 21
710.647159
 31
0.0
  0
LINE
  5
8C
330
7B
100
AcDbEntity
  8
0
  6
Continuous
 62
     0
370
    30
100
AcDbLine
 10
363.677938
 20
710.647159
 30
0.0
 11
365.516698
 21
710.647159
 31
0.0
  0
LINE
  5
8D
330
7B
100
AcDbEntity
  8
0
  6
Continuous
 62
     0
370
    30
100
AcDbLine
 10
383.26937
 20
710.647159
 30
0.0
 11
383.910336
 21
710.647159
 31
0.0
  0
LINE
  5
8E
330
7B
100
AcDbEntity
  8
0
  6
Continuous
 62
     0
370
    30
100
AcDbLine
 10
401.428704
 20
710.647159
 30
0.0
 11
401.889345
 21
710.647159
 31
0.0
  0
LINE
  5
8F
330
7B
100
AcDbEntity
  8
0
  6
Continuous
 62
     0
370
    30
100
AcDbLine
 10
431.343002
 20
710.647159
 30
0.0
 11
431.76479
 21
710.647159
 31
0.0
  0
LINE
  5
90
330
7B
100
AcDbEntity
  8
0
  6
Continuous
 62
     0
370
    30
100
AcDbLine
 10
428.72631
 20
710.647159
 30
0.0
 11
431.343002
 21
710.647159
 31
0.0
  0
LWPOLYLINE
  5
91
330
7B
100
AcDbEntity
  8
0
  6
Continuous
 62
     0
370
    30
100
AcDbPolyline
 90
        9
 70
     0
 43
0.0
 10
437.071594
 20
710.647156
 10
437.104797
 20
710.647156
 10
437.196106
 20
710.647156
 10
437.348358
 20
710.647156
 10
437.566986
 20
710.647156
 10
437.847107
 20
710.647156
 10
438.175262
 20
710.647156
 10
438.530975
 20
710.647156
 10
438.922241
 20
710.647156
  0
LINE
  5
92
330
7B
100
AcDbEntity
  8
0
  6
Continuous
 62
     0
370
    30
100
AcDbLine
 10
444.066976
 20
710.647159
 30
0.0
 11
445.827139
 21
710.647159
 31
0.0
  0
LINE
  5
93
330
7B
100
AcDbEntity
  8
0
  6
Continuous
 62
     0
370
    30
100
AcDbLine
 10
442.522253
 20
710.647159
 30
0.0
 11
444.066976
 21
710.647159
 31
0.0
  0
LINE
  5
94
330
7B
100
AcDbEntity
  8
0
  6
Continuous
 62
     0
370
    30
100
AcDbLine
 10
440.493435
 20
710.647159
 30
0.0
 11
442.522253
 21
710.647159
 31
0.0
  0
LINE
  5
95
330
7B
100
AcDbEntity
  8
0
  6
Continuous
 62
     0
370
    30
100
AcDbLine
 10
438.922253
 20
710.647159
 30
0.0
 11
440.493435
 21
710.647159
 31
0.0
  0
LINE
  5
96
330
7B
100
AcDbEntity
  8
0
  6
Continuous
 62
     0
370
    30
100
AcDbLine
 10
433.072428
 20
710.647159
 30
0.0
 11
435.36479
 21
710.647159
 31
0.0
  0
LINE
  5
97
330
7B
100
AcDbEntity
  8
0
  6
Continuous
 62
     0
370
    30
100
AcDbLine
 10
431.76479
 20
710.647159
 30
0.0
 11
433.072428
 21
710.647159
 31
0.0
  0
LINE
  5
98
330
7B
100
AcDbEntity
  8
0
  6
Continuous
 62
     0
370
    30
100
AcDbLine
 10
421.969729
 20
710.647159
 30
0.0
 11
424.514636
 21
710.647159
 31
0.0
  0
LWPOLYLINE
  5
99
330
7B
100
AcDbEntity
  8
0
  6
Continuous
 62
     0
370
    30
100
AcDbPolyline
 90
        7
 70
     0
 43
0.0
 10
420.914642
 20
710.647156
 10
420.947784
 20
710.647156
 10
421.048096
 20
710.647156
 10
421.211273
 20
710.647156
 10
421.426056
 20
710.647156
 10
421.676697
 20
710.647156
 10
421.969727
 20
710.647156
  0
LINE
  5
9A
330
7B
100
AcDbEntity
  8
0
  6
Continuous
 62
     0
370
    30
100
AcDbLine
 10
407.433352
 20
710.647159
 30
0.0
 11
410.214165
 21
710.647159
 31
0.0
  0
LINE
  5
9B
330
7B
100
AcDbEntity
  8
0
  6
Continuous
 62
     0
370
    30
100
AcDbLine
 10
406.614165
 20
710.647159
 30
0.0
 11
407.433352
 21
710.647159
 31
0.0
  0
LINE
  5
9C
330
7B
100
AcDbEntity
  8
0
  6
Continuous
 62
     0
370
    30
100
AcDbLine
 10
389.788017
 20
710.647159
 30
0.0
 11
392.782825
 21
710.647159
 31
0.0
  0
LWPOLYLINE
  5
9D
330
7B
100
AcDbEntity
  8
0
  6
Continuous
 62
     0
370
    30
100
AcDbPolyline
 90
        6
 70
     0
 43
0.0
 10
389.182831
 20
710.647156
 10
389.208527
 20
710.647156
 10
389.283936
 20
710.647156
 10
389.403625
 20
710.647156
 10
389.559204
 20
710.647156
 10
389.788025
 20
710.647156
  0
LINE
  5
9E
330
7B
100
AcDbEntity
  8
0
  6
Continuous
 62
     0
370
    30
100
AcDbLine
 10
369.427891
 20
710.647159
 30
0.0
 11
372.610005
 21
710.647159
 31
0.0
  0
LINE
  5
9F
330
7B
100
AcDbEntity
  8
0
  6
Continuous
 62
     0
370
    30
100
AcDbLine
 10
369.010005
 20
710.647159
 30
0.0
 11
369.427891
 21
710.647159
 31
0.0
  0
LINE
  5
A0
330
7B
100
AcDbEntity
  8
0
  6
Continuous
 62
     0
370
    30
100
AcDbLine
 10
346.807786
 20
710.647159
 30
0.0
 11
350.146331
 21
710.647159
 31
0.0
  0
LWPOLYLINE
  5
A1
330
7B
100
AcDbEntity
  8
0
  6
Continuous
 62
     0
370
    30
100
AcDbPolyline
 90
        4
 70
     0
 43
0.0
 10
346.546326
 20
710.647156
 10
346.575836
 20
710.647156
 10
346.659119
 20
710.647156
 10
346.8078
 20
710.647156
  0
LINE
  5
A2
330
7B
100
AcDbEntity
  8
0
  6
Continuous
 62
     0
370
    30
100
AcDbLine
 10
322.432997
 20
710.647159
 30
0.0
 11
325.893605
 21
710.647159
 31
0.0
  0
LWPOLYLINE
  5
A3
330
7B
100
AcDbEntity
  8
0
  6
Continuous
 62
     0
370
    30
100
AcDbPolyline
 90
        3
 70
     0
 43
0.0
 10
322.29361
 20
710.647156
 10
322.330017
 20
710.647156
 10
322.432983
 20
710.647156
  0
LINE
  5
A4
330
7B
100
AcDbEntity
  8
0
  6
Continuous
 62
     0
370
    30
100
AcDbLine
 10
296.848018
 20
710.647159
 30
0.0
 11
300.393594
 21
710.647159
 31
0.0
  0
LWPOLYLINE
  5
A5
330
7B
100
AcDbEntity
  8
0
  6
Continuous
 62
     0
370
    30
100
AcDbPolyline
 90
        3
 70
     0
 43
0.0
 10
296.793579
 20
710.647156
 10
296.79541
 20
710.647156
 10
296.848022
 20
710.647156
  0
LINE
  5
A6
330
7B
100
AcDbEntity
  8
0
  6
Continuous
 62
     0
370
    30
100
AcDbLine
 10
270.624374
 20
710.647159
 30
0.0
 11
274.215924
 21
710.647159
 31
0.0
  0
LWPOLYLINE
  5
A7
330
7B
100
AcDbEntity
  8
0
  6
Continuous
 62
     0
370
    30
100
AcDbPolyline
 90
        2
 70
     0
 43
0.0
 10
270.615936
 20
710.647156
 10
270.624359
 20
710.647156
  0
LWPOLYLINE
  5
A8
330
7B
100
AcDbEntity
  8
0
  6
Continuous
 62
     0
370
    30
100
AcDbPolyline
 90
       17
 70
     0
 43
0.0
 10
244.347855
 20
710.647156
 10
244.360458
 20
710.647156
 10
244.438354
 20
710.647156
 10
244.587006
 20
710.647156
 10
244.803726
 20
710.647156
 10
245.077057
 20
710.647156
 10
245.38855
 20
710.647156
 10
245.716736
 20
710.647156
 10
246.041397
 20
710.647156
 10
246.368286
 20
710.647156
 10
246.706635
 20
710.647156
 10
247.036942
 20
710.647156
 10
247.337296
 20
710.647156
 10
247.587692
 20
710.647156
 10
247.774139
 20
710.647156
 10
247.891205
 20
710.647156
 10
247.942871
 20
710.647156
  0
LINE
  5
A9
330
7B
100
AcDbEntity
  8
0
  6
Continuous
 62
     0
370
    30
100
AcDbLine
 10
218.568748
 20
710.647159
 30
0.0
 11
222.132053
 21
710.647159
 31
0.0
  0
LINE
  5
AA
330
7B
100
AcDbEntity
  8
0
  6
Continuous
 62
     0
370
    30
100
AcDbLine
 10
222.132053
 20
710.647159
 30
0.0
 11
222.168748
 21
710.647159
 31
0.0
  0
LWPOLYLINE
  5
AB
330
7B
100
AcDbEntity
  8
0
  6
Continuous
 62
     0
370
    30
100
AcDbPolyline
 90
       15
 70
     0
 43
0.0
 10
193.861893
 20
710.647156
 10
193.898758
 20
710.647156
 10
194.011322
 20
710.647156
 10
194.195282
 20
710.647156
 10
194.437332
 20
710.647156
 10
194.71817
 20
710.647156
 10
195.01683
 20
710.647156
 10
195.334213
 20
710.647156
 10
195.682816
 20
710.647156
 10
196.045486
 20
710.647156
 10
196.399979
 20
710.647156
 10
196.723083
 20
710.647156
 10
196.995392
 20
710.647156
 10
197.205078
 20
710.647156
 10
197.351608
 20
710.647156
  0
LINE
  5
AC
330
7B
100
AcDbEntity
  8
0
  6
Continuous
 62
     0
370
    30
100
AcDbLine
 10
197.351607
 20
710.647159
 30
0.0
 11
197.461891
 21
710.647159
 31
0.0
  0
LINE
  5
AD
330
7B
100
AcDbEntity
  8
0
  6
Continuous
 62
     0
370
    30
100
AcDbLine
 10
170.7767
 20
710.647159
 30
0.0
 11
174.155082
 21
710.647159
 31
0.0
  0
LINE
  5
AE
330
7B
100
AcDbEntity
  8
0
  6
Continuous
 62
     0
370
    30
100
AcDbLine
 10
174.155082
 20
710.647159
 30
0.0
 11
174.3767
 21
710.647159
 31
0.0
  0
LINE
  5
AF
330
7B
100
AcDbEntity
  8
0
  6
Continuous
 62
     0
370
    30
100
AcDbLine
 10
149.828859
 20
710.647159
 30
0.0
 11
153.060649
 21
710.647159
 31
0.0
  0
LINE
  5
B0
330
7B
100
AcDbEntity
  8
0
  6
Continuous
 62
     0
370
    30
100
AcDbLine
 10
153.060649
 20
710.647159
 30
0.0
 11
153.428859
 21
710.647159
 31
0.0
  0
LINE
  5
B1
330
7B
100
AcDbEntity
  8
0
  6
Continuous
 62
     0
370
    30
100
AcDbLine
 10
131.48631
 20
710.647159
 30
0.0
 11
134.539524
 21
710.647159
 31
0.0
  0
LINE
  5
B2
330
7B
100
AcDbEntity
  8
0
  6
Continuous
 62
     0
370
    30
100
AcDbLine
 10
134.539524
 20
710.647159
 30
0.0
 11
135.08631
 21
710.647159
 31
0.0
  0
LINE
  5
B3
330
7B
100
AcDbEntity
  8
0
  6
Continuous
 62
     0
370
    30
100
AcDbLine
 10
116.158795
 20
710.647159
 30
0.0
 11
119.005438
 21
710.647159
 31
0.0
  0
LINE
  5
B4
330
7B
100
AcDbEntity
  8
0
  6
Continuous
 62
     0
370
    30
100
AcDbLine
 10
119.005438
 20
710.647159
 30
0.0
 11
119.758795
 21
710.647159
 31
0.0
  0
LINE
  5
B5
330
7B
100
AcDbEntity
  8
0
  6
Continuous
 62
     0
370
    30
100
AcDbLine
 10
104.188704
 20
710.647159
 30
0.0
 11
106.805396
 21
710.647159
 31
0.0
  0
LINE
  5
B6
330
7B
100
AcDbEntity
  8
0
  6
Continuous
 62
     0
370
    30
100
AcDbLine
 10
106.805396
 20
710.647159
 30
0.0
 11
107.788704
 21
710.647159
 31
0.0
  0
LWPOLYLINE
  5
B7
330
7B
100
AcDbEntity
  8
0
  6
Continuous
 62
     0
370
    30
100
AcDbPolyline
 90
       10
 70
     0
 43
0.0
 10
95.84343
 20
710.647156
 10
95.881279
 20
710.647156
 10
95.985291
 20
710.647156
 10
96.160599
 20
710.647156
 10
96.4114
 20
710.647156
 10
96.729164
 20
710.647156
 10
97.094322
 20
710.647156
 10
97.479897
 20
710.647156
 10
97.857811
 20
710.647156
 10
98.211929
 20
710.647156
  0
LINE
  5
B8
330
7B
100
AcDbEntity
  8
0
  6
Continuous
 62
     0
370
    30
100
AcDbLine
 10
98.211927
 20
710.647159
 30
0.0
 11
99.443431
 21
710.647159
 31
0.0
  0
LWPOLYLINE
  5
B9
330
7B
100
AcDbEntity
  8
0
  6
Continuous
 62
     0
370
    30
100
AcDbPolyline
 90
       10
 70
     0
 43
0.0
 10
91.309395
 20
710.647156
 10
91.338226
 20
710.647156
 10
91.424438
 20
710.647156
 10
91.575073
 20
710.647156
 10
91.790901
 20
710.647156
 10
92.064682
 20
710.647156
 10
92.381462
 20
710.647156
 10
92.7211
 20
710.647156
 10
93.062347
 20
710.647156
 10
93.417
 20
710.647156
  0
LINE
  5
BA
330
7B
100
AcDbEntity
  8
0
  6
Continuous
 62
     0
370
    30
100
AcDbLine
 10
93.416996
 20
710.647159
 30
0.0
 11
94.909394
 21
710.647159
 31
0.0
  0
LWPOLYLINE
  5
BB
330
7B
100
AcDbEntity
  8
0
  6
Continuous
 62
     0
370
    30
100
AcDbPolyline
 90
        6
 70
     0
 43
0.0
 10
90.687874
 20
710.647156
 10
90.688316
 20
710.647156
 10
90.729843
 20
710.647156
 10
90.846344
 20
710.647156
 10
91.041695
 20
710.647156
 10
91.309395
 20
710.647156
  0
LINE
  5
BC
330
7B
100
AcDbEntity
  8
0
  6
Continuous
 62
     0
370
    30
100
AcDbLine
 10
113.577901
 20
710.647159
 30
0.0
 11
114.846714
 21
710.647159
 31
0.0
  0
LINE
  5
BD
330
7B
100
AcDbEntity
  8
0
  6
Continuous
 62
     0
370
    30
100
AcDbLine
 10
119.758795
 20
710.647159
 30
0.0
 11
120.554257
 21
710.647159
 31
0.0
  0
LINE
  5
BE
330
7B
100
AcDbEntity
  8
0
  6
Continuous
 62
     0
370
    30
100
AcDbLine
 10
124.873194
 20
710.647159
 30
0.0
 11
125.847534
 21
710.647159
 31
0.0
  0
LINE
  5
BF
330
7B
100
AcDbEntity
  8
0
  6
Continuous
 62
     0
370
    30
100
AcDbLine
 10
125.847534
 20
710.647159
 30
0.0
 11
128.473194
 21
710.647159
 31
0.0
  0
LINE
  5
C0
330
7B
100
AcDbEntity
  8
0
  6
Continuous
 62
     0
370
    30
100
AcDbLine
 10
153.428859
 20
710.647159
 30
0.0
 11
153.722729
 21
710.647159
 31
0.0
  0
LINE
  5
C1
330
7B
100
AcDbEntity
  8
0
  6
Continuous
 62
     0
370
    30
100
AcDbLine
 10
153.722729
 20
710.647159
 30
0.0
 11
156.845645
 21
710.647159
 31
0.0
  0
LINE
  5
C2
330
7B
100
AcDbEntity
  8
0
  6
Continuous
 62
     0
370
    30
100
AcDbLine
 10
197.461891
 20
710.647159
 30
0.0
 11
198.764561
 21
710.647159
 31
0.0
  0
LINE
  5
C3
330
7B
100
AcDbEntity
  8
0
  6
Continuous
 62
     0
370
    30
100
AcDbLine
 10
247.945362
 20
710.647159
 30
0.0
 11
249.155893
 21
710.647159
 31
0.0
  0
LINE
  5
C4
330
7B
100
AcDbEntity
  8
0
  6
Continuous
 62
     0
370
    30
100
AcDbLine
 10
300.393594
 20
710.647159
 30
0.0
 11
301.794518
 21
710.647159
 31
0.0
  0
LINE
  5
C5
330
7B
100
AcDbEntity
  8
0
  6
Continuous
 62
     0
370
    30
100
AcDbLine
 10
350.146331
 20
710.647159
 30
0.0
 11
350.411985
 21
710.647159
 31
0.0
  0
LINE
  5
C6
330
7B
100
AcDbEntity
  8
0
  6
Continuous
 62
     0
370
    30
100
AcDbLine
 10
404.383881
 20
710.647159
 30
0.0
 11
405.489345
 21
710.647159
 31
0.0
  0
LWPOLYLINE
  5
C7
330
7B
100
AcDbEntity
  8
0
  6
Continuous
 62
     0
370
    30
100
AcDbPolyline
 90
       11
 70
     0
 43
0.0
 10
401.889343
 20
710.647156
 10
401.923553
 20
710.647156
 10
402.017517
 20
710.647156
 10
402.166168
 20
710.647156
 10
402.378937
 20
710.647156
 10
402.652924
 20
710.647156
 10
402.976746
 20
710.647156
 10
403.331512
 20
710.647156
 10
403.694397
 20
710.647156
 10
404.043243
 20
710.647156
 10
404.383881
 20
710.647156
  0
LINE
  5
C8
330
7B
100
AcDbEntity
  8
0
  6
Continuous
 62
     0
370
    30
100
AcDbLine
 10
414.388494
 20
710.647159
 30
0.0
 11
415.792871
 21
710.647159
 31
0.0
  0
LWPOLYLINE
  5
C9
330
7B
100
AcDbEntity
  8
0
  6
Continuous
 62
     0
370
    30
100
AcDbPolyline
 90
       10
 70
     0
 43
0.0
 10
412.192871
 20
710.647156
 10
412.224609
 20
710.647156
 10
412.315918
 20
710.647156
 10
412.474579
 20
710.647156
 10
412.701965
 20
710.647156
 10
412.990387
 20
710.647156
 10
413.323456
 20
710.647156
 10
413.678833
 20
710.647156
 10
414.033142
 20
710.647156
 10
414.388489
 20
710.647156
  0
LINE
  5
CA
330
7B
100
AcDbEntity
  8
0
  6
Continuous
 62
     0
370
    30
100
AcDbLine
 10
419.560758
 20
710.647159
 30
0.0
 11
420.908296
 21
710.647159
 31
0.0
  0
LINE
  5
CB
330
7B
100
AcDbEntity
  8
0
  6
Continuous
 62
     0
370
    30
100
AcDbLine
 10
417.225385
 20
710.647159
 30
0.0
 11
419.560758
 21
710.647159
 31
0.0
  0
LINE
  5
CC
330
7B
100
AcDbEntity
  8
0
  6
Continuous
 62
     0
370
    30
100
AcDbLine
 10
415.960758
 20
710.647159
 30
0.0
 11
417.225385
 21
710.647159
 31
0.0
  0
LINE
  5
CD
330
7B
100
AcDbEntity
  8
0
  6
Continuous
 62
     0
370
    30
100
AcDbLine
 10
410.214165
 20
710.647159
 30
0.0
 11
411.641821
 21
710.647159
 31
0.0
  0
LINE
  5
CE
330
7B
100
AcDbEntity
  8
0
  6
Continuous
 62
     0
370
    30
100
AcDbLine
 10
396.530055
 20
710.647159
 30
0.0
 11
399.420916
 21
710.647159
 31
0.0
  0
LINE
  5
CF
330
7B
100
AcDbEntity
  8
0
  6
Continuous
 62
     0
370
    30
100
AcDbLine
 10
395.820916
 20
710.647159
 30
0.0
 11
396.530055
 21
710.647159
 31
0.0
  0
LINE
  5
D0
330
7B
100
AcDbEntity
  8
0
  6
Continuous
 62
     0
370
    30
100
AcDbLine
 10
380.146454
 20
710.647159
 30
0.0
 11
383.26937
 21
710.647159
 31
0.0
  0
LWPOLYLINE
  5
D1
330
7B
100
AcDbEntity
  8
0
  6
Continuous
 62
     0
370
    30
100
AcDbPolyline
 90
        5
 70
     0
 43
0.0
 10
379.669373
 20
710.647156
 10
379.702209
 20
710.647156
 10
379.796753
 20
710.647156
 10
379.942902
 20
710.647156
 10
380.146454
 20
710.647156
  0
LINE
  5
D2
330
7B
100
AcDbEntity
  8
0
  6
Continuous
 62
     0
370
    30
100
AcDbLine
 10
360.363163
 20
710.647159
 30
0.0
 11
363.677938
 21
710.647159
 31
0.0
  0
LWPOLYLINE
  5
D3
330
7B
100
AcDbEntity
  8
0
  6
Continuous
 62
     0
370
    30
100
AcDbPolyline
 90
        4
 70
     0
 43
0.0
 10
360.077942
 20
710.647156
 10
360.111877
 20
710.647156
 10
360.207275
 20
710.647156
 10
360.363159
 20
710.647156
  0
LINE
  5
D4
330
7B
100
AcDbEntity
  8
0
  6
Continuous
 62
     0
370
    30
100
AcDbLine
 10
337.781289
 20
710.647159
 30
0.0
 11
341.241897
 21
710.647159
 31
0.0
  0
LWPOLYLINE
  5
D5
330
7B
100
AcDbEntity
  8
0
  6
Continuous
 62
     0
370
    30
100
AcDbPolyline
 90
        3
 70
     0
 43
0.0
 10
337.641907
 20
710.647156
 10
337.678314
 20
710.647156
 10
337.781281
 20
710.647156
  0
LINE
  5
D6
330
7B
100
AcDbEntity
  8
0
  6
Continuous
 62
     0
370
    30
100
AcDbLine
 10
313.08697
 20
710.647159
 30
0.0
 11
316.642954
 21
710.647159
 31
0.0
  0
LWPOLYLINE
  5
D7
330
7B
100
AcDbEntity
  8
0
  6
Continuous
 62
     0
370
    30
100
AcDbPolyline
 90
        3
 70
     0
 43
0.0
 10
313.042969
 20
710.647156
 10
313.043243
 20
710.647156
 10
313.086975
 20
710.647156
  0
LINE
  5
D8
330
7B
100
AcDbEntity
  8
0
  6
Continuous
 62
     0
370
    30
100
AcDbLine
 10
287.03053
 20
710.647159
 30
0.0
 11
290.626543
 21
710.647159
 31
0.0
  0
LWPOLYLINE
  5
D9
330
7B
100
AcDbEntity
  8
0
  6
Continuous
 62
     0
370
    30
100
AcDbPolyline
 90
       16
 70
     0
 43
0.0
 10
260.389069
 20
710.647156
 10
260.423004
 20
710.647156
 10
260.529938
 20
710.647156
 10
260.711212
 20
710.647156
 10
260.958466
 20
710.647156
 10
261.254639
 20
710.647156
 10
261.577789
 20
710.647156
 10
261.905731
 20
710.647156
 10
262.236786
 20
710.647156
 10
262.586212
 20
710.647156
 10
262.934967
 20
710.647156
 10
263.259735
 20
710.647156
 10
263.538116
 20
710.647156
 10
263.753448
 20
710.647156
 10
263.89801
 20
710.647156
 10
263.974487
 20
710.647156
  0
LINE
  5
DA
330
7B
100
AcDbEntity
  8
0
  6
Continuous
 62
     0
370
    30
100
AcDbLine
 10
263.974475
 20
710.647159
 30
0.0
 11
263.989078
 21
710.647159
 31
0.0
  0
LWPOLYLINE
  5
DB
330
7B
100
AcDbEntity
  8
0
  6
Continuous
 62
     0
370
    30
100
AcDbPolyline
 90
       15
 70
     0
 43
0.0
 10
233.934006
 20
710.647156
 10
233.971634
 20
710.647156
 10
234.08728
 20
710.647156
 10
234.277451
 20
710.647156
 10
234.528778
 20
710.647156
 10
234.820953
 20
710.647156
 10
235.131561
 20
710.647156
 10
235.455414
 20
710.647156
 10
235.809402
 20
710.647156
 10
236.176392
 20
710.647156
 10
236.532883
 20
710.647156
 10
236.854507
 20
710.647156
 10
237.12117
 20
710.647156
 10
237.321075
 20
710.647156
 10
237.452545
 20
710.647156
  0
LINE
  5
DC
330
7B
100
AcDbEntity
  8
0
  6
Continuous
 62
     0
370
    30
100
AcDbLine
 10
237.452545
 20
710.647159
 30
0.0
 11
237.534006
 21
710.647159
 31
0.0
  0
LWPOLYLINE
  5
DD
330
7B
100
AcDbEntity
  8
0
  6
Continuous
 62
     0
370
    30
100
AcDbPolyline
 90
       15
 70
     0
 43
0.0
 10
208.467148
 20
710.647156
 10
208.50177
 20
710.647156
 10
208.605804
 20
710.647156
 10
208.773499
 20
710.647156
 10
208.992096
 20
710.647156
 10
209.244797
 20
710.647156
 10
209.515442
 20
710.647156
 10
209.81752
 20
710.647156
 10
210.151169
 20
710.647156
 10
210.501205
 20
710.647156
 10
210.848267
 20
710.647156
 10
211.171951
 20
710.647156
 10
211.454636
 20
710.647156
 10
211.684586
 20
710.647156
 10
211.866608
 20
710.647156
  0
LINE
  5
DE
330
7B
100
AcDbEntity
  8
0
  6
Continuous
 62
     0
370
    30
100
AcDbLine
 10
211.866608
 20
710.647159
 30
0.0
 11
212.067144
 21
710.647159
 31
0.0
  0
LINE
  5
DF
330
7B
100
AcDbEntity
  8
0
  6
Continuous
 62
     0
370
    30
100
AcDbLine
 10
184.76229
 20
710.647159
 30
0.0
 11
187.99408
 21
710.647159
 31
0.0
  0
LINE
  5
E0
330
7B
100
AcDbEntity
  8
0
  6
Continuous
 62
     0
370
    30
100
AcDbLine
 10
187.99408
 20
710.647159
 30
0.0
 11
188.36229
 21
710.647159
 31
0.0
  0
LWPOLYLINE
  5
E1
330
7B
100
AcDbEntity
  8
0
  6
Continuous
 62
     0
370
    30
100
AcDbPolyline
 90
       13
 70
     0
 43
0.0
 10
163.539703
 20
710.647156
 10
163.576233
 20
710.647156
 10
163.680939
 20
710.647156
 10
163.841492
 20
710.647156
 10
164.04184
 20
710.647156
 10
164.286926
 20
710.647156
 10
164.583099
 20
710.647156
 10
164.919922
 20
710.647156
 10
165.280273
 20
710.647156
 10
165.642792
 20
710.647156
 10
165.985916
 20
710.647156
 10
166.291962
 20
710.647156
 10
166.560318
 20
710.647156
  0
LINE
  5
E2
330
7B
100
AcDbEntity
  8
0
  6
Continuous
 62
     0
370
    30
100
AcDbLine
 10
166.560316
 20
710.647159
 30
0.0
 11
167.139704
 21
710.647159
 31
0.0
  0
LWPOLYLINE
  5
E3
330
7B
100
AcDbEntity
  8
0
  6
Continuous
 62
     0
370
    30
100
AcDbPolyline
 90
       12
 70
     0
 43
0.0
 10
145.444229
 20
710.647156
 10
145.480133
 20
710.647156
 10
145.580856
 20
710.647156
 10
145.732025
 20
710.647156
 10
145.933151
 20
710.647156
 10
146.193069
 20
710.647156
 10
146.504791
 20
710.647156
 10
146.853577
 20
710.647156
 10
147.218811
 20
710.647156
 10
147.57782
 20
710.647156
 10
147.9104
 20
710.647156
 10
148.216568
 20
710.647156
  0
LINE
  5
E4
330
7B
100
AcDbEntity
  8
0
  6
Continuous
 62
     0
370
    30
100
AcDbLine
 10
148.216569
 20
710.647159
 30
0.0
 11
149.044223
 21
710.647159
 31
0.0
  0
LWPOLYLINE
  5
E5
330
7B
100
AcDbEntity
  8
0
  6
Continuous
 62
     0
370
    30
100
AcDbPolyline
 90
        5
 70
     0
 43
0.0
 10
131.025665
 20
710.647156
 10
131.055908
 20
710.647156
 10
131.139618
 20
710.647156
 10
131.270386
 20
710.647156
 10
131.486313
 20
710.647156
  0
LWPOLYLINE
  5
E6
330
7B
100
AcDbEntity
  8
0
  6
Continuous
 62
     0
370
    30
100
AcDbPolyline
 90
       10
 70
     0
 43
0.0
 10
120.722145
 20
710.647156
 10
120.753868
 20
710.647156
 10
120.8452
 20
710.647156
 10
121.00386
 20
710.647156
 10
121.231232
 20
710.647156
 10
121.519661
 20
710.647156
 10
121.852722
 20
710.647156
 10
122.208115
 20
710.647156
 10
122.562401
 20
710.647156
 10
122.91777
 20
710.647156
  0
LINE
  5
E7
330
7B
100
AcDbEntity
  8
0
  6
Continuous
 62
     0
370
    30
100
AcDbLine
 10
122.917767
 20
710.647159
 30
0.0
 11
124.322144
 21
710.647159
 31
0.0
  0
LWPOLYLINE
  5
E8
330
7B
100
AcDbEntity
  8
0
  6
Continuous
 62
     0
370
    30
100
AcDbPolyline
 90
        8
 70
     0
 43
0.0
 10
114.84671
 20
710.647156
 10
114.87104
 20
710.647156
 10
114.948631
 20
710.647156
 10
115.084259
 20
710.647156
 10
115.27739
 20
710.647156
 10
115.521278
 20
710.647156
 10
115.803482
 20
710.647156
 10
116.158798
 20
710.647156
  0
LINE
  5
E9
330
7B
100
AcDbEntity
  8
0
  6
Continuous
 62
     0
370
    30
100
AcDbLine
 10
136.495225
 20
710.647159
 30
0.0
 11
138.066407
 21
710.647159
 31
0.0
  0
LINE
  5
EA
330
7B
100
AcDbEntity
  8
0
  6
Continuous
 62
     0
370
    30
100
AcDbLine
 10
138.066407
 20
710.647159
 30
0.0
 11
138.684174
 21
710.647159
 31
0.0
  0
LINE
  5
EB
330
7B
100
AcDbEntity
  8
0
  6
Continuous
 62
     0
370
    30
100
AcDbLine
 10
142.284174
 20
710.647159
 30
0.0
 11
143.586251
 21
710.647159
 31
0.0
  0
LWPOLYLINE
  5
EC
330
7B
100
AcDbEntity
  8
0
  6
Continuous
 62
     0
370
    30
100
AcDbPolyline
 90
        5
 70
     0
 43
0.0
 10
181.8228
 20
710.647156
 10
181.84108
 20
710.647156
 10
181.893921
 20
710.647156
 10
181.977081
 20
710.647156
 10
182.142868
 20
710.647156
  0
LINE
  5
ED
330
7B
100
AcDbEntity
  8
0
  6
Continuous
 62
     0
370
    30
100
AcDbLine
 10
182.142876
 20
710.647159
 30
0.0
 11
182.50303
 21
710.647159
 31
0.0
  0
LINE
  5
EE
330
7B
100
AcDbEntity
  8
0
  6
Continuous
 62
     0
370
    30
100
AcDbLine
 10
337.382244
 20
710.647159
 30
0.0
 11
337.641897
 21
710.647159
 31
0.0
  0
LINE
  5
EF
330
7B
100
AcDbEntity
  8
0
  6
Continuous
 62
     0
370
    30
100
AcDbLine
 10
336.147728
 20
710.647159
 30
0.0
 11
337.382244
 21
710.647159
 31
0.0
  0
LINE
  5
F0
330
7B
100
AcDbEntity
  8
0
  6
Continuous
 62
     0
370
    30
100
AcDbLine
 10
358.719974
 20
710.647159
 30
0.0
 11
359.027865
 21
710.647159
 31
0.0
  0
LWPOLYLINE
  5
F1
330
7B
100
AcDbEntity
  8
0
  6
Continuous
 62
     0
370
    30
100
AcDbPolyline
 90
       13
 70
     0
 43
0.0
 10
355.746277
 20
710.647156
 10
355.781464
 20
710.647156
 10
355.88205
 20
710.647156
 10
356.036041
 20
710.647156
 10
356.22876
 20
710.647156
 10
356.467926
 20
710.647156
 10
356.757263
 20
710.647156
 10
357.086884
 20
710.647156
 10
357.44043
 20
710.647156
 10
357.797577
 20
710.647156
 10
358.137756
 20
710.647156
 10
358.443787
 20
710.647156
 10
358.719971
 20
710.647156
  0
LINE
  5
F2
330
7B
100
AcDbEntity
  8
0
  6
Continuous
 62
     0
370
    30
100
AcDbLine
 10
388.774734
 20
710.647159
 30
0.0
 11
389.182825
 21
710.647159
 31
0.0
  0
LINE
  5
F3
330
7B
100
AcDbEntity
  8
0
  6
Continuous
 62
     0
370
    30
100
AcDbLine
 10
387.510336
 20
710.647159
 30
0.0
 11
388.774734
 21
710.647159
 31
0.0
  0
LINE
  5
F4
330
7B
100
AcDbEntity
  8
0
  6
Continuous
 62
     0
370
    30
100
AcDbLine
 10
399.420916
 20
710.647159
 30
0.0
 11
400.01979
 21
710.647159
 31
0.0
  0
LINE
  5
F5
330
7B
100
AcDbEntity
  8
0
  6
Continuous
 62
     0
370
    30
100
AcDbLine
 10
394.13374
 20
710.647159
 30
0.0
 11
395.820916
 21
710.647159
 31
0.0
  0
LINE
  5
F6
330
7B
100
AcDbEntity
  8
0
  6
Continuous
 62
     0
370
    30
100
AcDbLine
 10
392.928763
 20
710.647159
 30
0.0
 11
394.13374
 21
710.647159
 31
0.0
  0
LINE
  5
F7
330
7B
100
AcDbEntity
  8
0
  6
Continuous
 62
     0
370
    30
100
AcDbLine
 10
384.775114
 20
710.647159
 30
0.0
 11
387.510336
 21
710.647159
 31
0.0
  0
LWPOLYLINE
  5
F8
330
7B
100
AcDbEntity
  8
0
  6
Continuous
 62
     0
370
    30
100
AcDbPolyline
 90
        7
 70
     0
 43
0.0
 10
383.910339
 20
710.647156
 10
383.936371
 20
710.647156
 10
384.014313
 20
710.647156
 10
384.140594
 20
710.647156
 10
384.307678
 20
710.647156
 10
384.505371
 20
710.647156
 10
384.775116
 20
710.647156
  0
LINE
  5
F9
330
7B
100
AcDbEntity
  8
0
  6
Continuous
 62
     0
370
    30
100
AcDbLine
 10
372.610005
 20
710.647159
 30
0.0
 11
373.358657
 21
710.647159
 31
0.0
  0
LINE
  5
FA
330
7B
100
AcDbEntity
  8
0
  6
Continuous
 62
     0
370
    30
100
AcDbLine
 10
351.412304
 20
710.647159
 30
0.0
 11
354.692221
 21
710.647159
 31
0.0
  0
LINE
  5
FB
330
7B
100
AcDbEntity
  8
0
  6
Continuous
 62
     0
370
    30
100
AcDbLine
 10
351.092221
 20
710.647159
 30
0.0
 11
351.412304
 21
710.647159
 31
0.0
  0
LINE
  5
FC
330
7B
100
AcDbEntity
  8
0
  6
Continuous
 62
     0
370
    30
100
AcDbLine
 10
328.866235
 20
710.647159
 30
0.0
 11
332.326843
 21
710.647159
 31
0.0
  0
LWPOLYLINE
  5
FD
330
7B
100
AcDbEntity
  8
0
  6
Continuous
 62
     0
370
    30
100
AcDbPolyline
 90
        3
 70
     0
 43
0.0
 10
328.726837
 20
710.647156
 10
328.763245
 20
710.647156
 10
328.866241
 20
710.647156
  0
LINE
  5
FE
330
7B
100
AcDbEntity
  8
0
  6
Continuous
 62
     0
370
    30
100
AcDbLine
 10
303.671274
 20
710.647159
 30
0.0
 11
307.239996
 21
710.647159
 31
0.0
  0
LWPOLYLINE
  5
FF
330
7B
100
AcDbEntity
  8
0
  6
Continuous
 62
     0
370
    30
100
AcDbPolyline
 90
        2
 70
     0
 43
0.0
 10
303.639984
 20
710.647156
 10
303.671265
 20
710.647156
  0
LWPOLYLINE
  5
100
330
7B
100
AcDbEntity
  8
0
  6
Continuous
 62
     0
370
    30
100
AcDbPolyline
 90
       17
 70
     0
 43
0.0
 10
276.928558
 20
710.647156
 10
276.950958
 20
710.647156
 10
277.03891
 20
710.647156
 10
277.197296
 20
710.647156
 10
277.422821
 20
710.647156
 10
277.7034
 20
710.647156
 10
278.020203
 20
710.647156
 10
278.351624
 20
710.647156
 10
278.677582
 20
710.647156
 10
279.003937
 20
710.647156
 10
279.339813
 20
710.647156
 10
279.665558
 20
710.647156
 10
279.959381
 20
710.647156
 10
280.201599
 20
710.647156
 10
280.378784
 20
710.647156
 10
280.486115
 20
710.647156
 10
280.527618
 20
710.647156
  0
LWPOLYLINE
  5
101
330
7B
100
AcDbEntity
  8
0
  6
Continuous
 62
     0
370
    30
100
AcDbPolyline
 90
       16
 70
     0
 43
0.0
 10
249.758575
 20
710.647156
 10
249.791702
 20
710.647156
 10
249.894608
 20
710.647156
 10
250.066513
 20
710.647156
 10
250.298264
 20
710.647156
 10
250.573792
 20
710.647156
 10
250.873566
 20
710.647156
 10
251.178818
 20
710.647156
 10
251.500458
 20
710.647156
 10
251.842377
 20
710.647156
 10
252.186722
 20
710.647156
 10
252.512527
 20
710.647156
 10
252.799347
 20
710.647156
 10
253.031448
 20
710.647156
 10
253.200455
 20
710.647156
 10
253.310272
 20
710.647156
  0
LINE
  5
102
330
7B
100
AcDbEntity
  8
0
  6
Continuous
 62
     0
370
    30
100
AcDbLine
 10
253.310278
 20
710.647159
 30
0.0
 11
253.35858
 21
710.647159
 31
0.0
  0
LWPOLYLINE
  5
103
330
7B
100
AcDbEntity
  8
0
  6
Continuous
 62
     0
370
    30
100
AcDbPolyline
 90
       15
 70
     0
 43
0.0
 10
223.318893
 20
710.647156
 10
223.354187
 20
710.647156
 10
223.460739
 20
710.647156
 10
223.633087
 20
710.647156
 10
223.858307
 20
710.647156
 10
224.118866
 20
710.647156
 10
224.396881
 20
710.647156
 10
224.7034
 20
710.647156
 10
225.041473
 20
710.647156
 10
225.395355
 20
710.647156
 10
225.744858
 20
710.647156
 10
226.068802
 20
710.647156
 10
226.349106
 20
710.647156
 10
226.573944
 20
710.647156
 10
226.746185
 20
710.647156
  0
LINE
  5
104
330
7B
100
AcDbEntity
  8
0
  6
Continuous
 62
     0
370
    30
100
AcDbLine
 10
226.746193
 20
710.647159
 30
0.0
 11
226.918888
 21
710.647159
 31
0.0
  0
LINE
  5
105
330
7B
100
AcDbEntity
  8
0
  6
Continuous
 62
     0
370
    30
100
AcDbLine
 10
198.764561
 20
710.647159
 30
0.0
 11
201.996351
 21
710.647159
 31
0.0
  0
LINE
  5
106
330
7B
100
AcDbEntity
  8
0
  6
Continuous
 62
     0
370
    30
100
AcDbLine
 10
201.996351
 20
710.647159
 30
0.0
 11
202.364561
 21
710.647159
 31
0.0
  0
LINE
  5
107
330
7B
100
AcDbEntity
  8
0
  6
Continuous
 62
     0
370
    30
100
AcDbLine
 10
177.16874
 20
710.647159
 30
0.0
 11
180.142439
 21
710.647159
 31
0.0
  0
LINE
  5
108
330
7B
100
AcDbEntity
  8
0
  6
Continuous
 62
     0
370
    30
100
AcDbLine
 10
180.142439
 20
710.647159
 30
0.0
 11
180.76874
 21
710.647159
 31
0.0
  0
LWPOLYLINE
  5
109
330
7B
100
AcDbEntity
  8
0
  6
Continuous
 62
     0
370
    30
100
AcDbPolyline
 90
       12
 70
     0
 43
0.0
 10
159.475266
 20
710.647156
 10
159.507919
 20
710.647156
 10
159.599106
 20
710.647156
 10
159.736633
 20
710.647156
 10
159.925766
 20
710.647156
 10
160.170898
 20
710.647156
 10
160.465622
 20
710.647156
 10
160.796753
 20
710.647156
 10
161.145966
 20
710.647156
 10
161.492935
 20
710.647156
 10
161.819199
 20
710.647156
 10
162.139572
 20
710.647156
  0
LINE
  5
10A
330
7B
100
AcDbEntity
  8
0
  6
Continuous
 62
     0
370
    30
100
AcDbLine
 10
162.139579
 20
710.647159
 30
0.0
 11
163.075267
 21
710.647159
 31
0.0
  0
LINE
  5
10B
330
7B
100
AcDbEntity
  8
0
  6
Continuous
 62
     0
370
    30
100
AcDbLine
 10
149.044223
 20
710.647159
 30
0.0
 11
149.828859
 21
710.647159
 31
0.0
  0
LINE
  5
10C
330
7B
100
AcDbEntity
  8
0
  6
Continuous
 62
     0
370
    30
100
AcDbLine
 10
138.684174
 20
710.647159
 30
0.0
 11
140.631561
 21
710.647159
 31
0.0
  0
LINE
  5
10D
330
7B
100
AcDbEntity
  8
0
  6
Continuous
 62
     0
370
    30
100
AcDbLine
 10
140.631561
 20
710.647159
 30
0.0
 11
142.284174
 21
710.647159
 31
0.0
  0
LINE
  5
10E
330
7B
100
AcDbEntity
  8
0
  6
Continuous
 62
     0
370
    30
100
AcDbLine
 10
159.457673
 20
710.647159
 30
0.0
 11
159.475267
 21
710.647159
 31
0.0
  0
LINE
  5
10F
330
7B
100
AcDbEntity
  8
0
  6
Continuous
 62
     0
370
    30
100
AcDbLine
 10
270.231339
 20
710.647159
 30
0.0
 11
270.245942
 21
710.647159
 31
0.0
  0
LINE
  5
110
330
7B
100
AcDbEntity
  8
0
  6
Continuous
 62
     0
370
    30
100
AcDbLine
 10
269.869073
 20
710.647159
 30
0.0
 11
270.231339
 21
710.647159
 31
0.0
  0
LINE
  5
111
330
7B
100
AcDbEntity
  8
0
  6
Continuous
 62
     0
370
    30
100
AcDbLine
 10
373.36264
 20
710.647159
 30
0.0
 11
373.457341
 21
710.647159
 31
0.0
  0
LINE
  5
112
330
7B
100
AcDbEntity
  8
0
  6
Continuous
 62
     0
370
    30
100
AcDbLine
 10
375.028523
 20
710.647159
 30
0.0
 11
377.057341
 21
710.647159
 31
0.0
  0
LINE
  5
113
330
7B
100
AcDbEntity
  8
0
  6
Continuous
 62
     0
370
    30
100
AcDbLine
 10
373.457341
 20
710.647159
 30
0.0
 11
375.028523
 21
710.647159
 31
0.0
  0
LINE
  5
114
330
7B
100
AcDbEntity
  8
0
  6
Continuous
 62
     0
370
    30
100
AcDbLine
 10
359.737004
 20
710.647159
 30
0.0
 11
360.077938
 21
710.647159
 31
0.0
  0
LINE
  5
115
330
7B
100
AcDbEntity
  8
0
  6
Continuous
 62
     0
370
    30
100
AcDbLine
 10
359.027865
 20
710.647159
 30
0.0
 11
359.737004
 21
710.647159
 31
0.0
  0
LINE
  5
116
330
7B
100
AcDbEntity
  8
0
  6
Continuous
 62
     0
370
    30
100
AcDbLine
 10
342.360307
 20
710.647159
 30
0.0
 11
345.584572
 21
710.647159
 31
0.0
  0
LWPOLYLINE
  5
117
330
7B
100
AcDbEntity
  8
0
  6
Continuous
 62
     0
370
    30
100
AcDbPolyline
 90
        5
 70
     0
 43
0.0
 10
341.984558
 20
710.647156
 10
342.007843
 20
710.647156
 10
342.075012
 20
710.647156
 10
342.179993
 20
710.647156
 10
342.360321
 20
710.647156
  0
LINE
  5
118
330
7B
100
AcDbEntity
  8
0
  6
Continuous
 62
     0
370
    30
100
AcDbLine
 10
319.933627
 20
710.647159
 30
0.0
 11
322.293605
 21
710.647159
 31
0.0
  0
LWPOLYLINE
  5
119
330
7B
100
AcDbEntity
  8
0
  6
Continuous
 62
     0
370
    30
100
AcDbPolyline
 90
        3
 70
     0
 43
0.0
 10
319.79425
 20
710.647156
 10
319.830658
 20
710.647156
 10
319.933624
 20
710.647156
  0
LINE
  5
11A
330
7B
100
AcDbEntity
  8
0
  6
Continuous
 62
     0
370
    30
100
AcDbLine
 10
293.985305
 20
710.647159
 30
0.0
 11
296.793594
 21
710.647159
 31
0.0
  0
LWPOLYLINE
  5
11B
330
7B
100
AcDbEntity
  8
0
  6
Continuous
 62
     0
370
    30
100
AcDbPolyline
 90
        2
 70
     0
 43
0.0
 10
293.969086
 20
710.647156
 10
293.985291
 20
710.647156
  0
LWPOLYLINE
  5
11C
330
7B
100
AcDbEntity
  8
0
  6
Continuous
 62
     0
370
    30
100
AcDbPolyline
 90
       16
 70
     0
 43
0.0
 10
266.269073
 20
710.647156
 10
266.303009
 20
710.647156
 10
266.409943
 20
710.647156
 10
266.591217
 20
710.647156
 10
266.83847
 20
710.647156
 10
267.134644
 20
710.647156
 10
267.457764
 20
710.647156
 10
267.785736
 20
710.647156
 10
268.116791
 20
710.647156
 10
268.466217
 20
710.647156
 10
268.814972
 20
710.647156
 10
269.13974
 20
710.647156
 10
269.418121
 20
710.647156
 10
269.633453
 20
710.647156
 10
269.778015
 20
710.647156
 10
269.854462
 20
710.647156
  0
LINE
  5
11D
330
7B
100
AcDbEntity
  8
0
  6
Continuous
 62
     0
370
    30
100
AcDbLine
 10
269.85447
 20
710.647159
 30
0.0
 11
269.869073
 21
710.647159
 31
0.0
  0
LWPOLYLINE
  5
11E
330
7B
100
AcDbEntity
  8
0
  6
Continuous
 62
     0
370
    30
100
AcDbPolyline
 90
       15
 70
     0
 43
0.0
 10
238.581894
 20
710.647156
 10
238.618149
 20
710.647156
 10
238.728271
 20
710.647156
 10
238.907471
 20
710.647156
 10
239.142548
 20
710.647156
 10
239.414932
 20
710.647156
 10
239.704758
 20
710.647156
 10
240.017639
 20
710.647156
 10
240.362015
 20
710.647156
 10
240.721207
 20
710.647156
 10
241.073853
 20
710.647156
 10
241.397568
 20
710.647156
 10
241.673538
 20
710.647156
 10
241.889893
 20
710.647156
 10
242.047241
 20
710.647156
  0
LINE
  5
11F
330
7B
100
AcDbEntity
  8
0
  6
Continuous
 62
     0
370
    30
100
AcDbLine
 10
242.047237
 20
710.647159
 30
0.0
 11
242.181899
 21
710.647159
 31
0.0
  0
LINE
  5
120
330
7B
100
AcDbEntity
  8
0
  6
Continuous
 62
     0
370
    30
100
AcDbLine
 10
212.794401
 20
710.647159
 30
0.0
 11
216.026191
 21
710.647159
 31
0.0
  0
LINE
  5
121
330
7B
100
AcDbEntity
  8
0
  6
Continuous
 62
     0
370
    30
100
AcDbLine
 10
216.026191
 20
710.647159
 30
0.0
 11
216.394401
 21
710.647159
 31
0.0
  0
LWPOLYLINE
  5
122
330
7B
100
AcDbEntity
  8
0
  6
Continuous
 62
     0
370
    30
100
AcDbPolyline
 90
       13
 70
     0
 43
0.0
 10
190.663956
 20
710.647156
 10
190.697128
 20
710.647156
 10
190.79158
 20
710.647156
 10
190.935837
 20
710.647156
 10
191.117889
 20
710.647156
 10
191.348007
 20
710.647156
 10
191.626968
 20
710.647156
 10
191.945465
 20
710.647156
 10
192.288391
 20
710.647156
 10
192.636932
 20
710.647156
 10
192.971878
 20
710.647156
 10
193.276947
 20
710.647156
 10
193.564621
 20
710.647156
  0
LINE
  5
123
330
7B
100
AcDbEntity
  8
0
  6
Continuous
 62
     0
370
    30
100
AcDbLine
 10
193.564623
 20
710.647159
 30
0.0
 11
193.861891
 21
710.647159
 31
0.0
  0
LINE
  5
124
330
7B
100
AcDbEntity
  8
0
  6
Continuous
 62
     0
370
    30
100
AcDbLine
 10
174.3767
 20
710.647159
 30
0.0
 11
176.193252
 21
710.647159
 31
0.0
  0
LINE
  5
125
330
7B
100
AcDbEntity
  8
0
  6
Continuous
 62
     0
370
    30
100
AcDbLine
 10
176.193252
 20
710.647159
 30
0.0
 11
177.16874
 21
710.647159
 31
0.0
  0
LINE
  5
126
330
7B
100
AcDbEntity
  8
0
  6
Continuous
 62
     0
370
    30
100
AcDbLine
 10
163.075267
 20
710.647159
 30
0.0
 11
163.539704
 21
710.647159
 31
0.0
  0
LINE
  5
127
330
7B
100
AcDbEntity
  8
0
  6
Continuous
 62
     0
370
    30
100
AcDbLine
 10
182.50303
 20
710.647159
 30
0.0
 11
184.074211
 21
710.647159
 31
0.0
  0
LINE
  5
128
330
7B
100
AcDbEntity
  8
0
  6
Continuous
 62
     0
370
    30
100
AcDbLine
 10
184.074211
 20
710.647159
 30
0.0
 11
184.76229
 21
710.647159
 31
0.0
  0
LINE
  5
129
330
7B
100
AcDbEntity
  8
0
  6
Continuous
 62
     0
370
    30
100
AcDbLine
 10
188.36229
 20
710.647159
 30
0.0
 11
188.511817
 21
710.647159
 31
0.0
  0
LINE
  5
12A
330
7B
100
AcDbEntity
  8
0
  6
Continuous
 62
     0
370
    30
100
AcDbLine
 10
202.364561
 20
710.647159
 30
0.0
 11
203.922005
 21
710.647159
 31
0.0
  0
LINE
  5
12B
330
7B
100
AcDbEntity
  8
0
  6
Continuous
 62
     0
370
    30
100
AcDbLine
 10
222.168748
 20
710.647159
 30
0.0
 11
222.225031
 21
710.647159
 31
0.0
  0
LINE
  5
12C
330
7B
100
AcDbEntity
  8
0
  6
Continuous
 62
     0
370
    30
100
AcDbLine
 10
222.225031
 20
710.647159
 30
0.0
 11
223.318888
 21
710.647159
 31
0.0
  0
LINE
  5
12D
330
7B
100
AcDbEntity
  8
0
  6
Continuous
 62
     0
370
    30
100
AcDbLine
 10
249.157886
 20
710.647159
 30
0.0
 11
249.75858
 21
710.647159
 31
0.0
  0
LINE
  5
12E
330
7B
100
AcDbEntity
  8
0
  6
Continuous
 62
     0
370
    30
100
AcDbLine
 10
280.933159
 20
710.647159
 30
0.0
 11
281.335815
 21
710.647159
 31
0.0
  0
LINE
  5
12F
330
7B
100
AcDbEntity
  8
0
  6
Continuous
 62
     0
370
    30
100
AcDbLine
 10
309.271907
 20
710.647159
 30
0.0
 11
309.288093
 21
710.647159
 31
0.0
  0
LINE
  5
130
330
7B
100
AcDbEntity
  8
0
  6
Continuous
 62
     0
370
    30
100
AcDbLine
 10
307.239996
 20
710.647159
 30
0.0
 11
309.271907
 21
710.647159
 31
0.0
  0
LINE
  5
131
330
7B
100
AcDbEntity
  8
0
  6
Continuous
 62
     0
370
    30
100
AcDbLine
 10
332.326843
 20
710.647159
 30
0.0
 11
332.547728
 21
710.647159
 31
0.0
  0
LINE
  5
132
330
7B
100
AcDbEntity
  8
0
  6
Continuous
 62
     0
370
    30
100
AcDbLine
 10
345.584572
 20
710.647159
 30
0.0
 11
346.294624
 21
710.647159
 31
0.0
  0
LINE
  5
133
330
7B
100
AcDbEntity
  8
0
  6
Continuous
 62
     0
370
    30
100
AcDbLine
 10
350.411985
 20
710.647159
 30
0.0
 11
351.092221
 21
710.647159
 31
0.0
  0
LINE
  5
134
330
7B
100
AcDbEntity
  8
0
  6
Continuous
 62
     0
370
    30
100
AcDbLine
 10
346.294624
 20
710.647159
 30
0.0
 11
346.546331
 21
710.647159
 31
0.0
  0
LINE
  5
135
330
7B
100
AcDbEntity
  8
0
  6
Continuous
 62
     0
370
    30
100
AcDbLine
 10
333.024812
 20
710.647159
 30
0.0
 11
336.147728
 21
710.647159
 31
0.0
  0
LWPOLYLINE
  5
136
330
7B
100
AcDbEntity
  8
0
  6
Continuous
 62
     0
370
    30
100
AcDbPolyline
 90
        5
 70
     0
 43
0.0
 10
332.547729
 20
710.647156
 10
332.580566
 20
710.647156
 10
332.67514
 20
710.647156
 10
332.821259
 20
710.647156
 10
333.024811
 20
710.647156
  0
LINE
  5
137
330
7B
100
AcDbEntity
  8
0
  6
Continuous
 62
     0
370
    30
100
AcDbLine
 10
310.968768
 20
710.647159
 30
0.0
 11
313.042954
 21
710.647159
 31
0.0
  0
LWPOLYLINE
  5
138
330
7B
100
AcDbEntity
  8
0
  6
Continuous
 62
     0
370
    30
100
AcDbPolyline
 90
        3
 70
     0
 43
0.0
 10
310.829376
 20
710.647156
 10
310.865784
 20
710.647156
 10
310.968781
 20
710.647156
  0
LINE
  5
139
330
7B
100
AcDbEntity
  8
0
  6
Continuous
 62
     0
370
    30
100
AcDbLine
 10
283.761115
 20
710.647159
 30
0.0
 11
287.028536
 21
710.647159
 31
0.0
  0
LWPOLYLINE
  5
13A
330
7B
100
AcDbEntity
  8
0
  6
Continuous
 62
     0
370
    30
100
AcDbPolyline
 90
       15
 70
     0
 43
0.0
 10
254.602036
 20
710.647156
 10
254.639664
 20
710.647156
 10
254.75531
 20
710.647156
 10
254.94548
 20
710.647156
 10
255.196808
 20
710.647156
 10
255.488983
 20
710.647156
 10
255.799591
 20
710.647156
 10
256.123444
 20
710.647156
 10
256.477448
 20
710.647156
 10
256.844421
 20
710.647156
 10
257.200928
 20
710.647156
 10
257.522552
 20
710.647156
 10
257.789185
 20
710.647156
 10
257.989105
 20
710.647156
 10
258.120575
 20
710.647156
  0
LINE
  5
13B
330
7B
100
AcDbEntity
  8
0
  6
Continuous
 62
     0
370
    30
100
AcDbLine
 10
258.120576
 20
710.647159
 30
0.0
 11
258.202038
 21
710.647159
 31
0.0
  0
LINE
  5
13C
330
7B
100
AcDbEntity
  8
0
  6
Continuous
 62
     0
370
    30
100
AcDbLine
 10
226.918888
 20
710.647159
 30
0.0
 11
230.106688
 21
710.647159
 31
0.0
  0
LINE
  5
13D
330
7B
100
AcDbEntity
  8
0
  6
Continuous
 62
     0
370
    30
100
AcDbLine
 10
230.106688
 20
710.647159
 30
0.0
 11
230.474898
 21
710.647159
 31
0.0
  0
LINE
  5
13E
330
7B
100
AcDbEntity
  8
0
  6
Continuous
 62
     0
370
    30
100
AcDbLine
 10
203.922005
 20
710.647159
 30
0.0
 11
206.694352
 21
710.647159
 31
0.0
  0
LINE
  5
13F
330
7B
100
AcDbEntity
  8
0
  6
Continuous
 62
     0
370
    30
100
AcDbLine
 10
206.694352
 20
710.647159
 30
0.0
 11
207.522005
 21
710.647159
 31
0.0
  0
LWPOLYLINE
  5
140
330
7B
100
AcDbEntity
  8
0
  6
Continuous
 62
     0
370
    30
100
AcDbPolyline
 90
       10
 70
     0
 43
0.0
 10
188.51181
 20
710.647156
 10
188.542511
 20
710.647156
 10
188.630661
 20
710.647156
 10
188.783691
 20
710.647156
 10
189.003265
 20
710.647156
 10
189.282639
 20
710.647156
 10
189.606781
 20
710.647156
 10
189.954834
 20
710.647156
 10
190.304443
 20
710.647156
 10
190.663956
 20
710.647156
  0
LINE
  5
141
330
7B
100
AcDbEntity
  8
0
  6
Continuous
 62
     0
370
    30
100
AcDbLine
 10
207.522005
 20
710.647159
 30
0.0
 11
208.467144
 21
710.647159
 31
0.0
  0
LINE
  5
142
330
7B
100
AcDbEntity
  8
0
  6
Continuous
 62
     0
370
    30
100
AcDbLine
 10
216.394401
 20
710.647159
 30
0.0
 11
216.722675
 21
710.647159
 31
0.0
  0
LINE
  5
143
330
7B
100
AcDbEntity
  8
0
  6
Continuous
 62
     0
370
    30
100
AcDbLine
 10
216.722675
 20
710.647159
 30
0.0
 11
218.568748
 21
710.647159
 31
0.0
  0
LINE
  5
144
330
7B
100
AcDbEntity
  8
0
  6
Continuous
 62
     0
370
    30
100
AcDbLine
 10
233.647066
 20
710.647159
 30
0.0
 11
233.934006
 21
710.647159
 31
0.0
  0
LINE
  5
145
330
7B
100
AcDbEntity
  8
0
  6
Continuous
 62
     0
370
    30
100
AcDbLine
 10
291.849678
 20
710.647159
 30
0.0
 11
292.552048
 21
710.647159
 31
0.0
  0
LWPOLYLINE
  5
146
330
7B
100
AcDbEntity
  8
0
  6
Continuous
 62
     0
370
    30
100
AcDbPolyline
 90
        9
 70
     0
 43
0.0
 10
309.288086
 20
710.647156
 10
309.317444
 20
710.647156
 10
309.400543
 20
710.647156
 10
309.527252
 20
710.647156
 10
309.691162
 20
710.647156
 10
309.902649
 20
710.647156
 10
310.160004
 20
710.647156
 10
310.455383
 20
710.647156
 10
310.829376
 20
710.647156
  0
LINE
  5
147
330
7B
100
AcDbEntity
  8
0
  6
Continuous
 62
     0
370
    30
100
AcDbLine
 10
326.462372
 20
710.647159
 30
0.0
 11
328.726843
 21
710.647159
 31
0.0
  0
LINE
  5
148
330
7B
100
AcDbEntity
  8
0
  6
Continuous
 62
     0
370
    30
100
AcDbLine
 10
325.893605
 20
710.647159
 30
0.0
 11
326.462372
 21
710.647159
 31
0.0
  0
LINE
  5
149
330
7B
100
AcDbEntity
  8
0
  6
Continuous
 62
     0
370
    30
100
AcDbLine
 10
317.146508
 20
710.647159
 30
0.0
 11
319.794235
 21
710.647159
 31
0.0
  0
LWPOLYLINE
  5
14A
330
7B
100
AcDbEntity
  8
0
  6
Continuous
 62
     0
370
    30
100
AcDbPolyline
 90
        5
 70
     0
 43
0.0
 10
316.669434
 20
710.647156
 10
316.702271
 20
710.647156
 10
316.796814
 20
710.647156
 10
316.942963
 20
710.647156
 10
317.146515
 20
710.647156
  0
LINE
  5
14B
330
7B
100
AcDbEntity
  8
0
  6
Continuous
 62
     0
370
    30
100
AcDbLine
 10
301.933909
 20
710.647159
 30
0.0
 11
303.639996
 21
710.647159
 31
0.0
  0
LWPOLYLINE
  5
14C
330
7B
100
AcDbEntity
  8
0
  6
Continuous
 62
     0
370
    30
100
AcDbPolyline
 90
        3
 70
     0
 43
0.0
 10
301.794525
 20
710.647156
 10
301.830933
 20
710.647156
 10
301.933899
 20
710.647156
  0
LINE
  5
14D
330
7B
100
AcDbEntity
  8
0
  6
Continuous
 62
     0
370
    30
100
AcDbLine
 10
282.65944
 20
710.647159
 30
0.0
 11
283.759122
 21
710.647159
 31
0.0
  0
LINE
  5
14E
330
7B
100
AcDbEntity
  8
0
  6
Continuous
 62
     0
370
    30
100
AcDbLine
 10
263.989078
 20
710.647159
 30
0.0
 11
265.084962
 21
710.647159
 31
0.0
  0
LINE
  5
14F
330
7B
100
AcDbEntity
  8
0
  6
Continuous
 62
     0
370
    30
100
AcDbLine
 10
265.084962
 20
710.647159
 30
0.0
 11
265.166423
 21
710.647159
 31
0.0
  0
LINE
  5
150
330
7B
100
AcDbEntity
  8
0
  6
Continuous
 62
     0
370
    30
100
AcDbLine
 10
242.181899
 20
710.647159
 30
0.0
 11
244.297127
 21
710.647159
 31
0.0
  0
LINE
  5
151
330
7B
100
AcDbEntity
  8
0
  6
Continuous
 62
     0
370
    30
100
AcDbLine
 10
244.297127
 20
710.647159
 30
0.0
 11
244.345362
 21
710.647159
 31
0.0
  0
LINE
  5
152
330
7B
100
AcDbEntity
  8
0
  6
Continuous
 62
     0
370
    30
100
AcDbLine
 10
212.067144
 20
710.647159
 30
0.0
 11
212.794401
 21
710.647159
 31
0.0
  0
LINE
  5
153
330
7B
100
AcDbEntity
  8
0
  6
Continuous
 62
     0
370
    30
100
AcDbLine
 10
230.474898
 20
710.647159
 30
0.0
 11
231.058497
 21
710.647159
 31
0.0
  0
LINE
  5
154
330
7B
100
AcDbEntity
  8
0
  6
Continuous
 62
     0
370
    30
100
AcDbLine
 10
231.058497
 20
710.647159
 30
0.0
 11
233.087315
 21
710.647159
 31
0.0
  0
LINE
  5
155
330
7B
100
AcDbEntity
  8
0
  6
Continuous
 62
     0
370
    30
100
AcDbLine
 10
233.087315
 20
710.647159
 30
0.0
 11
233.647066
 21
710.647159
 31
0.0
  0
LINE
  5
156
330
7B
100
AcDbEntity
  8
0
  6
Continuous
 62
     0
370
    30
100
AcDbLine
 10
280.564949
 20
710.647159
 30
0.0
 11
280.933159
 21
710.647159
 31
0.0
  0
LINE
  5
157
330
7B
100
AcDbEntity
  8
0
  6
Continuous
 62
     0
370
    30
100
AcDbLine
 10
280.52763
 20
710.647159
 30
0.0
 11
280.564949
 21
710.647159
 31
0.0
  0
LINE
  5
158
330
7B
100
AcDbEntity
  8
0
  6
Continuous
 62
     0
370
    30
100
AcDbLine
 10
292.69144
 20
710.647159
 30
0.0
 11
293.969089
 21
710.647159
 31
0.0
  0
LWPOLYLINE
  5
159
330
7B
100
AcDbEntity
  8
0
  6
Continuous
 62
     0
370
    30
100
AcDbPolyline
 90
        3
 70
     0
 43
0.0
 10
292.552063
 20
710.647156
 10
292.58847
 20
710.647156
 10
292.691437
 20
710.647156
  0
LWPOLYLINE
  5
15A
330
7B
100
AcDbEntity
  8
0
  6
Continuous
 62
     0
370
    30
100
AcDbPolyline
 90
        9
 70
     0
 43
0.0
 10
275.244141
 20
710.647156
 10
275.273193
 20
710.647156
 10
275.364655
 20
710.647156
 10
275.520416
 20
710.647156
 10
275.73526
 20
710.647156
 10
275.997101
 20
710.647156
 10
276.289246
 20
710.647156
 10
276.593628
 20
710.647156
 10
276.928558
 20
710.647156
  0
LINE
  5
15B
330
7B
100
AcDbEntity
  8
0
  6
Continuous
 62
     0
370
    30
100
AcDbLine
 10
258.202038
 20
710.647159
 30
0.0
 11
258.813646
 21
710.647159
 31
0.0
  0
LINE
  5
15C
330
7B
100
AcDbEntity
  8
0
  6
Continuous
 62
     0
370
    30
100
AcDbLine
 10
258.813646
 20
710.647159
 30
0.0
 11
259.181856
 21
710.647159
 31
0.0
  0
LINE
  5
15D
330
7B
100
AcDbEntity
  8
0
  6
Continuous
 62
     0
370
    30
100
AcDbLine
 10
253.35858
 20
710.647159
 30
0.0
 11
254.602038
 21
710.647159
 31
0.0
  0
LINE
  5
15E
330
7B
100
AcDbEntity
  8
0
  6
Continuous
 62
     0
370
    30
100
AcDbLine
 10
281.335815
 20
710.647159
 30
0.0
 11
282.657446
 21
710.647159
 31
0.0
  0
LINE
  5
15F
330
7B
100
AcDbEntity
  8
0
  6
Continuous
 62
     0
370
    30
100
AcDbLine
 10
274.215924
 20
710.647159
 30
0.0
 11
275.244137
 21
710.647159
 31
0.0
  0
LINE
  5
160
330
7B
100
AcDbEntity
  8
0
  6
Continuous
 62
     0
370
    30
100
AcDbLine
 10
259.181856
 20
710.647159
 30
0.0
 11
260.389078
 21
710.647159
 31
0.0
  0
LINE
  5
161
330
7B
100
AcDbEntity
  8
0
  6
Continuous
 62
     0
370
    30
100
AcDbLine
 10
242.827662
 20
713.255048
 30
0.0
 11
468.257507
 21
713.255048
 31
0.0
  0
LINE
  5
162
330
7B
100
AcDbEntity
  8
0
  6
Continuous
 62
     0
370
    30
100
AcDbLine
 10
68.257507
 20
713.255048
 30
0.0
 11
242.827662
 21
713.255048
 31
0.0
  0
LINE
  5
163
330
7B
100
AcDbEntity
  8
0
  6
Continuous
 62
     0
370
    30
100
AcDbLine
 10
242.827662
 20
721.255048
 30
0.0
 11
68.257507
 21
721.255048
 31
0.0
  0
LWPOLYLINE
  5
164
330
7B
100
AcDbEntity
  8
0
  6
Continuous
 62
     0
370
    30
100
AcDbPolyline
 90
       87
 70
     0
 43
0.0
 10
468.257507
 20
721.255066
 10
468.222504
 20
721.255066
 10
468.118408
 20
721.255066
 10
467.946625
 20
721.255066
 10
467.708649
 20
721.255066
 10
467.405975
 20
721.255066
 10
467.0401
 20
721.255066
 10
466.61261
 20
721.255066
 10
466.12085
 20
721.255066
 10
465.560974
 20
721.255066
 10
464.931824
 20
721.255066
 10
464.232239
 20
721.255066
 10
463.461212
 20
721.255066
 10
462.617676
 20
721.255066
 10
461.700714
 20
721.255066
 10
460.709381
 20
721.255066
 10
459.642914
 20
721.255066
 10
458.500519
 20
721.255066
 10
457.281494
 20
721.255066
 10
455.98526
 20
721.255066
 10
454.611237
 20
721.255066
 10
453.159058
 20
721.255066
 10
451.628326
 20
721.255066
 10
450.018738
 20
721.255066
 10
448.3302
 20
721.255066
 10
446.562561
 20
721.255066
 10
444.715851
 20
721.255066
 10
442.790222
 20
721.255066
 10
440.785858
 20
721.255066
 10
438.703094
 20
721.255066
 10
436.542389
 20
721.255066
 10
434.30426
 20
721.255066
 10
431.989349
 20
721.255066
 10
429.598389
 20
721.255066
 10
427.132294
 20
721.255066
 10
424.59198
 20
721.255066
 10
421.978546
 20
721.255066
 10
419.293182
 20
721.255066
 10
416.53714
 20
721.255066
 10
413.711853
 20
721.255066
 10
410.818787
 20
721.255066
 10
407.859528
 20
721.255066
 10
404.835754
 20
721.255066
 10
401.749298
 20
721.255066
 10
398.601959
 20
721.255066
 10
395.395721
 20
721.255066
 10
392.132599
 20
721.255066
 10
388.814758
 20
721.255066
 10
385.444336
 20
721.255066
 10
382.02359
 20
721.255066
 10
378.554871
 20
721.255066
 10
375.040527
 20
721.255066
 10
371.483002
 20
721.255066
 10
367.884735
 20
721.255066
 10
364.248291
 20
721.255066
 10
360.576202
 20
721.255066
 10
356.871063
 20
721.255066
 10
353.135437
 20
721.255066
 10
349.372009
 20
721.255066
 10
345.583374
 20
721.255066
 10
341.772186
 20
721.255066
 10
337.941101
 20
721.255066
 10
334.092712
 20
721.255066
 10
330.229706
 20
721.255066
 10
326.354675
 20
721.255066
 10
322.470184
 20
721.255066
 10
318.578827
 20
721.255066
 10
314.683136
 20
721.255066
 10
310.785583
 20
721.255066
 10
306.888641
 20
721.255066
 10
302.99472
 20
721.255066
 10
299.106201
 20
721.255066
 10
295.225372
 20
721.255066
 10
291.354492
 20
721.255066
 10
287.495789
 20
721.255066
 10
283.651367
 20
721.255066
 10
279.823273
 20
721.255066
 10
276.01355
 20
721.255066
 10
272.224152
 20
721.255066
 10
268.456909
 20
721.255066
 10
264.713593
 20
721.255066
 10
260.996002
 20
721.255066
 10
257.305695
 20
721.255066
 10
253.644302
 20
721.255066
 10
250.01329
 20
721.255066
 10
246.414093
 20
721.255066
 10
242.827667
 20
721.255066
  0
LWPOLYLINE
  5
165
330
7B
100
AcDbEntity
  8
0
  6
Continuous
 62
     0
370
    30
100
AcDbPolyline
 90
       87
 70
     0
 43
0.0
 10
466.757507
 20
721.347168
 10
466.722748
 20
721.347168
 10
466.619446
 20
721.347168
 10
466.448975
 20
721.347168
 10
466.212769
 20
721.347168
 10
465.912354
 20
721.347168
 10
465.549225
 20
721.347168
 10
465.124939
 20
721.347168
 10
464.636902
 20
721.347168
 10
464.081238
 20
721.347168
 10
463.456848
 20
721.347168
 10
462.762543
 20
721.347168
 10
461.997314
 20
721.347168
 10
461.160156
 20
721.347168
 10
460.250122
 20
721.347168
 10
459.266296
 20
721.347168
 10
458.207855
 20
721.347168
 10
457.074097
 20
721.347168
 10
455.864258
 20
721.347168
 10
454.57782
 20
721.347168
 10
453.214203
 20
721.347168
 10
451.77298
 20
721.347168
 10
450.253784
 20
721.347168
 10
448.656403
 20
721.347168
 10
446.980591
 20
721.347168
 10
445.226288
 20
721.347168
 10
443.393524
 20
721.347168
 10
441.482422
 20
721.347168
 10
439.493225
 20
721.347168
 10
437.426178
 20
721.347168
 10
435.281799
 20
721.347168
 10
433.060547
 20
721.347168
 10
430.763123
 20
721.347168
 10
428.390228
 20
721.347168
 10
425.942719
 20
721.347168
 10
423.42157
 20
721.347168
 10
420.827881
 20
721.347168
 10
418.16275
 20
721.347168
 10
415.427521
 20
721.347168
 10
412.623535
 20
721.347168
 10
409.752289
 20
721.347168
 10
406.815338
 20
721.347168
 10
403.814362
 20
721.347168
 10
400.75116
 20
721.347168
 10
397.627533
 20
721.347168
 10
394.445465
 20
721.347168
 10
391.20694
 20
721.347168
 10
387.914093
 20
721.347168
 10
384.569061
 20
721.347168
 10
381.174072
 20
721.347168
 10
377.731476
 20
721.347168
 10
374.243591
 20
721.347168
 10
370.71286
 20
721.347168
 10
367.141693
 20
721.347168
 10
363.532623
 20
721.347168
 10
359.888153
 20
721.347168
 10
356.210876
 20
721.347168
 10
352.503357
 20
721.347168
 10
348.768219
 20
721.347168
 10
345.008087
 20
721.347168
 10
341.225555
 20
721.347168
 10
337.423248
 20
721.347168
 10
333.603821
 20
721.347168
 10
329.769836
 20
721.347168
 10
325.923889
 20
721.347168
 10
322.068604
 20
721.347168
 10
318.206451
 20
721.347168
 10
314.340027
 20
721.347168
 10
310.471741
 20
721.347168
 10
306.604034
 20
721.347168
 10
302.739349
 20
721.347168
 10
298.880005
 20
721.347168
 10
295.02829
 20
721.347168
 10
291.186462
 20
721.347168
 10
287.356689
 20
721.347168
 10
283.541077
 20
721.347168
 10
279.74173
 20
721.347168
 10
275.960571
 20
721.347168
 10
272.199554
 20
721.347168
 10
268.460541
 20
721.347168
 10
264.7453
 20
721.347168
 10
261.055542
 20
721.347168
 10
257.392883
 20
721.347168
 10
253.758896
 20
721.347168
 10
250.15509
 20
721.347168
 10
246.58284
 20
721.347168
 10
243.009827
 20
721.347168
  0
LINE
  5
166
330
7B
100
AcDbEntity
  8
0
  6
Continuous
 62
     0
370
    30
100
AcDbLine
 10
243.009821
 20
721.347159
 30
0.0
 11
69.757507
 21
721.347159
 31
0.0
  0
LINE
  5
167
330
7B
100
AcDbEntity
  8
0
  6
Continuous
 62
     0
370
    30
100
AcDbLine
 10
282.192399
 20
725.255051
 30
0.0
 11
283.507507
 21
725.255051
 31
0.0
  0
LWPOLYLINE
  5
168
330
7B
100
AcDbEntity
  8
0
  6
Continuous
 62
     0
370
    30
100
AcDbPolyline
 90
       41
 70
     0
 43
0.0
 10
253.007507
 20
725.255066
 10
253.044235
 20
725.255066
 10
253.155762
 20
725.255066
 10
253.343353
 20
725.255066
 10
253.607147
 20
725.255066
 10
253.946121
 20
725.255066
 10
254.358093
 20
725.255066
 10
254.839752
 20
725.255066
 10
255.386765
 20
725.255066
 10
255.993912
 20
725.255066
 10
256.655212
 20
725.255066
 10
257.364136
 20
725.255066
 10
258.113678
 20
725.255066
 10
258.89679
 20
725.255066
 10
259.706268
 20
725.255066
 10
260.535156
 20
725.255066
 10
261.376678
 20
725.255066
 10
262.225372
 20
725.255066
 10
263.104279
 20
725.255066
 10
264.024384
 20
725.255066
 10
264.982056
 20
725.255066
 10
265.97287
 20
725.255066
 10
266.991516
 20
725.255066
 10
268.031952
 20
725.255066
 10
269.087341
 20
725.255066
 10
270.15033
 20
725.255066
 10
271.213043
 20
725.255066
 10
272.267365
 20
725.255066
 10
273.305176
 20
725.255066
 10
274.31839
 20
725.255066
 10
275.299347
 20
725.255066
 10
276.240814
 20
725.255066
 10
277.136383
 20
725.255066
 10
277.980438
 20
725.255066
 10
278.768311
 20
725.255066
 10
279.496368
 20
725.255066
 10
280.161987
 20
725.255066
 10
280.763672
 20
725.255066
 10
281.300781
 20
725.255066
 10
281.773712
 20
725.255066
 10
282.192413
 20
725.255066
  0
LINE
  5
169
330
7B
100
AcDbEntity
  8
0
  6
Continuous
 62
     0
370
    30
100
AcDbLine
 10
282.192399
 20
727.255051
 30
0.0
 11
253.007507
 21
727.255051
 31
0.0
  0
LINE
  5
16A
330
7B
100
AcDbEntity
  8
0
  6
Continuous
 62
     0
370
    30
100
AcDbLine
 10
283.507507
 20
727.255051
 30
0.0
 11
282.192399
 21
727.255051
 31
0.0
  0
LWPOLYLINE
  5
16B
330
7B
100
AcDbEntity
  8
0
  6
Continuous
 62
     0
370
    30
100
AcDbPolyline
 90
        9
 70
     0
 43
0.0
 10
284.751678
 20
728.505066
 10
284.448547
 20
728.234497
 10
284.141449
 20
727.991577
 10
283.830536
 20
727.77887
 10
283.516174
 20
727.599243
 10
283.19873
 20
727.455017
 10
282.87915
 20
727.348694
 10
282.557617
 20
727.281616
 10
282.192413
 20
727.255066
  0
LINE
  5
16C
330
7B
100
AcDbEntity
  8
0
  6
Continuous
 62
     0
370
    30
100
AcDbLine
 10
284.751673
 20
734.005051
 30
0.0
 11
284.751673
 21
728.505045
 31
0.0
  0
LWPOLYLINE
  5
16D
330
7B
100
AcDbEntity
  8
0
  6
Continuous
 62
     0
370
    30
100
AcDbPolyline
 90
        9
 70
     0
 43
0.0
 10
282.192413
 20
727.255066
 10
281.869385
 20
727.275391
 10
281.548187
 20
727.337708
 10
281.227814
 20
727.438721
 10
280.91037
 20
727.578186
 10
280.595673
 20
727.753357
 10
280.284393
 20
727.961914
 10
279.976624
 20
728.20105
 10
279.633118
 20
728.505066
  0
LINE
  5
16E
330
7B
100
AcDbEntity
  8
0
  6
Continuous
 62
     0
370
    30
100
AcDbLine
 10
279.633129
 20
728.505044
 30
0.0
 11
251.757897
 21
728.505044
 31
0.0
  0
LINE
  5
16F
330
7B
100
AcDbEntity
  8
0
  6
Continuous
 62
     0
370
    30
100
AcDbLine
 10
279.633124
 20
728.505044
 30
0.0
 11
279.633124
 21
734.005051
 31
0.0
  0
LINE
  5
170
330
7B
100
AcDbEntity
  8
0
  6
Continuous
 62
     0
370
    30
100
AcDbLine
 10
279.633124
 20
734.005051
 30
0.0
 11
251.757897
 21
734.005051
 31
0.0
  0
LINE
  5
171
330
7B
100
AcDbEntity
  8
0
  6
Continuous
 62
     0
370
     0
100
AcDbLine
 10
282.192399
 20
727.255051
 30
0.0
 11
282.192399
 21
735.255051
 31
0.0
  0
LWPOLYLINE
  5
172
330
7B
100
AcDbEntity
  8
0
  6
Continuous
 62
     0
370
    30
100
AcDbPolyline
 90
        7
 70
     0
 43
0.0
 10
282.192413
 20
735.255066
 10
281.762268
 20
735.218323
 10
281.333374
 20
735.109131
 10
280.906891
 20
734.930237
 10
280.483765
 20
734.685608
 10
280.064636
 20
734.380615
 10
279.633118
 20
734.005066
  0
LWPOLYLINE
  5
173
330
7B
100
AcDbEntity
  8
0
  6
Continuous
 62
     0
370
    30
100
AcDbPolyline
 90
        7
 70
     0
 43
0.0
 10
284.751678
 20
734.005066
 10
284.337219
 20
734.366943
 10
283.918274
 20
734.674255
 10
283.4953
 20
734.921448
 10
283.068939
 20
735.103149
 10
282.640137
 20
735.215271
 10
282.192413
 20
735.255066
  0
LINE
  5
174
330
7B
100
AcDbEntity
  8
0
  6
Continuous
 62
     0
370
    30
100
AcDbLine
 10
282.192399
 20
745.955051
 30
0.0
 11
253.007507
 21
745.955051
 31
0.0
  0
LINE
  5
175
330
7B
100
AcDbEntity
  8
0
  6
Continuous
 62
     0
370
    30
100
AcDbLine
 10
283.507507
 20
745.955051
 30
0.0
 11
282.192399
 21
745.955051
 31
0.0
  0
LINE
  5
176
330
7B
100
AcDbEntity
  8
0
  6
Continuous
 62
     0
370
    30
100
AcDbLine
 10
282.192399
 20
735.255051
 30
0.0
 11
283.507507
 21
735.255051
 31
0.0
  0
LWPOLYLINE
  5
177
330
7B
100
AcDbEntity
  8
0
  6
Continuous
 62
     0
370
    30
100
AcDbPolyline
 90
       41
 70
     0
 43
0.0
 10
253.007507
 20
735.255066
 10
253.044235
 20
735.255066
 10
253.155762
 20
735.255066
 10
253.343353
 20
735.255066
 10
253.607147
 20
735.255066
 10
253.946121
 20
735.255066
 10
254.358093
 20
735.255066
 10
254.839752
 20
735.255066
 10
255.386765
 20
735.255066
 10
255.993912
 20
735.255066
 10
256.655212
 20
735.255066
 10
257.364136
 20
735.255066
 10
258.113678
 20
735.255066
 10
258.89679
 20
735.255066
 10
259.706268
 20
735.255066
 10
260.535156
 20
735.255066
 10
261.376678
 20
735.255066
 10
262.225372
 20
735.255066
 10
263.104279
 20
735.255066
 10
264.024384
 20
735.255066
 10
264.982056
 20
735.255066
 10
265.97287
 20
735.255066
 10
266.991516
 20
735.255066
 10
268.031952
 20
735.255066
 10
269.087341
 20
735.255066
 10
270.15033
 20
735.255066
 10
271.213043
 20
735.255066
 10
272.267365
 20
735.255066
 10
273.305176
 20
735.255066
 10
274.31839
 20
735.255066
 10
275.299347
 20
735.255066
 10
276.240814
 20
735.255066
 10
277.136383
 20
735.255066
 10
277.980438
 20
735.255066
 10
278.768311
 20
735.255066
 10
279.496368
 20
735.255066
 10
280.161987
 20
735.255066
 10
280.763672
 20
735.255066
 10
281.300781
 20
735.255066
 10
281.773712
 20
735.255066
 10
282.192413
 20
735.255066
  0
LINE
  5
178
330
7B
100
AcDbEntity
  8
0
  6
Continuous
 62
     0
370
    30
100
AcDbLine
 10
279.757996
 20
768.112625
 30
0.0
 11
268.456116
 21
768.112625
 31
0.0
  0
LINE
  5
179
330
7B
100
AcDbEntity
  8
0
  6
Continuous
 62
     0
370
    30
100
AcDbLine
 10
268.456116
 20
768.112625
 30
0.0
 11
256.757996
 21
768.112625
 31
0.0
  0
LWPOLYLINE
  5
17A
330
7B
100
AcDbEntity
  8
0
  6
Continuous
 62
     0
370
    30
100
AcDbPolyline
 90
       17
 70
     0
 43
0.0
 10
256.757996
 20
753.11261
 10
256.788147
 20
753.11261
 10
256.881683
 20
753.11261
 10
257.042999
 20
753.11261
 10
257.275574
 20
753.11261
 10
257.581848
 20
753.11261
 10
257.962921
 20
753.11261
 10
258.418396
 20
753.11261
 10
258.946259
 20
753.11261
 10
259.542938
 20
753.11261
 10
260.203247
 20
753.11261
 10
260.920654
 20
753.11261
 10
261.687286
 20
753.11261
 10
262.494446
 20
753.11261
 10
263.332794
 20
753.11261
 10
264.192719
 20
753.11261
 10
265.093903
 20
753.11261
  0
LINE
  5
17B
330
7B
100
AcDbEntity
  8
0
  6
Continuous
 62
     0
370
    30
100
AcDbLine
 10
265.093898
 20
753.112625
 30
0.0
 11
265.093898
 21
758.112625
 31
0.0
  0
LINE
  5
17C
330
7B
100
AcDbEntity
  8
0
  6
Continuous
 62
     0
370
    30
100
AcDbLine
 10
265.093898
 20
758.112625
 30
0.0
 11
271.801106
 21
758.112625
 31
0.0
  0
LINE
  5
17D
330
7B
100
AcDbEntity
  8
0
  6
Continuous
 62
     0
370
    30
100
AcDbLine
 10
271.801106
 20
758.112625
 30
0.0
 11
271.801106
 21
753.112625
 31
0.0
  0
LINE
  5
17E
330
7B
100
AcDbEntity
  8
0
  6
Continuous
 62
     0
370
    30
100
AcDbLine
 10
271.801106
 20
753.112625
 30
0.0
 11
279.757996
 21
753.112625
 31
0.0
  0
LINE
  5
17F
330
7B
100
AcDbEntity
  8
0
  6
Continuous
 62
     0
370
    30
100
AcDbLine
 10
271.801106
 20
753.112625
 30
0.0
 11
265.093898
 21
753.112625
 31
0.0
  0
LWPOLYLINE
  5
180
330
7B
100
AcDbEntity
  8
0
  6
Continuous
 62
     0
370
    30
100
AcDbPolyline
 90
       19
 70
     0
 43
0.0
 10
259.257996
 20
749.11261
 10
259.286865
 20
749.11261
 10
259.376709
 20
749.11261
 10
259.532043
 20
749.11261
 10
259.756256
 20
749.11261
 10
260.051422
 20
749.11261
 10
260.417969
 20
749.11261
 10
260.854492
 20
749.11261
 10
261.357788
 20
749.11261
 10
261.922729
 20
749.11261
 10
262.542542
 20
749.11261
 10
263.208984
 20
749.11261
 10
263.912811
 20
749.11261
 10
264.644073
 20
749.11261
 10
265.392639
 20
749.11261
 10
266.148621
 20
749.11261
 10
266.902588
 20
749.11261
 10
267.646149
 20
749.11261
 10
268.413055
 20
749.11261
  0
LINE
  5
181
330
7B
100
AcDbEntity
  8
0
  6
Continuous
 62
     0
370
    30
100
AcDbLine
 10
268.413046
 20
749.112625
 30
0.0
 11
277.257996
 21
749.112625
 31
0.0
  0
ARC
  5
182
330
7B
100
AcDbEntity
  8
0
  6
Continuous
 62
     0
370
    30
100
AcDbCircle
 10
268.257462
 20
740.712264
 30
0.0
 40
12.31160729089702
100
AcDbArc
 50
25.20387
 51
43.024601
  0
ARC
  5
183
330
7B
100
AcDbEntity
  8
0
  6
Continuous
 62
     0
370
    30
100
AcDbCircle
 10
268.258529
 20
740.712264
 30
0.0
 40
12.31160733973027
100
AcDbArc
 50
136.975399
 51
154.796129
  0
LINE
  5
184
330
7B
100
AcDbEntity
  8
0
  6
Continuous
 62
     0
370
    30
100
AcDbLine
 10
259.257996
 20
753.112625
 30
0.0
 11
259.257996
 21
749.112625
 31
0.0
  0
LINE
  5
185
330
7B
100
AcDbEntity
  8
0
  6
Continuous
 62
     0
370
    30
100
AcDbLine
 10
277.257996
 20
749.112625
 30
0.0
 11
277.257996
 21
753.112625
 31
0.0
  0
LINE
  5
186
330
7B
100
AcDbEntity
  8
0
  6
Continuous
 62
     0
370
    30
100
AcDbLine
 10
279.757996
 20
768.112625
 30
0.0
 11
279.757996
 21
753.112625
 31
0.0
  0
LINE
  5
187
330
7B
100
AcDbEntity
  8
0
  6
Continuous
 62
     0
370
    30
100
AcDbLine
 10
256.757996
 20
768.112625
 30
0.0
 11
256.757996
 21
753.112625
 31
0.0
  0
LINE
  5
188
330
7B
100
AcDbEntity
  8
0
  6
Continuous
 62
     0
370
    30
100
AcDbLine
 10
251.757897
 20
734.005056
 30
0.0
 11
253.0075
 21
735.254689
 31
0.0
  0
LINE
  5
189
330
7B
100
AcDbEntity
  8
0
  6
Continuous
 62
     0
370
    30
100
AcDbLine
 10
283.507516
 20
735.254689
 30
0.0
 11
284.757119
 21
734.005057
 31
0.0
  0
LINE
  5
18A
330
7B
100
AcDbEntity
  8
0
  6
Continuous
 62
     0
370
    30
100
AcDbLine
 10
253.007507
 20
745.955051
 30
0.0
 11
253.007507
 21
735.255051
 31
0.0
  0
LINE
  5
18B
330
7B
100
AcDbEntity
  8
0
  6
Continuous
 62
     0
370
    30
100
AcDbLine
 10
283.507507
 20
745.955051
 30
0.0
 11
283.507507
 21
735.255051
 31
0.0
  0
LINE
  5
18C
330
7B
100
AcDbEntity
  8
0
  6
Continuous
 62
     0
370
    30
100
AcDbLine
 10
251.757507
 20
734.005051
 30
0.0
 11
251.757507
 21
728.505044
 31
0.0
  0
LINE
  5
18D
330
7B
100
AcDbEntity
  8
0
  6
Continuous
 62
     0
370
    30
100
AcDbLine
 10
251.757897
 20
728.505044
 30
0.0
 11
253.0075
 21
727.255413
 31
0.0
  0
LINE
  5
18E
330
7B
100
AcDbEntity
  8
0
  6
Continuous
 62
     0
370
    30
100
AcDbLine
 10
284.757507
 20
728.505045
 30
0.0
 11
284.757507
 21
734.005051
 31
0.0
  0
LINE
  5
18F
330
7B
100
AcDbEntity
  8
0
  6
Continuous
 62
     0
370
    30
100
AcDbLine
 10
284.757119
 20
728.505045
 30
0.0
 11
283.507516
 21
727.255413
 31
0.0
  0
LINE
  5
190
330
7B
100
AcDbEntity
  8
0
  6
Continuous
 62
     0
370
    30
100
AcDbLine
 10
283.507507
 20
725.255051
 30
0.0
 11
283.507507
 21
727.255051
 31
0.0
  0
LINE
  5
191
330
7B
100
AcDbEntity
  8
0
  6
Continuous
 62
     0
370
    30
100
AcDbLine
 10
253.007507
 20
725.255051
 30
0.0
 11
253.007507
 21
727.255051
 31
0.0
  0
LINE
  5
192
330
7B
100
AcDbEntity
  8
0
  6
Continuous
 62
     0
370
    30
100
AcDbLine
 10
283.257507
 20
725.255051
 30
0.0
 11
283.257507
 21
721.347159
 31
0.0
  0
LINE
  5
193
330
7B
100
AcDbEntity
  8
0
  6
Continuous
 62
     0
370
    30
100
AcDbLine
 10
253.257507
 20
721.347159
 30
0.0
 11
253.257507
 21
725.255051
 31
0.0
  0
LINE
  5
194
330
7B
100
AcDbEntity
  8
0
  6
Continuous
 62
     0
370
    30
100
AcDbLine
 10
466.757507
 20
721.347159
 30
0.0
 11
466.757507
 21
721.255048
 31
0.0
  0
LINE
  5
195
330
7B
100
AcDbEntity
  8
0
  6
Continuous
 62
     0
370
    30
100
AcDbLine
 10
69.757507
 20
721.347159
 30
0.0
 11
69.757507
 21
721.255048
 31
0.0
  0
LINE
  5
196
330
7B
100
AcDbEntity
  8
0
  6
Continuous
 62
     0
370
    30
100
AcDbLine
 10
468.257507
 20
713.255048
 30
0.0
 11
468.257507
 21
721.255048
 31
0.0
  0
LINE
  5
197
330
7B
100
AcDbEntity
  8
0
  6
Continuous
 62
     0
370
    30
100
AcDbLine
 10
68.257507
 20
713.255047
 30
0.0
 11
68.257507
 21
721.255048
 31
0.0
  0
LINE
  5
198
330
7B
100
AcDbEntity
  8
0
  6
Continuous
 62
     0
370
    30
100
AcDbLine
 10
281.335815
 20
710.647159
 30
0.0
 11
281.335815
 21
713.255048
 31
0.0
  0
LINE
  5
199
330
7B
100
AcDbEntity
  8
0
  6
Continuous
 62
     0
370
    30
100
AcDbLine
 10
259.181856
 20
710.647159
 30
0.0
 11
259.181856
 21
713.255048
 31
0.0
  0
LINE
  5
19A
330
7B
100
AcDbEntity
  8
0
  6
Continuous
 62
     0
370
    30
100
AcDbLine
 10
275.244137
 20
710.647159
 30
0.0
 11
275.244137
 21
713.255048
 31
0.0
  0
LINE
  5
19B
330
7B
100
AcDbEntity
  8
0
  6
Continuous
 62
     0
370
    30
100
AcDbLine
 10
292.552048
 20
710.647159
 30
0.0
 11
292.552048
 21
713.255048
 31
0.0
  0
LINE
  5
19C
330
7B
100
AcDbEntity
  8
0
  6
Continuous
 62
     0
370
    30
100
AcDbLine
 10
280.933159
 20
710.647159
 30
0.0
 11
280.933159
 21
713.255048
 31
0.0
  0
LINE
  5
19D
330
7B
100
AcDbEntity
  8
0
  6
Continuous
 62
     0
370
    30
100
AcDbLine
 10
233.647066
 20
710.647159
 30
0.0
 11
233.647066
 21
713.255048
 31
0.0
  0
LINE
  5
19E
330
7B
100
AcDbEntity
  8
0
  6
Continuous
 62
     0
370
    30
100
AcDbLine
 10
233.087315
 20
710.647159
 30
0.0
 11
233.087315
 21
713.255048
 31
0.0
  0
LINE
  5
19F
330
7B
100
AcDbEntity
  8
0
  6
Continuous
 62
     0
370
    30
100
AcDbLine
 10
265.166423
 20
710.647159
 30
0.0
 11
265.166423
 21
713.255048
 31
0.0
  0
LINE
  5
1A0
330
7B
100
AcDbEntity
  8
0
  6
Continuous
 62
     0
370
    30
100
AcDbLine
 10
282.657446
 20
710.647159
 30
0.0
 11
282.657446
 21
713.255048
 31
0.0
  0
LINE
  5
1A1
330
7B
100
AcDbEntity
  8
0
  6
Continuous
 62
     0
370
    30
100
AcDbLine
 10
301.794518
 20
710.647159
 30
0.0
 11
301.794518
 21
713.255048
 31
0.0
  0
LINE
  5
1A2
330
7B
100
AcDbEntity
  8
0
  6
Continuous
 62
     0
370
    30
100
AcDbLine
 10
316.669424
 20
710.647159
 30
0.0
 11
316.669424
 21
713.255048
 31
0.0
  0
LINE
  5
1A3
330
7B
100
AcDbEntity
  8
0
  6
Continuous
 62
     0
370
    30
100
AcDbLine
 10
309.288093
 20
710.647159
 30
0.0
 11
309.288093
 21
713.255048
 31
0.0
  0
LINE
  5
1A4
330
7B
100
AcDbEntity
  8
0
  6
Continuous
 62
     0
370
    30
100
AcDbLine
 10
291.849678
 20
710.647159
 30
0.0
 11
291.849678
 21
713.255048
 31
0.0
  0
LINE
  5
1A5
330
7B
100
AcDbEntity
  8
0
  6
Continuous
 62
     0
370
    30
100
AcDbLine
 10
188.511817
 20
710.647159
 30
0.0
 11
188.511817
 21
713.255048
 31
0.0
  0
LINE
  5
1A6
330
7B
100
AcDbEntity
  8
0
  6
Continuous
 62
     0
370
    30
100
AcDbLine
 10
203.922005
 20
710.647159
 30
0.0
 11
203.922005
 21
713.255048
 31
0.0
  0
LINE
  5
1A7
330
7B
100
AcDbEntity
  8
0
  6
Continuous
 62
     0
370
    30
100
AcDbLine
 10
207.522005
 20
710.647159
 30
0.0
 11
207.522005
 21
713.255048
 31
0.0
  0
LINE
  5
1A8
330
7B
100
AcDbEntity
  8
0
  6
Continuous
 62
     0
370
    30
100
AcDbLine
 10
230.474898
 20
710.647159
 30
0.0
 11
230.474898
 21
713.255048
 31
0.0
  0
LINE
  5
1A9
330
7B
100
AcDbEntity
  8
0
  6
Continuous
 62
     0
370
    30
100
AcDbLine
 10
254.602038
 20
710.647159
 30
0.0
 11
254.602038
 21
713.255048
 31
0.0
  0
LINE
  5
1AA
330
7B
100
AcDbEntity
  8
0
  6
Continuous
 62
     0
370
    30
100
AcDbLine
 10
258.202038
 20
710.647159
 30
0.0
 11
258.202038
 21
713.255048
 31
0.0
  0
LINE
  5
1AB
330
7B
100
AcDbEntity
  8
0
  6
Continuous
 62
     0
370
    30
100
AcDbLine
 10
283.759122
 20
710.647159
 30
0.0
 11
283.759122
 21
713.255048
 31
0.0
  0
LINE
  5
1AC
330
7B
100
AcDbEntity
  8
0
  6
Continuous
 62
     0
370
    30
100
AcDbLine
 10
310.829376
 20
710.647159
 30
0.0
 11
310.829376
 21
713.255048
 31
0.0
  0
LINE
  5
1AD
330
7B
100
AcDbEntity
  8
0
  6
Continuous
 62
     0
370
    30
100
AcDbLine
 10
336.147728
 20
710.647159
 30
0.0
 11
336.147728
 21
713.255048
 31
0.0
  0
LINE
  5
1AE
330
7B
100
AcDbEntity
  8
0
  6
Continuous
 62
     0
370
    30
100
AcDbLine
 10
332.547728
 20
710.647159
 30
0.0
 11
332.547728
 21
713.255048
 31
0.0
  0
LINE
  5
1AF
330
7B
100
AcDbEntity
  8
0
  6
Continuous
 62
     0
370
    30
100
AcDbLine
 10
346.294624
 20
710.647159
 30
0.0
 11
346.294624
 21
713.255048
 31
0.0
  0
LINE
  5
1B0
330
7B
100
AcDbEntity
  8
0
  6
Continuous
 62
     0
370
    30
100
AcDbLine
 10
350.411985
 20
710.647159
 30
0.0
 11
350.411985
 21
713.255048
 31
0.0
  0
LINE
  5
1B1
330
7B
100
AcDbEntity
  8
0
  6
Continuous
 62
     0
370
    30
100
AcDbLine
 10
249.155893
 20
710.647159
 30
0.0
 11
249.155893
 21
713.255047
 31
0.0
  0
LINE
  5
1B2
330
7B
100
AcDbEntity
  8
0
  6
Continuous
 62
     0
370
    30
100
AcDbLine
 10
182.50303
 20
710.647159
 30
0.0
 11
182.50303
 21
713.255048
 31
0.0
  0
LINE
  5
1B3
330
7B
100
AcDbEntity
  8
0
  6
Continuous
 62
     0
370
    30
100
AcDbLine
 10
190.663956
 20
710.647159
 30
0.0
 11
190.663956
 21
713.255048
 31
0.0
  0
LINE
  5
1B4
330
7B
100
AcDbEntity
  8
0
  6
Continuous
 62
     0
370
    30
100
AcDbLine
 10
212.794401
 20
710.647159
 30
0.0
 11
212.794401
 21
713.255048
 31
0.0
  0
LINE
  5
1B5
330
7B
100
AcDbEntity
  8
0
  6
Continuous
 62
     0
370
    30
100
AcDbLine
 10
216.394401
 20
710.647159
 30
0.0
 11
216.394401
 21
713.255048
 31
0.0
  0
LINE
  5
1B6
330
7B
100
AcDbEntity
  8
0
  6
Continuous
 62
     0
370
    30
100
AcDbLine
 10
238.581899
 20
710.647159
 30
0.0
 11
238.581899
 21
713.255048
 31
0.0
  0
LINE
  5
1B7
330
7B
100
AcDbEntity
  8
0
  6
Continuous
 62
     0
370
    30
100
AcDbLine
 10
242.181899
 20
710.647159
 30
0.0
 11
242.181899
 21
713.255048
 31
0.0
  0
LINE
  5
1B8
330
7B
100
AcDbEntity
  8
0
  6
Continuous
 62
     0
370
    30
100
AcDbLine
 10
266.269073
 20
710.647159
 30
0.0
 11
266.269073
 21
713.255048
 31
0.0
  0
LINE
  5
1B9
330
7B
100
AcDbEntity
  8
0
  6
Continuous
 62
     0
370
    30
100
AcDbLine
 10
269.869073
 20
710.647159
 30
0.0
 11
269.869073
 21
713.255048
 31
0.0
  0
LINE
  5
1BA
330
7B
100
AcDbEntity
  8
0
  6
Continuous
 62
     0
370
    30
100
AcDbLine
 10
293.969089
 20
710.647159
 30
0.0
 11
293.969089
 21
713.255048
 31
0.0
  0
LINE
  5
1BB
330
7B
100
AcDbEntity
  8
0
  6
Continuous
 62
     0
370
    30
100
AcDbLine
 10
319.794235
 20
710.647159
 30
0.0
 11
319.794235
 21
713.255048
 31
0.0
  0
LINE
  5
1BC
330
7B
100
AcDbEntity
  8
0
  6
Continuous
 62
     0
370
    30
100
AcDbLine
 10
345.584572
 20
710.647159
 30
0.0
 11
345.584572
 21
713.255048
 31
0.0
  0
LINE
  5
1BD
330
7B
100
AcDbEntity
  8
0
  6
Continuous
 62
     0
370
    30
100
AcDbLine
 10
341.984572
 20
710.647159
 30
0.0
 11
341.984572
 21
713.255048
 31
0.0
  0
LINE
  5
1BE
330
7B
100
AcDbEntity
  8
0
  6
Continuous
 62
     0
370
    30
100
AcDbLine
 10
359.027865
 20
710.647159
 30
0.0
 11
359.027865
 21
713.255048
 31
0.0
  0
LINE
  5
1BF
330
7B
100
AcDbEntity
  8
0
  6
Continuous
 62
     0
370
    30
100
AcDbLine
 10
373.36264
 20
710.647159
 30
0.0
 11
373.36264
 21
713.255048
 31
0.0
  0
LINE
  5
1C0
330
7B
100
AcDbEntity
  8
0
  6
Continuous
 62
     0
370
    30
100
AcDbLine
 10
377.057341
 20
710.647159
 30
0.0
 11
377.057341
 21
713.255048
 31
0.0
  0
LINE
  5
1C1
330
7B
100
AcDbEntity
  8
0
  6
Continuous
 62
     0
370
    30
100
AcDbLine
 10
373.457341
 20
710.647159
 30
0.0
 11
373.457341
 21
713.255048
 31
0.0
  0
LINE
  5
1C2
330
7B
100
AcDbEntity
  8
0
  6
Continuous
 62
     0
370
    30
100
AcDbLine
 10
270.245942
 20
710.647159
 30
0.0
 11
270.245942
 21
713.255047
 31
0.0
  0
LINE
  5
1C3
330
7B
100
AcDbEntity
  8
0
  6
Continuous
 62
     0
370
    30
100
AcDbLine
 10
159.457673
 20
710.647159
 30
0.0
 11
159.457673
 21
713.255048
 31
0.0
  0
LINE
  5
1C4
330
7B
100
AcDbEntity
  8
0
  6
Continuous
 62
     0
370
    30
100
AcDbLine
 10
138.684174
 20
710.647159
 30
0.0
 11
138.684174
 21
713.255048
 31
0.0
  0
LINE
  5
1C5
330
7B
100
AcDbEntity
  8
0
  6
Continuous
 62
     0
370
    30
100
AcDbLine
 10
142.284174
 20
710.647159
 30
0.0
 11
142.284174
 21
713.255048
 31
0.0
  0
LINE
  5
1C6
330
7B
100
AcDbEntity
  8
0
  6
Continuous
 62
     0
370
    30
100
AcDbLine
 10
159.475267
 20
710.647159
 30
0.0
 11
159.475267
 21
713.255048
 31
0.0
  0
LINE
  5
1C7
330
7B
100
AcDbEntity
  8
0
  6
Continuous
 62
     0
370
    30
100
AcDbLine
 10
163.075267
 20
710.647159
 30
0.0
 11
163.075267
 21
713.255048
 31
0.0
  0
LINE
  5
1C8
330
7B
100
AcDbEntity
  8
0
  6
Continuous
 62
     0
370
    30
100
AcDbLine
 10
177.16874
 20
710.647159
 30
0.0
 11
177.16874
 21
713.255048
 31
0.0
  0
LINE
  5
1C9
330
7B
100
AcDbEntity
  8
0
  6
Continuous
 62
     0
370
    30
100
AcDbLine
 10
180.76874
 20
710.647159
 30
0.0
 11
180.76874
 21
713.255048
 31
0.0
  0
LINE
  5
1CA
330
7B
100
AcDbEntity
  8
0
  6
Continuous
 62
     0
370
    30
100
AcDbLine
 10
198.764561
 20
710.647159
 30
0.0
 11
198.764561
 21
713.255048
 31
0.0
  0
LINE
  5
1CB
330
7B
100
AcDbEntity
  8
0
  6
Continuous
 62
     0
370
    30
100
AcDbLine
 10
202.364561
 20
710.647159
 30
0.0
 11
202.364561
 21
713.255048
 31
0.0
  0
LINE
  5
1CC
330
7B
100
AcDbEntity
  8
0
  6
Continuous
 62
     0
370
    30
100
AcDbLine
 10
223.318888
 20
710.647159
 30
0.0
 11
223.318888
 21
713.255048
 31
0.0
  0
LINE
  5
1CD
330
7B
100
AcDbEntity
  8
0
  6
Continuous
 62
     0
370
    30
100
AcDbLine
 10
226.918888
 20
710.647159
 30
0.0
 11
226.918888
 21
713.255048
 31
0.0
  0
LINE
  5
1CE
330
7B
100
AcDbEntity
  8
0
  6
Continuous
 62
     0
370
    30
100
AcDbLine
 10
249.75858
 20
710.647159
 30
0.0
 11
249.75858
 21
713.255048
 31
0.0
  0
LINE
  5
1CF
330
7B
100
AcDbEntity
  8
0
  6
Continuous
 62
     0
370
    30
100
AcDbLine
 10
253.35858
 20
710.647159
 30
0.0
 11
253.35858
 21
713.255048
 31
0.0
  0
LINE
  5
1D0
330
7B
100
AcDbEntity
  8
0
  6
Continuous
 62
     0
370
    30
100
AcDbLine
 10
276.928095
 20
710.647159
 30
0.0
 11
276.928095
 21
713.255048
 31
0.0
  0
LINE
  5
1D1
330
7B
100
AcDbEntity
  8
0
  6
Continuous
 62
     0
370
    30
100
AcDbLine
 10
280.528095
 20
710.647159
 30
0.0
 11
280.528095
 21
713.255048
 31
0.0
  0
LINE
  5
1D2
330
7B
100
AcDbEntity
  8
0
  6
Continuous
 62
     0
370
    30
100
AcDbLine
 10
307.239996
 20
710.647159
 30
0.0
 11
307.239996
 21
713.255048
 31
0.0
  0
LINE
  5
1D3
330
7B
100
AcDbEntity
  8
0
  6
Continuous
 62
     0
370
    30
100
AcDbLine
 10
303.639996
 20
710.647159
 30
0.0
 11
303.639996
 21
713.255048
 31
0.0
  0
LINE
  5
1D4
330
7B
100
AcDbEntity
  8
0
  6
Continuous
 62
     0
370
    30
100
AcDbLine
 10
332.326843
 20
710.647159
 30
0.0
 11
332.326843
 21
713.255048
 31
0.0
  0
LINE
  5
1D5
330
7B
100
AcDbEntity
  8
0
  6
Continuous
 62
     0
370
    30
100
AcDbLine
 10
328.726843
 20
710.647159
 30
0.0
 11
328.726843
 21
713.255048
 31
0.0
  0
LINE
  5
1D6
330
7B
100
AcDbEntity
  8
0
  6
Continuous
 62
     0
370
    30
100
AcDbLine
 10
354.692221
 20
710.647159
 30
0.0
 11
354.692221
 21
713.255048
 31
0.0
  0
LINE
  5
1D7
330
7B
100
AcDbEntity
  8
0
  6
Continuous
 62
     0
370
    30
100
AcDbLine
 10
351.092221
 20
710.647159
 30
0.0
 11
351.092221
 21
713.255048
 31
0.0
  0
LINE
  5
1D8
330
7B
100
AcDbEntity
  8
0
  6
Continuous
 62
     0
370
    30
100
AcDbLine
 10
373.358657
 20
710.647159
 30
0.0
 11
373.358657
 21
713.255048
 31
0.0
  0
LINE
  5
1D9
330
7B
100
AcDbEntity
  8
0
  6
Continuous
 62
     0
370
    30
100
AcDbLine
 10
387.510336
 20
710.647159
 30
0.0
 11
387.510336
 21
713.255048
 31
0.0
  0
LINE
  5
1DA
330
7B
100
AcDbEntity
  8
0
  6
Continuous
 62
     0
370
    30
100
AcDbLine
 10
383.910336
 20
710.647159
 30
0.0
 11
383.910336
 21
713.255048
 31
0.0
  0
LINE
  5
1DB
330
7B
100
AcDbEntity
  8
0
  6
Continuous
 62
     0
370
    30
100
AcDbLine
 10
392.928763
 20
710.647159
 30
0.0
 11
392.928763
 21
713.255048
 31
0.0
  0
LINE
  5
1DC
330
7B
100
AcDbEntity
  8
0
  6
Continuous
 62
     0
370
    30
100
AcDbLine
 10
400.01979
 20
710.647159
 30
0.0
 11
400.01979
 21
713.255048
 31
0.0
  0
LINE
  5
1DD
330
7B
100
AcDbEntity
  8
0
  6
Continuous
 62
     0
370
    30
100
AcDbLine
 10
355.746275
 20
710.647159
 30
0.0
 11
355.746275
 21
713.255048
 31
0.0
  0
LINE
  5
1DE
330
7B
100
AcDbEntity
  8
0
  6
Continuous
 62
     0
370
    30
100
AcDbLine
 10
181.822793
 20
710.647159
 30
0.0
 11
181.822793
 21
713.255047
 31
0.0
  0
LINE
  5
1DF
330
7B
100
AcDbEntity
  8
0
  6
Continuous
 62
     0
370
    30
100
AcDbLine
 10
143.586251
 20
710.647159
 30
0.0
 11
143.586251
 21
713.255048
 31
0.0
  0
LINE
  5
1E0
330
7B
100
AcDbEntity
  8
0
  6
Continuous
 62
     0
370
    30
100
AcDbLine
 10
136.495225
 20
710.647159
 30
0.0
 11
136.495225
 21
713.255048
 31
0.0
  0
LINE
  5
1E1
330
7B
100
AcDbEntity
  8
0
  6
Continuous
 62
     0
370
    30
100
AcDbLine
 10
114.846714
 20
710.647159
 30
0.0
 11
114.846714
 21
713.255048
 31
0.0
  0
LINE
  5
1E2
330
7B
100
AcDbEntity
  8
0
  6
Continuous
 62
     0
370
    30
100
AcDbLine
 10
120.722144
 20
710.647159
 30
0.0
 11
120.722144
 21
713.255048
 31
0.0
  0
LINE
  5
1E3
330
7B
100
AcDbEntity
  8
0
  6
Continuous
 62
     0
370
    30
100
AcDbLine
 10
124.322144
 20
710.647159
 30
0.0
 11
124.322144
 21
713.255048
 31
0.0
  0
LINE
  5
1E4
330
7B
100
AcDbEntity
  8
0
  6
Continuous
 62
     0
370
    30
100
AcDbLine
 10
131.02567
 20
710.647159
 30
0.0
 11
131.02567
 21
713.255048
 31
0.0
  0
LINE
  5
1E5
330
7B
100
AcDbEntity
  8
0
  6
Continuous
 62
     0
370
    30
100
AcDbLine
 10
145.444223
 20
710.647159
 30
0.0
 11
145.444223
 21
713.255048
 31
0.0
  0
LINE
  5
1E6
330
7B
100
AcDbEntity
  8
0
  6
Continuous
 62
     0
370
    30
100
AcDbLine
 10
149.044223
 20
710.647159
 30
0.0
 11
149.044223
 21
713.255048
 31
0.0
  0
LINE
  5
1E7
330
7B
100
AcDbEntity
  8
0
  6
Continuous
 62
     0
370
    30
100
AcDbLine
 10
163.539704
 20
710.647159
 30
0.0
 11
163.539704
 21
713.255048
 31
0.0
  0
LINE
  5
1E8
330
7B
100
AcDbEntity
  8
0
  6
Continuous
 62
     0
370
    30
100
AcDbLine
 10
167.139704
 20
710.647159
 30
0.0
 11
167.139704
 21
713.255048
 31
0.0
  0
LINE
  5
1E9
330
7B
100
AcDbEntity
  8
0
  6
Continuous
 62
     0
370
    30
100
AcDbLine
 10
184.76229
 20
710.647159
 30
0.0
 11
184.76229
 21
713.255048
 31
0.0
  0
LINE
  5
1EA
330
7B
100
AcDbEntity
  8
0
  6
Continuous
 62
     0
370
    30
100
AcDbLine
 10
188.36229
 20
710.647159
 30
0.0
 11
188.36229
 21
713.255048
 31
0.0
  0
LINE
  5
1EB
330
7B
100
AcDbEntity
  8
0
  6
Continuous
 62
     0
370
    30
100
AcDbLine
 10
208.467144
 20
710.647159
 30
0.0
 11
208.467144
 21
713.255048
 31
0.0
  0
LINE
  5
1EC
330
7B
100
AcDbEntity
  8
0
  6
Continuous
 62
     0
370
    30
100
AcDbLine
 10
212.067144
 20
710.647159
 30
0.0
 11
212.067144
 21
713.255048
 31
0.0
  0
LINE
  5
1ED
330
7B
100
AcDbEntity
  8
0
  6
Continuous
 62
     0
370
    30
100
AcDbLine
 10
233.934006
 20
710.647159
 30
0.0
 11
233.934006
 21
713.255048
 31
0.0
  0
LINE
  5
1EE
330
7B
100
AcDbEntity
  8
0
  6
Continuous
 62
     0
370
    30
100
AcDbLine
 10
237.534006
 20
710.647159
 30
0.0
 11
237.534006
 21
713.255048
 31
0.0
  0
LINE
  5
1EF
330
7B
100
AcDbEntity
  8
0
  6
Continuous
 62
     0
370
    30
100
AcDbLine
 10
260.389078
 20
710.647159
 30
0.0
 11
260.389078
 21
713.255048
 31
0.0
  0
LINE
  5
1F0
330
7B
100
AcDbEntity
  8
0
  6
Continuous
 62
     0
370
    30
100
AcDbLine
 10
263.989078
 20
710.647159
 30
0.0
 11
263.989078
 21
713.255048
 31
0.0
  0
LINE
  5
1F1
330
7B
100
AcDbEntity
  8
0
  6
Continuous
 62
     0
370
    30
100
AcDbLine
 10
290.628536
 20
710.647159
 30
0.0
 11
290.628536
 21
713.255048
 31
0.0
  0
LINE
  5
1F2
330
7B
100
AcDbEntity
  8
0
  6
Continuous
 62
     0
370
    30
100
AcDbLine
 10
287.028536
 20
710.647159
 30
0.0
 11
287.028536
 21
713.255048
 31
0.0
  0
LINE
  5
1F3
330
7B
100
AcDbEntity
  8
0
  6
Continuous
 62
     0
370
    30
100
AcDbLine
 10
316.642954
 20
710.647159
 30
0.0
 11
316.642954
 21
713.255048
 31
0.0
  0
LINE
  5
1F4
330
7B
100
AcDbEntity
  8
0
  6
Continuous
 62
     0
370
    30
100
AcDbLine
 10
313.042954
 20
710.647159
 30
0.0
 11
313.042954
 21
713.255048
 31
0.0
  0
LINE
  5
1F5
330
7B
100
AcDbEntity
  8
0
  6
Continuous
 62
     0
370
    30
100
AcDbLine
 10
341.241897
 20
710.647159
 30
0.0
 11
341.241897
 21
713.255048
 31
0.0
  0
LINE
  5
1F6
330
7B
100
AcDbEntity
  8
0
  6
Continuous
 62
     0
370
    30
100
AcDbLine
 10
337.641897
 20
710.647159
 30
0.0
 11
337.641897
 21
713.255048
 31
0.0
  0
LINE
  5
1F7
330
7B
100
AcDbEntity
  8
0
  6
Continuous
 62
     0
370
    30
100
AcDbLine
 10
363.677938
 20
710.647159
 30
0.0
 11
363.677938
 21
713.255048
 31
0.0
  0
LINE
  5
1F8
330
7B
100
AcDbEntity
  8
0
  6
Continuous
 62
     0
370
    30
100
AcDbLine
 10
360.077938
 20
710.647159
 30
0.0
 11
360.077938
 21
713.255048
 31
0.0
  0
LINE
  5
1F9
330
7B
100
AcDbEntity
  8
0
  6
Continuous
 62
     0
370
    30
100
AcDbLine
 10
383.26937
 20
710.647159
 30
0.0
 11
383.26937
 21
713.255048
 31
0.0
  0
LINE
  5
1FA
330
7B
100
AcDbEntity
  8
0
  6
Continuous
 62
     0
370
    30
100
AcDbLine
 10
379.66937
 20
710.647159
 30
0.0
 11
379.66937
 21
713.255048
 31
0.0
  0
LINE
  5
1FB
330
7B
100
AcDbEntity
  8
0
  6
Continuous
 62
     0
370
    30
100
AcDbLine
 10
399.420916
 20
710.647159
 30
0.0
 11
399.420916
 21
713.255048
 31
0.0
  0
LINE
  5
1FC
330
7B
100
AcDbEntity
  8
0
  6
Continuous
 62
     0
370
    30
100
AcDbLine
 10
395.820916
 20
710.647159
 30
0.0
 11
395.820916
 21
713.255048
 31
0.0
  0
LINE
  5
1FD
330
7B
100
AcDbEntity
  8
0
  6
Continuous
 62
     0
370
    30
100
AcDbLine
 10
411.641821
 20
710.647159
 30
0.0
 11
411.641821
 21
713.255048
 31
0.0
  0
LINE
  5
1FE
330
7B
100
AcDbEntity
  8
0
  6
Continuous
 62
     0
370
    30
100
AcDbLine
 10
419.560758
 20
710.647159
 30
0.0
 11
419.560758
 21
713.255048
 31
0.0
  0
LINE
  5
1FF
330
7B
100
AcDbEntity
  8
0
  6
Continuous
 62
     0
370
    30
100
AcDbLine
 10
415.960758
 20
710.647159
 30
0.0
 11
415.960758
 21
713.255048
 31
0.0
  0
LINE
  5
200
330
7B
100
AcDbEntity
  8
0
  6
Continuous
 62
     0
370
    30
100
AcDbLine
 10
415.792871
 20
710.647159
 30
0.0
 11
415.792871
 21
713.255048
 31
0.0
  0
LINE
  5
201
330
7B
100
AcDbEntity
  8
0
  6
Continuous
 62
     0
370
    30
100
AcDbLine
 10
412.192871
 20
710.647159
 30
0.0
 11
412.192871
 21
713.255048
 31
0.0
  0
LINE
  5
202
330
7B
100
AcDbEntity
  8
0
  6
Continuous
 62
     0
370
    30
100
AcDbLine
 10
405.489345
 20
710.647159
 30
0.0
 11
405.489345
 21
713.255048
 31
0.0
  0
LINE
  5
203
330
7B
100
AcDbEntity
  8
0
  6
Continuous
 62
     0
370
    30
100
AcDbLine
 10
401.889345
 20
710.647159
 30
0.0
 11
401.889345
 21
713.255048
 31
0.0
  0
LINE
  5
204
330
7B
100
AcDbEntity
  8
0
  6
Continuous
 62
     0
370
    30
100
AcDbLine
 10
156.845645
 20
710.647159
 30
0.0
 11
156.845645
 21
713.255047
 31
0.0
  0
LINE
  5
205
330
7B
100
AcDbEntity
  8
0
  6
Continuous
 62
     0
370
    30
100
AcDbLine
 10
124.873194
 20
710.647159
 30
0.0
 11
124.873194
 21
713.255047
 31
0.0
  0
LINE
  5
206
330
7B
100
AcDbEntity
  8
0
  6
Continuous
 62
     0
370
    30
100
AcDbLine
 10
128.473194
 20
710.647159
 30
0.0
 11
128.473194
 21
713.255047
 31
0.0
  0
LINE
  5
207
330
7B
100
AcDbEntity
  8
0
  6
Continuous
 62
     0
370
    30
100
AcDbLine
 10
120.554257
 20
710.647159
 30
0.0
 11
120.554257
 21
713.255047
 31
0.0
  0
LINE
  5
208
330
7B
100
AcDbEntity
  8
0
  6
Continuous
 62
     0
370
    30
100
AcDbLine
 10
113.577901
 20
710.647159
 30
0.0
 11
113.577901
 21
713.255048
 31
0.0
  0
LINE
  5
209
330
7B
100
AcDbEntity
  8
0
  6
Continuous
 62
     0
370
    30
100
AcDbLine
 10
90.687876
 20
710.647159
 30
0.0
 11
90.687876
 21
713.255048
 31
0.0
  0
LINE
  5
20A
330
7B
100
AcDbEntity
  8
0
  6
Continuous
 62
     0
370
    30
100
AcDbLine
 10
91.309394
 20
710.647159
 30
0.0
 11
91.309394
 21
713.255048
 31
0.0
  0
LINE
  5
20B
330
7B
100
AcDbEntity
  8
0
  6
Continuous
 62
     0
370
    30
100
AcDbLine
 10
94.909394
 20
710.647159
 30
0.0
 11
94.909394
 21
713.255048
 31
0.0
  0
LINE
  5
20C
330
7B
100
AcDbEntity
  8
0
  6
Continuous
 62
     0
370
    30
100
AcDbLine
 10
95.843431
 20
710.647159
 30
0.0
 11
95.843431
 21
713.255048
 31
0.0
  0
LINE
  5
20D
330
7B
100
AcDbEntity
  8
0
  6
Continuous
 62
     0
370
    30
100
AcDbLine
 10
99.443431
 20
710.647159
 30
0.0
 11
99.443431
 21
713.255048
 31
0.0
  0
LINE
  5
20E
330
7B
100
AcDbEntity
  8
0
  6
Continuous
 62
     0
370
    30
100
AcDbLine
 10
104.188704
 20
710.647159
 30
0.0
 11
104.188704
 21
713.255048
 31
0.0
  0
LINE
  5
20F
330
7B
100
AcDbEntity
  8
0
  6
Continuous
 62
     0
370
    30
100
AcDbLine
 10
107.788704
 20
710.647159
 30
0.0
 11
107.788704
 21
713.255048
 31
0.0
  0
LINE
  5
210
330
7B
100
AcDbEntity
  8
0
  6
Continuous
 62
     0
370
    30
100
AcDbLine
 10
116.158795
 20
710.647159
 30
0.0
 11
116.158795
 21
713.255048
 31
0.0
  0
LINE
  5
211
330
7B
100
AcDbEntity
  8
0
  6
Continuous
 62
     0
370
    30
100
AcDbLine
 10
119.758795
 20
710.647159
 30
0.0
 11
119.758795
 21
713.255048
 31
0.0
  0
LINE
  5
212
330
7B
100
AcDbEntity
  8
0
  6
Continuous
 62
     0
370
    30
100
AcDbLine
 10
131.48631
 20
710.647159
 30
0.0
 11
131.48631
 21
713.255048
 31
0.0
  0
LINE
  5
213
330
7B
100
AcDbEntity
  8
0
  6
Continuous
 62
     0
370
    30
100
AcDbLine
 10
135.08631
 20
710.647159
 30
0.0
 11
135.08631
 21
713.255048
 31
0.0
  0
LINE
  5
214
330
7B
100
AcDbEntity
  8
0
  6
Continuous
 62
     0
370
    30
100
AcDbLine
 10
149.828859
 20
710.647159
 30
0.0
 11
149.828859
 21
713.255048
 31
0.0
  0
LINE
  5
215
330
7B
100
AcDbEntity
  8
0
  6
Continuous
 62
     0
370
    30
100
AcDbLine
 10
153.428859
 20
710.647159
 30
0.0
 11
153.428859
 21
713.255048
 31
0.0
  0
LINE
  5
216
330
7B
100
AcDbEntity
  8
0
  6
Continuous
 62
     0
370
    30
100
AcDbLine
 10
170.7767
 20
710.647159
 30
0.0
 11
170.7767
 21
713.255048
 31
0.0
  0
LINE
  5
217
330
7B
100
AcDbEntity
  8
0
  6
Continuous
 62
     0
370
    30
100
AcDbLine
 10
174.3767
 20
710.647159
 30
0.0
 11
174.3767
 21
713.255048
 31
0.0
  0
LINE
  5
218
330
7B
100
AcDbEntity
  8
0
  6
Continuous
 62
     0
370
    30
100
AcDbLine
 10
193.861891
 20
710.647159
 30
0.0
 11
193.861891
 21
713.255048
 31
0.0
  0
LINE
  5
219
330
7B
100
AcDbEntity
  8
0
  6
Continuous
 62
     0
370
    30
100
AcDbLine
 10
197.461891
 20
710.647159
 30
0.0
 11
197.461891
 21
713.255048
 31
0.0
  0
LINE
  5
21A
330
7B
100
AcDbEntity
  8
0
  6
Continuous
 62
     0
370
    30
100
AcDbLine
 10
218.568748
 20
710.647159
 30
0.0
 11
218.568748
 21
713.255048
 31
0.0
  0
LINE
  5
21B
330
7B
100
AcDbEntity
  8
0
  6
Continuous
 62
     0
370
    30
100
AcDbLine
 10
222.168748
 20
710.647159
 30
0.0
 11
222.168748
 21
713.255048
 31
0.0
  0
LINE
  5
21C
330
7B
100
AcDbEntity
  8
0
  6
Continuous
 62
     0
370
    30
100
AcDbLine
 10
244.345362
 20
710.647159
 30
0.0
 11
244.345362
 21
713.255048
 31
0.0
  0
LINE
  5
21D
330
7B
100
AcDbEntity
  8
0
  6
Continuous
 62
     0
370
    30
100
AcDbLine
 10
247.945362
 20
710.647159
 30
0.0
 11
247.945362
 21
713.255048
 31
0.0
  0
LINE
  5
21E
330
7B
100
AcDbEntity
  8
0
  6
Continuous
 62
     0
370
    30
100
AcDbLine
 10
274.215924
 20
710.647159
 30
0.0
 11
274.215924
 21
713.255048
 31
0.0
  0
LINE
  5
21F
330
7B
100
AcDbEntity
  8
0
  6
Continuous
 62
     0
370
    30
100
AcDbLine
 10
270.615924
 20
710.647159
 30
0.0
 11
270.615924
 21
713.255048
 31
0.0
  0
LINE
  5
220
330
7B
100
AcDbEntity
  8
0
  6
Continuous
 62
     0
370
    30
100
AcDbLine
 10
300.393594
 20
710.647159
 30
0.0
 11
300.393594
 21
713.255048
 31
0.0
  0
LINE
  5
221
330
7B
100
AcDbEntity
  8
0
  6
Continuous
 62
     0
370
    30
100
AcDbLine
 10
296.793594
 20
710.647159
 30
0.0
 11
296.793594
 21
713.255048
 31
0.0
  0
LINE
  5
222
330
7B
100
AcDbEntity
  8
0
  6
Continuous
 62
     0
370
    30
100
AcDbLine
 10
325.893605
 20
710.647159
 30
0.0
 11
325.893605
 21
713.255048
 31
0.0
  0
LINE
  5
223
330
7B
100
AcDbEntity
  8
0
  6
Continuous
 62
     0
370
    30
100
AcDbLine
 10
322.293605
 20
710.647159
 30
0.0
 11
322.293605
 21
713.255048
 31
0.0
  0
LINE
  5
224
330
7B
100
AcDbEntity
  8
0
  6
Continuous
 62
     0
370
    30
100
AcDbLine
 10
350.146331
 20
710.647159
 30
0.0
 11
350.146331
 21
713.255048
 31
0.0
  0
LINE
  5
225
330
7B
100
AcDbEntity
  8
0
  6
Continuous
 62
     0
370
    30
100
AcDbLine
 10
346.546331
 20
710.647159
 30
0.0
 11
346.546331
 21
713.255048
 31
0.0
  0
LINE
  5
226
330
7B
100
AcDbEntity
  8
0
  6
Continuous
 62
     0
370
    30
100
AcDbLine
 10
372.610005
 20
710.647159
 30
0.0
 11
372.610005
 21
713.255048
 31
0.0
  0
LINE
  5
227
330
7B
100
AcDbEntity
  8
0
  6
Continuous
 62
     0
370
    30
100
AcDbLine
 10
369.010005
 20
710.647159
 30
0.0
 11
369.010005
 21
713.255048
 31
0.0
  0
LINE
  5
228
330
7B
100
AcDbEntity
  8
0
  6
Continuous
 62
     0
370
    30
100
AcDbLine
 10
392.782825
 20
710.647159
 30
0.0
 11
392.782825
 21
713.255048
 31
0.0
  0
LINE
  5
229
330
7B
100
AcDbEntity
  8
0
  6
Continuous
 62
     0
370
    30
100
AcDbLine
 10
389.182825
 20
710.647159
 30
0.0
 11
389.182825
 21
713.255048
 31
0.0
  0
LINE
  5
22A
330
7B
100
AcDbEntity
  8
0
  6
Continuous
 62
     0
370
    30
100
AcDbLine
 10
410.214165
 20
710.647159
 30
0.0
 11
410.214165
 21
713.255048
 31
0.0
  0
LINE
  5
22B
330
7B
100
AcDbEntity
  8
0
  6
Continuous
 62
     0
370
    30
100
AcDbLine
 10
406.614165
 20
710.647159
 30
0.0
 11
406.614165
 21
713.255048
 31
0.0
  0
LINE
  5
22C
330
7B
100
AcDbEntity
  8
0
  6
Continuous
 62
     0
370
    30
100
AcDbLine
 10
424.514636
 20
710.647159
 30
0.0
 11
424.514636
 21
713.255048
 31
0.0
  0
LINE
  5
22D
330
7B
100
AcDbEntity
  8
0
  6
Continuous
 62
     0
370
    30
100
AcDbLine
 10
420.914636
 20
710.647159
 30
0.0
 11
420.914636
 21
713.255048
 31
0.0
  0
LINE
  5
22E
330
7B
100
AcDbEntity
  8
0
  6
Continuous
 62
     0
370
    30
100
AcDbLine
 10
435.36479
 20
710.647159
 30
0.0
 11
435.36479
 21
713.255048
 31
0.0
  0
LINE
  5
22F
330
7B
100
AcDbEntity
  8
0
  6
Continuous
 62
     0
370
    30
100
AcDbLine
 10
431.76479
 20
710.647159
 30
0.0
 11
431.76479
 21
713.255048
 31
0.0
  0
LINE
  5
230
330
7B
100
AcDbEntity
  8
0
  6
Continuous
 62
     0
370
    30
100
AcDbLine
 10
442.522253
 20
710.647159
 30
0.0
 11
442.522253
 21
713.255048
 31
0.0
  0
LINE
  5
231
330
7B
100
AcDbEntity
  8
0
  6
Continuous
 62
     0
370
    30
100
AcDbLine
 10
438.922253
 20
710.647159
 30
0.0
 11
438.922253
 21
713.255048
 31
0.0
  0
LINE
  5
232
330
7B
100
AcDbEntity
  8
0
  6
Continuous
 62
     0
370
    30
100
AcDbLine
 10
445.827139
 20
710.647159
 30
0.0
 11
445.827139
 21
713.255048
 31
0.0
  0
LINE
  5
233
330
7B
100
AcDbEntity
  8
0
  6
Continuous
 62
     0
370
    30
100
AcDbLine
 10
437.071584
 20
710.647159
 30
0.0
 11
437.071584
 21
713.255048
 31
0.0
  0
LINE
  5
234
330
7B
100
AcDbEntity
  8
0
  6
Continuous
 62
     0
370
    30
100
AcDbLine
 10
428.72631
 20
710.647159
 30
0.0
 11
428.72631
 21
713.255048
 31
0.0
  0
LINE
  5
235
330
7B
100
AcDbEntity
  8
0
  6
Continuous
 62
     0
370
    30
100
AcDbLine
 10
401.428704
 20
710.647159
 30
0.0
 11
401.428704
 21
713.255048
 31
0.0
  0
LINE
  5
236
330
7B
100
AcDbEntity
  8
0
  6
Continuous
 62
     0
370
    30
100
AcDbLine
 10
365.738315
 20
710.647159
 30
0.0
 11
365.738315
 21
713.255047
 31
0.0
  0
LINE
  5
237
330
7B
100
AcDbEntity
  8
0
  6
Continuous
 62
     0
370
    30
100
AcDbLine
 10
265.899091
 20
710.647159
 30
0.0
 11
265.899091
 21
713.255047
 31
0.0
  0
LINE
  5
238
330
7B
100
AcDbEntity
  8
0
  6
Continuous
 62
     0
370
    30
100
AcDbLine
 10
167.50501
 20
710.647159
 30
0.0
 11
167.50501
 21
713.255047
 31
0.0
  0
LINE
  5
239
330
7B
100
AcDbEntity
  8
0
  6
Continuous
 62
     0
370
    30
100
AcDbLine
 10
143.73219
 20
710.647159
 30
0.0
 11
143.73219
 21
713.255047
 31
0.0
  0
LINE
  5
23A
330
7B
100
AcDbEntity
  8
0
  6
Continuous
 62
     0
370
    30
100
AcDbLine
 10
129.90085
 20
710.647159
 30
0.0
 11
129.90085
 21
713.255047
 31
0.0
  0
LINE
  5
23B
330
7B
100
AcDbEntity
  8
0
  6
Continuous
 62
     0
370
    30
100
AcDbLine
 10
112.000379
 20
710.647159
 30
0.0
 11
112.000379
 21
713.255047
 31
0.0
  0
LINE
  5
23C
330
7B
100
AcDbEntity
  8
0
  6
Continuous
 62
     0
370
    30
100
AcDbLine
 10
101.150224
 20
710.647159
 30
0.0
 11
101.150224
 21
713.255047
 31
0.0
  0
ENDBLK
  5
23E
330
7B
100
AcDbEntity
  8
0
100
AcDbBlockEnd
  0
BLOCK
  5
3B7
330
240
100
AcDbEntity
  8
0
100
AcDbBlockBegin
  2
b
 70
     0
 10
0.000031
 20
352.510132
 30
0.0
  3
b
  1

  0
ARC
  5
241
330
240
100
AcDbEntity
  8
0
  6
Continuous
 62
     0
370
    30
100
AcDbCircle
 10
95.792799
 20
1059.343439
 30
0.0
 40
1.800000000000252
100
AcDbArc
 50
97.303269
 51
277.303269
  0
ARC
  5
242
330
240
100
AcDbEntity
  8
0
  6
Continuous
 62
     0
370
    30
100
AcDbCircle
 10
95.792799
 20
1059.343439
 30
0.0
 40
1.800000000000248
100
AcDbArc
 50
277.303269
 51
97.303269
  0
ARC
  5
243
330
240
100
AcDbEntity
  8
0
  6
Continuous
 62
     0
370
    30
100
AcDbCircle
 10
102.950262
 20
1034.030925
 30
0.0
 40
1.79999999999979
100
AcDbArc
 50
105.874697
 51
285.874697
  0
ARC
  5
244
330
240
100
AcDbEntity
  8
0
  6
Continuous
 62
     0
370
    30
100
AcDbCircle
 10
102.950262
 20
1034.030925
 30
0.0
 40
1.799999999999795
100
AcDbArc
 50
285.874697
 51
105.874697
  0
ARC
  5
245
330
240
100
AcDbEntity
  8
0
  6
Continuous
 62
     0
370
    30
100
AcDbCircle
 10
113.800417
 20
1010.067895
 30
0.0
 40
1.800000000000494
100
AcDbArc
 50
114.446126
 51
294.446126
  0
ARC
  5
246
330
240
100
AcDbEntity
  8
0
  6
Continuous
 62
     0
370
    30
100
AcDbCircle
 10
113.800417
 20
1010.067895
 30
0.0
 40
1.800000000000502
100
AcDbArc
 50
294.446126
 51
114.446126
  0
ARC
  5
247
330
240
100
AcDbEntity
  8
0
  6
Continuous
 62
     0
370
    30
100
AcDbCircle
 10
128.100888
 20
987.989644
 30
0.0
 40
1.800000000000461
100
AcDbArc
 50
123.017554
 51
303.017554
  0
ARC
  5
248
330
240
100
AcDbEntity
  8
0
  6
Continuous
 62
     0
370
    30
100
AcDbCircle
 10
128.100888
 20
987.989644
 30
0.0
 40
1.800000000000481
100
AcDbArc
 50
303.017554
 51
123.017554
  0
ARC
  5
249
330
240
100
AcDbEntity
  8
0
  6
Continuous
 62
     0
370
    30
100
AcDbCircle
 10
145.532228
 20
968.289363
 30
0.0
 40
1.800000000000177
100
AcDbArc
 50
131.588983
 51
311.588983
  0
ARC
  5
24A
330
240
100
AcDbEntity
  8
0
  6
Continuous
 62
     0
370
    30
100
AcDbCircle
 10
145.532228
 20
968.289363
 30
0.0
 40
1.800000000000192
100
AcDbArc
 50
311.588983
 51
131.588983
  0
ARC
  5
24B
330
240
100
AcDbEntity
  8
0
  6
Continuous
 62
     0
370
    30
100
AcDbCircle
 10
165.705048
 20
951.407125
 30
0.0
 40
1.799999999999763
100
AcDbArc
 50
140.160411
 51
320.160411
  0
ARC
  5
24C
330
240
100
AcDbEntity
  8
0
  6
Continuous
 62
     0
370
    30
100
AcDbCircle
 10
165.705048
 20
951.407125
 30
0.0
 40
1.799999999999777
100
AcDbArc
 50
320.160411
 51
140.160411
  0
ARC
  5
24D
330
240
100
AcDbEntity
  8
0
  6
Continuous
 62
     0
370
    30
100
AcDbCircle
 10
188.168722
 20
937.72005
 30
0.0
 40
1.800000000000141
100
AcDbArc
 50
148.73184
 51
328.73184
  0
ARC
  5
24E
330
240
100
AcDbEntity
  8
0
  6
Continuous
 62
     0
370
    30
100
AcDbCircle
 10
188.168722
 20
937.72005
 30
0.0
 40
1.800000000000132
100
AcDbArc
 50
328.73184
 51
148.73184
  0
ARC
  5
24F
330
240
100
AcDbEntity
  8
0
  6
Continuous
 62
     0
370
    30
100
AcDbCircle
 10
212.421447
 20
927.533886
 30
0.0
 40
1.800000000000109
100
AcDbArc
 50
157.303269
 51
337.303269
  0
ARC
  5
250
330
240
100
AcDbEntity
  8
0
  6
Continuous
 62
     0
370
    30
100
AcDbCircle
 10
212.421447
 20
927.533886
 30
0.0
 40
1.800000000000114
100
AcDbArc
 50
337.303269
 51
157.303269
  0
ARC
  5
251
330
240
100
AcDbEntity
  8
0
  6
Continuous
 62
     0
370
    30
100
AcDbCircle
 10
237.921459
 20
921.076173
 30
0.0
 40
1.800000000000027
100
AcDbArc
 50
165.874697
 51
345.874697
  0
ARC
  5
252
330
240
100
AcDbEntity
  8
0
  6
Continuous
 62
     0
370
    30
100
AcDbCircle
 10
237.921459
 20
921.076173
 30
0.0
 40
1.800000000000036
100
AcDbArc
 50
345.874697
 51
165.874697
  0
ARC
  5
253
330
240
100
AcDbEntity
  8
0
  6
Continuous
 62
     0
370
    30
100
AcDbCircle
 10
264.099129
 20
918.491167
 30
0.0
 40
1.800000000000392
100
AcDbArc
 50
174.446126
 51
354.446126
  0
ARC
  5
254
330
240
100
AcDbEntity
  8
0
  6
Continuous
 62
     0
370
    30
100
AcDbCircle
 10
264.099129
 20
918.491167
 30
0.0
 40
1.800000000000388
100
AcDbArc
 50
354.446126
 51
174.446126
  0
ARC
  5
255
330
240
100
AcDbEntity
  8
0
  6
Continuous
 62
     0
370
    30
100
AcDbCircle
 10
290.369691
 20
919.836613
 30
0.0
 40
1.799999999999756
100
AcDbArc
 50
183.017554
 51
3.017554
  0
ARC
  5
256
330
240
100
AcDbEntity
  8
0
  6
Continuous
 62
     0
370
    30
100
AcDbCircle
 10
290.369691
 20
919.836613
 30
0.0
 40
1.799999999999752
100
AcDbArc
 50
3.017554
 51
183.017554
  0
ARC
  5
257
330
240
100
AcDbEntity
  8
0
  6
Continuous
 62
     0
370
    30
100
AcDbCircle
 10
316.146304
 20
925.082456
 30
0.0
 40
1.799999999999647
100
AcDbArc
 50
191.588983
 51
11.588983
  0
ARC
  5
258
330
240
100
AcDbEntity
  8
0
  6
Continuous
 62
     0
370
    30
100
AcDbCircle
 10
316.146304
 20
925.082456
 30
0.0
 40
1.799999999999631
100
AcDbArc
 50
11.588983
 51
191.588983
  0
ARC
  5
259
330
240
100
AcDbEntity
  8
0
  6
Continuous
 62
     0
370
    30
100
AcDbCircle
 10
340.853162
 20
934.111512
 30
0.0
 40
1.800000000000467
100
AcDbArc
 50
200.160411
 51
20.160411
  0
ARC
  5
25A
330
240
100
AcDbEntity
  8
0
  6
Continuous
 62
     0
370
    30
100
AcDbCircle
 10
340.853162
 20
934.111512
 30
0.0
 40
1.800000000000451
100
AcDbArc
 50
20.160411
 51
200.160411
  0
ARC
  5
25B
330
240
100
AcDbEntity
  8
0
  6
Continuous
 62
     0
370
    30
100
AcDbCircle
 10
363.938353
 20
946.722086
 30
0.0
 40
1.79999999999953
100
AcDbArc
 50
208.73184
 51
28.73184
  0
ARC
  5
25C
330
240
100
AcDbEntity
  8
0
  6
Continuous
 62
     0
370
    30
100
AcDbCircle
 10
363.938353
 20
946.722086
 30
0.0
 40
1.79999999999955
100
AcDbArc
 50
28.73184
 51
208.73184
  0
ARC
  5
25D
330
240
100
AcDbEntity
  8
0
  6
Continuous
 62
     0
370
    30
100
AcDbCircle
 10
384.886193
 20
962.632481
 30
0.0
 40
1.799999999999745
100
AcDbArc
 50
217.303269
 51
37.303269
  0
ARC
  5
25E
330
240
100
AcDbEntity
  8
0
  6
Continuous
 62
     0
370
    30
100
AcDbCircle
 10
384.886193
 20
962.632481
 30
0.0
 40
1.79999999999975
100
AcDbArc
 50
37.303269
 51
217.303269
  0
ARC
  5
25F
330
240
100
AcDbEntity
  8
0
  6
Continuous
 62
     0
370
    30
100
AcDbCircle
 10
403.228742
 20
981.487282
 30
0.0
 40
1.800000000000235
100
AcDbArc
 50
225.874697
 51
45.874697
  0
ARC
  5
260
330
240
100
AcDbEntity
  8
0
  6
Continuous
 62
     0
370
    30
100
AcDbCircle
 10
403.228742
 20
981.487282
 30
0.0
 40
1.800000000000249
100
AcDbArc
 50
45.874697
 51
225.874697
  0
ARC
  5
261
330
240
100
AcDbEntity
  8
0
  6
Continuous
 62
     0
370
    30
100
AcDbCircle
 10
418.556258
 20
1002.865307
 30
0.0
 40
1.800000000000027
100
AcDbArc
 50
234.446126
 51
54.446126
  0
ARC
  5
262
330
240
100
AcDbEntity
  8
0
  6
Continuous
 62
     0
370
    30
100
AcDbCircle
 10
418.556258
 20
1002.865307
 30
0.0
 40
1.800000000000044
100
AcDbArc
 50
54.446126
 51
234.446126
  0
ARC
  5
263
330
240
100
AcDbEntity
  8
0
  6
Continuous
 62
     0
370
    30
100
AcDbCircle
 10
430.526348
 20
1026.289004
 30
0.0
 40
1.800000000000518
100
AcDbArc
 50
243.017554
 51
63.017554
  0
ARC
  5
264
330
240
100
AcDbEntity
  8
0
  6
Continuous
 62
     0
370
    30
100
AcDbCircle
 10
430.526348
 20
1026.289004
 30
0.0
 40
1.800000000000529
100
AcDbArc
 50
63.017554
 51
243.017554
  0
ARC
  5
265
330
240
100
AcDbEntity
  8
0
  6
Continuous
 62
     0
370
    30
100
AcDbCircle
 10
438.871622
 20
1051.235127
 30
0.0
 40
1.800000000000286
100
AcDbArc
 50
251.588983
 51
71.588983
  0
ARC
  5
266
330
240
100
AcDbEntity
  8
0
  6
Continuous
 62
     0
370
    30
100
AcDbCircle
 10
438.871622
 20
1051.235127
 30
0.0
 40
1.80000000000028
100
AcDbArc
 50
71.588983
 51
251.588983
  0
ARC
  5
267
330
240
100
AcDbEntity
  8
0
  6
Continuous
 62
     0
370
    30
100
AcDbCircle
 10
443.405659
 20
1077.146421
 30
0.0
 40
1.799999999999998
100
AcDbArc
 50
260.160411
 51
80.160411
  0
ARC
  5
268
330
240
100
AcDbEntity
  8
0
  6
Continuous
 62
     0
370
    30
100
AcDbCircle
 10
443.405659
 20
1077.146421
 30
0.0
 40
1.799999999999999
100
AcDbArc
 50
80.160411
 51
260.160411
  0
ARC
  5
269
330
240
100
AcDbEntity
  8
0
  6
Continuous
 62
     0
370
    30
100
AcDbCircle
 10
444.027177
 20
1103.444071
 30
0.0
 40
1.799999999999765
100
AcDbArc
 50
268.73184
 51
88.73184
  0
ARC
  5
26A
330
240
100
AcDbEntity
  8
0
  6
Continuous
 62
     0
370
    30
100
AcDbCircle
 10
444.027177
 20
1103.444071
 30
0.0
 40
1.799999999999764
100
AcDbArc
 50
88.73184
 51
268.73184
  0
ARC
  5
26B
330
240
100
AcDbEntity
  8
0
  6
Continuous
 62
     0
370
    30
100
AcDbCircle
 10
440.722292
 20
1129.540629
 30
0.0
 40
1.80000000000025
100
AcDbArc
 50
277.303269
 51
97.303269
  0
ARC
  5
26C
330
240
100
AcDbEntity
  8
0
  6
Continuous
 62
     0
370
    30
100
AcDbCircle
 10
440.722292
 20
1129.540629
 30
0.0
 40
1.800000000000243
100
AcDbArc
 50
97.303269
 51
277.303269
  0
ARC
  5
26D
330
240
100
AcDbEntity
  8
0
  6
Continuous
 62
     0
370
    30
100
AcDbCircle
 10
433.564829
 20
1154.853144
 30
0.0
 40
1.799999999999784
100
AcDbArc
 50
285.874697
 51
105.874697
  0
ARC
  5
26E
330
240
100
AcDbEntity
  8
0
  6
Continuous
 62
     0
370
    30
100
AcDbCircle
 10
433.564829
 20
1154.853144
 30
0.0
 40
1.79999999999978
100
AcDbArc
 50
105.874697
 51
285.874697
  0
ARC
  5
26F
330
240
100
AcDbEntity
  8
0
  6
Continuous
 62
     0
370
    30
100
AcDbCircle
 10
422.714674
 20
1178.816174
 30
0.0
 40
1.800000000000504
100
AcDbArc
 50
294.446126
 51
114.446126
  0
ARC
  5
270
330
240
100
AcDbEntity
  8
0
  6
Continuous
 62
     0
370
    30
100
AcDbCircle
 10
422.714674
 20
1178.816174
 30
0.0
 40
1.800000000000516
100
AcDbArc
 50
114.446126
 51
294.446126
  0
ARC
  5
271
330
240
100
AcDbEntity
  8
0
  6
Continuous
 62
     0
370
    30
100
AcDbCircle
 10
408.414203
 20
1200.894425
 30
0.0
 40
1.800000000000468
100
AcDbArc
 50
303.017554
 51
123.017554
  0
ARC
  5
272
330
240
100
AcDbEntity
  8
0
  6
Continuous
 62
     0
370
    30
100
AcDbCircle
 10
408.414203
 20
1200.894425
 30
0.0
 40
1.800000000000432
100
AcDbArc
 50
123.017554
 51
303.017554
  0
ARC
  5
273
330
240
100
AcDbEntity
  8
0
  6
Continuous
 62
     0
370
    30
100
AcDbCircle
 10
390.982863
 20
1220.594705
 30
0.0
 40
1.800000000000183
100
AcDbArc
 50
311.588983
 51
131.588983
  0
ARC
  5
274
330
240
100
AcDbEntity
  8
0
  6
Continuous
 62
     0
370
    30
100
AcDbCircle
 10
390.982863
 20
1220.594705
 30
0.0
 40
1.800000000000177
100
AcDbArc
 50
131.588983
 51
311.588983
  0
ARC
  5
275
330
240
100
AcDbEntity
  8
0
  6
Continuous
 62
     0
370
    30
100
AcDbCircle
 10
370.810043
 20
1237.476944
 30
0.0
 40
1.799999999999775
100
AcDbArc
 50
320.160411
 51
140.160411
  0
ARC
  5
276
330
240
100
AcDbEntity
  8
0
  6
Continuous
 62
     0
370
    30
100
AcDbCircle
 10
370.810043
 20
1237.476944
 30
0.0
 40
1.799999999999766
100
AcDbArc
 50
140.160411
 51
320.160411
  0
ARC
  5
277
330
240
100
AcDbEntity
  8
0
  6
Continuous
 62
     0
370
    30
100
AcDbCircle
 10
348.346369
 20
1251.164019
 30
0.0
 40
1.800000000000122
100
AcDbArc
 50
328.73184
 51
148.73184
  0
ARC
  5
278
330
240
100
AcDbEntity
  8
0
  6
Continuous
 62
     0
370
    30
100
AcDbCircle
 10
348.346369
 20
1251.164019
 30
0.0
 40
1.800000000000146
100
AcDbArc
 50
148.73184
 51
328.73184
  0
ARC
  5
279
330
240
100
AcDbEntity
  8
0
  6
Continuous
 62
     0
370
    30
100
AcDbCircle
 10
324.093644
 20
1261.350183
 30
0.0
 40
1.800000000000114
100
AcDbArc
 50
337.303269
 51
157.303269
  0
ARC
  5
27A
330
240
100
AcDbEntity
  8
0
  6
Continuous
 62
     0
370
    30
100
AcDbCircle
 10
324.093644
 20
1261.350183
 30
0.0
 40
1.800000000000122
100
AcDbArc
 50
157.303269
 51
337.303269
  0
ARC
  5
27B
330
240
100
AcDbEntity
  8
0
  6
Continuous
 62
     0
370
    30
100
AcDbCircle
 10
298.593632
 20
1267.807896
 30
0.0
 40
1.800000000000034
100
AcDbArc
 50
345.874697
 51
165.874697
  0
ARC
  5
27C
330
240
100
AcDbEntity
  8
0
  6
Continuous
 62
     0
370
    30
100
AcDbCircle
 10
298.593632
 20
1267.807896
 30
0.0
 40
1.800000000000033
100
AcDbArc
 50
165.874697
 51
345.874697
  0
ARC
  5
27D
330
240
100
AcDbEntity
  8
0
  6
Continuous
 62
     0
370
    30
100
AcDbCircle
 10
272.415962
 20
1270.392901
 30
0.0
 40
1.80000000000039
100
AcDbArc
 50
354.446126
 51
174.446126
  0
ARC
  5
27E
330
240
100
AcDbEntity
  8
0
  6
Continuous
 62
     0
370
    30
100
AcDbCircle
 10
272.415962
 20
1270.392901
 30
0.0
 40
1.80000000000039
100
AcDbArc
 50
174.446126
 51
354.446126
  0
ARC
  5
27F
330
240
100
AcDbEntity
  8
0
  6
Continuous
 62
     0
370
    30
100
AcDbCircle
 10
246.1454
 20
1269.047455
 30
0.0
 40
1.799999999999752
100
AcDbArc
 50
3.017554
 51
183.017554
  0
ARC
  5
280
330
240
100
AcDbEntity
  8
0
  6
Continuous
 62
     0
370
    30
100
AcDbCircle
 10
246.1454
 20
1269.047455
 30
0.0
 40
1.799999999999755
100
AcDbArc
 50
183.017554
 51
3.017554
  0
ARC
  5
281
330
240
100
AcDbEntity
  8
0
  6
Continuous
 62
     0
370
    30
100
AcDbCircle
 10
220.368787
 20
1263.801613
 30
0.0
 40
1.799999999999646
100
AcDbArc
 50
11.588983
 51
191.588983
  0
ARC
  5
282
330
240
100
AcDbEntity
  8
0
  6
Continuous
 62
     0
370
    30
100
AcDbCircle
 10
220.368787
 20
1263.801613
 30
0.0
 40
1.799999999999646
100
AcDbArc
 50
191.588983
 51
11.588983
  0
ARC
  5
283
330
240
100
AcDbEntity
  8
0
  6
Continuous
 62
     0
370
    30
100
AcDbCircle
 10
195.661929
 20
1254.772557
 30
0.0
 40
1.80000000000045
100
AcDbArc
 50
20.160411
 51
200.160411
  0
ARC
  5
284
330
240
100
AcDbEntity
  8
0
  6
Continuous
 62
     0
370
    30
100
AcDbCircle
 10
195.661929
 20
1254.772557
 30
0.0
 40
1.800000000000456
100
AcDbArc
 50
200.160411
 51
20.160411
  0
ARC
  5
285
330
240
100
AcDbEntity
  8
0
  6
Continuous
 62
     0
370
    30
100
AcDbCircle
 10
172.576738
 20
1242.161982
 30
0.0
 40
1.799999999999524
100
AcDbArc
 50
28.73184
 51
208.73184
  0
ARC
  5
286
330
240
100
AcDbEntity
  8
0
  6
Continuous
 62
     0
370
    30
100
AcDbCircle
 10
172.576738
 20
1242.161982
 30
0.0
 40
1.799999999999532
100
AcDbArc
 50
208.73184
 51
28.73184
  0
ARC
  5
287
330
240
100
AcDbEntity
  8
0
  6
Continuous
 62
     0
370
    30
100
AcDbCircle
 10
151.628897
 20
1226.251588
 30
0.0
 40
1.799999999999765
100
AcDbArc
 50
37.303269
 51
217.303269
  0
ARC
  5
288
330
240
100
AcDbEntity
  8
0
  6
Continuous
 62
     0
370
    30
100
AcDbCircle
 10
151.628897
 20
1226.251588
 30
0.0
 40
1.799999999999731
100
AcDbArc
 50
217.303269
 51
37.303269
  0
ARC
  5
289
330
240
100
AcDbEntity
  8
0
  6
Continuous
 62
     0
370
    30
100
AcDbCircle
 10
133.286349
 20
1207.396786
 30
0.0
 40
1.800000000000242
100
AcDbArc
 50
45.874697
 51
225.874697
  0
ARC
  5
28A
330
240
100
AcDbEntity
  8
0
  6
Continuous
 62
     0
370
    30
100
AcDbCircle
 10
133.286349
 20
1207.396786
 30
0.0
 40
1.800000000000243
100
AcDbArc
 50
225.874697
 51
45.874697
  0
ARC
  5
28B
330
240
100
AcDbEntity
  8
0
  6
Continuous
 62
     0
370
    30
100
AcDbCircle
 10
117.958833
 20
1186.018762
 30
0.0
 40
1.800000000000046
100
AcDbArc
 50
54.446126
 51
234.446126
  0
ARC
  5
28C
330
240
100
AcDbEntity
  8
0
  6
Continuous
 62
     0
370
    30
100
AcDbCircle
 10
117.958833
 20
1186.018762
 30
0.0
 40
1.800000000000054
100
AcDbArc
 50
234.446126
 51
54.446126
  0
ARC
  5
28D
330
240
100
AcDbEntity
  8
0
  6
Continuous
 62
     0
370
    30
100
AcDbCircle
 10
105.988742
 20
1162.595065
 30
0.0
 40
1.800000000000512
100
AcDbArc
 50
63.017554
 51
243.017554
  0
ARC
  5
28E
330
240
100
AcDbEntity
  8
0
  6
Continuous
 62
     0
370
    30
100
AcDbCircle
 10
105.988742
 20
1162.595065
 30
0.0
 40
1.800000000000497
100
AcDbArc
 50
243.017554
 51
63.017554
  0
ARC
  5
28F
330
240
100
AcDbEntity
  8
0
  6
Continuous
 62
     0
370
    30
100
AcDbCircle
 10
97.643469
 20
1137.648942
 30
0.0
 40
1.800000000000282
100
AcDbArc
 50
71.588983
 51
251.588983
  0
ARC
  5
290
330
240
100
AcDbEntity
  8
0
  6
Continuous
 62
     0
370
    30
100
AcDbCircle
 10
97.643469
 20
1137.648942
 30
0.0
 40
1.800000000000276
100
AcDbArc
 50
251.588983
 51
71.588983
  0
ARC
  5
291
330
240
100
AcDbEntity
  8
0
  6
Continuous
 62
     0
370
    30
100
AcDbCircle
 10
93.109432
 20
1111.737648
 30
0.0
 40
1.800000000000009
100
AcDbArc
 50
80.160411
 51
260.160411
  0
ARC
  5
292
330
240
100
AcDbEntity
  8
0
  6
Continuous
 62
     0
370
    30
100
AcDbCircle
 10
93.109432
 20
1111.737648
 30
0.0
 40
1.8
100
AcDbArc
 50
260.160411
 51
80.160411
  0
ARC
  5
293
330
240
100
AcDbEntity
  8
0
  6
Continuous
 62
     0
370
    30
100
AcDbCircle
 10
92.487914
 20
1085.439998
 30
0.0
 40
1.799999999999766
100
AcDbArc
 50
88.73184
 51
268.73184
  0
ARC
  5
294
330
240
100
AcDbEntity
  8
0
  6
Continuous
 62
     0
370
    30
100
AcDbCircle
 10
92.487914
 20
1085.439998
 30
0.0
 40
1.799999999999764
100
AcDbArc
 50
268.73184
 51
88.73184
  0
ARC
  5
295
330
240
100
AcDbEntity
  8
0
  6
Continuous
 62
     0
370
    30
100
AcDbCircle
 10
115.377939
 20
1088.373605
 30
0.0
 40
1.800000000000255
100
AcDbArc
 50
97.303269
 51
277.303269
  0
ARC
  5
296
330
240
100
AcDbEntity
  8
0
  6
Continuous
 62
     0
370
    30
100
AcDbCircle
 10
115.377939
 20
1088.373605
 30
0.0
 40
1.800000000000249
100
AcDbArc
 50
277.303269
 51
97.303269
  0
ARC
  5
297
330
240
100
AcDbEntity
  8
0
  6
Continuous
 62
     0
370
    30
100
AcDbCircle
 10
118.754295
 20
1061.918533
 30
0.0
 40
1.800000000000402
100
AcDbArc
 50
107.303269
 51
287.303269
  0
ARC
  5
298
330
240
100
AcDbEntity
  8
0
  6
Continuous
 62
     0
370
    30
100
AcDbCircle
 10
118.754295
 20
1061.918533
 30
0.0
 40
1.800000000000396
100
AcDbArc
 50
287.303269
 51
107.303269
  0
ARC
  5
299
330
240
100
AcDbEntity
  8
0
  6
Continuous
 62
     0
370
    30
100
AcDbCircle
 10
126.673232
 20
1036.451671
 30
0.0
 40
1.79999999999997
100
AcDbArc
 50
117.303269
 51
297.303269
  0
ARC
  5
29A
330
240
100
AcDbEntity
  8
0
  6
Continuous
 62
     0
370
    30
100
AcDbCircle
 10
126.673232
 20
1036.451671
 30
0.0
 40
1.799999999999958
100
AcDbArc
 50
297.303269
 51
117.303269
  0
ARC
  5
29B
330
240
100
AcDbEntity
  8
0
  6
Continuous
 62
     0
370
    30
100
AcDbCircle
 10
138.894137
 20
1012.746817
 30
0.0
 40
1.799999999999732
100
AcDbArc
 50
127.303269
 51
307.303269
  0
ARC
  5
29C
330
240
100
AcDbEntity
  8
0
  6
Continuous
 62
     0
370
    30
100
AcDbCircle
 10
138.894137
 20
1012.746817
 30
0.0
 40
1.799999999999755
100
AcDbArc
 50
307.303269
 51
127.303269
  0
ARC
  5
29D
330
240
100
AcDbEntity
  8
0
  6
Continuous
 62
     0
370
    30
100
AcDbCircle
 10
155.045683
 20
991.524231
 30
0.0
 40
1.799999999999947
100
AcDbArc
 50
137.303269
 51
317.303269
  0
ARC
  5
29E
330
240
100
AcDbEntity
  8
0
  6
Continuous
 62
     0
370
    30
100
AcDbCircle
 10
155.045683
 20
991.524231
 30
0.0
 40
1.799999999999959
100
AcDbArc
 50
317.303269
 51
137.303269
  0
ARC
  5
29F
330
240
100
AcDbEntity
  8
0
  6
Continuous
 62
     0
370
    30
100
AcDbCircle
 10
174.637115
 20
973.42875
 30
0.0
 40
1.799999999999714
100
AcDbArc
 50
147.303269
 51
327.303269
  0
ARC
  5
2A0
330
240
100
AcDbEntity
  8
0
  6
Continuous
 62
     0
370
    30
100
AcDbCircle
 10
174.637115
 20
973.42875
 30
0.0
 40
1.799999999999712
100
AcDbArc
 50
327.303269
 51
147.303269
  0
ARC
  5
2A1
330
240
100
AcDbEntity
  8
0
  6
Continuous
 62
     0
370
    30
100
AcDbCircle
 10
197.073156
 20
959.010197
 30
0.0
 40
1.800000000000119
100
AcDbArc
 50
157.303269
 51
337.303269
  0
ARC
  5
2A2
330
240
100
AcDbEntity
  8
0
  6
Continuous
 62
     0
370
    30
100
AcDbCircle
 10
197.073156
 20
959.010197
 30
0.0
 40
1.800000000000124
100
AcDbArc
 50
337.303269
 51
157.303269
  0
ARC
  5
2A3
330
240
100
AcDbEntity
  8
0
  6
Continuous
 62
     0
370
    30
100
AcDbCircle
 10
221.672099
 20
948.706671
 30
0.0
 40
1.799999999999733
100
AcDbArc
 50
167.303269
 51
347.303269
  0
ARC
  5
2A4
330
240
100
AcDbEntity
  8
0
  6
Continuous
 62
     0
370
    30
100
AcDbCircle
 10
221.672099
 20
948.706671
 30
0.0
 40
1.799999999999744
100
AcDbArc
 50
347.303269
 51
167.303269
  0
ARC
  5
2A5
330
240
100
AcDbEntity
  8
0
  6
Continuous
 62
     0
370
    30
100
AcDbCircle
 10
247.686516
 20
942.831241
 30
0.0
 40
1.799999999999636
100
AcDbArc
 50
177.303269
 51
357.303269
  0
ARC
  5
2A6
330
240
100
AcDbEntity
  8
0
  6
Continuous
 62
     0
370
    30
100
AcDbCircle
 10
247.686516
 20
942.831241
 30
0.0
 40
1.799999999999632
100
AcDbArc
 50
357.303269
 51
177.303269
  0
ARC
  5
2A7
330
240
100
AcDbEntity
  8
0
  6
Continuous
 62
     0
370
    30
100
AcDbCircle
 10
274.325975
 20
941.562428
 30
0.0
 40
1.80000000000025
100
AcDbArc
 50
187.303269
 51
7.303269
  0
ARC
  5
2A8
330
240
100
AcDbEntity
  8
0
  6
Continuous
 62
     0
370
    30
100
AcDbCircle
 10
274.325975
 20
941.562428
 30
0.0
 40
1.800000000000252
100
AcDbArc
 50
7.303269
 51
187.303269
  0
ARC
  5
2A9
330
240
100
AcDbEntity
  8
0
  6
Continuous
 62
     0
370
    30
100
AcDbCircle
 10
300.781047
 20
944.938784
 30
0.0
 40
1.800000000000396
100
AcDbArc
 50
197.303269
 51
17.303269
  0
ARC
  5
2AA
330
240
100
AcDbEntity
  8
0
  6
Continuous
 62
     0
370
    30
100
AcDbCircle
 10
300.781047
 20
944.938784
 30
0.0
 40
1.800000000000396
100
AcDbArc
 50
17.303269
 51
197.303269
  0
ARC
  5
2AB
330
240
100
AcDbEntity
  8
0
  6
Continuous
 62
     0
370
    30
100
AcDbCircle
 10
326.247909
 20
952.857721
 30
0.0
 40
1.799999999999968
100
AcDbArc
 50
207.303269
 51
27.303269
  0
ARC
  5
2AC
330
240
100
AcDbEntity
  8
0
  6
Continuous
 62
     0
370
    30
100
AcDbCircle
 10
326.247909
 20
952.857721
 30
0.0
 40
1.799999999999965
100
AcDbArc
 50
27.303269
 51
207.303269
  0
ARC
  5
2AD
330
240
100
AcDbEntity
  8
0
  6
Continuous
 62
     0
370
    30
100
AcDbCircle
 10
349.952763
 20
965.078626
 30
0.0
 40
1.799999999999752
100
AcDbArc
 50
217.303269
 51
37.303269
  0
ARC
  5
2AE
330
240
100
AcDbEntity
  8
0
  6
Continuous
 62
     0
370
    30
100
AcDbCircle
 10
349.952763
 20
965.078626
 30
0.0
 40
1.799999999999741
100
AcDbArc
 50
37.303269
 51
217.303269
  0
ARC
  5
2AF
330
240
100
AcDbEntity
  8
0
  6
Continuous
 62
     0
370
    30
100
AcDbCircle
 10
371.175349
 20
981.230172
 30
0.0
 40
1.79999999999993
100
AcDbArc
 50
227.303269
 51
47.303269
  0
ARC
  5
2B0
330
240
100
AcDbEntity
  8
0
  6
Continuous
 62
     0
370
    30
100
AcDbCircle
 10
371.175349
 20
981.230172
 30
0.0
 40
1.799999999999933
100
AcDbArc
 50
47.303269
 51
227.303269
  0
ARC
  5
2B1
330
240
100
AcDbEntity
  8
0
  6
Continuous
 62
     0
370
    30
100
AcDbCircle
 10
389.27083
 20
1000.821604
 30
0.0
 40
1.799999999999689
100
AcDbArc
 50
237.303269
 51
57.303269
  0
ARC
  5
2B2
330
240
100
AcDbEntity
  8
0
  6
Continuous
 62
     0
370
    30
100
AcDbCircle
 10
389.27083
 20
1000.821604
 30
0.0
 40
1.799999999999685
100
AcDbArc
 50
57.303269
 51
237.303269
  0
ARC
  5
2B3
330
240
100
AcDbEntity
  8
0
  6
Continuous
 62
     0
370
    30
100
AcDbCircle
 10
403.689383
 20
1023.257645
 30
0.0
 40
1.800000000000127
100
AcDbArc
 50
247.303269
 51
67.303269
  0
ARC
  5
2B4
330
240
100
AcDbEntity
  8
0
  6
Continuous
 62
     0
370
    30
100
AcDbCircle
 10
403.689383
 20
1023.257645
 30
0.0
 40
1.800000000000133
100
AcDbArc
 50
67.303269
 51
247.303269
  0
ARC
  5
2B5
330
240
100
AcDbEntity
  8
0
  6
Continuous
 62
     0
370
    30
100
AcDbCircle
 10
413.992909
 20
1047.856587
 30
0.0
 40
1.799999999999746
100
AcDbArc
 50
257.303269
 51
77.303269
  0
ARC
  5
2B6
330
240
100
AcDbEntity
  8
0
  6
Continuous
 62
     0
370
    30
100
AcDbCircle
 10
413.992909
 20
1047.856587
 30
0.0
 40
1.799999999999746
100
AcDbArc
 50
77.303269
 51
257.303269
  0
ARC
  5
2B7
330
240
100
AcDbEntity
  8
0
  6
Continuous
 62
     0
370
    30
100
AcDbCircle
 10
419.868339
 20
1073.871005
 30
0.0
 40
1.799999999999637
100
AcDbArc
 50
267.303269
 51
87.303269
  0
ARC
  5
2B8
330
240
100
AcDbEntity
  8
0
  6
Continuous
 62
     0
370
    30
100
AcDbCircle
 10
419.868339
 20
1073.871005
 30
0.0
 40
1.799999999999634
100
AcDbArc
 50
87.303269
 51
267.303269
  0
ARC
  5
2B9
330
240
100
AcDbEntity
  8
0
  6
Continuous
 62
     0
370
    30
100
AcDbCircle
 10
421.137152
 20
1100.510464
 30
0.0
 40
1.800000000000252
100
AcDbArc
 50
277.303269
 51
97.303269
  0
ARC
  5
2BA
330
240
100
AcDbEntity
  8
0
  6
Continuous
 62
     0
370
    30
100
AcDbCircle
 10
421.137152
 20
1100.510464
 30
0.0
 40
1.800000000000251
100
AcDbArc
 50
97.303269
 51
277.303269
  0
ARC
  5
2BB
330
240
100
AcDbEntity
  8
0
  6
Continuous
 62
     0
370
    30
100
AcDbCircle
 10
417.760796
 20
1126.965536
 30
0.0
 40
1.8000000000004
100
AcDbArc
 50
287.303269
 51
107.303269
  0
ARC
  5
2BC
330
240
100
AcDbEntity
  8
0
  6
Continuous
 62
     0
370
    30
100
AcDbCircle
 10
417.760796
 20
1126.965536
 30
0.0
 40
1.800000000000401
100
AcDbArc
 50
107.303269
 51
287.303269
  0
ARC
  5
2BD
330
240
100
AcDbEntity
  8
0
  6
Continuous
 62
     0
370
    30
100
AcDbCircle
 10
409.841859
 20
1152.432397
 30
0.0
 40
1.799999999999966
100
AcDbArc
 50
297.303269
 51
117.303269
  0
ARC
  5
2BE
330
240
100
AcDbEntity
  8
0
  6
Continuous
 62
     0
370
    30
100
AcDbCircle
 10
409.841859
 20
1152.432397
 30
0.0
 40
1.799999999999971
100
AcDbArc
 50
117.303269
 51
297.303269
  0
ARC
  5
2BF
330
240
100
AcDbEntity
  8
0
  6
Continuous
 62
     0
370
    30
100
AcDbCircle
 10
397.620954
 20
1176.137252
 30
0.0
 40
1.799999999999762
100
AcDbArc
 50
307.303269
 51
127.303269
  0
ARC
  5
2C0
330
240
100
AcDbEntity
  8
0
  6
Continuous
 62
     0
370
    30
100
AcDbCircle
 10
397.620954
 20
1176.137252
 30
0.0
 40
1.799999999999755
100
AcDbArc
 50
127.303269
 51
307.303269
  0
ARC
  5
2C1
330
240
100
AcDbEntity
  8
0
  6
Continuous
 62
     0
370
    30
100
AcDbCircle
 10
381.469408
 20
1197.359838
 30
0.0
 40
1.799999999999919
100
AcDbArc
 50
317.303269
 51
137.303269
  0
ARC
  5
2C2
330
240
100
AcDbEntity
  8
0
  6
Continuous
 62
     0
370
    30
100
AcDbCircle
 10
381.469408
 20
1197.359838
 30
0.0
 40
1.799999999999924
100
AcDbArc
 50
137.303269
 51
317.303269
  0
ARC
  5
2C3
330
240
100
AcDbEntity
  8
0
  6
Continuous
 62
     0
370
    30
100
AcDbCircle
 10
361.877976
 20
1215.455319
 30
0.0
 40
1.799999999999724
100
AcDbArc
 50
327.303269
 51
147.303269
  0
ARC
  5
2C4
330
240
100
AcDbEntity
  8
0
  6
Continuous
 62
     0
370
    30
100
AcDbCircle
 10
361.877976
 20
1215.455319
 30
0.0
 40
1.799999999999707
100
AcDbArc
 50
147.303269
 51
327.303269
  0
ARC
  5
2C5
330
240
100
AcDbEntity
  8
0
  6
Continuous
 62
     0
370
    30
100
AcDbCircle
 10
339.441935
 20
1229.873872
 30
0.0
 40
1.800000000000125
100
AcDbArc
 50
337.303269
 51
157.303269
  0
ARC
  5
2C6
330
240
100
AcDbEntity
  8
0
  6
Continuous
 62
     0
370
    30
100
AcDbCircle
 10
339.441935
 20
1229.873872
 30
0.0
 40
1.800000000000097
100
AcDbArc
 50
157.303269
 51
337.303269
  0
ARC
  5
2C7
330
240
100
AcDbEntity
  8
0
  6
Continuous
 62
     0
370
    30
100
AcDbCircle
 10
314.842992
 20
1240.177398
 30
0.0
 40
1.799999999999742
100
AcDbArc
 50
347.303269
 51
167.303269
  0
ARC
  5
2C8
330
240
100
AcDbEntity
  8
0
  6
Continuous
 62
     0
370
    30
100
AcDbCircle
 10
314.842992
 20
1240.177398
 30
0.0
 40
1.799999999999752
100
AcDbArc
 50
167.303269
 51
347.303269
  0
ARC
  5
2C9
330
240
100
AcDbEntity
  8
0
  6
Continuous
 62
     0
370
    30
100
AcDbCircle
 10
288.828575
 20
1246.052828
 30
0.0
 40
1.799999999999634
100
AcDbArc
 50
357.303269
 51
177.303269
  0
ARC
  5
2CA
330
240
100
AcDbEntity
  8
0
  6
Continuous
 62
     0
370
    30
100
AcDbCircle
 10
288.828575
 20
1246.052828
 30
0.0
 40
1.799999999999638
100
AcDbArc
 50
177.303269
 51
357.303269
  0
ARC
  5
2CB
330
240
100
AcDbEntity
  8
0
  6
Continuous
 62
     0
370
    30
100
AcDbCircle
 10
262.189116
 20
1247.321641
 30
0.0
 40
1.800000000000252
100
AcDbArc
 50
7.303269
 51
187.303269
  0
ARC
  5
2CC
330
240
100
AcDbEntity
  8
0
  6
Continuous
 62
     0
370
    30
100
AcDbCircle
 10
262.189116
 20
1247.321641
 30
0.0
 40
1.800000000000252
100
AcDbArc
 50
187.303269
 51
7.303269
  0
ARC
  5
2CD
330
240
100
AcDbEntity
  8
0
  6
Continuous
 62
     0
370
    30
100
AcDbCircle
 10
235.734044
 20
1243.945285
 30
0.0
 40
1.800000000000397
100
AcDbArc
 50
17.303269
 51
197.303269
  0
ARC
  5
2CE
330
240
100
AcDbEntity
  8
0
  6
Continuous
 62
     0
370
    30
100
AcDbCircle
 10
235.734044
 20
1243.945285
 30
0.0
 40
1.800000000000406
100
AcDbArc
 50
197.303269
 51
17.303269
  0
ARC
  5
2CF
330
240
100
AcDbEntity
  8
0
  6
Continuous
 62
     0
370
    30
100
AcDbCircle
 10
210.267182
 20
1236.026348
 30
0.0
 40
1.799999999999942
100
AcDbArc
 50
27.303269
 51
207.303269
  0
ARC
  5
2D0
330
240
100
AcDbEntity
  8
0
  6
Continuous
 62
     0
370
    30
100
AcDbCircle
 10
210.267182
 20
1236.026348
 30
0.0
 40
1.799999999999954
100
AcDbArc
 50
207.303269
 51
27.303269
  0
ARC
  5
2D1
330
240
100
AcDbEntity
  8
0
  6
Continuous
 62
     0
370
    30
100
AcDbCircle
 10
186.562328
 20
1223.805443
 30
0.0
 40
1.799999999999763
100
AcDbArc
 50
37.303269
 51
217.303269
  0
ARC
  5
2D2
330
240
100
AcDbEntity
  8
0
  6
Continuous
 62
     0
370
    30
100
AcDbCircle
 10
186.562328
 20
1223.805443
 30
0.0
 40
1.799999999999734
100
AcDbArc
 50
217.303269
 51
37.303269
  0
ARC
  5
2D3
330
240
100
AcDbEntity
  8
0
  6
Continuous
 62
     0
370
    30
100
AcDbCircle
 10
165.339742
 20
1207.653897
 30
0.0
 40
1.799999999999948
100
AcDbArc
 50
47.303269
 51
227.303269
  0
ARC
  5
2D4
330
240
100
AcDbEntity
  8
0
  6
Continuous
 62
     0
370
    30
100
AcDbCircle
 10
165.339742
 20
1207.653897
 30
0.0
 40
1.799999999999965
100
AcDbArc
 50
227.303269
 51
47.303269
  0
ARC
  5
2D5
330
240
100
AcDbEntity
  8
0
  6
Continuous
 62
     0
370
    30
100
AcDbCircle
 10
147.244261
 20
1188.062465
 30
0.0
 40
1.799999999999728
100
AcDbArc
 50
57.303269
 51
237.303269
  0
ARC
  5
2D6
330
240
100
AcDbEntity
  8
0
  6
Continuous
 62
     0
370
    30
100
AcDbCircle
 10
147.244261
 20
1188.062465
 30
0.0
 40
1.79999999999972
100
AcDbArc
 50
237.303269
 51
57.303269
  0
ARC
  5
2D7
330
240
100
AcDbEntity
  8
0
  6
Continuous
 62
     0
370
    30
100
AcDbCircle
 10
132.825708
 20
1165.626424
 30
0.0
 40
1.800000000000101
100
AcDbArc
 50
67.303269
 51
247.303269
  0
ARC
  5
2D8
330
240
100
AcDbEntity
  8
0
  6
Continuous
 62
     0
370
    30
100
AcDbCircle
 10
132.825708
 20
1165.626424
 30
0.0
 40
1.800000000000115
100
AcDbArc
 50
247.303269
 51
67.303269
  0
ARC
  5
2D9
330
240
100
AcDbEntity
  8
0
  6
Continuous
 62
     0
370
    30
100
AcDbCircle
 10
122.522182
 20
1141.027481
 30
0.0
 40
1.79999999999973
100
AcDbArc
 50
77.303269
 51
257.303269
  0
ARC
  5
2DA
330
240
100
AcDbEntity
  8
0
  6
Continuous
 62
     0
370
    30
100
AcDbCircle
 10
122.522182
 20
1141.027481
 30
0.0
 40
1.799999999999737
100
AcDbArc
 50
257.303269
 51
77.303269
  0
ARC
  5
2DB
330
240
100
AcDbEntity
  8
0
  6
Continuous
 62
     0
370
    30
100
AcDbCircle
 10
116.646752
 20
1115.013063
 30
0.0
 40
1.799999999999634
100
AcDbArc
 50
87.303269
 51
267.303269
  0
ARC
  5
2DC
330
240
100
AcDbEntity
  8
0
  6
Continuous
 62
     0
370
    30
100
AcDbCircle
 10
116.646752
 20
1115.013063
 30
0.0
 40
1.799999999999632
100
AcDbArc
 50
267.303269
 51
87.303269
  0
ARC
  5
2DD
330
240
100
AcDbEntity
  8
0
  6
Continuous
 62
     0
370
    30
100
AcDbCircle
 10
138.295263
 20
1091.310711
 30
0.0
 40
1.800000000000249
100
AcDbArc
 50
97.303269
 51
277.303269
  0
ARC
  5
2DE
330
240
100
AcDbEntity
  8
0
  6
Continuous
 62
     0
370
    30
100
AcDbCircle
 10
138.295263
 20
1091.310711
 30
0.0
 40
1.80000000000025
100
AcDbArc
 50
277.303269
 51
97.303269
  0
ARC
  5
2DF
330
240
100
AcDbEntity
  8
0
  6
Continuous
 62
     0
370
    30
100
AcDbCircle
 10
141.78629
 20
1064.35846
 30
0.0
 40
1.800000000000107
100
AcDbArc
 50
109.303269
 51
289.303269
  0
ARC
  5
2E0
330
240
100
AcDbEntity
  8
0
  6
Continuous
 62
     0
370
    30
100
AcDbCircle
 10
141.78629
 20
1064.35846
 30
0.0
 40
1.80000000000011
100
AcDbArc
 50
289.303269
 51
109.303269
  0
ARC
  5
2E1
330
240
100
AcDbEntity
  8
0
  6
Continuous
 62
     0
370
    30
100
AcDbCircle
 10
150.804717
 20
1038.721006
 30
0.0
 40
1.799999999999646
100
AcDbArc
 50
121.303269
 51
301.303269
  0
ARC
  5
2E2
330
240
100
AcDbEntity
  8
0
  6
Continuous
 62
     0
370
    30
100
AcDbCircle
 10
150.804717
 20
1038.721006
 30
0.0
 40
1.799999999999639
100
AcDbArc
 50
301.303269
 51
121.303269
  0
ARC
  5
2E3
330
240
100
AcDbEntity
  8
0
  6
Continuous
 62
     0
370
    30
100
AcDbCircle
 10
164.956396
 20
1015.518828
 30
0.0
 40
1.799999999999883
100
AcDbArc
 50
133.303269
 51
313.303269
  0
ARC
  5
2E4
330
240
100
AcDbEntity
  8
0
  6
Continuous
 62
     0
370
    30
100
AcDbCircle
 10
164.956396
 20
1015.518828
 30
0.0
 40
1.799999999999902
100
AcDbArc
 50
313.303269
 51
133.303269
  0
ARC
  5
2E5
330
240
100
AcDbEntity
  8
0
  6
Continuous
 62
     0
370
    30
100
AcDbCircle
 10
183.622831
 20
995.765973
 30
0.0
 40
1.799999999999667
100
AcDbArc
 50
145.303269
 51
325.303269
  0
ARC
  5
2E6
330
240
100
AcDbEntity
  8
0
  6
Continuous
 62
     0
370
    30
100
AcDbCircle
 10
183.622831
 20
995.765973
 30
0.0
 40
1.799999999999686
100
AcDbArc
 50
325.303269
 51
145.303269
  0
ARC
  5
2E7
330
240
100
AcDbEntity
  8
0
  6
Continuous
 62
     0
370
    30
100
AcDbCircle
 10
205.98821
 20
980.325735
 30
0.0
 40
1.80000000000012
100
AcDbArc
 50
157.303269
 51
337.303269
  0
ARC
  5
2E8
330
240
100
AcDbEntity
  8
0
  6
Continuous
 62
     0
370
    30
100
AcDbCircle
 10
205.98821
 20
980.325735
 30
0.0
 40
1.800000000000121
100
AcDbArc
 50
337.303269
 51
157.303269
  0
ARC
  5
2E9
330
240
100
AcDbEntity
  8
0
  6
Continuous
 62
     0
370
    30
100
AcDbCircle
 10
231.075057
 20
969.872927
 30
0.0
 40
1.799999999999729
100
AcDbArc
 50
169.303269
 51
349.303269
  0
ARC
  5
2EA
330
240
100
AcDbEntity
  8
0
  6
Continuous
 62
     0
370
    30
100
AcDbCircle
 10
231.075057
 20
969.872927
 30
0.0
 40
1.799999999999719
100
AcDbArc
 50
349.303269
 51
169.303269
  0
ARC
  5
2EB
330
240
100
AcDbEntity
  8
0
  6
Continuous
 62
     0
370
    30
100
AcDbCircle
 10
257.786957
 20
964.864387
 30
0.0
 40
1.800000000000173
100
AcDbArc
 50
181.303269
 51
1.303269
  0
ARC
  5
2EC
330
240
100
AcDbEntity
  8
0
  6
Continuous
 62
     0
370
    30
100
AcDbCircle
 10
257.786957
 20
964.864387
 30
0.0
 40
1.80000000000017
100
AcDbArc
 50
1.303269
 51
181.303269
  0
ARC
  5
2ED
330
240
100
AcDbEntity
  8
0
  6
Continuous
 62
     0
370
    30
100
AcDbCircle
 10
284.956473
 20
965.519012
 30
0.0
 40
1.799999999999629
100
AcDbArc
 50
193.303269
 51
13.303269
  0
ARC
  5
2EE
330
240
100
AcDbEntity
  8
0
  6
Continuous
 62
     0
370
    30
100
AcDbCircle
 10
284.956473
 20
965.519012
 30
0.0
 40
1.799999999999625
100
AcDbArc
 50
13.303269
 51
193.303269
  0
ARC
  5
2EF
330
240
100
AcDbEntity
  8
0
  6
Continuous
 62
     0
370
    30
100
AcDbCircle
 10
311.396165
 20
971.808191
 30
0.0
 40
1.799999999999777
100
AcDbArc
 50
205.303269
 51
25.303269
  0
ARC
  5
2F0
330
240
100
AcDbEntity
  8
0
  6
Continuous
 62
     0
370
    30
100
AcDbCircle
 10
311.396165
 20
971.808191
 30
0.0
 40
1.79999999999978
100
AcDbArc
 50
25.303269
 51
205.303269
  0
ARC
  5
2F1
330
240
100
AcDbEntity
  8
0
  6
Continuous
 62
     0
370
    30
100
AcDbCircle
 10
335.950492
 20
983.457058
 30
0.0
 40
1.799999999999721
100
AcDbArc
 50
217.303269
 51
37.303269
  0
ARC
  5
2F2
330
240
100
AcDbEntity
  8
0
  6
Continuous
 62
     0
370
    30
100
AcDbCircle
 10
335.950492
 20
983.457058
 30
0.0
 40
1.799999999999734
100
AcDbArc
 50
37.303269
 51
217.303269
  0
ARC
  5
2F3
330
240
100
AcDbEntity
  8
0
  6
Continuous
 62
     0
370
    30
100
AcDbCircle
 10
357.546313
 20
999.956501
 30
0.0
 40
1.800000000000065
100
AcDbArc
 50
229.303269
 51
49.303269
  0
ARC
  5
2F4
330
240
100
AcDbEntity
  8
0
  6
Continuous
 62
     0
370
    30
100
AcDbCircle
 10
357.546313
 20
999.956501
 30
0.0
 40
1.800000000000044
100
AcDbArc
 50
49.303269
 51
229.303269
  0
ARC
  5
2F5
330
240
100
AcDbEntity
  8
0
  6
Continuous
 62
     0
370
    30
100
AcDbCircle
 10
375.239786
 20
1020.585415
 30
0.0
 40
1.799999999999845
100
AcDbArc
 50
241.303269
 51
61.303269
  0
ARC
  5
2F6
330
240
100
AcDbEntity
  8
0
  6
Continuous
 62
     0
370
    30
100
AcDbCircle
 10
375.239786
 20
1020.585415
 30
0.0
 40
1.799999999999861
100
AcDbArc
 50
61.303269
 51
241.303269
  0
ARC
  5
2F7
330
240
100
AcDbEntity
  8
0
  6
Continuous
 62
     0
370
    30
100
AcDbCircle
 10
388.257622
 20
1044.442218
 30
0.0
 40
1.800000000000001
100
AcDbArc
 50
253.303269
 51
73.303269
  0
ARC
  5
2F8
330
240
100
AcDbEntity
  8
0
  6
Continuous
 62
     0
370
    30
100
AcDbCircle
 10
388.257622
 20
1044.442218
 30
0.0
 40
1.800000000000005
100
AcDbArc
 50
73.303269
 51
253.303269
  0
ARC
  5
2F9
330
240
100
AcDbEntity
  8
0
  6
Continuous
 62
     0
370
    30
100
AcDbCircle
 10
396.030879
 20
1070.484253
 30
0.0
 40
1.800000000000048
100
AcDbArc
 50
265.303269
 51
85.303269
  0
ARC
  5
2FA
330
240
100
AcDbEntity
  8
0
  6
Continuous
 62
     0
370
    30
100
AcDbCircle
 10
396.030879
 20
1070.484253
 30
0.0
 40
1.800000000000051
100
AcDbArc
 50
85.303269
 51
265.303269
  0
ARC
  5
2FB
330
240
100
AcDbEntity
  8
0
  6
Continuous
 62
     0
370
    30
100
AcDbCircle
 10
398.219828
 20
1097.573358
 30
0.0
 40
1.800000000000252
100
AcDbArc
 50
277.303269
 51
97.303269
  0
ARC
  5
2FC
330
240
100
AcDbEntity
  8
0
  6
Continuous
 62
     0
370
    30
100
AcDbCircle
 10
398.219828
 20
1097.573358
 30
0.0
 40
1.800000000000248
100
AcDbArc
 50
97.303269
 51
277.303269
  0
ARC
  5
2FD
330
240
100
AcDbEntity
  8
0
  6
Continuous
 62
     0
370
    30
100
AcDbCircle
 10
394.728801
 20
1124.525609
 30
0.0
 40
1.800000000000102
100
AcDbArc
 50
289.303269
 51
109.303269
  0
ARC
  5
2FE
330
240
100
AcDbEntity
  8
0
  6
Continuous
 62
     0
370
    30
100
AcDbCircle
 10
394.728801
 20
1124.525609
 30
0.0
 40
1.800000000000102
100
AcDbArc
 50
109.303269
 51
289.303269
  0
ARC
  5
2FF
330
240
100
AcDbEntity
  8
0
  6
Continuous
 62
     0
370
    30
100
AcDbCircle
 10
385.710374
 20
1150.163063
 30
0.0
 40
1.799999999999639
100
AcDbArc
 50
301.303269
 51
121.303269
  0
ARC
  5
300
330
240
100
AcDbEntity
  8
0
  6
Continuous
 62
     0
370
    30
100
AcDbCircle
 10
385.710374
 20
1150.163063
 30
0.0
 40
1.799999999999635
100
AcDbArc
 50
121.303269
 51
301.303269
  0
ARC
  5
301
330
240
100
AcDbEntity
  8
0
  6
Continuous
 62
     0
370
    30
100
AcDbCircle
 10
371.558695
 20
1173.365241
 30
0.0
 40
1.799999999999905
100
AcDbArc
 50
313.303269
 51
133.303269
  0
ARC
  5
302
330
240
100
AcDbEntity
  8
0
  6
Continuous
 62
     0
370
    30
100
AcDbCircle
 10
371.558695
 20
1173.365241
 30
0.0
 40
1.79999999999992
100
AcDbArc
 50
133.303269
 51
313.303269
  0
ARC
  5
303
330
240
100
AcDbEntity
  8
0
  6
Continuous
 62
     0
370
    30
100
AcDbCircle
 10
352.892259
 20
1193.118096
 30
0.0
 40
1.799999999999701
100
AcDbArc
 50
325.303269
 51
145.303269
  0
ARC
  5
304
330
240
100
AcDbEntity
  8
0
  6
Continuous
 62
     0
370
    30
100
AcDbCircle
 10
352.892259
 20
1193.118096
 30
0.0
 40
1.799999999999684
100
AcDbArc
 50
145.303269
 51
325.303269
  0
ARC
  5
305
330
240
100
AcDbEntity
  8
0
  6
Continuous
 62
     0
370
    30
100
AcDbCircle
 10
330.526881
 20
1208.558334
 30
0.0
 40
1.800000000000114
100
AcDbArc
 50
337.303269
 51
157.303269
  0
ARC
  5
306
330
240
100
AcDbEntity
  8
0
  6
Continuous
 62
     0
370
    30
100
AcDbCircle
 10
330.526881
 20
1208.558334
 30
0.0
 40
1.800000000000129
100
AcDbArc
 50
157.303269
 51
337.303269
  0
ARC
  5
307
330
240
100
AcDbEntity
  8
0
  6
Continuous
 62
     0
370
    30
100
AcDbCircle
 10
305.440034
 20
1219.011142
 30
0.0
 40
1.799999999999721
100
AcDbArc
 50
349.303269
 51
169.303269
  0
ARC
  5
308
330
240
100
AcDbEntity
  8
0
  6
Continuous
 62
     0
370
    30
100
AcDbCircle
 10
305.440034
 20
1219.011142
 30
0.0
 40
1.799999999999737
100
AcDbArc
 50
169.303269
 51
349.303269
  0
ARC
  5
309
330
240
100
AcDbEntity
  8
0
  6
Continuous
 62
     0
370
    30
100
AcDbCircle
 10
278.728133
 20
1224.019682
 30
0.0
 40
1.800000000000171
100
AcDbArc
 50
1.303269
 51
181.303269
  0
ARC
  5
30A
330
240
100
AcDbEntity
  8
0
  6
Continuous
 62
     0
370
    30
100
AcDbCircle
 10
278.728133
 20
1224.019682
 30
0.0
 40
1.800000000000172
100
AcDbArc
 50
181.303269
 51
1.303269
  0
ARC
  5
30B
330
240
100
AcDbEntity
  8
0
  6
Continuous
 62
     0
370
    30
100
AcDbCircle
 10
251.558618
 20
1223.365057
 30
0.0
 40
1.799999999999632
100
AcDbArc
 50
13.303269
 51
193.303269
  0
ARC
  5
30C
330
240
100
AcDbEntity
  8
0
  6
Continuous
 62
     0
370
    30
100
AcDbCircle
 10
251.558618
 20
1223.365057
 30
0.0
 40
1.799999999999633
100
AcDbArc
 50
193.303269
 51
13.303269
  0
ARC
  5
30D
330
240
100
AcDbEntity
  8
0
  6
Continuous
 62
     0
370
    30
100
AcDbCircle
 10
225.118926
 20
1217.075878
 30
0.0
 40
1.799999999999785
100
AcDbArc
 50
25.303269
 51
205.303269
  0
ARC
  5
30E
330
240
100
AcDbEntity
  8
0
  6
Continuous
 62
     0
370
    30
100
AcDbCircle
 10
225.118926
 20
1217.075878
 30
0.0
 40
1.799999999999789
100
AcDbArc
 50
205.303269
 51
25.303269
  0
ARC
  5
30F
330
240
100
AcDbEntity
  8
0
  6
Continuous
 62
     0
370
    30
100
AcDbCircle
 10
200.564599
 20
1205.427011
 30
0.0
 40
1.799999999999734
100
AcDbArc
 50
37.303269
 51
217.303269
  0
ARC
  5
310
330
240
100
AcDbEntity
  8
0
  6
Continuous
 62
     0
370
    30
100
AcDbCircle
 10
200.564599
 20
1205.427011
 30
0.0
 40
1.799999999999747
100
AcDbArc
 50
217.303269
 51
37.303269
  0
ARC
  5
311
330
240
100
AcDbEntity
  8
0
  6
Continuous
 62
     0
370
    30
100
AcDbCircle
 10
178.968778
 20
1188.927568
 30
0.0
 40
1.800000000000054
100
AcDbArc
 50
49.303269
 51
229.303269
  0
ARC
  5
312
330
240
100
AcDbEntity
  8
0
  6
Continuous
 62
     0
370
    30
100
AcDbCircle
 10
178.968778
 20
1188.927568
 30
0.0
 40
1.800000000000062
100
AcDbArc
 50
229.303269
 51
49.303269
  0
ARC
  5
313
330
240
100
AcDbEntity
  8
0
  6
Continuous
 62
     0
370
    30
100
AcDbCircle
 10
161.275305
 20
1168.298653
 30
0.0
 40
1.799999999999861
100
AcDbArc
 50
61.303269
 51
241.303269
  0
ARC
  5
314
330
240
100
AcDbEntity
  8
0
  6
Continuous
 62
     0
370
    30
100
AcDbCircle
 10
161.275305
 20
1168.298653
 30
0.0
 40
1.79999999999988
100
AcDbArc
 50
241.303269
 51
61.303269
  0
ARC
  5
315
330
240
100
AcDbEntity
  8
0
  6
Continuous
 62
     0
370
    30
100
AcDbCircle
 10
148.257469
 20
1144.441851
 30
0.0
 40
1.800000000000005
100
AcDbArc
 50
73.303269
 51
253.303269
  0
ARC
  5
316
330
240
100
AcDbEntity
  8
0
  6
Continuous
 62
     0
370
    30
100
AcDbCircle
 10
148.257469
 20
1144.441851
 30
0.0
 40
1.800000000000004
100
AcDbArc
 50
253.303269
 51
73.303269
  0
ARC
  5
317
330
240
100
AcDbEntity
  8
0
  6
Continuous
 62
     0
370
    30
100
AcDbCircle
 10
140.484212
 20
1118.399816
 30
0.0
 40
1.800000000000052
100
AcDbArc
 50
85.303269
 51
265.303269
  0
ARC
  5
318
330
240
100
AcDbEntity
  8
0
  6
Continuous
 62
     0
370
    30
100
AcDbCircle
 10
140.484212
 20
1118.399816
 30
0.0
 40
1.800000000000049
100
AcDbArc
 50
265.303269
 51
85.303269
  0
ARC
  5
319
330
240
100
AcDbEntity
  8
0
  6
Continuous
 62
     0
370
    30
100
AcDbCircle
 10
161.257711
 20
1094.2536
 30
0.0
 40
1.800000000000252
100
AcDbArc
 50
97.303269
 51
277.303269
  0
ARC
  5
31A
330
240
100
AcDbEntity
  8
0
  6
Continuous
 62
     0
370
    30
100
AcDbCircle
 10
161.257711
 20
1094.2536
 30
0.0
 40
1.800000000000247
100
AcDbArc
 50
277.303269
 51
97.303269
  0
ARC
  5
31B
330
240
100
AcDbEntity
  8
0
  6
Continuous
 62
     0
370
    30
100
AcDbCircle
 10
164.952413
 20
1066.566426
 30
0.0
 40
1.800000000000253
100
AcDbArc
 50
112.303269
 51
292.303269
  0
ARC
  5
31C
330
240
100
AcDbEntity
  8
0
  6
Continuous
 62
     0
370
    30
100
AcDbCircle
 10
164.952413
 20
1066.566426
 30
0.0
 40
1.800000000000248
100
AcDbArc
 50
292.303269
 51
112.303269
  0
ARC
  5
31D
330
240
100
AcDbEntity
  8
0
  6
Continuous
 62
     0
370
    30
100
AcDbCircle
 10
175.687188
 20
1040.778928
 30
0.0
 40
1.799999999999744
100
AcDbArc
 50
127.303269
 51
307.303269
  0
ARC
  5
31E
330
240
100
AcDbEntity
  8
0
  6
Continuous
 62
     0
370
    30
100
AcDbCircle
 10
175.687188
 20
1040.778928
 30
0.0
 40
1.799999999999732
100
AcDbArc
 50
307.303269
 51
127.303269
  0
ARC
  5
31F
330
240
100
AcDbEntity
  8
0
  6
Continuous
 62
     0
370
    30
100
AcDbCircle
 10
192.73048
 20
1018.648483
 30
0.0
 40
1.800000000000234
100
AcDbArc
 50
142.303269
 51
322.303269
  0
ARC
  5
320
330
240
100
AcDbEntity
  8
0
  6
Continuous
 62
     0
370
    30
100
AcDbCircle
 10
192.73048
 20
1018.648483
 30
0.0
 40
1.800000000000232
100
AcDbArc
 50
322.303269
 51
142.303269
  0
ARC
  5
321
330
240
100
AcDbEntity
  8
0
  6
Continuous
 62
     0
370
    30
100
AcDbCircle
 10
214.920817
 20
1001.683243
 30
0.0
 40
1.800000000000114
100
AcDbArc
 50
157.303269
 51
337.303269
  0
ARC
  5
322
330
240
100
AcDbEntity
  8
0
  6
Continuous
 62
     0
370
    30
100
AcDbCircle
 10
214.920817
 20
1001.683243
 30
0.0
 40
1.800000000000118
100
AcDbArc
 50
337.303269
 51
157.303269
  0
ARC
  5
323
330
240
100
AcDbEntity
  8
0
  6
Continuous
 62
     0
370
    30
100
AcDbCircle
 10
240.745964
 20
991.039361
 30
0.0
 40
1.799999999999959
100
AcDbArc
 50
172.303269
 51
352.303269
  0
ARC
  5
324
330
240
100
AcDbEntity
  8
0
  6
Continuous
 62
     0
370
    30
100
AcDbCircle
 10
240.745964
 20
991.039361
 30
0.0
 40
1.799999999999958
100
AcDbArc
 50
352.303269
 51
172.303269
  0
ARC
  5
325
330
240
100
AcDbEntity
  8
0
  6
Continuous
 62
     0
370
    30
100
AcDbCircle
 10
268.44598
 20
987.4422
 30
0.0
 40
1.800000000000251
100
AcDbArc
 50
187.303269
 51
7.303269
  0
ARC
  5
326
330
240
100
AcDbEntity
  8
0
  6
Continuous
 62
     0
370
    30
100
AcDbCircle
 10
268.44598
 20
987.4422
 30
0.0
 40
1.800000000000249
100
AcDbArc
 50
7.303269
 51
187.303269
  0
ARC
  5
327
330
240
100
AcDbEntity
  8
0
  6
Continuous
 62
     0
370
    30
100
AcDbCircle
 10
296.133154
 20
991.136902
 30
0.0
 40
1.800000000000251
100
AcDbArc
 50
202.303269
 51
22.303269
  0
ARC
  5
328
330
240
100
AcDbEntity
  8
0
  6
Continuous
 62
     0
370
    30
100
AcDbCircle
 10
296.133154
 20
991.136902
 30
0.0
 40
1.800000000000247
100
AcDbArc
 50
22.303269
 51
202.303269
  0
ARC
  5
329
330
240
100
AcDbEntity
  8
0
  6
Continuous
 62
     0
370
    30
100
AcDbCircle
 10
321.920652
 20
1001.871677
 30
0.0
 40
1.799999999999752
100
AcDbArc
 50
217.303269
 51
37.303269
  0
ARC
  5
32A
330
240
100
AcDbEntity
  8
0
  6
Continuous
 62
     0
370
    30
100
AcDbCircle
 10
321.920652
 20
1001.871677
 30
0.0
 40
1.79999999999976
100
AcDbArc
 50
37.303269
 51
217.303269
  0
ARC
  5
32B
330
240
100
AcDbEntity
  8
0
  6
Continuous
 62
     0
370
    30
100
AcDbCircle
 10
344.051097
 20
1018.914969
 30
0.0
 40
1.800000000000259
100
AcDbArc
 50
232.303269
 51
52.303269
  0
ARC
  5
32C
330
240
100
AcDbEntity
  8
0
  6
Continuous
 62
     0
370
    30
100
AcDbCircle
 10
344.051097
 20
1018.914969
 30
0.0
 40
1.800000000000241
100
AcDbArc
 50
52.303269
 51
232.303269
  0
ARC
  5
32D
330
240
100
AcDbEntity
  8
0
  6
Continuous
 62
     0
370
    30
100
AcDbCircle
 10
361.016337
 20
1041.105306
 30
0.0
 40
1.800000000000107
100
AcDbArc
 50
247.303269
 51
67.303269
  0
ARC
  5
32E
330
240
100
AcDbEntity
  8
0
  6
Continuous
 62
     0
370
    30
100
AcDbCircle
 10
361.016337
 20
1041.105306
 30
0.0
 40
1.800000000000109
100
AcDbArc
 50
67.303269
 51
247.303269
  0
ARC
  5
32F
330
240
100
AcDbEntity
  8
0
  6
Continuous
 62
     0
370
    30
100
AcDbCircle
 10
371.660219
 20
1066.930453
 30
0.0
 40
1.799999999999958
100
AcDbArc
 50
262.303269
 51
82.303269
  0
ARC
  5
330
330
240
100
AcDbEntity
  8
0
  6
Continuous
 62
     0
370
    30
100
AcDbCircle
 10
371.660219
 20
1066.930453
 30
0.0
 40
1.799999999999958
100
AcDbArc
 50
82.303269
 51
262.303269
  0
ARC
  5
331
330
240
100
AcDbEntity
  8
0
  6
Continuous
 62
     0
370
    30
100
AcDbCircle
 10
375.25738
 20
1094.630469
 30
0.0
 40
1.800000000000246
100
AcDbArc
 50
277.303269
 51
97.303269
  0
ARC
  5
332
330
240
100
AcDbEntity
  8
0
  6
Continuous
 62
     0
370
    30
100
AcDbCircle
 10
375.25738
 20
1094.630469
 30
0.0
 40
1.800000000000251
100
AcDbArc
 50
97.303269
 51
277.303269
  0
ARC
  5
333
330
240
100
AcDbEntity
  8
0
  6
Continuous
 62
     0
370
    30
100
AcDbCircle
 10
371.562678
 20
1122.317643
 30
0.0
 40
1.800000000000255
100
AcDbArc
 50
292.303269
 51
112.303269
  0
ARC
  5
334
330
240
100
AcDbEntity
  8
0
  6
Continuous
 62
     0
370
    30
100
AcDbCircle
 10
371.562678
 20
1122.317643
 30
0.0
 40
1.800000000000247
100
AcDbArc
 50
112.303269
 51
292.303269
  0
ARC
  5
335
330
240
100
AcDbEntity
  8
0
  6
Continuous
 62
     0
370
    30
100
AcDbCircle
 10
360.827903
 20
1148.10514
 30
0.0
 40
1.799999999999753
100
AcDbArc
 50
307.303269
 51
127.303269
  0
ARC
  5
336
330
240
100
AcDbEntity
  8
0
  6
Continuous
 62
     0
370
    30
100
AcDbCircle
 10
360.827903
 20
1148.10514
 30
0.0
 40
1.799999999999745
100
AcDbArc
 50
127.303269
 51
307.303269
  0
ARC
  5
337
330
240
100
AcDbEntity
  8
0
  6
Continuous
 62
     0
370
    30
100
AcDbCircle
 10
343.78461
 20
1170.235586
 30
0.0
 40
1.800000000000242
100
AcDbArc
 50
322.303269
 51
142.303269
  0
ARC
  5
338
330
240
100
AcDbEntity
  8
0
  6
Continuous
 62
     0
370
    30
100
AcDbCircle
 10
343.78461
 20
1170.235586
 30
0.0
 40
1.800000000000256
100
AcDbArc
 50
142.303269
 51
322.303269
  0
ARC
  5
339
330
240
100
AcDbEntity
  8
0
  6
Continuous
 62
     0
370
    30
100
AcDbCircle
 10
321.594273
 20
1187.200826
 30
0.0
 40
1.800000000000122
100
AcDbArc
 50
337.303269
 51
157.303269
  0
ARC
  5
33A
330
240
100
AcDbEntity
  8
0
  6
Continuous
 62
     0
370
    30
100
AcDbCircle
 10
321.594273
 20
1187.200826
 30
0.0
 40
1.800000000000111
100
AcDbArc
 50
157.303269
 51
337.303269
  0
ARC
  5
33B
330
240
100
AcDbEntity
  8
0
  6
Continuous
 62
     0
370
    30
100
AcDbCircle
 10
295.769127
 20
1197.844708
 30
0.0
 40
1.799999999999965
100
AcDbArc
 50
352.303269
 51
172.303269
  0
ARC
  5
33C
330
240
100
AcDbEntity
  8
0
  6
Continuous
 62
     0
370
    30
100
AcDbCircle
 10
295.769127
 20
1197.844708
 30
0.0
 40
1.799999999999964
100
AcDbArc
 50
172.303269
 51
352.303269
  0
ARC
  5
33D
330
240
100
AcDbEntity
  8
0
  6
Continuous
 62
     0
370
    30
100
AcDbCircle
 10
268.069111
 20
1201.441868
 30
0.0
 40
1.800000000000251
100
AcDbArc
 50
7.303269
 51
187.303269
  0
ARC
  5
33E
330
240
100
AcDbEntity
  8
0
  6
Continuous
 62
     0
370
    30
100
AcDbCircle
 10
268.069111
 20
1201.441868
 30
0.0
 40
1.800000000000255
100
AcDbArc
 50
187.303269
 51
7.303269
  0
ARC
  5
33F
330
240
100
AcDbEntity
  8
0
  6
Continuous
 62
     0
370
    30
100
AcDbCircle
 10
240.381937
 20
1197.747167
 30
0.0
 40
1.800000000000255
100
AcDbArc
 50
22.303269
 51
202.303269
  0
ARC
  5
340
330
240
100
AcDbEntity
  8
0
  6
Continuous
 62
     0
370
    30
100
AcDbCircle
 10
240.381937
 20
1197.747167
 30
0.0
 40
1.800000000000246
100
AcDbArc
 50
202.303269
 51
22.303269
  0
ARC
  5
341
330
240
100
AcDbEntity
  8
0
  6
Continuous
 62
     0
370
    30
100
AcDbCircle
 10
214.594439
 20
1187.012392
 30
0.0
 40
1.799999999999746
100
AcDbArc
 50
37.303269
 51
217.303269
  0
ARC
  5
342
330
240
100
AcDbEntity
  8
0
  6
Continuous
 62
     0
370
    30
100
AcDbCircle
 10
214.594439
 20
1187.012392
 30
0.0
 40
1.799999999999745
100
AcDbArc
 50
217.303269
 51
37.303269
  0
ARC
  5
343
330
240
100
AcDbEntity
  8
0
  6
Continuous
 62
     0
370
    30
100
AcDbCircle
 10
192.463994
 20
1169.969099
 30
0.0
 40
1.800000000000245
100
AcDbArc
 50
52.303269
 51
232.303269
  0
ARC
  5
344
330
240
100
AcDbEntity
  8
0
  6
Continuous
 62
     0
370
    30
100
AcDbCircle
 10
192.463994
 20
1169.969099
 30
0.0
 40
1.800000000000223
100
AcDbArc
 50
232.303269
 51
52.303269
  0
ARC
  5
345
330
240
100
AcDbEntity
  8
0
  6
Continuous
 62
     0
370
    30
100
AcDbCircle
 10
175.498754
 20
1147.778762
 30
0.0
 40
1.80000000000012
100
AcDbArc
 50
67.303269
 51
247.303269
  0
ARC
  5
346
330
240
100
AcDbEntity
  8
0
  6
Continuous
 62
     0
370
    30
100
AcDbCircle
 10
175.498754
 20
1147.778762
 30
0.0
 40
1.800000000000111
100
AcDbArc
 50
247.303269
 51
67.303269
  0
ARC
  5
347
330
240
100
AcDbEntity
  8
0
  6
Continuous
 62
     0
370
    30
100
AcDbCircle
 10
164.854872
 20
1121.953616
 30
0.0
 40
1.799999999999956
100
AcDbArc
 50
82.303269
 51
262.303269
  0
ARC
  5
348
330
240
100
AcDbEntity
  8
0
  6
Continuous
 62
     0
370
    30
100
AcDbCircle
 10
164.854872
 20
1121.953616
 30
0.0
 40
1.799999999999957
100
AcDbArc
 50
262.303269
 51
82.303269
  0
ARC
  5
349
330
240
100
AcDbEntity
  8
0
  6
Continuous
 62
     0
370
    30
100
AcDbCircle
 10
184.303068
 20
1097.207114
 30
0.0
 40
1.80000000000025
100
AcDbArc
 50
97.303269
 51
277.303269
  0
ARC
  5
34A
330
240
100
AcDbEntity
  8
0
  6
Continuous
 62
     0
370
    30
100
AcDbCircle
 10
184.303068
 20
1097.207114
 30
0.0
 40
1.800000000000251
100
AcDbArc
 50
277.303269
 51
97.303269
  0
ARC
  5
34B
330
240
100
AcDbEntity
  8
0
  6
Continuous
 62
     0
370
    30
100
AcDbCircle
 10
188.420429
 20
1068.326237
 30
0.0
 40
1.799999999999957
100
AcDbArc
 50
117.303269
 51
297.303269
  0
ARC
  5
34C
330
240
100
AcDbEntity
  8
0
  6
Continuous
 62
     0
370
    30
100
AcDbCircle
 10
188.420429
 20
1068.326237
 30
0.0
 40
1.799999999999963
100
AcDbArc
 50
297.303269
 51
117.303269
  0
ARC
  5
34D
330
240
100
AcDbEntity
  8
0
  6
Continuous
 62
     0
370
    30
100
AcDbCircle
 10
202.167325
 20
1042.595311
 30
0.0
 40
1.799999999999942
100
AcDbArc
 50
137.303269
 51
317.303269
  0
ARC
  5
34E
330
240
100
AcDbEntity
  8
0
  6
Continuous
 62
     0
370
    30
100
AcDbCircle
 10
202.167325
 20
1042.595311
 30
0.0
 40
1.799999999999933
100
AcDbArc
 50
317.303269
 51
137.303269
  0
ARC
  5
34F
330
240
100
AcDbEntity
  8
0
  6
Continuous
 62
     0
370
    30
100
AcDbCircle
 10
223.885677
 20
1023.117864
 30
0.0
 40
1.800000000000106
100
AcDbArc
 50
157.303269
 51
337.303269
  0
ARC
  5
350
330
240
100
AcDbEntity
  8
0
  6
Continuous
 62
     0
370
    30
100
AcDbCircle
 10
223.885677
 20
1023.117864
 30
0.0
 40
1.800000000000113
100
AcDbArc
 50
337.303269
 51
157.303269
  0
ARC
  5
351
330
240
100
AcDbEntity
  8
0
  6
Continuous
 62
     0
370
    30
100
AcDbCircle
 10
250.955931
 20
1012.243165
 30
0.0
 40
1.799999999999637
100
AcDbArc
 50
177.303269
 51
357.303269
  0
ARC
  5
352
330
240
100
AcDbEntity
  8
0
  6
Continuous
 62
     0
370
    30
100
AcDbCircle
 10
250.955931
 20
1012.243165
 30
0.0
 40
1.799999999999637
100
AcDbArc
 50
357.303269
 51
177.303269
  0
ARC
  5
353
330
240
100
AcDbEntity
  8
0
  6
Continuous
 62
     0
370
    30
100
AcDbCircle
 10
280.113015
 20
1011.282863
 30
0.0
 40
1.800000000000402
100
AcDbArc
 50
197.303269
 51
17.303269
  0
ARC
  5
354
330
240
100
AcDbEntity
  8
0
  6
Continuous
 62
     0
370
    30
100
AcDbCircle
 10
280.113015
 20
1011.282863
 30
0.0
 40
1.8000000000004
100
AcDbArc
 50
17.303269
 51
197.303269
  0
ARC
  5
355
330
240
100
AcDbEntity
  8
0
  6
Continuous
 62
     0
370
    30
100
AcDbCircle
 10
307.840155
 20
1020.352784
 30
0.0
 40
1.79999999999974
100
AcDbArc
 50
217.303269
 51
37.303269
  0
ARC
  5
356
330
240
100
AcDbEntity
  8
0
  6
Continuous
 62
     0
370
    30
100
AcDbCircle
 10
307.840155
 20
1020.352784
 30
0.0
 40
1.79999999999974
100
AcDbArc
 50
37.303269
 51
217.303269
  0
ARC
  5
357
330
240
100
AcDbEntity
  8
0
  6
Continuous
 62
     0
370
    30
100
AcDbCircle
 10
330.793047
 20
1038.358962
 30
0.0
 40
1.799999999999709
100
AcDbArc
 50
237.303269
 51
57.303269
  0
ARC
  5
358
330
240
100
AcDbEntity
  8
0
  6
Continuous
 62
     0
370
    30
100
AcDbCircle
 10
330.793047
 20
1038.358962
 30
0.0
 40
1.799999999999709
100
AcDbArc
 50
57.303269
 51
237.303269
  0
ARC
  5
359
330
240
100
AcDbEntity
  8
0
  6
Continuous
 62
     0
370
    30
100
AcDbCircle
 10
346.203236
 20
1063.129587
 30
0.0
 40
1.799999999999741
100
AcDbArc
 50
257.303269
 51
77.303269
  0
ARC
  5
35A
330
240
100
AcDbEntity
  8
0
  6
Continuous
 62
     0
370
    30
100
AcDbCircle
 10
346.203236
 20
1063.129587
 30
0.0
 40
1.799999999999746
100
AcDbArc
 50
77.303269
 51
257.303269
  0
ARC
  5
35B
330
240
100
AcDbEntity
  8
0
  6
Continuous
 62
     0
370
    30
100
AcDbCircle
 10
352.212023
 20
1091.676954
 30
0.0
 40
1.800000000000251
100
AcDbArc
 50
277.303269
 51
97.303269
  0
ARC
  5
35C
330
240
100
AcDbEntity
  8
0
  6
Continuous
 62
     0
370
    30
100
AcDbCircle
 10
352.212023
 20
1091.676954
 30
0.0
 40
1.800000000000253
100
AcDbArc
 50
97.303269
 51
277.303269
  0
ARC
  5
35D
330
240
100
AcDbEntity
  8
0
  6
Continuous
 62
     0
370
    30
100
AcDbCircle
 10
348.094662
 20
1120.557832
 30
0.0
 40
1.799999999999967
100
AcDbArc
 50
297.303269
 51
117.303269
  0
ARC
  5
35E
330
240
100
AcDbEntity
  8
0
  6
Continuous
 62
     0
370
    30
100
AcDbCircle
 10
348.094662
 20
1120.557832
 30
0.0
 40
1.799999999999962
100
AcDbArc
 50
117.303269
 51
297.303269
  0
ARC
  5
35F
330
240
100
AcDbEntity
  8
0
  6
Continuous
 62
     0
370
    30
100
AcDbCircle
 10
334.347766
 20
1146.288758
 30
0.0
 40
1.799999999999941
100
AcDbArc
 50
317.303269
 51
137.303269
  0
ARC
  5
360
330
240
100
AcDbEntity
  8
0
  6
Continuous
 62
     0
370
    30
100
AcDbCircle
 10
334.347766
 20
1146.288758
 30
0.0
 40
1.799999999999937
100
AcDbArc
 50
137.303269
 51
317.303269
  0
ARC
  5
361
330
240
100
AcDbEntity
  8
0
  6
Continuous
 62
     0
370
    30
100
AcDbCircle
 10
312.629414
 20
1165.766205
 30
0.0
 40
1.800000000000116
100
AcDbArc
 50
337.303269
 51
157.303269
  0
ARC
  5
362
330
240
100
AcDbEntity
  8
0
  6
Continuous
 62
     0
370
    30
100
AcDbCircle
 10
312.629414
 20
1165.766205
 30
0.0
 40
1.800000000000117
100
AcDbArc
 50
157.303269
 51
337.303269
  0
ARC
  5
363
330
240
100
AcDbEntity
  8
0
  6
Continuous
 62
     0
370
    30
100
AcDbCircle
 10
285.55916
 20
1176.640904
 30
0.0
 40
1.799999999999635
100
AcDbArc
 50
357.303269
 51
177.303269
  0
ARC
  5
364
330
240
100
AcDbEntity
  8
0
  6
Continuous
 62
     0
370
    30
100
AcDbCircle
 10
285.55916
 20
1176.640904
 30
0.0
 40
1.799999999999637
100
AcDbArc
 50
177.303269
 51
357.303269
  0
ARC
  5
365
330
240
100
AcDbEntity
  8
0
  6
Continuous
 62
     0
370
    30
100
AcDbCircle
 10
256.402076
 20
1177.601206
 30
0.0
 40
1.800000000000397
100
AcDbArc
 50
17.303269
 51
197.303269
  0
ARC
  5
366
330
240
100
AcDbEntity
  8
0
  6
Continuous
 62
     0
370
    30
100
AcDbCircle
 10
256.402076
 20
1177.601206
 30
0.0
 40
1.800000000000401
100
AcDbArc
 50
197.303269
 51
17.303269
  0
ARC
  5
367
330
240
100
AcDbEntity
  8
0
  6
Continuous
 62
     0
370
    30
100
AcDbCircle
 10
228.674936
 20
1168.531285
 30
0.0
 40
1.79999999999974
100
AcDbArc
 50
37.303269
 51
217.303269
  0
ARC
  5
368
330
240
100
AcDbEntity
  8
0
  6
Continuous
 62
     0
370
    30
100
AcDbCircle
 10
228.674936
 20
1168.531285
 30
0.0
 40
1.799999999999736
100
AcDbArc
 50
217.303269
 51
37.303269
  0
ARC
  5
369
330
240
100
AcDbEntity
  8
0
  6
Continuous
 62
     0
370
    30
100
AcDbCircle
 10
205.722044
 20
1150.525107
 30
0.0
 40
1.799999999999695
100
AcDbArc
 50
57.303269
 51
237.303269
  0
ARC
  5
36A
330
240
100
AcDbEntity
  8
0
  6
Continuous
 62
     0
370
    30
100
AcDbCircle
 10
205.722044
 20
1150.525107
 30
0.0
 40
1.799999999999702
100
AcDbArc
 50
237.303269
 51
57.303269
  0
ARC
  5
36B
330
240
100
AcDbEntity
  8
0
  6
Continuous
 62
     0
370
    30
100
AcDbCircle
 10
190.311855
 20
1125.754482
 30
0.0
 40
1.79999999999974
100
AcDbArc
 50
77.303269
 51
257.303269
  0
ARC
  5
36C
330
240
100
AcDbEntity
  8
0
  6
Continuous
 62
     0
370
    30
100
AcDbCircle
 10
190.311855
 20
1125.754482
 30
0.0
 40
1.799999999999741
100
AcDbArc
 50
257.303269
 51
77.303269
  0
ARC
  5
36D
330
240
100
AcDbEntity
  8
0
  6
Continuous
 62
     0
370
    30
100
AcDbCircle
 10
207.528365
 20
1100.18369
 30
0.0
 40
1.800000000000249
100
AcDbArc
 50
97.303269
 51
277.303269
  0
ARC
  5
36E
330
240
100
AcDbEntity
  8
0
  6
Continuous
 62
     0
370
    30
100
AcDbCircle
 10
207.528365
 20
1100.18369
 30
0.0
 40
1.80000000000025
100
AcDbArc
 50
277.303269
 51
97.303269
  0
ARC
  5
36F
330
240
100
AcDbEntity
  8
0
  6
Continuous
 62
     0
370
    30
100
AcDbCircle
 10
209.227021
 20
1079.066823
 30
0.0
 40
1.799999999999963
100
AcDbArc
 50
117.303269
 51
297.303269
  0
ARC
  5
370
330
240
100
AcDbEntity
  8
0
  6
Continuous
 62
     0
370
    30
100
AcDbCircle
 10
209.227021
 20
1079.066823
 30
0.0
 40
1.799999999999964
100
AcDbArc
 50
297.303269
 51
117.303269
  0
ARC
  5
371
330
240
100
AcDbEntity
  8
0
  6
Continuous
 62
     0
370
    30
100
AcDbCircle
 10
218.045629
 20
1059.804433
 30
0.0
 40
1.799999999999952
100
AcDbArc
 50
137.303269
 51
317.303269
  0
ARC
  5
372
330
240
100
AcDbEntity
  8
0
  6
Continuous
 62
     0
370
    30
100
AcDbCircle
 10
218.045629
 20
1059.804433
 30
0.0
 40
1.799999999999936
100
AcDbArc
 50
317.303269
 51
137.303269
  0
ARC
  5
373
330
240
100
AcDbEntity
  8
0
  6
Continuous
 62
     0
370
    30
100
AcDbCircle
 10
232.920535
 20
1044.719849
 30
0.0
 40
1.800000000000122
100
AcDbArc
 50
157.303269
 51
337.303269
  0
ARC
  5
374
330
240
100
AcDbEntity
  8
0
  6
Continuous
 62
     0
370
    30
100
AcDbCircle
 10
232.920535
 20
1044.719849
 30
0.0
 40
1.800000000000117
100
AcDbArc
 50
337.303269
 51
157.303269
  0
ARC
  5
375
330
240
100
AcDbEntity
  8
0
  6
Continuous
 62
     0
370
    30
100
AcDbCircle
 10
252.057607
 20
1035.632494
 30
0.0
 40
1.799999999999634
100
AcDbArc
 50
177.303269
 51
357.303269
  0
ARC
  5
376
330
240
100
AcDbEntity
  8
0
  6
Continuous
 62
     0
370
    30
100
AcDbCircle
 10
252.057607
 20
1035.632494
 30
0.0
 40
1.799999999999635
100
AcDbArc
 50
357.303269
 51
177.303269
  0
ARC
  5
377
330
240
100
AcDbEntity
  8
0
  6
Continuous
 62
     0
370
    30
100
AcDbCircle
 10
273.14863
 20
1033.638438
 30
0.0
 40
1.800000000000399
100
AcDbArc
 50
197.303269
 51
17.303269
  0
ARC
  5
378
330
240
100
AcDbEntity
  8
0
  6
Continuous
 62
     0
370
    30
100
AcDbCircle
 10
273.14863
 20
1033.638438
 30
0.0
 40
1.800000000000401
100
AcDbArc
 50
17.303269
 51
197.303269
  0
ARC
  5
379
330
240
100
AcDbEntity
  8
0
  6
Continuous
 62
     0
370
    30
100
AcDbCircle
 10
293.649716
 20
1038.978193
 30
0.0
 40
1.799999999999743
100
AcDbArc
 50
217.303269
 51
37.303269
  0
ARC
  5
37A
330
240
100
AcDbEntity
  8
0
  6
Continuous
 62
     0
370
    30
100
AcDbCircle
 10
293.649716
 20
1038.978193
 30
0.0
 40
1.799999999999746
100
AcDbArc
 50
37.303269
 51
217.303269
  0
ARC
  5
37B
330
240
100
AcDbEntity
  8
0
  6
Continuous
 62
     0
370
    30
100
AcDbCircle
 10
311.088132
 20
1051.007706
 30
0.0
 40
1.799999999999712
100
AcDbArc
 50
237.303269
 51
57.303269
  0
ARC
  5
37C
330
240
100
AcDbEntity
  8
0
  6
Continuous
 62
     0
370
    30
100
AcDbCircle
 10
311.088132
 20
1051.007706
 30
0.0
 40
1.799999999999707
100
AcDbArc
 50
57.303269
 51
237.303269
  0
ARC
  5
37D
330
240
100
AcDbEntity
  8
0
  6
Continuous
 62
     0
370
    30
100
AcDbCircle
 10
323.360546
 20
1068.27604
 30
0.0
 40
1.799999999999742
100
AcDbArc
 50
257.303269
 51
77.303269
  0
ARC
  5
37E
330
240
100
AcDbEntity
  8
0
  6
Continuous
 62
     0
370
    30
100
AcDbCircle
 10
323.360546
 20
1068.27604
 30
0.0
 40
1.799999999999742
100
AcDbArc
 50
77.303269
 51
257.303269
  0
ARC
  5
37F
330
240
100
AcDbEntity
  8
0
  6
Continuous
 62
     0
370
    30
100
AcDbCircle
 10
328.986726
 20
1088.700378
 30
0.0
 40
1.800000000000249
100
AcDbArc
 50
277.303269
 51
97.303269
  0
ARC
  5
380
330
240
100
AcDbEntity
  8
0
  6
Continuous
 62
     0
370
    30
100
AcDbCircle
 10
328.986726
 20
1088.700378
 30
0.0
 40
1.800000000000249
100
AcDbArc
 50
97.303269
 51
277.303269
  0
ARC
  5
381
330
240
100
AcDbEntity
  8
0
  6
Continuous
 62
     0
370
    30
100
AcDbCircle
 10
327.28807
 20
1109.817246
 30
0.0
 40
1.799999999999958
100
AcDbArc
 50
297.303269
 51
117.303269
  0
ARC
  5
382
330
240
100
AcDbEntity
  8
0
  6
Continuous
 62
     0
370
    30
100
AcDbCircle
 10
327.28807
 20
1109.817246
 30
0.0
 40
1.799999999999964
100
AcDbArc
 50
117.303269
 51
297.303269
  0
ARC
  5
383
330
240
100
AcDbEntity
  8
0
  6
Continuous
 62
     0
370
    30
100
AcDbCircle
 10
318.469462
 20
1129.079636
 30
0.0
 40
1.799999999999941
100
AcDbArc
 50
317.303269
 51
137.303269
  0
ARC
  5
384
330
240
100
AcDbEntity
  8
0
  6
Continuous
 62
     0
370
    30
100
AcDbCircle
 10
318.469462
 20
1129.079636
 30
0.0
 40
1.799999999999943
100
AcDbArc
 50
137.303269
 51
317.303269
  0
ARC
  5
385
330
240
100
AcDbEntity
  8
0
  6
Continuous
 62
     0
370
    30
100
AcDbCircle
 10
303.594556
 20
1144.16422
 30
0.0
 40
1.800000000000123
100
AcDbArc
 50
337.303269
 51
157.303269
  0
ARC
  5
386
330
240
100
AcDbEntity
  8
0
  6
Continuous
 62
     0
370
    30
100
AcDbCircle
 10
303.594556
 20
1144.16422
 30
0.0
 40
1.800000000000131
100
AcDbArc
 50
157.303269
 51
337.303269
  0
ARC
  5
387
330
240
100
AcDbEntity
  8
0
  6
Continuous
 62
     0
370
    30
100
AcDbCircle
 10
284.457484
 20
1153.251574
 30
0.0
 40
1.799999999999637
100
AcDbArc
 50
357.303269
 51
177.303269
  0
ARC
  5
388
330
240
100
AcDbEntity
  8
0
  6
Continuous
 62
     0
370
    30
100
AcDbCircle
 10
284.457484
 20
1153.251574
 30
0.0
 40
1.799999999999637
100
AcDbArc
 50
177.303269
 51
357.303269
  0
ARC
  5
389
330
240
100
AcDbEntity
  8
0
  6
Continuous
 62
     0
370
    30
100
AcDbCircle
 10
263.366461
 20
1155.24563
 30
0.0
 40
1.800000000000399
100
AcDbArc
 50
17.303269
 51
197.303269
  0
ARC
  5
38A
330
240
100
AcDbEntity
  8
0
  6
Continuous
 62
     0
370
    30
100
AcDbCircle
 10
263.366461
 20
1155.24563
 30
0.0
 40
1.800000000000398
100
AcDbArc
 50
197.303269
 51
17.303269
  0
ARC
  5
38B
330
240
100
AcDbEntity
  8
0
  6
Continuous
 62
     0
370
    30
100
AcDbCircle
 10
242.865375
 20
1149.905876
 30
0.0
 40
1.799999999999734
100
AcDbArc
 50
37.303269
 51
217.303269
  0
ARC
  5
38C
330
240
100
AcDbEntity
  8
0
  6
Continuous
 62
     0
370
    30
100
AcDbCircle
 10
242.865375
 20
1149.905876
 30
0.0
 40
1.799999999999737
100
AcDbArc
 50
217.303269
 51
37.303269
  0
ARC
  5
38D
330
240
100
AcDbEntity
  8
0
  6
Continuous
 62
     0
370
    30
100
AcDbCircle
 10
225.426959
 20
1137.876363
 30
0.0
 40
1.799999999999708
100
AcDbArc
 50
57.303269
 51
237.303269
  0
ARC
  5
38E
330
240
100
AcDbEntity
  8
0
  6
Continuous
 62
     0
370
    30
100
AcDbCircle
 10
225.426959
 20
1137.876363
 30
0.0
 40
1.799999999999703
100
AcDbArc
 50
237.303269
 51
57.303269
  0
ARC
  5
38F
330
240
100
AcDbEntity
  8
0
  6
Continuous
 62
     0
370
    30
100
AcDbCircle
 10
213.154544
 20
1120.608029
 30
0.0
 40
1.799999999999739
100
AcDbArc
 50
77.303269
 51
257.303269
  0
ARC
  5
390
330
240
100
AcDbEntity
  8
0
  6
Continuous
 62
     0
370
    30
100
AcDbCircle
 10
213.154544
 20
1120.608029
 30
0.0
 40
1.799999999999741
100
AcDbArc
 50
257.303269
 51
77.303269
  0
ARC
  5
391
330
240
100
AcDbEntity
  8
0
  6
Continuous
 62
     0
370
    30
100
AcDbCircle
 10
231.287353
 20
1103.228664
 30
0.0
 40
1.800000000000249
100
AcDbArc
 50
97.303269
 51
277.303269
  0
ARC
  5
392
330
240
100
AcDbEntity
  8
0
  6
Continuous
 62
     0
370
    30
100
AcDbCircle
 10
231.287353
 20
1103.228664
 30
0.0
 40
1.80000000000025
100
AcDbArc
 50
277.303269
 51
97.303269
  0
ARC
  5
393
330
240
100
AcDbEntity
  8
0
  6
Continuous
 62
     0
370
    30
100
AcDbCircle
 10
231.847105
 20
1083.566383
 30
0.0
 40
1.79999999999974
100
AcDbArc
 50
127.303269
 51
307.303269
  0
ARC
  5
394
330
240
100
AcDbEntity
  8
0
  6
Continuous
 62
     0
370
    30
100
AcDbCircle
 10
231.847105
 20
1083.566383
 30
0.0
 40
1.79999999999974
100
AcDbArc
 50
307.303269
 51
127.303269
  0
ARC
  5
395
330
240
100
AcDbEntity
  8
0
  6
Continuous
 62
     0
370
    30
100
AcDbCircle
 10
242.163004
 20
1066.818224
 30
0.0
 40
1.800000000000116
100
AcDbArc
 50
157.303269
 51
337.303269
  0
ARC
  5
396
330
240
100
AcDbEntity
  8
0
  6
Continuous
 62
     0
370
    30
100
AcDbCircle
 10
242.163004
 20
1066.818224
 30
0.0
 40
1.800000000000122
100
AcDbArc
 50
337.303269
 51
157.303269
  0
ARC
  5
397
330
240
100
AcDbEntity
  8
0
  6
Continuous
 62
     0
370
    30
100
AcDbCircle
 10
259.470915
 20
1057.471842
 30
0.0
 40
1.800000000000251
100
AcDbArc
 50
187.303269
 51
7.303269
  0
ARC
  5
398
330
240
100
AcDbEntity
  8
0
  6
Continuous
 62
     0
370
    30
100
AcDbCircle
 10
259.470915
 20
1057.471842
 30
0.0
 40
1.800000000000253
100
AcDbArc
 50
7.303269
 51
187.303269
  0
ARC
  5
399
330
240
100
AcDbEntity
  8
0
  6
Continuous
 62
     0
370
    30
100
AcDbCircle
 10
279.133197
 20
1058.031593
 30
0.0
 40
1.799999999999741
100
AcDbArc
 50
217.303269
 51
37.303269
  0
ARC
  5
39A
330
240
100
AcDbEntity
  8
0
  6
Continuous
 62
     0
370
    30
100
AcDbCircle
 10
279.133197
 20
1058.031593
 30
0.0
 40
1.799999999999744
100
AcDbArc
 50
37.303269
 51
217.303269
  0
ARC
  5
39B
330
240
100
AcDbEntity
  8
0
  6
Continuous
 62
     0
370
    30
100
AcDbCircle
 10
295.881356
 20
1068.347493
 30
0.0
 40
1.80000000000011
100
AcDbArc
 50
247.303269
 51
67.303269
  0
ARC
  5
39C
330
240
100
AcDbEntity
  8
0
  6
Continuous
 62
     0
370
    30
100
AcDbCircle
 10
295.881356
 20
1068.347493
 30
0.0
 40
1.800000000000114
100
AcDbArc
 50
67.303269
 51
247.303269
  0
ARC
  5
39D
330
240
100
AcDbEntity
  8
0
  6
Continuous
 62
     0
370
    30
100
AcDbCircle
 10
305.227738
 20
1085.655404
 30
0.0
 40
1.800000000000251
100
AcDbArc
 50
277.303269
 51
97.303269
  0
ARC
  5
39E
330
240
100
AcDbEntity
  8
0
  6
Continuous
 62
     0
370
    30
100
AcDbCircle
 10
305.227738
 20
1085.655404
 30
0.0
 40
1.80000000000025
100
AcDbArc
 50
97.303269
 51
277.303269
  0
ARC
  5
39F
330
240
100
AcDbEntity
  8
0
  6
Continuous
 62
     0
370
    30
100
AcDbCircle
 10
304.667986
 20
1105.317686
 30
0.0
 40
1.799999999999738
100
AcDbArc
 50
307.303269
 51
127.303269
  0
ARC
  5
3A0
330
240
100
AcDbEntity
  8
0
  6
Continuous
 62
     0
370
    30
100
AcDbCircle
 10
304.667986
 20
1105.317686
 30
0.0
 40
1.799999999999743
100
AcDbArc
 50
127.303269
 51
307.303269
  0
ARC
  5
3A1
330
240
100
AcDbEntity
  8
0
  6
Continuous
 62
     0
370
    30
100
AcDbCircle
 10
294.352087
 20
1122.065845
 30
0.0
 40
1.800000000000116
100
AcDbArc
 50
337.303269
 51
157.303269
  0
ARC
  5
3A2
330
240
100
AcDbEntity
  8
0
  6
Continuous
 62
     0
370
    30
100
AcDbCircle
 10
294.352087
 20
1122.065845
 30
0.0
 40
1.80000000000012
100
AcDbArc
 50
157.303269
 51
337.303269
  0
ARC
  5
3A3
330
240
100
AcDbEntity
  8
0
  6
Continuous
 62
     0
370
    30
100
AcDbCircle
 10
277.044176
 20
1131.412227
 30
0.0
 40
1.800000000000249
100
AcDbArc
 50
7.303269
 51
187.303269
  0
ARC
  5
3A4
330
240
100
AcDbEntity
  8
0
  6
Continuous
 62
     0
370
    30
100
AcDbCircle
 10
277.044176
 20
1131.412227
 30
0.0
 40
1.80000000000025
100
AcDbArc
 50
187.303269
 51
7.303269
  0
ARC
  5
3A5
330
240
100
AcDbEntity
  8
0
  6
Continuous
 62
     0
370
    30
100
AcDbCircle
 10
257.381894
 20
1130.852475
 30
0.0
 40
1.799999999999741
100
AcDbArc
 50
37.303269
 51
217.303269
  0
ARC
  5
3A6
330
240
100
AcDbEntity
  8
0
  6
Continuous
 62
     0
370
    30
100
AcDbCircle
 10
257.381894
 20
1130.852475
 30
0.0
 40
1.799999999999743
100
AcDbArc
 50
217.303269
 51
37.303269
  0
ARC
  5
3A7
330
240
100
AcDbEntity
  8
0
  6
Continuous
 62
     0
370
    30
100
AcDbCircle
 10
240.633735
 20
1120.536575
 30
0.0
 40
1.800000000000113
100
AcDbArc
 50
67.303269
 51
247.303269
  0
ARC
  5
3A8
330
240
100
AcDbEntity
  8
0
  6
Continuous
 62
     0
370
    30
100
AcDbCircle
 10
240.633735
 20
1120.536575
 30
0.0
 40
1.800000000000113
100
AcDbArc
 50
247.303269
 51
67.303269
  0
ARC
  5
3A9
330
240
100
AcDbEntity
  8
0
  6
Continuous
 62
     0
370
    30
100
AcDbCircle
 10
253.379238
 20
1092.535216
 30
0.0
 40
1.800000000000249
100
AcDbArc
 50
97.303269
 51
277.303269
  0
ARC
  5
3AA
330
240
100
AcDbEntity
  8
0
  6
Continuous
 62
     0
370
    30
100
AcDbCircle
 10
253.379238
 20
1092.535216
 30
0.0
 40
1.800000000000249
100
AcDbArc
 50
277.303269
 51
97.303269
  0
ARC
  5
3AB
330
240
100
AcDbEntity
  8
0
  6
Continuous
 62
     0
370
    30
100
AcDbCircle
 10
262.469744
 20
1080.603633
 30
0.0
 40
1.800000000000117
100
AcDbArc
 50
157.303269
 51
337.303269
  0
ARC
  5
3AC
330
240
100
AcDbEntity
  8
0
  6
Continuous
 62
     0
370
    30
100
AcDbCircle
 10
262.469744
 20
1080.603633
 30
0.0
 40
1.800000000000117
100
AcDbArc
 50
337.303269
 51
157.303269
  0
ARC
  5
3AD
330
240
100
AcDbEntity
  8
0
  6
Continuous
 62
     0
370
    30
100
AcDbCircle
 10
277.348052
 20
1082.510451
 30
0.0
 40
1.799999999999742
100
AcDbArc
 50
217.303269
 51
37.303269
  0
ARC
  5
3AE
330
240
100
AcDbEntity
  8
0
  6
Continuous
 62
     0
370
    30
100
AcDbCircle
 10
277.348052
 20
1082.510451
 30
0.0
 40
1.799999999999738
100
AcDbArc
 50
37.303269
 51
217.303269
  0
ARC
  5
3AF
330
240
100
AcDbEntity
  8
0
  6
Continuous
 62
     0
370
    30
100
AcDbCircle
 10
283.135853
 20
1096.348852
 30
0.0
 40
1.80000000000025
100
AcDbArc
 50
277.303269
 51
97.303269
  0
ARC
  5
3B0
330
240
100
AcDbEntity
  8
0
  6
Continuous
 62
     0
370
    30
100
AcDbCircle
 10
283.135853
 20
1096.348852
 30
0.0
 40
1.800000000000249
100
AcDbArc
 50
97.303269
 51
277.303269
  0
ARC
  5
3B1
330
240
100
AcDbEntity
  8
0
  6
Continuous
 62
     0
370
    30
100
AcDbCircle
 10
274.045347
 20
1108.280436
 30
0.0
 40
1.800000000000117
100
AcDbArc
 50
337.303269
 51
157.303269
  0
ARC
  5
3B2
330
240
100
AcDbEntity
  8
0
  6
Continuous
 62
     0
370
    30
100
AcDbCircle
 10
274.045347
 20
1108.280436
 30
0.0
 40
1.800000000000115
100
AcDbArc
 50
157.303269
 51
337.303269
  0
ARC
  5
3B3
330
240
100
AcDbEntity
  8
0
  6
Continuous
 62
     0
370
    30
100
AcDbCircle
 10
259.167039
 20
1106.373618
 30
0.0
 40
1.799999999999743
100
AcDbArc
 50
37.303269
 51
217.303269
  0
ARC
  5
3B4
330
240
100
AcDbEntity
  8
0
  6
Continuous
 62
     0
370
    30
100
AcDbCircle
 10
259.167039
 20
1106.373618
 30
0.0
 40
1.799999999999743
100
AcDbArc
 50
217.303269
 51
37.303269
  0
ARC
  5
3B5
330
240
100
AcDbEntity
  8
0
  6
Continuous
 62
     0
370
    30
100
AcDbCircle
 10
268.257545
 20
1094.442034
 30
0.0
 40
200.0000000000002
100
AcDbArc
 50
277.304888
 51
97.304888
  0
ARC
  5
3B6
330
240
100
AcDbEntity
  8
0
  6
Continuous
 62
     0
370
    30
100
AcDbCircle
 10
268.257545
 20
1094.442034
 30
0.0
 40
200.0000000000002
100
AcDbArc
 50
97.304888
 51
277.304888
  0
ENDBLK
  5
3B8
330
240
100
AcDbEntity
  8
0
100
AcDbBlockEnd
  0
ENDSEC
  0
SECTION
  2
ENTITIES
  0
INSERT
  5
23F
330
1F
100
AcDbEntity
  8
0
  6
Continuous
 62
     7
420
 16250871
370
     0
100
AcDbBlockReference
  2
a
 10
9.518471
 20
121.354774
 30
0.0
  0
INSERT
  5
3B9
330
1F
100
AcDbEntity
  8
0
  6
Continuous
 62
     7
420
 16250871
370
     0
100
AcDbBlockReference
  2
b
 10
0.000031
 20
352.510132
 30
0.0
  0
ENDSEC
  0
SECTION
  2
OBJECTS
  0
DICTIONARY
  5
C
330
0
100
AcDbDictionary
281
     1
  3
ACAD_DETAILVIEWSTYLE
350
3F1
  3
ACAD_GROUP
350
D
  3
ACAD_LAYOUT
350
1A
  3
ACAD_MATERIAL
350
43
  3
ACAD_MLEADERSTYLE
350
6B
  3
ACAD_MLINESTYLE
350
17
  3
ACAD_PLOTSETTINGS
350
19
  3
ACAD_PLOTSTYLENAME
350
E
  3
ACAD_SCALELIST
350
47
  3
ACAD_SECTIONVIEWSTYLE
350
3F2
  3
ACAD_TABLESTYLE
350
69
  3
ACAD_VISUALSTYLE
350
2A
  3
ACDB_RECOMPOSE_DATA
350
3EE
  3
AcDbVariableDictionary
350
3BA
  0
SUN
  5
6D
330
29
100
AcDbSun
 90
        1
290
     0
 63
     7
421
 16777215
 40
1.0
291
     1
 91
  2455826
 92
 54000000
292
     0
 70
     2
 71
   256
280
     1
  0
DICTIONARY
  5
3F1
102
{ACAD_REACTORS
330
C
102
}
330
C
100
AcDbDictionary
281
     1
  0
DICTIONARY
  5
D
102
{ACAD_REACTORS
330
C
102
}
330
C
100
AcDbDictionary
281
     1
  0
DICTIONARY
  5
1A
102
{ACAD_REACTORS
330
C
102
}
330
C
100
AcDbDictionary
281
     1
  3
Layout1
350
1E
  3
Layout2
350
26
  3
Model
350
22
  0
DICTIONARY
  5
43
102
{ACAD_REACTORS
330
C
102
}
330
C
100
AcDbDictionary
281
     1
  3
ByBlock
350
45
  3
ByLayer
350
44
  3
Global
350
46
  0
DICTIONARY
  5
6B
102
{ACAD_REACTORS
330
C
102
}
330
C
100
AcDbDictionary
281
     1
  3
Standard
350
6C
  0
DICTIONARY
  5
17
102
{ACAD_REACTORS
330
C
102
}
330
C
100
AcDbDictionary
281
     1
  3
Standard
350
18
  0
DICTIONARY
  5
19
102
{ACAD_REACTORS
330
C
102
}
330
C
100
AcDbDictionary
281
     1
  0
ACDBDICTIONARYWDFLT
  5
E
102
{ACAD_REACTORS
330
C
102
}
330
C
100
AcDbDictionary
281
     1
  3
Normal
350
F
100
AcDbDictionaryWithDefault
340
F
  0
DICTIONARY
  5
47
102
{ACAD_REACTORS
330
C
102
}
330
C
100
AcDbDictionary
281
     1
  3
A0
350
48
  3
A1
350
49
  3
A2
350
4A
  3
A3
350
4B
  3
A4
350
4C
  3
A5
350
4D
  3
A6
350
4E
  3
A7
350
4F
  3
A8
350
50
  3
A9
350
51
  3
B0
350
52
  3
B1
350
53
  3
B2
350
54
  3
B3
350
55
  3
B4
350
56
  3
B5
350
57
  3
B6
350
58
  3
B7
350
59
  3
B8
350
5A
  3
B9
350
5B
  3
C0
350
5C
  3
C1
350
5D
  3
C2
350
5E
  3
C3
350
5F
  3
C4
350
60
  3
C5
350
61
  3
C6
350
62
  3
C7
350
63
  3
C8
350
64
  3
C9
350
65
  3
D0
350
66
  3
D1
350
67
  3
D2
350
68
  0
DICTIONARY
  5
3F2
102
{ACAD_REACTORS
330
C
102
}
330
C
100
AcDbDictionary
281
     1
  0
DICTIONARY
  5
69
102
{ACAD_REACTORS
330
C
102
}
330
C
100
AcDbDictionary
281
     1
  3
Standard
350
6A
  0
DICTIONARY
  5
2A
102
{ACAD_REACTORS
330
C
102
}
330
C
100
AcDbDictionary
281
     1
  3
2dWireframe
350
2F
  3
Basic
350
32
  3
Brighten
350
36
  3
ColorChange
350
3A
  3
Conceptual
350
34
  3
Dim
350
35
  3
EdgeColorOff
350
3D
  3
Facepattern
350
39
  3
Flat
350
2B
  3
FlatWithEdges
350
2C
  3
Gouraud
350
2D
  3
GouraudWithEdges
350
2E
  3
Hidden
350
31
  3
JitterOff
350
3B
  3
Linepattern
350
38
  3
OverhangOff
350
3C
  3
Realistic
350
33
  3
Shaded
350
42
  3
Shaded with edges
350
41
  3
Shades of Gray
350
3E
  3
Sketchy
350
3F
  3
Thicken
350
37
  3
Wireframe
350
30
  3
X-Ray
350
40
  0
XRECORD
  5
3EE
102
{ACAD_REACTORS
330
C
102
}
330
C
100
AcDbXrecord
280
     1
 90
        1
330
6A
  0
DICTIONARY
  5
3BA
102
{ACAD_REACTORS
330
C
102
}
330
C
100
AcDbDictionary
281
     1
  3
CANNOSCALE
350
3BB
  3
CMLEADERSTYLE
350
3F0
  3
CTABLESTYLE
350
3EF
  0
LAYOUT
  5
1E
102
{ACAD_REACTORS
330
1A
102
}
330
1A
100
AcDbPlotSettings
  1

  2
none_device
  4

  6

 40
0.0
 41
0.0
 42
0.0
 43
0.0
 44
0.0
 45
0.0
 46
0.0
 47
0.0
 48
0.0
 49
0.0
140
0.0
141
0.0
142
1.0
143
1.0
 70
   688
 72
     1
 73
     0
 74
     5
  7

 75
    16
 76
     0
 77
     2
 78
   300
147
1.0
148
0.0
149
0.0
100
AcDbLayout
  1
Layout1
 70
     1
 71
     1
 10
0.0
 20
0.0
 11
420.0
 21
297.0
 12
0.0
 22
0.0
 32
0.0
 14
1.000000E+20
 24
1.000000E+20
 34
1.000000E+20
 15
-1.000000E+20
 25
-1.000000E+20
 35
-1.000000E+20
146
0.0
 13
0.0
 23
0.0
 33
0.0
 16
1.0
 26
0.0
 36
0.0
 17
0.0
 27
1.0
 37
0.0
 76
     0
330
1B
  0
LAYOUT
  5
26
102
{ACAD_REACTORS
330
1A
102
}
330
1A
100
AcDbPlotSettings
  1

  2
none_device
  4

  6

 40
0.0
 41
0.0
 42
0.0
 43
0.0
 44
0.0
 45
0.0
 46
0.0
 47
0.0
 48
0.0
 49
0.0
140
0.0
141
0.0
142
1.0
143
1.0
 70
   688
 72
     1
 73
     0
 74
     5
  7

 75
    16
 76
     0
 77
     2
 78
   300
147
1.0
148
0.0
149
0.0
100
AcDbLayout
  1
Layout2
 70
     1
 71
     2
 10
0.0
 20
0.0
 11
0.0
 21
0.0
 12
0.0
 22
0.0
 32
0.0
 14
0.0
 24
0.0
 34
0.0
 15
0.0
 25
0.0
 35
0.0
146
0.0
 13
0.0
 23
0.0
 33
0.0
 16
1.0
 26
0.0
 36
0.0
 17
0.0
 27
1.0
 37
0.0
 76
     0
330
23
  0
LAYOUT
  5
22
102
{ACAD_REACTORS
330
1A
102
}
330
1A
100
AcDbPlotSettings
  1

  2
none_device
  4
Letter_(8.50_x_11.00_Inches)
  6

 40
6.35
 41
6.35
 42
6.350005
 43
6.350005
 44
215.9
 45
279.4
 46
0.0
 47
0.0
 48
0.0
 49
0.0
140
0.0
141
0.0
142
1.0
143
1.0
 70
  1712
 72
     1
 73
     0
 74
     0
  7

 75
     0
 76
     0
 77
     2
 78
   300
147
1.0
148
0.0
149
0.0
100
AcDbLayout
  1
Model
 70
     1
 71
     0
 10
0.0
 20
0.0
 11
420.0
 21
297.0
 12
0.0
 22
0.0
 32
0.0
 14
1.000000E+20
 24
1.000000E+20
 34
1.000000E+20
 15
-1.000000E+20
 25
-1.000000E+20
 35
-1.000000E+20
146
0.0
 13
0.0
 23
0.0
 33
0.0
 16
1.0
 26
0.0
 36
0.0
 17
0.0
 27
1.0
 37
0.0
 76
     0
330
1F
331
29
  0
MATERIAL
  5
45
102
{ACAD_REACTORS
330
43
102
}
330
43
100
AcDbMaterial
  1
ByBlock
 72
     1
 94
      127
  0
MATERIAL
  5
44
102
{ACAD_REACTORS
330
43
102
}
330
43
100
AcDbMaterial
  1
ByLayer
 72
     1
 94
      127
  0
MATERIAL
  5
46
102
{ACAD_REACTORS
330
43
102
}
330
43
100
AcDbMaterial
  1
Global
 72
     1
 94
      127
  0
MLEADERSTYLE
  5
6C
102
{ACAD_REACTORS
330
6B
102
}
330
6B
100
AcDbMLeaderStyle
179
     2
170
     2
171
     1
172
     0
 90
        2
 40
0.0
 41
0.0
173
     1
 91
-1056964608
340
14
 92
       -2
290
     1
 42
2.0
291
     1
 43
8.0
  3
Standard
341
0
 44
4.0
300

342
11
174
     1
178
     6
175
     1
176
     0
 93
-1056964608
 45
4.0
292
     0
297
     0
 46
4.0
343
0
 94
-1056964608
 47
1.0
 49
1.0
140
1.0
293
     1
141
0.0
294
     1
177
     0
142
1.0
295
     0
296
     0
143
3.75
271
     0
272
     9
273
     9
  0
MLINESTYLE
  5
18
102
{ACAD_REACTORS
330
17
102
}
330
17
100
AcDbMlineStyle
  2
Standard
 70
     0
  3

 62
   256
 51
90.0
 52
90.0
 71
     2
 49
0.5
 62
   256
  6
BYLAYER
 49
-0.5
 62
   256
  6
BYLAYER
  0
ACDBPLACEHOLDER
  5
F
102
{ACAD_REACTORS
330
E
102
}
330
E
  0
SCALE
  5
48
102
{ACAD_REACTORS
330
47
102
}
330
47
100
AcDbScale
 70
     0
300
1:1
140
1.0
141
1.0
290
     1
  0
SCALE
  5
49
102
{ACAD_REACTORS
330
47
102
}
330
47
100
AcDbScale
 70
     0
300
1:2
140
1.0
141
2.0
290
     0
  0
SCALE
  5
4A
102
{ACAD_REACTORS
330
47
102
}
330
47
100
AcDbScale
 70
     0
300
1:4
140
1.0
141
4.0
290
     0
  0
SCALE
  5
4B
102
{ACAD_REACTORS
330
47
102
}
330
47
100
AcDbScale
 70
     0
300
1:5
140
1.0
141
5.0
290
     0
  0
SCALE
  5
4C
102
{ACAD_REACTORS
330
47
102
}
330
47
100
AcDbScale
 70
     0
300
1:8
140
1.0
141
8.0
290
     0
  0
SCALE
  5
4D
102
{ACAD_REACTORS
330
47
102
}
330
47
100
AcDbScale
 70
     0
300
1:10
140
1.0
141
10.0
290
     0
  0
SCALE
  5
4E
102
{ACAD_REACTORS
330
47
102
}
330
47
100
AcDbScale
 70
     0
300
1:16
140
1.0
141
16.0
290
     0
  0
SCALE
  5
4F
102
{ACAD_REACTORS
330
47
102
}
330
47
100
AcDbScale
 70
     0
300
1:20
140
1.0
141
20.0
290
     0
  0
SCALE
  5
50
102
{ACAD_REACTORS
330
47
102
}
330
47
100
AcDbScale
 70
     0
300
1:30
140
1.0
141
30.0
290
     0
  0
SCALE
  5
51
102
{ACAD_REACTORS
330
47
102
}
330
47
100
AcDbScale
 70
     0
300
1:40
140
1.0
141
40.0
290
     0
  0
SCALE
  5
52
102
{ACAD_REACTORS
330
47
102
}
330
47
100
AcDbScale
 70
     0
300
1:50
140
1.0
141
50.0
290
     0
  0
SCALE
  5
53
102
{ACAD_REACTORS
330
47
102
}
330
47
100
AcDbScale
 70
     0
300
1:100
140
1.0
141
100.0
290
     0
  0
SCALE
  5
54
102
{ACAD_REACTORS
330
47
102
}
330
47
100
AcDbScale
 70
     0
300
2:1
140
2.0
141
1.0
290
     0
  0
SCALE
  5
55
102
{ACAD_REACTORS
330
47
102
}
330
47
100
AcDbScale
 70
     0
300
4:1
140
4.0
141
1.0
290
     0
  0
SCALE
  5
56
102
{ACAD_REACTORS
330
47
102
}
330
47
100
AcDbScale
 70
     0
300
8:1
140
8.0
141
1.0
290
     0
  0
SCALE
  5
57
102
{ACAD_REACTORS
330
47
102
}
330
47
100
AcDbScale
 70
     0
300
10:1
140
10.0
141
1.0
290
     0
  0
SCALE
  5
58
102
{ACAD_REACTORS
330
47
102
}
330
47
100
AcDbScale
 70
     0
300
100:1
140
100.0
141
1.0
290
     0
  0
SCALE
  5
59
102
{ACAD_REACTORS
330
47
102
}
330
47
100
AcDbScale
 70
     0
300
1/128" = 1'-0"
140
0.007812
141
12.0
290
     0
  0
SCALE
  5
5A
102
{ACAD_REACTORS
330
47
102
}
330
47
100
AcDbScale
 70
     0
300
1/64" = 1'-0"
140
0.015625
141
12.0
290
     0
  0
SCALE
  5
5B
102
{ACAD_REACTORS
330
47
102
}
330
47
100
AcDbScale
 70
     0
300
1/32" = 1'-0"
140
0.03125
141
12.0
290
     0
  0
SCALE
  5
5C
102
{ACAD_REACTORS
330
47
102
}
330
47
100
AcDbScale
 70
     0
300
1/16" = 1'-0"
140
0.0625
141
12.0
290
     0
  0
SCALE
  5
5D
102
{ACAD_REACTORS
330
47
102
}
330
47
100
AcDbScale
 70
     0
300
3/32" = 1'-0"
140
0.09375
141
12.0
290
     0
  0
SCALE
  5
5E
102
{ACAD_REACTORS
330
47
102
}
330
47
100
AcDbScale
 70
     0
300
1/8" = 1'-0"
140
0.125
141
12.0
290
     0
  0
SCALE
  5
5F
102
{ACAD_REACTORS
330
47
102
}
330
47
100
AcDbScale
 70
     0
300
3/16" = 1'-0"
140
0.1875
141
12.0
290
     0
  0
SCALE
  5
60
102
{ACAD_REACTORS
330
47
102
}
330
47
100
AcDbScale
 70
     0
300
1/4" = 1'-0"
140
0.25
141
12.0
290
     0
  0
SCALE
  5
61
102
{ACAD_REACTORS
330
47
102
}
330
47
100
AcDbScale
 70
     0
300
3/8" = 1'-0"
140
0.375
141
12.0
290
     0
  0
SCALE
  5
62
102
{ACAD_REACTORS
330
47
102
}
330
47
100
AcDbScale
 70
     0
300
1/2" = 1'-0"
140
0.5
141
12.0
290
     0
  0
SCALE
  5
63
102
{ACAD_REACTORS
330
47
102
}
330
47
100
AcDbScale
 70
     0
300
3/4" = 1'-0"
140
0.75
141
12.0
290
     0
  0
SCALE
  5
64
102
{ACAD_REACTORS
330
47
102
}
330
47
100
AcDbScale
 70
     0
300
1" = 1'-0"
140
1.0
141
12.0
290
     0
  0
SCALE
  5
65
102
{ACAD_REACTORS
330
47
102
}
330
47
100
AcDbScale
 70
     0
300
1-1/2" = 1'-0"
140
1.5
141
12.0
290
     0
  0
SCALE
  5
66
102
{ACAD_REACTORS
330
47
102
}
330
47
100
AcDbScale
 70
     0
300
3" = 1'-0"
140
3.0
141
12.0
290
     0
  0
SCALE
  5
67
102
{ACAD_REACTORS
330
47
102
}
330
47
100
AcDbScale
 70
     0
300
6" = 1'-0"
140
6.0
141
12.0
290
     0
  0
SCALE
  5
68
102
{ACAD_REACTORS
330
47
102
}
330
47
100
AcDbScale
 70
     0
300
1'-0" = 1'-0"
140
12.0
141
12.0
290
     0
  0
TABLESTYLE
  5
6A
102
{ACAD_REACTORS
330
69
102
}
102
{ACAD_XDICTIONARY
360
3EC
102
}
330
69
100
AcDbTableStyle
  3
Standard
 70
     0
 71
     0
 40
0.06
 41
0.06
280
     0
281
     0
  7
Standard
140
4.5
170
     2
 62
     0
 63
   257
283
     0
 90
        4
 91
        0
  1

274
    -2
284
     1
 64
     0
275
    -2
285
     1
 65
     0
276
    -2
286
     1
 66
     0
277
    -2
287
     1
 67
     0
278
    -2
288
     1
 68
     0
279
    -2
289
     1
 69
     0
  7
Standard
140
6.0
170
     5
 62
     0
 63
   257
283
     0
 90
        4
 91
        0
  1

274
    -2
284
     1
 64
     0
275
    -2
285
     1
 65
     0
276
    -2
286
     1
 66
     0
277
    -2
287
     1
 67
     0
278
    -2
288
     1
 68
     0
279
    -2
289
     1
 69
     0
  7
Standard
140
4.5
170
     5
 62
     0
 63
   257
283
     0
 90
        4
 91
        0
  1

274
    -2
284
     1
 64
     0
275
    -2
285
     1
 65
     0
276
    -2
286
     1
 66
     0
277
    -2
287
     1
 67
     0
278
    -2
288
     1
 68
     0
279
    -2
289
     1
 69
     0
  0
VISUALSTYLE
  5
2F
102
{ACAD_REACTORS
330
2A
102
}
102
{ACAD_XDICTIONARY
360
3C4
102
}
330
2A
100
AcDbVisualStyle
  2
2dWireframe
 70
     4
177
     2
291
     0
 71
     0
176
     1
 72
     2
176
     1
 73
     0
176
     1
 90
        0
176
     1
 40
0.6
176
     1
 41
30.0
176
     1
 62
     5
 63
     7
421
 16777215
176
     1
 74
     1
176
     1
 91
        4
176
     1
 64
     7
176
     1
 65
   257
176
     1
 75
     1
176
     1
175
     1
176
     1
 42
1.0
176
     1
 92
        0
176
     1
 66
   257
176
     1
 43
1.0
176
     1
 76
     1
176
     1
 77
     6
176
     1
 78
     2
176
     1
 67
     7
176
     1
 79
     5
176
     1
170
     0
176
     1
171
     0
176
     1
290
     0
176
     1
 93
        1
176
     1
 44
0.0
176
     1
173
     0
176
     1
  0
VISUALSTYLE
  5
32
102
{ACAD_REACTORS
330
2A
102
}
102
{ACAD_XDICTIONARY
360
3CA
102
}
330
2A
100
AcDbVisualStyle
  2
Basic
 70
     7
177
     2
291
     1
 71
     1
176
     1
 72
     0
176
     1
 73
     1
176
     1
 90
        0
176
     1
 40
0.6
176
     1
 41
30.0
176
     1
 62
     5
 63
     7
421
 16777215
176
     1
 74
     0
176
     1
 91
        4
176
     1
 64
     7
176
     1
 65
   257
176
     1
 75
     1
176
     1
175
     1
176
     1
 42
1.0
176
     1
 92
        8
176
     1
 66
     7
176
     1
 43
1.0
176
     1
 76
     1
176
     1
 77
     6
176
     1
 78
     2
176
     1
 67
     7
176
     1
 79
     5
176
     1
170
     0
176
     1
171
     0
176
     1
290
     0
176
     1
 93
        1
176
     1
 44
0.0
176
     1
173
     0
176
     1
  0
VISUALSTYLE
  5
36
102
{ACAD_REACTORS
330
2A
102
}
102
{ACAD_XDICTIONARY
360
3D2
102
}
330
2A
100
AcDbVisualStyle
  2
Brighten
 70
    12
177
     2
291
     1
 71
     2
176
     1
 72
     2
176
     1
 73
     0
176
     1
 90
        0
176
     1
 40
0.6
176
     1
 41
30.0
176
     1
 62
     5
 63
     7
421
 16777215
176
     1
 74
     1
176
     1
 91
        4
176
     1
 64
     7
176
     1
 65
   257
176
     1
 75
     1
176
     1
175
     1
176
     1
 42
1.0
176
     1
 92
        8
176
     1
 66
     7
176
     1
 43
1.0
176
     1
 76
     1
176
     1
 77
     6
176
     1
 78
     2
176
     1
 67
     7
176
     1
 79
     5
176
     1
170
     0
176
     1
171
     0
176
     1
290
     0
176
     1
 93
        1
176
     1
 44
50.0
176
     1
173
     0
176
     1
  0
VISUALSTYLE
  5
3A
102
{ACAD_REACTORS
330
2A
102
}
102
{ACAD_XDICTIONARY
360
3DA
102
}
330
2A
100
AcDbVisualStyle
  2
ColorChange
 70
    16
177
     2
291
     1
 71
     2
176
     1
 72
     2
176
     1
 73
     3
176
     1
 90
        0
176
     1
 40
0.6
176
     1
 41
30.0
176
     1
 62
     5
 63
     8
421
  8421504
176
     1
 74
     1
176
     1
 91
        4
176
     1
 64
     7
176
     1
 65
   257
176
     1
 75
     1
176
     1
175
     1
176
     1
 42
1.0
176
     1
 92
        8
176
     1
 66
     8
424
  8421504
176
     1
 43
1.0
176
     1
 76
     1
176
     1
 77
     6
176
     1
 78
     2
176
     1
 67
     7
176
     1
 79
     5
176
     1
170
     0
176
     1
171
     0
176
     1
290
     0
176
     1
 93
        1
176
     1
 44
0.0
176
     1
173
     0
176
     1
  0
VISUALSTYLE
  5
34
102
{ACAD_REACTORS
330
2A
102
}
102
{ACAD_XDICTIONARY
360
3CE
102
}
330
2A
100
AcDbVisualStyle
  2
Conceptual
 70
     9
177
     2
291
     0
 71
     3
176
     1
 72
     2
176
     1
 73
     0
176
     1
 90
        0
176
     1
 40
0.6
176
     1
 41
30.0
176
     1
 62
     5
 63
     7
421
 16777215
176
     1
 74
     2
176
     1
 91
        2
176
     1
 64
     7
176
     1
 65
   257
176
     1
 75
     1
176
     1
175
     1
176
     1
 42
179.0
176
     1
 92
        8
176
     1
 66
     7
176
     1
 43
1.0
176
     1
 76
     1
176
     1
 77
     6
176
     1
 78
     2
176
     1
 67
     7
176
     1
 79
     3
176
     1
170
     0
176
     1
171
     0
176
     1
290
     0
176
     1
 93
        1
176
     1
 44
0.0
176
     1
173
     0
176
     1
  0
VISUALSTYLE
  5
35
102
{ACAD_REACTORS
330
2A
102
}
102
{ACAD_XDICTIONARY
360
3D0
102
}
330
2A
100
AcDbVisualStyle
  2
Dim
 70
    11
177
     2
291
     1
 71
     2
176
     1
 72
     2
176
     1
 73
     0
176
     1
 90
        0
176
     1
 40
0.6
176
     1
 41
30.0
176
     1
 62
     5
 63
     7
421
 16777215
176
     1
 74
     1
176
     1
 91
        4
176
     1
 64
     7
176
     1
 65
   257
176
     1
 75
     1
176
     1
175
     1
176
     1
 42
1.0
176
     1
 92
        8
176
     1
 66
     7
176
     1
 43
1.0
176
     1
 76
     1
176
     1
 77
     6
176
     1
 78
     2
176
     1
 67
     7
176
     1
 79
     5
176
     1
170
     0
176
     1
171
     0
176
     1
290
     0
176
     1
 93
        1
176
     1
 44
-50.0
176
     1
173
     0
176
     1
  0
VISUALSTYLE
  5
3D
102
{ACAD_REACTORS
330
2A
102
}
102
{ACAD_XDICTIONARY
360
3E0
102
}
330
2A
100
AcDbVisualStyle
  2
EdgeColorOff
 70
    22
177
     2
291
     1
 71
     2
176
     0
 72
     2
176
     0
 73
     0
176
     0
 90
        0
176
     0
 40
0.6
176
     0
 41
30.0
176
     0
 62
     5
 63
     7
421
 16777215
176
     0
 74
     1
176
     0
 91
        4
176
     0
 64
     7
176
     0
 65
   257
176
     0
 75
     1
176
     0
175
     1
176
     0
 42
1.0
176
     0
 92
        8
176
     2
 66
     7
176
     0
 43
1.0
176
     0
 76
     1
176
     0
 77
     6
176
     0
 78
     2
176
     0
 67
     7
176
     0
 79
     5
176
     0
170
     0
176
     0
171
     0
176
     0
290
     0
176
     0
 93
        1
176
     0
 44
0.0
176
     0
173
     0
176
     0
  0
VISUALSTYLE
  5
39
102
{ACAD_REACTORS
330
2A
102
}
102
{ACAD_XDICTIONARY
360
3D8
102
}
330
2A
100
AcDbVisualStyle
  2
Facepattern
 70
    15
177
     2
291
     1
 71
     2
176
     1
 72
     2
176
     1
 73
     0
176
     1
 90
        0
176
     1
 40
0.6
176
     1
 41
30.0
176
     1
 62
     5
 63
     7
421
 16777215
176
     1
 74
     1
176
     1
 91
        4
176
     1
 64
     7
176
     1
 65
   257
176
     1
 75
     1
176
     1
175
     1
176
     1
 42
1.0
176
     1
 92
        8
176
     1
 66
     7
176
     1
 43
1.0
176
     1
 76
     1
176
     1
 77
     6
176
     1
 78
     2
176
     1
 67
     7
176
     1
 79
     5
176
     1
170
     0
176
     1
171
     0
176
     1
290
     0
176
     1
 93
        1
176
     1
 44
0.0
176
     1
173
     0
176
     1
  0
VISUALSTYLE
  5
2B
102
{ACAD_REACTORS
330
2A
102
}
102
{ACAD_XDICTIONARY
360
3BC
102
}
330
2A
100
AcDbVisualStyle
  2
Flat
 70
     0
177
     2
291
     1
 71
     2
176
     1
 72
     1
176
     1
 73
     1
176
     1
 90
        2
176
     1
 40
0.6
176
     1
 41
30.0
176
     1
 62
     5
 63
     7
421
 16777215
176
     1
 74
     0
176
     1
 91
        0
176
     1
 64
     7
176
     1
 65
   257
176
     1
 75
     1
176
     1
175
     1
176
     1
 42
1.0
176
     1
 92
        8
176
     1
 66
     7
176
     1
 43
1.0
176
     1
 76
     1
176
     1
 77
     6
176
     1
 78
     2
176
     1
 67
     7
176
     1
 79
     5
176
     1
170
     0
176
     1
171
     0
176
     1
290
     0
176
     1
 93
       13
176
     1
 44
0.0
176
     1
173
     0
176
     1
  0
VISUALSTYLE
  5
2C
102
{ACAD_REACTORS
330
2A
102
}
102
{ACAD_XDICTIONARY
360
3BE
102
}
330
2A
100
AcDbVisualStyle
  2
FlatWithEdges
 70
     1
177
     2
291
     1
 71
     2
176
     1
 72
     1
176
     1
 73
     1
176
     1
 90
        2
176
     1
 40
0.6
176
     1
 41
30.0
176
     1
 62
     5
 63
     7
421
 16777215
176
     1
 74
     1
176
     1
 91
        0
176
     1
 64
     7
176
     1
 65
   257
176
     1
 75
     1
176
     1
175
     1
176
     1
 42
1.0
176
     1
 92
        0
176
     1
 66
   257
176
     1
 43
1.0
176
     1
 76
     1
176
     1
 77
     6
176
     1
 78
     2
176
     1
 67
     7
176
     1
 79
     5
176
     1
170
     0
176
     1
171
     0
176
     1
290
     0
176
     1
 93
       13
176
     1
 44
0.0
176
     1
173
     0
176
     1
  0
VISUALSTYLE
  5
2D
102
{ACAD_REACTORS
330
2A
102
}
102
{ACAD_XDICTIONARY
360
3C0
102
}
330
2A
100
AcDbVisualStyle
  2
Gouraud
 70
     2
177
     2
291
     1
 71
     2
176
     1
 72
     2
176
     1
 73
     1
176
     1
 90
        2
176
     1
 40
0.6
176
     1
 41
30.0
176
     1
 62
     5
 63
     7
421
 16777215
176
     1
 74
     0
176
     1
 91
        0
176
     1
 64
     7
176
     1
 65
   257
176
     1
 75
     1
176
     1
175
     1
176
     1
 42
1.0
176
     1
 92
        0
176
     1
 66
     7
176
     1
 43
1.0
176
     1
 76
     1
176
     1
 77
     6
176
     1
 78
     2
176
     1
 67
     7
176
     1
 79
     5
176
     1
170
     0
176
     1
171
     0
176
     1
290
     0
176
     1
 93
       13
176
     1
 44
0.0
176
     1
173
     0
176
     1
  0
VISUALSTYLE
  5
2E
102
{ACAD_REACTORS
330
2A
102
}
102
{ACAD_XDICTIONARY
360
3C2
102
}
330
2A
100
AcDbVisualStyle
  2
GouraudWithEdges
 70
     3
177
     2
291
     1
 71
     2
176
     1
 72
     2
176
     1
 73
     1
176
     1
 90
        2
176
     1
 40
0.6
176
     1
 41
30.0
176
     1
 62
     5
 63
     7
421
 16777215
176
     1
 74
     1
176
     1
 91
        0
176
     1
 64
     7
176
     1
 65
   257
176
     1
 75
     1
176
     1
175
     1
176
     1
 42
1.0
176
     1
 92
        0
176
     1
 66
   257
176
     1
 43
1.0
176
     1
 76
     1
176
     1
 77
     6
176
     1
 78
     2
176
     1
 67
     7
176
     1
 79
     5
176
     1
170
     0
176
     1
171
     0
176
     1
290
     0
176
     1
 93
       13
176
     1
 44
0.0
176
     1
173
     0
176
     1
  0
VISUALSTYLE
  5
31
102
{ACAD_REACTORS
330
2A
102
}
102
{ACAD_XDICTIONARY
360
3C8
102
}
330
2A
100
AcDbVisualStyle
  2
Hidden
 70
     6
177
     2
291
     0
 71
     1
176
     1
 72
     2
176
     1
 73
     2
176
     1
 90
        0
176
     1
 40
0.6
176
     1
 41
30.0
176
     1
 62
     5
 63
     7
421
 16777215
176
     1
 74
     2
176
     1
 91
        2
176
     1
 64
     7
176
     1
 65
   257
176
     1
 75
     2
176
     1
175
     1
176
     1
 42
40.0
176
     1
 92
        0
176
     1
 66
   257
176
     1
 43
1.0
176
     1
 76
     1
176
     1
 77
     6
176
     1
 78
     2
176
     1
 67
     7
176
     1
 79
     3
176
     1
170
     0
176
     1
171
     0
176
     1
290
     0
176
     1
 93
        1
176
     1
 44
0.0
176
     1
173
     0
176
     1
  0
VISUALSTYLE
  5
3B
102
{ACAD_REACTORS
330
2A
102
}
102
{ACAD_XDICTIONARY
360
3DC
102
}
330
2A
100
AcDbVisualStyle
  2
JitterOff
 70
    20
177
     2
291
     1
 71
     2
176
     0
 72
     2
176
     0
 73
     0
176
     0
 90
        0
176
     0
 40
0.6
176
     0
 41
30.0
176
     0
 62
     5
 63
     7
421
 16777215
176
     0
 74
     1
176
     0
 91
        4
176
     0
 64
     7
176
     0
 65
   257
176
     0
 75
     1
176
     0
175
     1
176
     0
 42
1.0
176
     0
 92
       10
176
     2
 66
     7
176
     0
 43
1.0
176
     0
 76
     1
176
     0
 77
     6
176
     0
 78
     2
176
     0
 67
     7
176
     0
 79
     5
176
     0
170
     0
176
     0
171
     0
176
     0
290
     0
176
     0
 93
        1
176
     0
 44
0.0
176
     0
173
     0
176
     0
  0
VISUALSTYLE
  5
38
102
{ACAD_REACTORS
330
2A
102
}
102
{ACAD_XDICTIONARY
360
3D6
102
}
330
2A
100
AcDbVisualStyle
  2
Linepattern
 70
    14
177
     2
291
     1
 71
     2
176
     1
 72
     2
176
     1
 73
     0
176
     1
 90
        0
176
     1
 40
0.6
176
     1
 41
30.0
176
     1
 62
     5
 63
     7
421
 16777215
176
     1
 74
     1
176
     1
 91
        4
176
     1
 64
     7
176
     1
 65
   257
176
     1
 75
     7
176
     1
175
     7
176
     1
 42
1.0
176
     1
 92
        8
176
     1
 66
     7
176
     1
 43
1.0
176
     1
 76
     1
176
     1
 77
     6
176
     1
 78
     2
176
     1
 67
     7
176
     1
 79
     5
176
     1
170
     0
176
     1
171
     0
176
     1
290
     0
176
     1
 93
        1
176
     1
 44
0.0
176
     1
173
     0
176
     1
  0
VISUALSTYLE
  5
3C
102
{ACAD_REACTORS
330
2A
102
}
102
{ACAD_XDICTIONARY
360
3DE
102
}
330
2A
100
AcDbVisualStyle
  2
OverhangOff
 70
    21
177
     2
291
     1
 71
     2
176
     0
 72
     2
176
     0
 73
     0
176
     0
 90
        0
176
     0
 40
0.6
176
     0
 41
30.0
176
     0
 62
     5
 63
     7
421
 16777215
176
     0
 74
     1
176
     0
 91
        4
176
     0
 64
     7
176
     0
 65
   257
176
     0
 75
     1
176
     0
175
     1
176
     0
 42
1.0
176
     0
 92
        9
176
     2
 66
     7
176
     0
 43
1.0
176
     0
 76
     1
176
     0
 77
     6
176
     0
 78
     2
176
     0
 67
     7
176
     0
 79
     5
176
     0
170
     0
176
     0
171
     0
176
     0
290
     0
176
     0
 93
        1
176
     0
 44
0.0
176
     0
173
     0
176
     0
  0
VISUALSTYLE
  5
33
102
{ACAD_REACTORS
330
2A
102
}
102
{ACAD_XDICTIONARY
360
3CC
102
}
330
2A
100
AcDbVisualStyle
  2
Realistic
 70
     8
177
     2
291
     0
 71
     2
176
     1
 72
     3
176
     1
 73
     0
176
     1
 90
        2
176
     1
 40
0.6
176
     1
 41
30.0
176
     1
 62
     5
 63
     7
421
 16777215
176
     1
 74
     0
176
     1
 91
        0
176
     1
 64
     7
176
     1
 65
   257
176
     1
 75
     1
176
     1
175
     1
176
     1
 42
1.0
176
     1
 92
        8
176
     1
 66
   257
176
     1
 43
1.0
176
     1
 76
     1
176
     1
 77
     6
176
     1
 78
     2
176
     1
 67
     7
176
     1
 79
     3
176
     1
170
     0
176
     1
171
     0
176
     1
290
     0
176
     1
 93
       13
176
     1
 44
0.0
176
     1
173
     0
176
     1
  0
VISUALSTYLE
  5
42
102
{ACAD_REACTORS
330
2A
102
}
102
{ACAD_XDICTIONARY
360
3EA
102
}
330
2A
100
AcDbVisualStyle
  2
Shaded
 70
    27
177
     2
291
     0
 71
     2
176
     1
 72
     2
176
     1
 73
     1
176
     1
 90
        2
176
     1
 40
0.6
176
     1
 41
30.0
176
     1
 62
     5
 63
     7
421
 16777215
176
     1
 74
     0
176
     1
 91
        4
176
     1
 64
     7
176
     1
 65
   257
176
     1
 75
     1
176
     1
175
     1
176
     1
 42
1.0
176
     1
 92
        8
176
     1
 66
   257
176
     1
 43
1.0
176
     1
 76
     1
176
     1
 77
     6
176
     1
 78
     2
176
     1
 67
     8
425
  7895160
176
     1
 79
     3
176
     1
170
     0
176
     1
171
     0
176
     1
290
     0
176
     1
 93
        5
176
     1
 44
0.0
176
     1
173
     0
176
     1
  0
VISUALSTYLE
  5
41
102
{ACAD_REACTORS
330
2A
102
}
102
{ACAD_XDICTIONARY
360
3E8
102
}
330
2A
100
AcDbVisualStyle
  2
Shaded with edges
 70
    26
177
     2
291
     0
 71
     2
176
     1
 72
     2
176
     1
 73
     1
176
     1
 90
        2
176
     1
 40
0.6
176
     1
 41
30.0
176
     1
 62
     5
 63
     7
421
 16777215
176
     1
 74
     1
176
     1
 91
       10
176
     1
 64
     7
176
     1
 65
   257
176
     1
 75
     2
176
     1
175
     1
176
     1
 42
1.0
176
     1
 92
        8
176
     1
 66
   257
176
     1
 43
1.0
176
     1
 76
     1
176
     1
 77
     6
176
     1
 78
     2
176
     1
 67
     7
176
     1
 79
     3
176
     1
170
     0
176
     1
171
     0
176
     1
290
     0
176
     1
 93
        5
176
     1
 44
0.0
176
     1
173
     0
176
     1
  0
VISUALSTYLE
  5
3E
102
{ACAD_REACTORS
330
2A
102
}
102
{ACAD_XDICTIONARY
360
3E2
102
}
330
2A
100
AcDbVisualStyle
  2
Shades of Gray
 70
    23
177
     2
291
     0
 71
     2
176
     1
 72
     2
176
     1
 73
     3
176
     1
 90
        0
176
     1
 40
0.6
176
     1
 41
30.0
176
     1
 62
     5
 63
     7
421
 16777215
176
     1
 74
     2
176
     1
 91
        2
176
     1
 64
     7
176
     1
 65
     7
176
     1
 75
     1
176
     1
175
     1
176
     1
 42
40.0
176
     1
 92
        8
176
     1
 66
     7
176
     1
 43
1.0
176
     1
 76
     1
176
     1
 77
     6
176
     1
 78
     2
176
     1
 67
     7
176
     1
 79
     3
176
     1
170
     0
176
     1
171
     0
176
     1
290
     0
176
     1
 93
        1
176
     1
 44
0.0
176
     1
173
     0
176
     1
  0
VISUALSTYLE
  5
3F
102
{ACAD_REACTORS
330
2A
102
}
102
{ACAD_XDICTIONARY
360
3E4
102
}
330
2A
100
AcDbVisualStyle
  2
Sketchy
 70
    24
177
     2
291
     0
 71
     1
176
     1
 72
     2
176
     1
 73
     2
176
     1
 90
        0
176
     1
 40
0.6
176
     1
 41
30.0
176
     1
 62
     5
 63
     7
421
 16777215
176
     1
 74
     2
176
     1
 91
        2
176
     1
 64
     7
176
     1
 65
     7
176
     1
 75
     1
176
     1
175
     1
176
     1
 42
40.0
176
     1
 92
       11
176
     1
 66
     7
176
     1
 43
1.0
176
     1
 76
     1
176
     1
 77
     6
176
     1
 78
     2
176
     1
 67
     7
176
     1
 79
     6
176
     1
170
     0
176
     1
171
     0
176
     1
290
     0
176
     1
 93
        1
176
     1
 44
0.0
176
     1
173
     0
176
     1
  0
VISUALSTYLE
  5
37
102
{ACAD_REACTORS
330
2A
102
}
102
{ACAD_XDICTIONARY
360
3D4
102
}
330
2A
100
AcDbVisualStyle
  2
Thicken
 70
    13
177
     2
291
     1
 71
     2
176
     1
 72
     2
176
     1
 73
     0
176
     1
 90
        0
176
     1
 40
0.6
176
     1
 41
30.0
176
     1
 62
     5
 63
     7
421
 16777215
176
     1
 74
     1
176
     1
 91
        4
176
     1
 64
     7
176
     1
 65
   257
176
     1
 75
     1
176
     1
175
     1
176
     1
 42
1.0
176
     1
 92
       12
176
     1
 66
     7
176
     1
 43
1.0
176
     1
 76
     1
176
     1
 77
     6
176
     1
 78
     2
176
     1
 67
     7
176
     1
 79
     5
176
     1
170
     0
176
     1
171
     0
176
     1
290
     0
176
     1
 93
        1
176
     1
 44
0.0
176
     1
173
     0
176
     1
  0
VISUALSTYLE
  5
30
102
{ACAD_REACTORS
330
2A
102
}
102
{ACAD_XDICTIONARY
360
3C6
102
}
330
2A
100
AcDbVisualStyle
  2
Wireframe
 70
     5
177
     2
291
     0
 71
     0
176
     1
 72
     2
176
     1
 73
     0
176
     1
 90
        0
176
     1
 40
0.6
176
     1
 41
30.0
176
     1
 62
     5
 63
     7
421
 16777215
176
     1
 74
     1
176
     1
 91
        4
176
     1
 64
     7
176
     1
 65
   257
176
     1
 75
     1
176
     1
175
     1
176
     1
 42
1.0
176
     1
 92
        0
176
     1
 66
   257
176
     1
 43
1.0
176
     1
 76
     1
176
     1
 77
     6
176
     1
 78
     2
176
     1
 67
     7
176
     1
 79
     3
176
     1
170
     0
176
     1
171
     0
176
     1
290
     0
176
     1
 93
        1
176
     1
 44
0.0
176
     1
173
     0
176
     1
  0
VISUALSTYLE
  5
40
102
{ACAD_REACTORS
330
2A
102
}
102
{ACAD_XDICTIONARY
360
3E6
102
}
330
2A
100
AcDbVisualStyle
  2
X-Ray
 70
    25
177
     2
291
     0
 71
     2
176
     1
 72
     2
176
     1
 73
     1
176
     1
 90
        1
176
     1
 40
0.5
176
     1
 41
30.0
176
     1
 62
     5
 63
     7
421
 16777215
176
     1
 74
     1
176
     1
 91
        0
176
     1
 64
     7
176
     1
 65
   257
176
     1
 75
     1
176
     1
175
     1
176
     1
 42
1.0
176
     1
 92
        8
176
     1
 66
     7
176
     1
 43
1.0
176
     1
 76
     1
176
     1
 77
     6
176
     1
 78
     2
176
     1
 67
     7
176
     1
 79
     3
176
     1
170
     0
176
     1
171
     0
176
     1
290
     0
176
     1
 93
       13
176
     1
 44
0.0
176
     1
173
     0
176
     1
  0
DICTIONARYVAR
  5
3BB
102
{ACAD_REACTORS
330
3BA
102
}
330
3BA
100
DictionaryVariables
280
     0
  1
1:1
  0
DICTIONARYVAR
  5
3F0
102
{ACAD_REACTORS
330
3BA
102
}
330
3BA
100
DictionaryVariables
280
     0
  1
Standard
  0
DICTIONARYVAR
  5
3EF
102
{ACAD_REACTORS
330
3BA
102
}
330
3BA
100
DictionaryVariables
280
     0
  1
Standard
  0
DICTIONARY
  5
3EC
330
6A
100
AcDbDictionary
280
     1
281
     1
  3
ACAD_ROUNDTRIP_2008_TABLESTYLE_CELLSTYLEMAP
360
3ED
  0
DICTIONARY
  5
3C4
330
2F
100
AcDbDictionary
280
     1
281
     1
  3
ACAD_XREC_ROUNDTRIP
360
3C5
  0
DICTIONARY
  5
3CA
330
32
100
AcDbDictionary
280
     1
281
     1
  3
ACAD_XREC_ROUNDTRIP
360
3CB
  0
DICTIONARY
  5
3D2
330
36
100
AcDbDictionary
280
     1
281
     1
  3
ACAD_XREC_ROUNDTRIP
360
3D3
  0
DICTIONARY
  5
3DA
330
3A
100
AcDbDictionary
280
     1
281
     1
  3
ACAD_XREC_ROUNDTRIP
360
3DB
  0
DICTIONARY
  5
3CE
330
34
100
AcDbDictionary
280
     1
281
     1
  3
ACAD_XREC_ROUNDTRIP
360
3CF
  0
DICTIONARY
  5
3D0
330
35
100
AcDbDictionary
280
     1
281
     1
  3
ACAD_XREC_ROUNDTRIP
360
3D1
  0
DICTIONARY
  5
3E0
330
3D
100
AcDbDictionary
280
     1
281
     1
  3
ACAD_XREC_ROUNDTRIP
360
3E1
  0
DICTIONARY
  5
3D8
330
39
100
AcDbDictionary
280
     1
281
     1
  3
ACAD_XREC_ROUNDTRIP
360
3D9
  0
DICTIONARY
  5
3BC
330
2B
100
AcDbDictionary
280
     1
281
     1
  3
ACAD_XREC_ROUNDTRIP
360
3BD
  0
DICTIONARY
  5
3BE
330
2C
100
AcDbDictionary
280
     1
281
     1
  3
ACAD_XREC_ROUNDTRIP
360
3BF
  0
DICTIONARY
  5
3C0
330
2D
100
AcDbDictionary
280
     1
281
     1
  3
ACAD_XREC_ROUNDTRIP
360
3C1
  0
DICTIONARY
  5
3C2
330
2E
100
AcDbDictionary
280
     1
281
     1
  3
ACAD_XREC_ROUNDTRIP
360
3C3
  0
DICTIONARY
  5
3C8
330
31
100
AcDbDictionary
280
     1
281
     1
  3
ACAD_XREC_ROUNDTRIP
360
3C9
  0
DICTIONARY
  5
3DC
330
3B
100
AcDbDictionary
280
     1
281
     1
  3
ACAD_XREC_ROUNDTRIP
360
3DD
  0
DICTIONARY
  5
3D6
330
38
100
AcDbDictionary
280
     1
281
     1
  3
ACAD_XREC_ROUNDTRIP
360
3D7
  0
DICTIONARY
  5
3DE
330
3C
100
AcDbDictionary
280
     1
281
     1
  3
ACAD_XREC_ROUNDTRIP
360
3DF
  0
DICTIONARY
  5
3CC
330
33
100
AcDbDictionary
280
     1
281
     1
  3
ACAD_XREC_ROUNDTRIP
360
3CD
  0
DICTIONARY
  5
3EA
330
42
100
AcDbDictionary
280
     1
281
     1
  3
ACAD_XREC_ROUNDTRIP
360
3EB
  0
DICTIONARY
  5
3E8
330
41
100
AcDbDictionary
280
     1
281
     1
  3
ACAD_XREC_ROUNDTRIP
360
3E9
  0
DICTIONARY
  5
3E2
330
3E
100
AcDbDictionary
280
     1
281
     1
  3
ACAD_XREC_ROUNDTRIP
360
3E3
  0
DICTIONARY
  5
3E4
330
3F
100
AcDbDictionary
280
     1
281
     1
  3
ACAD_XREC_ROUNDTRIP
360
3E5
  0
DICTIONARY
  5
3D4
330
37
100
AcDbDictionary
280
     1
281
     1
  3
ACAD_XREC_ROUNDTRIP
360
3D5
  0
DICTIONARY
  5
3C6
330
30
100
AcDbDictionary
280
     1
281
     1
  3
ACAD_XREC_ROUNDTRIP
360
3C7
  0
DICTIONARY
  5
3E6
330
40
100
AcDbDictionary
280
     1
281
     1
  3
ACAD_XREC_ROUNDTRIP
360
3E7
  0
CELLSTYLEMAP
  5
3ED
102
{ACAD_REACTORS
330
3EC
102
}
330
3EC
100
AcDbCellStyleMap
 90
        3
300
CELLSTYLE
  1
TABLEFORMAT_BEGIN
 90
        5
170
     1
 91
        0
 92
    32768
 62
   257
 93
        1
300
CONTENTFORMAT
  1
CONTENTFORMAT_BEGIN
 90
        0
 91
        0
 92
        4
 93
        0
300

 40
0.0
140
1.0
 94
        5
 62
     0
340
11
144
6.0
309
CONTENTFORMAT_END
171
     1
301
MARGIN
  1
CELLMARGIN_BEGIN
 40
1.5
 40
1.5
 40
1.5
 40
1.5
 40
1.5
 40
1.5
309
CELLMARGIN_END
 94
        6
 95
        1
302
GRIDFORMAT
  1
GRIDFORMAT_BEGIN
 90
        0
 91
        1
 62
     0
 92
       -2
340
14
 93
        0
 40
0.045
309
GRIDFORMAT_END
 95
        2
302
GRIDFORMAT
  1
GRIDFORMAT_BEGIN
 90
        0
 91
        1
 62
     0
 92
       -2
340
14
 93
        0
 40
0.045
309
GRIDFORMAT_END
 95
        4
302
GRIDFORMAT
  1
GRIDFORMAT_BEGIN
 90
        0
 91
        1
 62
     0
 92
       -2
340
14
 93
        0
 40
0.045
309
GRIDFORMAT_END
 95
        8
302
GRIDFORMAT
  1
GRIDFORMAT_BEGIN
 90
        0
 91
        1
 62
     0
 92
       -2
340
14
 93
        0
 40
0.045
309
GRIDFORMAT_END
 95
       16
302
GRIDFORMAT
  1
GRIDFORMAT_BEGIN
 90
        0
 91
        1
 62
     0
 92
       -2
340
14
 93
        0
 40
0.045
309
GRIDFORMAT_END
 95
       32
302
GRIDFORMAT
  1
GRIDFORMAT_BEGIN
 90
        0
 91
        1
 62
     0
 92
       -2
340
14
 93
        0
 40
0.045
309
GRIDFORMAT_END
309
TABLEFORMAT_END
  1
CELLSTYLE_BEGIN
 90
        1
 91
        1
300
_TITLE
309
CELLSTYLE_END
300
CELLSTYLE
  1
TABLEFORMAT_BEGIN
 90
        5
170
     1
 91
        0
 92
        0
 62
   257
 93
        1
300
CONTENTFORMAT
  1
CONTENTFORMAT_BEGIN
 90
        0
 91
        0
 92
        4
 93
        0
300

 40
0.0
140
1.0
 94
        5
 62
     0
340
11
144
4.5
309
CONTENTFORMAT_END
171
     1
301
MARGIN
  1
CELLMARGIN_BEGIN
 40
1.5
 40
1.5
 40
1.5
 40
1.5
 40
1.5
 40
1.5
309
CELLMARGIN_END
 94
        6
 95
        1
302
GRIDFORMAT
  1
GRIDFORMAT_BEGIN
 90
        0
 91
        1
 62
     0
 92
       -2
340
14
 93
        0
 40
0.045
309
GRIDFORMAT_END
 95
        2
302
GRIDFORMAT
  1
GRIDFORMAT_BEGIN
 90
        0
 91
        1
 62
     0
 92
       -2
340
14
 93
        0
 40
0.045
309
GRIDFORMAT_END
 95
        4
302
GRIDFORMAT
  1
GRIDFORMAT_BEGIN
 90
        0
 91
        1
 62
     0
 92
       -2
340
14
 93
        0
 40
0.045
309
GRIDFORMAT_END
 95
        8
302
GRIDFORMAT
  1
GRIDFORMAT_BEGIN
 90
        0
 91
        1
 62
     0
 92
       -2
340
14
 93
        0
 40
0.045
309
GRIDFORMAT_END
 95
       16
302
GRIDFORMAT
  1
GRIDFORMAT_BEGIN
 90
        0
 91
        1
 62
     0
 92
       -2
340
14
 93
        0
 40
0.045
309
GRIDFORMAT_END
 95
       32
302
GRIDFORMAT
  1
GRIDFORMAT_BEGIN
 90
        0
 91
        1
 62
     0
 92
       -2
340
14
 93
        0
 40
0.045
309
GRIDFORMAT_END
309
TABLEFORMAT_END
  1
CELLSTYLE_BEGIN
 90
        2
 91
        1
300
_HEADER
309
CELLSTYLE_END
300
CELLSTYLE
  1
TABLEFORMAT_BEGIN
 90
        5
170
     1
 91
        0
 92
        0
 62
   257
 93
        1
300
CONTENTFORMAT
  1
CONTENTFORMAT_BEGIN
 90
        0
 91
        0
 92
        4
 93
        0
300

 40
0.0
140
1.0
 94
        2
 62
     0
340
11
144
4.5
309
CONTENTFORMAT_END
171
     1
301
MARGIN
  1
CELLMARGIN_BEGIN
 40
1.5
 40
1.5
 40
1.5
 40
1.5
 40
1.5
 40
1.5
309
CELLMARGIN_END
 94
        6
 95
        1
302
GRIDFORMAT
  1
GRIDFORMAT_BEGIN
 90
        0
 91
        1
 62
     0
 92
       -2
340
14
 93
        0
 40
0.045
309
GRIDFORMAT_END
 95
        2
302
GRIDFORMAT
  1
GRIDFORMAT_BEGIN
 90
        0
 91
        1
 62
     0
 92
       -2
340
14
 93
        0
 40
0.045
309
GRIDFORMAT_END
 95
        4
302
GRIDFORMAT
  1
GRIDFORMAT_BEGIN
 90
        0
 91
        1
 62
     0
 92
       -2
340
14
 93
        0
 40
0.045
309
GRIDFORMAT_END
 95
        8
302
GRIDFORMAT
  1
GRIDFORMAT_BEGIN
 90
        0
 91
        1
 62
     0
 92
       -2
340
14
 93
        0
 40
0.045
309
GRIDFORMAT_END
 95
       16
302
GRIDFORMAT
  1
GRIDFORMAT_BEGIN
 90
        0
 91
        1
 62
     0
 92
       -2
340
14
 93
        0
 40
0.045
309
GRIDFORMAT_END
 95
       32
302
GRIDFORMAT
  1
GRIDFORMAT_BEGIN
 90
        0
 91
        1
 62
     0
 92
       -2
340
14
 93
        0
 40
0.045
309
GRIDFORMAT_END
309
TABLEFORMAT_END
  1
CELLSTYLE_BEGIN
 90
        3
 91
        2
300
_DATA
309
CELLSTYLE_END
  0
XRECORD
  5
3C5
102
{ACAD_REACTORS
330
3C4
102
}
330
3C4
100
AcDbXrecord
280
     1
102
RTVSPost2010Prop28
280
     1
102
RTVSPost2010PropOp28
 70
     1
102
RTVSPost2010Prop29
280
     1
102
RTVSPost2010PropOp29
 70
     1
102
RTVSPost2010Prop30
280
     0
102
RTVSPost2010PropOp30
 70
     1
102
RTVSPost2010Prop31
280
     0
102
RTVSPost2010PropOp31
 70
     1
102
RTVSPost2010Prop32
280
     0
102
RTVSPost2010PropOp32
 70
     1
102
RTVSPost2010Prop33
280
     0
102
RTVSPost2010PropOp33
 70
     1
102
RTVSPost2010Prop34
280
     0
102
RTVSPost2010PropOp34
 70
     1
102
RTVSPost2010Prop35
280
     0
102
RTVSPost2010PropOp35
 70
     1
102
RTVSPost2010Prop36
280
     0
102
RTVSPost2010PropOp36
 70
     1
102
RTVSPost2010Prop37
 90
       50
102
RTVSPost2010PropOp37
 70
     1
102
RTVSPost2010Prop38
140
0.0
102
RTVSPost2010PropOp38
 70
     1
102
RTVSPost2010Prop39
140
1.0
102
RTVSPost2010PropOp39
 70
     1
102
RTVSPost2010Prop40
 90
        0
102
RTVSPost2010PropOp40
 70
     1
102
RTVSPost2010Prop41ColorIndex
 90
       18
102
RTVSPost2010Prop41ColorRGB
 90
        0
102
RTVSPost2010PropOp41
 70
     1
102
RTVSPost2010Prop42
 90
       50
102
RTVSPost2010PropOp42
 70
     1
102
RTVSPost2010Prop43
 90
        3
102
RTVSPost2010PropOp43
 70
     1
102
RTVSPost2010Prop44ColorIndex
 90
        5
102
RTVSPost2010Prop44ColorRGB
 90
      255
102
RTVSPost2010PropOp44
 70
     1
102
RTVSPost2010Prop45
280
     0
102
RTVSPost2010PropOp45
 70
     1
102
RTVSPost2010Prop46
 90
       50
102
RTVSPost2010PropOp46
 70
     1
102
RTVSPost2010Prop47
 90
       50
102
RTVSPost2010PropOp47
 70
     1
102
RTVSPost2010Prop48
 90
       50
102
RTVSPost2010PropOp48
 70
     1
102
RTVSPost2010Prop49
280
     0
102
RTVSPost2010PropOp49
 70
     1
102
RTVSPost2010Prop50
 90
       50
102
RTVSPost2010PropOp50
 70
     1
102
RTVSPost2010Prop51ColorIndex
 90
      256
102
RTVSPost2010Prop51ColorRGB
 90
-16777216
102
RTVSPost2010PropOp51
 70
     0
102
RTVSPost2010Prop52
140
1.0
102
RTVSPost2010PropOp52
 70
     0
102
RTVSPost2010Prop53
 90
        2
102
RTVSPost2010PropOp53
 70
     1
102
RTVSPost2010Prop54
  1
strokes_ogs.tif
102
RTVSPost2010PropOp54
 70
     1
102
RTVSPost2010Prop55
280
     0
102
RTVSPost2010PropOp55
 70
     1
102
RTVSPost2010Prop56
140
1.0
102
RTVSPost2010PropOp56
 70
     1
102
RTVSPost2010Prop57
140
1.0
102
RTVSPost2010PropOp57
 70
     1
  0
XRECORD
  5
3CB
102
{ACAD_REACTORS
330
3CA
102
}
330
3CA
100
AcDbXrecord
280
     1
102
RTVSPost2010Prop28
280
     0
102
RTVSPost2010PropOp28
 70
     1
102
RTVSPost2010Prop29
280
     1
102
RTVSPost2010PropOp29
 70
     1
102
RTVSPost2010Prop30
280
     1
102
RTVSPost2010PropOp30
 70
     1
102
RTVSPost2010Prop31
280
     0
102
RTVSPost2010PropOp31
 70
     1
102
RTVSPost2010Prop32
280
     0
102
RTVSPost2010PropOp32
 70
     1
102
RTVSPost2010Prop33
280
     0
102
RTVSPost2010PropOp33
 70
     1
102
RTVSPost2010Prop34
280
     0
102
RTVSPost2010PropOp34
 70
     1
102
RTVSPost2010Prop35
280
     0
102
RTVSPost2010PropOp35
 70
     1
102
RTVSPost2010Prop36
280
     0
102
RTVSPost2010PropOp36
 70
     1
102
RTVSPost2010Prop37
 90
       50
102
RTVSPost2010PropOp37
 70
     1
102
RTVSPost2010Prop38
140
0.0
102
RTVSPost2010PropOp38
 70
     1
102
RTVSPost2010Prop39
140
1.0
102
RTVSPost2010PropOp39
 70
     1
102
RTVSPost2010Prop40
 90
        0
102
RTVSPost2010PropOp40
 70
     1
102
RTVSPost2010Prop41ColorIndex
 90
       18
102
RTVSPost2010Prop41ColorRGB
 90
        0
102
RTVSPost2010PropOp41
 70
     1
102
RTVSPost2010Prop42
 90
       50
102
RTVSPost2010PropOp42
 70
     1
102
RTVSPost2010Prop43
 90
        3
102
RTVSPost2010PropOp43
 70
     1
102
RTVSPost2010Prop44ColorIndex
 90
        5
102
RTVSPost2010Prop44ColorRGB
 90
      255
102
RTVSPost2010PropOp44
 70
     1
102
RTVSPost2010Prop45
280
     0
102
RTVSPost2010PropOp45
 70
     1
102
RTVSPost2010Prop46
 90
       50
102
RTVSPost2010PropOp46
 70
     1
102
RTVSPost2010Prop47
 90
       50
102
RTVSPost2010PropOp47
 70
     1
102
RTVSPost2010Prop48
 90
       50
102
RTVSPost2010PropOp48
 70
     1
102
RTVSPost2010Prop49
280
     0
102
RTVSPost2010PropOp49
 70
     1
102
RTVSPost2010Prop50
 90
       50
102
RTVSPost2010PropOp50
 70
     1
102
RTVSPost2010Prop51ColorIndex
 90
      256
102
RTVSPost2010Prop51ColorRGB
 90
-16777216
102
RTVSPost2010PropOp51
 70
     0
102
RTVSPost2010Prop52
140
1.0
102
RTVSPost2010PropOp52
 70
     0
102
RTVSPost2010Prop53
 90
        2
102
RTVSPost2010PropOp53
 70
     1
102
RTVSPost2010Prop54
  1
strokes_ogs.tif
102
RTVSPost2010PropOp54
 70
     1
102
RTVSPost2010Prop55
280
     0
102
RTVSPost2010PropOp55
 70
     1
102
RTVSPost2010Prop56
140
1.0
102
RTVSPost2010PropOp56
 70
     1
102
RTVSPost2010Prop57
140
1.0
102
RTVSPost2010PropOp57
 70
     1
  0
XRECORD
  5
3D3
102
{ACAD_REACTORS
330
3D2
102
}
330
3D2
100
AcDbXrecord
280
     1
102
RTVSPost2010Prop28
280
     0
102
RTVSPost2010PropOp28
 70
     1
102
RTVSPost2010Prop29
280
     1
102
RTVSPost2010PropOp29
 70
     1
102
RTVSPost2010Prop30
280
     1
102
RTVSPost2010PropOp30
 70
     1
102
RTVSPost2010Prop31
280
     0
102
RTVSPost2010PropOp31
 70
     1
102
RTVSPost2010Prop32
280
     0
102
RTVSPost2010PropOp32
 70
     1
102
RTVSPost2010Prop33
280
     0
102
RTVSPost2010PropOp33
 70
     1
102
RTVSPost2010Prop34
280
     0
102
RTVSPost2010PropOp34
 70
     1
102
RTVSPost2010Prop35
280
     0
102
RTVSPost2010PropOp35
 70
     1
102
RTVSPost2010Prop36
280
     0
102
RTVSPost2010PropOp36
 70
     1
102
RTVSPost2010Prop37
 90
       50
102
RTVSPost2010PropOp37
 70
     1
102
RTVSPost2010Prop38
140
0.0
102
RTVSPost2010PropOp38
 70
     1
102
RTVSPost2010Prop39
140
1.0
102
RTVSPost2010PropOp39
 70
     1
102
RTVSPost2010Prop40
 90
        0
102
RTVSPost2010PropOp40
 70
     1
102
RTVSPost2010Prop41ColorIndex
 90
       18
102
RTVSPost2010Prop41ColorRGB
 90
        0
102
RTVSPost2010PropOp41
 70
     1
102
RTVSPost2010Prop42
 90
       50
102
RTVSPost2010PropOp42
 70
     1
102
RTVSPost2010Prop43
 90
        3
102
RTVSPost2010PropOp43
 70
     1
102
RTVSPost2010Prop44ColorIndex
 90
        5
102
RTVSPost2010Prop44ColorRGB
 90
      255
102
RTVSPost2010PropOp44
 70
     1
102
RTVSPost2010Prop45
280
     0
102
RTVSPost2010PropOp45
 70
     1
102
RTVSPost2010Prop46
 90
       50
102
RTVSPost2010PropOp46
 70
     1
102
RTVSPost2010Prop47
 90
       50
102
RTVSPost2010PropOp47
 70
     1
102
RTVSPost2010Prop48
 90
       50
102
RTVSPost2010PropOp48
 70
     1
102
RTVSPost2010Prop49
280
     0
102
RTVSPost2010PropOp49
 70
     1
102
RTVSPost2010Prop50
 90
       50
102
RTVSPost2010PropOp50
 70
     1
102
RTVSPost2010Prop51ColorIndex
 90
      256
102
RTVSPost2010Prop51ColorRGB
 90
-16777216
102
RTVSPost2010PropOp51
 70
     0
102
RTVSPost2010Prop52
140
1.0
102
RTVSPost2010PropOp52
 70
     0
102
RTVSPost2010Prop53
 90
        2
102
RTVSPost2010PropOp53
 70
     1
102
RTVSPost2010Prop54
  1
strokes_ogs.tif
102
RTVSPost2010PropOp54
 70
     1
102
RTVSPost2010Prop55
280
     0
102
RTVSPost2010PropOp55
 70
     1
102
RTVSPost2010Prop56
140
1.0
102
RTVSPost2010PropOp56
 70
     1
102
RTVSPost2010Prop57
140
1.0
102
RTVSPost2010PropOp57
 70
     1
  0
XRECORD
  5
3DB
102
{ACAD_REACTORS
330
3DA
102
}
330
3DA
100
AcDbXrecord
280
     1
102
RTVSPost2010Prop28
280
     0
102
RTVSPost2010PropOp28
 70
     1
102
RTVSPost2010Prop29
280
     1
102
RTVSPost2010PropOp29
 70
     1
102
RTVSPost2010Prop30
280
     1
102
RTVSPost2010PropOp30
 70
     1
102
RTVSPost2010Prop31
280
     0
102
RTVSPost2010PropOp31
 70
     1
102
RTVSPost2010Prop32
280
     0
102
RTVSPost2010PropOp32
 70
     1
102
RTVSPost2010Prop33
280
     0
102
RTVSPost2010PropOp33
 70
     1
102
RTVSPost2010Prop34
280
     0
102
RTVSPost2010PropOp34
 70
     1
102
RTVSPost2010Prop35
280
     0
102
RTVSPost2010PropOp35
 70
     1
102
RTVSPost2010Prop36
280
     0
102
RTVSPost2010PropOp36
 70
     1
102
RTVSPost2010Prop37
 90
       50
102
RTVSPost2010PropOp37
 70
     1
102
RTVSPost2010Prop38
140
0.0
102
RTVSPost2010PropOp38
 70
     1
102
RTVSPost2010Prop39
140
1.0
102
RTVSPost2010PropOp39
 70
     1
102
RTVSPost2010Prop40
 90
        0
102
RTVSPost2010PropOp40
 70
     1
102
RTVSPost2010Prop41ColorIndex
 90
       18
102
RTVSPost2010Prop41ColorRGB
 90
        0
102
RTVSPost2010PropOp41
 70
     1
102
RTVSPost2010Prop42
 90
       50
102
RTVSPost2010PropOp42
 70
     1
102
RTVSPost2010Prop43
 90
        3
102
RTVSPost2010PropOp43
 70
     1
102
RTVSPost2010Prop44ColorIndex
 90
        5
102
RTVSPost2010Prop44ColorRGB
 90
      255
102
RTVSPost2010PropOp44
 70
     1
102
RTVSPost2010Prop45
280
     0
102
RTVSPost2010PropOp45
 70
     1
102
RTVSPost2010Prop46
 90
       50
102
RTVSPost2010PropOp46
 70
     1
102
RTVSPost2010Prop47
 90
       50
102
RTVSPost2010PropOp47
 70
     1
102
RTVSPost2010Prop48
 90
       50
102
RTVSPost2010PropOp48
 70
     1
102
RTVSPost2010Prop49
280
     0
102
RTVSPost2010PropOp49
 70
     1
102
RTVSPost2010Prop50
 90
       50
102
RTVSPost2010PropOp50
 70
     1
102
RTVSPost2010Prop51ColorIndex
 90
      256
102
RTVSPost2010Prop51ColorRGB
 90
-16777216
102
RTVSPost2010PropOp51
 70
     0
102
RTVSPost2010Prop52
140
1.0
102
RTVSPost2010PropOp52
 70
     0
102
RTVSPost2010Prop53
 90
        2
102
RTVSPost2010PropOp53
 70
     1
102
RTVSPost2010Prop54
  1
strokes_ogs.tif
102
RTVSPost2010PropOp54
 70
     1
102
RTVSPost2010Prop55
280
     0
102
RTVSPost2010PropOp55
 70
     1
102
RTVSPost2010Prop56
140
1.0
102
RTVSPost2010PropOp56
 70
     1
102
RTVSPost2010Prop57
140
1.0
102
RTVSPost2010PropOp57
 70
     1
  0
XRECORD
  5
3CF
102
{ACAD_REACTORS
330
3CE
102
}
330
3CE
100
AcDbXrecord
280
     1
102
RTVSPost2010Prop28
280
     0
102
RTVSPost2010PropOp28
 70
     1
102
RTVSPost2010Prop29
280
     1
102
RTVSPost2010PropOp29
 70
     1
102
RTVSPost2010Prop30
280
     1
102
RTVSPost2010PropOp30
 70
     1
102
RTVSPost2010Prop31
280
     0
102
RTVSPost2010PropOp31
 70
     1
102
RTVSPost2010Prop32
280
     0
102
RTVSPost2010PropOp32
 70
     1
102
RTVSPost2010Prop33
280
     0
102
RTVSPost2010PropOp33
 70
     1
102
RTVSPost2010Prop34
280
     0
102
RTVSPost2010PropOp34
 70
     1
102
RTVSPost2010Prop35
280
     0
102
RTVSPost2010PropOp35
 70
     1
102
RTVSPost2010Prop36
280
     0
102
RTVSPost2010PropOp36
 70
     1
102
RTVSPost2010Prop37
 90
       50
102
RTVSPost2010PropOp37
 70
     1
102
RTVSPost2010Prop38
140
0.0
102
RTVSPost2010PropOp38
 70
     1
102
RTVSPost2010Prop39
140
1.0
102
RTVSPost2010PropOp39
 70
     1
102
RTVSPost2010Prop40
 90
        0
102
RTVSPost2010PropOp40
 70
     1
102
RTVSPost2010Prop41ColorIndex
 90
       18
102
RTVSPost2010Prop41ColorRGB
 90
        0
102
RTVSPost2010PropOp41
 70
     1
102
RTVSPost2010Prop42
 90
       50
102
RTVSPost2010PropOp42
 70
     1
102
RTVSPost2010Prop43
 90
        3
102
RTVSPost2010PropOp43
 70
     1
102
RTVSPost2010Prop44ColorIndex
 90
        5
102
RTVSPost2010Prop44ColorRGB
 90
      255
102
RTVSPost2010PropOp44
 70
     1
102
RTVSPost2010Prop45
280
     0
102
RTVSPost2010PropOp45
 70
     1
102
RTVSPost2010Prop46
 90
       50
102
RTVSPost2010PropOp46
 70
     1
102
RTVSPost2010Prop47
 90
       50
102
RTVSPost2010PropOp47
 70
     1
102
RTVSPost2010Prop48
 90
       50
102
RTVSPost2010PropOp48
 70
     1
102
RTVSPost2010Prop49
280
     0
102
RTVSPost2010PropOp49
 70
     1
102
RTVSPost2010Prop50
 90
       50
102
RTVSPost2010PropOp50
 70
     1
102
RTVSPost2010Prop51ColorIndex
 90
      256
102
RTVSPost2010Prop51ColorRGB
 90
-16777216
102
RTVSPost2010PropOp51
 70
     0
102
RTVSPost2010Prop52
140
1.0
102
RTVSPost2010PropOp52
 70
     0
102
RTVSPost2010Prop53
 90
        2
102
RTVSPost2010PropOp53
 70
     1
102
RTVSPost2010Prop54
  1
strokes_ogs.tif
102
RTVSPost2010PropOp54
 70
     1
102
RTVSPost2010Prop55
280
     0
102
RTVSPost2010PropOp55
 70
     1
102
RTVSPost2010Prop56
140
1.0
102
RTVSPost2010PropOp56
 70
     1
102
RTVSPost2010Prop57
140
1.0
102
RTVSPost2010PropOp57
 70
     1
  0
XRECORD
  5
3D1
102
{ACAD_REACTORS
330
3D0
102
}
330
3D0
100
AcDbXrecord
280
     1
102
RTVSPost2010Prop28
280
     0
102
RTVSPost2010PropOp28
 70
     1
102
RTVSPost2010Prop29
280
     1
102
RTVSPost2010PropOp29
 70
     1
102
RTVSPost2010Prop30
280
     1
102
RTVSPost2010PropOp30
 70
     1
102
RTVSPost2010Prop31
280
     0
102
RTVSPost2010PropOp31
 70
     1
102
RTVSPost2010Prop32
280
     0
102
RTVSPost2010PropOp32
 70
     1
102
RTVSPost2010Prop33
280
     0
102
RTVSPost2010PropOp33
 70
     1
102
RTVSPost2010Prop34
280
     0
102
RTVSPost2010PropOp34
 70
     1
102
RTVSPost2010Prop35
280
     0
102
RTVSPost2010PropOp35
 70
     1
102
RTVSPost2010Prop36
280
     0
102
RTVSPost2010PropOp36
 70
     1
102
RTVSPost2010Prop37
 90
       50
102
RTVSPost2010PropOp37
 70
     1
102
RTVSPost2010Prop38
140
0.0
102
RTVSPost2010PropOp38
 70
     1
102
RTVSPost2010Prop39
140
1.0
102
RTVSPost2010PropOp39
 70
     1
102
RTVSPost2010Prop40
 90
        0
102
RTVSPost2010PropOp40
 70
     1
102
RTVSPost2010Prop41ColorIndex
 90
       18
102
RTVSPost2010Prop41ColorRGB
 90
        0
102
RTVSPost2010PropOp41
 70
     1
102
RTVSPost2010Prop42
 90
       50
102
RTVSPost2010PropOp42
 70
     1
102
RTVSPost2010Prop43
 90
        3
102
RTVSPost2010PropOp43
 70
     1
102
RTVSPost2010Prop44ColorIndex
 90
        5
102
RTVSPost2010Prop44ColorRGB
 90
      255
102
RTVSPost2010PropOp44
 70
     1
102
RTVSPost2010Prop45
280
     0
102
RTVSPost2010PropOp45
 70
     1
102
RTVSPost2010Prop46
 90
       50
102
RTVSPost2010PropOp46
 70
     1
102
RTVSPost2010Prop47
 90
       50
102
RTVSPost2010PropOp47
 70
     1
102
RTVSPost2010Prop48
 90
       50
102
RTVSPost2010PropOp48
 70
     1
102
RTVSPost2010Prop49
280
     0
102
RTVSPost2010PropOp49
 70
     1
102
RTVSPost2010Prop50
 90
       50
102
RTVSPost2010PropOp50
 70
     1
102
RTVSPost2010Prop51ColorIndex
 90
      256
102
RTVSPost2010Prop51ColorRGB
 90
-16777216
102
RTVSPost2010PropOp51
 70
     0
102
RTVSPost2010Prop52
140
1.0
102
RTVSPost2010PropOp52
 70
     0
102
RTVSPost2010Prop53
 90
        2
102
RTVSPost2010PropOp53
 70
     1
102
RTVSPost2010Prop54
  1
strokes_ogs.tif
102
RTVSPost2010PropOp54
 70
     1
102
RTVSPost2010Prop55
280
     0
102
RTVSPost2010PropOp55
 70
     1
102
RTVSPost2010Prop56
140
1.0
102
RTVSPost2010PropOp56
 70
     1
102
RTVSPost2010Prop57
140
1.0
102
RTVSPost2010PropOp57
 70
     1
  0
XRECORD
  5
3E1
102
{ACAD_REACTORS
330
3E0
102
}
330
3E0
100
AcDbXrecord
280
     1
102
RTVSPost2010Prop28
280
     0
102
RTVSPost2010PropOp28
 70
     0
102
RTVSPost2010Prop29
280
     1
102
RTVSPost2010PropOp29
 70
     0
102
RTVSPost2010Prop30
280
     1
102
RTVSPost2010PropOp30
 70
     0
102
RTVSPost2010Prop31
280
     0
102
RTVSPost2010PropOp31
 70
     0
102
RTVSPost2010Prop32
280
     0
102
RTVSPost2010PropOp32
 70
     0
102
RTVSPost2010Prop33
280
     0
102
RTVSPost2010PropOp33
 70
     0
102
RTVSPost2010Prop34
280
     0
102
RTVSPost2010PropOp34
 70
     0
102
RTVSPost2010Prop35
280
     0
102
RTVSPost2010PropOp35
 70
     0
102
RTVSPost2010Prop36
280
     0
102
RTVSPost2010PropOp36
 70
     0
102
RTVSPost2010Prop37
 90
       50
102
RTVSPost2010PropOp37
 70
     0
102
RTVSPost2010Prop38
140
0.0
102
RTVSPost2010PropOp38
 70
     0
102
RTVSPost2010Prop39
140
1.0
102
RTVSPost2010PropOp39
 70
     0
102
RTVSPost2010Prop40
 90
        0
102
RTVSPost2010PropOp40
 70
     0
102
RTVSPost2010Prop41ColorIndex
 90
       18
102
RTVSPost2010Prop41ColorRGB
 90
        0
102
RTVSPost2010PropOp41
 70
     0
102
RTVSPost2010Prop42
 90
       50
102
RTVSPost2010PropOp42
 70
     0
102
RTVSPost2010Prop43
 90
        3
102
RTVSPost2010PropOp43
 70
     0
102
RTVSPost2010Prop44ColorIndex
 90
        5
102
RTVSPost2010Prop44ColorRGB
 90
      255
102
RTVSPost2010PropOp44
 70
     0
102
RTVSPost2010Prop45
280
     0
102
RTVSPost2010PropOp45
 70
     0
102
RTVSPost2010Prop46
 90
       50
102
RTVSPost2010PropOp46
 70
     0
102
RTVSPost2010Prop47
 90
       50
102
RTVSPost2010PropOp47
 70
     0
102
RTVSPost2010Prop48
 90
       50
102
RTVSPost2010PropOp48
 70
     0
102
RTVSPost2010Prop49
280
     0
102
RTVSPost2010PropOp49
 70
     0
102
RTVSPost2010Prop50
 90
       50
102
RTVSPost2010PropOp50
 70
     0
102
RTVSPost2010Prop51ColorIndex
 90
      256
102
RTVSPost2010Prop51ColorRGB
 90
-16777216
102
RTVSPost2010PropOp51
 70
     0
102
RTVSPost2010Prop52
140
1.0
102
RTVSPost2010PropOp52
 70
     0
102
RTVSPost2010Prop53
 90
        2
102
RTVSPost2010PropOp53
 70
     0
102
RTVSPost2010Prop54
  1
strokes_ogs.tif
102
RTVSPost2010PropOp54
 70
     0
102
RTVSPost2010Prop55
280
     0
102
RTVSPost2010PropOp55
 70
     0
102
RTVSPost2010Prop56
140
1.0
102
RTVSPost2010PropOp56
 70
     0
102
RTVSPost2010Prop57
140
1.0
102
RTVSPost2010PropOp57
 70
     0
  0
XRECORD
  5
3D9
102
{ACAD_REACTORS
330
3D8
102
}
330
3D8
100
AcDbXrecord
280
     1
102
RTVSPost2010Prop28
280
     0
102
RTVSPost2010PropOp28
 70
     1
102
RTVSPost2010Prop29
280
     1
102
RTVSPost2010PropOp29
 70
     1
102
RTVSPost2010Prop30
280
     1
102
RTVSPost2010PropOp30
 70
     1
102
RTVSPost2010Prop31
280
     0
102
RTVSPost2010PropOp31
 70
     1
102
RTVSPost2010Prop32
280
     0
102
RTVSPost2010PropOp32
 70
     1
102
RTVSPost2010Prop33
280
     0
102
RTVSPost2010PropOp33
 70
     1
102
RTVSPost2010Prop34
280
     0
102
RTVSPost2010PropOp34
 70
     1
102
RTVSPost2010Prop35
280
     0
102
RTVSPost2010PropOp35
 70
     1
102
RTVSPost2010Prop36
280
     0
102
RTVSPost2010PropOp36
 70
     1
102
RTVSPost2010Prop37
 90
       50
102
RTVSPost2010PropOp37
 70
     1
102
RTVSPost2010Prop38
140
0.0
102
RTVSPost2010PropOp38
 70
     1
102
RTVSPost2010Prop39
140
1.0
102
RTVSPost2010PropOp39
 70
     1
102
RTVSPost2010Prop40
 90
        0
102
RTVSPost2010PropOp40
 70
     1
102
RTVSPost2010Prop41ColorIndex
 90
       18
102
RTVSPost2010Prop41ColorRGB
 90
        0
102
RTVSPost2010PropOp41
 70
     1
102
RTVSPost2010Prop42
 90
       50
102
RTVSPost2010PropOp42
 70
     1
102
RTVSPost2010Prop43
 90
        3
102
RTVSPost2010PropOp43
 70
     1
102
RTVSPost2010Prop44ColorIndex
 90
        5
102
RTVSPost2010Prop44ColorRGB
 90
      255
102
RTVSPost2010PropOp44
 70
     1
102
RTVSPost2010Prop45
280
     0
102
RTVSPost2010PropOp45
 70
     1
102
RTVSPost2010Prop46
 90
       50
102
RTVSPost2010PropOp46
 70
     1
102
RTVSPost2010Prop47
 90
       50
102
RTVSPost2010PropOp47
 70
     1
102
RTVSPost2010Prop48
 90
       50
102
RTVSPost2010PropOp48
 70
     1
102
RTVSPost2010Prop49
280
     0
102
RTVSPost2010PropOp49
 70
     1
102
RTVSPost2010Prop50
 90
       50
102
RTVSPost2010PropOp50
 70
     1
102
RTVSPost2010Prop51ColorIndex
 90
      256
102
RTVSPost2010Prop51ColorRGB
 90
-16777216
102
RTVSPost2010PropOp51
 70
     0
102
RTVSPost2010Prop52
140
1.0
102
RTVSPost2010PropOp52
 70
     0
102
RTVSPost2010Prop53
 90
        2
102
RTVSPost2010PropOp53
 70
     1
102
RTVSPost2010Prop54
  1
strokes_ogs.tif
102
RTVSPost2010PropOp54
 70
     1
102
RTVSPost2010Prop55
280
     0
102
RTVSPost2010PropOp55
 70
     1
102
RTVSPost2010Prop56
140
1.0
102
RTVSPost2010PropOp56
 70
     1
102
RTVSPost2010Prop57
140
1.0
102
RTVSPost2010PropOp57
 70
     1
  0
XRECORD
  5
3BD
102
{ACAD_REACTORS
330
3BC
102
}
330
3BC
100
AcDbXrecord
280
     1
102
RTVSPost2010Prop28
280
     0
102
RTVSPost2010PropOp28
 70
     1
102
RTVSPost2010Prop29
280
     1
102
RTVSPost2010PropOp29
 70
     1
102
RTVSPost2010Prop30
280
     1
102
RTVSPost2010PropOp30
 70
     1
102
RTVSPost2010Prop31
280
     0
102
RTVSPost2010PropOp31
 70
     1
102
RTVSPost2010Prop32
280
     0
102
RTVSPost2010PropOp32
 70
     1
102
RTVSPost2010Prop33
280
     0
102
RTVSPost2010PropOp33
 70
     1
102
RTVSPost2010Prop34
280
     0
102
RTVSPost2010PropOp34
 70
     1
102
RTVSPost2010Prop35
280
     0
102
RTVSPost2010PropOp35
 70
     1
102
RTVSPost2010Prop36
280
     0
102
RTVSPost2010PropOp36
 70
     1
102
RTVSPost2010Prop37
 90
       50
102
RTVSPost2010PropOp37
 70
     1
102
RTVSPost2010Prop38
140
0.0
102
RTVSPost2010PropOp38
 70
     1
102
RTVSPost2010Prop39
140
1.0
102
RTVSPost2010PropOp39
 70
     1
102
RTVSPost2010Prop40
 90
        0
102
RTVSPost2010PropOp40
 70
     1
102
RTVSPost2010Prop41ColorIndex
 90
       18
102
RTVSPost2010Prop41ColorRGB
 90
        0
102
RTVSPost2010PropOp41
 70
     1
102
RTVSPost2010Prop42
 90
       50
102
RTVSPost2010PropOp42
 70
     1
102
RTVSPost2010Prop43
 90
        3
102
RTVSPost2010PropOp43
 70
     1
102
RTVSPost2010Prop44ColorIndex
 90
        5
102
RTVSPost2010Prop44ColorRGB
 90
      255
102
RTVSPost2010PropOp44
 70
     1
102
RTVSPost2010Prop45
280
     0
102
RTVSPost2010PropOp45
 70
     1
102
RTVSPost2010Prop46
 90
       50
102
RTVSPost2010PropOp46
 70
     1
102
RTVSPost2010Prop47
 90
       50
102
RTVSPost2010PropOp47
 70
     1
102
RTVSPost2010Prop48
 90
       50
102
RTVSPost2010PropOp48
 70
     1
102
RTVSPost2010Prop49
280
     0
102
RTVSPost2010PropOp49
 70
     1
102
RTVSPost2010Prop50
 90
       50
102
RTVSPost2010PropOp50
 70
     1
102
RTVSPost2010Prop51ColorIndex
 90
      256
102
RTVSPost2010Prop51ColorRGB
 90
-16777216
102
RTVSPost2010PropOp51
 70
     0
102
RTVSPost2010Prop52
140
1.0
102
RTVSPost2010PropOp52
 70
     0
102
RTVSPost2010Prop53
 90
        2
102
RTVSPost2010PropOp53
 70
     1
102
RTVSPost2010Prop54
  1
strokes_ogs.tif
102
RTVSPost2010PropOp54
 70
     1
102
RTVSPost2010Prop55
280
     0
102
RTVSPost2010PropOp55
 70
     1
102
RTVSPost2010Prop56
140
1.0
102
RTVSPost2010PropOp56
 70
     1
102
RTVSPost2010Prop57
140
1.0
102
RTVSPost2010PropOp57
 70
     1
  0
XRECORD
  5
3BF
102
{ACAD_REACTORS
330
3BE
102
}
330
3BE
100
AcDbXrecord
280
     1
102
RTVSPost2010Prop28
280
     0
102
RTVSPost2010PropOp28
 70
     1
102
RTVSPost2010Prop29
280
     1
102
RTVSPost2010PropOp29
 70
     1
102
RTVSPost2010Prop30
280
     1
102
RTVSPost2010PropOp30
 70
     1
102
RTVSPost2010Prop31
280
     0
102
RTVSPost2010PropOp31
 70
     1
102
RTVSPost2010Prop32
280
     0
102
RTVSPost2010PropOp32
 70
     1
102
RTVSPost2010Prop33
280
     0
102
RTVSPost2010PropOp33
 70
     1
102
RTVSPost2010Prop34
280
     0
102
RTVSPost2010PropOp34
 70
     1
102
RTVSPost2010Prop35
280
     0
102
RTVSPost2010PropOp35
 70
     1
102
RTVSPost2010Prop36
280
     0
102
RTVSPost2010PropOp36
 70
     1
102
RTVSPost2010Prop37
 90
       50
102
RTVSPost2010PropOp37
 70
     1
102
RTVSPost2010Prop38
140
0.0
102
RTVSPost2010PropOp38
 70
     1
102
RTVSPost2010Prop39
140
1.0
102
RTVSPost2010PropOp39
 70
     1
102
RTVSPost2010Prop40
 90
        0
102
RTVSPost2010PropOp40
 70
     1
102
RTVSPost2010Prop41ColorIndex
 90
       18
102
RTVSPost2010Prop41ColorRGB
 90
        0
102
RTVSPost2010PropOp41
 70
     1
102
RTVSPost2010Prop42
 90
       50
102
RTVSPost2010PropOp42
 70
     1
102
RTVSPost2010Prop43
 90
        3
102
RTVSPost2010PropOp43
 70
     1
102
RTVSPost2010Prop44ColorIndex
 90
        5
102
RTVSPost2010Prop44ColorRGB
 90
      255
102
RTVSPost2010PropOp44
 70
     1
102
RTVSPost2010Prop45
280
     0
102
RTVSPost2010PropOp45
 70
     1
102
RTVSPost2010Prop46
 90
       50
102
RTVSPost2010PropOp46
 70
     1
102
RTVSPost2010Prop47
 90
       50
102
RTVSPost2010PropOp47
 70
     1
102
RTVSPost2010Prop48
 90
       50
102
RTVSPost2010PropOp48
 70
     1
102
RTVSPost2010Prop49
280
     0
102
RTVSPost2010PropOp49
 70
     1
102
RTVSPost2010Prop50
 90
       50
102
RTVSPost2010PropOp50
 70
     1
102
RTVSPost2010Prop51ColorIndex
 90
      256
102
RTVSPost2010Prop51ColorRGB
 90
-16777216
102
RTVSPost2010PropOp51
 70
     0
102
RTVSPost2010Prop52
140
1.0
102
RTVSPost2010PropOp52
 70
     0
102
RTVSPost2010Prop53
 90
        2
102
RTVSPost2010PropOp53
 70
     1
102
RTVSPost2010Prop54
  1
strokes_ogs.tif
102
RTVSPost2010PropOp54
 70
     1
102
RTVSPost2010Prop55
280
     0
102
RTVSPost2010PropOp55
 70
     1
102
RTVSPost2010Prop56
140
1.0
102
RTVSPost2010PropOp56
 70
     1
102
RTVSPost2010Prop57
140
1.0
102
RTVSPost2010PropOp57
 70
     1
  0
XRECORD
  5
3C1
102
{ACAD_REACTORS
330
3C0
102
}
330
3C0
100
AcDbXrecord
280
     1
102
RTVSPost2010Prop28
280
     0
102
RTVSPost2010PropOp28
 70
     1
102
RTVSPost2010Prop29
280
     1
102
RTVSPost2010PropOp29
 70
     1
102
RTVSPost2010Prop30
280
     1
102
RTVSPost2010PropOp30
 70
     1
102
RTVSPost2010Prop31
280
     0
102
RTVSPost2010PropOp31
 70
     1
102
RTVSPost2010Prop32
280
     0
102
RTVSPost2010PropOp32
 70
     1
102
RTVSPost2010Prop33
280
     0
102
RTVSPost2010PropOp33
 70
     1
102
RTVSPost2010Prop34
280
     0
102
RTVSPost2010PropOp34
 70
     1
102
RTVSPost2010Prop35
280
     0
102
RTVSPost2010PropOp35
 70
     1
102
RTVSPost2010Prop36
280
     0
102
RTVSPost2010PropOp36
 70
     1
102
RTVSPost2010Prop37
 90
       50
102
RTVSPost2010PropOp37
 70
     1
102
RTVSPost2010Prop38
140
0.0
102
RTVSPost2010PropOp38
 70
     1
102
RTVSPost2010Prop39
140
1.0
102
RTVSPost2010PropOp39
 70
     1
102
RTVSPost2010Prop40
 90
        0
102
RTVSPost2010PropOp40
 70
     1
102
RTVSPost2010Prop41ColorIndex
 90
       18
102
RTVSPost2010Prop41ColorRGB
 90
        0
102
RTVSPost2010PropOp41
 70
     1
102
RTVSPost2010Prop42
 90
       50
102
RTVSPost2010PropOp42
 70
     1
102
RTVSPost2010Prop43
 90
        3
102
RTVSPost2010PropOp43
 70
     1
102
RTVSPost2010Prop44ColorIndex
 90
        5
102
RTVSPost2010Prop44ColorRGB
 90
      255
102
RTVSPost2010PropOp44
 70
     1
102
RTVSPost2010Prop45
280
     0
102
RTVSPost2010PropOp45
 70
     1
102
RTVSPost2010Prop46
 90
       50
102
RTVSPost2010PropOp46
 70
     1
102
RTVSPost2010Prop47
 90
       50
102
RTVSPost2010PropOp47
 70
     1
102
RTVSPost2010Prop48
 90
       50
102
RTVSPost2010PropOp48
 70
     1
102
RTVSPost2010Prop49
280
     0
102
RTVSPost2010PropOp49
 70
     1
102
RTVSPost2010Prop50
 90
       50
102
RTVSPost2010PropOp50
 70
     1
102
RTVSPost2010Prop51ColorIndex
 90
      256
102
RTVSPost2010Prop51ColorRGB
 90
-16777216
102
RTVSPost2010PropOp51
 70
     0
102
RTVSPost2010Prop52
140
1.0
102
RTVSPost2010PropOp52
 70
     0
102
RTVSPost2010Prop53
 90
        2
102
RTVSPost2010PropOp53
 70
     1
102
RTVSPost2010Prop54
  1
strokes_ogs.tif
102
RTVSPost2010PropOp54
 70
     1
102
RTVSPost2010Prop55
280
     0
102
RTVSPost2010PropOp55
 70
     1
102
RTVSPost2010Prop56
140
1.0
102
RTVSPost2010PropOp56
 70
     1
102
RTVSPost2010Prop57
140
1.0
102
RTVSPost2010PropOp57
 70
     1
  0
XRECORD
  5
3C3
102
{ACAD_REACTORS
330
3C2
102
}
330
3C2
100
AcDbXrecord
280
     1
102
RTVSPost2010Prop28
280
     0
102
RTVSPost2010PropOp28
 70
     1
102
RTVSPost2010Prop29
280
     1
102
RTVSPost2010PropOp29
 70
     1
102
RTVSPost2010Prop30
280
     1
102
RTVSPost2010PropOp30
 70
     1
102
RTVSPost2010Prop31
280
     0
102
RTVSPost2010PropOp31
 70
     1
102
RTVSPost2010Prop32
280
     0
102
RTVSPost2010PropOp32
 70
     1
102
RTVSPost2010Prop33
280
     0
102
RTVSPost2010PropOp33
 70
     1
102
RTVSPost2010Prop34
280
     0
102
RTVSPost2010PropOp34
 70
     1
102
RTVSPost2010Prop35
280
     0
102
RTVSPost2010PropOp35
 70
     1
102
RTVSPost2010Prop36
280
     0
102
RTVSPost2010PropOp36
 70
     1
102
RTVSPost2010Prop37
 90
       50
102
RTVSPost2010PropOp37
 70
     1
102
RTVSPost2010Prop38
140
0.0
102
RTVSPost2010PropOp38
 70
     1
102
RTVSPost2010Prop39
140
1.0
102
RTVSPost2010PropOp39
 70
     1
102
RTVSPost2010Prop40
 90
        0
102
RTVSPost2010PropOp40
 70
     1
102
RTVSPost2010Prop41ColorIndex
 90
       18
102
RTVSPost2010Prop41ColorRGB
 90
        0
102
RTVSPost2010PropOp41
 70
     1
102
RTVSPost2010Prop42
 90
       50
102
RTVSPost2010PropOp42
 70
     1
102
RTVSPost2010Prop43
 90
        3
102
RTVSPost2010PropOp43
 70
     1
102
RTVSPost2010Prop44ColorIndex
 90
        5
102
RTVSPost2010Prop44ColorRGB
 90
      255
102
RTVSPost2010PropOp44
 70
     1
102
RTVSPost2010Prop45
280
     0
102
RTVSPost2010PropOp45
 70
     1
102
RTVSPost2010Prop46
 90
       50
102
RTVSPost2010PropOp46
 70
     1
102
RTVSPost2010Prop47
 90
       50
102
RTVSPost2010PropOp47
 70
     1
102
RTVSPost2010Prop48
 90
       50
102
RTVSPost2010PropOp48
 70
     1
102
RTVSPost2010Prop49
280
     0
102
RTVSPost2010PropOp49
 70
     1
102
RTVSPost2010Prop50
 90
       50
102
RTVSPost2010PropOp50
 70
     1
102
RTVSPost2010Prop51ColorIndex
 90
      256
102
RTVSPost2010Prop51ColorRGB
 90
-16777216
102
RTVSPost2010PropOp51
 70
     0
102
RTVSPost2010Prop52
140
1.0
102
RTVSPost2010PropOp52
 70
     0
102
RTVSPost2010Prop53
 90
        2
102
RTVSPost2010PropOp53
 70
     1
102
RTVSPost2010Prop54
  1
strokes_ogs.tif
102
RTVSPost2010PropOp54
 70
     1
102
RTVSPost2010Prop55
280
     0
102
RTVSPost2010PropOp55
 70
     1
102
RTVSPost2010Prop56
140
1.0
102
RTVSPost2010PropOp56
 70
     1
102
RTVSPost2010Prop57
140
1.0
102
RTVSPost2010PropOp57
 70
     1
  0
XRECORD
  5
3C9
102
{ACAD_REACTORS
330
3C8
102
}
330
3C8
100
AcDbXrecord
280
     1
102
RTVSPost2010Prop28
280
     0
102
RTVSPost2010PropOp28
 70
     1
102
RTVSPost2010Prop29
280
     1
102
RTVSPost2010PropOp29
 70
     1
102
RTVSPost2010Prop30
280
     1
102
RTVSPost2010PropOp30
 70
     1
102
RTVSPost2010Prop31
280
     0
102
RTVSPost2010PropOp31
 70
     1
102
RTVSPost2010Prop32
280
     0
102
RTVSPost2010PropOp32
 70
     1
102
RTVSPost2010Prop33
280
     0
102
RTVSPost2010PropOp33
 70
     1
102
RTVSPost2010Prop34
280
     0
102
RTVSPost2010PropOp34
 70
     1
102
RTVSPost2010Prop35
280
     0
102
RTVSPost2010PropOp35
 70
     1
102
RTVSPost2010Prop36
280
     0
102
RTVSPost2010PropOp36
 70
     1
102
RTVSPost2010Prop37
 90
       50
102
RTVSPost2010PropOp37
 70
     1
102
RTVSPost2010Prop38
140
0.0
102
RTVSPost2010PropOp38
 70
     1
102
RTVSPost2010Prop39
140
1.0
102
RTVSPost2010PropOp39
 70
     1
102
RTVSPost2010Prop40
 90
        0
102
RTVSPost2010PropOp40
 70
     1
102
RTVSPost2010Prop41ColorIndex
 90
       18
102
RTVSPost2010Prop41ColorRGB
 90
        0
102
RTVSPost2010PropOp41
 70
     1
102
RTVSPost2010Prop42
 90
       50
102
RTVSPost2010PropOp42
 70
     1
102
RTVSPost2010Prop43
 90
        3
102
RTVSPost2010PropOp43
 70
     1
102
RTVSPost2010Prop44ColorIndex
 90
        5
102
RTVSPost2010Prop44ColorRGB
 90
      255
102
RTVSPost2010PropOp44
 70
     1
102
RTVSPost2010Prop45
280
     0
102
RTVSPost2010PropOp45
 70
     1
102
RTVSPost2010Prop46
 90
       50
102
RTVSPost2010PropOp46
 70
     1
102
RTVSPost2010Prop47
 90
       50
102
RTVSPost2010PropOp47
 70
     1
102
RTVSPost2010Prop48
 90
       50
102
RTVSPost2010PropOp48
 70
     1
102
RTVSPost2010Prop49
280
     0
102
RTVSPost2010PropOp49
 70
     1
102
RTVSPost2010Prop50
 90
       50
102
RTVSPost2010PropOp50
 70
     1
102
RTVSPost2010Prop51ColorIndex
 90
      256
102
RTVSPost2010Prop51ColorRGB
 90
-16777216
102
RTVSPost2010PropOp51
 70
     0
102
RTVSPost2010Prop52
140
1.0
102
RTVSPost2010PropOp52
 70
     0
102
RTVSPost2010Prop53
 90
        2
102
RTVSPost2010PropOp53
 70
     1
102
RTVSPost2010Prop54
  1
strokes_ogs.tif
102
RTVSPost2010PropOp54
 70
     1
102
RTVSPost2010Prop55
280
     0
102
RTVSPost2010PropOp55
 70
     1
102
RTVSPost2010Prop56
140
1.0
102
RTVSPost2010PropOp56
 70
     1
102
RTVSPost2010Prop57
140
1.0
102
RTVSPost2010PropOp57
 70
     1
  0
XRECORD
  5
3DD
102
{ACAD_REACTORS
330
3DC
102
}
330
3DC
100
AcDbXrecord
280
     1
102
RTVSPost2010Prop28
280
     0
102
RTVSPost2010PropOp28
 70
     0
102
RTVSPost2010Prop29
280
     1
102
RTVSPost2010PropOp29
 70
     0
102
RTVSPost2010Prop30
280
     1
102
RTVSPost2010PropOp30
 70
     0
102
RTVSPost2010Prop31
280
     0
102
RTVSPost2010PropOp31
 70
     0
102
RTVSPost2010Prop32
280
     0
102
RTVSPost2010PropOp32
 70
     0
102
RTVSPost2010Prop33
280
     0
102
RTVSPost2010PropOp33
 70
     0
102
RTVSPost2010Prop34
280
     0
102
RTVSPost2010PropOp34
 70
     0
102
RTVSPost2010Prop35
280
     0
102
RTVSPost2010PropOp35
 70
     0
102
RTVSPost2010Prop36
280
     0
102
RTVSPost2010PropOp36
 70
     0
102
RTVSPost2010Prop37
 90
       50
102
RTVSPost2010PropOp37
 70
     0
102
RTVSPost2010Prop38
140
0.0
102
RTVSPost2010PropOp38
 70
     0
102
RTVSPost2010Prop39
140
1.0
102
RTVSPost2010PropOp39
 70
     0
102
RTVSPost2010Prop40
 90
        0
102
RTVSPost2010PropOp40
 70
     0
102
RTVSPost2010Prop41ColorIndex
 90
       18
102
RTVSPost2010Prop41ColorRGB
 90
        0
102
RTVSPost2010PropOp41
 70
     0
102
RTVSPost2010Prop42
 90
       50
102
RTVSPost2010PropOp42
 70
     0
102
RTVSPost2010Prop43
 90
        3
102
RTVSPost2010PropOp43
 70
     0
102
RTVSPost2010Prop44ColorIndex
 90
        5
102
RTVSPost2010Prop44ColorRGB
 90
      255
102
RTVSPost2010PropOp44
 70
     0
102
RTVSPost2010Prop45
280
     0
102
RTVSPost2010PropOp45
 70
     0
102
RTVSPost2010Prop46
 90
       50
102
RTVSPost2010PropOp46
 70
     0
102
RTVSPost2010Prop47
 90
       50
102
RTVSPost2010PropOp47
 70
     0
102
RTVSPost2010Prop48
 90
       50
102
RTVSPost2010PropOp48
 70
     0
102
RTVSPost2010Prop49
280
     0
102
RTVSPost2010PropOp49
 70
     0
102
RTVSPost2010Prop50
 90
       50
102
RTVSPost2010PropOp50
 70
     0
102
RTVSPost2010Prop51ColorIndex
 90
      256
102
RTVSPost2010Prop51ColorRGB
 90
-16777216
102
RTVSPost2010PropOp51
 70
     0
102
RTVSPost2010Prop52
140
1.0
102
RTVSPost2010PropOp52
 70
     0
102
RTVSPost2010Prop53
 90
        2
102
RTVSPost2010PropOp53
 70
     0
102
RTVSPost2010Prop54
  1
strokes_ogs.tif
102
RTVSPost2010PropOp54
 70
     0
102
RTVSPost2010Prop55
280
     0
102
RTVSPost2010PropOp55
 70
     0
102
RTVSPost2010Prop56
140
1.0
102
RTVSPost2010PropOp56
 70
     0
102
RTVSPost2010Prop57
140
1.0
102
RTVSPost2010PropOp57
 70
     0
  0
XRECORD
  5
3D7
102
{ACAD_REACTORS
330
3D6
102
}
330
3D6
100
AcDbXrecord
280
     1
102
RTVSPost2010Prop28
280
     0
102
RTVSPost2010PropOp28
 70
     1
102
RTVSPost2010Prop29
280
     1
102
RTVSPost2010PropOp29
 70
     1
102
RTVSPost2010Prop30
280
     1
102
RTVSPost2010PropOp30
 70
     1
102
RTVSPost2010Prop31
280
     0
102
RTVSPost2010PropOp31
 70
     1
102
RTVSPost2010Prop32
280
     0
102
RTVSPost2010PropOp32
 70
     1
102
RTVSPost2010Prop33
280
     0
102
RTVSPost2010PropOp33
 70
     1
102
RTVSPost2010Prop34
280
     0
102
RTVSPost2010PropOp34
 70
     1
102
RTVSPost2010Prop35
280
     0
102
RTVSPost2010PropOp35
 70
     1
102
RTVSPost2010Prop36
280
     0
102
RTVSPost2010PropOp36
 70
     1
102
RTVSPost2010Prop37
 90
       50
102
RTVSPost2010PropOp37
 70
     1
102
RTVSPost2010Prop38
140
0.0
102
RTVSPost2010PropOp38
 70
     1
102
RTVSPost2010Prop39
140
1.0
102
RTVSPost2010PropOp39
 70
     1
102
RTVSPost2010Prop40
 90
        0
102
RTVSPost2010PropOp40
 70
     1
102
RTVSPost2010Prop41ColorIndex
 90
       18
102
RTVSPost2010Prop41ColorRGB
 90
        0
102
RTVSPost2010PropOp41
 70
     1
102
RTVSPost2010Prop42
 90
       50
102
RTVSPost2010PropOp42
 70
     1
102
RTVSPost2010Prop43
 90
        3
102
RTVSPost2010PropOp43
 70
     1
102
RTVSPost2010Prop44ColorIndex
 90
        5
102
RTVSPost2010Prop44ColorRGB
 90
      255
102
RTVSPost2010PropOp44
 70
     1
102
RTVSPost2010Prop45
280
     0
102
RTVSPost2010PropOp45
 70
     1
102
RTVSPost2010Prop46
 90
       50
102
RTVSPost2010PropOp46
 70
     1
102
RTVSPost2010Prop47
 90
       50
102
RTVSPost2010PropOp47
 70
     1
102
RTVSPost2010Prop48
 90
       50
102
RTVSPost2010PropOp48
 70
     1
102
RTVSPost2010Prop49
280
     0
102
RTVSPost2010PropOp49
 70
     1
102
RTVSPost2010Prop50
 90
       50
102
RTVSPost2010PropOp50
 70
     1
102
RTVSPost2010Prop51ColorIndex
 90
      256
102
RTVSPost2010Prop51ColorRGB
 90
-16777216
102
RTVSPost2010PropOp51
 70
     0
102
RTVSPost2010Prop52
140
1.0
102
RTVSPost2010PropOp52
 70
     0
102
RTVSPost2010Prop53
 90
        2
102
RTVSPost2010PropOp53
 70
     1
102
RTVSPost2010Prop54
  1
strokes_ogs.tif
102
RTVSPost2010PropOp54
 70
     1
102
RTVSPost2010Prop55
280
     0
102
RTVSPost2010PropOp55
 70
     1
102
RTVSPost2010Prop56
140
1.0
102
RTVSPost2010PropOp56
 70
     1
102
RTVSPost2010Prop57
140
1.0
102
RTVSPost2010PropOp57
 70
     1
  0
XRECORD
  5
3DF
102
{ACAD_REACTORS
330
3DE
102
}
330
3DE
100
AcDbXrecord
280
     1
102
RTVSPost2010Prop28
280
     0
102
RTVSPost2010PropOp28
 70
     0
102
RTVSPost2010Prop29
280
     1
102
RTVSPost2010PropOp29
 70
     0
102
RTVSPost2010Prop30
280
     1
102
RTVSPost2010PropOp30
 70
     0
102
RTVSPost2010Prop31
280
     0
102
RTVSPost2010PropOp31
 70
     0
102
RTVSPost2010Prop32
280
     0
102
RTVSPost2010PropOp32
 70
     0
102
RTVSPost2010Prop33
280
     0
102
RTVSPost2010PropOp33
 70
     0
102
RTVSPost2010Prop34
280
     0
102
RTVSPost2010PropOp34
 70
     0
102
RTVSPost2010Prop35
280
     0
102
RTVSPost2010PropOp35
 70
     0
102
RTVSPost2010Prop36
280
     0
102
RTVSPost2010PropOp36
 70
     0
102
RTVSPost2010Prop37
 90
       50
102
RTVSPost2010PropOp37
 70
     0
102
RTVSPost2010Prop38
140
0.0
102
RTVSPost2010PropOp38
 70
     0
102
RTVSPost2010Prop39
140
1.0
102
RTVSPost2010PropOp39
 70
     0
102
RTVSPost2010Prop40
 90
        0
102
RTVSPost2010PropOp40
 70
     0
102
RTVSPost2010Prop41ColorIndex
 90
       18
102
RTVSPost2010Prop41ColorRGB
 90
        0
102
RTVSPost2010PropOp41
 70
     0
102
RTVSPost2010Prop42
 90
       50
102
RTVSPost2010PropOp42
 70
     0
102
RTVSPost2010Prop43
 90
        3
102
RTVSPost2010PropOp43
 70
     0
102
RTVSPost2010Prop44ColorIndex
 90
        5
102
RTVSPost2010Prop44ColorRGB
 90
      255
102
RTVSPost2010PropOp44
 70
     0
102
RTVSPost2010Prop45
280
     0
102
RTVSPost2010PropOp45
 70
     0
102
RTVSPost2010Prop46
 90
       50
102
RTVSPost2010PropOp46
 70
     0
102
RTVSPost2010Prop47
 90
       50
102
RTVSPost2010PropOp47
 70
     0
102
RTVSPost2010Prop48
 90
       50
102
RTVSPost2010PropOp48
 70
     0
102
RTVSPost2010Prop49
280
     0
102
RTVSPost2010PropOp49
 70
     0
102
RTVSPost2010Prop50
 90
       50
102
RTVSPost2010PropOp50
 70
     0
102
RTVSPost2010Prop51ColorIndex
 90
      256
102
RTVSPost2010Prop51ColorRGB
 90
-16777216
102
RTVSPost2010PropOp51
 70
     0
102
RTVSPost2010Prop52
140
1.0
102
RTVSPost2010PropOp52
 70
     0
102
RTVSPost2010Prop53
 90
        2
102
RTVSPost2010PropOp53
 70
     0
102
RTVSPost2010Prop54
  1
strokes_ogs.tif
102
RTVSPost2010PropOp54
 70
     0
102
RTVSPost2010Prop55
280
     0
102
RTVSPost2010PropOp55
 70
     0
102
RTVSPost2010Prop56
140
1.0
102
RTVSPost2010PropOp56
 70
     0
102
RTVSPost2010Prop57
140
1.0
102
RTVSPost2010PropOp57
 70
     0
  0
XRECORD
  5
3CD
102
{ACAD_REACTORS
330
3CC
102
}
330
3CC
100
AcDbXrecord
280
     1
102
RTVSPost2010Prop28
280
     0
102
RTVSPost2010PropOp28
 70
     1
102
RTVSPost2010Prop29
280
     1
102
RTVSPost2010PropOp29
 70
     1
102
RTVSPost2010Prop30
280
     1
102
RTVSPost2010PropOp30
 70
     1
102
RTVSPost2010Prop31
280
     0
102
RTVSPost2010PropOp31
 70
     1
102
RTVSPost2010Prop32
280
     0
102
RTVSPost2010PropOp32
 70
     1
102
RTVSPost2010Prop33
280
     0
102
RTVSPost2010PropOp33
 70
     1
102
RTVSPost2010Prop34
280
     0
102
RTVSPost2010PropOp34
 70
     1
102
RTVSPost2010Prop35
280
     0
102
RTVSPost2010PropOp35
 70
     1
102
RTVSPost2010Prop36
280
     0
102
RTVSPost2010PropOp36
 70
     1
102
RTVSPost2010Prop37
 90
       50
102
RTVSPost2010PropOp37
 70
     1
102
RTVSPost2010Prop38
140
0.0
102
RTVSPost2010PropOp38
 70
     1
102
RTVSPost2010Prop39
140
1.0
102
RTVSPost2010PropOp39
 70
     1
102
RTVSPost2010Prop40
 90
        0
102
RTVSPost2010PropOp40
 70
     1
102
RTVSPost2010Prop41ColorIndex
 90
       18
102
RTVSPost2010Prop41ColorRGB
 90
        0
102
RTVSPost2010PropOp41
 70
     1
102
RTVSPost2010Prop42
 90
       50
102
RTVSPost2010PropOp42
 70
     1
102
RTVSPost2010Prop43
 90
        3
102
RTVSPost2010PropOp43
 70
     1
102
RTVSPost2010Prop44ColorIndex
 90
        5
102
RTVSPost2010Prop44ColorRGB
 90
      255
102
RTVSPost2010PropOp44
 70
     1
102
RTVSPost2010Prop45
280
     0
102
RTVSPost2010PropOp45
 70
     1
102
RTVSPost2010Prop46
 90
       50
102
RTVSPost2010PropOp46
 70
     1
102
RTVSPost2010Prop47
 90
       50
102
RTVSPost2010PropOp47
 70
     1
102
RTVSPost2010Prop48
 90
       50
102
RTVSPost2010PropOp48
 70
     1
102
RTVSPost2010Prop49
280
     0
102
RTVSPost2010PropOp49
 70
     1
102
RTVSPost2010Prop50
 90
       50
102
RTVSPost2010PropOp50
 70
     1
102
RTVSPost2010Prop51ColorIndex
 90
      256
102
RTVSPost2010Prop51ColorRGB
 90
-16777216
102
RTVSPost2010PropOp51
 70
     0
102
RTVSPost2010Prop52
140
1.0
102
RTVSPost2010PropOp52
 70
     0
102
RTVSPost2010Prop53
 90
        2
102
RTVSPost2010PropOp53
 70
     1
102
RTVSPost2010Prop54
  1
strokes_ogs.tif
102
RTVSPost2010PropOp54
 70
     1
102
RTVSPost2010Prop55
280
     0
102
RTVSPost2010PropOp55
 70
     1
102
RTVSPost2010Prop56
140
1.0
102
RTVSPost2010PropOp56
 70
     1
102
RTVSPost2010Prop57
140
1.0
102
RTVSPost2010PropOp57
 70
     1
  0
XRECORD
  5
3EB
102
{ACAD_REACTORS
330
3EA
102
}
330
3EA
100
AcDbXrecord
280
     1
102
RTVSPost2010Prop28
280
     0
102
RTVSPost2010PropOp28
 70
     1
102
RTVSPost2010Prop29
280
     1
102
RTVSPost2010PropOp29
 70
     1
102
RTVSPost2010Prop30
280
     1
102
RTVSPost2010PropOp30
 70
     1
102
RTVSPost2010Prop31
280
     0
102
RTVSPost2010PropOp31
 70
     1
102
RTVSPost2010Prop32
280
     0
102
RTVSPost2010PropOp32
 70
     1
102
RTVSPost2010Prop33
280
     0
102
RTVSPost2010PropOp33
 70
     1
102
RTVSPost2010Prop34
280
     0
102
RTVSPost2010PropOp34
 70
     1
102
RTVSPost2010Prop35
280
     0
102
RTVSPost2010PropOp35
 70
     1
102
RTVSPost2010Prop36
280
     0
102
RTVSPost2010PropOp36
 70
     1
102
RTVSPost2010Prop37
 90
       50
102
RTVSPost2010PropOp37
 70
     1
102
RTVSPost2010Prop38
140
0.0
102
RTVSPost2010PropOp38
 70
     1
102
RTVSPost2010Prop39
140
1.0
102
RTVSPost2010PropOp39
 70
     1
102
RTVSPost2010Prop40
 90
        0
102
RTVSPost2010PropOp40
 70
     1
102
RTVSPost2010Prop41ColorIndex
 90
       18
102
RTVSPost2010Prop41ColorRGB
 90
        0
102
RTVSPost2010PropOp41
 70
     1
102
RTVSPost2010Prop42
 90
       50
102
RTVSPost2010PropOp42
 70
     1
102
RTVSPost2010Prop43
 90
        3
102
RTVSPost2010PropOp43
 70
     1
102
RTVSPost2010Prop44ColorIndex
 90
        5
102
RTVSPost2010Prop44ColorRGB
 90
      255
102
RTVSPost2010PropOp44
 70
     1
102
RTVSPost2010Prop45
280
     0
102
RTVSPost2010PropOp45
 70
     1
102
RTVSPost2010Prop46
 90
       50
102
RTVSPost2010PropOp46
 70
     1
102
RTVSPost2010Prop47
 90
       50
102
RTVSPost2010PropOp47
 70
     1
102
RTVSPost2010Prop48
 90
       50
102
RTVSPost2010PropOp48
 70
     1
102
RTVSPost2010Prop49
280
     0
102
RTVSPost2010PropOp49
 70
     1
102
RTVSPost2010Prop50
 90
       50
102
RTVSPost2010PropOp50
 70
     1
102
RTVSPost2010Prop51ColorIndex
 90
      256
102
RTVSPost2010Prop51ColorRGB
 90
-16777216
102
RTVSPost2010PropOp51
 70
     0
102
RTVSPost2010Prop52
140
1.0
102
RTVSPost2010PropOp52
 70
     0
102
RTVSPost2010Prop53
 90
        2
102
RTVSPost2010PropOp53
 70
     1
102
RTVSPost2010Prop54
  1
strokes_ogs.tif
102
RTVSPost2010PropOp54
 70
     1
102
RTVSPost2010Prop55
280
     0
102
RTVSPost2010PropOp55
 70
     1
102
RTVSPost2010Prop56
140
1.0
102
RTVSPost2010PropOp56
 70
     1
102
RTVSPost2010Prop57
140
1.0
102
RTVSPost2010PropOp57
 70
     1
  0
XRECORD
  5
3E9
102
{ACAD_REACTORS
330
3E8
102
}
330
3E8
100
AcDbXrecord
280
     1
102
RTVSPost2010Prop28
280
     0
102
RTVSPost2010PropOp28
 70
     1
102
RTVSPost2010Prop29
280
     1
102
RTVSPost2010PropOp29
 70
     1
102
RTVSPost2010Prop30
280
     1
102
RTVSPost2010PropOp30
 70
     1
102
RTVSPost2010Prop31
280
     0
102
RTVSPost2010PropOp31
 70
     1
102
RTVSPost2010Prop32
280
     0
102
RTVSPost2010PropOp32
 70
     1
102
RTVSPost2010Prop33
280
     0
102
RTVSPost2010PropOp33
 70
     1
102
RTVSPost2010Prop34
280
     0
102
RTVSPost2010PropOp34
 70
     1
102
RTVSPost2010Prop35
280
     0
102
RTVSPost2010PropOp35
 70
     1
102
RTVSPost2010Prop36
280
     0
102
RTVSPost2010PropOp36
 70
     1
102
RTVSPost2010Prop37
 90
       50
102
RTVSPost2010PropOp37
 70
     1
102
RTVSPost2010Prop38
140
0.0
102
RTVSPost2010PropOp38
 70
     1
102
RTVSPost2010Prop39
140
1.0
102
RTVSPost2010PropOp39
 70
     1
102
RTVSPost2010Prop40
 90
        0
102
RTVSPost2010PropOp40
 70
     1
102
RTVSPost2010Prop41ColorIndex
 90
       18
102
RTVSPost2010Prop41ColorRGB
 90
        0
102
RTVSPost2010PropOp41
 70
     1
102
RTVSPost2010Prop42
 90
       50
102
RTVSPost2010PropOp42
 70
     1
102
RTVSPost2010Prop43
 90
        3
102
RTVSPost2010PropOp43
 70
     1
102
RTVSPost2010Prop44ColorIndex
 90
        5
102
RTVSPost2010Prop44ColorRGB
 90
      255
102
RTVSPost2010PropOp44
 70
     1
102
RTVSPost2010Prop45
280
     0
102
RTVSPost2010PropOp45
 70
     1
102
RTVSPost2010Prop46
 90
       50
102
RTVSPost2010PropOp46
 70
     1
102
RTVSPost2010Prop47
 90
       50
102
RTVSPost2010PropOp47
 70
     1
102
RTVSPost2010Prop48
 90
       50
102
RTVSPost2010PropOp48
 70
     1
102
RTVSPost2010Prop49
280
     0
102
RTVSPost2010PropOp49
 70
     1
102
RTVSPost2010Prop50
 90
       50
102
RTVSPost2010PropOp50
 70
     1
102
RTVSPost2010Prop51ColorIndex
 90
      256
102
RTVSPost2010Prop51ColorRGB
 90
-16777216
102
RTVSPost2010PropOp51
 70
     0
102
RTVSPost2010Prop52
140
1.0
102
RTVSPost2010PropOp52
 70
     0
102
RTVSPost2010Prop53
 90
        2
102
RTVSPost2010PropOp53
 70
     1
102
RTVSPost2010Prop54
  1
strokes_ogs.tif
102
RTVSPost2010PropOp54
 70
     1
102
RTVSPost2010Prop55
280
     0
102
RTVSPost2010PropOp55
 70
     1
102
RTVSPost2010Prop56
140
1.0
102
RTVSPost2010PropOp56
 70
     1
102
RTVSPost2010Prop57
140
1.0
102
RTVSPost2010PropOp57
 70
     1
  0
XRECORD
  5
3E3
102
{ACAD_REACTORS
330
3E2
102
}
330
3E2
100
AcDbXrecord
280
     1
102
RTVSPost2010Prop28
280
     0
102
RTVSPost2010PropOp28
 70
     1
102
RTVSPost2010Prop29
280
     1
102
RTVSPost2010PropOp29
 70
     1
102
RTVSPost2010Prop30
280
     1
102
RTVSPost2010PropOp30
 70
     1
102
RTVSPost2010Prop31
280
     0
102
RTVSPost2010PropOp31
 70
     1
102
RTVSPost2010Prop32
280
     0
102
RTVSPost2010PropOp32
 70
     1
102
RTVSPost2010Prop33
280
     0
102
RTVSPost2010PropOp33
 70
     1
102
RTVSPost2010Prop34
280
     0
102
RTVSPost2010PropOp34
 70
     1
102
RTVSPost2010Prop35
280
     0
102
RTVSPost2010PropOp35
 70
     1
102
RTVSPost2010Prop36
280
     0
102
RTVSPost2010PropOp36
 70
     1
102
RTVSPost2010Prop37
 90
       50
102
RTVSPost2010PropOp37
 70
     1
102
RTVSPost2010Prop38
140
0.0
102
RTVSPost2010PropOp38
 70
     1
102
RTVSPost2010Prop39
140
1.0
102
RTVSPost2010PropOp39
 70
     1
102
RTVSPost2010Prop40
 90
        0
102
RTVSPost2010PropOp40
 70
     1
102
RTVSPost2010Prop41ColorIndex
 90
       18
102
RTVSPost2010Prop41ColorRGB
 90
        0
102
RTVSPost2010PropOp41
 70
     1
102
RTVSPost2010Prop42
 90
       50
102
RTVSPost2010PropOp42
 70
     1
102
RTVSPost2010Prop43
 90
        3
102
RTVSPost2010PropOp43
 70
     1
102
RTVSPost2010Prop44ColorIndex
 90
        5
102
RTVSPost2010Prop44ColorRGB
 90
      255
102
RTVSPost2010PropOp44
 70
     1
102
RTVSPost2010Prop45
280
     0
102
RTVSPost2010PropOp45
 70
     1
102
RTVSPost2010Prop46
 90
       50
102
RTVSPost2010PropOp46
 70
     1
102
RTVSPost2010Prop47
 90
       50
102
RTVSPost2010PropOp47
 70
     1
102
RTVSPost2010Prop48
 90
       50
102
RTVSPost2010PropOp48
 70
     1
102
RTVSPost2010Prop49
280
     0
102
RTVSPost2010PropOp49
 70
     1
102
RTVSPost2010Prop50
 90
       50
102
RTVSPost2010PropOp50
 70
     1
102
RTVSPost2010Prop51ColorIndex
 90
      256
102
RTVSPost2010Prop51ColorRGB
 90
-16777216
102
RTVSPost2010PropOp51
 70
     0
102
RTVSPost2010Prop52
140
1.0
102
RTVSPost2010PropOp52
 70
     0
102
RTVSPost2010Prop53
 90
        2
102
RTVSPost2010PropOp53
 70
     1
102
RTVSPost2010Prop54
  1
strokes_ogs.tif
102
RTVSPost2010PropOp54
 70
     1
102
RTVSPost2010Prop55
280
     0
102
RTVSPost2010PropOp55
 70
     1
102
RTVSPost2010Prop56
140
1.0
102
RTVSPost2010PropOp56
 70
     1
102
RTVSPost2010Prop57
140
1.0
102
RTVSPost2010PropOp57
 70
     1
  0
XRECORD
  5
3E5
102
{ACAD_REACTORS
330
3E4
102
}
330
3E4
100
AcDbXrecord
280
     1
102
RTVSPost2010Prop28
280
     0
102
RTVSPost2010PropOp28
 70
     1
102
RTVSPost2010Prop29
280
     1
102
RTVSPost2010PropOp29
 70
     1
102
RTVSPost2010Prop30
280
     1
102
RTVSPost2010PropOp30
 70
     1
102
RTVSPost2010Prop31
280
     0
102
RTVSPost2010PropOp31
 70
     1
102
RTVSPost2010Prop32
280
     0
102
RTVSPost2010PropOp32
 70
     1
102
RTVSPost2010Prop33
280
     0
102
RTVSPost2010PropOp33
 70
     1
102
RTVSPost2010Prop34
280
     0
102
RTVSPost2010PropOp34
 70
     1
102
RTVSPost2010Prop35
280
     0
102
RTVSPost2010PropOp35
 70
     1
102
RTVSPost2010Prop36
280
     0
102
RTVSPost2010PropOp36
 70
     1
102
RTVSPost2010Prop37
 90
       50
102
RTVSPost2010PropOp37
 70
     1
102
RTVSPost2010Prop38
140
0.0
102
RTVSPost2010PropOp38
 70
     1
102
RTVSPost2010Prop39
140
1.0
102
RTVSPost2010PropOp39
 70
     1
102
RTVSPost2010Prop40
 90
        0
102
RTVSPost2010PropOp40
 70
     1
102
RTVSPost2010Prop41ColorIndex
 90
       18
102
RTVSPost2010Prop41ColorRGB
 90
        0
102
RTVSPost2010PropOp41
 70
     1
102
RTVSPost2010Prop42
 90
       50
102
RTVSPost2010PropOp42
 70
     1
102
RTVSPost2010Prop43
 90
        3
102
RTVSPost2010PropOp43
 70
     1
102
RTVSPost2010Prop44ColorIndex
 90
        5
102
RTVSPost2010Prop44ColorRGB
 90
      255
102
RTVSPost2010PropOp44
 70
     1
102
RTVSPost2010Prop45
280
     0
102
RTVSPost2010PropOp45
 70
     1
102
RTVSPost2010Prop46
 90
       50
102
RTVSPost2010PropOp46
 70
     1
102
RTVSPost2010Prop47
 90
       50
102
RTVSPost2010PropOp47
 70
     1
102
RTVSPost2010Prop48
 90
       50
102
RTVSPost2010PropOp48
 70
     1
102
RTVSPost2010Prop49
280
     0
102
RTVSPost2010PropOp49
 70
     1
102
RTVSPost2010Prop50
 90
       50
102
RTVSPost2010PropOp50
 70
     1
102
RTVSPost2010Prop51ColorIndex
 90
      256
102
RTVSPost2010Prop51ColorRGB
 90
-16777216
102
RTVSPost2010PropOp51
 70
     0
102
RTVSPost2010Prop52
140
1.0
102
RTVSPost2010PropOp52
 70
     0
102
RTVSPost2010Prop53
 90
        2
102
RTVSPost2010PropOp53
 70
     1
102
RTVSPost2010Prop54
  1
strokes_ogs.tif
102
RTVSPost2010PropOp54
 70
     1
102
RTVSPost2010Prop55
280
     0
102
RTVSPost2010PropOp55
 70
     1
102
RTVSPost2010Prop56
140
1.0
102
RTVSPost2010PropOp56
 70
     1
102
RTVSPost2010Prop57
140
1.0
102
RTVSPost2010PropOp57
 70
     1
  0
XRECORD
  5
3D5
102
{ACAD_REACTORS
330
3D4
102
}
330
3D4
100
AcDbXrecord
280
     1
102
RTVSPost2010Prop28
280
     0
102
RTVSPost2010PropOp28
 70
     1
102
RTVSPost2010Prop29
280
     1
102
RTVSPost2010PropOp29
 70
     1
102
RTVSPost2010Prop30
280
     1
102
RTVSPost2010PropOp30
 70
     1
102
RTVSPost2010Prop31
280
     0
102
RTVSPost2010PropOp31
 70
     1
102
RTVSPost2010Prop32
280
     0
102
RTVSPost2010PropOp32
 70
     1
102
RTVSPost2010Prop33
280
     0
102
RTVSPost2010PropOp33
 70
     1
102
RTVSPost2010Prop34
280
     0
102
RTVSPost2010PropOp34
 70
     1
102
RTVSPost2010Prop35
280
     0
102
RTVSPost2010PropOp35
 70
     1
102
RTVSPost2010Prop36
280
     0
102
RTVSPost2010PropOp36
 70
     1
102
RTVSPost2010Prop37
 90
       50
102
RTVSPost2010PropOp37
 70
     1
102
RTVSPost2010Prop38
140
0.0
102
RTVSPost2010PropOp38
 70
     1
102
RTVSPost2010Prop39
140
1.0
102
RTVSPost2010PropOp39
 70
     1
102
RTVSPost2010Prop40
 90
        0
102
RTVSPost2010PropOp40
 70
     1
102
RTVSPost2010Prop41ColorIndex
 90
       18
102
RTVSPost2010Prop41ColorRGB
 90
        0
102
RTVSPost2010PropOp41
 70
     1
102
RTVSPost2010Prop42
 90
       50
102
RTVSPost2010PropOp42
 70
     1
102
RTVSPost2010Prop43
 90
        3
102
RTVSPost2010PropOp43
 70
     1
102
RTVSPost2010Prop44ColorIndex
 90
        5
102
RTVSPost2010Prop44ColorRGB
 90
      255
102
RTVSPost2010PropOp44
 70
     1
102
RTVSPost2010Prop45
280
     0
102
RTVSPost2010PropOp45
 70
     1
102
RTVSPost2010Prop46
 90
       50
102
RTVSPost2010PropOp46
 70
     1
102
RTVSPost2010Prop47
 90
       50
102
RTVSPost2010PropOp47
 70
     1
102
RTVSPost2010Prop48
 90
       50
102
RTVSPost2010PropOp48
 70
     1
102
RTVSPost2010Prop49
280
     0
102
RTVSPost2010PropOp49
 70
     1
102
RTVSPost2010Prop50
 90
       50
102
RTVSPost2010PropOp50
 70
     1
102
RTVSPost2010Prop51ColorIndex
 90
      256
102
RTVSPost2010Prop51ColorRGB
 90
-16777216
102
RTVSPost2010PropOp51
 70
     0
102
RTVSPost2010Prop52
140
1.0
102
RTVSPost2010PropOp52
 70
     0
102
RTVSPost2010Prop53
 90
        2
102
RTVSPost2010PropOp53
 70
     1
102
RTVSPost2010Prop54
  1
strokes_ogs.tif
102
RTVSPost2010PropOp54
 70
     1
102
RTVSPost2010Prop55
280
     0
102
RTVSPost2010PropOp55
 70
     1
102
RTVSPost2010Prop56
140
1.0
102
RTVSPost2010PropOp56
 70
     1
102
RTVSPost2010Prop57
140
1.0
102
RTVSPost2010PropOp57
 70
     1
  0
XRECORD
  5
3C7
102
{ACAD_REACTORS
330
3C6
102
}
330
3C6
100
AcDbXrecord
280
     1
102
RTVSPost2010Prop28
280
     0
102
RTVSPost2010PropOp28
 70
     1
102
RTVSPost2010Prop29
280
     1
102
RTVSPost2010PropOp29
 70
     1
102
RTVSPost2010Prop30
280
     1
102
RTVSPost2010PropOp30
 70
     1
102
RTVSPost2010Prop31
280
     0
102
RTVSPost2010PropOp31
 70
     1
102
RTVSPost2010Prop32
280
     0
102
RTVSPost2010PropOp32
 70
     1
102
RTVSPost2010Prop33
280
     0
102
RTVSPost2010PropOp33
 70
     1
102
RTVSPost2010Prop34
280
     0
102
RTVSPost2010PropOp34
 70
     1
102
RTVSPost2010Prop35
280
     0
102
RTVSPost2010PropOp35
 70
     1
102
RTVSPost2010Prop36
280
     0
102
RTVSPost2010PropOp36
 70
     1
102
RTVSPost2010Prop37
 90
       50
102
RTVSPost2010PropOp37
 70
     1
102
RTVSPost2010Prop38
140
0.0
102
RTVSPost2010PropOp38
 70
     1
102
RTVSPost2010Prop39
140
1.0
102
RTVSPost2010PropOp39
 70
     1
102
RTVSPost2010Prop40
 90
        0
102
RTVSPost2010PropOp40
 70
     1
102
RTVSPost2010Prop41ColorIndex
 90
       18
102
RTVSPost2010Prop41ColorRGB
 90
        0
102
RTVSPost2010PropOp41
 70
     1
102
RTVSPost2010Prop42
 90
       50
102
RTVSPost2010PropOp42
 70
     1
102
RTVSPost2010Prop43
 90
        3
102
RTVSPost2010PropOp43
 70
     1
102
RTVSPost2010Prop44ColorIndex
 90
        5
102
RTVSPost2010Prop44ColorRGB
 90
      255
102
RTVSPost2010PropOp44
 70
     1
102
RTVSPost2010Prop45
280
     0
102
RTVSPost2010PropOp45
 70
     1
102
RTVSPost2010Prop46
 90
       50
102
RTVSPost2010PropOp46
 70
     1
102
RTVSPost2010Prop47
 90
       50
102
RTVSPost2010PropOp47
 70
     1
102
RTVSPost2010Prop48
 90
       50
102
RTVSPost2010PropOp48
 70
     1
102
RTVSPost2010Prop49
280
     0
102
RTVSPost2010PropOp49
 70
     1
102
RTVSPost2010Prop50
 90
       50
102
RTVSPost2010PropOp50
 70
     1
102
RTVSPost2010Prop51ColorIndex
 90
      256
102
RTVSPost2010Prop51ColorRGB
 90
-16777216
102
RTVSPost2010PropOp51
 70
     0
102
RTVSPost2010Prop52
140
1.0
102
RTVSPost2010PropOp52
 70
     0
102
RTVSPost2010Prop53
 90
        2
102
RTVSPost2010PropOp53
 70
     1
102
RTVSPost2010Prop54
  1
strokes_ogs.tif
102
RTVSPost2010PropOp54
 70
     1
102
RTVSPost2010Prop55
280
     0
102
RTVSPost2010PropOp55
 70
     1
102
RTVSPost2010Prop56
140
1.0
102
RTVSPost2010PropOp56
 70
     1
102
RTVSPost2010Prop57
140
1.0
102
RTVSPost2010PropOp57
 70
     1
  0
XRECORD
  5
3E7
102
{ACAD_REACTORS
330
3E6
102
}
330
3E6
100
AcDbXrecord
280
     1
102
RTVSPost2010Prop28
280
     0
102
RTVSPost2010PropOp28
 70
     1
102
RTVSPost2010Prop29
280
     1
102
RTVSPost2010PropOp29
 70
     1
102
RTVSPost2010Prop30
280
     1
102
RTVSPost2010PropOp30
 70
     1
102
RTVSPost2010Prop31
280
     0
102
RTVSPost2010PropOp31
 70
     1
102
RTVSPost2010Prop32
280
     0
102
RTVSPost2010PropOp32
 70
     1
102
RTVSPost2010Prop33
280
     0
102
RTVSPost2010PropOp33
 70
     1
102
RTVSPost2010Prop34
280
     0
102
RTVSPost2010PropOp34
 70
     1
102
RTVSPost2010Prop35
280
     0
102
RTVSPost2010PropOp35
 70
     1
102
RTVSPost2010Prop36
280
     0
102
RTVSPost2010PropOp36
 70
     1
102
RTVSPost2010Prop37
 90
       50
102
RTVSPost2010PropOp37
 70
     1
102
RTVSPost2010Prop38
140
0.0
102
RTVSPost2010PropOp38
 70
     1
102
RTVSPost2010Prop39
140
1.0
102
RTVSPost2010PropOp39
 70
     1
102
RTVSPost2010Prop40
 90
        0
102
RTVSPost2010PropOp40
 70
     1
102
RTVSPost2010Prop41ColorIndex
 90
       18
102
RTVSPost2010Prop41ColorRGB
 90
        0
102
RTVSPost2010PropOp41
 70
     1
102
RTVSPost2010Prop42
 90
       50
102
RTVSPost2010PropOp42
 70
     1
102
RTVSPost2010Prop43
 90
        3
102
RTVSPost2010PropOp43
 70
     1
102
RTVSPost2010Prop44ColorIndex
 90
        5
102
RTVSPost2010Prop44ColorRGB
 90
      255
102
RTVSPost2010PropOp44
 70
     1
102
RTVSPost2010Prop45
280
     0
102
RTVSPost2010PropOp45
 70
     1
102
RTVSPost2010Prop46
 90
       50
102
RTVSPost2010PropOp46
 70
     1
102
RTVSPost2010Prop47
 90
       50
102
RTVSPost2010PropOp47
 70
     1
102
RTVSPost2010Prop48
 90
       50
102
RTVSPost2010PropOp48
 70
     1
102
RTVSPost2010Prop49
280
     0
102
RTVSPost2010PropOp49
 70
     1
102
RTVSPost2010Prop50
 90
       50
102
RTVSPost2010PropOp50
 70
     1
102
RTVSPost2010Prop51ColorIndex
 90
      256
102
RTVSPost2010Prop51ColorRGB
 90
-16777216
102
RTVSPost2010PropOp51
 70
     0
102
RTVSPost2010Prop52
140
1.0
102
RTVSPost2010PropOp52
 70
     0
102
RTVSPost2010Prop53
 90
        2
102
RTVSPost2010PropOp53
 70
     1
102
RTVSPost2010Prop54
  1
strokes_ogs.tif
102
RTVSPost2010PropOp54
 70
     1
102
RTVSPost2010Prop55
280
     0
102
RTVSPost2010PropOp55
 70
     1
102
RTVSPost2010Prop56
140
1.0
102
RTVSPost2010PropOp56
 70
     1
102
RTVSPost2010Prop57
140
1.0
102
RTVSPost2010PropOp57
 70
     1
  0
ENDSEC
  0
EOF
