  0
SECTION
  2
HEADER
  9
$ACADVER
  1
AC1024
  9
$ACADMAINTVER
 70
     6
  9
$DWGCODEPAGE
  3
ANSI_1252
  9
$INSBASE
 10
0.0
 20
0.0
 30
0.0
  9
$EXTMIN
 10
1.000000E+20
 20
1.000000E+20
 30
1.000000E+20
  9
$EXTMAX
 10
-1.000000E+20
 20
-1.000000E+20
 30
-1.000000E+20
  9
$LIMMIN
 10
0.0
 20
0.0
  9
$LIMMAX
 10
420.0
 20
297.0
  9
$ORTHOMODE
 70
     0
  9
$REGENMODE
 70
     1
  9
$FILLMODE
 70
     1
  9
$QTEXTMODE
 70
     0
  9
$MIRRTEXT
 70
     1
  9
$LTSCALE
 40
1.0
  9
$ATTMODE
 70
     1
  9
$TEXTSIZE
 40
2.5
  9
$TRACEWID
 40
1.0
  9
$TEXTSTYLE
  7
Standard
  9
$CLAYER
  8
0
  9
$CELTYPE
  6
ByLayer
  9
$CECOLOR
 62
   256
  9
$CELTSCALE
 40
1.0
  9
$DISPSILH
 70
     0
  9
$DIMSCALE
 40
1.0
  9
$DIMASZ
 40
2.5
  9
$DIMEXO
 40
0.625
  9
$DIMDLI
 40
3.75
  9
$DIMRND
 40
0.0
  9
$DIMDLE
 40
0.0
  9
$DIMEXE
 40
1.25
  9
$DIMTP
 40
0.0
  9
$DIMTM
 40
0.0
  9
$DIMTXT
 40
2.5
  9
$DIMCEN
 40
2.5
  9
$DIMTSZ
 40
0.0
  9
$DIMTOL
 70
     0
  9
$DIMLIM
 70
     0
  9
$DIMTIH
 70
     0
  9
$DIMTOH
 70
     0
  9
$DIMSE1
 70
     0
  9
$DIMSE2
 70
     0
  9
$DIMTAD
 70
     1
  9
$DIMZIN
 70
     8
  9
$DIMBLK
  1

  9
$DIMASO
 70
     1
  9
$DIMSHO
 70
     1
  9
$DIMPOST
  1

  9
$DIMAPOST
  1

  9
$DIMALT
 70
     0
  9
$DIMALTD
 70
     3
  9
$DIMALTF
 40
0.03937
  9
$DIMLFAC
 40
1.0
  9
$DIMTOFL
 70
     1
  9
$DIMTVP
 40
0.0
  9
$DIMTIX
 70
     0
  9
$DIMSOXD
 70
     0
  9
$DIMSAH
 70
     0
  9
$DIMBLK1
  1

  9
$DIMBLK2
  1

  9
$DIMSTYLE
  2
ISO-25
  9
$DIMCLRD
 70
     0
  9
$DIMCLRE
 70
     0
  9
$DIMCLRT
 70
     0
  9
$DIMTFAC
 40
1.0
  9
$DIMGAP
 40
0.625
  9
$DIMJUST
 70
     0
  9
$DIMSD1
 70
     0
  9
$DIMSD2
 70
     0
  9
$DIMTOLJ
 70
     0
  9
$DIMTZIN
 70
     8
  9
$DIMALTZ
 70
     0
  9
$DIMALTTZ
 70
     0
  9
$DIMUPT
 70
     0
  9
$DIMDEC
 70
     2
  9
$DIMTDEC
 70
     2
  9
$DIMALTU
 70
     2
  9
$DIMALTTD
 70
     3
  9
$DIMTXSTY
  7
Standard
  9
$DIMAUNIT
 70
     0
  9
$DIMADEC
 70
     0
  9
$DIMALTRND
 40
0.0
  9
$DIMAZIN
 70
     0
  9
$DIMDSEP
 70
    44
  9
$DIMATFIT
 70
     3
  9
$DIMFRAC
 70
     0
  9
$DIMLDRBLK
  1

  9
$DIMLUNIT
 70
     2
  9
$DIMLWD
 70
    -2
  9
$DIMLWE
 70
    -2
  9
$DIMTMOVE
 70
     0
  9
$DIMFXL
 40
1.0
  9
$DIMFXLON
 70
     0
  9
$DIMJOGANG
 40
0.785398
  9
$DIMTFILL
 70
     0
  9
$DIMTFILLCLR
 70
     0
  9
$DIMARCSYM
 70
     0
  9
$DIMLTYPE
  6

  9
$DIMLTEX1
  6

  9
$DIMLTEX2
  6

  9
$DIMTXTDIRECTION
 70
     0
  9
$LUNITS
 70
     2
  9
$LUPREC
 70
     4
  9
$SKETCHINC
 40
1.0
  9
$FILLETRAD
 40
10.0
  9
$AUNITS
 70
     0
  9
$AUPREC
 70
     0
  9
$MENU
  1
.
  9
$ELEVATION
 40
0.0
  9
$PELEVATION
 40
0.0
  9
$THICKNESS
 40
0.0
  9
$LIMCHECK
 70
     0
  9
$CHAMFERA
 40
0.0
  9
$CHAMFERB
 40
0.0
  9
$CHAMFERC
 40
0.0
  9
$CHAMFERD
 40
0.0
  9
$SKPOLY
 70
     0
  9
$TDCREATE
 40
2458639.631936412
  9
$TDUCREATE
 40
2458639.548603079
  9
$TDUPDATE
 40
2458639.631937361
  9
$TDUUPDATE
 40
2458639.548604028
  9
$TDINDWG
 40
0.0000000116
  9
$TDUSRTIMER
 40
0.0000000116
  9
$USRTIMER
 70
     1
  9
$ANGBASE
 50
0.0
  9
$ANGDIR
 70
     0
  9
$PDMODE
 70
     0
  9
$PDSIZE
 40
0.0
  9
$PLINEWID
 40
0.0
  9
$SPLFRAME
 70
     0
  9
$SPLINETYPE
 70
     6
  9
$SPLINESEGS
 70
     8
  9
$HANDSEED
  5
3CC
  9
$SURFTAB1
 70
     6
  9
$SURFTAB2
 70
     6
  9
$SURFTYPE
 70
     6
  9
$SURFU
 70
     6
  9
$SURFV
 70
     6
  9
$UCSBASE
  2

  9
$UCSNAME
  2

  9
$UCSORG
 10
0.0
 20
0.0
 30
0.0
  9
$UCSXDIR
 10
1.0
 20
0.0
 30
0.0
  9
$UCSYDIR
 10
0.0
 20
1.0
 30
0.0
  9
$UCSORTHOREF
  2

  9
$UCSORTHOVIEW
 70
     0
  9
$UCSORGTOP
 10
0.0
 20
0.0
 30
0.0
  9
$UCSORGBOTTOM
 10
0.0
 20
0.0
 30
0.0
  9
$UCSORGLEFT
 10
0.0
 20
0.0
 30
0.0
  9
$UCSORGRIGHT
 10
0.0
 20
0.0
 30
0.0
  9
$UCSORGFRONT
 10
0.0
 20
0.0
 30
0.0
  9
$UCSORGBACK
 10
0.0
 20
0.0
 30
0.0
  9
$PUCSBASE
  2

  9
$PUCSNAME
  2

  9
$PUCSORG
 10
0.0
 20
0.0
 30
0.0
  9
$PUCSXDIR
 10
1.0
 20
0.0
 30
0.0
  9
$PUCSYDIR
 10
0.0
 20
1.0
 30
0.0
  9
$PUCSORTHOREF
  2

  9
$PUCSORTHOVIEW
 70
     0
  9
$PUCSORGTOP
 10
0.0
 20
0.0
 30
0.0
  9
$PUCSORGBOTTOM
 10
0.0
 20
0.0
 30
0.0
  9
$PUCSORGLEFT
 10
0.0
 20
0.0
 30
0.0
  9
$PUCSORGRIGHT
 10
0.0
 20
0.0
 30
0.0
  9
$PUCSORGFRONT
 10
0.0
 20
0.0
 30
0.0
  9
$PUCSORGBACK
 10
0.0
 20
0.0
 30
0.0
  9
$USERI1
 70
     0
  9
$USERI2
 70
     0
  9
$USERI3
 70
     0
  9
$USERI4
 70
     0
  9
$USERI5
 70
     0
  9
$USERR1
 40
0.0
  9
$USERR2
 40
0.0
  9
$USERR3
 40
0.0
  9
$USERR4
 40
0.0
  9
$USERR5
 40
0.0
  9
$WORLDVIEW
 70
     1
  9
$SHADEDGE
 70
     3
  9
$SHADEDIF
 70
    70
  9
$TILEMODE
 70
     1
  9
$MAXACTVP
 70
    64
  9
$PINSBASE
 10
0.0
 20
0.0
 30
0.0
  9
$PLIMCHECK
 70
     0
  9
$PEXTMIN
 10
1.000000E+20
 20
1.000000E+20
 30
1.000000E+20
  9
$PEXTMAX
 10
-1.000000E+20
 20
-1.000000E+20
 30
-1.000000E+20
  9
$PLIMMIN
 10
0.0
 20
0.0
  9
$PLIMMAX
 10
420.0
 20
297.0
  9
$UNITMODE
 70
     0
  9
$VISRETAIN
 70
     1
  9
$PLINEGEN
 70
     0
  9
$PSLTSCALE
 70
     1
  9
$TREEDEPTH
 70
  3020
  9
$CMLSTYLE
  2
Standard
  9
$CMLJUST
 70
     0
  9
$CMLSCALE
 40
20.0
  9
$PROXYGRAPHICS
 70
     1
  9
$MEASUREMENT
 70
     1
  9
$CELWEIGHT
370
    -1
  9
$ENDCAPS
280
     0
  9
$JOINSTYLE
280
     0
  9
$LWDISPLAY
290
     0
  9
$INSUNITS
 70
     4
  9
$HYPERLINKBASE
  1

  9
$STYLESHEET
  1

  9
$XEDIT
290
     1
  9
$CEPSNTYPE
380
     0
  9
$PSTYLEMODE
290
     1
  9
$FINGERPRINTGUID
  2
{EBB1EB59-3102-4540-8C4A-BA4659A2613B}
  9
$VERSIONGUID
  2
{FAEB1C32-E019-11D5-929B-00C0DF256EC4}
  9
$EXTNAMES
290
     1
  9
$PSVPSCALE
 40
0.0
  9
$OLESTARTUP
290
     0
  9
$SORTENTS
280
   127
  9
$INDEXCTL
280
     0
  9
$HIDETEXT
280
     1
  9
$XCLIPFRAME
280
     2
  9
$HALOGAP
280
     0
  9
$OBSCOLOR
 70
   257
  9
$OBSLTYPE
280
     0
  9
$INTERSECTIONDISPLAY
280
     0
  9
$INTERSECTIONCOLOR
 70
   257
  9
$DIMASSOC
280
     2
  9
$PROJECTNAME
  1

  9
$CAMERADISPLAY
290
     0
  9
$LENSLENGTH
 40
50.0
  9
$CAMERAHEIGHT
 40
0.0
  9
$STEPSPERSEC
 40
2.0
  9
$STEPSIZE
 40
6.0
  9
$3DDWFPREC
 40
2.0
  9
$PSOLWIDTH
 40
5.0
  9
$PSOLHEIGHT
 40
80.0
  9
$LOFTANG1
 40
1.570796
  9
$LOFTANG2
 40
1.570796
  9
$LOFTMAG1
 40
0.0
  9
$LOFTMAG2
 40
0.0
  9
$LOFTPARAM
 70
     7
  9
$LOFTNORMALS
280
     1
  9
$LATITUDE
 40
37.795
  9
$LONGITUDE
 40
-122.394
  9
$NORTHDIRECTION
 40
0.0
  9
$TIMEZONE
 70
 -8000
  9
$LIGHTGLYPHDISPLAY
280
     1
  9
$TILEMODELIGHTSYNCH
280
     1
  9
$CMATERIAL
347
44
  9
$SOLIDHIST
280
     0
  9
$SHOWHIST
280
     1
  9
$DWFFRAME
280
     2
  9
$DGNFRAME
280
     2
  9
$REALWORLDSCALE
290
     1
  9
$INTERFERECOLOR
 62
   256
  9
$CSHADOW
280
     0
  9
$SHADOWPLANELOCATION
 40
0.0
  0
ENDSEC
  0
SECTION
  2
CLASSES
  0
CLASS
  1
ACDBDICTIONARYWDFLT
  2
AcDbDictionaryWithDefault
  3
ObjectDBX Classes
 90
        0
 91
        4
280
     0
281
     0
  0
CLASS
  1
VISUALSTYLE
  2
AcDbVisualStyle
  3
ObjectDBX Classes
 90
     4095
 91
        4
280
     0
281
     0
  0
CLASS
  1
MATERIAL
  2
AcDbMaterial
  3
ObjectDBX Classes
 90
     1153
 91
        4
280
     0
281
     0
  0
CLASS
  1
SCALE
  2
AcDbScale
  3
ObjectDBX Classes
 90
     1153
 91
        4
280
     0
281
     0
  0
CLASS
  1
TABLESTYLE
  2
AcDbTableStyle
  3
ObjectDBX Classes
 90
     4095
 91
        4
280
     0
281
     0
  0
CLASS
  1
MLEADERSTYLE
  2
AcDbMLeaderStyle
  3
ACDB_MLEADERSTYLE_CLASS
 90
     4095
 91
        4
280
     0
281
     0
  0
CLASS
  1
SUN
  2
AcDbSun
  3
SCENEOE
 90
     1153
 91
        4
280
     0
281
     0
  0
CLASS
  1
DICTIONARYVAR
  2
AcDbDictionaryVar
  3
ObjectDBX Classes
 90
        0
 91
        4
280
     0
281
     0
  0
CLASS
  1
CELLSTYLEMAP
  2
AcDbCellStyleMap
  3
ObjectDBX Classes
 90
     1152
 91
        4
280
     0
281
     0
  0
ENDSEC
  0
SECTION
  2
TABLES
  0
TABLE
  2
VPORT
  5
8
330
0
100
AcDbSymbolTable
 70
     1
  0
VPORT
  5
29
330
8
100
AcDbSymbolTableRecord
100
AcDbViewportTableRecord
  2
*Active
 70
     0
 10
0.0
 20
0.0
 11
1.0
 21
1.0
 12
344.186916
 22
148.5
 13
0.0
 23
0.0
 14
10.0
 24
10.0
 15
10.0
 25
10.0
 16
0.0
 26
0.0
 36
1.0
 17
0.0
 27
0.0
 37
0.0
 40
297.0
 41
1.972973
 42
50.0
 43
0.0
 44
0.0
 50
0.0
 51
0.0
 71
     0
 72
   100
 73
     1
 74
     3
 75
     0
 76
     0
 77
     0
 78
     0
281
     0
 65
     1
110
0.0
120
0.0
130
0.0
111
1.0
121
0.0
131
0.0
112
0.0
122
1.0
132
0.0
 79
     0
146
0.0
348
2F
 60
     3
 61
     5
292
     1
282
     1
141
0.0
142
0.0
 63
   250
361
6D
  0
ENDTAB
  0
TABLE
  2
LTYPE
  5
5
330
0
100
AcDbSymbolTable
 70
     1
  0
LTYPE
  5
14
330
5
100
AcDbSymbolTableRecord
100
AcDbLinetypeTableRecord
  2
ByBlock
 70
     0
  3

 72
    65
 73
     0
 40
0.0
  0
LTYPE
  5
15
330
5
100
AcDbSymbolTableRecord
100
AcDbLinetypeTableRecord
  2
ByLayer
 70
     0
  3

 72
    65
 73
     0
 40
0.0
  0
LTYPE
  5
16
330
5
100
AcDbSymbolTableRecord
100
AcDbLinetypeTableRecord
  2
Continuous
 70
     0
  3
Solid line
 72
    65
 73
     0
 40
0.0
  0
ENDTAB
  0
TABLE
  2
LAYER
  5
2
330
0
100
AcDbSymbolTable
 70
     1
  0
LAYER
  5
10
330
2
100
AcDbSymbolTableRecord
100
AcDbLayerTableRecord
  2
0
 70
     0
 62
   106
  6
Continuous
370
     0
390
F
347
46
  0
ENDTAB
  0
TABLE
  2
STYLE
  5
3
330
0
100
AcDbSymbolTable
 70
     4
  0
STYLE
  5
11
330
3
100
AcDbSymbolTableRecord
100
AcDbTextStyleTableRecord
  2
Standard
 70
     0
 40
0.0
 41
1.0
 50
0.0
 71
     0
 42
2.5
  3
txt
  4

  0
STYLE
  5
6E
330
3
100
AcDbSymbolTableRecord
100
AcDbTextStyleTableRecord
  2
Default
 70
     0
 40
0.0
 41
1.0
 50
0.0
 71
     0
 42
2.5
  3

  4

1001
ACAD
1000
txt
1071
        0
  0
STYLE
  5
6F
330
3
100
AcDbSymbolTableRecord
100
AcDbTextStyleTableRecord
  2
ISO
 70
     0
 40
0.0
 41
1.0
 50
0.0
 71
     0
 42
2.5
  3

  4

1001
ACAD
1000
txt
1071
        0
  0
STYLE
  5
70
330
3
100
AcDbSymbolTableRecord
100
AcDbTextStyleTableRecord
  2
zucchetti
 70
     0
 40
0.0
 41
1.0
 50
0.0
 71
     0
 42
2.5
  3

  4

1001
ACAD
1000
Arial
1071
        0
  0
ENDTAB
  0
TABLE
  2
VIEW
  5
6
330
0
100
AcDbSymbolTable
 70
     0
  0
ENDTAB
  0
TABLE
  2
UCS
  5
7
330
0
100
AcDbSymbolTable
 70
     0
  0
ENDTAB
  0
TABLE
  2
APPID
  5
9
330
0
100
AcDbSymbolTable
 70
     1
  0
APPID
  5
12
330
9
100
AcDbSymbolTableRecord
100
AcDbRegAppTableRecord
  2
ACAD
 70
     0
  0
ENDTAB
  0
TABLE
  2
DIMSTYLE
  5
A
330
0
100
AcDbSymbolTable
 70
     4
100
AcDbDimStyleTable
  0
DIMSTYLE
105
27
330
A
100
AcDbSymbolTableRecord
100
AcDbDimStyleTableRecord
  2
ISO-25
 70
     0
 41
2.5
 42
0.625
 43
3.75
 44
1.25
 73
     0
 74
     0
 77
     1
 78
     8
140
2.5
141
2.5
143
0.03937
147
0.625
171
     3
172
     1
178
     0
271
     2
272
     2
274
     3
278
    44
283
     0
284
     8
340
11
  0
DIMSTYLE
105
71
330
A
100
AcDbSymbolTableRecord
100
AcDbDimStyleTableRecord
  2
Default
 70
     0
  3
<>
 41
4.375
 42
1.05
 44
2.1
 49
10.01
 73
     0
 74
     0
 77
     1
 78
     8
140
3.5
146
0.4
147
1.75
172
     1
271
     2
178
     3
271
     2
272
     3
284
     8
340
6E
341
72
342
72
  0
DIMSTYLE
105
79
330
A
100
AcDbSymbolTableRecord
100
AcDbDimStyleTableRecord
  2
ISO
 70
     0
  3
<>
 41
4.375
 42
1.05
 44
2.1
 49
10.01
 73
     0
 74
     0
 77
     1
 78
     8
140
3.5
146
0.4
147
1.75
172
     1
271
     2
178
     3
271
     2
272
     3
284
     8
340
6F
341
72
342
72
  0
DIMSTYLE
105
7A
330
A
100
AcDbSymbolTableRecord
100
AcDbDimStyleTableRecord
  2
zucchetti
 70
     0
  3
<>
 41
3.0
 42
0.9
 44
1.8
 49
8.58
 73
     0
 74
     0
 77
     1
 78
     8
140
3.0
146
0.6
147
1.5
172
     1
176
     3
177
     3
271
     2
178
     3
271
     2
272
     2
284
     8
340
70
  0
ENDTAB
  0
TABLE
  2
BLOCK_RECORD
  5
1
330
0
100
AcDbSymbolTable
 70
     5
  0
BLOCK_RECORD
  5
1F
330
1
100
AcDbSymbolTableRecord
100
AcDbBlockTableRecord
  2
*Model_Space
340
22
 70
     0
280
     1
281
     0
  0
BLOCK_RECORD
  5
1B
330
1
100
AcDbSymbolTableRecord
100
AcDbBlockTableRecord
  2
*Paper_Space
340
1E
 70
     0
280
     1
281
     0
  0
BLOCK_RECORD
  5
23
330
1
100
AcDbSymbolTableRecord
100
AcDbBlockTableRecord
  2
*Paper_Space0
340
26
 70
     0
280
     1
281
     0
  0
BLOCK_RECORD
  5
72
330
1
100
AcDbSymbolTableRecord
100
AcDbBlockTableRecord
  2
_CLOSED
340
0
 70
     0
280
     1
281
     0
  0
BLOCK_RECORD
  5
7B
330
1
100
AcDbSymbolTableRecord
100
AcDbBlockTableRecord
  2
a
340
0
102
{BLKREFS
331
1DA
102
}
 70
     0
280
     1
281
     0
  0
BLOCK_RECORD
  5
1D3
330
1
100
AcDbSymbolTableRecord
100
AcDbBlockTableRecord
  2
Non relazionati
340
0
102
{BLKREFS
331
1D7
102
}
 70
     0
280
     1
281
     0
  0
BLOCK_RECORD
  5
1DB
330
1
100
AcDbSymbolTableRecord
100
AcDbBlockTableRecord
  2
b
340
0
102
{BLKREFS
331
392
102
}
 70
     0
280
     1
281
     0
  0
ENDTAB
  0
ENDSEC
  0
SECTION
  2
BLOCKS
  0
BLOCK
  5
20
330
1F
100
AcDbEntity
  8
0
100
AcDbBlockBegin
  2
*Model_Space
 70
     0
 10
0.0
 20
0.0
 30
0.0
  3
*Model_Space
  1

  0
ENDBLK
  5
21
330
1F
100
AcDbEntity
  8
0
100
AcDbBlockEnd
  0
BLOCK
  5
1C
330
1B
100
AcDbEntity
 67
     1
  8
0
100
AcDbBlockBegin
  2
*Paper_Space
 70
     0
 10
0.0
 20
0.0
 30
0.0
  3
*Paper_Space
  1

  0
ENDBLK
  5
1D
330
1B
100
AcDbEntity
 67
     1
  8
0
100
AcDbBlockEnd
  0
BLOCK
  5
24
330
23
100
AcDbEntity
  8
0
100
AcDbBlockBegin
  2
*Paper_Space0
 70
     0
 10
0.0
 20
0.0
 30
0.0
  3
*Paper_Space0
  1

  0
ENDBLK
  5
25
330
23
100
AcDbEntity
  8
0
100
AcDbBlockEnd
  0
BLOCK
  5
73
330
72
100
AcDbEntity
  8
0
100
AcDbBlockBegin
  2
_CLOSED
 70
     0
 10
0.0
 20
0.0
 30
0.0
  3
_CLOSED
  1

  0
LINE
  5
75
330
72
100
AcDbEntity
  8
0
  6
ByBlock
 62
     0
370
    -2
100
AcDbLine
 10
-1.0
 20
0.166667
 30
0.0
 11
0.0
 21
0.0
 31
0.0
  0
LINE
  5
76
330
72
100
AcDbEntity
  8
0
  6
ByBlock
 62
     0
370
    -2
100
AcDbLine
 10
0.0
 20
0.0
 30
0.0
 11
-1.0
 21
-0.166667
 31
0.0
  0
LINE
  5
77
330
72
100
AcDbEntity
  8
0
  6
ByBlock
 62
     0
370
    -2
100
AcDbLine
 10
-1.0
 20
0.166667
 30
0.0
 11
-1.0
 21
-0.166667
 31
0.0
  0
LINE
  5
78
330
72
100
AcDbEntity
  8
0
  6
ByBlock
 62
     0
370
    -2
100
AcDbLine
 10
0.0
 20
0.0
 30
0.0
 11
-1.0
 21
0.0
 31
0.0
  0
ENDBLK
  5
74
330
72
100
AcDbEntity
  8
0
100
AcDbBlockEnd
  0
BLOCK
  5
1D8
330
7B
100
AcDbEntity
  8
0
100
AcDbBlockBegin
  2
a
 70
     0
 10
198.508698
 20
604.685242
 30
0.0
  3
a
  1

  0
LINE
  5
7C
330
7B
100
AcDbEntity
  8
0
  6
Continuous
 62
     0
370
    30
100
AcDbLine
 10
366.943968
 20
624.938338
 30
0.0
 11
366.943968
 21
632.938338
 31
0.0
  0
LINE
  5
7D
330
7B
100
AcDbEntity
  8
0
  6
Continuous
 62
     0
370
    30
100
AcDbLine
 10
366.943968
 20
632.938338
 30
0.0
 11
337.657464
 21
632.938338
 31
0.0
  0
LINE
  5
7E
330
7B
100
AcDbEntity
  8
0
  6
Continuous
 62
     0
370
    30
100
AcDbLine
 10
337.657464
 20
624.938338
 30
0.0
 11
366.943968
 21
624.938338
 31
0.0
  0
LINE
  5
7F
330
7B
100
AcDbEntity
  8
0
  6
Continuous
 62
     0
370
    30
100
AcDbLine
 10
371.611389
 20
632.938338
 30
0.0
 11
371.611389
 21
624.938338
 31
0.0
  0
LINE
  5
80
330
7B
100
AcDbEntity
  8
0
  6
Continuous
 62
     0
370
    30
100
AcDbLine
 10
371.611389
 20
624.938338
 30
0.0
 11
371.657464
 21
624.938338
 31
0.0
  0
LWPOLYLINE
  5
81
330
7B
100
AcDbEntity
  8
0
  6
Continuous
 62
     0
370
    30
100
AcDbPolyline
 90
        3
 70
     0
 43
0.0
 10
371.657471
 20
632.938354
 10
371.657196
 20
632.938354
 10
371.611389
 20
632.938354
  0
LINE
  5
82
330
7B
100
AcDbEntity
  8
0
  6
Continuous
 62
     0
370
    30
100
AcDbLine
 10
366.943968
 20
632.938338
 30
0.0
 11
371.611389
 21
632.938338
 31
0.0
  0
LINE
  5
83
330
7B
100
AcDbEntity
  8
0
  6
Continuous
 62
     0
370
    30
100
AcDbLine
 10
368.820796
 20
644.938338
 30
0.0
 11
339.157464
 21
644.938338
 31
0.0
  0
LINE
  5
84
330
7B
100
AcDbEntity
  8
0
  6
Continuous
 62
     0
370
    30
100
AcDbLine
 10
370.157464
 20
644.938338
 30
0.0
 11
368.820796
 21
644.938338
 31
0.0
  0
LINE
  5
85
330
7B
100
AcDbEntity
  8
0
  6
Continuous
 62
     0
370
    30
100
AcDbLine
 10
366.943968
 20
624.938338
 30
0.0
 11
371.611389
 21
624.938338
 31
0.0
  0
LINE
  5
86
330
7B
100
AcDbEntity
  8
0
  6
Continuous
 62
     0
370
    30
100
AcDbLine
 10
367.656999
 20
623.990365
 30
0.0
 11
367.656999
 21
624.938338
 31
0.0
  0
LINE
  5
87
330
7B
100
AcDbEntity
  8
0
  6
Continuous
 62
     0
370
    30
100
AcDbLine
 10
339.652497
 20
623.990366
 30
0.0
 11
369.652487
 21
623.990366
 31
0.0
  0
LINE
  5
88
330
7B
100
AcDbEntity
  8
0
  6
Continuous
 62
     0
370
    30
100
AcDbLine
 10
369.652487
 20
623.990366
 30
0.0
 11
369.652487
 21
617.190366
 31
0.0
  0
LINE
  5
89
330
7B
100
AcDbEntity
  8
0
  6
Continuous
 62
     0
370
    30
100
AcDbLine
 10
339.652497
 20
623.990366
 30
0.0
 11
339.652497
 21
617.190366
 31
0.0
  0
LINE
  5
8A
330
7B
100
AcDbEntity
  8
0
  6
Continuous
 62
     0
370
    30
100
AcDbLine
 10
339.652497
 20
617.190366
 30
0.0
 11
369.652487
 21
617.190366
 31
0.0
  0
LINE
  5
8B
330
7B
100
AcDbEntity
  8
0
  6
Continuous
 62
     0
370
    30
100
AcDbLine
 10
366.157729
 20
665.795906
 30
0.0
 11
354.855849
 21
665.795906
 31
0.0
  0
LINE
  5
8C
330
7B
100
AcDbEntity
  8
0
  6
Continuous
 62
     0
370
    30
100
AcDbLine
 10
354.855849
 20
665.795906
 30
0.0
 11
343.157729
 21
665.795906
 31
0.0
  0
LWPOLYLINE
  5
8D
330
7B
100
AcDbEntity
  8
0
  6
Continuous
 62
     0
370
    30
100
AcDbPolyline
 90
       16
 70
     0
 43
0.0
 10
343.157715
 20
650.795898
 10
343.189026
 20
650.795898
 10
343.286102
 20
650.795898
 10
343.453613
 20
650.795898
 10
343.695221
 20
650.795898
 10
344.013367
 20
650.795898
 10
344.409088
 20
650.795898
 10
344.881805
 20
650.795898
 10
345.42923
 20
650.795898
 10
346.047302
 20
650.795898
 10
346.730347
 20
650.795898
 10
347.471161
 20
650.795898
 10
348.261261
 20
650.795898
 10
349.091339
 20
650.795898
 10
349.951355
 20
650.795898
 10
350.844086
 20
650.795898
  0
LINE
  5
8E
330
7B
100
AcDbEntity
  8
0
  6
Continuous
 62
     0
370
    30
100
AcDbLine
 10
350.844072
 20
650.795906
 30
0.0
 11
350.844072
 21
652.795906
 31
0.0
  0
LINE
  5
8F
330
7B
100
AcDbEntity
  8
0
  6
Continuous
 62
     0
370
    30
100
AcDbLine
 10
350.844072
 20
652.795906
 30
0.0
 11
358.842885
 21
652.795906
 31
0.0
  0
LINE
  5
90
330
7B
100
AcDbEntity
  8
0
  6
Continuous
 62
     0
370
    30
100
AcDbLine
 10
358.842885
 20
652.795906
 30
0.0
 11
358.842885
 21
650.795906
 31
0.0
  0
LINE
  5
91
330
7B
100
AcDbEntity
  8
0
  6
Continuous
 62
     0
370
    30
100
AcDbLine
 10
358.842885
 20
650.795906
 30
0.0
 11
366.157729
 21
650.795906
 31
0.0
  0
LINE
  5
92
330
7B
100
AcDbEntity
  8
0
  6
Continuous
 62
     0
370
    30
100
AcDbLine
 10
358.838028
 20
650.795906
 30
0.0
 11
350.844072
 21
650.795906
 31
0.0
  0
LWPOLYLINE
  5
93
330
7B
100
AcDbEntity
  8
0
  6
Continuous
 62
     0
370
    30
100
AcDbPolyline
 90
       19
 70
     0
 43
0.0
 10
345.657715
 20
648.795898
 10
345.686584
 20
648.795898
 10
345.776459
 20
648.795898
 10
345.931763
 20
648.795898
 10
346.156006
 20
648.795898
 10
346.451141
 20
648.795898
 10
346.817688
 20
648.795898
 10
347.254211
 20
648.795898
 10
347.757507
 20
648.795898
 10
348.322449
 20
648.795898
 10
348.942261
 20
648.795898
 10
349.608704
 20
648.795898
 10
350.312531
 20
648.795898
 10
351.043823
 20
648.795898
 10
351.792389
 20
648.795898
 10
352.54834
 20
648.795898
 10
353.302338
 20
648.795898
 10
354.045898
 20
648.795898
 10
354.812775
 20
648.795898
  0
LINE
  5
94
330
7B
100
AcDbEntity
  8
0
  6
Continuous
 62
     0
370
    30
100
AcDbLine
 10
354.812779
 20
648.795906
 30
0.0
 11
363.657729
 21
648.795906
 31
0.0
  0
LINE
  5
95
330
7B
100
AcDbEntity
  8
0
  6
Continuous
 62
     0
370
    30
100
AcDbLine
 10
358.838028
 20
652.795906
 30
0.0
 11
358.838028
 21
650.795906
 31
0.0
  0
ARC
  5
96
330
7B
100
AcDbEntity
  8
0
  6
Continuous
 62
     0
370
    30
100
AcDbCircle
 10
354.65764
 20
640.39585
 30
0.0
 40
12.3110744714156
100
AcDbArc
 50
21.652463
 51
43.024976
  0
ARC
  5
97
330
7B
100
AcDbEntity
  8
0
  6
Continuous
 62
     0
370
    30
100
AcDbCircle
 10
354.657818
 20
640.39585
 30
0.0
 40
12.31107447141584
100
AcDbArc
 50
136.975024
 51
158.347537
  0
LINE
  5
98
330
7B
100
AcDbEntity
  8
0
  6
Continuous
 62
     0
370
    30
100
AcDbLine
 10
345.657729
 20
650.795906
 30
0.0
 11
345.657729
 21
648.795906
 31
0.0
  0
LINE
  5
99
330
7B
100
AcDbEntity
  8
0
  6
Continuous
 62
     0
370
    30
100
AcDbLine
 10
363.657729
 20
648.795906
 30
0.0
 11
363.657729
 21
650.795906
 31
0.0
  0
LINE
  5
9A
330
7B
100
AcDbEntity
  8
0
  6
Continuous
 62
     0
370
    30
100
AcDbLine
 10
366.157729
 20
665.795906
 30
0.0
 11
366.157729
 21
650.795906
 31
0.0
  0
LINE
  5
9B
330
7B
100
AcDbEntity
  8
0
  6
Continuous
 62
     0
370
    30
100
AcDbLine
 10
343.157729
 20
665.795906
 30
0.0
 11
343.157729
 21
650.795906
 31
0.0
  0
LINE
  5
9C
330
7B
100
AcDbEntity
  8
0
  6
Continuous
 62
     0
370
    30
100
AcDbLine
 10
341.657003
 20
623.990365
 30
0.0
 11
341.657003
 21
624.938338
 31
0.0
  0
LINE
  5
9D
330
7B
100
AcDbEntity
  8
0
  6
Continuous
 62
     0
370
    30
100
AcDbLine
 10
339.157464
 20
644.938338
 30
0.0
 11
339.157464
 21
632.938338
 31
0.0
  0
LINE
  5
9E
330
7B
100
AcDbEntity
  8
0
  6
Continuous
 62
     0
370
    30
100
AcDbLine
 10
370.157464
 20
644.938338
 30
0.0
 11
370.157464
 21
632.938338
 31
0.0
  0
LINE
  5
9F
330
7B
100
AcDbEntity
  8
0
  6
Continuous
 62
     0
370
    30
100
AcDbLine
 10
371.657464
 20
624.938338
 30
0.0
 11
371.657464
 21
632.938338
 31
0.0
  0
LINE
  5
A0
330
7B
100
AcDbEntity
  8
0
  6
Continuous
 62
     0
370
    30
100
AcDbLine
 10
337.657464
 20
632.938338
 30
0.0
 11
337.657464
 21
624.938338
 31
0.0
  0
LWPOLYLINE
  5
A1
330
7B
100
AcDbEntity
  8
0
  6
Continuous
 62
     0
370
    30
100
AcDbPolyline
 90
       71
 70
     0
 43
0.0
 10
204.652832
 20
607.990356
 10
204.680954
 20
607.990356
 10
204.771774
 20
607.990356
 10
204.926758
 20
607.990356
 10
205.147339
 20
607.990356
 10
205.434891
 20
607.990356
 10
205.790741
 20
607.990356
 10
206.216141
 20
607.990356
 10
206.71228
 20
607.990356
 10
207.280258
 20
607.990356
 10
207.921127
 20
607.990356
 10
208.635818
 20
607.990356
 10
209.425201
 20
607.990356
 10
210.290024
 20
607.990356
 10
211.230942
 20
607.990356
 10
212.248535
 20
607.990356
 10
213.343216
 20
607.990356
 10
214.51532
 20
607.990356
 10
215.765076
 20
607.990356
 10
217.09256
 20
607.990356
 10
218.497726
 20
607.990356
 10
219.980438
 20
607.990356
 10
221.540375
 20
607.990356
 10
223.177124
 20
607.990356
 10
224.890121
 20
607.990356
 10
226.678665
 20
607.990356
 10
228.541962
 20
607.990356
 10
230.479019
 20
607.990356
 10
232.48877
 20
607.990356
 10
234.569962
 20
607.990356
 10
236.721268
 20
607.990356
 10
238.941193
 20
607.990356
 10
241.228149
 20
607.990356
 10
243.580399
 20
607.990356
 10
245.996109
 20
607.990356
 10
248.473328
 20
607.990356
 10
251.01001
 20
607.990356
 10
253.603989
 20
607.990356
 10
256.253021
 20
607.990356
 10
258.954773
 20
607.990356
 10
261.706848
 20
607.990356
 10
264.506744
 20
607.990356
 10
267.351868
 20
607.990356
 10
270.239655
 20
607.990356
 10
273.167419
 20
607.990356
 10
276.132477
 20
607.990356
 10
279.13205
 20
607.990356
 10
282.163391
 20
607.990356
 10
285.223724
 20
607.990356
 10
288.310242
 20
607.990356
 10
291.420105
 20
607.990356
 10
294.550598
 20
607.990356
 10
297.698853
 20
607.990356
 10
300.862152
 20
607.990356
 10
304.03775
 20
607.990356
 10
307.222931
 20
607.990356
 10
310.415009
 20
607.990356
 10
313.61142
 20
607.990356
 10
316.809509
 20
607.990356
 10
320.006836
 20
607.990356
 10
323.200928
 20
607.990356
 10
326.389343
 20
607.990356
 10
329.569824
 20
607.990356
 10
332.740082
 20
607.990356
 10
335.89798
 20
607.990356
 10
339.041382
 20
607.990356
 10
342.168304
 20
607.990356
 10
345.276825
 20
607.990356
 10
348.365112
 20
607.990356
 10
351.431335
 20
607.990356
 10
354.518219
 20
607.990356
  0
LINE
  5
A2
330
7B
100
AcDbEntity
  8
0
  6
Continuous
 62
     0
370
    30
100
AcDbLine
 10
354.518233
 20
607.990366
 30
0.0
 11
504.652711
 21
607.990366
 31
0.0
  0
LINE
  5
A3
330
7B
100
AcDbEntity
  8
0
  6
Continuous
 62
     0
370
    30
100
AcDbLine
 10
204.652771
 20
607.990366
 30
0.0
 11
204.652772
 21
615.990366
 31
0.0
  0
LINE
  5
A4
330
7B
100
AcDbEntity
  8
0
  6
Continuous
 62
     0
370
    30
100
AcDbLine
 10
504.652772
 20
615.990366
 30
0.0
 11
504.652771
 21
607.990366
 31
0.0
  0
LINE
  5
A5
330
7B
100
AcDbEntity
  8
0
  6
Continuous
 62
     0
370
    30
100
AcDbLine
 10
379.85276
 20
605.885531
 30
0.0
 11
380.310036
 21
605.885531
 31
0.0
  0
LINE
  5
A6
330
7B
100
AcDbEntity
  8
0
  6
Continuous
 62
     0
370
    30
100
AcDbLine
 10
421.852743
 20
605.885531
 30
0.0
 11
424.125896
 21
605.885531
 31
0.0
  0
LINE
  5
A7
330
7B
100
AcDbEntity
  8
0
  6
Continuous
 62
     0
370
    30
100
AcDbLine
 10
452.270223
 20
605.885531
 30
0.0
 11
452.53177
 21
605.885531
 31
0.0
  0
LINE
  5
A8
330
7B
100
AcDbEntity
  8
0
  6
Continuous
 62
     0
370
    30
100
AcDbLine
 10
452.136217
 20
605.885531
 30
0.0
 11
452.270224
 21
605.885531
 31
0.0
  0
LINE
  5
A9
330
7B
100
AcDbEntity
  8
0
  6
Continuous
 62
     0
370
    30
100
AcDbLine
 10
452.53177
 20
605.885531
 30
0.0
 11
453.452082
 21
605.885531
 31
0.0
  0
LINE
  5
AA
330
7B
100
AcDbEntity
  8
0
  6
Continuous
 62
     0
370
    30
100
AcDbLine
 10
464.402395
 20
605.885531
 30
0.0
 11
464.649842
 21
605.885531
 31
0.0
  0
LINE
  5
AB
330
7B
100
AcDbEntity
  8
0
  6
Continuous
 62
     0
370
    30
100
AcDbLine
 10
461.049842
 20
605.885531
 30
0.0
 11
464.402396
 21
605.885531
 31
0.0
  0
LINE
  5
AC
330
7B
100
AcDbEntity
  8
0
  6
Continuous
 62
     0
370
    30
100
AcDbLine
 10
479.534221
 20
605.885531
 30
0.0
 11
481.452677
 21
605.885531
 31
0.0
  0
LINE
  5
AD
330
7B
100
AcDbEntity
  8
0
  6
Continuous
 62
     0
370
    30
100
AcDbLine
 10
465.749098
 20
605.885531
 30
0.0
 11
467.452282
 21
605.885531
 31
0.0
  0
LINE
  5
AE
330
7B
100
AcDbEntity
  8
0
  6
Continuous
 62
     0
370
    30
100
AcDbLine
 10
473.763081
 20
605.885531
 30
0.0
 11
473.875953
 21
605.885531
 31
0.0
  0
LINE
  5
AF
330
7B
100
AcDbEntity
  8
0
  6
Continuous
 62
     0
370
    30
100
AcDbLine
 10
470.275953
 20
605.885531
 30
0.0
 11
473.763081
 21
605.885531
 31
0.0
  0
LINE
  5
B0
330
7B
100
AcDbEntity
  8
0
  6
Continuous
 62
     0
370
    30
100
AcDbLine
 10
479.50466
 20
605.885531
 30
0.0
 11
479.534221
 21
605.885531
 31
0.0
  0
LWPOLYLINE
  5
B1
330
7B
100
AcDbEntity
  8
0
  6
Continuous
 62
     0
370
    30
100
AcDbPolyline
 90
       16
 70
     0
 43
0.0
 10
475.934235
 20
605.885559
 10
475.967773
 20
605.885559
 10
476.072784
 20
605.885559
 10
476.24939
 20
605.885559
 10
476.48877
 20
605.885559
 10
476.774384
 20
605.885559
 10
477.085449
 20
605.885559
 10
477.40152
 20
605.885559
 10
477.7276
 20
605.885559
 10
478.073364
 20
605.885559
 10
478.420105
 20
605.885559
 10
478.745697
 20
605.885559
 10
479.028809
 20
605.885559
 10
479.253204
 20
605.885559
 10
479.410828
 20
605.885559
 10
479.504669
 20
605.885559
  0
LINE
  5
B2
330
7B
100
AcDbEntity
  8
0
  6
Continuous
 62
     0
370
    30
100
AcDbLine
 10
473.875953
 20
605.885531
 30
0.0
 11
473.952649
 21
605.885531
 31
0.0
  0
LINE
  5
B3
330
7B
100
AcDbEntity
  8
0
  6
Continuous
 62
     0
370
    30
100
AcDbLine
 10
399.099911
 20
605.885531
 30
0.0
 11
399.310632
 21
605.885531
 31
0.0
  0
LINE
  5
B4
330
7B
100
AcDbEntity
  8
0
  6
Continuous
 62
     0
370
    30
100
AcDbLine
 10
248.143578
 20
605.885531
 30
0.0
 11
248.2557
 21
605.885531
 31
0.0
  0
LINE
  5
B5
330
7B
100
AcDbEntity
  8
0
  6
Continuous
 62
     0
370
    30
100
AcDbLine
 10
238.952893
 20
605.885531
 30
0.0
 11
239.029589
 21
605.885531
 31
0.0
  0
LWPOLYLINE
  5
B6
330
7B
100
AcDbEntity
  8
0
  6
Continuous
 62
     0
370
    30
100
AcDbPolyline
 90
        9
 70
     0
 43
0.0
 10
227.852859
 20
605.885559
 10
227.882614
 20
605.885559
 10
227.983246
 20
605.885559
 10
228.159348
 20
605.885559
 10
228.40593
 20
605.885559
 10
228.708115
 20
605.885559
 10
229.0439
 20
605.885559
 10
229.389206
 20
605.885559
 10
229.732376
 20
605.885559
  0
LINE
  5
B7
330
7B
100
AcDbEntity
  8
0
  6
Continuous
 62
     0
370
    30
100
AcDbLine
 10
229.757598
 20
605.885531
 30
0.0
 11
233.332382
 21
605.885531
 31
0.0
  0
LINE
  5
B8
330
7B
100
AcDbEntity
  8
0
  6
Continuous
 62
     0
370
    30
100
AcDbLine
 10
229.732382
 20
605.885531
 30
0.0
 11
229.757598
 21
605.885531
 31
0.0
  0
LINE
  5
B9
330
7B
100
AcDbEntity
  8
0
  6
Continuous
 62
     0
370
    30
100
AcDbLine
 10
235.457208
 20
605.885531
 30
0.0
 11
238.952893
 21
605.885531
 31
0.0
  0
LWPOLYLINE
  5
BA
330
7B
100
AcDbEntity
  8
0
  6
Continuous
 62
     0
370
    30
100
AcDbPolyline
 90
        3
 70
     0
 43
0.0
 10
235.35289
 20
605.885559
 10
235.371826
 20
605.885559
 10
235.457214
 20
605.885559
  0
LINE
  5
BB
330
7B
100
AcDbEntity
  8
0
  6
Continuous
 62
     0
370
    30
100
AcDbLine
 10
244.778515
 20
605.885531
 30
0.0
 11
248.143578
 21
605.885531
 31
0.0
  0
LINE
  5
BC
330
7B
100
AcDbEntity
  8
0
  6
Continuous
 62
     0
370
    30
100
AcDbLine
 10
244.543578
 20
605.885531
 30
0.0
 11
244.778516
 21
605.885531
 31
0.0
  0
LINE
  5
BD
330
7B
100
AcDbEntity
  8
0
  6
Continuous
 62
     0
370
    30
100
AcDbLine
 10
257.438296
 20
605.885531
 30
0.0
 11
260.625183
 21
605.885531
 31
0.0
  0
LINE
  5
BE
330
7B
100
AcDbEntity
  8
0
  6
Continuous
 62
     0
370
    30
100
AcDbLine
 10
257.025183
 20
605.885531
 30
0.0
 11
257.438296
 21
605.885531
 31
0.0
  0
LINE
  5
BF
330
7B
100
AcDbEntity
  8
0
  6
Continuous
 62
     0
370
    30
100
AcDbLine
 10
273.051889
 20
605.885531
 30
0.0
 11
276.018462
 21
605.885531
 31
0.0
  0
LWPOLYLINE
  5
C0
330
7B
100
AcDbEntity
  8
0
  6
Continuous
 62
     0
370
    30
100
AcDbPolyline
 90
        6
 70
     0
 43
0.0
 10
272.418457
 20
605.885559
 10
272.44574
 20
605.885559
 10
272.525909
 20
605.885559
 10
272.653107
 20
605.885559
 10
272.817993
 20
605.885559
 10
273.05188
 20
605.885559
  0
LINE
  5
C1
330
7B
100
AcDbEntity
  8
0
  6
Continuous
 62
     0
370
    30
100
AcDbLine
 10
291.144884
 20
605.885531
 30
0.0
 11
293.855695
 21
605.885531
 31
0.0
  0
LINE
  5
C2
330
7B
100
AcDbEntity
  8
0
  6
Continuous
 62
     0
370
    30
100
AcDbLine
 10
290.255695
 20
605.885531
 30
0.0
 11
291.144884
 21
605.885531
 31
0.0
  0
LINE
  5
C3
330
7B
100
AcDbEntity
  8
0
  6
Continuous
 62
     0
370
    30
100
AcDbLine
 10
311.167534
 20
605.885531
 30
0.0
 11
313.59491
 21
605.885531
 31
0.0
  0
LINE
  5
C4
330
7B
100
AcDbEntity
  8
0
  6
Continuous
 62
     0
370
    30
100
AcDbLine
 10
309.99491
 20
605.885531
 30
0.0
 11
311.167534
 21
605.885531
 31
0.0
  0
LINE
  5
C5
330
7B
100
AcDbEntity
  8
0
  6
Continuous
 62
     0
370
    30
100
AcDbLine
 10
332.511461
 20
605.885531
 30
0.0
 11
334.636339
 21
605.885531
 31
0.0
  0
LINE
  5
C6
330
7B
100
AcDbEntity
  8
0
  6
Continuous
 62
     0
370
    30
100
AcDbLine
 10
331.036339
 20
605.885531
 30
0.0
 11
332.511461
 21
605.885531
 31
0.0
  0
LINE
  5
C7
330
7B
100
AcDbEntity
  8
0
  6
Continuous
 62
     0
370
    30
100
AcDbLine
 10
354.52814
 20
605.885531
 30
0.0
 11
356.340649
 21
605.885531
 31
0.0
  0
LINE
  5
C8
330
7B
100
AcDbEntity
  8
0
  6
Continuous
 62
     0
370
    30
100
AcDbLine
 10
352.740649
 20
605.885531
 30
0.0
 11
354.52814
 21
605.885531
 31
0.0
  0
LINE
  5
C9
330
7B
100
AcDbEntity
  8
0
  6
Continuous
 62
     0
370
    30
100
AcDbLine
 10
376.548606
 20
605.885531
 30
0.0
 11
378.048366
 21
605.885531
 31
0.0
  0
LINE
  5
CA
330
7B
100
AcDbEntity
  8
0
  6
Continuous
 62
     0
370
    30
100
AcDbLine
 10
374.448366
 20
605.885531
 30
0.0
 11
376.548606
 21
605.885531
 31
0.0
  0
LINE
  5
CB
330
7B
100
AcDbEntity
  8
0
  6
Continuous
 62
     0
370
    30
100
AcDbLine
 10
397.903778
 20
605.885531
 30
0.0
 11
399.099911
 21
605.885531
 31
0.0
  0
LINE
  5
CC
330
7B
100
AcDbEntity
  8
0
  6
Continuous
 62
     0
370
    30
100
AcDbLine
 10
395.499911
 20
605.885531
 30
0.0
 11
397.903778
 21
605.885531
 31
0.0
  0
LINE
  5
CD
330
7B
100
AcDbEntity
  8
0
  6
Continuous
 62
     0
370
    30
100
AcDbLine
 10
417.94479
 20
605.885531
 30
0.0
 11
418.855645
 21
605.885531
 31
0.0
  0
LWPOLYLINE
  5
CE
330
7B
100
AcDbEntity
  8
0
  6
Continuous
 62
     0
370
    30
100
AcDbPolyline
 90
       12
 70
     0
 43
0.0
 10
415.255646
 20
605.885559
 10
415.289032
 20
605.885559
 10
415.382355
 20
605.885559
 10
415.522797
 20
605.885559
 10
415.714661
 20
605.885559
 10
415.963135
 20
605.885559
 10
416.261749
 20
605.885559
 10
416.596954
 20
605.885559
 10
416.94986
 20
605.885559
 10
417.299713
 20
605.885559
 10
417.627594
 20
605.885559
 10
417.944794
 20
605.885559
  0
LINE
  5
CF
330
7B
100
AcDbEntity
  8
0
  6
Continuous
 62
     0
370
    30
100
AcDbLine
 10
436.062707
 20
605.885531
 30
0.0
 11
436.715299
 21
605.885531
 31
0.0
  0
LWPOLYLINE
  5
D0
330
7B
100
AcDbEntity
  8
0
  6
Continuous
 62
     0
370
    30
100
AcDbPolyline
 90
       13
 70
     0
 43
0.0
 10
433.115295
 20
605.885559
 10
433.14975
 20
605.885559
 10
433.248108
 20
605.885559
 10
433.398529
 20
605.885559
 10
433.58725
 20
605.885559
 10
433.82312
 20
605.885559
 10
434.108704
 20
605.885559
 10
434.434296
 20
605.885559
 10
434.784027
 20
605.885559
 10
435.138123
 20
605.885559
 10
435.476471
 20
605.885559
 10
435.782288
 20
605.885559
 10
436.062714
 20
605.885559
  0
LINE
  5
D1
330
7B
100
AcDbEntity
  8
0
  6
Continuous
 62
     0
370
    30
100
AcDbLine
 10
451.707023
 20
605.885531
 30
0.0
 11
452.136217
 21
605.885531
 31
0.0
  0
LWPOLYLINE
  5
D2
330
7B
100
AcDbEntity
  8
0
  6
Continuous
 62
     0
370
    30
100
AcDbPolyline
 90
       14
 70
     0
 43
0.0
 10
448.536224
 20
605.885559
 10
448.570679
 20
605.885559
 10
448.671295
 20
605.885559
 10
448.828644
 20
605.885559
 10
449.028595
 20
605.885559
 10
449.257477
 20
605.885559
 10
449.527985
 20
605.885559
 10
449.83963
 20
605.885559
 10
450.180084
 20
605.885559
 10
450.531952
 20
605.885559
 10
450.875427
 20
605.885559
 10
451.191772
 20
605.885559
 10
451.466705
 20
605.885559
 10
451.707031
 20
605.885559
  0
LINE
  5
D3
330
7B
100
AcDbEntity
  8
0
  6
Continuous
 62
     0
370
    30
100
AcDbLine
 10
460.6019
 20
605.885531
 30
0.0
 11
460.724557
 21
605.885531
 31
0.0
  0
LINE
  5
D4
330
7B
100
AcDbEntity
  8
0
  6
Continuous
 62
     0
370
    30
100
AcDbLine
 10
457.124557
 20
605.885531
 30
0.0
 11
460.6019
 21
605.885531
 31
0.0
  0
LINE
  5
D5
330
7B
100
AcDbEntity
  8
0
  6
Continuous
 62
     0
370
    30
100
AcDbLine
 10
465.714366
 20
605.885531
 30
0.0
 11
465.749098
 21
605.885531
 31
0.0
  0
LINE
  5
D6
330
7B
100
AcDbEntity
  8
0
  6
Continuous
 62
     0
370
    30
100
AcDbLine
 10
464.649842
 20
605.885531
 30
0.0
 11
465.714366
 21
605.885531
 31
0.0
  0
LINE
  5
D7
330
7B
100
AcDbEntity
  8
0
  6
Continuous
 62
     0
370
    30
100
AcDbLine
 10
460.724557
 20
605.885531
 30
0.0
 11
460.792663
 21
605.885531
 31
0.0
  0
LINE
  5
D8
330
7B
100
AcDbEntity
  8
0
  6
Continuous
 62
     0
370
    30
100
AcDbLine
 10
441.419671
 20
605.885531
 30
0.0
 11
441.547669
 21
605.885531
 31
0.0
  0
LINE
  5
D9
330
7B
100
AcDbEntity
  8
0
  6
Continuous
 62
     0
370
    30
100
AcDbLine
 10
411.866523
 20
605.885531
 30
0.0
 11
412.038974
 21
605.885531
 31
0.0
  0
LWPOLYLINE
  5
DA
330
7B
100
AcDbEntity
  8
0
  6
Continuous
 62
     0
370
    30
100
AcDbPolyline
 90
        9
 70
     0
 43
0.0
 10
241.853256
 20
605.885559
 10
241.873459
 20
605.885559
 10
241.953186
 20
605.885559
 10
242.097092
 20
605.885559
 10
242.303177
 20
605.885559
 10
242.562027
 20
605.885559
 10
242.858139
 20
605.885559
 10
243.172882
 20
605.885559
 10
243.521866
 20
605.885559
  0
LINE
  5
DB
330
7B
100
AcDbEntity
  8
0
  6
Continuous
 62
     0
370
    30
100
AcDbLine
 10
243.542701
 20
605.885531
 30
0.0
 11
244.543578
 21
605.885531
 31
0.0
  0
LINE
  5
DC
330
7B
100
AcDbEntity
  8
0
  6
Continuous
 62
     0
370
    30
100
AcDbLine
 10
243.521865
 20
605.885531
 30
0.0
 11
243.542701
 21
605.885531
 31
0.0
  0
LINE
  5
DD
330
7B
100
AcDbEntity
  8
0
  6
Continuous
 62
     0
370
    30
100
AcDbLine
 10
248.608165
 20
605.885531
 30
0.0
 11
252.112879
 21
605.885531
 31
0.0
  0
LINE
  5
DE
330
7B
100
AcDbEntity
  8
0
  6
Continuous
 62
     0
370
    30
100
AcDbLine
 10
248.512879
 20
605.885531
 30
0.0
 11
248.608165
 21
605.885531
 31
0.0
  0
LINE
  5
DF
330
7B
100
AcDbEntity
  8
0
  6
Continuous
 62
     0
370
    30
100
AcDbLine
 10
256.89574
 20
605.885531
 30
0.0
 11
257.025183
 21
605.885531
 31
0.0
  0
LWPOLYLINE
  5
E0
330
7B
100
AcDbEntity
  8
0
  6
Continuous
 62
     0
370
    30
100
AcDbPolyline
 90
        4
 70
     0
 43
0.0
 10
256.674194
 20
605.885559
 10
256.696594
 20
605.885559
 10
256.760193
 20
605.885559
 10
256.895752
 20
605.885559
  0
LINE
  5
E1
330
7B
100
AcDbEntity
  8
0
  6
Continuous
 62
     0
370
    30
100
AcDbLine
 10
268.153614
 20
605.885531
 30
0.0
 11
271.357873
 21
605.885531
 31
0.0
  0
LINE
  5
E2
330
7B
100
AcDbEntity
  8
0
  6
Continuous
 62
     0
370
    30
100
AcDbLine
 10
267.757873
 20
605.885531
 30
0.0
 11
268.153614
 21
605.885531
 31
0.0
  0
LINE
  5
E3
330
7B
100
AcDbEntity
  8
0
  6
Continuous
 62
     0
370
    30
100
AcDbLine
 10
282.03972
 20
605.885531
 30
0.0
 11
285.027104
 21
605.885531
 31
0.0
  0
LWPOLYLINE
  5
E4
330
7B
100
AcDbEntity
  8
0
  6
Continuous
 62
     0
370
    30
100
AcDbPolyline
 90
        6
 70
     0
 43
0.0
 10
281.427094
 20
605.885559
 10
281.453217
 20
605.885559
 10
281.529877
 20
605.885559
 10
281.65155
 20
605.885559
 10
281.80954
 20
605.885559
 10
282.039734
 20
605.885559
  0
LINE
  5
E5
330
7B
100
AcDbEntity
  8
0
  6
Continuous
 62
     0
370
    30
100
AcDbLine
 10
298.132137
 20
605.885531
 30
0.0
 11
300.866568
 21
605.885531
 31
0.0
  0
LINE
  5
E6
330
7B
100
AcDbEntity
  8
0
  6
Continuous
 62
     0
370
    30
100
AcDbLine
 10
297.266568
 20
605.885531
 30
0.0
 11
298.132138
 21
605.885531
 31
0.0
  0
LINE
  5
E7
330
7B
100
AcDbEntity
  8
0
  6
Continuous
 62
     0
370
    30
100
AcDbLine
 10
315.941905
 20
605.885531
 30
0.0
 11
318.39499
 21
605.885531
 31
0.0
  0
LINE
  5
E8
330
7B
100
AcDbEntity
  8
0
  6
Continuous
 62
     0
370
    30
100
AcDbLine
 10
314.79499
 20
605.885531
 30
0.0
 11
315.941906
 21
605.885531
 31
0.0
  0
LINE
  5
E9
330
7B
100
AcDbEntity
  8
0
  6
Continuous
 62
     0
370
    30
100
AcDbLine
 10
334.927884
 20
605.885531
 30
0.0
 11
337.079779
 21
605.885531
 31
0.0
  0
LINE
  5
EA
330
7B
100
AcDbEntity
  8
0
  6
Continuous
 62
     0
370
    30
100
AcDbLine
 10
334.636339
 20
605.885531
 30
0.0
 11
334.927884
 21
605.885531
 31
0.0
  0
LINE
  5
EB
330
7B
100
AcDbEntity
  8
0
  6
Continuous
 62
     0
370
    30
100
AcDbLine
 10
374.102743
 20
605.885531
 30
0.0
 11
374.448366
 21
605.885531
 31
0.0
  0
LWPOLYLINE
  5
EC
330
7B
100
AcDbEntity
  8
0
  6
Continuous
 62
     0
370
    30
100
AcDbPolyline
 90
       10
 70
     0
 43
0.0
 10
372.029663
 20
605.885559
 10
372.057465
 20
605.885559
 10
372.141815
 20
605.885559
 10
372.289398
 20
605.885559
 10
372.500732
 20
605.885559
 10
372.768829
 20
605.885559
 10
373.079224
 20
605.885559
 10
373.412598
 20
605.885559
 10
373.748535
 20
605.885559
 10
374.102753
 20
605.885559
  0
LINE
  5
ED
330
7B
100
AcDbEntity
  8
0
  6
Continuous
 62
     0
370
    30
100
AcDbLine
 10
393.101315
 20
605.885531
 30
0.0
 11
394.323432
 21
605.885531
 31
0.0
  0
LINE
  5
EE
330
7B
100
AcDbEntity
  8
0
  6
Continuous
 62
     0
370
    30
100
AcDbLine
 10
390.723432
 20
605.885531
 30
0.0
 11
393.101315
 21
605.885531
 31
0.0
  0
LINE
  5
EF
330
7B
100
AcDbEntity
  8
0
  6
Continuous
 62
     0
370
    30
100
AcDbLine
 10
410.931648
 20
605.885531
 30
0.0
 11
411.866523
 21
605.885531
 31
0.0
  0
LWPOLYLINE
  5
F0
330
7B
100
AcDbEntity
  8
0
  6
Continuous
 62
     0
370
    30
100
AcDbPolyline
 90
       12
 70
     0
 43
0.0
 10
408.26651
 20
605.885559
 10
408.299194
 20
605.885559
 10
408.390472
 20
605.885559
 10
408.528076
 20
605.885559
 10
408.717316
 20
605.885559
 10
408.962524
 20
605.885559
 10
409.257385
 20
605.885559
 10
409.588654
 20
605.885559
 10
409.937988
 20
605.885559
 10
410.285065
 20
605.885559
 10
410.611389
 20
605.885559
 10
410.931641
 20
605.885559
  0
LINE
  5
F1
330
7B
100
AcDbEntity
  8
0
  6
Continuous
 62
     0
370
    30
100
AcDbLine
 10
427.051975
 20
605.885531
 30
0.0
 11
427.725896
 21
605.885531
 31
0.0
  0
LINE
  5
F2
330
7B
100
AcDbEntity
  8
0
  6
Continuous
 62
     0
370
    30
100
AcDbLine
 10
424.125896
 20
605.885531
 30
0.0
 11
427.051976
 21
605.885531
 31
0.0
  0
LINE
  5
F3
330
7B
100
AcDbEntity
  8
0
  6
Continuous
 62
     0
370
    30
100
AcDbLine
 10
440.97249
 20
605.885531
 30
0.0
 11
441.419671
 21
605.885531
 31
0.0
  0
LWPOLYLINE
  5
F4
330
7B
100
AcDbEntity
  8
0
  6
Continuous
 62
     0
370
    30
100
AcDbPolyline
 90
       14
 70
     0
 43
0.0
 10
437.819672
 20
605.885559
 10
437.853699
 20
605.885559
 10
437.952789
 20
605.885559
 10
438.107666
 20
605.885559
 10
438.304352
 20
605.885559
 10
438.530151
 20
605.885559
 10
438.798248
 20
605.885559
 10
439.107269
 20
605.885559
 10
439.445129
 20
605.885559
 10
439.7948
 20
605.885559
 10
440.13681
 20
605.885559
 10
440.452789
 20
605.885559
 10
440.728516
 20
605.885559
 10
440.972504
 20
605.885559
  0
LINE
  5
F5
330
7B
100
AcDbEntity
  8
0
  6
Continuous
 62
     0
370
    30
100
AcDbLine
 10
447.573159
 20
605.885531
 30
0.0
 11
447.632677
 21
605.885531
 31
0.0
  0
LINE
  5
F6
330
7B
100
AcDbEntity
  8
0
  6
Continuous
 62
     0
370
    30
100
AcDbLine
 10
430.703125
 20
605.885531
 30
0.0
 11
430.814979
 21
605.885531
 31
0.0
  0
LINE
  5
F7
330
7B
100
AcDbEntity
  8
0
  6
Continuous
 62
     0
370
    30
100
AcDbLine
 10
307.87744
 20
605.885531
 30
0.0
 11
308.028141
 21
605.885531
 31
0.0
  0
LINE
  5
F8
330
7B
100
AcDbEntity
  8
0
  6
Continuous
 62
     0
370
    30
100
AcDbLine
 10
294.035747
 20
605.885531
 30
0.0
 11
294.169049
 21
605.885531
 31
0.0
  0
LINE
  5
F9
330
7B
100
AcDbEntity
  8
0
  6
Continuous
 62
     0
370
    30
100
AcDbLine
 10
265.272865
 20
605.885531
 30
0.0
 11
265.332381
 21
605.885531
 31
0.0
  0
LWPOLYLINE
  5
FA
330
7B
100
AcDbEntity
  8
0
  6
Continuous
 62
     0
370
    30
100
AcDbPolyline
 90
        6
 70
     0
 43
0.0
 10
255.853455
 20
605.885559
 10
255.875992
 20
605.885559
 10
255.967987
 20
605.885559
 10
256.134491
 20
605.885559
 10
256.371277
 20
605.885559
 10
256.674194
 20
605.885559
  0
LINE
  5
FB
330
7B
100
AcDbEntity
  8
0
  6
Continuous
 62
     0
370
    30
100
AcDbLine
 10
260.625183
 20
605.885531
 30
0.0
 11
260.911349
 21
605.885531
 31
0.0
  0
LINE
  5
FC
330
7B
100
AcDbEntity
  8
0
  6
Continuous
 62
     0
370
    30
100
AcDbLine
 10
261.765491
 20
605.885531
 30
0.0
 11
265.272865
 21
605.885531
 31
0.0
  0
LWPOLYLINE
  5
FD
330
7B
100
AcDbEntity
  8
0
  6
Continuous
 62
     0
370
    30
100
AcDbPolyline
 90
        3
 70
     0
 43
0.0
 10
261.672852
 20
605.885559
 10
261.686768
 20
605.885559
 10
261.765503
 20
605.885559
  0
LINE
  5
FE
330
7B
100
AcDbEntity
  8
0
  6
Continuous
 62
     0
370
    30
100
AcDbLine
 10
271.357873
 20
605.885531
 30
0.0
 11
272.404837
 21
605.885531
 31
0.0
  0
LINE
  5
FF
330
7B
100
AcDbEntity
  8
0
  6
Continuous
 62
     0
370
    30
100
AcDbLine
 10
278.8811
 20
605.885531
 30
0.0
 11
281.427104
 21
605.885531
 31
0.0
  0
LWPOLYLINE
  5
100
330
7B
100
AcDbEntity
  8
0
  6
Continuous
 62
     0
370
    30
100
AcDbPolyline
 90
        5
 70
     0
 43
0.0
 10
278.49057
 20
605.885559
 10
278.515198
 20
605.885559
 10
278.586273
 20
605.885559
 10
278.697174
 20
605.885559
 10
278.881104
 20
605.885559
  0
LINE
  5
101
330
7B
100
AcDbEntity
  8
0
  6
Continuous
 62
     0
370
    30
100
AcDbLine
 10
293.855695
 20
605.885531
 30
0.0
 11
294.035747
 21
605.885531
 31
0.0
  0
LINE
  5
102
330
7B
100
AcDbEntity
  8
0
  6
Continuous
 62
     0
370
    30
100
AcDbLine
 10
305.13589
 20
605.885531
 30
0.0
 11
307.87744
 21
605.885531
 31
0.0
  0
LWPOLYLINE
  5
103
330
7B
100
AcDbEntity
  8
0
  6
Continuous
 62
     0
370
    30
100
AcDbPolyline
 90
        7
 70
     0
 43
0.0
 10
304.277435
 20
605.885559
 10
304.303253
 20
605.885559
 10
304.380463
 20
605.885559
 10
304.505554
 20
605.885559
 10
304.671051
 20
605.885559
 10
304.867004
 20
605.885559
 10
305.135895
 20
605.885559
  0
LINE
  5
104
330
7B
100
AcDbEntity
  8
0
  6
Continuous
 62
     0
370
    30
100
AcDbLine
 10
320.73422
 20
605.885531
 30
0.0
 11
323.19507
 21
605.885531
 31
0.0
  0
LINE
  5
105
330
7B
100
AcDbEntity
  8
0
  6
Continuous
 62
     0
370
    30
100
AcDbLine
 10
319.595072
 20
605.885531
 30
0.0
 11
320.73422
 21
605.885531
 31
0.0
  0
LINE
  5
106
330
7B
100
AcDbEntity
  8
0
  6
Continuous
 62
     0
370
    30
100
AcDbLine
 10
337.363147
 20
605.885531
 30
0.0
 11
339.52322
 21
605.885531
 31
0.0
  0
LINE
  5
107
330
7B
100
AcDbEntity
  8
0
  6
Continuous
 62
     0
370
    30
100
AcDbLine
 10
337.079779
 20
605.885531
 30
0.0
 11
337.363147
 21
605.885531
 31
0.0
  0
LINE
  5
108
330
7B
100
AcDbEntity
  8
0
  6
Continuous
 62
     0
370
    30
100
AcDbLine
 10
371.675788
 20
605.885531
 30
0.0
 11
372.029659
 21
605.885531
 31
0.0
  0
LWPOLYLINE
  5
109
330
7B
100
AcDbEntity
  8
0
  6
Continuous
 62
     0
370
    30
100
AcDbPolyline
 90
       10
 70
     0
 43
0.0
 10
369.610962
 20
605.885559
 10
369.638519
 20
605.885559
 10
369.722443
 20
605.885559
 10
369.869293
 20
605.885559
 10
370.079559
 20
605.885559
 10
370.346283
 20
605.885559
 10
370.655151
 20
605.885559
 10
370.98703
 20
605.885559
 10
371.321716
 20
605.885559
 10
371.675781
 20
605.885559
  0
LINE
  5
10A
330
7B
100
AcDbEntity
  8
0
  6
Continuous
 62
     0
370
    30
100
AcDbLine
 10
388.316929
 20
605.885531
 30
0.0
 11
389.546952
 21
605.885531
 31
0.0
  0
LWPOLYLINE
  5
10B
330
7B
100
AcDbEntity
  8
0
  6
Continuous
 62
     0
370
    30
100
AcDbPolyline
 90
       10
 70
     0
 43
0.0
 10
385.94696
 20
605.885559
 10
385.984863
 20
605.885559
 10
386.088989
 20
605.885559
 10
386.264435
 20
605.885559
 10
386.515442
 20
605.885559
 10
386.833466
 20
605.885559
 10
387.198914
 20
605.885559
 10
387.584717
 20
605.885559
 10
387.96283
 20
605.885559
 10
388.316925
 20
605.885559
  0
LINE
  5
10C
330
7B
100
AcDbEntity
  8
0
  6
Continuous
 62
     0
370
    30
100
AcDbLine
 10
403.935201
 20
605.885531
 30
0.0
 11
404.877401
 21
605.885531
 31
0.0
  0
LWPOLYLINE
  5
10D
330
7B
100
AcDbEntity
  8
0
  6
Continuous
 62
     0
370
    30
100
AcDbPolyline
 90
       12
 70
     0
 43
0.0
 10
401.277405
 20
605.885559
 10
401.309875
 20
605.885559
 10
401.400513
 20
605.885559
 10
401.537262
 20
605.885559
 10
401.725708
 20
605.885559
 10
401.96994
 20
605.885559
 10
402.263641
 20
605.885559
 10
402.59375
 20
605.885559
 10
402.941956
 20
605.885559
 10
403.288177
 20
605.885559
 10
403.614014
 20
605.885559
 10
403.935211
 20
605.885559
  0
LINE
  5
10E
330
7B
100
AcDbEntity
  8
0
  6
Continuous
 62
     0
370
    30
100
AcDbLine
 10
415.136493
 20
605.885531
 30
0.0
 11
415.255645
 21
605.885531
 31
0.0
  0
LINE
  5
10F
330
7B
100
AcDbEntity
  8
0
  6
Continuous
 62
     0
370
    30
100
AcDbLine
 10
430.250427
 20
605.885531
 30
0.0
 11
430.703125
 21
605.885531
 31
0.0
  0
LINE
  5
110
330
7B
100
AcDbEntity
  8
0
  6
Continuous
 62
     0
370
    30
100
AcDbLine
 10
427.725896
 20
605.885531
 30
0.0
 11
430.250427
 21
605.885531
 31
0.0
  0
LWPOLYLINE
  5
111
330
7B
100
AcDbEntity
  8
0
  6
Continuous
 62
     0
370
    30
100
AcDbPolyline
 90
        7
 70
     0
 43
0.0
 10
436.81369
 20
605.885559
 10
436.846436
 20
605.885559
 10
436.944031
 20
605.885559
 10
437.10025
 20
605.885559
 10
437.303162
 20
605.885559
 10
437.537689
 20
605.885559
 10
437.819672
 20
605.885559
  0
LINE
  5
112
330
7B
100
AcDbEntity
  8
0
  6
Continuous
 62
     0
370
    30
100
AcDbLine
 10
447.447459
 20
605.885531
 30
0.0
 11
447.573159
 21
605.885531
 31
0.0
  0
LINE
  5
113
330
7B
100
AcDbEntity
  8
0
  6
Continuous
 62
     0
370
    30
100
AcDbLine
 10
443.973161
 20
605.885531
 30
0.0
 11
447.447459
 21
605.885531
 31
0.0
  0
LWPOLYLINE
  5
114
330
7B
100
AcDbEntity
  8
0
  6
Continuous
 62
     0
370
    30
100
AcDbPolyline
 90
        4
 70
     0
 43
0.0
 10
448.363983
 20
605.885559
 10
448.375458
 20
605.885559
 10
448.411041
 20
605.885559
 10
448.536224
 20
605.885559
  0
LINE
  5
115
330
7B
100
AcDbEntity
  8
0
  6
Continuous
 62
     0
370
    30
100
AcDbLine
 10
430.821764
 20
605.885531
 30
0.0
 11
433.115299
 21
605.885531
 31
0.0
  0
LINE
  5
116
330
7B
100
AcDbEntity
  8
0
  6
Continuous
 62
     0
370
    30
100
AcDbLine
 10
436.715299
 20
605.885531
 30
0.0
 11
436.813698
 21
605.885531
 31
0.0
  0
LINE
  5
117
330
7B
100
AcDbEntity
  8
0
  6
Continuous
 62
     0
370
    30
100
AcDbLine
 10
356.340649
 20
605.885531
 30
0.0
 11
356.52722
 21
605.885531
 31
0.0
  0
LINE
  5
118
330
7B
100
AcDbEntity
  8
0
  6
Continuous
 62
     0
370
    30
100
AcDbLine
 10
276.018462
 20
605.885531
 30
0.0
 11
278.432852
 21
605.885531
 31
0.0
  0
LINE
  5
119
330
7B
100
AcDbEntity
  8
0
  6
Continuous
 62
     0
370
    30
100
AcDbLine
 10
289.600141
 20
605.885531
 30
0.0
 11
290.255695
 21
605.885531
 31
0.0
  0
LWPOLYLINE
  5
11A
330
7B
100
AcDbEntity
  8
0
  6
Continuous
 62
     0
370
    30
100
AcDbPolyline
 90
        5
 70
     0
 43
0.0
 10
289.223267
 20
605.885559
 10
289.246643
 20
605.885559
 10
289.314117
 20
605.885559
 10
289.419556
 20
605.885559
 10
289.600128
 20
605.885559
  0
LINE
  5
11B
330
7B
100
AcDbEntity
  8
0
  6
Continuous
 62
     0
370
    30
100
AcDbLine
 10
300.866568
 20
605.885531
 30
0.0
 11
303.04439
 21
605.885531
 31
0.0
  0
LINE
  5
11C
330
7B
100
AcDbEntity
  8
0
  6
Continuous
 62
     0
370
    30
100
AcDbLine
 10
313.59491
 20
605.885531
 30
0.0
 11
314.79499
 21
605.885531
 31
0.0
  0
LINE
  5
11D
330
7B
100
AcDbEntity
  8
0
  6
Continuous
 62
     0
370
    30
100
AcDbLine
 10
325.513779
 20
605.885531
 30
0.0
 11
327.995151
 21
605.885531
 31
0.0
  0
LINE
  5
11E
330
7B
100
AcDbEntity
  8
0
  6
Continuous
 62
     0
370
    30
100
AcDbLine
 10
324.395151
 20
605.885531
 30
0.0
 11
325.51378
 21
605.885531
 31
0.0
  0
LINE
  5
11F
330
7B
100
AcDbEntity
  8
0
  6
Continuous
 62
     0
370
    30
100
AcDbLine
 10
339.784947
 20
605.885531
 30
0.0
 11
341.96666
 21
605.885531
 31
0.0
  0
LINE
  5
120
330
7B
100
AcDbEntity
  8
0
  6
Continuous
 62
     0
370
    30
100
AcDbLine
 10
339.52322
 20
605.885531
 30
0.0
 11
339.784947
 21
605.885531
 31
0.0
  0
LINE
  5
121
330
7B
100
AcDbEntity
  8
0
  6
Continuous
 62
     0
370
    30
100
AcDbLine
 10
369.235187
 20
605.885531
 30
0.0
 11
369.610952
 21
605.885531
 31
0.0
  0
LWPOLYLINE
  5
122
330
7B
100
AcDbEntity
  8
0
  6
Continuous
 62
     0
370
    30
100
AcDbPolyline
 90
       10
 70
     0
 43
0.0
 10
367.192261
 20
605.885559
 10
367.219208
 20
605.885559
 10
367.302002
 20
605.885559
 10
367.44693
 20
605.885559
 10
367.654388
 20
605.885559
 10
367.917511
 20
605.885559
 10
368.222321
 20
605.885559
 10
368.550201
 20
605.885559
 10
368.88147
 20
605.885559
 10
369.235199
 20
605.885559
  0
LINE
  5
123
330
7B
100
AcDbEntity
  8
0
  6
Continuous
 62
     0
370
    30
100
AcDbLine
 10
383.519429
 20
605.885531
 30
0.0
 11
384.770472
 21
605.885531
 31
0.0
  0
LWPOLYLINE
  5
124
330
7B
100
AcDbEntity
  8
0
  6
Continuous
 62
     0
370
    30
100
AcDbPolyline
 90
       10
 70
     0
 43
0.0
 10
381.170471
 20
605.885559
 10
381.207611
 20
605.885559
 10
381.309998
 20
605.885559
 10
381.483368
 20
605.885559
 10
381.731476
 20
605.885559
 10
382.045868
 20
605.885559
 10
382.40741
 20
605.885559
 10
382.789642
 20
605.885559
 10
383.165009
 20
605.885559
 10
383.51944
 20
605.885559
  0
LINE
  5
125
330
7B
100
AcDbEntity
  8
0
  6
Continuous
 62
     0
370
    30
100
AcDbLine
 10
394.323432
 20
605.885531
 30
0.0
 11
395.499911
 21
605.885531
 31
0.0
  0
LINE
  5
126
330
7B
100
AcDbEntity
  8
0
  6
Continuous
 62
     0
370
    30
100
AcDbLine
 10
406.14709
 20
605.885531
 30
0.0
 11
408.266523
 21
605.885531
 31
0.0
  0
LINE
  5
127
330
7B
100
AcDbEntity
  8
0
  6
Continuous
 62
     0
370
    30
100
AcDbLine
 10
419.519114
 20
605.885531
 30
0.0
 11
419.986579
 21
605.885531
 31
0.0
  0
LINE
  5
128
330
7B
100
AcDbEntity
  8
0
  6
Continuous
 62
     0
370
    30
100
AcDbLine
 10
418.855645
 20
605.885531
 30
0.0
 11
419.519114
 21
605.885531
 31
0.0
  0
LINE
  5
129
330
7B
100
AcDbEntity
  8
0
  6
Continuous
 62
     0
370
    30
100
AcDbLine
 10
421.270368
 20
605.885531
 30
0.0
 11
421.312704
 21
605.885531
 31
0.0
  0
LINE
  5
12A
330
7B
100
AcDbEntity
  8
0
  6
Continuous
 62
     0
370
    30
100
AcDbLine
 10
285.027104
 20
605.885531
 30
0.0
 11
287.448923
 21
605.885531
 31
0.0
  0
LINE
  5
12B
330
7B
100
AcDbEntity
  8
0
  6
Continuous
 62
     0
370
    30
100
AcDbLine
 10
288.064656
 20
605.885531
 30
0.0
 11
289.223253
 21
605.885531
 31
0.0
  0
LWPOLYLINE
  5
12C
330
7B
100
AcDbEntity
  8
0
  6
Continuous
 62
     0
370
    30
100
AcDbPolyline
 90
        3
 70
     0
 43
0.0
 10
287.992828
 20
605.885559
 10
287.999146
 20
605.885559
 10
288.064667
 20
605.885559
  0
LINE
  5
12D
330
7B
100
AcDbEntity
  8
0
  6
Continuous
 62
     0
370
    30
100
AcDbLine
 10
303.04439
 20
605.885531
 30
0.0
 11
303.555943
 21
605.885531
 31
0.0
  0
LINE
  5
12E
330
7B
100
AcDbEntity
  8
0
  6
Continuous
 62
     0
370
    30
100
AcDbLine
 10
319.098883
 20
605.885531
 30
0.0
 11
319.595072
 21
605.885531
 31
0.0
  0
LINE
  5
12F
330
7B
100
AcDbEntity
  8
0
  6
Continuous
 62
     0
370
    30
100
AcDbLine
 10
318.39499
 20
605.885531
 30
0.0
 11
319.098884
 21
605.885531
 31
0.0
  0
LINE
  5
130
330
7B
100
AcDbEntity
  8
0
  6
Continuous
 62
     0
370
    30
100
AcDbLine
 10
342.181944
 20
605.885531
 30
0.0
 11
344.4101
 21
605.885531
 31
0.0
  0
LINE
  5
131
330
7B
100
AcDbEntity
  8
0
  6
Continuous
 62
     0
370
    30
100
AcDbLine
 10
341.96666
 20
605.885531
 30
0.0
 11
342.181944
 21
605.885531
 31
0.0
  0
LINE
  5
132
330
7B
100
AcDbEntity
  8
0
  6
Continuous
 62
     0
370
    30
100
AcDbLine
 10
366.76917
 20
605.885531
 30
0.0
 11
367.192246
 21
605.885531
 31
0.0
  0
LWPOLYLINE
  5
133
330
7B
100
AcDbEntity
  8
0
  6
Continuous
 62
     0
370
    30
100
AcDbPolyline
 90
       10
 70
     0
 43
0.0
 10
364.773529
 20
605.885559
 10
364.799316
 20
605.885559
 10
364.87973
 20
605.885559
 10
365.020538
 20
605.885559
 10
365.221985
 20
605.885559
 10
365.477325
 20
605.885559
 10
365.773407
 20
605.885559
 10
366.092621
 20
605.885559
 10
366.416351
 20
605.885559
 10
366.769165
 20
605.885559
  0
LINE
  5
134
330
7B
100
AcDbEntity
  8
0
  6
Continuous
 62
     0
370
    30
100
AcDbLine
 10
389.89498
 20
605.885531
 30
0.0
 11
390.723432
 21
605.885531
 31
0.0
  0
LINE
  5
135
330
7B
100
AcDbEntity
  8
0
  6
Continuous
 62
     0
370
    30
100
AcDbLine
 10
389.546952
 20
605.885531
 30
0.0
 11
389.89498
 21
605.885531
 31
0.0
  0
LWPOLYLINE
  5
136
330
7B
100
AcDbEntity
  8
0
  6
Continuous
 62
     0
370
    30
100
AcDbPolyline
 90
        5
 70
     0
 43
0.0
 10
405.670044
 20
605.885559
 10
405.702026
 20
605.885559
 10
405.794922
 20
605.885559
 10
405.93988
 20
605.885559
 10
406.147095
 20
605.885559
  0
LINE
  5
137
330
7B
100
AcDbEntity
  8
0
  6
Continuous
 62
     0
370
    30
100
AcDbLine
 10
421.117795
 20
605.885531
 30
0.0
 11
421.270368
 21
605.885531
 31
0.0
  0
LINE
  5
138
330
7B
100
AcDbEntity
  8
0
  6
Continuous
 62
     0
370
    30
100
AcDbLine
 10
419.986579
 20
605.885531
 30
0.0
 11
421.117795
 21
605.885531
 31
0.0
  0
LINE
  5
139
330
7B
100
AcDbEntity
  8
0
  6
Continuous
 62
     0
370
    30
100
AcDbLine
 10
303.555943
 20
605.885531
 30
0.0
 11
304.27744
 21
605.885531
 31
0.0
  0
LINE
  5
13A
330
7B
100
AcDbEntity
  8
0
  6
Continuous
 62
     0
370
    30
100
AcDbLine
 10
327.995151
 20
605.885531
 30
0.0
 11
328.910058
 21
605.885531
 31
0.0
  0
LINE
  5
13B
330
7B
100
AcDbEntity
  8
0
  6
Continuous
 62
     0
370
    30
100
AcDbLine
 10
344.627314
 20
605.885531
 30
0.0
 11
346.853541
 21
605.885531
 31
0.0
  0
LINE
  5
13C
330
7B
100
AcDbEntity
  8
0
  6
Continuous
 62
     0
370
    30
100
AcDbLine
 10
344.4101
 20
605.885531
 30
0.0
 11
344.627315
 21
605.885531
 31
0.0
  0
LINE
  5
13D
330
7B
100
AcDbEntity
  8
0
  6
Continuous
 62
     0
370
    30
100
AcDbLine
 10
364.352439
 20
605.885531
 30
0.0
 11
364.773539
 21
605.885531
 31
0.0
  0
LWPOLYLINE
  5
13E
330
7B
100
AcDbEntity
  8
0
  6
Continuous
 62
     0
370
    30
100
AcDbPolyline
 90
       10
 70
     0
 43
0.0
 10
362.354828
 20
605.885559
 10
362.380676
 20
605.885559
 10
362.461182
 20
605.885559
 10
362.602142
 20
605.885559
 10
362.803833
 20
605.885559
 10
363.059509
 20
605.885559
 10
363.355957
 20
605.885559
 10
363.675537
 20
605.885559
 10
363.999573
 20
605.885559
 10
364.352448
 20
605.885559
  0
LINE
  5
13F
330
7B
100
AcDbEntity
  8
0
  6
Continuous
 62
     0
370
    30
100
AcDbLine
 10
380.310036
 20
605.885531
 30
0.0
 11
381.170472
 21
605.885531
 31
0.0
  0
LINE
  5
140
330
7B
100
AcDbEntity
  8
0
  6
Continuous
 62
     0
370
    30
100
AcDbLine
 10
404.877401
 20
605.885531
 30
0.0
 11
405.670033
 21
605.885531
 31
0.0
  0
LINE
  5
141
330
7B
100
AcDbEntity
  8
0
  6
Continuous
 62
     0
370
    30
100
AcDbLine
 10
384.770472
 20
605.885531
 30
0.0
 11
385.946952
 21
605.885531
 31
0.0
  0
LINE
  5
142
330
7B
100
AcDbEntity
  8
0
  6
Continuous
 62
     0
370
    30
100
AcDbLine
 10
349.296981
 20
605.885531
 30
0.0
 11
349.369416
 21
605.885531
 31
0.0
  0
LINE
  5
143
330
7B
100
AcDbEntity
  8
0
  6
Continuous
 62
     0
370
    30
100
AcDbLine
 10
323.19507
 20
605.885531
 30
0.0
 11
324.395151
 21
605.885531
 31
0.0
  0
LINE
  5
144
330
7B
100
AcDbEntity
  8
0
  6
Continuous
 62
     0
370
    30
100
AcDbLine
 10
346.938391
 20
605.885531
 30
0.0
 11
349.296981
 21
605.885531
 31
0.0
  0
LINE
  5
145
330
7B
100
AcDbEntity
  8
0
  6
Continuous
 62
     0
370
    30
100
AcDbLine
 10
346.853541
 20
605.885531
 30
0.0
 11
346.938392
 21
605.885531
 31
0.0
  0
LINE
  5
146
330
7B
100
AcDbEntity
  8
0
  6
Continuous
 62
     0
370
    30
100
AcDbLine
 10
361.796465
 20
605.885531
 30
0.0
 11
362.354833
 21
605.885531
 31
0.0
  0
LWPOLYLINE
  5
147
330
7B
100
AcDbEntity
  8
0
  6
Continuous
 62
     0
370
    30
100
AcDbPolyline
 90
        9
 70
     0
 43
0.0
 10
359.936127
 20
605.885559
 10
359.966675
 20
605.885559
 10
360.064758
 20
605.885559
 10
360.235504
 20
605.885559
 10
360.475403
 20
605.885559
 10
360.771362
 20
605.885559
 10
361.103027
 20
605.885559
 10
361.447144
 20
605.885559
 10
361.796478
 20
605.885559
  0
LINE
  5
148
330
7B
100
AcDbEntity
  8
0
  6
Continuous
 62
     0
370
    30
100
AcDbLine
 10
328.910058
 20
605.885531
 30
0.0
 11
329.403382
 21
605.885531
 31
0.0
  0
LINE
  5
149
330
7B
100
AcDbEntity
  8
0
  6
Continuous
 62
     0
370
    30
100
AcDbLine
 10
329.403382
 20
605.885531
 30
0.0
 11
329.452782
 21
605.885531
 31
0.0
  0
LINE
  5
14A
330
7B
100
AcDbEntity
  8
0
  6
Continuous
 62
     0
370
    30
100
AcDbLine
 10
329.532517
 20
605.885531
 30
0.0
 11
331.036339
 21
605.885531
 31
0.0
  0
LINE
  5
14B
330
7B
100
AcDbEntity
  8
0
  6
Continuous
 62
     0
370
    30
100
AcDbLine
 10
329.457985
 20
605.885531
 30
0.0
 11
329.532517
 21
605.885531
 31
0.0
  0
LINE
  5
14C
330
7B
100
AcDbEntity
  8
0
  6
Continuous
 62
     0
370
    30
100
AcDbLine
 10
379.329998
 20
605.885531
 30
0.0
 11
379.823338
 21
605.885531
 31
0.0
  0
LINE
  5
14D
330
7B
100
AcDbEntity
  8
0
  6
Continuous
 62
     0
370
    30
100
AcDbLine
 10
378.048366
 20
605.885531
 30
0.0
 11
379.329998
 21
605.885531
 31
0.0
  0
LINE
  5
14E
330
7B
100
AcDbEntity
  8
0
  6
Continuous
 62
     0
370
    30
100
AcDbLine
 10
379.823338
 20
605.885531
 30
0.0
 11
379.823338
 21
607.990366
 31
0.0
  0
LINE
  5
14F
330
7B
100
AcDbEntity
  8
0
  6
Continuous
 62
     0
370
    30
100
AcDbLine
 10
329.457985
 20
605.885531
 30
0.0
 11
329.457985
 21
607.990366
 31
0.0
  0
LINE
  5
150
330
7B
100
AcDbEntity
  8
0
  6
Continuous
 62
     0
370
    30
100
AcDbLine
 10
329.452782
 20
605.885531
 30
0.0
 11
329.452782
 21
607.990366
 31
0.0
  0
LINE
  5
151
330
7B
100
AcDbEntity
  8
0
  6
Continuous
 62
     0
370
    30
100
AcDbLine
 10
359.936126
 20
605.885531
 30
0.0
 11
359.936126
 21
607.990366
 31
0.0
  0
LINE
  5
152
330
7B
100
AcDbEntity
  8
0
  6
Continuous
 62
     0
370
    30
100
AcDbLine
 10
349.296981
 20
605.885531
 30
0.0
 11
349.296981
 21
607.990366
 31
0.0
  0
LINE
  5
153
330
7B
100
AcDbEntity
  8
0
  6
Continuous
 62
     0
370
    30
100
AcDbLine
 10
349.369416
 20
605.885531
 30
0.0
 11
349.369416
 21
607.990366
 31
0.0
  0
LINE
  5
154
330
7B
100
AcDbEntity
  8
0
  6
Continuous
 62
     0
370
    30
100
AcDbLine
 10
380.310036
 20
605.885531
 30
0.0
 11
380.310036
 21
607.990366
 31
0.0
  0
LINE
  5
155
330
7B
100
AcDbEntity
  8
0
  6
Continuous
 62
     0
370
    30
100
AcDbLine
 10
362.354833
 20
605.885531
 30
0.0
 11
362.354833
 21
607.990366
 31
0.0
  0
LINE
  5
156
330
7B
100
AcDbEntity
  8
0
  6
Continuous
 62
     0
370
    30
100
AcDbLine
 10
346.853541
 20
605.885531
 30
0.0
 11
346.853541
 21
607.990366
 31
0.0
  0
LINE
  5
157
330
7B
100
AcDbEntity
  8
0
  6
Continuous
 62
     0
370
    30
100
AcDbLine
 10
328.910058
 20
605.885531
 30
0.0
 11
328.910058
 21
607.990366
 31
0.0
  0
LINE
  5
158
330
7B
100
AcDbEntity
  8
0
  6
Continuous
 62
     0
370
    30
100
AcDbLine
 10
421.270368
 20
605.885531
 30
0.0
 11
421.270368
 21
607.990366
 31
0.0
  0
LINE
  5
159
330
7B
100
AcDbEntity
  8
0
  6
Continuous
 62
     0
370
    30
100
AcDbLine
 10
405.670033
 20
605.885531
 30
0.0
 11
405.670033
 21
607.990366
 31
0.0
  0
LINE
  5
15A
330
7B
100
AcDbEntity
  8
0
  6
Continuous
 62
     0
370
    30
100
AcDbLine
 10
364.773539
 20
605.885531
 30
0.0
 11
364.773539
 21
607.990366
 31
0.0
  0
LINE
  5
15B
330
7B
100
AcDbEntity
  8
0
  6
Continuous
 62
     0
370
    30
100
AcDbLine
 10
344.4101
 20
605.885531
 30
0.0
 11
344.4101
 21
607.990366
 31
0.0
  0
LINE
  5
15C
330
7B
100
AcDbEntity
  8
0
  6
Continuous
 62
     0
370
    30
100
AcDbLine
 10
303.555943
 20
605.885531
 30
0.0
 11
303.555943
 21
607.990366
 31
0.0
  0
LINE
  5
15D
330
7B
100
AcDbEntity
  8
0
  6
Continuous
 62
     0
370
    30
100
AcDbLine
 10
287.992838
 20
605.885531
 30
0.0
 11
287.992838
 21
607.990366
 31
0.0
  0
LINE
  5
15E
330
7B
100
AcDbEntity
  8
0
  6
Continuous
 62
     0
370
    30
100
AcDbLine
 10
287.452799
 20
605.885531
 30
0.0
 11
287.452799
 21
607.990366
 31
0.0
  0
LINE
  5
15F
330
7B
100
AcDbEntity
  8
0
  6
Continuous
 62
     0
370
    30
100
AcDbLine
 10
421.312704
 20
605.885531
 30
0.0
 11
421.312704
 21
607.990366
 31
0.0
  0
LINE
  5
160
330
7B
100
AcDbEntity
  8
0
  6
Continuous
 62
     0
370
    30
100
AcDbLine
 10
419.986579
 20
605.885531
 30
0.0
 11
419.986579
 21
607.990366
 31
0.0
  0
LINE
  5
161
330
7B
100
AcDbEntity
  8
0
  6
Continuous
 62
     0
370
    30
100
AcDbLine
 10
406.14709
 20
605.885531
 30
0.0
 11
406.14709
 21
607.990366
 31
0.0
  0
LINE
  5
162
330
7B
100
AcDbEntity
  8
0
  6
Continuous
 62
     0
370
    30
100
AcDbLine
 10
384.770472
 20
605.885531
 30
0.0
 11
384.770472
 21
607.990366
 31
0.0
  0
LINE
  5
163
330
7B
100
AcDbEntity
  8
0
  6
Continuous
 62
     0
370
    30
100
AcDbLine
 10
381.170472
 20
605.885531
 30
0.0
 11
381.170472
 21
607.990366
 31
0.0
  0
LINE
  5
164
330
7B
100
AcDbEntity
  8
0
  6
Continuous
 62
     0
370
    30
100
AcDbLine
 10
367.192246
 20
605.885531
 30
0.0
 11
367.192246
 21
607.990366
 31
0.0
  0
LINE
  5
165
330
7B
100
AcDbEntity
  8
0
  6
Continuous
 62
     0
370
    30
100
AcDbLine
 10
341.96666
 20
605.885531
 30
0.0
 11
341.96666
 21
607.990366
 31
0.0
  0
LINE
  5
166
330
7B
100
AcDbEntity
  8
0
  6
Continuous
 62
     0
370
    30
100
AcDbLine
 10
327.995151
 20
605.885531
 30
0.0
 11
327.995151
 21
607.990366
 31
0.0
  0
LINE
  5
167
330
7B
100
AcDbEntity
  8
0
  6
Continuous
 62
     0
370
    30
100
AcDbLine
 10
324.395151
 20
605.885531
 30
0.0
 11
324.395151
 21
607.990366
 31
0.0
  0
LINE
  5
168
330
7B
100
AcDbEntity
  8
0
  6
Continuous
 62
     0
370
    30
100
AcDbLine
 10
303.04439
 20
605.885531
 30
0.0
 11
303.04439
 21
607.990366
 31
0.0
  0
LINE
  5
169
330
7B
100
AcDbEntity
  8
0
  6
Continuous
 62
     0
370
    30
100
AcDbLine
 10
289.223253
 20
605.885531
 30
0.0
 11
289.223253
 21
607.990366
 31
0.0
  0
LINE
  5
16A
330
7B
100
AcDbEntity
  8
0
  6
Continuous
 62
     0
370
    30
100
AcDbLine
 10
278.432852
 20
605.885531
 30
0.0
 11
278.432852
 21
607.990366
 31
0.0
  0
LINE
  5
16B
330
7B
100
AcDbEntity
  8
0
  6
Continuous
 62
     0
370
    30
100
AcDbLine
 10
356.52722
 20
605.885531
 30
0.0
 11
356.52722
 21
607.990366
 31
0.0
  0
LINE
  5
16C
330
7B
100
AcDbEntity
  8
0
  6
Continuous
 62
     0
370
    30
100
AcDbLine
 10
430.821764
 20
605.885531
 30
0.0
 11
430.821764
 21
607.990366
 31
0.0
  0
LINE
  5
16D
330
7B
100
AcDbEntity
  8
0
  6
Continuous
 62
     0
370
    30
100
AcDbLine
 10
448.363976
 20
605.885531
 30
0.0
 11
448.363976
 21
607.990366
 31
0.0
  0
LINE
  5
16E
330
7B
100
AcDbEntity
  8
0
  6
Continuous
 62
     0
370
    30
100
AcDbLine
 10
447.57316
 20
605.885531
 30
0.0
 11
447.57316
 21
607.990366
 31
0.0
  0
LINE
  5
16F
330
7B
100
AcDbEntity
  8
0
  6
Continuous
 62
     0
370
    30
100
AcDbLine
 10
443.97316
 20
605.885531
 30
0.0
 11
443.97316
 21
607.990366
 31
0.0
  0
LINE
  5
170
330
7B
100
AcDbEntity
  8
0
  6
Continuous
 62
     0
370
    30
100
AcDbLine
 10
436.813698
 20
605.885531
 30
0.0
 11
436.813698
 21
607.990366
 31
0.0
  0
LINE
  5
171
330
7B
100
AcDbEntity
  8
0
  6
Continuous
 62
     0
370
    30
100
AcDbLine
 10
430.703125
 20
605.885531
 30
0.0
 11
430.703125
 21
607.990366
 31
0.0
  0
LINE
  5
172
330
7B
100
AcDbEntity
  8
0
  6
Continuous
 62
     0
370
    30
100
AcDbLine
 10
415.136493
 20
605.885531
 30
0.0
 11
415.136493
 21
607.990366
 31
0.0
  0
LINE
  5
173
330
7B
100
AcDbEntity
  8
0
  6
Continuous
 62
     0
370
    30
100
AcDbLine
 10
404.877401
 20
605.885531
 30
0.0
 11
404.877401
 21
607.990366
 31
0.0
  0
LINE
  5
174
330
7B
100
AcDbEntity
  8
0
  6
Continuous
 62
     0
370
    30
100
AcDbLine
 10
401.277401
 20
605.885531
 30
0.0
 11
401.277401
 21
607.990366
 31
0.0
  0
LINE
  5
175
330
7B
100
AcDbEntity
  8
0
  6
Continuous
 62
     0
370
    30
100
AcDbLine
 10
389.546952
 20
605.885531
 30
0.0
 11
389.546952
 21
607.990366
 31
0.0
  0
LINE
  5
176
330
7B
100
AcDbEntity
  8
0
  6
Continuous
 62
     0
370
    30
100
AcDbLine
 10
385.946952
 20
605.885531
 30
0.0
 11
385.946952
 21
607.990366
 31
0.0
  0
LINE
  5
177
330
7B
100
AcDbEntity
  8
0
  6
Continuous
 62
     0
370
    30
100
AcDbLine
 10
369.610952
 20
605.885531
 30
0.0
 11
369.610952
 21
607.990366
 31
0.0
  0
LINE
  5
178
330
7B
100
AcDbEntity
  8
0
  6
Continuous
 62
     0
370
    30
100
AcDbLine
 10
339.52322
 20
605.885531
 30
0.0
 11
339.52322
 21
607.990366
 31
0.0
  0
LINE
  5
179
330
7B
100
AcDbEntity
  8
0
  6
Continuous
 62
     0
370
    30
100
AcDbLine
 10
323.195071
 20
605.885531
 30
0.0
 11
323.195071
 21
607.990366
 31
0.0
  0
LINE
  5
17A
330
7B
100
AcDbEntity
  8
0
  6
Continuous
 62
     0
370
    30
100
AcDbLine
 10
319.595071
 20
605.885531
 30
0.0
 11
319.595071
 21
607.990366
 31
0.0
  0
LINE
  5
17B
330
7B
100
AcDbEntity
  8
0
  6
Continuous
 62
     0
370
    30
100
AcDbLine
 10
307.87744
 20
605.885531
 30
0.0
 11
307.87744
 21
607.990366
 31
0.0
  0
LINE
  5
17C
330
7B
100
AcDbEntity
  8
0
  6
Continuous
 62
     0
370
    30
100
AcDbLine
 10
304.27744
 20
605.885531
 30
0.0
 11
304.27744
 21
607.990366
 31
0.0
  0
LINE
  5
17D
330
7B
100
AcDbEntity
  8
0
  6
Continuous
 62
     0
370
    30
100
AcDbLine
 10
294.035747
 20
605.885531
 30
0.0
 11
294.035747
 21
607.990366
 31
0.0
  0
LINE
  5
17E
330
7B
100
AcDbEntity
  8
0
  6
Continuous
 62
     0
370
    30
100
AcDbLine
 10
278.490563
 20
605.885531
 30
0.0
 11
278.490563
 21
607.990366
 31
0.0
  0
LINE
  5
17F
330
7B
100
AcDbEntity
  8
0
  6
Continuous
 62
     0
370
    30
100
AcDbLine
 10
272.404837
 20
605.885531
 30
0.0
 11
272.404837
 21
607.990366
 31
0.0
  0
LINE
  5
180
330
7B
100
AcDbEntity
  8
0
  6
Continuous
 62
     0
370
    30
100
AcDbLine
 10
265.272865
 20
605.885531
 30
0.0
 11
265.272865
 21
607.990366
 31
0.0
  0
LINE
  5
181
330
7B
100
AcDbEntity
  8
0
  6
Continuous
 62
     0
370
    30
100
AcDbLine
 10
261.672865
 20
605.885531
 30
0.0
 11
261.672865
 21
607.990366
 31
0.0
  0
LINE
  5
182
330
7B
100
AcDbEntity
  8
0
  6
Continuous
 62
     0
370
    30
100
AcDbLine
 10
260.911349
 20
605.885531
 30
0.0
 11
260.911349
 21
607.990366
 31
0.0
  0
LINE
  5
183
330
7B
100
AcDbEntity
  8
0
  6
Continuous
 62
     0
370
    30
100
AcDbLine
 10
255.85281
 20
605.885531
 30
0.0
 11
255.85281
 21
607.990366
 31
0.0
  0
LINE
  5
184
330
7B
100
AcDbEntity
  8
0
  6
Continuous
 62
     0
370
    30
100
AcDbLine
 10
265.332382
 20
605.885531
 30
0.0
 11
265.332382
 21
607.990366
 31
0.0
  0
LINE
  5
185
330
7B
100
AcDbEntity
  8
0
  6
Continuous
 62
     0
370
    30
100
AcDbLine
 10
294.169049
 20
605.885531
 30
0.0
 11
294.169049
 21
607.990366
 31
0.0
  0
LINE
  5
186
330
7B
100
AcDbEntity
  8
0
  6
Continuous
 62
     0
370
    30
100
AcDbLine
 10
308.028141
 20
605.885531
 30
0.0
 11
308.028141
 21
607.990366
 31
0.0
  0
LINE
  5
187
330
7B
100
AcDbEntity
  8
0
  6
Continuous
 62
     0
370
    30
100
AcDbLine
 10
430.814979
 20
605.885531
 30
0.0
 11
430.814979
 21
607.990366
 31
0.0
  0
LINE
  5
188
330
7B
100
AcDbEntity
  8
0
  6
Continuous
 62
     0
370
    30
100
AcDbLine
 10
447.632677
 20
605.885531
 30
0.0
 11
447.632677
 21
607.990366
 31
0.0
  0
LINE
  5
189
330
7B
100
AcDbEntity
  8
0
  6
Continuous
 62
     0
370
    30
100
AcDbLine
 10
441.419671
 20
605.885531
 30
0.0
 11
441.419671
 21
607.990366
 31
0.0
  0
LINE
  5
18A
330
7B
100
AcDbEntity
  8
0
  6
Continuous
 62
     0
370
    30
100
AcDbLine
 10
437.819671
 20
605.885531
 30
0.0
 11
437.819671
 21
607.990366
 31
0.0
  0
LINE
  5
18B
330
7B
100
AcDbEntity
  8
0
  6
Continuous
 62
     0
370
    30
100
AcDbLine
 10
427.725896
 20
605.885531
 30
0.0
 11
427.725896
 21
607.990366
 31
0.0
  0
LINE
  5
18C
330
7B
100
AcDbEntity
  8
0
  6
Continuous
 62
     0
370
    30
100
AcDbLine
 10
424.125896
 20
605.885531
 30
0.0
 11
424.125896
 21
607.990366
 31
0.0
  0
LINE
  5
18D
330
7B
100
AcDbEntity
  8
0
  6
Continuous
 62
     0
370
    30
100
AcDbLine
 10
411.866523
 20
605.885531
 30
0.0
 11
411.866523
 21
607.990366
 31
0.0
  0
LINE
  5
18E
330
7B
100
AcDbEntity
  8
0
  6
Continuous
 62
     0
370
    30
100
AcDbLine
 10
408.266523
 20
605.885531
 30
0.0
 11
408.266523
 21
607.990366
 31
0.0
  0
LINE
  5
18F
330
7B
100
AcDbEntity
  8
0
  6
Continuous
 62
     0
370
    30
100
AcDbLine
 10
394.323432
 20
605.885531
 30
0.0
 11
394.323432
 21
607.990366
 31
0.0
  0
LINE
  5
190
330
7B
100
AcDbEntity
  8
0
  6
Continuous
 62
     0
370
    30
100
AcDbLine
 10
390.723432
 20
605.885531
 30
0.0
 11
390.723432
 21
607.990366
 31
0.0
  0
LINE
  5
191
330
7B
100
AcDbEntity
  8
0
  6
Continuous
 62
     0
370
    30
100
AcDbLine
 10
372.029659
 20
605.885531
 30
0.0
 11
372.029659
 21
607.990366
 31
0.0
  0
LINE
  5
192
330
7B
100
AcDbEntity
  8
0
  6
Continuous
 62
     0
370
    30
100
AcDbLine
 10
337.079779
 20
605.885531
 30
0.0
 11
337.079779
 21
607.990366
 31
0.0
  0
LINE
  5
193
330
7B
100
AcDbEntity
  8
0
  6
Continuous
 62
     0
370
    30
100
AcDbLine
 10
318.39499
 20
605.885531
 30
0.0
 11
318.39499
 21
607.990366
 31
0.0
  0
LINE
  5
194
330
7B
100
AcDbEntity
  8
0
  6
Continuous
 62
     0
370
    30
100
AcDbLine
 10
314.79499
 20
605.885531
 30
0.0
 11
314.79499
 21
607.990366
 31
0.0
  0
LINE
  5
195
330
7B
100
AcDbEntity
  8
0
  6
Continuous
 62
     0
370
    30
100
AcDbLine
 10
300.866568
 20
605.885531
 30
0.0
 11
300.866568
 21
607.990366
 31
0.0
  0
LINE
  5
196
330
7B
100
AcDbEntity
  8
0
  6
Continuous
 62
     0
370
    30
100
AcDbLine
 10
297.266568
 20
605.885531
 30
0.0
 11
297.266568
 21
607.990366
 31
0.0
  0
LINE
  5
197
330
7B
100
AcDbEntity
  8
0
  6
Continuous
 62
     0
370
    30
100
AcDbLine
 10
285.027104
 20
605.885531
 30
0.0
 11
285.027104
 21
607.990366
 31
0.0
  0
LINE
  5
198
330
7B
100
AcDbEntity
  8
0
  6
Continuous
 62
     0
370
    30
100
AcDbLine
 10
281.427104
 20
605.885531
 30
0.0
 11
281.427104
 21
607.990366
 31
0.0
  0
LINE
  5
199
330
7B
100
AcDbEntity
  8
0
  6
Continuous
 62
     0
370
    30
100
AcDbLine
 10
271.357873
 20
605.885531
 30
0.0
 11
271.357873
 21
607.990366
 31
0.0
  0
LINE
  5
19A
330
7B
100
AcDbEntity
  8
0
  6
Continuous
 62
     0
370
    30
100
AcDbLine
 10
267.757873
 20
605.885531
 30
0.0
 11
267.757873
 21
607.990366
 31
0.0
  0
LINE
  5
19B
330
7B
100
AcDbEntity
  8
0
  6
Continuous
 62
     0
370
    30
100
AcDbLine
 10
256.674208
 20
605.885531
 30
0.0
 11
256.674208
 21
607.990366
 31
0.0
  0
LINE
  5
19C
330
7B
100
AcDbEntity
  8
0
  6
Continuous
 62
     0
370
    30
100
AcDbLine
 10
252.112879
 20
605.885531
 30
0.0
 11
252.112879
 21
607.990366
 31
0.0
  0
LINE
  5
19D
330
7B
100
AcDbEntity
  8
0
  6
Continuous
 62
     0
370
    30
100
AcDbLine
 10
248.512879
 20
605.885531
 30
0.0
 11
248.512879
 21
607.990366
 31
0.0
  0
LINE
  5
19E
330
7B
100
AcDbEntity
  8
0
  6
Continuous
 62
     0
370
    30
100
AcDbLine
 10
243.521865
 20
605.885531
 30
0.0
 11
243.521865
 21
607.990366
 31
0.0
  0
LINE
  5
19F
330
7B
100
AcDbEntity
  8
0
  6
Continuous
 62
     0
370
    30
100
AcDbLine
 10
241.852816
 20
605.885531
 30
0.0
 11
241.852816
 21
607.990366
 31
0.0
  0
LINE
  5
1A0
330
7B
100
AcDbEntity
  8
0
  6
Continuous
 62
     0
370
    30
100
AcDbLine
 10
412.038974
 20
605.885531
 30
0.0
 11
412.038974
 21
607.990366
 31
0.0
  0
LINE
  5
1A1
330
7B
100
AcDbEntity
  8
0
  6
Continuous
 62
     0
370
    30
100
AcDbLine
 10
441.547669
 20
605.885531
 30
0.0
 11
441.547669
 21
607.990366
 31
0.0
  0
LINE
  5
1A2
330
7B
100
AcDbEntity
  8
0
  6
Continuous
 62
     0
370
    30
100
AcDbLine
 10
460.792663
 20
605.885531
 30
0.0
 11
460.792663
 21
607.990366
 31
0.0
  0
LINE
  5
1A3
330
7B
100
AcDbEntity
  8
0
  6
Continuous
 62
     0
370
    30
100
AcDbLine
 10
465.749098
 20
605.885531
 30
0.0
 11
465.749098
 21
607.990366
 31
0.0
  0
LINE
  5
1A4
330
7B
100
AcDbEntity
  8
0
  6
Continuous
 62
     0
370
    30
100
AcDbLine
 10
460.724557
 20
605.885531
 30
0.0
 11
460.724557
 21
607.990366
 31
0.0
  0
LINE
  5
1A5
330
7B
100
AcDbEntity
  8
0
  6
Continuous
 62
     0
370
    30
100
AcDbLine
 10
457.124557
 20
605.885531
 30
0.0
 11
457.124557
 21
607.990366
 31
0.0
  0
LINE
  5
1A6
330
7B
100
AcDbEntity
  8
0
  6
Continuous
 62
     0
370
    30
100
AcDbLine
 10
452.136217
 20
605.885531
 30
0.0
 11
452.136217
 21
607.990366
 31
0.0
  0
LINE
  5
1A7
330
7B
100
AcDbEntity
  8
0
  6
Continuous
 62
     0
370
    30
100
AcDbLine
 10
448.536217
 20
605.885531
 30
0.0
 11
448.536217
 21
607.990366
 31
0.0
  0
LINE
  5
1A8
330
7B
100
AcDbEntity
  8
0
  6
Continuous
 62
     0
370
    30
100
AcDbLine
 10
436.715299
 20
605.885531
 30
0.0
 11
436.715299
 21
607.990366
 31
0.0
  0
LINE
  5
1A9
330
7B
100
AcDbEntity
  8
0
  6
Continuous
 62
     0
370
    30
100
AcDbLine
 10
433.115299
 20
605.885531
 30
0.0
 11
433.115299
 21
607.990366
 31
0.0
  0
LINE
  5
1AA
330
7B
100
AcDbEntity
  8
0
  6
Continuous
 62
     0
370
    30
100
AcDbLine
 10
418.855645
 20
605.885531
 30
0.0
 11
418.855645
 21
607.990366
 31
0.0
  0
LINE
  5
1AB
330
7B
100
AcDbEntity
  8
0
  6
Continuous
 62
     0
370
    30
100
AcDbLine
 10
415.255645
 20
605.885531
 30
0.0
 11
415.255645
 21
607.990366
 31
0.0
  0
LINE
  5
1AC
330
7B
100
AcDbEntity
  8
0
  6
Continuous
 62
     0
370
    30
100
AcDbLine
 10
399.099911
 20
605.885531
 30
0.0
 11
399.099911
 21
607.990366
 31
0.0
  0
LINE
  5
1AD
330
7B
100
AcDbEntity
  8
0
  6
Continuous
 62
     0
370
    30
100
AcDbLine
 10
395.499911
 20
605.885531
 30
0.0
 11
395.499911
 21
607.990366
 31
0.0
  0
LINE
  5
1AE
330
7B
100
AcDbEntity
  8
0
  6
Continuous
 62
     0
370
    30
100
AcDbLine
 10
378.048366
 20
605.885531
 30
0.0
 11
378.048366
 21
607.990366
 31
0.0
  0
LINE
  5
1AF
330
7B
100
AcDbEntity
  8
0
  6
Continuous
 62
     0
370
    30
100
AcDbLine
 10
374.448366
 20
605.885531
 30
0.0
 11
374.448366
 21
607.990366
 31
0.0
  0
LINE
  5
1B0
330
7B
100
AcDbEntity
  8
0
  6
Continuous
 62
     0
370
    30
100
AcDbLine
 10
356.340649
 20
605.885531
 30
0.0
 11
356.340649
 21
607.990366
 31
0.0
  0
LINE
  5
1B1
330
7B
100
AcDbEntity
  8
0
  6
Continuous
 62
     0
370
    30
100
AcDbLine
 10
352.740649
 20
605.885531
 30
0.0
 11
352.740649
 21
607.990366
 31
0.0
  0
LINE
  5
1B2
330
7B
100
AcDbEntity
  8
0
  6
Continuous
 62
     0
370
    30
100
AcDbLine
 10
334.636339
 20
605.885531
 30
0.0
 11
334.636339
 21
607.990366
 31
0.0
  0
LINE
  5
1B3
330
7B
100
AcDbEntity
  8
0
  6
Continuous
 62
     0
370
    30
100
AcDbLine
 10
331.036339
 20
605.885531
 30
0.0
 11
331.036339
 21
607.990366
 31
0.0
  0
LINE
  5
1B4
330
7B
100
AcDbEntity
  8
0
  6
Continuous
 62
     0
370
    30
100
AcDbLine
 10
313.59491
 20
605.885531
 30
0.0
 11
313.59491
 21
607.990366
 31
0.0
  0
LINE
  5
1B5
330
7B
100
AcDbEntity
  8
0
  6
Continuous
 62
     0
370
    30
100
AcDbLine
 10
309.99491
 20
605.885531
 30
0.0
 11
309.99491
 21
607.990366
 31
0.0
  0
LINE
  5
1B6
330
7B
100
AcDbEntity
  8
0
  6
Continuous
 62
     0
370
    30
100
AcDbLine
 10
293.855695
 20
605.885531
 30
0.0
 11
293.855695
 21
607.990366
 31
0.0
  0
LINE
  5
1B7
330
7B
100
AcDbEntity
  8
0
  6
Continuous
 62
     0
370
    30
100
AcDbLine
 10
290.255695
 20
605.885531
 30
0.0
 11
290.255695
 21
607.990366
 31
0.0
  0
LINE
  5
1B8
330
7B
100
AcDbEntity
  8
0
  6
Continuous
 62
     0
370
    30
100
AcDbLine
 10
276.018462
 20
605.885531
 30
0.0
 11
276.018462
 21
607.990366
 31
0.0
  0
LINE
  5
1B9
330
7B
100
AcDbEntity
  8
0
  6
Continuous
 62
     0
370
    30
100
AcDbLine
 10
272.418462
 20
605.885531
 30
0.0
 11
272.418462
 21
607.990366
 31
0.0
  0
LINE
  5
1BA
330
7B
100
AcDbEntity
  8
0
  6
Continuous
 62
     0
370
    30
100
AcDbLine
 10
260.625183
 20
605.885531
 30
0.0
 11
260.625183
 21
607.990366
 31
0.0
  0
LINE
  5
1BB
330
7B
100
AcDbEntity
  8
0
  6
Continuous
 62
     0
370
    30
100
AcDbLine
 10
257.025183
 20
605.885531
 30
0.0
 11
257.025183
 21
607.990366
 31
0.0
  0
LINE
  5
1BC
330
7B
100
AcDbEntity
  8
0
  6
Continuous
 62
     0
370
    30
100
AcDbLine
 10
248.143578
 20
605.885531
 30
0.0
 11
248.143578
 21
607.990366
 31
0.0
  0
LINE
  5
1BD
330
7B
100
AcDbEntity
  8
0
  6
Continuous
 62
     0
370
    30
100
AcDbLine
 10
244.543578
 20
605.885531
 30
0.0
 11
244.543578
 21
607.990366
 31
0.0
  0
LINE
  5
1BE
330
7B
100
AcDbEntity
  8
0
  6
Continuous
 62
     0
370
    30
100
AcDbLine
 10
238.952893
 20
605.885531
 30
0.0
 11
238.952893
 21
607.990366
 31
0.0
  0
LINE
  5
1BF
330
7B
100
AcDbEntity
  8
0
  6
Continuous
 62
     0
370
    30
100
AcDbLine
 10
235.352893
 20
605.885531
 30
0.0
 11
235.352893
 21
607.990366
 31
0.0
  0
LINE
  5
1C0
330
7B
100
AcDbEntity
  8
0
  6
Continuous
 62
     0
370
    30
100
AcDbLine
 10
233.332382
 20
605.885531
 30
0.0
 11
233.332382
 21
607.990366
 31
0.0
  0
LINE
  5
1C1
330
7B
100
AcDbEntity
  8
0
  6
Continuous
 62
     0
370
    30
100
AcDbLine
 10
229.732382
 20
605.885531
 30
0.0
 11
229.732382
 21
607.990366
 31
0.0
  0
LINE
  5
1C2
330
7B
100
AcDbEntity
  8
0
  6
Continuous
 62
     0
370
    30
100
AcDbLine
 10
227.852821
 20
605.885531
 30
0.0
 11
227.852821
 21
607.990366
 31
0.0
  0
LINE
  5
1C3
330
7B
100
AcDbEntity
  8
0
  6
Continuous
 62
     0
370
    30
100
AcDbLine
 10
239.029589
 20
605.885531
 30
0.0
 11
239.029589
 21
607.990366
 31
0.0
  0
LINE
  5
1C4
330
7B
100
AcDbEntity
  8
0
  6
Continuous
 62
     0
370
    30
100
AcDbLine
 10
248.2557
 20
605.885531
 30
0.0
 11
248.2557
 21
607.990366
 31
0.0
  0
LINE
  5
1C5
330
7B
100
AcDbEntity
  8
0
  6
Continuous
 62
     0
370
    30
100
AcDbLine
 10
399.310632
 20
605.885531
 30
0.0
 11
399.310632
 21
607.990366
 31
0.0
  0
LINE
  5
1C6
330
7B
100
AcDbEntity
  8
0
  6
Continuous
 62
     0
370
    30
100
AcDbLine
 10
473.952649
 20
605.885531
 30
0.0
 11
473.952649
 21
607.990366
 31
0.0
  0
LINE
  5
1C7
330
7B
100
AcDbEntity
  8
0
  6
Continuous
 62
     0
370
    30
100
AcDbLine
 10
479.534221
 20
605.885531
 30
0.0
 11
479.534221
 21
607.990366
 31
0.0
  0
LINE
  5
1C8
330
7B
100
AcDbEntity
  8
0
  6
Continuous
 62
     0
370
    30
100
AcDbLine
 10
475.934221
 20
605.885531
 30
0.0
 11
475.934221
 21
607.990366
 31
0.0
  0
LINE
  5
1C9
330
7B
100
AcDbEntity
  8
0
  6
Continuous
 62
     0
370
    30
100
AcDbLine
 10
473.875953
 20
605.885531
 30
0.0
 11
473.875953
 21
607.990366
 31
0.0
  0
LINE
  5
1CA
330
7B
100
AcDbEntity
  8
0
  6
Continuous
 62
     0
370
    30
100
AcDbLine
 10
470.275953
 20
605.885531
 30
0.0
 11
470.275953
 21
607.990366
 31
0.0
  0
LINE
  5
1CB
330
7B
100
AcDbEntity
  8
0
  6
Continuous
 62
     0
370
    30
100
AcDbLine
 10
467.452726
 20
605.885531
 30
0.0
 11
467.452726
 21
607.990366
 31
0.0
  0
LINE
  5
1CC
330
7B
100
AcDbEntity
  8
0
  6
Continuous
 62
     0
370
    30
100
AcDbLine
 10
481.452721
 20
605.885531
 30
0.0
 11
481.452721
 21
607.990366
 31
0.0
  0
LINE
  5
1CD
330
7B
100
AcDbEntity
  8
0
  6
Continuous
 62
     0
370
    30
100
AcDbLine
 10
464.649842
 20
605.885531
 30
0.0
 11
464.649842
 21
607.990366
 31
0.0
  0
LINE
  5
1CE
330
7B
100
AcDbEntity
  8
0
  6
Continuous
 62
     0
370
    30
100
AcDbLine
 10
461.049842
 20
605.885531
 30
0.0
 11
461.049842
 21
607.990366
 31
0.0
  0
LINE
  5
1CF
330
7B
100
AcDbEntity
  8
0
  6
Continuous
 62
     0
370
    30
100
AcDbLine
 10
453.452732
 20
605.885531
 30
0.0
 11
453.452732
 21
607.990366
 31
0.0
  0
LINE
  5
1D0
330
7B
100
AcDbEntity
  8
0
  6
Continuous
 62
     0
370
    30
100
AcDbLine
 10
452.53177
 20
605.885531
 30
0.0
 11
452.53177
 21
607.990366
 31
0.0
  0
LINE
  5
1D1
330
7B
100
AcDbEntity
  8
0
  6
Continuous
 62
     0
370
    30
100
AcDbLine
 10
421.852743
 20
605.885531
 30
0.0
 11
421.852743
 21
607.990366
 31
0.0
  0
LINE
  5
1D2
330
7B
100
AcDbEntity
  8
0
  6
Continuous
 62
     0
370
    30
100
AcDbLine
 10
379.85276
 20
605.885531
 30
0.0
 11
379.85276
 21
607.990366
 31
0.0
  0
INSERT
  5
1D7
330
7B
100
AcDbEntity
  8
0
  6
Continuous
 62
     0
370
     0
100
AcDbBlockReference
  2
Non relazionati
 10
198.508698
 20
604.685242
 30
0.0
  0
ENDBLK
  5
1D9
330
7B
100
AcDbEntity
  8
0
100
AcDbBlockEnd
  0
BLOCK
  5
1D5
330
1D3
100
AcDbEntity
  8
0
100
AcDbBlockBegin
  2
Non relazionati
 70
     0
 10
198.508698
 20
604.685242
 30
0.0
  3
Non relazionati
  1

  0
LINE
  5
1D4
330
1D3
100
AcDbEntity
  8
0
  6
Continuous
 62
     0
370
     0
100
AcDbLine
 10
204.652772
 20
615.990366
 30
0.0
 11
504.652772
 21
615.990366
 31
0.0
  0
ENDBLK
  5
1D6
330
1D3
100
AcDbEntity
  8
0
100
AcDbBlockEnd
  0
BLOCK
  5
390
330
1DB
100
AcDbEntity
  8
0
100
AcDbBlockBegin
  2
b
 70
     0
 10
0.0
 20
375.50769
 30
0.0
  3
b
  1

  0
ARC
  5
1DC
330
1DB
100
AcDbEntity
  8
0
  6
Continuous
 62
     0
370
    30
100
AcDbCircle
 10
354.625564
 20
874.811958
 30
0.0
 40
149.9748339555809
100
AcDbArc
 50
157.714337
 51
202.388443
  0
ARC
  5
1DD
330
1DB
100
AcDbEntity
  8
0
  6
Continuous
 62
     0
370
    30
100
AcDbCircle
 10
354.679979
 20
874.812006
 30
0.0
 40
149.9748337909089
100
AcDbArc
 50
337.714318
 51
22.388475
  0
ARC
  5
1DE
330
1DB
100
AcDbEntity
  8
0
  6
Continuous
 62
     0
370
    30
100
AcDbCircle
 10
354.652771
 20
874.811982
 30
0.0
 40
149.9999999999998
100
AcDbArc
 50
90.05139
 51
270.051393
  0
ARC
  5
1DF
330
1DB
100
AcDbEntity
  8
0
  6
Continuous
 62
     0
370
    30
100
AcDbCircle
 10
354.652771
 20
874.811982
 30
0.0
 40
149.9999999999999
100
AcDbArc
 50
270.051393
 51
90.05139
  0
ARC
  5
1E0
330
1DB
100
AcDbEntity
  8
0
  6
Continuous
 62
     0
370
    30
100
AcDbCircle
 10
375.120914
 20
910.337398
 30
0.0
 40
1.799999999999958
100
AcDbArc
 50
248.078971
 51
68.078977
  0
ARC
  5
1E1
330
1DB
100
AcDbEntity
  8
0
  6
Continuous
 62
     0
370
    30
100
AcDbCircle
 10
375.120914
 20
910.337398
 30
0.0
 40
1.800000000000018
100
AcDbArc
 50
68.078964
 51
248.078971
  0
ARC
  5
1E2
330
1DB
100
AcDbEntity
  8
0
  6
Continuous
 62
     0
370
    30
100
AcDbCircle
 10
381.65276
 20
874.836201
 30
0.0
 40
1.800000000000005
100
AcDbArc
 50
193.454388
 51
13.454395
  0
ARC
  5
1E3
330
1DB
100
AcDbEntity
  8
0
  6
Continuous
 62
     0
370
    30
100
AcDbCircle
 10
381.65276
 20
874.836201
 30
0.0
 40
1.799999999999981
100
AcDbArc
 50
13.454382
 51
193.454388
  0
ARC
  5
1E4
330
1DB
100
AcDbEntity
  8
0
  6
Continuous
 62
     0
370
    30
100
AcDbCircle
 10
395.652754
 20
874.848759
 30
0.0
 40
1.799999999999992
100
AcDbArc
 50
188.078971
 51
8.078977
  0
ARC
  5
1E5
330
1DB
100
AcDbEntity
  8
0
  6
Continuous
 62
     0
370
    30
100
AcDbCircle
 10
395.652754
 20
874.848759
 30
0.0
 40
1.800000000000009
100
AcDbArc
 50
8.078964
 51
188.078971
  0
ARC
  5
1E6
330
1DB
100
AcDbEntity
  8
0
  6
Continuous
 62
     0
370
    30
100
AcDbCircle
 10
409.652749
 20
874.861316
 30
0.0
 40
1.800000000000021
100
AcDbArc
 50
183.697299
 51
3.697306
  0
ARC
  5
1E7
330
1DB
100
AcDbEntity
  8
0
  6
Continuous
 62
     0
370
    30
100
AcDbCircle
 10
409.652749
 20
874.861316
 30
0.0
 40
1.80000000000001
100
AcDbArc
 50
3.697293
 51
183.697299
  0
ARC
  5
1E8
330
1DB
100
AcDbEntity
  8
0
  6
Continuous
 62
     0
370
    30
100
AcDbCircle
 10
426.495626
 20
916.376441
 30
0.0
 40
1.800000000000019
100
AcDbArc
 50
212.24327
 51
32.243277
  0
ARC
  5
1E9
330
1DB
100
AcDbEntity
  8
0
  6
Continuous
 62
     0
370
    30
100
AcDbCircle
 10
426.495626
 20
916.376441
 30
0.0
 40
1.799999999999977
100
AcDbArc
 50
32.243264
 51
212.24327
  0
ARC
  5
1EA
330
1DB
100
AcDbEntity
  8
0
  6
Continuous
 62
     0
370
    30
100
AcDbCircle
 10
423.652743
 20
874.873874
 30
0.0
 40
1.800000000000006
100
AcDbArc
 50
183.760537
 51
3.760544
  0
ARC
  5
1EB
330
1DB
100
AcDbEntity
  8
0
  6
Continuous
 62
     0
370
    30
100
AcDbCircle
 10
423.652743
 20
874.873874
 30
0.0
 40
1.799999999999994
100
AcDbArc
 50
3.760531
 51
183.760537
  0
ARC
  5
1EC
330
1DB
100
AcDbEntity
  8
0
  6
Continuous
 62
     0
370
    30
100
AcDbCircle
 10
450.73177
 20
930.398186
 30
0.0
 40
1.800000000000041
100
AcDbArc
 50
211.273779
 51
31.273786
  0
ARC
  5
1ED
330
1DB
100
AcDbEntity
  8
0
  6
Continuous
 62
     0
370
    30
100
AcDbCircle
 10
450.73177
 20
930.398186
 30
0.0
 40
1.800000000000014
100
AcDbArc
 50
31.273773
 51
211.273779
  0
ARC
  5
1EE
330
1DB
100
AcDbEntity
  8
0
  6
Continuous
 62
     0
370
    30
100
AcDbCircle
 10
451.652732
 20
874.898989
 30
0.0
 40
1.800000000000013
100
AcDbArc
 50
181.539308
 51
1.539314
  0
ARC
  5
1EF
330
1DB
100
AcDbEntity
  8
0
  6
Continuous
 62
     0
370
    30
100
AcDbCircle
 10
451.652732
 20
874.898989
 30
0.0
 40
1.800000000000016
100
AcDbArc
 50
1.539301
 51
181.539308
  0
ARC
  5
1F0
330
1DB
100
AcDbEntity
  8
0
  6
Continuous
 62
     0
370
    30
100
AcDbCircle
 10
437.652738
 20
874.886432
 30
0.0
 40
1.800000000000008
100
AcDbArc
 50
182.24327
 51
2.243277
  0
ARC
  5
1F1
330
1DB
100
AcDbEntity
  8
0
  6
Continuous
 62
     0
370
    30
100
AcDbCircle
 10
437.652738
 20
874.886432
 30
0.0
 40
1.800000000000011
100
AcDbArc
 50
2.243264
 51
182.24327
  0
ARC
  5
1F2
330
1DB
100
AcDbEntity
  8
0
  6
Continuous
 62
     0
370
    30
100
AcDbCircle
 10
354.664432
 20
861.811988
 30
0.0
 40
1.800000000000014
100
AcDbArc
 50
97.059739
 51
277.059745
  0
ARC
  5
1F3
330
1DB
100
AcDbEntity
  8
0
  6
Continuous
 62
     0
370
    30
100
AcDbCircle
 10
354.664432
 20
861.811988
 30
0.0
 40
1.800000000000047
100
AcDbArc
 50
277.059732
 51
97.059739
  0
ARC
  5
1F4
330
1DB
100
AcDbEntity
  8
0
  6
Continuous
 62
     0
370
    30
100
AcDbCircle
 10
462.849842
 20
937.409058
 30
0.0
 40
1.799999999999952
100
AcDbArc
 50
210.398171
 51
30.398178
  0
ARC
  5
1F5
330
1DB
100
AcDbEntity
  8
0
  6
Continuous
 62
     0
370
    30
100
AcDbCircle
 10
462.849842
 20
937.409058
 30
0.0
 40
1.799999999999936
100
AcDbArc
 50
30.398165
 51
210.398171
  0
ARC
  5
1F6
330
1DB
100
AcDbEntity
  8
0
  6
Continuous
 62
     0
370
    30
100
AcDbCircle
 10
479.652721
 20
874.924105
 30
0.0
 40
1.799999999999981
100
AcDbArc
 50
180.398171
 51
0.398178
  0
ARC
  5
1F7
330
1DB
100
AcDbEntity
  8
0
  6
Continuous
 62
     0
370
    30
100
AcDbCircle
 10
479.652721
 20
874.924105
 30
0.0
 40
1.79999999999993
100
AcDbArc
 50
0.398165
 51
180.398171
  0
ARC
  5
1F8
330
1DB
100
AcDbEntity
  8
0
  6
Continuous
 62
     0
370
    30
100
AcDbCircle
 10
465.652726
 20
874.911547
 30
0.0
 40
1.800000000000041
100
AcDbArc
 50
181.273779
 51
1.273786
  0
ARC
  5
1F9
330
1DB
100
AcDbEntity
  8
0
  6
Continuous
 62
     0
370
    30
100
AcDbCircle
 10
465.652726
 20
874.911547
 30
0.0
 40
1.800000000000027
100
AcDbArc
 50
1.273773
 51
181.273779
  0
ARC
  5
1FA
330
1DB
100
AcDbEntity
  8
0
  6
Continuous
 62
     0
370
    30
100
AcDbCircle
 10
472.075953
 20
917.669844
 30
0.0
 40
1.799999999999978
100
AcDbArc
 50
200.398171
 51
20.398178
  0
ARC
  5
1FB
330
1DB
100
AcDbEntity
  8
0
  6
Continuous
 62
     0
370
    30
100
AcDbCircle
 10
472.075953
 20
917.669844
 30
0.0
 40
1.799999999999981
100
AcDbArc
 50
20.398165
 51
200.398171
  0
ARC
  5
1FC
330
1DB
100
AcDbEntity
  8
0
  6
Continuous
 62
     0
370
    30
100
AcDbCircle
 10
477.734221
 20
896.628415
 30
0.0
 40
1.799999999999954
100
AcDbArc
 50
190.398171
 51
10.398178
  0
ARC
  5
1FD
330
1DB
100
AcDbEntity
  8
0
  6
Continuous
 62
     0
370
    30
100
AcDbCircle
 10
477.734221
 20
896.628415
 30
0.0
 40
1.799999999999932
100
AcDbArc
 50
10.398165
 51
190.398171
  0
ARC
  5
1FE
330
1DB
100
AcDbEntity
  8
0
  6
Continuous
 62
     0
370
    30
100
AcDbCircle
 10
477.77316
 20
853.216388
 30
0.0
 40
1.799999999999991
100
AcDbArc
 50
170.398171
 51
350.398178
  0
ARC
  5
1FF
330
1DB
100
AcDbEntity
  8
0
  6
Continuous
 62
     0
370
    30
100
AcDbCircle
 10
477.77316
 20
853.216388
 30
0.0
 40
1.799999999999958
100
AcDbArc
 50
350.398165
 51
170.398171
  0
ARC
  5
200
330
1DB
100
AcDbEntity
  8
0
  6
Continuous
 62
     0
370
    30
100
AcDbCircle
 10
472.152649
 20
832.164842
 30
0.0
 40
1.799999999999955
100
AcDbArc
 50
160.398171
 51
340.398178
  0
ARC
  5
201
330
1DB
100
AcDbEntity
  8
0
  6
Continuous
 62
     0
370
    30
100
AcDbCircle
 10
472.152649
 20
832.164842
 30
0.0
 40
1.799999999999961
100
AcDbArc
 50
340.398165
 51
160.398171
  0
ARC
  5
202
330
1DB
100
AcDbEntity
  8
0
  6
Continuous
 62
     0
370
    30
100
AcDbCircle
 10
462.961964
 20
812.409108
 30
0.0
 40
1.799999999999951
100
AcDbArc
 50
150.398171
 51
330.398178
  0
ARC
  5
203
330
1DB
100
AcDbEntity
  8
0
  6
Continuous
 62
     0
370
    30
100
AcDbCircle
 10
462.961964
 20
812.409108
 30
0.0
 40
1.799999999999961
100
AcDbArc
 50
330.398165
 51
150.398171
  0
ARC
  5
204
330
1DB
100
AcDbEntity
  8
0
  6
Continuous
 62
     0
370
    30
100
AcDbCircle
 10
450.480359
 20
794.549454
 30
0.0
 40
1.799999999999952
100
AcDbArc
 50
140.398171
 51
320.398178
  0
ARC
  5
205
330
1DB
100
AcDbEntity
  8
0
  6
Continuous
 62
     0
370
    30
100
AcDbCircle
 10
450.480359
 20
794.549454
 30
0.0
 40
1.799999999999929
100
AcDbArc
 50
320.398165
 51
140.398171
  0
ARC
  5
206
330
1DB
100
AcDbEntity
  8
0
  6
Continuous
 62
     0
370
    30
100
AcDbCircle
 10
435.08708
 20
779.128536
 30
0.0
 40
1.800000000000025
100
AcDbArc
 50
130.398171
 51
310.398178
  0
ARC
  5
207
330
1DB
100
AcDbEntity
  8
0
  6
Continuous
 62
     0
370
    30
100
AcDbCircle
 10
435.08708
 20
779.128536
 30
0.0
 40
1.799999999999893
100
AcDbArc
 50
310.398165
 51
130.398171
  0
ARC
  5
208
330
1DB
100
AcDbEntity
  8
0
  6
Continuous
 62
     0
370
    30
100
AcDbCircle
 10
417.249847
 20
766.614912
 30
0.0
 40
1.800000000000002
100
AcDbArc
 50
120.398171
 51
300.398178
  0
ARC
  5
209
330
1DB
100
AcDbEntity
  8
0
  6
Continuous
 62
     0
370
    30
100
AcDbCircle
 10
417.249847
 20
766.614912
 30
0.0
 40
1.799999999999985
100
AcDbArc
 50
300.398165
 51
120.398171
  0
ARC
  5
20A
330
1DB
100
AcDbEntity
  8
0
  6
Continuous
 62
     0
370
    30
100
AcDbCircle
 10
397.510632
 20
757.3888
 30
0.0
 40
1.79999999999999
100
AcDbArc
 50
110.398171
 51
290.398178
  0
ARC
  5
20B
330
1DB
100
AcDbEntity
  8
0
  6
Continuous
 62
     0
370
    30
100
AcDbCircle
 10
397.510632
 20
757.3888
 30
0.0
 40
1.799999999999866
100
AcDbArc
 50
290.398165
 51
110.398171
  0
ARC
  5
20C
330
1DB
100
AcDbEntity
  8
0
  6
Continuous
 62
     0
370
    30
100
AcDbCircle
 10
376.469203
 20
751.730533
 30
0.0
 40
1.79999999999995
100
AcDbArc
 50
100.398171
 51
280.398178
  0
ARC
  5
20D
330
1DB
100
AcDbEntity
  8
0
  6
Continuous
 62
     0
370
    30
100
AcDbCircle
 10
376.469203
 20
751.730533
 30
0.0
 40
1.799999999999896
100
AcDbArc
 50
280.398165
 51
100.398171
  0
ARC
  5
20E
330
1DB
100
AcDbEntity
  8
0
  6
Continuous
 62
     0
370
    30
100
AcDbCircle
 10
354.764893
 20
749.812033
 30
0.0
 40
1.799999999999967
100
AcDbArc
 50
90.398171
 51
270.398178
  0
ARC
  5
20F
330
1DB
100
AcDbEntity
  8
0
  6
Continuous
 62
     0
370
    30
100
AcDbCircle
 10
354.764893
 20
749.812033
 30
0.0
 40
1.799999999999986
100
AcDbArc
 50
270.398165
 51
90.398171
  0
ARC
  5
210
330
1DB
100
AcDbEntity
  8
0
  6
Continuous
 62
     0
370
    30
100
AcDbCircle
 10
333.057176
 20
751.691593
 30
0.0
 40
1.800000000000049
100
AcDbArc
 50
80.398171
 51
260.398178
  0
ARC
  5
211
330
1DB
100
AcDbEntity
  8
0
  6
Continuous
 62
     0
370
    30
100
AcDbCircle
 10
333.057176
 20
751.691593
 30
0.0
 40
1.799999999999889
100
AcDbArc
 50
260.398165
 51
80.398171
  0
ARC
  5
212
330
1DB
100
AcDbEntity
  8
0
  6
Continuous
 62
     0
370
    30
100
AcDbCircle
 10
312.005631
 20
757.312104
 30
0.0
 40
1.799999999999946
100
AcDbArc
 50
70.398171
 51
250.398178
  0
ARC
  5
213
330
1DB
100
AcDbEntity
  8
0
  6
Continuous
 62
     0
370
    30
100
AcDbCircle
 10
312.005631
 20
757.312104
 30
0.0
 40
1.799999999999836
100
AcDbArc
 50
250.398165
 51
70.398171
  0
ARC
  5
214
330
1DB
100
AcDbEntity
  8
0
  6
Continuous
 62
     0
370
    30
100
AcDbCircle
 10
292.249897
 20
766.50279
 30
0.0
 40
1.799999999999923
100
AcDbArc
 50
60.398171
 51
240.398178
  0
ARC
  5
215
330
1DB
100
AcDbEntity
  8
0
  6
Continuous
 62
     0
370
    30
100
AcDbCircle
 10
292.249897
 20
766.50279
 30
0.0
 40
1.799999999999898
100
AcDbArc
 50
240.398165
 51
60.398171
  0
ARC
  5
216
330
1DB
100
AcDbEntity
  8
0
  6
Continuous
 62
     0
370
    30
100
AcDbCircle
 10
274.390243
 20
778.984395
 30
0.0
 40
1.799999999999939
100
AcDbArc
 50
50.398171
 51
230.398178
  0
ARC
  5
217
330
1DB
100
AcDbEntity
  8
0
  6
Continuous
 62
     0
370
    30
100
AcDbCircle
 10
274.390243
 20
778.984395
 30
0.0
 40
1.799999999999946
100
AcDbArc
 50
230.398165
 51
50.398171
  0
ARC
  5
218
330
1DB
100
AcDbEntity
  8
0
  6
Continuous
 62
     0
370
    30
100
AcDbCircle
 10
258.969325
 20
794.377673
 30
0.0
 40
1.799999999999925
100
AcDbArc
 50
40.398171
 51
220.398178
  0
ARC
  5
219
330
1DB
100
AcDbEntity
  8
0
  6
Continuous
 62
     0
370
    30
100
AcDbCircle
 10
258.969325
 20
794.377673
 30
0.0
 40
1.800000000000007
100
AcDbArc
 50
220.398165
 51
40.398171
  0
ARC
  5
21A
330
1DB
100
AcDbEntity
  8
0
  6
Continuous
 62
     0
370
    30
100
AcDbCircle
 10
246.4557
 20
812.214907
 30
0.0
 40
1.799999999999944
100
AcDbArc
 50
30.398171
 51
210.398178
  0
ARC
  5
21B
330
1DB
100
AcDbEntity
  8
0
  6
Continuous
 62
     0
370
    30
100
AcDbCircle
 10
246.4557
 20
812.214907
 30
0.0
 40
1.800000000000032
100
AcDbArc
 50
210.398165
 51
30.398171
  0
ARC
  5
21C
330
1DB
100
AcDbEntity
  8
0
  6
Continuous
 62
     0
370
    30
100
AcDbCircle
 10
237.229589
 20
831.954121
 30
0.0
 40
1.799999999999974
100
AcDbArc
 50
20.398171
 51
200.398178
  0
ARC
  5
21D
330
1DB
100
AcDbEntity
  8
0
  6
Continuous
 62
     0
370
    30
100
AcDbCircle
 10
237.229589
 20
831.954121
 30
0.0
 40
1.799999999999971
100
AcDbArc
 50
200.398165
 51
20.398171
  0
ARC
  5
21E
330
1DB
100
AcDbEntity
  8
0
  6
Continuous
 62
     0
370
    30
100
AcDbCircle
 10
231.571321
 20
852.99555
 30
0.0
 40
1.799999999999943
100
AcDbArc
 50
10.398171
 51
190.398178
  0
ARC
  5
21F
330
1DB
100
AcDbEntity
  8
0
  6
Continuous
 62
     0
370
    30
100
AcDbCircle
 10
231.571321
 20
852.99555
 30
0.0
 40
1.799999999999924
100
AcDbArc
 50
190.398165
 51
10.398171
  0
ARC
  5
220
330
1DB
100
AcDbEntity
  8
0
  6
Continuous
 62
     0
370
    30
100
AcDbCircle
 10
229.652821
 20
874.69986
 30
0.0
 40
1.799999999999981
100
AcDbArc
 50
0.398171
 51
180.398178
  0
ARC
  5
221
330
1DB
100
AcDbEntity
  8
0
  6
Continuous
 62
     0
370
    30
100
AcDbCircle
 10
229.652821
 20
874.69986
 30
0.0
 40
1.799999999999929
100
AcDbArc
 50
180.398165
 51
0.398171
  0
ARC
  5
222
330
1DB
100
AcDbEntity
  8
0
  6
Continuous
 62
     0
370
    30
100
AcDbCircle
 10
231.532382
 20
896.407577
 30
0.0
 40
1.799999999999977
100
AcDbArc
 50
350.398171
 51
170.398178
  0
ARC
  5
223
330
1DB
100
AcDbEntity
  8
0
  6
Continuous
 62
     0
370
    30
100
AcDbCircle
 10
231.532382
 20
896.407577
 30
0.0
 40
1.79999999999996
100
AcDbArc
 50
170.398165
 51
350.398171
  0
ARC
  5
224
330
1DB
100
AcDbEntity
  8
0
  6
Continuous
 62
     0
370
    30
100
AcDbCircle
 10
237.152893
 20
917.459123
 30
0.0
 40
1.799999999999967
100
AcDbArc
 50
340.398171
 51
160.398178
  0
ARC
  5
225
330
1DB
100
AcDbEntity
  8
0
  6
Continuous
 62
     0
370
    30
100
AcDbCircle
 10
237.152893
 20
917.459123
 30
0.0
 40
1.799999999999949
100
AcDbArc
 50
160.398165
 51
340.398171
  0
ARC
  5
226
330
1DB
100
AcDbEntity
  8
0
  6
Continuous
 62
     0
370
    30
100
AcDbCircle
 10
246.343578
 20
937.214857
 30
0.0
 40
1.799999999999979
100
AcDbArc
 50
330.398171
 51
150.398178
  0
ARC
  5
227
330
1DB
100
AcDbEntity
  8
0
  6
Continuous
 62
     0
370
    30
100
AcDbCircle
 10
246.343578
 20
937.214857
 30
0.0
 40
1.799999999999958
100
AcDbArc
 50
150.398165
 51
330.398171
  0
ARC
  5
228
330
1DB
100
AcDbEntity
  8
0
  6
Continuous
 62
     0
370
    30
100
AcDbCircle
 10
258.825183
 20
955.074511
 30
0.0
 40
1.799999999999967
100
AcDbArc
 50
320.398171
 51
140.398178
  0
ARC
  5
229
330
1DB
100
AcDbEntity
  8
0
  6
Continuous
 62
     0
370
    30
100
AcDbCircle
 10
258.825183
 20
955.074511
 30
0.0
 40
1.799999999999947
100
AcDbArc
 50
140.398165
 51
320.398171
  0
ARC
  5
22A
330
1DB
100
AcDbEntity
  8
0
  6
Continuous
 62
     0
370
    30
100
AcDbCircle
 10
274.218462
 20
970.495429
 30
0.0
 40
1.799999999999957
100
AcDbArc
 50
310.398171
 51
130.398178
  0
ARC
  5
22B
330
1DB
100
AcDbEntity
  8
0
  6
Continuous
 62
     0
370
    30
100
AcDbCircle
 10
274.218462
 20
970.495429
 30
0.0
 40
1.799999999999941
100
AcDbArc
 50
130.398165
 51
310.398171
  0
ARC
  5
22C
330
1DB
100
AcDbEntity
  8
0
  6
Continuous
 62
     0
370
    30
100
AcDbCircle
 10
292.055695
 20
983.009053
 30
0.0
 40
1.799999999999981
100
AcDbArc
 50
300.398171
 51
120.398178
  0
ARC
  5
22D
330
1DB
100
AcDbEntity
  8
0
  6
Continuous
 62
     0
370
    30
100
AcDbCircle
 10
292.055695
 20
983.009053
 30
0.0
 40
1.799999999999964
100
AcDbArc
 50
120.398165
 51
300.398171
  0
ARC
  5
22E
330
1DB
100
AcDbEntity
  8
0
  6
Continuous
 62
     0
370
    30
100
AcDbCircle
 10
311.79491
 20
992.235165
 30
0.0
 40
1.800000000000015
100
AcDbArc
 50
290.398171
 51
110.398178
  0
ARC
  5
22F
330
1DB
100
AcDbEntity
  8
0
  6
Continuous
 62
     0
370
    30
100
AcDbCircle
 10
311.79491
 20
992.235165
 30
0.0
 40
1.799999999999975
100
AcDbArc
 50
110.398165
 51
290.398171
  0
ARC
  5
230
330
1DB
100
AcDbEntity
  8
0
  6
Continuous
 62
     0
370
    30
100
AcDbCircle
 10
332.836339
 20
997.893432
 30
0.0
 40
1.799999999999923
100
AcDbArc
 50
280.398171
 51
100.398178
  0
ARC
  5
231
330
1DB
100
AcDbEntity
  8
0
  6
Continuous
 62
     0
370
    30
100
AcDbCircle
 10
332.836339
 20
997.893432
 30
0.0
 40
1.79999999999995
100
AcDbArc
 50
100.398165
 51
280.398171
  0
ARC
  5
232
330
1DB
100
AcDbEntity
  8
0
  6
Continuous
 62
     0
370
    30
100
AcDbCircle
 10
354.540649
 20
999.811932
 30
0.0
 40
1.799999999999967
100
AcDbArc
 50
270.398171
 51
90.398178
  0
ARC
  5
233
330
1DB
100
AcDbEntity
  8
0
  6
Continuous
 62
     0
370
    30
100
AcDbCircle
 10
354.540649
 20
999.811932
 30
0.0
 40
1.799999999999986
100
AcDbArc
 50
90.398165
 51
270.398171
  0
ARC
  5
234
330
1DB
100
AcDbEntity
  8
0
  6
Continuous
 62
     0
370
    30
100
AcDbCircle
 10
376.248366
 20
997.932372
 30
0.0
 40
1.799999999999993
100
AcDbArc
 50
260.398171
 51
80.398178
  0
ARC
  5
235
330
1DB
100
AcDbEntity
  8
0
  6
Continuous
 62
     0
370
    30
100
AcDbCircle
 10
376.248366
 20
997.932372
 30
0.0
 40
1.800000000000029
100
AcDbArc
 50
80.398165
 51
260.398171
  0
ARC
  5
236
330
1DB
100
AcDbEntity
  8
0
  6
Continuous
 62
     0
370
    30
100
AcDbCircle
 10
397.299911
 20
992.311861
 30
0.0
 40
1.799999999999919
100
AcDbArc
 50
250.398171
 51
70.398178
  0
ARC
  5
237
330
1DB
100
AcDbEntity
  8
0
  6
Continuous
 62
     0
370
    30
100
AcDbCircle
 10
397.299911
 20
992.311861
 30
0.0
 40
1.79999999999991
100
AcDbArc
 50
70.398165
 51
250.398171
  0
ARC
  5
238
330
1DB
100
AcDbEntity
  8
0
  6
Continuous
 62
     0
370
    30
100
AcDbCircle
 10
417.055645
 20
983.121176
 30
0.0
 40
1.799999999999972
100
AcDbArc
 50
240.398171
 51
60.398178
  0
ARC
  5
239
330
1DB
100
AcDbEntity
  8
0
  6
Continuous
 62
     0
370
    30
100
AcDbCircle
 10
417.055645
 20
983.121176
 30
0.0
 40
1.799999999999956
100
AcDbArc
 50
60.398165
 51
240.398171
  0
ARC
  5
23A
330
1DB
100
AcDbEntity
  8
0
  6
Continuous
 62
     0
370
    30
100
AcDbCircle
 10
434.915299
 20
970.63957
 30
0.0
 40
1.799999999999983
100
AcDbArc
 50
230.398171
 51
50.398178
  0
ARC
  5
23B
330
1DB
100
AcDbEntity
  8
0
  6
Continuous
 62
     0
370
    30
100
AcDbCircle
 10
434.915299
 20
970.63957
 30
0.0
 40
1.799999999999955
100
AcDbArc
 50
50.398165
 51
230.398171
  0
ARC
  5
23C
330
1DB
100
AcDbEntity
  8
0
  6
Continuous
 62
     0
370
    30
100
AcDbCircle
 10
450.336217
 20
955.246292
 30
0.0
 40
1.799999999999975
100
AcDbArc
 50
220.398171
 51
40.398178
  0
ARC
  5
23D
330
1DB
100
AcDbEntity
  8
0
  6
Continuous
 62
     0
370
    30
100
AcDbCircle
 10
450.336217
 20
955.246292
 30
0.0
 40
1.799999999999954
100
AcDbArc
 50
40.398165
 51
220.398171
  0
ARC
  5
23E
330
1DB
100
AcDbEntity
  8
0
  6
Continuous
 62
     0
370
    30
100
AcDbCircle
 10
458.924557
 20
912.869763
 30
0.0
 40
1.800000000000014
100
AcDbArc
 50
201.273779
 51
21.273786
  0
ARC
  5
23F
330
1DB
100
AcDbEntity
  8
0
  6
Continuous
 62
     0
370
    30
100
AcDbCircle
 10
458.924557
 20
912.869763
 30
0.0
 40
1.800000000000014
100
AcDbArc
 50
21.273773
 51
201.273779
  0
ARC
  5
240
330
1DB
100
AcDbEntity
  8
0
  6
Continuous
 62
     0
370
    30
100
AcDbCircle
 10
463.949098
 20
894.184974
 30
0.0
 40
1.800000000000012
100
AcDbArc
 50
191.273779
 51
11.273786
  0
ARC
  5
241
330
1DB
100
AcDbEntity
  8
0
  6
Continuous
 62
     0
370
    30
100
AcDbCircle
 10
463.949098
 20
894.184974
 30
0.0
 40
1.800000000000031
100
AcDbArc
 50
11.273773
 51
191.273779
  0
ARC
  5
242
330
1DB
100
AcDbEntity
  8
0
  6
Continuous
 62
     0
370
    30
100
AcDbCircle
 10
463.983677
 20
855.635094
 30
0.0
 40
1.800000000000006
100
AcDbArc
 50
171.273779
 51
351.273786
  0
ARC
  5
243
330
1DB
100
AcDbEntity
  8
0
  6
Continuous
 62
     0
370
    30
100
AcDbCircle
 10
463.983677
 20
855.635094
 30
0.0
 40
1.800000000000001
100
AcDbArc
 50
351.273773
 51
171.273779
  0
ARC
  5
244
330
1DB
100
AcDbEntity
  8
0
  6
Continuous
 62
     0
370
    30
100
AcDbCircle
 10
458.992663
 20
836.941322
 30
0.0
 40
1.799999999999999
100
AcDbArc
 50
161.273779
 51
341.273786
  0
ARC
  5
245
330
1DB
100
AcDbEntity
  8
0
  6
Continuous
 62
     0
370
    30
100
AcDbCircle
 10
458.992663
 20
836.941322
 30
0.0
 40
1.799999999999995
100
AcDbArc
 50
341.273773
 51
161.273779
  0
ARC
  5
246
330
1DB
100
AcDbEntity
  8
0
  6
Continuous
 62
     0
370
    30
100
AcDbCircle
 10
450.831334
 20
819.39823
 30
0.0
 40
1.800000000000008
100
AcDbArc
 50
151.273779
 51
331.273786
  0
ARC
  5
247
330
1DB
100
AcDbEntity
  8
0
  6
Continuous
 62
     0
370
    30
100
AcDbCircle
 10
450.831334
 20
819.39823
 30
0.0
 40
1.800000000000024
100
AcDbArc
 50
331.273773
 51
151.273779
  0
ARC
  5
248
330
1DB
100
AcDbEntity
  8
0
  6
Continuous
 62
     0
370
    30
100
AcDbCircle
 10
439.747669
 20
803.538857
 30
0.0
 40
1.80000000000004
100
AcDbArc
 50
141.273779
 51
321.273786
  0
ARC
  5
249
330
1DB
100
AcDbEntity
  8
0
  6
Continuous
 62
     0
370
    30
100
AcDbCircle
 10
439.747669
 20
803.538857
 30
0.0
 40
1.799999999999989
100
AcDbArc
 50
321.273773
 51
141.273779
  0
ARC
  5
24A
330
1DB
100
AcDbEntity
  8
0
  6
Continuous
 62
     0
370
    30
100
AcDbCircle
 10
426.078438
 20
789.845082
 30
0.0
 40
1.800000000000001
100
AcDbArc
 50
131.273779
 51
311.273786
  0
ARC
  5
24B
330
1DB
100
AcDbEntity
  8
0
  6
Continuous
 62
     0
370
    30
100
AcDbCircle
 10
426.078438
 20
789.845082
 30
0.0
 40
1.800000000000115
100
AcDbArc
 50
311.273773
 51
131.273779
  0
ARC
  5
24C
330
1DB
100
AcDbEntity
  8
0
  6
Continuous
 62
     0
370
    30
100
AcDbCircle
 10
410.238974
 20
778.732984
 30
0.0
 40
1.799999999999948
100
AcDbArc
 50
121.273779
 51
301.273786
  0
ARC
  5
24D
330
1DB
100
AcDbEntity
  8
0
  6
Continuous
 62
     0
370
    30
100
AcDbCircle
 10
410.238974
 20
778.732984
 30
0.0
 40
1.800000000000003
100
AcDbArc
 50
301.273773
 51
121.273779
  0
ARC
  5
24E
330
1DB
100
AcDbEntity
  8
0
  6
Continuous
 62
     0
370
    30
100
AcDbCircle
 10
392.710552
 20
770.540197
 30
0.0
 40
1.799999999999885
100
AcDbArc
 50
111.273779
 51
291.273786
  0
ARC
  5
24F
330
1DB
100
AcDbEntity
  8
0
  6
Continuous
 62
     0
370
    30
100
AcDbCircle
 10
392.710552
 20
770.540197
 30
0.0
 40
1.799999999999938
100
AcDbArc
 50
291.273773
 51
111.273779
  0
ARC
  5
250
330
1DB
100
AcDbEntity
  8
0
  6
Continuous
 62
     0
370
    30
100
AcDbCircle
 10
374.025763
 20
765.515655
 30
0.0
 40
1.800000000000033
100
AcDbArc
 50
101.273779
 51
281.273786
  0
ARC
  5
251
330
1DB
100
AcDbEntity
  8
0
  6
Continuous
 62
     0
370
    30
100
AcDbCircle
 10
374.025763
 20
765.515655
 30
0.0
 40
1.800000000000073
100
AcDbArc
 50
281.273773
 51
101.273779
  0
ARC
  5
252
330
1DB
100
AcDbEntity
  8
0
  6
Continuous
 62
     0
370
    30
100
AcDbCircle
 10
354.752336
 20
763.812027
 30
0.0
 40
1.800000000000076
100
AcDbArc
 50
91.273779
 51
271.273786
  0
ARC
  5
253
330
1DB
100
AcDbEntity
  8
0
  6
Continuous
 62
     0
370
    30
100
AcDbCircle
 10
354.752336
 20
763.812027
 30
0.0
 40
1.800000000000056
100
AcDbArc
 50
271.273773
 51
91.273779
  0
ARC
  5
254
330
1DB
100
AcDbEntity
  8
0
  6
Continuous
 62
     0
370
    30
100
AcDbCircle
 10
335.475883
 20
765.481077
 30
0.0
 40
1.800000000000082
100
AcDbArc
 50
81.273779
 51
261.273786
  0
ARC
  5
255
330
1DB
100
AcDbEntity
  8
0
  6
Continuous
 62
     0
370
    30
100
AcDbCircle
 10
335.475883
 20
765.481077
 30
0.0
 40
1.800000000000106
100
AcDbArc
 50
261.273773
 51
81.273779
  0
ARC
  5
256
330
1DB
100
AcDbEntity
  8
0
  6
Continuous
 62
     0
370
    30
100
AcDbCircle
 10
316.78211
 20
770.472091
 30
0.0
 40
1.799999999999971
100
AcDbArc
 50
71.273779
 51
251.273786
  0
ARC
  5
257
330
1DB
100
AcDbEntity
  8
0
  6
Continuous
 62
     0
370
    30
100
AcDbCircle
 10
316.78211
 20
770.472091
 30
0.0
 40
1.799999999999995
100
AcDbArc
 50
251.273773
 51
71.273779
  0
ARC
  5
258
330
1DB
100
AcDbEntity
  8
0
  6
Continuous
 62
     0
370
    30
100
AcDbCircle
 10
299.239019
 20
778.633419
 30
0.0
 40
1.799999999999922
100
AcDbArc
 50
61.273779
 51
241.273786
  0
ARC
  5
259
330
1DB
100
AcDbEntity
  8
0
  6
Continuous
 62
     0
370
    30
100
AcDbCircle
 10
299.239019
 20
778.633419
 30
0.0
 40
1.799999999999968
100
AcDbArc
 50
241.273773
 51
61.273779
  0
ARC
  5
25A
330
1DB
100
AcDbEntity
  8
0
  6
Continuous
 62
     0
370
    30
100
AcDbCircle
 10
283.379646
 20
789.717085
 30
0.0
 40
1.800000000000026
100
AcDbArc
 50
51.273779
 51
231.273786
  0
ARC
  5
25B
330
1DB
100
AcDbEntity
  8
0
  6
Continuous
 62
     0
370
    30
100
AcDbCircle
 10
283.379646
 20
789.717085
 30
0.0
 40
1.800000000000016
100
AcDbArc
 50
231.273773
 51
51.273779
  0
ARC
  5
25C
330
1DB
100
AcDbEntity
  8
0
  6
Continuous
 62
     0
370
    30
100
AcDbCircle
 10
269.685871
 20
803.386316
 30
0.0
 40
1.79999999999995
100
AcDbArc
 50
41.273779
 51
221.273786
  0
ARC
  5
25D
330
1DB
100
AcDbEntity
  8
0
  6
Continuous
 62
     0
370
    30
100
AcDbCircle
 10
269.685871
 20
803.386316
 30
0.0
 40
1.799999999999977
100
AcDbArc
 50
221.273773
 51
41.273779
  0
ARC
  5
25E
330
1DB
100
AcDbEntity
  8
0
  6
Continuous
 62
     0
370
    30
100
AcDbCircle
 10
258.573772
 20
819.225779
 30
0.0
 40
1.799999999999994
100
AcDbArc
 50
31.273779
 51
211.273786
  0
ARC
  5
25F
330
1DB
100
AcDbEntity
  8
0
  6
Continuous
 62
     0
370
    30
100
AcDbCircle
 10
258.573772
 20
819.225779
 30
0.0
 40
1.800000000000017
100
AcDbArc
 50
211.273773
 51
31.273779
  0
ARC
  5
260
330
1DB
100
AcDbEntity
  8
0
  6
Continuous
 62
     0
370
    30
100
AcDbCircle
 10
250.380985
 20
836.754202
 30
0.0
 40
1.80000000000002
100
AcDbArc
 50
21.273779
 51
201.273786
  0
ARC
  5
261
330
1DB
100
AcDbEntity
  8
0
  6
Continuous
 62
     0
370
    30
100
AcDbCircle
 10
250.380985
 20
836.754202
 30
0.0
 40
1.800000000000007
100
AcDbArc
 50
201.273773
 51
21.273779
  0
ARC
  5
262
330
1DB
100
AcDbEntity
  8
0
  6
Continuous
 62
     0
370
    30
100
AcDbCircle
 10
245.356444
 20
855.438991
 30
0.0
 40
1.800000000000006
100
AcDbArc
 50
11.273779
 51
191.273786
  0
ARC
  5
263
330
1DB
100
AcDbEntity
  8
0
  6
Continuous
 62
     0
370
    30
100
AcDbCircle
 10
245.356444
 20
855.438991
 30
0.0
 40
1.800000000000017
100
AcDbArc
 50
191.273773
 51
11.273779
  0
ARC
  5
264
330
1DB
100
AcDbEntity
  8
0
  6
Continuous
 62
     0
370
    30
100
AcDbCircle
 10
243.652816
 20
874.712418
 30
0.0
 40
1.800000000000032
100
AcDbArc
 50
1.273779
 51
181.273786
  0
ARC
  5
265
330
1DB
100
AcDbEntity
  8
0
  6
Continuous
 62
     0
370
    30
100
AcDbCircle
 10
243.652816
 20
874.712418
 30
0.0
 40
1.80000000000002
100
AcDbArc
 50
181.273773
 51
1.273779
  0
ARC
  5
266
330
1DB
100
AcDbEntity
  8
0
  6
Continuous
 62
     0
370
    30
100
AcDbCircle
 10
245.321865
 20
893.988871
 30
0.0
 40
1.799999999999995
100
AcDbArc
 50
351.273779
 51
171.273786
  0
ARC
  5
267
330
1DB
100
AcDbEntity
  8
0
  6
Continuous
 62
     0
370
    30
100
AcDbCircle
 10
245.321865
 20
893.988871
 30
0.0
 40
1.800000000000001
100
AcDbArc
 50
171.273773
 51
351.273779
  0
ARC
  5
268
330
1DB
100
AcDbEntity
  8
0
  6
Continuous
 62
     0
370
    30
100
AcDbCircle
 10
250.312879
 20
912.682643
 30
0.0
 40
1.800000000000018
100
AcDbArc
 50
341.273779
 51
161.273786
  0
ARC
  5
269
330
1DB
100
AcDbEntity
  8
0
  6
Continuous
 62
     0
370
    30
100
AcDbCircle
 10
250.312879
 20
912.682643
 30
0.0
 40
1.800000000000014
100
AcDbArc
 50
161.273773
 51
341.273779
  0
ARC
  5
26A
330
1DB
100
AcDbEntity
  8
0
  6
Continuous
 62
     0
370
    30
100
AcDbCircle
 10
258.474208
 20
930.225735
 30
0.0
 40
1.800000000000006
100
AcDbArc
 50
331.273779
 51
151.273786
  0
ARC
  5
26B
330
1DB
100
AcDbEntity
  8
0
  6
Continuous
 62
     0
370
    30
100
AcDbCircle
 10
258.474208
 20
930.225735
 30
0.0
 40
1.800000000000017
100
AcDbArc
 50
151.273773
 51
331.273779
  0
ARC
  5
26C
330
1DB
100
AcDbEntity
  8
0
  6
Continuous
 62
     0
370
    30
100
AcDbCircle
 10
269.557873
 20
946.085108
 30
0.0
 40
1.800000000000005
100
AcDbArc
 50
321.273779
 51
141.273786
  0
ARC
  5
26D
330
1DB
100
AcDbEntity
  8
0
  6
Continuous
 62
     0
370
    30
100
AcDbCircle
 10
269.557873
 20
946.085108
 30
0.0
 40
1.800000000000024
100
AcDbArc
 50
141.273773
 51
321.273779
  0
ARC
  5
26E
330
1DB
100
AcDbEntity
  8
0
  6
Continuous
 62
     0
370
    30
100
AcDbCircle
 10
283.227104
 20
959.778883
 30
0.0
 40
1.800000000000022
100
AcDbArc
 50
311.273779
 51
131.273786
  0
ARC
  5
26F
330
1DB
100
AcDbEntity
  8
0
  6
Continuous
 62
     0
370
    30
100
AcDbCircle
 10
283.227104
 20
959.778883
 30
0.0
 40
1.800000000000037
100
AcDbArc
 50
131.273773
 51
311.273779
  0
ARC
  5
270
330
1DB
100
AcDbEntity
  8
0
  6
Continuous
 62
     0
370
    30
100
AcDbCircle
 10
299.066568
 20
970.890981
 30
0.0
 40
1.800000000000006
100
AcDbArc
 50
301.273779
 51
121.273786
  0
ARC
  5
271
330
1DB
100
AcDbEntity
  8
0
  6
Continuous
 62
     0
370
    30
100
AcDbCircle
 10
299.066568
 20
970.890981
 30
0.0
 40
1.800000000000024
100
AcDbArc
 50
121.273773
 51
301.273779
  0
ARC
  5
272
330
1DB
100
AcDbEntity
  8
0
  6
Continuous
 62
     0
370
    30
100
AcDbCircle
 10
316.59499
 20
979.083768
 30
0.0
 40
1.800000000000072
100
AcDbArc
 50
291.273779
 51
111.273786
  0
ARC
  5
273
330
1DB
100
AcDbEntity
  8
0
  6
Continuous
 62
     0
370
    30
100
AcDbCircle
 10
316.59499
 20
979.083768
 30
0.0
 40
1.800000000000062
100
AcDbArc
 50
111.273773
 51
291.273779
  0
ARC
  5
274
330
1DB
100
AcDbEntity
  8
0
  6
Continuous
 62
     0
370
    30
100
AcDbCircle
 10
335.279779
 20
984.10831
 30
0.0
 40
1.800000000000032
100
AcDbArc
 50
281.273779
 51
101.273786
  0
ARC
  5
275
330
1DB
100
AcDbEntity
  8
0
  6
Continuous
 62
     0
370
    30
100
AcDbCircle
 10
335.279779
 20
984.10831
 30
0.0
 40
1.800000000000018
100
AcDbArc
 50
101.273773
 51
281.273779
  0
ARC
  5
276
330
1DB
100
AcDbEntity
  8
0
  6
Continuous
 62
     0
370
    30
100
AcDbCircle
 10
354.553206
 20
985.811938
 30
0.0
 40
1.800000000000019
100
AcDbArc
 50
271.273779
 51
91.273786
  0
ARC
  5
277
330
1DB
100
AcDbEntity
  8
0
  6
Continuous
 62
     0
370
    30
100
AcDbCircle
 10
354.553206
 20
985.811938
 30
0.0
 40
1.800000000000028
100
AcDbArc
 50
91.273773
 51
271.273779
  0
ARC
  5
278
330
1DB
100
AcDbEntity
  8
0
  6
Continuous
 62
     0
370
    30
100
AcDbCircle
 10
373.829659
 20
984.142888
 30
0.0
 40
1.80000000000008
100
AcDbArc
 50
261.273779
 51
81.273786
  0
ARC
  5
279
330
1DB
100
AcDbEntity
  8
0
  6
Continuous
 62
     0
370
    30
100
AcDbCircle
 10
373.829659
 20
984.142888
 30
0.0
 40
1.800000000000021
100
AcDbArc
 50
81.273773
 51
261.273779
  0
ARC
  5
27A
330
1DB
100
AcDbEntity
  8
0
  6
Continuous
 62
     0
370
    30
100
AcDbCircle
 10
392.523432
 20
979.151874
 30
0.0
 40
1.800000000000028
100
AcDbArc
 50
251.273779
 51
71.273786
  0
ARC
  5
27B
330
1DB
100
AcDbEntity
  8
0
  6
Continuous
 62
     0
370
    30
100
AcDbCircle
 10
392.523432
 20
979.151874
 30
0.0
 40
1.800000000000026
100
AcDbArc
 50
71.273773
 51
251.273779
  0
ARC
  5
27C
330
1DB
100
AcDbEntity
  8
0
  6
Continuous
 62
     0
370
    30
100
AcDbCircle
 10
410.066523
 20
970.990546
 30
0.0
 40
1.800000000000029
100
AcDbArc
 50
241.273779
 51
61.273786
  0
ARC
  5
27D
330
1DB
100
AcDbEntity
  8
0
  6
Continuous
 62
     0
370
    30
100
AcDbCircle
 10
410.066523
 20
970.990546
 30
0.0
 40
1.800000000000016
100
AcDbArc
 50
61.273773
 51
241.273779
  0
ARC
  5
27E
330
1DB
100
AcDbEntity
  8
0
  6
Continuous
 62
     0
370
    30
100
AcDbCircle
 10
425.925896
 20
959.90688
 30
0.0
 40
1.800000000000022
100
AcDbArc
 50
231.273779
 51
51.273786
  0
ARC
  5
27F
330
1DB
100
AcDbEntity
  8
0
  6
Continuous
 62
     0
370
    30
100
AcDbCircle
 10
425.925896
 20
959.90688
 30
0.0
 40
1.800000000000025
100
AcDbArc
 50
51.273773
 51
231.273779
  0
ARC
  5
280
330
1DB
100
AcDbEntity
  8
0
  6
Continuous
 62
     0
370
    30
100
AcDbCircle
 10
439.619671
 20
946.237649
 30
0.0
 40
1.800000000000033
100
AcDbArc
 50
221.273779
 51
41.273786
  0
ARC
  5
281
330
1DB
100
AcDbEntity
  8
0
  6
Continuous
 62
     0
370
    30
100
AcDbCircle
 10
439.619671
 20
946.237649
 30
0.0
 40
1.799999999999996
100
AcDbArc
 50
41.273773
 51
221.273779
  0
ARC
  5
282
330
1DB
100
AcDbEntity
  8
0
  6
Continuous
 62
     0
370
    30
100
AcDbCircle
 10
450.194193
 20
858.053801
 30
0.0
 40
1.799999999999997
100
AcDbArc
 50
171.539308
 51
351.539314
  0
ARC
  5
283
330
1DB
100
AcDbEntity
  8
0
  6
Continuous
 62
     0
370
    30
100
AcDbCircle
 10
450.194193
 20
858.053801
 30
0.0
 40
1.800000000000004
100
AcDbArc
 50
351.539301
 51
171.539308
  0
ARC
  5
284
330
1DB
100
AcDbEntity
  8
0
  6
Continuous
 62
     0
370
    30
100
AcDbCircle
 10
445.832677
 20
841.717802
 30
0.0
 40
1.800000000000032
100
AcDbArc
 50
161.539308
 51
341.539314
  0
ARC
  5
285
330
1DB
100
AcDbEntity
  8
0
  6
Continuous
 62
     0
370
    30
100
AcDbCircle
 10
445.832677
 20
841.717802
 30
0.0
 40
1.80000000000001
100
AcDbArc
 50
341.539301
 51
161.539308
  0
ARC
  5
286
330
1DB
100
AcDbEntity
  8
0
  6
Continuous
 62
     0
370
    30
100
AcDbCircle
 10
438.700705
 20
826.387352
 30
0.0
 40
1.800000000000018
100
AcDbArc
 50
151.539308
 51
331.539314
  0
ARC
  5
287
330
1DB
100
AcDbEntity
  8
0
  6
Continuous
 62
     0
370
    30
100
AcDbCircle
 10
438.700705
 20
826.387352
 30
0.0
 40
1.80000000000006
100
AcDbArc
 50
331.539301
 51
151.539308
  0
ARC
  5
288
330
1DB
100
AcDbEntity
  8
0
  6
Continuous
 62
     0
370
    30
100
AcDbCircle
 10
429.014979
 20
812.528261
 30
0.0
 40
1.799999999999979
100
AcDbArc
 50
141.539308
 51
321.539314
  0
ARC
  5
289
330
1DB
100
AcDbEntity
  8
0
  6
Continuous
 62
     0
370
    30
100
AcDbCircle
 10
429.014979
 20
812.528261
 30
0.0
 40
1.800000000000025
100
AcDbArc
 50
321.539301
 51
141.539308
  0
ARC
  5
28A
330
1DB
100
AcDbEntity
  8
0
  6
Continuous
 62
     0
370
    30
100
AcDbCircle
 10
417.069795
 20
800.561628
 30
0.0
 40
1.799999999999988
100
AcDbArc
 50
131.539308
 51
311.539314
  0
ARC
  5
28B
330
1DB
100
AcDbEntity
  8
0
  6
Continuous
 62
     0
370
    30
100
AcDbCircle
 10
417.069795
 20
800.561628
 30
0.0
 40
1.800000000000051
100
AcDbArc
 50
311.539301
 51
131.539308
  0
ARC
  5
28C
330
1DB
100
AcDbEntity
  8
0
  6
Continuous
 62
     0
370
    30
100
AcDbCircle
 10
403.228102
 20
790.851056
 30
0.0
 40
1.799999999999993
100
AcDbArc
 50
121.539308
 51
301.539314
  0
ARC
  5
28D
330
1DB
100
AcDbEntity
  8
0
  6
Continuous
 62
     0
370
    30
100
AcDbCircle
 10
403.228102
 20
790.851056
 30
0.0
 40
1.800000000000025
100
AcDbArc
 50
301.539301
 51
121.539308
  0
ARC
  5
28E
330
1DB
100
AcDbEntity
  8
0
  6
Continuous
 62
     0
370
    30
100
AcDbCircle
 10
387.910471
 20
783.691593
 30
0.0
 40
1.800000000000056
100
AcDbArc
 50
111.539308
 51
291.539314
  0
ARC
  5
28F
330
1DB
100
AcDbEntity
  8
0
  6
Continuous
 62
     0
370
    30
100
AcDbCircle
 10
387.910471
 20
783.691593
 30
0.0
 40
1.800000000000006
100
AcDbArc
 50
291.539301
 51
111.539308
  0
ARC
  5
290
330
1DB
100
AcDbEntity
  8
0
  6
Continuous
 62
     0
370
    30
100
AcDbCircle
 10
371.582322
 20
779.300778
 30
0.0
 40
1.79999999999994
100
AcDbArc
 50
101.539308
 51
281.539314
  0
ARC
  5
291
330
1DB
100
AcDbEntity
  8
0
  6
Continuous
 62
     0
370
    30
100
AcDbCircle
 10
371.582322
 20
779.300778
 30
0.0
 40
1.799999999999976
100
AcDbArc
 50
281.539301
 51
101.539308
  0
ARC
  5
292
330
1DB
100
AcDbEntity
  8
0
  6
Continuous
 62
     0
370
    30
100
AcDbCircle
 10
354.739778
 20
777.812022
 30
0.0
 40
1.799999999999933
100
AcDbArc
 50
91.539308
 51
271.539314
  0
ARC
  5
293
330
1DB
100
AcDbEntity
  8
0
  6
Continuous
 62
     0
370
    30
100
AcDbCircle
 10
354.739778
 20
777.812022
 30
0.0
 40
1.800000000000086
100
AcDbArc
 50
271.539301
 51
91.539308
  0
ARC
  5
294
330
1DB
100
AcDbEntity
  8
0
  6
Continuous
 62
     0
370
    30
100
AcDbCircle
 10
337.89459
 20
779.27056
 30
0.0
 40
1.800000000000009
100
AcDbArc
 50
81.539308
 51
261.539314
  0
ARC
  5
295
330
1DB
100
AcDbEntity
  8
0
  6
Continuous
 62
     0
370
    30
100
AcDbCircle
 10
337.89459
 20
779.27056
 30
0.0
 40
1.800000000000002
100
AcDbArc
 50
261.539301
 51
81.539308
  0
ARC
  5
296
330
1DB
100
AcDbEntity
  8
0
  6
Continuous
 62
     0
370
    30
100
AcDbCircle
 10
321.55859
 20
783.632077
 30
0.0
 40
1.800000000000067
100
AcDbArc
 50
71.539308
 51
251.539314
  0
ARC
  5
297
330
1DB
100
AcDbEntity
  8
0
  6
Continuous
 62
     0
370
    30
100
AcDbCircle
 10
321.55859
 20
783.632077
 30
0.0
 40
1.799999999999964
100
AcDbArc
 50
251.539301
 51
71.539308
  0
ARC
  5
298
330
1DB
100
AcDbEntity
  8
0
  6
Continuous
 62
     0
370
    30
100
AcDbCircle
 10
306.228141
 20
790.764049
 30
0.0
 40
1.800000000000055
100
AcDbArc
 50
61.539308
 51
241.539314
  0
ARC
  5
299
330
1DB
100
AcDbEntity
  8
0
  6
Continuous
 62
     0
370
    30
100
AcDbCircle
 10
306.228141
 20
790.764049
 30
0.0
 40
1.800000000000043
100
AcDbArc
 50
241.539301
 51
61.539308
  0
ARC
  5
29A
330
1DB
100
AcDbEntity
  8
0
  6
Continuous
 62
     0
370
    30
100
AcDbCircle
 10
292.369049
 20
800.449775
 30
0.0
 40
1.800000000000032
100
AcDbArc
 50
51.539308
 51
231.539314
  0
ARC
  5
29B
330
1DB
100
AcDbEntity
  8
0
  6
Continuous
 62
     0
370
    30
100
AcDbCircle
 10
292.369049
 20
800.449775
 30
0.0
 40
1.799999999999993
100
AcDbArc
 50
231.539301
 51
51.539308
  0
ARC
  5
29C
330
1DB
100
AcDbEntity
  8
0
  6
Continuous
 62
     0
370
    30
100
AcDbCircle
 10
280.402417
 20
812.394958
 30
0.0
 40
1.799999999999998
100
AcDbArc
 50
41.539308
 51
221.539314
  0
ARC
  5
29D
330
1DB
100
AcDbEntity
  8
0
  6
Continuous
 62
     0
370
    30
100
AcDbCircle
 10
280.402417
 20
812.394958
 30
0.0
 40
1.800000000000032
100
AcDbArc
 50
221.539301
 51
41.539308
  0
ARC
  5
29E
330
1DB
100
AcDbEntity
  8
0
  6
Continuous
 62
     0
370
    30
100
AcDbCircle
 10
270.691844
 20
826.236652
 30
0.0
 40
1.800000000000006
100
AcDbArc
 50
31.539308
 51
211.539314
  0
ARC
  5
29F
330
1DB
100
AcDbEntity
  8
0
  6
Continuous
 62
     0
370
    30
100
AcDbCircle
 10
270.691844
 20
826.236652
 30
0.0
 40
1.800000000000014
100
AcDbArc
 50
211.539301
 51
31.539308
  0
ARC
  5
2A0
330
1DB
100
AcDbEntity
  8
0
  6
Continuous
 62
     0
370
    30
100
AcDbCircle
 10
263.532382
 20
841.554282
 30
0.0
 40
1.800000000000035
100
AcDbArc
 50
21.539308
 51
201.539314
  0
ARC
  5
2A1
330
1DB
100
AcDbEntity
  8
0
  6
Continuous
 62
     0
370
    30
100
AcDbCircle
 10
263.532382
 20
841.554282
 30
0.0
 40
1.800000000000007
100
AcDbArc
 50
201.539301
 51
21.539308
  0
ARC
  5
2A2
330
1DB
100
AcDbEntity
  8
0
  6
Continuous
 62
     0
370
    30
100
AcDbCircle
 10
259.141566
 20
857.882431
 30
0.0
 40
1.800000000000036
100
AcDbArc
 50
11.539308
 51
191.539314
  0
ARC
  5
2A3
330
1DB
100
AcDbEntity
  8
0
  6
Continuous
 62
     0
370
    30
100
AcDbCircle
 10
259.141566
 20
857.882431
 30
0.0
 40
1.800000000000029
100
AcDbArc
 50
191.539301
 51
11.539308
  0
ARC
  5
2A4
330
1DB
100
AcDbEntity
  8
0
  6
Continuous
 62
     0
370
    30
100
AcDbCircle
 10
257.65281
 20
874.724976
 30
0.0
 40
1.80000000000001
100
AcDbArc
 50
1.539308
 51
181.539314
  0
ARC
  5
2A5
330
1DB
100
AcDbEntity
  8
0
  6
Continuous
 62
     0
370
    30
100
AcDbCircle
 10
257.65281
 20
874.724976
 30
0.0
 40
1.800000000000022
100
AcDbArc
 50
181.539301
 51
1.539308
  0
ARC
  5
2A6
330
1DB
100
AcDbEntity
  8
0
  6
Continuous
 62
     0
370
    30
100
AcDbCircle
 10
259.111349
 20
891.570164
 30
0.0
 40
1.800000000000008
100
AcDbArc
 50
351.539308
 51
171.539314
  0
ARC
  5
2A7
330
1DB
100
AcDbEntity
  8
0
  6
Continuous
 62
     0
370
    30
100
AcDbCircle
 10
259.111349
 20
891.570164
 30
0.0
 40
1.800000000000018
100
AcDbArc
 50
171.539301
 51
351.539308
  0
ARC
  5
2A8
330
1DB
100
AcDbEntity
  8
0
  6
Continuous
 62
     0
370
    30
100
AcDbCircle
 10
263.472865
 20
907.906163
 30
0.0
 40
1.800000000000021
100
AcDbArc
 50
341.539308
 51
161.539314
  0
ARC
  5
2A9
330
1DB
100
AcDbEntity
  8
0
  6
Continuous
 62
     0
370
    30
100
AcDbCircle
 10
263.472865
 20
907.906163
 30
0.0
 40
1.800000000000019
100
AcDbArc
 50
161.539301
 51
341.539308
  0
ARC
  5
2AA
330
1DB
100
AcDbEntity
  8
0
  6
Continuous
 62
     0
370
    30
100
AcDbCircle
 10
270.604837
 20
923.236613
 30
0.0
 40
1.800000000000026
100
AcDbArc
 50
331.539308
 51
151.539314
  0
ARC
  5
2AB
330
1DB
100
AcDbEntity
  8
0
  6
Continuous
 62
     0
370
    30
100
AcDbCircle
 10
270.604837
 20
923.236613
 30
0.0
 40
1.800000000000001
100
AcDbArc
 50
151.539301
 51
331.539308
  0
ARC
  5
2AC
330
1DB
100
AcDbEntity
  8
0
  6
Continuous
 62
     0
370
    30
100
AcDbCircle
 10
280.290563
 20
937.095704
 30
0.0
 40
1.800000000000032
100
AcDbArc
 50
321.539308
 51
141.539314
  0
ARC
  5
2AD
330
1DB
100
AcDbEntity
  8
0
  6
Continuous
 62
     0
370
    30
100
AcDbCircle
 10
280.290563
 20
937.095704
 30
0.0
 40
1.80000000000006
100
AcDbArc
 50
141.539301
 51
321.539308
  0
ARC
  5
2AE
330
1DB
100
AcDbEntity
  8
0
  6
Continuous
 62
     0
370
    30
100
AcDbCircle
 10
292.235747
 20
949.062337
 30
0.0
 40
1.800000000000028
100
AcDbArc
 50
311.539308
 51
131.539314
  0
ARC
  5
2AF
330
1DB
100
AcDbEntity
  8
0
  6
Continuous
 62
     0
370
    30
100
AcDbCircle
 10
292.235747
 20
949.062337
 30
0.0
 40
1.800000000000006
100
AcDbArc
 50
131.539301
 51
311.539308
  0
ARC
  5
2B0
330
1DB
100
AcDbEntity
  8
0
  6
Continuous
 62
     0
370
    30
100
AcDbCircle
 10
306.07744
 20
958.772909
 30
0.0
 40
1.800000000000042
100
AcDbArc
 50
301.539308
 51
121.539314
  0
ARC
  5
2B1
330
1DB
100
AcDbEntity
  8
0
  6
Continuous
 62
     0
370
    30
100
AcDbCircle
 10
306.07744
 20
958.772909
 30
0.0
 40
1.800000000000001
100
AcDbArc
 50
121.539301
 51
301.539308
  0
ARC
  5
2B2
330
1DB
100
AcDbEntity
  8
0
  6
Continuous
 62
     0
370
    30
100
AcDbCircle
 10
321.395071
 20
965.932372
 30
0.0
 40
1.799999999999975
100
AcDbArc
 50
291.539308
 51
111.539314
  0
ARC
  5
2B3
330
1DB
100
AcDbEntity
  8
0
  6
Continuous
 62
     0
370
    30
100
AcDbCircle
 10
321.395071
 20
965.932372
 30
0.0
 40
1.800000000000031
100
AcDbArc
 50
111.539301
 51
291.539308
  0
ARC
  5
2B4
330
1DB
100
AcDbEntity
  8
0
  6
Continuous
 62
     0
370
    30
100
AcDbCircle
 10
337.72322
 20
970.323188
 30
0.0
 40
1.799999999999997
100
AcDbArc
 50
281.539308
 51
101.539314
  0
ARC
  5
2B5
330
1DB
100
AcDbEntity
  8
0
  6
Continuous
 62
     0
370
    30
100
AcDbCircle
 10
337.72322
 20
970.323188
 30
0.0
 40
1.800000000000032
100
AcDbArc
 50
101.539301
 51
281.539308
  0
ARC
  5
2B6
330
1DB
100
AcDbEntity
  8
0
  6
Continuous
 62
     0
370
    30
100
AcDbCircle
 10
354.565764
 20
971.811943
 30
0.0
 40
1.800000000000018
100
AcDbArc
 50
271.539308
 51
91.539314
  0
ARC
  5
2B7
330
1DB
100
AcDbEntity
  8
0
  6
Continuous
 62
     0
370
    30
100
AcDbCircle
 10
354.565764
 20
971.811943
 30
0.0
 40
1.800000000000001
100
AcDbArc
 50
91.539301
 51
271.539308
  0
ARC
  5
2B8
330
1DB
100
AcDbEntity
  8
0
  6
Continuous
 62
     0
370
    30
100
AcDbCircle
 10
371.410952
 20
970.353405
 30
0.0
 40
1.800000000000009
100
AcDbArc
 50
261.539308
 51
81.539314
  0
ARC
  5
2B9
330
1DB
100
AcDbEntity
  8
0
  6
Continuous
 62
     0
370
    30
100
AcDbCircle
 10
371.410952
 20
970.353405
 30
0.0
 40
1.799999999999972
100
AcDbArc
 50
81.539301
 51
261.539308
  0
ARC
  5
2BA
330
1DB
100
AcDbEntity
  8
0
  6
Continuous
 62
     0
370
    30
100
AcDbCircle
 10
387.746952
 20
965.991888
 30
0.0
 40
1.800000000000012
100
AcDbArc
 50
251.539308
 51
71.539314
  0
ARC
  5
2BB
330
1DB
100
AcDbEntity
  8
0
  6
Continuous
 62
     0
370
    30
100
AcDbCircle
 10
387.746952
 20
965.991888
 30
0.0
 40
1.80000000000007
100
AcDbArc
 50
71.539301
 51
251.539308
  0
ARC
  5
2BC
330
1DB
100
AcDbEntity
  8
0
  6
Continuous
 62
     0
370
    30
100
AcDbCircle
 10
403.077401
 20
958.859916
 30
0.0
 40
1.800000000000003
100
AcDbArc
 50
241.539308
 51
61.539314
  0
ARC
  5
2BD
330
1DB
100
AcDbEntity
  8
0
  6
Continuous
 62
     0
370
    30
100
AcDbCircle
 10
403.077401
 20
958.859916
 30
0.0
 40
1.799999999999994
100
AcDbArc
 50
61.539301
 51
241.539308
  0
ARC
  5
2BE
330
1DB
100
AcDbEntity
  8
0
  6
Continuous
 62
     0
370
    30
100
AcDbCircle
 10
416.936493
 20
949.17419
 30
0.0
 40
1.800000000000014
100
AcDbArc
 50
231.539308
 51
51.539314
  0
ARC
  5
2BF
330
1DB
100
AcDbEntity
  8
0
  6
Continuous
 62
     0
370
    30
100
AcDbCircle
 10
416.936493
 20
949.17419
 30
0.0
 40
1.800000000000015
100
AcDbArc
 50
51.539301
 51
231.539308
  0
ARC
  5
2C0
330
1DB
100
AcDbEntity
  8
0
  6
Continuous
 62
     0
370
    30
100
AcDbCircle
 10
428.903125
 20
937.229007
 30
0.0
 40
1.800000000000035
100
AcDbArc
 50
221.539308
 51
41.539314
  0
ARC
  5
2C1
330
1DB
100
AcDbEntity
  8
0
  6
Continuous
 62
     0
370
    30
100
AcDbCircle
 10
428.903125
 20
937.229007
 30
0.0
 40
1.800000000000013
100
AcDbArc
 50
41.539301
 51
221.539308
  0
ARC
  5
2C2
330
1DB
100
AcDbEntity
  8
0
  6
Continuous
 62
     0
370
    30
100
AcDbCircle
 10
438.613698
 20
923.387313
 30
0.0
 40
1.800000000000039
100
AcDbArc
 50
211.539308
 51
31.539314
  0
ARC
  5
2C3
330
1DB
100
AcDbEntity
  8
0
  6
Continuous
 62
     0
370
    30
100
AcDbCircle
 10
438.613698
 20
923.387313
 30
0.0
 40
1.800000000000044
100
AcDbArc
 50
31.539301
 51
211.539308
  0
ARC
  5
2C4
330
1DB
100
AcDbEntity
  8
0
  6
Continuous
 62
     0
370
    30
100
AcDbCircle
 10
445.77316
 20
908.069683
 30
0.0
 40
1.800000000000039
100
AcDbArc
 50
201.539308
 51
21.539314
  0
ARC
  5
2C5
330
1DB
100
AcDbEntity
  8
0
  6
Continuous
 62
     0
370
    30
100
AcDbCircle
 10
445.77316
 20
908.069683
 30
0.0
 40
1.800000000000035
100
AcDbArc
 50
21.539301
 51
201.539308
  0
ARC
  5
2C6
330
1DB
100
AcDbEntity
  8
0
  6
Continuous
 62
     0
370
    30
100
AcDbCircle
 10
450.163976
 20
891.741534
 30
0.0
 40
1.800000000000031
100
AcDbArc
 50
191.539308
 51
11.539314
  0
ARC
  5
2C7
330
1DB
100
AcDbEntity
  8
0
  6
Continuous
 62
     0
370
    30
100
AcDbCircle
 10
450.163976
 20
891.741534
 30
0.0
 40
1.800000000000022
100
AcDbArc
 50
11.539301
 51
191.539308
  0
ARC
  5
2C8
330
1DB
100
AcDbEntity
  8
0
  6
Continuous
 62
     0
370
    30
100
AcDbCircle
 10
432.621764
 20
903.269602
 30
0.0
 40
1.799999999999999
100
AcDbArc
 50
202.24327
 51
22.243277
  0
ARC
  5
2C9
330
1DB
100
AcDbEntity
  8
0
  6
Continuous
 62
     0
370
    30
100
AcDbCircle
 10
432.621764
 20
903.269602
 30
0.0
 40
1.80000000000003
100
AcDbArc
 50
22.243264
 51
202.24327
  0
ARC
  5
2CA
330
1DB
100
AcDbEntity
  8
0
  6
Continuous
 62
     0
370
    30
100
AcDbCircle
 10
436.378854
 20
889.298094
 30
0.0
 40
1.800000000000011
100
AcDbArc
 50
192.24327
 51
12.243277
  0
ARC
  5
2CB
330
1DB
100
AcDbEntity
  8
0
  6
Continuous
 62
     0
370
    30
100
AcDbCircle
 10
436.378854
 20
889.298094
 30
0.0
 40
1.800000000000015
100
AcDbArc
 50
12.243264
 51
192.24327
  0
ARC
  5
2CC
330
1DB
100
AcDbEntity
  8
0
  6
Continuous
 62
     0
370
    30
100
AcDbCircle
 10
436.40471
 20
860.472508
 30
0.0
 40
1.799999999999997
100
AcDbArc
 50
172.24327
 51
352.243277
  0
ARC
  5
2CD
330
1DB
100
AcDbEntity
  8
0
  6
Continuous
 62
     0
370
    30
100
AcDbCircle
 10
436.40471
 20
860.472508
 30
0.0
 40
1.800000000000026
100
AcDbArc
 50
352.243264
 51
172.24327
  0
ARC
  5
2CE
330
1DB
100
AcDbEntity
  8
0
  6
Continuous
 62
     0
370
    30
100
AcDbCircle
 10
432.67269
 20
846.494281
 30
0.0
 40
1.799999999999998
100
AcDbArc
 50
162.24327
 51
342.243277
  0
ARC
  5
2CF
330
1DB
100
AcDbEntity
  8
0
  6
Continuous
 62
     0
370
    30
100
AcDbCircle
 10
432.67269
 20
846.494281
 30
0.0
 40
1.800000000000016
100
AcDbArc
 50
342.243264
 51
162.24327
  0
ARC
  5
2D0
330
1DB
100
AcDbEntity
  8
0
  6
Continuous
 62
     0
370
    30
100
AcDbCircle
 10
426.570075
 20
833.376474
 30
0.0
 40
1.800000000000037
100
AcDbArc
 50
152.24327
 51
332.243277
  0
ARC
  5
2D1
330
1DB
100
AcDbEntity
  8
0
  6
Continuous
 62
     0
370
    30
100
AcDbCircle
 10
426.570075
 20
833.376474
 30
0.0
 40
1.800000000000026
100
AcDbArc
 50
332.243264
 51
152.24327
  0
ARC
  5
2D2
330
1DB
100
AcDbEntity
  8
0
  6
Continuous
 62
     0
370
    30
100
AcDbCircle
 10
418.282289
 20
821.517664
 30
0.0
 40
1.800000000000002
100
AcDbArc
 50
142.24327
 51
322.243277
  0
ARC
  5
2D3
330
1DB
100
AcDbEntity
  8
0
  6
Continuous
 62
     0
370
    30
100
AcDbCircle
 10
418.282289
 20
821.517664
 30
0.0
 40
1.799999999999981
100
AcDbArc
 50
322.243264
 51
142.24327
  0
ARC
  5
2D4
330
1DB
100
AcDbEntity
  8
0
  6
Continuous
 62
     0
370
    30
100
AcDbCircle
 10
408.061152
 20
811.278174
 30
0.0
 40
1.799999999999969
100
AcDbArc
 50
132.24327
 51
312.243277
  0
ARC
  5
2D5
330
1DB
100
AcDbEntity
  8
0
  6
Continuous
 62
     0
370
    30
100
AcDbCircle
 10
408.061152
 20
811.278174
 30
0.0
 40
1.799999999999988
100
AcDbArc
 50
312.243264
 51
132.24327
  0
ARC
  5
2D6
330
1DB
100
AcDbEntity
  8
0
  6
Continuous
 62
     0
370
    30
100
AcDbCircle
 10
396.217229
 20
802.969128
 30
0.0
 40
1.799999999999985
100
AcDbArc
 50
122.24327
 51
302.243277
  0
ARC
  5
2D7
330
1DB
100
AcDbEntity
  8
0
  6
Continuous
 62
     0
370
    30
100
AcDbCircle
 10
396.217229
 20
802.969128
 30
0.0
 40
1.799999999999988
100
AcDbArc
 50
302.243264
 51
122.24327
  0
ARC
  5
2D8
330
1DB
100
AcDbEntity
  8
0
  6
Continuous
 62
     0
370
    30
100
AcDbCircle
 10
383.110391
 20
796.84299
 30
0.0
 40
1.800000000000036
100
AcDbArc
 50
112.24327
 51
292.243277
  0
ARC
  5
2D9
330
1DB
100
AcDbEntity
  8
0
  6
Continuous
 62
     0
370
    30
100
AcDbCircle
 10
383.110391
 20
796.84299
 30
0.0
 40
1.800000000000034
100
AcDbArc
 50
292.243264
 51
112.24327
  0
ARC
  5
2DA
330
1DB
100
AcDbEntity
  8
0
  6
Continuous
 62
     0
370
    30
100
AcDbCircle
 10
369.138882
 20
793.0859
 30
0.0
 40
1.800000000000033
100
AcDbArc
 50
102.24327
 51
282.243277
  0
ARC
  5
2DB
330
1DB
100
AcDbEntity
  8
0
  6
Continuous
 62
     0
370
    30
100
AcDbCircle
 10
369.138882
 20
793.0859
 30
0.0
 40
1.799999999999932
100
AcDbArc
 50
282.243264
 51
102.24327
  0
ARC
  5
2DC
330
1DB
100
AcDbEntity
  8
0
  6
Continuous
 62
     0
370
    30
100
AcDbCircle
 10
354.72722
 20
791.812016
 30
0.0
 40
1.799999999999994
100
AcDbArc
 50
92.24327
 51
272.243277
  0
ARC
  5
2DD
330
1DB
100
AcDbEntity
  8
0
  6
Continuous
 62
     0
370
    30
100
AcDbCircle
 10
354.72722
 20
791.812016
 30
0.0
 40
1.799999999999912
100
AcDbArc
 50
272.243264
 51
92.24327
  0
ARC
  5
2DE
330
1DB
100
AcDbEntity
  8
0
  6
Continuous
 62
     0
370
    30
100
AcDbCircle
 10
340.313296
 20
793.060044
 30
0.0
 40
1.799999999999978
100
AcDbArc
 50
82.24327
 51
262.243277
  0
ARC
  5
2DF
330
1DB
100
AcDbEntity
  8
0
  6
Continuous
 62
     0
370
    30
100
AcDbCircle
 10
340.313296
 20
793.060044
 30
0.0
 40
1.799999999999968
100
AcDbArc
 50
262.243264
 51
82.24327
  0
ARC
  5
2E0
330
1DB
100
AcDbEntity
  8
0
  6
Continuous
 62
     0
370
    30
100
AcDbCircle
 10
326.33507
 20
796.792063
 30
0.0
 40
1.799999999999998
100
AcDbArc
 50
72.24327
 51
252.243277
  0
ARC
  5
2E1
330
1DB
100
AcDbEntity
  8
0
  6
Continuous
 62
     0
370
    30
100
AcDbCircle
 10
326.33507
 20
796.792063
 30
0.0
 40
1.800000000000013
100
AcDbArc
 50
252.243264
 51
72.24327
  0
ARC
  5
2E2
330
1DB
100
AcDbEntity
  8
0
  6
Continuous
 62
     0
370
    30
100
AcDbCircle
 10
313.217263
 20
802.894678
 30
0.0
 40
1.799999999999998
100
AcDbArc
 50
62.24327
 51
242.243277
  0
ARC
  5
2E3
330
1DB
100
AcDbEntity
  8
0
  6
Continuous
 62
     0
370
    30
100
AcDbCircle
 10
313.217263
 20
802.894678
 30
0.0
 40
1.799999999999993
100
AcDbArc
 50
242.243264
 51
62.24327
  0
ARC
  5
2E4
330
1DB
100
AcDbEntity
  8
0
  6
Continuous
 62
     0
370
    30
100
AcDbCircle
 10
301.358452
 20
811.182464
 30
0.0
 40
1.8
100
AcDbArc
 50
52.24327
 51
232.243277
  0
ARC
  5
2E5
330
1DB
100
AcDbEntity
  8
0
  6
Continuous
 62
     0
370
    30
100
AcDbCircle
 10
301.358452
 20
811.182464
 30
0.0
 40
1.799999999999985
100
AcDbArc
 50
232.243264
 51
52.24327
  0
ARC
  5
2E6
330
1DB
100
AcDbEntity
  8
0
  6
Continuous
 62
     0
370
    30
100
AcDbCircle
 10
291.118963
 20
821.403601
 30
0.0
 40
1.800000000000027
100
AcDbArc
 50
42.24327
 51
222.243277
  0
ARC
  5
2E7
330
1DB
100
AcDbEntity
  8
0
  6
Continuous
 62
     0
370
    30
100
AcDbCircle
 10
291.118963
 20
821.403601
 30
0.0
 40
1.799999999999975
100
AcDbArc
 50
222.243264
 51
42.24327
  0
ARC
  5
2E8
330
1DB
100
AcDbEntity
  8
0
  6
Continuous
 62
     0
370
    30
100
AcDbCircle
 10
282.809916
 20
833.247524
 30
0.0
 40
1.799999999999958
100
AcDbArc
 50
32.24327
 51
212.243277
  0
ARC
  5
2E9
330
1DB
100
AcDbEntity
  8
0
  6
Continuous
 62
     0
370
    30
100
AcDbCircle
 10
282.809916
 20
833.247524
 30
0.0
 40
1.799999999999968
100
AcDbArc
 50
212.243264
 51
32.24327
  0
ARC
  5
2EA
330
1DB
100
AcDbEntity
  8
0
  6
Continuous
 62
     0
370
    30
100
AcDbCircle
 10
276.683778
 20
846.354363
 30
0.0
 40
1.800000000000023
100
AcDbArc
 50
22.24327
 51
202.243277
  0
ARC
  5
2EB
330
1DB
100
AcDbEntity
  8
0
  6
Continuous
 62
     0
370
    30
100
AcDbCircle
 10
276.683778
 20
846.354363
 30
0.0
 40
1.799999999999998
100
AcDbArc
 50
202.243264
 51
22.24327
  0
ARC
  5
2EC
330
1DB
100
AcDbEntity
  8
0
  6
Continuous
 62
     0
370
    30
100
AcDbCircle
 10
272.926688
 20
860.325871
 30
0.0
 40
1.800000000000018
100
AcDbArc
 50
12.24327
 51
192.243277
  0
ARC
  5
2ED
330
1DB
100
AcDbEntity
  8
0
  6
Continuous
 62
     0
370
    30
100
AcDbCircle
 10
272.926688
 20
860.325871
 30
0.0
 40
1.799999999999995
100
AcDbArc
 50
192.243264
 51
12.24327
  0
ARC
  5
2EE
330
1DB
100
AcDbEntity
  8
0
  6
Continuous
 62
     0
370
    30
100
AcDbCircle
 10
271.652804
 20
874.737533
 30
0.0
 40
1.800000000000004
100
AcDbArc
 50
2.24327
 51
182.243277
  0
ARC
  5
2EF
330
1DB
100
AcDbEntity
  8
0
  6
Continuous
 62
     0
370
    30
100
AcDbCircle
 10
271.652804
 20
874.737533
 30
0.0
 40
1.800000000000009
100
AcDbArc
 50
182.243264
 51
2.24327
  0
ARC
  5
2F0
330
1DB
100
AcDbEntity
  8
0
  6
Continuous
 62
     0
370
    30
100
AcDbCircle
 10
272.900832
 20
889.151457
 30
0.0
 40
1.8
100
AcDbArc
 50
352.24327
 51
172.243277
  0
ARC
  5
2F1
330
1DB
100
AcDbEntity
  8
0
  6
Continuous
 62
     0
370
    30
100
AcDbCircle
 10
272.900832
 20
889.151457
 30
0.0
 40
1.800000000000004
100
AcDbArc
 50
172.243264
 51
352.24327
  0
ARC
  5
2F2
330
1DB
100
AcDbEntity
  8
0
  6
Continuous
 62
     0
370
    30
100
AcDbCircle
 10
276.632852
 20
903.129684
 30
0.0
 40
1.800000000000009
100
AcDbArc
 50
342.24327
 51
162.243277
  0
ARC
  5
2F3
330
1DB
100
AcDbEntity
  8
0
  6
Continuous
 62
     0
370
    30
100
AcDbCircle
 10
276.632852
 20
903.129684
 30
0.0
 40
1.799999999999997
100
AcDbArc
 50
162.243264
 51
342.24327
  0
ARC
  5
2F4
330
1DB
100
AcDbEntity
  8
0
  6
Continuous
 62
     0
370
    30
100
AcDbCircle
 10
282.735467
 20
916.247491
 30
0.0
 40
1.800000000000018
100
AcDbArc
 50
332.24327
 51
152.243277
  0
ARC
  5
2F5
330
1DB
100
AcDbEntity
  8
0
  6
Continuous
 62
     0
370
    30
100
AcDbCircle
 10
282.735467
 20
916.247491
 30
0.0
 40
1.800000000000026
100
AcDbArc
 50
152.243264
 51
332.24327
  0
ARC
  5
2F6
330
1DB
100
AcDbEntity
  8
0
  6
Continuous
 62
     0
370
    30
100
AcDbCircle
 10
291.023253
 20
928.106301
 30
0.0
 40
1.800000000000022
100
AcDbArc
 50
322.24327
 51
142.243277
  0
ARC
  5
2F7
330
1DB
100
AcDbEntity
  8
0
  6
Continuous
 62
     0
370
    30
100
AcDbCircle
 10
291.023253
 20
928.106301
 30
0.0
 40
1.799999999999998
100
AcDbArc
 50
142.243264
 51
322.24327
  0
ARC
  5
2F8
330
1DB
100
AcDbEntity
  8
0
  6
Continuous
 62
     0
370
    30
100
AcDbCircle
 10
301.24439
 20
938.345791
 30
0.0
 40
1.80000000000002
100
AcDbArc
 50
312.24327
 51
132.243277
  0
ARC
  5
2F9
330
1DB
100
AcDbEntity
  8
0
  6
Continuous
 62
     0
370
    30
100
AcDbCircle
 10
301.24439
 20
938.345791
 30
0.0
 40
1.800000000000034
100
AcDbArc
 50
132.243264
 51
312.24327
  0
ARC
  5
2FA
330
1DB
100
AcDbEntity
  8
0
  6
Continuous
 62
     0
370
    30
100
AcDbCircle
 10
313.088313
 20
946.654837
 30
0.0
 40
1.800000000000071
100
AcDbArc
 50
302.24327
 51
122.243277
  0
ARC
  5
2FB
330
1DB
100
AcDbEntity
  8
0
  6
Continuous
 62
     0
370
    30
100
AcDbCircle
 10
313.088313
 20
946.654837
 30
0.0
 40
1.800000000000013
100
AcDbArc
 50
122.243264
 51
302.24327
  0
ARC
  5
2FC
330
1DB
100
AcDbEntity
  8
0
  6
Continuous
 62
     0
370
    30
100
AcDbCircle
 10
326.195151
 20
952.780976
 30
0.0
 40
1.800000000000014
100
AcDbArc
 50
292.24327
 51
112.243277
  0
ARC
  5
2FD
330
1DB
100
AcDbEntity
  8
0
  6
Continuous
 62
     0
370
    30
100
AcDbCircle
 10
326.195151
 20
952.780976
 30
0.0
 40
1.800000000000029
100
AcDbArc
 50
112.243264
 51
292.24327
  0
ARC
  5
2FE
330
1DB
100
AcDbEntity
  8
0
  6
Continuous
 62
     0
370
    30
100
AcDbCircle
 10
340.16666
 20
956.538065
 30
0.0
 40
1.800000000000006
100
AcDbArc
 50
282.24327
 51
102.243277
  0
ARC
  5
2FF
330
1DB
100
AcDbEntity
  8
0
  6
Continuous
 62
     0
370
    30
100
AcDbCircle
 10
340.16666
 20
956.538065
 30
0.0
 40
1.800000000000015
100
AcDbArc
 50
102.243264
 51
282.24327
  0
ARC
  5
300
330
1DB
100
AcDbEntity
  8
0
  6
Continuous
 62
     0
370
    30
100
AcDbCircle
 10
354.578322
 20
957.811949
 30
0.0
 40
1.799999999999994
100
AcDbArc
 50
272.24327
 51
92.243277
  0
ARC
  5
301
330
1DB
100
AcDbEntity
  8
0
  6
Continuous
 62
     0
370
    30
100
AcDbCircle
 10
354.578322
 20
957.811949
 30
0.0
 40
1.800000000000026
100
AcDbArc
 50
92.243264
 51
272.24327
  0
ARC
  5
302
330
1DB
100
AcDbEntity
  8
0
  6
Continuous
 62
     0
370
    30
100
AcDbCircle
 10
368.992246
 20
956.563921
 30
0.0
 40
1.800000000000034
100
AcDbArc
 50
262.24327
 51
82.243277
  0
ARC
  5
303
330
1DB
100
AcDbEntity
  8
0
  6
Continuous
 62
     0
370
    30
100
AcDbCircle
 10
368.992246
 20
956.563921
 30
0.0
 40
1.800000000000025
100
AcDbArc
 50
82.243264
 51
262.24327
  0
ARC
  5
304
330
1DB
100
AcDbEntity
  8
0
  6
Continuous
 62
     0
370
    30
100
AcDbCircle
 10
382.970472
 20
952.831902
 30
0.0
 40
1.800000000000061
100
AcDbArc
 50
252.24327
 51
72.243277
  0
ARC
  5
305
330
1DB
100
AcDbEntity
  8
0
  6
Continuous
 62
     0
370
    30
100
AcDbCircle
 10
382.970472
 20
952.831902
 30
0.0
 40
1.800000000000009
100
AcDbArc
 50
72.243264
 51
252.24327
  0
ARC
  5
306
330
1DB
100
AcDbEntity
  8
0
  6
Continuous
 62
     0
370
    30
100
AcDbCircle
 10
396.088279
 20
946.729287
 30
0.0
 40
1.800000000000018
100
AcDbArc
 50
242.24327
 51
62.243277
  0
ARC
  5
307
330
1DB
100
AcDbEntity
  8
0
  6
Continuous
 62
     0
370
    30
100
AcDbCircle
 10
396.088279
 20
946.729287
 30
0.0
 40
1.80000000000005
100
AcDbArc
 50
62.243264
 51
242.24327
  0
ARC
  5
308
330
1DB
100
AcDbEntity
  8
0
  6
Continuous
 62
     0
370
    30
100
AcDbCircle
 10
407.94709
 20
938.441501
 30
0.0
 40
1.800000000000002
100
AcDbArc
 50
232.24327
 51
52.243277
  0
ARC
  5
309
330
1DB
100
AcDbEntity
  8
0
  6
Continuous
 62
     0
370
    30
100
AcDbCircle
 10
407.94709
 20
938.441501
 30
0.0
 40
1.799999999999969
100
AcDbArc
 50
52.243264
 51
232.24327
  0
ARC
  5
30A
330
1DB
100
AcDbEntity
  8
0
  6
Continuous
 62
     0
370
    30
100
AcDbCircle
 10
418.186579
 20
928.220364
 30
0.0
 40
1.800000000000044
100
AcDbArc
 50
222.24327
 51
42.243277
  0
ARC
  5
30B
330
1DB
100
AcDbEntity
  8
0
  6
Continuous
 62
     0
370
    30
100
AcDbCircle
 10
418.186579
 20
928.220364
 30
0.0
 40
1.800000000000014
100
AcDbArc
 50
42.243264
 51
222.24327
  0
ARC
  5
30C
330
1DB
100
AcDbEntity
  8
0
  6
Continuous
 62
     0
370
    30
100
AcDbCircle
 10
419.512704
 20
851.270761
 30
0.0
 40
1.799999999999991
100
AcDbArc
 50
163.760537
 51
343.760544
  0
ARC
  5
30D
330
1DB
100
AcDbEntity
  8
0
  6
Continuous
 62
     0
370
    30
100
AcDbCircle
 10
419.512704
 20
851.270761
 30
0.0
 40
1.799999999999981
100
AcDbArc
 50
343.760531
 51
163.760537
  0
ARC
  5
30E
330
1DB
100
AcDbEntity
  8
0
  6
Continuous
 62
     0
370
    30
100
AcDbCircle
 10
407.549599
 20
830.507067
 30
0.0
 40
1.800000000000021
100
AcDbArc
 50
143.760537
 51
323.760544
  0
ARC
  5
30F
330
1DB
100
AcDbEntity
  8
0
  6
Continuous
 62
     0
370
    30
100
AcDbCircle
 10
407.549599
 20
830.507067
 30
0.0
 40
1.799999999999996
100
AcDbArc
 50
323.760531
 51
143.760537
  0
ARC
  5
310
330
1DB
100
AcDbEntity
  8
0
  6
Continuous
 62
     0
370
    30
100
AcDbCircle
 10
389.206357
 20
815.087199
 30
0.0
 40
1.799999999999975
100
AcDbArc
 50
123.760537
 51
303.760544
  0
ARC
  5
311
330
1DB
100
AcDbEntity
  8
0
  6
Continuous
 62
     0
370
    30
100
AcDbCircle
 10
389.206357
 20
815.087199
 30
0.0
 40
1.800000000000062
100
AcDbArc
 50
303.760531
 51
123.760537
  0
ARC
  5
312
330
1DB
100
AcDbEntity
  8
0
  6
Continuous
 62
     0
370
    30
100
AcDbCircle
 10
366.695442
 20
806.871022
 30
0.0
 40
1.800000000000053
100
AcDbArc
 50
103.760537
 51
283.760544
  0
ARC
  5
313
330
1DB
100
AcDbEntity
  8
0
  6
Continuous
 62
     0
370
    30
100
AcDbCircle
 10
366.695442
 20
806.871022
 30
0.0
 40
1.800000000000076
100
AcDbArc
 50
283.760531
 51
103.760537
  0
ARC
  5
314
330
1DB
100
AcDbEntity
  8
0
  6
Continuous
 62
     0
370
    30
100
AcDbCircle
 10
342.732003
 20
806.849528
 30
0.0
 40
1.8
100
AcDbArc
 50
83.760537
 51
263.760544
  0
ARC
  5
315
330
1DB
100
AcDbEntity
  8
0
  6
Continuous
 62
     0
370
    30
100
AcDbCircle
 10
342.732003
 20
806.849528
 30
0.0
 40
1.799999999999981
100
AcDbArc
 50
263.760531
 51
83.760537
  0
ARC
  5
316
330
1DB
100
AcDbEntity
  8
0
  6
Continuous
 62
     0
370
    30
100
AcDbCircle
 10
320.206384
 20
815.025308
 30
0.0
 40
1.799999999999911
100
AcDbArc
 50
63.760537
 51
243.760544
  0
ARC
  5
317
330
1DB
100
AcDbEntity
  8
0
  6
Continuous
 62
     0
370
    30
100
AcDbCircle
 10
320.206384
 20
815.025308
 30
0.0
 40
1.799999999999962
100
AcDbArc
 50
243.760531
 51
63.760537
  0
ARC
  5
318
330
1DB
100
AcDbEntity
  8
0
  6
Continuous
 62
     0
370
    30
100
AcDbCircle
 10
301.835509
 20
830.412244
 30
0.0
 40
1.799999999999961
100
AcDbArc
 50
43.760537
 51
223.760544
  0
ARC
  5
319
330
1DB
100
AcDbEntity
  8
0
  6
Continuous
 62
     0
370
    30
100
AcDbCircle
 10
301.835509
 20
830.412244
 30
0.0
 40
1.80000000000002
100
AcDbArc
 50
223.760531
 51
43.760537
  0
ARC
  5
31A
330
1DB
100
AcDbEntity
  8
0
  6
Continuous
 62
     0
370
    30
100
AcDbCircle
 10
289.835174
 20
851.154443
 30
0.0
 40
1.799999999999997
100
AcDbArc
 50
23.760537
 51
203.760544
  0
ARC
  5
31B
330
1DB
100
AcDbEntity
  8
0
  6
Continuous
 62
     0
370
    30
100
AcDbCircle
 10
289.835174
 20
851.154443
 30
0.0
 40
1.799999999999963
100
AcDbArc
 50
203.760531
 51
23.760537
  0
ARC
  5
31C
330
1DB
100
AcDbEntity
  8
0
  6
Continuous
 62
     0
370
    30
100
AcDbCircle
 10
285.652799
 20
874.750091
 30
0.0
 40
1.799999999999999
100
AcDbArc
 50
3.760537
 51
183.760544
  0
ARC
  5
31D
330
1DB
100
AcDbEntity
  8
0
  6
Continuous
 62
     0
370
    30
100
AcDbCircle
 10
285.652799
 20
874.750091
 30
0.0
 40
1.799999999999998
100
AcDbArc
 50
183.760531
 51
3.760537
  0
ARC
  5
31E
330
1DB
100
AcDbEntity
  8
0
  6
Continuous
 62
     0
370
    30
100
AcDbCircle
 10
289.792838
 20
898.353204
 30
0.0
 40
1.799999999999987
100
AcDbArc
 50
343.760537
 51
163.760544
  0
ARC
  5
31F
330
1DB
100
AcDbEntity
  8
0
  6
Continuous
 62
     0
370
    30
100
AcDbCircle
 10
289.792838
 20
898.353204
 30
0.0
 40
1.799999999999989
100
AcDbArc
 50
163.760531
 51
343.760537
  0
ARC
  5
320
330
1DB
100
AcDbEntity
  8
0
  6
Continuous
 62
     0
370
    30
100
AcDbCircle
 10
301.755943
 20
919.116898
 30
0.0
 40
1.799999999999987
100
AcDbArc
 50
323.760537
 51
143.760544
  0
ARC
  5
321
330
1DB
100
AcDbEntity
  8
0
  6
Continuous
 62
     0
370
    30
100
AcDbCircle
 10
301.755943
 20
919.116898
 30
0.0
 40
1.80000000000003
100
AcDbArc
 50
143.760531
 51
323.760537
  0
ARC
  5
322
330
1DB
100
AcDbEntity
  8
0
  6
Continuous
 62
     0
370
    30
100
AcDbCircle
 10
320.099185
 20
934.536766
 30
0.0
 40
1.80000000000002
100
AcDbArc
 50
303.760537
 51
123.760544
  0
ARC
  5
323
330
1DB
100
AcDbEntity
  8
0
  6
Continuous
 62
     0
370
    30
100
AcDbCircle
 10
320.099185
 20
934.536766
 30
0.0
 40
1.799999999999964
100
AcDbArc
 50
123.760531
 51
303.760537
  0
ARC
  5
324
330
1DB
100
AcDbEntity
  8
0
  6
Continuous
 62
     0
370
    30
100
AcDbCircle
 10
342.6101
 20
942.752943
 30
0.0
 40
1.800000000000051
100
AcDbArc
 50
283.760537
 51
103.760544
  0
ARC
  5
325
330
1DB
100
AcDbEntity
  8
0
  6
Continuous
 62
     0
370
    30
100
AcDbCircle
 10
342.6101
 20
942.752943
 30
0.0
 40
1.799999999999967
100
AcDbArc
 50
103.760531
 51
283.760537
  0
ARC
  5
326
330
1DB
100
AcDbEntity
  8
0
  6
Continuous
 62
     0
370
    30
100
AcDbCircle
 10
366.573539
 20
942.774437
 30
0.0
 40
1.8
100
AcDbArc
 50
263.760537
 51
83.760544
  0
ARC
  5
327
330
1DB
100
AcDbEntity
  8
0
  6
Continuous
 62
     0
370
    30
100
AcDbCircle
 10
366.573539
 20
942.774437
 30
0.0
 40
1.79999999999998
100
AcDbArc
 50
83.760531
 51
263.760537
  0
ARC
  5
328
330
1DB
100
AcDbEntity
  8
0
  6
Continuous
 62
     0
370
    30
100
AcDbCircle
 10
389.099158
 20
934.598657
 30
0.0
 40
1.800000000000016
100
AcDbArc
 50
243.760537
 51
63.760544
  0
ARC
  5
329
330
1DB
100
AcDbEntity
  8
0
  6
Continuous
 62
     0
370
    30
100
AcDbCircle
 10
389.099158
 20
934.598657
 30
0.0
 40
1.800000000000015
100
AcDbArc
 50
63.760531
 51
243.760537
  0
ARC
  5
32A
330
1DB
100
AcDbEntity
  8
0
  6
Continuous
 62
     0
370
    30
100
AcDbCircle
 10
407.470033
 20
919.211721
 30
0.0
 40
1.799999999999978
100
AcDbArc
 50
223.760537
 51
43.760544
  0
ARC
  5
32B
330
1DB
100
AcDbEntity
  8
0
  6
Continuous
 62
     0
370
    30
100
AcDbCircle
 10
407.470033
 20
919.211721
 30
0.0
 40
1.799999999999944
100
AcDbArc
 50
43.760531
 51
223.760537
  0
ARC
  5
32C
330
1DB
100
AcDbEntity
  8
0
  6
Continuous
 62
     0
370
    30
100
AcDbCircle
 10
419.470368
 20
898.469522
 30
0.0
 40
1.800000000000011
100
AcDbArc
 50
203.760537
 51
23.760544
  0
ARC
  5
32D
330
1DB
100
AcDbEntity
  8
0
  6
Continuous
 62
     0
370
    30
100
AcDbCircle
 10
419.470368
 20
898.469522
 30
0.0
 40
1.799999999999987
100
AcDbArc
 50
23.760531
 51
203.760537
  0
ARC
  5
32E
330
1DB
100
AcDbEntity
  8
0
  6
Continuous
 62
     0
370
    30
100
AcDbCircle
 10
406.352717
 20
856.047241
 30
0.0
 40
1.800000000000012
100
AcDbArc
 50
163.697299
 51
343.697306
  0
ARC
  5
32F
330
1DB
100
AcDbEntity
  8
0
  6
Continuous
 62
     0
370
    30
100
AcDbCircle
 10
406.352717
 20
856.047241
 30
0.0
 40
1.79999999999999
100
AcDbArc
 50
343.697293
 51
163.697299
  0
ARC
  5
330
330
1DB
100
AcDbEntity
  8
0
  6
Continuous
 62
     0
370
    30
100
AcDbCircle
 10
396.81691
 20
839.49647
 30
0.0
 40
1.799999999999968
100
AcDbArc
 50
143.697299
 51
323.697306
  0
ARC
  5
331
330
1DB
100
AcDbEntity
  8
0
  6
Continuous
 62
     0
370
    30
100
AcDbCircle
 10
396.81691
 20
839.49647
 30
0.0
 40
1.800000000000016
100
AcDbArc
 50
323.697293
 51
143.697299
  0
ARC
  5
332
330
1DB
100
AcDbEntity
  8
0
  6
Continuous
 62
     0
370
    30
100
AcDbCircle
 10
382.195484
 20
827.205271
 30
0.0
 40
1.800000000000031
100
AcDbArc
 50
123.697299
 51
303.697306
  0
ARC
  5
333
330
1DB
100
AcDbEntity
  8
0
  6
Continuous
 62
     0
370
    30
100
AcDbCircle
 10
382.195484
 20
827.205271
 30
0.0
 40
1.799999999999942
100
AcDbArc
 50
303.697293
 51
123.697299
  0
ARC
  5
334
330
1DB
100
AcDbEntity
  8
0
  6
Continuous
 62
     0
370
    30
100
AcDbCircle
 10
364.252001
 20
820.656145
 30
0.0
 40
1.80000000000002
100
AcDbArc
 50
103.697299
 51
283.697306
  0
ARC
  5
335
330
1DB
100
AcDbEntity
  8
0
  6
Continuous
 62
     0
370
    30
100
AcDbCircle
 10
364.252001
 20
820.656145
 30
0.0
 40
1.800000000000108
100
AcDbArc
 50
283.697293
 51
103.697299
  0
ARC
  5
336
330
1DB
100
AcDbEntity
  8
0
  6
Continuous
 62
     0
370
    30
100
AcDbCircle
 10
345.150709
 20
820.639011
 30
0.0
 40
1.79999999999999
100
AcDbArc
 50
83.697299
 51
263.697306
  0
ARC
  5
337
330
1DB
100
AcDbEntity
  8
0
  6
Continuous
 62
     0
370
    30
100
AcDbCircle
 10
345.150709
 20
820.639011
 30
0.0
 40
1.800000000000054
100
AcDbArc
 50
263.697293
 51
83.697299
  0
ARC
  5
338
330
1DB
100
AcDbEntity
  8
0
  6
Continuous
 62
     0
370
    30
100
AcDbCircle
 10
327.195506
 20
827.155938
 30
0.0
 40
1.800000000000022
100
AcDbArc
 50
63.697299
 51
243.697306
  0
ARC
  5
339
330
1DB
100
AcDbEntity
  8
0
  6
Continuous
 62
     0
370
    30
100
AcDbCircle
 10
327.195506
 20
827.155938
 30
0.0
 40
1.800000000000009
100
AcDbArc
 50
243.697293
 51
63.697299
  0
ARC
  5
33A
330
1DB
100
AcDbEntity
  8
0
  6
Continuous
 62
     0
370
    30
100
AcDbCircle
 10
312.552055
 20
839.420886
 30
0.0
 40
1.800000000000017
100
AcDbArc
 50
43.697299
 51
223.697306
  0
ARC
  5
33B
330
1DB
100
AcDbEntity
  8
0
  6
Continuous
 62
     0
370
    30
100
AcDbCircle
 10
312.552055
 20
839.420886
 30
0.0
 40
1.799999999999985
100
AcDbArc
 50
223.697293
 51
43.697299
  0
ARC
  5
33C
330
1DB
100
AcDbEntity
  8
0
  6
Continuous
 62
     0
370
    30
100
AcDbCircle
 10
302.986571
 20
855.954524
 30
0.0
 40
1.800000000000074
100
AcDbArc
 50
23.697299
 51
203.697306
  0
ARC
  5
33D
330
1DB
100
AcDbEntity
  8
0
  6
Continuous
 62
     0
370
    30
100
AcDbCircle
 10
302.986571
 20
855.954524
 30
0.0
 40
1.800000000000023
100
AcDbArc
 50
203.697293
 51
23.697299
  0
ARC
  5
33E
330
1DB
100
AcDbEntity
  8
0
  6
Continuous
 62
     0
370
    30
100
AcDbCircle
 10
299.652793
 20
874.762649
 30
0.0
 40
1.800000000000021
100
AcDbArc
 50
3.697299
 51
183.697306
  0
ARC
  5
33F
330
1DB
100
AcDbEntity
  8
0
  6
Continuous
 62
     0
370
    30
100
AcDbCircle
 10
299.652793
 20
874.762649
 30
0.0
 40
1.799999999999999
100
AcDbArc
 50
183.697293
 51
3.697299
  0
ARC
  5
340
330
1DB
100
AcDbEntity
  8
0
  6
Continuous
 62
     0
370
    30
100
AcDbCircle
 10
302.952825
 20
893.576724
 30
0.0
 40
1.800000000000016
100
AcDbArc
 50
343.697299
 51
163.697306
  0
ARC
  5
341
330
1DB
100
AcDbEntity
  8
0
  6
Continuous
 62
     0
370
    30
100
AcDbCircle
 10
302.952825
 20
893.576724
 30
0.0
 40
1.800000000000005
100
AcDbArc
 50
163.697293
 51
343.697299
  0
ARC
  5
342
330
1DB
100
AcDbEntity
  8
0
  6
Continuous
 62
     0
370
    30
100
AcDbCircle
 10
312.488632
 20
910.127495
 30
0.0
 40
1.800000000000043
100
AcDbArc
 50
323.697299
 51
143.697306
  0
ARC
  5
343
330
1DB
100
AcDbEntity
  8
0
  6
Continuous
 62
     0
370
    30
100
AcDbCircle
 10
312.488632
 20
910.127495
 30
0.0
 40
1.799999999999949
100
AcDbArc
 50
143.697293
 51
323.697299
  0
ARC
  5
344
330
1DB
100
AcDbEntity
  8
0
  6
Continuous
 62
     0
370
    30
100
AcDbCircle
 10
327.110058
 20
922.418694
 30
0.0
 40
1.800000000000005
100
AcDbArc
 50
303.697299
 51
123.697306
  0
ARC
  5
345
330
1DB
100
AcDbEntity
  8
0
  6
Continuous
 62
     0
370
    30
100
AcDbCircle
 10
327.110058
 20
922.418694
 30
0.0
 40
1.799999999999989
100
AcDbArc
 50
123.697293
 51
303.697299
  0
ARC
  5
346
330
1DB
100
AcDbEntity
  8
0
  6
Continuous
 62
     0
370
    30
100
AcDbCircle
 10
345.053541
 20
928.96782
 30
0.0
 40
1.800000000000101
100
AcDbArc
 50
283.697299
 51
103.697306
  0
ARC
  5
347
330
1DB
100
AcDbEntity
  8
0
  6
Continuous
 62
     0
370
    30
100
AcDbCircle
 10
345.053541
 20
928.96782
 30
0.0
 40
1.800000000000079
100
AcDbArc
 50
103.697293
 51
283.697299
  0
ARC
  5
348
330
1DB
100
AcDbEntity
  8
0
  6
Continuous
 62
     0
370
    30
100
AcDbCircle
 10
364.154833
 20
928.984954
 30
0.0
 40
1.800000000000076
100
AcDbArc
 50
263.697299
 51
83.697306
  0
ARC
  5
349
330
1DB
100
AcDbEntity
  8
0
  6
Continuous
 62
     0
370
    30
100
AcDbCircle
 10
364.154833
 20
928.984954
 30
0.0
 40
1.799999999999969
100
AcDbArc
 50
83.697293
 51
263.697299
  0
ARC
  5
34A
330
1DB
100
AcDbEntity
  8
0
  6
Continuous
 62
     0
370
    30
100
AcDbCircle
 10
382.110036
 20
922.468027
 30
0.0
 40
1.800000000000028
100
AcDbArc
 50
243.697299
 51
63.697306
  0
ARC
  5
34B
330
1DB
100
AcDbEntity
  8
0
  6
Continuous
 62
     0
370
    30
100
AcDbCircle
 10
382.110036
 20
922.468027
 30
0.0
 40
1.799999999999985
100
AcDbArc
 50
63.697293
 51
243.697299
  0
ARC
  5
34C
330
1DB
100
AcDbEntity
  8
0
  6
Continuous
 62
     0
370
    30
100
AcDbCircle
 10
396.753487
 20
910.203079
 30
0.0
 40
1.800000000000016
100
AcDbArc
 50
223.697299
 51
43.697306
  0
ARC
  5
34D
330
1DB
100
AcDbEntity
  8
0
  6
Continuous
 62
     0
370
    30
100
AcDbCircle
 10
396.753487
 20
910.203079
 30
0.0
 40
1.800000000000024
100
AcDbArc
 50
43.697293
 51
223.697299
  0
ARC
  5
34E
330
1DB
100
AcDbEntity
  8
0
  6
Continuous
 62
     0
370
    30
100
AcDbCircle
 10
406.318971
 20
893.669441
 30
0.0
 40
1.800000000000042
100
AcDbArc
 50
203.697299
 51
23.697306
  0
ARC
  5
34F
330
1DB
100
AcDbEntity
  8
0
  6
Continuous
 62
     0
370
    30
100
AcDbCircle
 10
406.318971
 20
893.669441
 30
0.0
 40
1.80000000000001
100
AcDbArc
 50
23.697293
 51
203.697299
  0
ARC
  5
350
330
1DB
100
AcDbEntity
  8
0
  6
Continuous
 62
     0
370
    30
100
AcDbCircle
 10
386.036941
 20
901.194436
 30
0.0
 40
1.800000000000013
100
AcDbArc
 50
228.078971
 51
48.078977
  0
ARC
  5
351
330
1DB
100
AcDbEntity
  8
0
  6
Continuous
 62
     0
370
    30
100
AcDbCircle
 10
386.036941
 20
901.194436
 30
0.0
 40
1.799999999999971
100
AcDbArc
 50
48.078964
 51
228.078971
  0
ARC
  5
352
330
1DB
100
AcDbEntity
  8
0
  6
Continuous
 62
     0
370
    30
100
AcDbCircle
 10
393.167575
 20
888.869361
 30
0.0
 40
1.800000000000001
100
AcDbArc
 50
208.078971
 51
28.078977
  0
ARC
  5
353
330
1DB
100
AcDbEntity
  8
0
  6
Continuous
 62
     0
370
    30
100
AcDbCircle
 10
393.167575
 20
888.869361
 30
0.0
 40
1.800000000000014
100
AcDbArc
 50
28.078964
 51
208.078971
  0
ARC
  5
354
330
1DB
100
AcDbEntity
  8
0
  6
Continuous
 62
     0
370
    30
100
AcDbCircle
 10
393.192731
 20
860.823721
 30
0.0
 40
1.799999999999983
100
AcDbArc
 50
168.078971
 51
348.078977
  0
ARC
  5
355
330
1DB
100
AcDbEntity
  8
0
  6
Continuous
 62
     0
370
    30
100
AcDbCircle
 10
393.192731
 20
860.823721
 30
0.0
 40
1.800000000000007
100
AcDbArc
 50
348.078964
 51
168.078971
  0
ARC
  5
356
330
1DB
100
AcDbEntity
  8
0
  6
Continuous
 62
     0
370
    30
100
AcDbCircle
 10
386.08422
 20
848.485873
 30
0.0
 40
1.800000000000001
100
AcDbArc
 50
148.078971
 51
328.078977
  0
ARC
  5
357
330
1DB
100
AcDbEntity
  8
0
  6
Continuous
 62
     0
370
    30
100
AcDbCircle
 10
386.08422
 20
848.485873
 30
0.0
 40
1.800000000000004
100
AcDbArc
 50
328.078964
 51
148.078971
  0
ARC
  5
358
330
1DB
100
AcDbEntity
  8
0
  6
Continuous
 62
     0
370
    30
100
AcDbCircle
 10
375.184612
 20
839.323343
 30
0.0
 40
1.800000000000036
100
AcDbArc
 50
128.078971
 51
308.078977
  0
ARC
  5
359
330
1DB
100
AcDbEntity
  8
0
  6
Continuous
 62
     0
370
    30
100
AcDbCircle
 10
375.184612
 20
839.323343
 30
0.0
 40
1.800000000000058
100
AcDbArc
 50
308.078964
 51
128.078971
  0
ARC
  5
35A
330
1DB
100
AcDbEntity
  8
0
  6
Continuous
 62
     0
370
    30
100
AcDbCircle
 10
361.808561
 20
834.441267
 30
0.0
 40
1.80000000000001
100
AcDbArc
 50
108.078971
 51
288.078977
  0
ARC
  5
35B
330
1DB
100
AcDbEntity
  8
0
  6
Continuous
 62
     0
370
    30
100
AcDbCircle
 10
361.808561
 20
834.441267
 30
0.0
 40
1.799999999999956
100
AcDbArc
 50
288.078964
 51
108.078971
  0
ARC
  5
35C
330
1DB
100
AcDbEntity
  8
0
  6
Continuous
 62
     0
370
    30
100
AcDbCircle
 10
347.569416
 20
834.428495
 30
0.0
 40
1.800000000000001
100
AcDbArc
 50
88.078971
 51
268.078977
  0
ARC
  5
35D
330
1DB
100
AcDbEntity
  8
0
  6
Continuous
 62
     0
370
    30
100
AcDbCircle
 10
347.569416
 20
834.428495
 30
0.0
 40
1.799999999999982
100
AcDbArc
 50
268.078964
 51
88.078971
  0
ARC
  5
35E
330
1DB
100
AcDbEntity
  8
0
  6
Continuous
 62
     0
370
    30
100
AcDbCircle
 10
334.184628
 20
839.286567
 30
0.0
 40
1.799999999999984
100
AcDbArc
 50
68.078971
 51
248.078977
  0
ARC
  5
35F
330
1DB
100
AcDbEntity
  8
0
  6
Continuous
 62
     0
370
    30
100
AcDbCircle
 10
334.184628
 20
839.286567
 30
0.0
 40
1.799999999999987
100
AcDbArc
 50
248.078964
 51
68.078971
  0
ARC
  5
360
330
1DB
100
AcDbEntity
  8
0
  6
Continuous
 62
     0
370
    30
100
AcDbCircle
 10
323.268601
 20
848.429529
 30
0.0
 40
1.800000000000035
100
AcDbArc
 50
48.078971
 51
228.078977
  0
ARC
  5
361
330
1DB
100
AcDbEntity
  8
0
  6
Continuous
 62
     0
370
    30
100
AcDbCircle
 10
323.268601
 20
848.429529
 30
0.0
 40
1.799999999999964
100
AcDbArc
 50
228.078964
 51
48.078971
  0
ARC
  5
362
330
1DB
100
AcDbEntity
  8
0
  6
Continuous
 62
     0
370
    30
100
AcDbCircle
 10
316.137967
 20
860.754604
 30
0.0
 40
1.799999999999993
100
AcDbArc
 50
28.078971
 51
208.078977
  0
ARC
  5
363
330
1DB
100
AcDbEntity
  8
0
  6
Continuous
 62
     0
370
    30
100
AcDbCircle
 10
316.137967
 20
860.754604
 30
0.0
 40
1.800000000000005
100
AcDbArc
 50
208.078964
 51
28.078971
  0
ARC
  5
364
330
1DB
100
AcDbEntity
  8
0
  6
Continuous
 62
     0
370
    30
100
AcDbCircle
 10
313.652788
 20
874.775206
 30
0.0
 40
1.799999999999996
100
AcDbArc
 50
8.078971
 51
188.078977
  0
ARC
  5
365
330
1DB
100
AcDbEntity
  8
0
  6
Continuous
 62
     0
370
    30
100
AcDbCircle
 10
313.652788
 20
874.775206
 30
0.0
 40
1.800000000000001
100
AcDbArc
 50
188.078964
 51
8.078971
  0
ARC
  5
366
330
1DB
100
AcDbEntity
  8
0
  6
Continuous
 62
     0
370
    30
100
AcDbCircle
 10
316.112811
 20
888.800245
 30
0.0
 40
1.799999999999994
100
AcDbArc
 50
348.078971
 51
168.078977
  0
ARC
  5
367
330
1DB
100
AcDbEntity
  8
0
  6
Continuous
 62
     0
370
    30
100
AcDbCircle
 10
316.112811
 20
888.800245
 30
0.0
 40
1.800000000000015
100
AcDbArc
 50
168.078964
 51
348.078971
  0
ARC
  5
368
330
1DB
100
AcDbEntity
  8
0
  6
Continuous
 62
     0
370
    30
100
AcDbCircle
 10
323.221322
 20
901.138092
 30
0.0
 40
1.79999999999999
100
AcDbArc
 50
328.078971
 51
148.078977
  0
ARC
  5
369
330
1DB
100
AcDbEntity
  8
0
  6
Continuous
 62
     0
370
    30
100
AcDbCircle
 10
323.221322
 20
901.138092
 30
0.0
 40
1.799999999999997
100
AcDbArc
 50
148.078964
 51
328.078971
  0
ARC
  5
36A
330
1DB
100
AcDbEntity
  8
0
  6
Continuous
 62
     0
370
    30
100
AcDbCircle
 10
334.12093
 20
910.300622
 30
0.0
 40
1.799999999999982
100
AcDbArc
 50
308.078971
 51
128.078977
  0
ARC
  5
36B
330
1DB
100
AcDbEntity
  8
0
  6
Continuous
 62
     0
370
    30
100
AcDbCircle
 10
334.12093
 20
910.300622
 30
0.0
 40
1.799999999999997
100
AcDbArc
 50
128.078964
 51
308.078971
  0
ARC
  5
36C
330
1DB
100
AcDbEntity
  8
0
  6
Continuous
 62
     0
370
    30
100
AcDbCircle
 10
347.496981
 20
915.182698
 30
0.0
 40
1.800000000000034
100
AcDbArc
 50
288.078971
 51
108.078977
  0
ARC
  5
36D
330
1DB
100
AcDbEntity
  8
0
  6
Continuous
 62
     0
370
    30
100
AcDbCircle
 10
347.496981
 20
915.182698
 30
0.0
 40
1.800000000000062
100
AcDbArc
 50
108.078964
 51
288.078971
  0
ARC
  5
36E
330
1DB
100
AcDbEntity
  8
0
  6
Continuous
 62
     0
370
    30
100
AcDbCircle
 10
361.736126
 20
915.19547
 30
0.0
 40
1.799999999999972
100
AcDbArc
 50
268.078971
 51
88.078977
  0
ARC
  5
36F
330
1DB
100
AcDbEntity
  8
0
  6
Continuous
 62
     0
370
    30
100
AcDbCircle
 10
361.736126
 20
915.19547
 30
0.0
 40
1.799999999999982
100
AcDbArc
 50
88.078964
 51
268.078971
  0
ARC
  5
370
330
1DB
100
AcDbEntity
  8
0
  6
Continuous
 62
     0
370
    30
100
AcDbCircle
 10
378.047557
 20
861.332962
 30
0.0
 40
1.800000000000016
100
AcDbArc
 50
163.454388
 51
343.454395
  0
ARC
  5
371
330
1DB
100
AcDbEntity
  8
0
  6
Continuous
 62
     0
370
    30
100
AcDbCircle
 10
378.047557
 20
861.332962
 30
0.0
 40
1.800000000000004
100
AcDbArc
 50
343.454382
 51
163.454388
  0
ARC
  5
372
330
1DB
100
AcDbEntity
  8
0
  6
Continuous
 62
     0
370
    30
100
AcDbCircle
 10
368.173739
 20
851.441415
 30
0.0
 40
1.799999999999949
100
AcDbArc
 50
133.454388
 51
313.454395
  0
ARC
  5
373
330
1DB
100
AcDbEntity
  8
0
  6
Continuous
 62
     0
370
    30
100
AcDbCircle
 10
368.173739
 20
851.441415
 30
0.0
 40
1.799999999999967
100
AcDbArc
 50
313.454382
 51
133.454388
  0
ARC
  5
374
330
1DB
100
AcDbEntity
  8
0
  6
Continuous
 62
     0
370
    30
100
AcDbCircle
 10
354.676989
 20
847.811993
 30
0.0
 40
1.800000000000062
100
AcDbArc
 50
103.454388
 51
283.454395
  0
ARC
  5
375
330
1DB
100
AcDbEntity
  8
0
  6
Continuous
 62
     0
370
    30
100
AcDbCircle
 10
354.676989
 20
847.811993
 30
0.0
 40
1.80000000000006
100
AcDbArc
 50
283.454382
 51
103.454388
  0
ARC
  5
376
330
1DB
100
AcDbEntity
  8
0
  6
Continuous
 62
     0
370
    30
100
AcDbCircle
 10
341.17375
 20
851.417197
 30
0.0
 40
1.800000000000022
100
AcDbArc
 50
73.454388
 51
253.454395
  0
ARC
  5
377
330
1DB
100
AcDbEntity
  8
0
  6
Continuous
 62
     0
370
    30
100
AcDbCircle
 10
341.17375
 20
851.417197
 30
0.0
 40
1.799999999999989
100
AcDbArc
 50
253.454382
 51
73.454388
  0
ARC
  5
378
330
1DB
100
AcDbEntity
  8
0
  6
Continuous
 62
     0
370
    30
100
AcDbCircle
 10
331.282204
 20
861.291014
 30
0.0
 40
1.800000000000007
100
AcDbArc
 50
43.454388
 51
223.454395
  0
ARC
  5
379
330
1DB
100
AcDbEntity
  8
0
  6
Continuous
 62
     0
370
    30
100
AcDbCircle
 10
331.282204
 20
861.291014
 30
0.0
 40
1.799999999999997
100
AcDbArc
 50
223.454382
 51
43.454388
  0
ARC
  5
37A
330
1DB
100
AcDbEntity
  8
0
  6
Continuous
 62
     0
370
    30
100
AcDbCircle
 10
327.652782
 20
874.787764
 30
0.0
 40
1.799999999999992
100
AcDbArc
 50
13.454388
 51
193.454395
  0
ARC
  5
37B
330
1DB
100
AcDbEntity
  8
0
  6
Continuous
 62
     0
370
    30
100
AcDbCircle
 10
327.652782
 20
874.787764
 30
0.0
 40
1.799999999999994
100
AcDbArc
 50
193.454382
 51
13.454388
  0
ARC
  5
37C
330
1DB
100
AcDbEntity
  8
0
  6
Continuous
 62
     0
370
    30
100
AcDbCircle
 10
331.257985
 20
888.291003
 30
0.0
 40
1.8
100
AcDbArc
 50
343.454388
 51
163.454395
  0
ARC
  5
37D
330
1DB
100
AcDbEntity
  8
0
  6
Continuous
 62
     0
370
    30
100
AcDbCircle
 10
331.257985
 20
888.291003
 30
0.0
 40
1.800000000000009
100
AcDbArc
 50
163.454382
 51
343.454388
  0
ARC
  5
37E
330
1DB
100
AcDbEntity
  8
0
  6
Continuous
 62
     0
370
    30
100
AcDbCircle
 10
341.131803
 20
898.18255
 30
0.0
 40
1.799999999999972
100
AcDbArc
 50
313.454388
 51
133.454395
  0
ARC
  5
37F
330
1DB
100
AcDbEntity
  8
0
  6
Continuous
 62
     0
370
    30
100
AcDbCircle
 10
341.131803
 20
898.18255
 30
0.0
 40
1.800000000000007
100
AcDbArc
 50
133.454382
 51
313.454388
  0
ARC
  5
380
330
1DB
100
AcDbEntity
  8
0
  6
Continuous
 62
     0
370
    30
100
AcDbCircle
 10
354.628553
 20
901.811972
 30
0.0
 40
1.799999999999977
100
AcDbArc
 50
283.454388
 51
103.454395
  0
ARC
  5
381
330
1DB
100
AcDbEntity
  8
0
  6
Continuous
 62
     0
370
    30
100
AcDbCircle
 10
354.628553
 20
901.811972
 30
0.0
 40
1.799999999999977
100
AcDbArc
 50
103.454382
 51
283.454388
  0
ARC
  5
382
330
1DB
100
AcDbEntity
  8
0
  6
Continuous
 62
     0
370
    30
100
AcDbCircle
 10
368.131792
 20
898.206768
 30
0.0
 40
1.800000000000051
100
AcDbArc
 50
253.454388
 51
73.454395
  0
ARC
  5
383
330
1DB
100
AcDbEntity
  8
0
  6
Continuous
 62
     0
370
    30
100
AcDbCircle
 10
368.131792
 20
898.206768
 30
0.0
 40
1.80000000000007
100
AcDbArc
 50
73.454382
 51
253.454388
  0
ARC
  5
384
330
1DB
100
AcDbEntity
  8
0
  6
Continuous
 62
     0
370
    30
100
AcDbCircle
 10
378.023338
 20
888.332951
 30
0.0
 40
1.800000000000007
100
AcDbArc
 50
223.454388
 51
43.454395
  0
ARC
  5
385
330
1DB
100
AcDbEntity
  8
0
  6
Continuous
 62
     0
370
    30
100
AcDbCircle
 10
378.023338
 20
888.332951
 30
0.0
 40
1.800000000000029
100
AcDbArc
 50
43.454382
 51
223.454388
  0
ARC
  5
386
330
1DB
100
AcDbEntity
  8
0
  6
Continuous
 62
     0
370
    30
100
AcDbCircle
 10
343.400276
 20
868.301887
 30
0.0
 40
1.800000000000024
100
AcDbArc
 50
37.059739
 51
217.059745
  0
ARC
  5
387
330
1DB
100
AcDbEntity
  8
0
  6
Continuous
 62
     0
370
    30
100
AcDbCircle
 10
343.400276
 20
868.301887
 30
0.0
 40
1.800000000000025
100
AcDbArc
 50
217.059732
 51
37.059739
  0
ARC
  5
388
330
1DB
100
AcDbEntity
  8
0
  6
Continuous
 62
     0
370
    30
100
AcDbCircle
 10
343.388615
 20
881.301881
 30
0.0
 40
1.800000000000008
100
AcDbArc
 50
337.059739
 51
157.059745
  0
ARC
  5
389
330
1DB
100
AcDbEntity
  8
0
  6
Continuous
 62
     0
370
    30
100
AcDbCircle
 10
343.388615
 20
881.301881
 30
0.0
 40
1.800000000000022
100
AcDbArc
 50
157.059732
 51
337.059739
  0
ARC
  5
38A
330
1DB
100
AcDbEntity
  8
0
  6
Continuous
 62
     0
370
    30
100
AcDbCircle
 10
354.64111
 20
887.811977
 30
0.0
 40
1.800000000000042
100
AcDbArc
 50
277.059739
 51
97.059745
  0
ARC
  5
38B
330
1DB
100
AcDbEntity
  8
0
  6
Continuous
 62
     0
370
    30
100
AcDbCircle
 10
354.64111
 20
887.811977
 30
0.0
 40
1.79999999999999
100
AcDbArc
 50
97.059732
 51
277.059739
  0
ARC
  5
38C
330
1DB
100
AcDbEntity
  8
0
  6
Continuous
 62
     0
370
    30
100
AcDbCircle
 10
365.905266
 20
881.322078
 30
0.0
 40
1.800000000000001
100
AcDbArc
 50
217.059739
 51
37.059745
  0
ARC
  5
38D
330
1DB
100
AcDbEntity
  8
0
  6
Continuous
 62
     0
370
    30
100
AcDbCircle
 10
365.905266
 20
881.322078
 30
0.0
 40
1.800000000000044
100
AcDbArc
 50
37.059732
 51
217.059739
  0
ARC
  5
38E
330
1DB
100
AcDbEntity
  8
0
  6
Continuous
 62
     0
370
    30
100
AcDbCircle
 10
365.916927
 20
868.322084
 30
0.0
 40
1.799999999999987
100
AcDbArc
 50
157.059739
 51
337.059745
  0
ARC
  5
38F
330
1DB
100
AcDbEntity
  8
0
  6
Continuous
 62
     0
370
    30
100
AcDbCircle
 10
365.916927
 20
868.322084
 30
0.0
 40
1.8
100
AcDbArc
 50
337.059732
 51
157.059739
  0
ENDBLK
  5
391
330
1DB
100
AcDbEntity
  8
0
100
AcDbBlockEnd
  0
ENDSEC
  0
SECTION
  2
ENTITIES
  0
INSERT
  5
1DA
330
1F
100
AcDbEntity
  8
0
  6
Continuous
 62
     7
420
 16250871
370
     0
100
AcDbBlockReference
  2
a
 10
198.508698
 20
604.685242
 30
0.0
  0
INSERT
  5
392
330
1F
100
AcDbEntity
  8
0
  6
Continuous
 62
     7
420
 16250871
370
     0
100
AcDbBlockReference
  2
b
 10
0.0
 20
375.50769
 30
0.0
  0
ENDSEC
  0
SECTION
  2
OBJECTS
  0
DICTIONARY
  5
C
330
0
100
AcDbDictionary
281
     1
  3
ACAD_DETAILVIEWSTYLE
350
3CA
  3
ACAD_GROUP
350
D
  3
ACAD_LAYOUT
350
1A
  3
ACAD_MATERIAL
350
43
  3
ACAD_MLEADERSTYLE
350
6B
  3
ACAD_MLINESTYLE
350
17
  3
ACAD_PLOTSETTINGS
350
19
  3
ACAD_PLOTSTYLENAME
350
E
  3
ACAD_SCALELIST
350
47
  3
ACAD_SECTIONVIEWSTYLE
350
3CB
  3
ACAD_TABLESTYLE
350
69
  3
ACAD_VISUALSTYLE
350
2A
  3
ACDB_RECOMPOSE_DATA
350
3C7
  3
AcDbVariableDictionary
350
393
  0
SUN
  5
6D
330
29
100
AcDbSun
 90
        1
290
     0
 63
     7
421
 16777215
 40
1.0
291
     1
 91
  2455826
 92
 54000000
292
     0
 70
     2
 71
   256
280
     1
  0
DICTIONARY
  5
3CA
102
{ACAD_REACTORS
330
C
102
}
330
C
100
AcDbDictionary
281
     1
  0
DICTIONARY
  5
D
102
{ACAD_REACTORS
330
C
102
}
330
C
100
AcDbDictionary
281
     1
  0
DICTIONARY
  5
1A
102
{ACAD_REACTORS
330
C
102
}
330
C
100
AcDbDictionary
281
     1
  3
Layout1
350
1E
  3
Layout2
350
26
  3
Model
350
22
  0
DICTIONARY
  5
43
102
{ACAD_REACTORS
330
C
102
}
330
C
100
AcDbDictionary
281
     1
  3
ByBlock
350
45
  3
ByLayer
350
44
  3
Global
350
46
  0
DICTIONARY
  5
6B
102
{ACAD_REACTORS
330
C
102
}
330
C
100
AcDbDictionary
281
     1
  3
Standard
350
6C
  0
DICTIONARY
  5
17
102
{ACAD_REACTORS
330
C
102
}
330
C
100
AcDbDictionary
281
     1
  3
Standard
350
18
  0
DICTIONARY
  5
19
102
{ACAD_REACTORS
330
C
102
}
330
C
100
AcDbDictionary
281
     1
  0
ACDBDICTIONARYWDFLT
  5
E
102
{ACAD_REACTORS
330
C
102
}
330
C
100
AcDbDictionary
281
     1
  3
Normal
350
F
100
AcDbDictionaryWithDefault
340
F
  0
DICTIONARY
  5
47
102
{ACAD_REACTORS
330
C
102
}
330
C
100
AcDbDictionary
281
     1
  3
A0
350
48
  3
A1
350
49
  3
A2
350
4A
  3
A3
350
4B
  3
A4
350
4C
  3
A5
350
4D
  3
A6
350
4E
  3
A7
350
4F
  3
A8
350
50
  3
A9
350
51
  3
B0
350
52
  3
B1
350
53
  3
B2
350
54
  3
B3
350
55
  3
B4
350
56
  3
B5
350
57
  3
B6
350
58
  3
B7
350
59
  3
B8
350
5A
  3
B9
350
5B
  3
C0
350
5C
  3
C1
350
5D
  3
C2
350
5E
  3
C3
350
5F
  3
C4
350
60
  3
C5
350
61
  3
C6
350
62
  3
C7
350
63
  3
C8
350
64
  3
C9
350
65
  3
D0
350
66
  3
D1
350
67
  3
D2
350
68
  0
DICTIONARY
  5
3CB
102
{ACAD_REACTORS
330
C
102
}
330
C
100
AcDbDictionary
281
     1
  0
DICTIONARY
  5
69
102
{ACAD_REACTORS
330
C
102
}
330
C
100
AcDbDictionary
281
     1
  3
Standard
350
6A
  0
DICTIONARY
  5
2A
102
{ACAD_REACTORS
330
C
102
}
330
C
100
AcDbDictionary
281
     1
  3
2dWireframe
350
2F
  3
Basic
350
32
  3
Brighten
350
36
  3
ColorChange
350
3A
  3
Conceptual
350
34
  3
Dim
350
35
  3
EdgeColorOff
350
3D
  3
Facepattern
350
39
  3
Flat
350
2B
  3
FlatWithEdges
350
2C
  3
Gouraud
350
2D
  3
GouraudWithEdges
350
2E
  3
Hidden
350
31
  3
JitterOff
350
3B
  3
Linepattern
350
38
  3
OverhangOff
350
3C
  3
Realistic
350
33
  3
Shaded
350
42
  3
Shaded with edges
350
41
  3
Shades of Gray
350
3E
  3
Sketchy
350
3F
  3
Thicken
350
37
  3
Wireframe
350
30
  3
X-Ray
350
40
  0
XRECORD
  5
3C7
102
{ACAD_REACTORS
330
C
102
}
330
C
100
AcDbXrecord
280
     1
 90
        1
330
6A
  0
DICTIONARY
  5
393
102
{ACAD_REACTORS
330
C
102
}
330
C
100
AcDbDictionary
281
     1
  3
CANNOSCALE
350
394
  3
CMLEADERSTYLE
350
3C9
  3
CTABLESTYLE
350
3C8
  0
LAYOUT
  5
1E
102
{ACAD_REACTORS
330
1A
102
}
330
1A
100
AcDbPlotSettings
  1

  2
none_device
  4

  6

 40
0.0
 41
0.0
 42
0.0
 43
0.0
 44
0.0
 45
0.0
 46
0.0
 47
0.0
 48
0.0
 49
0.0
140
0.0
141
0.0
142
1.0
143
1.0
 70
   688
 72
     1
 73
     0
 74
     5
  7

 75
    16
 76
     0
 77
     2
 78
   300
147
1.0
148
0.0
149
0.0
100
AcDbLayout
  1
Layout1
 70
     1
 71
     1
 10
0.0
 20
0.0
 11
420.0
 21
297.0
 12
0.0
 22
0.0
 32
0.0
 14
1.000000E+20
 24
1.000000E+20
 34
1.000000E+20
 15
-1.000000E+20
 25
-1.000000E+20
 35
-1.000000E+20
146
0.0
 13
0.0
 23
0.0
 33
0.0
 16
1.0
 26
0.0
 36
0.0
 17
0.0
 27
1.0
 37
0.0
 76
     0
330
1B
  0
LAYOUT
  5
26
102
{ACAD_REACTORS
330
1A
102
}
330
1A
100
AcDbPlotSettings
  1

  2
none_device
  4

  6

 40
0.0
 41
0.0
 42
0.0
 43
0.0
 44
0.0
 45
0.0
 46
0.0
 47
0.0
 48
0.0
 49
0.0
140
0.0
141
0.0
142
1.0
143
1.0
 70
   688
 72
     1
 73
     0
 74
     5
  7

 75
    16
 76
     0
 77
     2
 78
   300
147
1.0
148
0.0
149
0.0
100
AcDbLayout
  1
Layout2
 70
     1
 71
     2
 10
0.0
 20
0.0
 11
0.0
 21
0.0
 12
0.0
 22
0.0
 32
0.0
 14
0.0
 24
0.0
 34
0.0
 15
0.0
 25
0.0
 35
0.0
146
0.0
 13
0.0
 23
0.0
 33
0.0
 16
1.0
 26
0.0
 36
0.0
 17
0.0
 27
1.0
 37
0.0
 76
     0
330
23
  0
LAYOUT
  5
22
102
{ACAD_REACTORS
330
1A
102
}
330
1A
100
AcDbPlotSettings
  1

  2
none_device
  4
Letter_(8.50_x_11.00_Inches)
  6

 40
6.35
 41
6.35
 42
6.350005
 43
6.350005
 44
215.9
 45
279.4
 46
0.0
 47
0.0
 48
0.0
 49
0.0
140
0.0
141
0.0
142
1.0
143
1.0
 70
  1712
 72
     1
 73
     0
 74
     0
  7

 75
     0
 76
     0
 77
     2
 78
   300
147
1.0
148
0.0
149
0.0
100
AcDbLayout
  1
Model
 70
     1
 71
     0
 10
0.0
 20
0.0
 11
420.0
 21
297.0
 12
0.0
 22
0.0
 32
0.0
 14
1.000000E+20
 24
1.000000E+20
 34
1.000000E+20
 15
-1.000000E+20
 25
-1.000000E+20
 35
-1.000000E+20
146
0.0
 13
0.0
 23
0.0
 33
0.0
 16
1.0
 26
0.0
 36
0.0
 17
0.0
 27
1.0
 37
0.0
 76
     0
330
1F
331
29
  0
MATERIAL
  5
45
102
{ACAD_REACTORS
330
43
102
}
330
43
100
AcDbMaterial
  1
ByBlock
 72
     1
 94
      127
  0
MATERIAL
  5
44
102
{ACAD_REACTORS
330
43
102
}
330
43
100
AcDbMaterial
  1
ByLayer
 72
     1
 94
      127
  0
MATERIAL
  5
46
102
{ACAD_REACTORS
330
43
102
}
330
43
100
AcDbMaterial
  1
Global
 72
     1
 94
      127
  0
MLEADERSTYLE
  5
6C
102
{ACAD_REACTORS
330
6B
102
}
330
6B
100
AcDbMLeaderStyle
179
     2
170
     2
171
     1
172
     0
 90
        2
 40
0.0
 41
0.0
173
     1
 91
-1056964608
340
14
 92
       -2
290
     1
 42
2.0
291
     1
 43
8.0
  3
Standard
341
0
 44
4.0
300

342
11
174
     1
178
     6
175
     1
176
     0
 93
-1056964608
 45
4.0
292
     0
297
     0
 46
4.0
343
0
 94
-1056964608
 47
1.0
 49
1.0
140
1.0
293
     1
141
0.0
294
     1
177
     0
142
1.0
295
     0
296
     0
143
3.75
271
     0
272
     9
273
     9
  0
MLINESTYLE
  5
18
102
{ACAD_REACTORS
330
17
102
}
330
17
100
AcDbMlineStyle
  2
Standard
 70
     0
  3

 62
   256
 51
90.0
 52
90.0
 71
     2
 49
0.5
 62
   256
  6
BYLAYER
 49
-0.5
 62
   256
  6
BYLAYER
  0
ACDBPLACEHOLDER
  5
F
102
{ACAD_REACTORS
330
E
102
}
330
E
  0
SCALE
  5
48
102
{ACAD_REACTORS
330
47
102
}
330
47
100
AcDbScale
 70
     0
300
1:1
140
1.0
141
1.0
290
     1
  0
SCALE
  5
49
102
{ACAD_REACTORS
330
47
102
}
330
47
100
AcDbScale
 70
     0
300
1:2
140
1.0
141
2.0
290
     0
  0
SCALE
  5
4A
102
{ACAD_REACTORS
330
47
102
}
330
47
100
AcDbScale
 70
     0
300
1:4
140
1.0
141
4.0
290
     0
  0
SCALE
  5
4B
102
{ACAD_REACTORS
330
47
102
}
330
47
100
AcDbScale
 70
     0
300
1:5
140
1.0
141
5.0
290
     0
  0
SCALE
  5
4C
102
{ACAD_REACTORS
330
47
102
}
330
47
100
AcDbScale
 70
     0
300
1:8
140
1.0
141
8.0
290
     0
  0
SCALE
  5
4D
102
{ACAD_REACTORS
330
47
102
}
330
47
100
AcDbScale
 70
     0
300
1:10
140
1.0
141
10.0
290
     0
  0
SCALE
  5
4E
102
{ACAD_REACTORS
330
47
102
}
330
47
100
AcDbScale
 70
     0
300
1:16
140
1.0
141
16.0
290
     0
  0
SCALE
  5
4F
102
{ACAD_REACTORS
330
47
102
}
330
47
100
AcDbScale
 70
     0
300
1:20
140
1.0
141
20.0
290
     0
  0
SCALE
  5
50
102
{ACAD_REACTORS
330
47
102
}
330
47
100
AcDbScale
 70
     0
300
1:30
140
1.0
141
30.0
290
     0
  0
SCALE
  5
51
102
{ACAD_REACTORS
330
47
102
}
330
47
100
AcDbScale
 70
     0
300
1:40
140
1.0
141
40.0
290
     0
  0
SCALE
  5
52
102
{ACAD_REACTORS
330
47
102
}
330
47
100
AcDbScale
 70
     0
300
1:50
140
1.0
141
50.0
290
     0
  0
SCALE
  5
53
102
{ACAD_REACTORS
330
47
102
}
330
47
100
AcDbScale
 70
     0
300
1:100
140
1.0
141
100.0
290
     0
  0
SCALE
  5
54
102
{ACAD_REACTORS
330
47
102
}
330
47
100
AcDbScale
 70
     0
300
2:1
140
2.0
141
1.0
290
     0
  0
SCALE
  5
55
102
{ACAD_REACTORS
330
47
102
}
330
47
100
AcDbScale
 70
     0
300
4:1
140
4.0
141
1.0
290
     0
  0
SCALE
  5
56
102
{ACAD_REACTORS
330
47
102
}
330
47
100
AcDbScale
 70
     0
300
8:1
140
8.0
141
1.0
290
     0
  0
SCALE
  5
57
102
{ACAD_REACTORS
330
47
102
}
330
47
100
AcDbScale
 70
     0
300
10:1
140
10.0
141
1.0
290
     0
  0
SCALE
  5
58
102
{ACAD_REACTORS
330
47
102
}
330
47
100
AcDbScale
 70
     0
300
100:1
140
100.0
141
1.0
290
     0
  0
SCALE
  5
59
102
{ACAD_REACTORS
330
47
102
}
330
47
100
AcDbScale
 70
     0
300
1/128" = 1'-0"
140
0.007812
141
12.0
290
     0
  0
SCALE
  5
5A
102
{ACAD_REACTORS
330
47
102
}
330
47
100
AcDbScale
 70
     0
300
1/64" = 1'-0"
140
0.015625
141
12.0
290
     0
  0
SCALE
  5
5B
102
{ACAD_REACTORS
330
47
102
}
330
47
100
AcDbScale
 70
     0
300
1/32" = 1'-0"
140
0.03125
141
12.0
290
     0
  0
SCALE
  5
5C
102
{ACAD_REACTORS
330
47
102
}
330
47
100
AcDbScale
 70
     0
300
1/16" = 1'-0"
140
0.0625
141
12.0
290
     0
  0
SCALE
  5
5D
102
{ACAD_REACTORS
330
47
102
}
330
47
100
AcDbScale
 70
     0
300
3/32" = 1'-0"
140
0.09375
141
12.0
290
     0
  0
SCALE
  5
5E
102
{ACAD_REACTORS
330
47
102
}
330
47
100
AcDbScale
 70
     0
300
1/8" = 1'-0"
140
0.125
141
12.0
290
     0
  0
SCALE
  5
5F
102
{ACAD_REACTORS
330
47
102
}
330
47
100
AcDbScale
 70
     0
300
3/16" = 1'-0"
140
0.1875
141
12.0
290
     0
  0
SCALE
  5
60
102
{ACAD_REACTORS
330
47
102
}
330
47
100
AcDbScale
 70
     0
300
1/4" = 1'-0"
140
0.25
141
12.0
290
     0
  0
SCALE
  5
61
102
{ACAD_REACTORS
330
47
102
}
330
47
100
AcDbScale
 70
     0
300
3/8" = 1'-0"
140
0.375
141
12.0
290
     0
  0
SCALE
  5
62
102
{ACAD_REACTORS
330
47
102
}
330
47
100
AcDbScale
 70
     0
300
1/2" = 1'-0"
140
0.5
141
12.0
290
     0
  0
SCALE
  5
63
102
{ACAD_REACTORS
330
47
102
}
330
47
100
AcDbScale
 70
     0
300
3/4" = 1'-0"
140
0.75
141
12.0
290
     0
  0
SCALE
  5
64
102
{ACAD_REACTORS
330
47
102
}
330
47
100
AcDbScale
 70
     0
300
1" = 1'-0"
140
1.0
141
12.0
290
     0
  0
SCALE
  5
65
102
{ACAD_REACTORS
330
47
102
}
330
47
100
AcDbScale
 70
     0
300
1-1/2" = 1'-0"
140
1.5
141
12.0
290
     0
  0
SCALE
  5
66
102
{ACAD_REACTORS
330
47
102
}
330
47
100
AcDbScale
 70
     0
300
3" = 1'-0"
140
3.0
141
12.0
290
     0
  0
SCALE
  5
67
102
{ACAD_REACTORS
330
47
102
}
330
47
100
AcDbScale
 70
     0
300
6" = 1'-0"
140
6.0
141
12.0
290
     0
  0
SCALE
  5
68
102
{ACAD_REACTORS
330
47
102
}
330
47
100
AcDbScale
 70
     0
300
1'-0" = 1'-0"
140
12.0
141
12.0
290
     0
  0
TABLESTYLE
  5
6A
102
{ACAD_REACTORS
330
69
102
}
102
{ACAD_XDICTIONARY
360
3C5
102
}
330
69
100
AcDbTableStyle
  3
Standard
 70
     0
 71
     0
 40
0.06
 41
0.06
280
     0
281
     0
  7
Standard
140
4.5
170
     2
 62
     0
 63
   257
283
     0
 90
        4
 91
        0
  1

274
    -2
284
     1
 64
     0
275
    -2
285
     1
 65
     0
276
    -2
286
     1
 66
     0
277
    -2
287
     1
 67
     0
278
    -2
288
     1
 68
     0
279
    -2
289
     1
 69
     0
  7
Standard
140
6.0
170
     5
 62
     0
 63
   257
283
     0
 90
        4
 91
        0
  1

274
    -2
284
     1
 64
     0
275
    -2
285
     1
 65
     0
276
    -2
286
     1
 66
     0
277
    -2
287
     1
 67
     0
278
    -2
288
     1
 68
     0
279
    -2
289
     1
 69
     0
  7
Standard
140
4.5
170
     5
 62
     0
 63
   257
283
     0
 90
        4
 91
        0
  1

274
    -2
284
     1
 64
     0
275
    -2
285
     1
 65
     0
276
    -2
286
     1
 66
     0
277
    -2
287
     1
 67
     0
278
    -2
288
     1
 68
     0
279
    -2
289
     1
 69
     0
  0
VISUALSTYLE
  5
2F
102
{ACAD_REACTORS
330
2A
102
}
102
{ACAD_XDICTIONARY
360
39D
102
}
330
2A
100
AcDbVisualStyle
  2
2dWireframe
 70
     4
177
     2
291
     0
 71
     0
176
     1
 72
     2
176
     1
 73
     0
176
     1
 90
        0
176
     1
 40
0.6
176
     1
 41
30.0
176
     1
 62
     5
 63
     7
421
 16777215
176
     1
 74
     1
176
     1
 91
        4
176
     1
 64
     7
176
     1
 65
   257
176
     1
 75
     1
176
     1
175
     1
176
     1
 42
1.0
176
     1
 92
        0
176
     1
 66
   257
176
     1
 43
1.0
176
     1
 76
     1
176
     1
 77
     6
176
     1
 78
     2
176
     1
 67
     7
176
     1
 79
     5
176
     1
170
     0
176
     1
171
     0
176
     1
290
     0
176
     1
 93
        1
176
     1
 44
0.0
176
     1
173
     0
176
     1
  0
VISUALSTYLE
  5
32
102
{ACAD_REACTORS
330
2A
102
}
102
{ACAD_XDICTIONARY
360
3A3
102
}
330
2A
100
AcDbVisualStyle
  2
Basic
 70
     7
177
     2
291
     1
 71
     1
176
     1
 72
     0
176
     1
 73
     1
176
     1
 90
        0
176
     1
 40
0.6
176
     1
 41
30.0
176
     1
 62
     5
 63
     7
421
 16777215
176
     1
 74
     0
176
     1
 91
        4
176
     1
 64
     7
176
     1
 65
   257
176
     1
 75
     1
176
     1
175
     1
176
     1
 42
1.0
176
     1
 92
        8
176
     1
 66
     7
176
     1
 43
1.0
176
     1
 76
     1
176
     1
 77
     6
176
     1
 78
     2
176
     1
 67
     7
176
     1
 79
     5
176
     1
170
     0
176
     1
171
     0
176
     1
290
     0
176
     1
 93
        1
176
     1
 44
0.0
176
     1
173
     0
176
     1
  0
VISUALSTYLE
  5
36
102
{ACAD_REACTORS
330
2A
102
}
102
{ACAD_XDICTIONARY
360
3AB
102
}
330
2A
100
AcDbVisualStyle
  2
Brighten
 70
    12
177
     2
291
     1
 71
     2
176
     1
 72
     2
176
     1
 73
     0
176
     1
 90
        0
176
     1
 40
0.6
176
     1
 41
30.0
176
     1
 62
     5
 63
     7
421
 16777215
176
     1
 74
     1
176
     1
 91
        4
176
     1
 64
     7
176
     1
 65
   257
176
     1
 75
     1
176
     1
175
     1
176
     1
 42
1.0
176
     1
 92
        8
176
     1
 66
     7
176
     1
 43
1.0
176
     1
 76
     1
176
     1
 77
     6
176
     1
 78
     2
176
     1
 67
     7
176
     1
 79
     5
176
     1
170
     0
176
     1
171
     0
176
     1
290
     0
176
     1
 93
        1
176
     1
 44
50.0
176
     1
173
     0
176
     1
  0
VISUALSTYLE
  5
3A
102
{ACAD_REACTORS
330
2A
102
}
102
{ACAD_XDICTIONARY
360
3B3
102
}
330
2A
100
AcDbVisualStyle
  2
ColorChange
 70
    16
177
     2
291
     1
 71
     2
176
     1
 72
     2
176
     1
 73
     3
176
     1
 90
        0
176
     1
 40
0.6
176
     1
 41
30.0
176
     1
 62
     5
 63
     8
421
  8421504
176
     1
 74
     1
176
     1
 91
        4
176
     1
 64
     7
176
     1
 65
   257
176
     1
 75
     1
176
     1
175
     1
176
     1
 42
1.0
176
     1
 92
        8
176
     1
 66
     8
424
  8421504
176
     1
 43
1.0
176
     1
 76
     1
176
     1
 77
     6
176
     1
 78
     2
176
     1
 67
     7
176
     1
 79
     5
176
     1
170
     0
176
     1
171
     0
176
     1
290
     0
176
     1
 93
        1
176
     1
 44
0.0
176
     1
173
     0
176
     1
  0
VISUALSTYLE
  5
34
102
{ACAD_REACTORS
330
2A
102
}
102
{ACAD_XDICTIONARY
360
3A7
102
}
330
2A
100
AcDbVisualStyle
  2
Conceptual
 70
     9
177
     2
291
     0
 71
     3
176
     1
 72
     2
176
     1
 73
     0
176
     1
 90
        0
176
     1
 40
0.6
176
     1
 41
30.0
176
     1
 62
     5
 63
     7
421
 16777215
176
     1
 74
     2
176
     1
 91
        2
176
     1
 64
     7
176
     1
 65
   257
176
     1
 75
     1
176
     1
175
     1
176
     1
 42
179.0
176
     1
 92
        8
176
     1
 66
     7
176
     1
 43
1.0
176
     1
 76
     1
176
     1
 77
     6
176
     1
 78
     2
176
     1
 67
     7
176
     1
 79
     3
176
     1
170
     0
176
     1
171
     0
176
     1
290
     0
176
     1
 93
        1
176
     1
 44
0.0
176
     1
173
     0
176
     1
  0
VISUALSTYLE
  5
35
102
{ACAD_REACTORS
330
2A
102
}
102
{ACAD_XDICTIONARY
360
3A9
102
}
330
2A
100
AcDbVisualStyle
  2
Dim
 70
    11
177
     2
291
     1
 71
     2
176
     1
 72
     2
176
     1
 73
     0
176
     1
 90
        0
176
     1
 40
0.6
176
     1
 41
30.0
176
     1
 62
     5
 63
     7
421
 16777215
176
     1
 74
     1
176
     1
 91
        4
176
     1
 64
     7
176
     1
 65
   257
176
     1
 75
     1
176
     1
175
     1
176
     1
 42
1.0
176
     1
 92
        8
176
     1
 66
     7
176
     1
 43
1.0
176
     1
 76
     1
176
     1
 77
     6
176
     1
 78
     2
176
     1
 67
     7
176
     1
 79
     5
176
     1
170
     0
176
     1
171
     0
176
     1
290
     0
176
     1
 93
        1
176
     1
 44
-50.0
176
     1
173
     0
176
     1
  0
VISUALSTYLE
  5
3D
102
{ACAD_REACTORS
330
2A
102
}
102
{ACAD_XDICTIONARY
360
3B9
102
}
330
2A
100
AcDbVisualStyle
  2
EdgeColorOff
 70
    22
177
     2
291
     1
 71
     2
176
     0
 72
     2
176
     0
 73
     0
176
     0
 90
        0
176
     0
 40
0.6
176
     0
 41
30.0
176
     0
 62
     5
 63
     7
421
 16777215
176
     0
 74
     1
176
     0
 91
        4
176
     0
 64
     7
176
     0
 65
   257
176
     0
 75
     1
176
     0
175
     1
176
     0
 42
1.0
176
     0
 92
        8
176
     2
 66
     7
176
     0
 43
1.0
176
     0
 76
     1
176
     0
 77
     6
176
     0
 78
     2
176
     0
 67
     7
176
     0
 79
     5
176
     0
170
     0
176
     0
171
     0
176
     0
290
     0
176
     0
 93
        1
176
     0
 44
0.0
176
     0
173
     0
176
     0
  0
VISUALSTYLE
  5
39
102
{ACAD_REACTORS
330
2A
102
}
102
{ACAD_XDICTIONARY
360
3B1
102
}
330
2A
100
AcDbVisualStyle
  2
Facepattern
 70
    15
177
     2
291
     1
 71
     2
176
     1
 72
     2
176
     1
 73
     0
176
     1
 90
        0
176
     1
 40
0.6
176
     1
 41
30.0
176
     1
 62
     5
 63
     7
421
 16777215
176
     1
 74
     1
176
     1
 91
        4
176
     1
 64
     7
176
     1
 65
   257
176
     1
 75
     1
176
     1
175
     1
176
     1
 42
1.0
176
     1
 92
        8
176
     1
 66
     7
176
     1
 43
1.0
176
     1
 76
     1
176
     1
 77
     6
176
     1
 78
     2
176
     1
 67
     7
176
     1
 79
     5
176
     1
170
     0
176
     1
171
     0
176
     1
290
     0
176
     1
 93
        1
176
     1
 44
0.0
176
     1
173
     0
176
     1
  0
VISUALSTYLE
  5
2B
102
{ACAD_REACTORS
330
2A
102
}
102
{ACAD_XDICTIONARY
360
395
102
}
330
2A
100
AcDbVisualStyle
  2
Flat
 70
     0
177
     2
291
     1
 71
     2
176
     1
 72
     1
176
     1
 73
     1
176
     1
 90
        2
176
     1
 40
0.6
176
     1
 41
30.0
176
     1
 62
     5
 63
     7
421
 16777215
176
     1
 74
     0
176
     1
 91
        0
176
     1
 64
     7
176
     1
 65
   257
176
     1
 75
     1
176
     1
175
     1
176
     1
 42
1.0
176
     1
 92
        8
176
     1
 66
     7
176
     1
 43
1.0
176
     1
 76
     1
176
     1
 77
     6
176
     1
 78
     2
176
     1
 67
     7
176
     1
 79
     5
176
     1
170
     0
176
     1
171
     0
176
     1
290
     0
176
     1
 93
       13
176
     1
 44
0.0
176
     1
173
     0
176
     1
  0
VISUALSTYLE
  5
2C
102
{ACAD_REACTORS
330
2A
102
}
102
{ACAD_XDICTIONARY
360
397
102
}
330
2A
100
AcDbVisualStyle
  2
FlatWithEdges
 70
     1
177
     2
291
     1
 71
     2
176
     1
 72
     1
176
     1
 73
     1
176
     1
 90
        2
176
     1
 40
0.6
176
     1
 41
30.0
176
     1
 62
     5
 63
     7
421
 16777215
176
     1
 74
     1
176
     1
 91
        0
176
     1
 64
     7
176
     1
 65
   257
176
     1
 75
     1
176
     1
175
     1
176
     1
 42
1.0
176
     1
 92
        0
176
     1
 66
   257
176
     1
 43
1.0
176
     1
 76
     1
176
     1
 77
     6
176
     1
 78
     2
176
     1
 67
     7
176
     1
 79
     5
176
     1
170
     0
176
     1
171
     0
176
     1
290
     0
176
     1
 93
       13
176
     1
 44
0.0
176
     1
173
     0
176
     1
  0
VISUALSTYLE
  5
2D
102
{ACAD_REACTORS
330
2A
102
}
102
{ACAD_XDICTIONARY
360
399
102
}
330
2A
100
AcDbVisualStyle
  2
Gouraud
 70
     2
177
     2
291
     1
 71
     2
176
     1
 72
     2
176
     1
 73
     1
176
     1
 90
        2
176
     1
 40
0.6
176
     1
 41
30.0
176
     1
 62
     5
 63
     7
421
 16777215
176
     1
 74
     0
176
     1
 91
        0
176
     1
 64
     7
176
     1
 65
   257
176
     1
 75
     1
176
     1
175
     1
176
     1
 42
1.0
176
     1
 92
        0
176
     1
 66
     7
176
     1
 43
1.0
176
     1
 76
     1
176
     1
 77
     6
176
     1
 78
     2
176
     1
 67
     7
176
     1
 79
     5
176
     1
170
     0
176
     1
171
     0
176
     1
290
     0
176
     1
 93
       13
176
     1
 44
0.0
176
     1
173
     0
176
     1
  0
VISUALSTYLE
  5
2E
102
{ACAD_REACTORS
330
2A
102
}
102
{ACAD_XDICTIONARY
360
39B
102
}
330
2A
100
AcDbVisualStyle
  2
GouraudWithEdges
 70
     3
177
     2
291
     1
 71
     2
176
     1
 72
     2
176
     1
 73
     1
176
     1
 90
        2
176
     1
 40
0.6
176
     1
 41
30.0
176
     1
 62
     5
 63
     7
421
 16777215
176
     1
 74
     1
176
     1
 91
        0
176
     1
 64
     7
176
     1
 65
   257
176
     1
 75
     1
176
     1
175
     1
176
     1
 42
1.0
176
     1
 92
        0
176
     1
 66
   257
176
     1
 43
1.0
176
     1
 76
     1
176
     1
 77
     6
176
     1
 78
     2
176
     1
 67
     7
176
     1
 79
     5
176
     1
170
     0
176
     1
171
     0
176
     1
290
     0
176
     1
 93
       13
176
     1
 44
0.0
176
     1
173
     0
176
     1
  0
VISUALSTYLE
  5
31
102
{ACAD_REACTORS
330
2A
102
}
102
{ACAD_XDICTIONARY
360
3A1
102
}
330
2A
100
AcDbVisualStyle
  2
Hidden
 70
     6
177
     2
291
     0
 71
     1
176
     1
 72
     2
176
     1
 73
     2
176
     1
 90
        0
176
     1
 40
0.6
176
     1
 41
30.0
176
     1
 62
     5
 63
     7
421
 16777215
176
     1
 74
     2
176
     1
 91
        2
176
     1
 64
     7
176
     1
 65
   257
176
     1
 75
     2
176
     1
175
     1
176
     1
 42
40.0
176
     1
 92
        0
176
     1
 66
   257
176
     1
 43
1.0
176
     1
 76
     1
176
     1
 77
     6
176
     1
 78
     2
176
     1
 67
     7
176
     1
 79
     3
176
     1
170
     0
176
     1
171
     0
176
     1
290
     0
176
     1
 93
        1
176
     1
 44
0.0
176
     1
173
     0
176
     1
  0
VISUALSTYLE
  5
3B
102
{ACAD_REACTORS
330
2A
102
}
102
{ACAD_XDICTIONARY
360
3B5
102
}
330
2A
100
AcDbVisualStyle
  2
JitterOff
 70
    20
177
     2
291
     1
 71
     2
176
     0
 72
     2
176
     0
 73
     0
176
     0
 90
        0
176
     0
 40
0.6
176
     0
 41
30.0
176
     0
 62
     5
 63
     7
421
 16777215
176
     0
 74
     1
176
     0
 91
        4
176
     0
 64
     7
176
     0
 65
   257
176
     0
 75
     1
176
     0
175
     1
176
     0
 42
1.0
176
     0
 92
       10
176
     2
 66
     7
176
     0
 43
1.0
176
     0
 76
     1
176
     0
 77
     6
176
     0
 78
     2
176
     0
 67
     7
176
     0
 79
     5
176
     0
170
     0
176
     0
171
     0
176
     0
290
     0
176
     0
 93
        1
176
     0
 44
0.0
176
     0
173
     0
176
     0
  0
VISUALSTYLE
  5
38
102
{ACAD_REACTORS
330
2A
102
}
102
{ACAD_XDICTIONARY
360
3AF
102
}
330
2A
100
AcDbVisualStyle
  2
Linepattern
 70
    14
177
     2
291
     1
 71
     2
176
     1
 72
     2
176
     1
 73
     0
176
     1
 90
        0
176
     1
 40
0.6
176
     1
 41
30.0
176
     1
 62
     5
 63
     7
421
 16777215
176
     1
 74
     1
176
     1
 91
        4
176
     1
 64
     7
176
     1
 65
   257
176
     1
 75
     7
176
     1
175
     7
176
     1
 42
1.0
176
     1
 92
        8
176
     1
 66
     7
176
     1
 43
1.0
176
     1
 76
     1
176
     1
 77
     6
176
     1
 78
     2
176
     1
 67
     7
176
     1
 79
     5
176
     1
170
     0
176
     1
171
     0
176
     1
290
     0
176
     1
 93
        1
176
     1
 44
0.0
176
     1
173
     0
176
     1
  0
VISUALSTYLE
  5
3C
102
{ACAD_REACTORS
330
2A
102
}
102
{ACAD_XDICTIONARY
360
3B7
102
}
330
2A
100
AcDbVisualStyle
  2
OverhangOff
 70
    21
177
     2
291
     1
 71
     2
176
     0
 72
     2
176
     0
 73
     0
176
     0
 90
        0
176
     0
 40
0.6
176
     0
 41
30.0
176
     0
 62
     5
 63
     7
421
 16777215
176
     0
 74
     1
176
     0
 91
        4
176
     0
 64
     7
176
     0
 65
   257
176
     0
 75
     1
176
     0
175
     1
176
     0
 42
1.0
176
     0
 92
        9
176
     2
 66
     7
176
     0
 43
1.0
176
     0
 76
     1
176
     0
 77
     6
176
     0
 78
     2
176
     0
 67
     7
176
     0
 79
     5
176
     0
170
     0
176
     0
171
     0
176
     0
290
     0
176
     0
 93
        1
176
     0
 44
0.0
176
     0
173
     0
176
     0
  0
VISUALSTYLE
  5
33
102
{ACAD_REACTORS
330
2A
102
}
102
{ACAD_XDICTIONARY
360
3A5
102
}
330
2A
100
AcDbVisualStyle
  2
Realistic
 70
     8
177
     2
291
     0
 71
     2
176
     1
 72
     3
176
     1
 73
     0
176
     1
 90
        2
176
     1
 40
0.6
176
     1
 41
30.0
176
     1
 62
     5
 63
     7
421
 16777215
176
     1
 74
     0
176
     1
 91
        0
176
     1
 64
     7
176
     1
 65
   257
176
     1
 75
     1
176
     1
175
     1
176
     1
 42
1.0
176
     1
 92
        8
176
     1
 66
   257
176
     1
 43
1.0
176
     1
 76
     1
176
     1
 77
     6
176
     1
 78
     2
176
     1
 67
     7
176
     1
 79
     3
176
     1
170
     0
176
     1
171
     0
176
     1
290
     0
176
     1
 93
       13
176
     1
 44
0.0
176
     1
173
     0
176
     1
  0
VISUALSTYLE
  5
42
102
{ACAD_REACTORS
330
2A
102
}
102
{ACAD_XDICTIONARY
360
3C3
102
}
330
2A
100
AcDbVisualStyle
  2
Shaded
 70
    27
177
     2
291
     0
 71
     2
176
     1
 72
     2
176
     1
 73
     1
176
     1
 90
        2
176
     1
 40
0.6
176
     1
 41
30.0
176
     1
 62
     5
 63
     7
421
 16777215
176
     1
 74
     0
176
     1
 91
        4
176
     1
 64
     7
176
     1
 65
   257
176
     1
 75
     1
176
     1
175
     1
176
     1
 42
1.0
176
     1
 92
        8
176
     1
 66
   257
176
     1
 43
1.0
176
     1
 76
     1
176
     1
 77
     6
176
     1
 78
     2
176
     1
 67
     8
425
  7895160
176
     1
 79
     3
176
     1
170
     0
176
     1
171
     0
176
     1
290
     0
176
     1
 93
        5
176
     1
 44
0.0
176
     1
173
     0
176
     1
  0
VISUALSTYLE
  5
41
102
{ACAD_REACTORS
330
2A
102
}
102
{ACAD_XDICTIONARY
360
3C1
102
}
330
2A
100
AcDbVisualStyle
  2
Shaded with edges
 70
    26
177
     2
291
     0
 71
     2
176
     1
 72
     2
176
     1
 73
     1
176
     1
 90
        2
176
     1
 40
0.6
176
     1
 41
30.0
176
     1
 62
     5
 63
     7
421
 16777215
176
     1
 74
     1
176
     1
 91
       10
176
     1
 64
     7
176
     1
 65
   257
176
     1
 75
     2
176
     1
175
     1
176
     1
 42
1.0
176
     1
 92
        8
176
     1
 66
   257
176
     1
 43
1.0
176
     1
 76
     1
176
     1
 77
     6
176
     1
 78
     2
176
     1
 67
     7
176
     1
 79
     3
176
     1
170
     0
176
     1
171
     0
176
     1
290
     0
176
     1
 93
        5
176
     1
 44
0.0
176
     1
173
     0
176
     1
  0
VISUALSTYLE
  5
3E
102
{ACAD_REACTORS
330
2A
102
}
102
{ACAD_XDICTIONARY
360
3BB
102
}
330
2A
100
AcDbVisualStyle
  2
Shades of Gray
 70
    23
177
     2
291
     0
 71
     2
176
     1
 72
     2
176
     1
 73
     3
176
     1
 90
        0
176
     1
 40
0.6
176
     1
 41
30.0
176
     1
 62
     5
 63
     7
421
 16777215
176
     1
 74
     2
176
     1
 91
        2
176
     1
 64
     7
176
     1
 65
     7
176
     1
 75
     1
176
     1
175
     1
176
     1
 42
40.0
176
     1
 92
        8
176
     1
 66
     7
176
     1
 43
1.0
176
     1
 76
     1
176
     1
 77
     6
176
     1
 78
     2
176
     1
 67
     7
176
     1
 79
     3
176
     1
170
     0
176
     1
171
     0
176
     1
290
     0
176
     1
 93
        1
176
     1
 44
0.0
176
     1
173
     0
176
     1
  0
VISUALSTYLE
  5
3F
102
{ACAD_REACTORS
330
2A
102
}
102
{ACAD_XDICTIONARY
360
3BD
102
}
330
2A
100
AcDbVisualStyle
  2
Sketchy
 70
    24
177
     2
291
     0
 71
     1
176
     1
 72
     2
176
     1
 73
     2
176
     1
 90
        0
176
     1
 40
0.6
176
     1
 41
30.0
176
     1
 62
     5
 63
     7
421
 16777215
176
     1
 74
     2
176
     1
 91
        2
176
     1
 64
     7
176
     1
 65
     7
176
     1
 75
     1
176
     1
175
     1
176
     1
 42
40.0
176
     1
 92
       11
176
     1
 66
     7
176
     1
 43
1.0
176
     1
 76
     1
176
     1
 77
     6
176
     1
 78
     2
176
     1
 67
     7
176
     1
 79
     6
176
     1
170
     0
176
     1
171
     0
176
     1
290
     0
176
     1
 93
        1
176
     1
 44
0.0
176
     1
173
     0
176
     1
  0
VISUALSTYLE
  5
37
102
{ACAD_REACTORS
330
2A
102
}
102
{ACAD_XDICTIONARY
360
3AD
102
}
330
2A
100
AcDbVisualStyle
  2
Thicken
 70
    13
177
     2
291
     1
 71
     2
176
     1
 72
     2
176
     1
 73
     0
176
     1
 90
        0
176
     1
 40
0.6
176
     1
 41
30.0
176
     1
 62
     5
 63
     7
421
 16777215
176
     1
 74
     1
176
     1
 91
        4
176
     1
 64
     7
176
     1
 65
   257
176
     1
 75
     1
176
     1
175
     1
176
     1
 42
1.0
176
     1
 92
       12
176
     1
 66
     7
176
     1
 43
1.0
176
     1
 76
     1
176
     1
 77
     6
176
     1
 78
     2
176
     1
 67
     7
176
     1
 79
     5
176
     1
170
     0
176
     1
171
     0
176
     1
290
     0
176
     1
 93
        1
176
     1
 44
0.0
176
     1
173
     0
176
     1
  0
VISUALSTYLE
  5
30
102
{ACAD_REACTORS
330
2A
102
}
102
{ACAD_XDICTIONARY
360
39F
102
}
330
2A
100
AcDbVisualStyle
  2
Wireframe
 70
     5
177
     2
291
     0
 71
     0
176
     1
 72
     2
176
     1
 73
     0
176
     1
 90
        0
176
     1
 40
0.6
176
     1
 41
30.0
176
     1
 62
     5
 63
     7
421
 16777215
176
     1
 74
     1
176
     1
 91
        4
176
     1
 64
     7
176
     1
 65
   257
176
     1
 75
     1
176
     1
175
     1
176
     1
 42
1.0
176
     1
 92
        0
176
     1
 66
   257
176
     1
 43
1.0
176
     1
 76
     1
176
     1
 77
     6
176
     1
 78
     2
176
     1
 67
     7
176
     1
 79
     3
176
     1
170
     0
176
     1
171
     0
176
     1
290
     0
176
     1
 93
        1
176
     1
 44
0.0
176
     1
173
     0
176
     1
  0
VISUALSTYLE
  5
40
102
{ACAD_REACTORS
330
2A
102
}
102
{ACAD_XDICTIONARY
360
3BF
102
}
330
2A
100
AcDbVisualStyle
  2
X-Ray
 70
    25
177
     2
291
     0
 71
     2
176
     1
 72
     2
176
     1
 73
     1
176
     1
 90
        1
176
     1
 40
0.5
176
     1
 41
30.0
176
     1
 62
     5
 63
     7
421
 16777215
176
     1
 74
     1
176
     1
 91
        0
176
     1
 64
     7
176
     1
 65
   257
176
     1
 75
     1
176
     1
175
     1
176
     1
 42
1.0
176
     1
 92
        8
176
     1
 66
     7
176
     1
 43
1.0
176
     1
 76
     1
176
     1
 77
     6
176
     1
 78
     2
176
     1
 67
     7
176
     1
 79
     3
176
     1
170
     0
176
     1
171
     0
176
     1
290
     0
176
     1
 93
       13
176
     1
 44
0.0
176
     1
173
     0
176
     1
  0
DICTIONARYVAR
  5
394
102
{ACAD_REACTORS
330
393
102
}
330
393
100
DictionaryVariables
280
     0
  1
1:1
  0
DICTIONARYVAR
  5
3C9
102
{ACAD_REACTORS
330
393
102
}
330
393
100
DictionaryVariables
280
     0
  1
Standard
  0
DICTIONARYVAR
  5
3C8
102
{ACAD_REACTORS
330
393
102
}
330
393
100
DictionaryVariables
280
     0
  1
Standard
  0
DICTIONARY
  5
3C5
330
6A
100
AcDbDictionary
280
     1
281
     1
  3
ACAD_ROUNDTRIP_2008_TABLESTYLE_CELLSTYLEMAP
360
3C6
  0
DICTIONARY
  5
39D
330
2F
100
AcDbDictionary
280
     1
281
     1
  3
ACAD_XREC_ROUNDTRIP
360
39E
  0
DICTIONARY
  5
3A3
330
32
100
AcDbDictionary
280
     1
281
     1
  3
ACAD_XREC_ROUNDTRIP
360
3A4
  0
DICTIONARY
  5
3AB
330
36
100
AcDbDictionary
280
     1
281
     1
  3
ACAD_XREC_ROUNDTRIP
360
3AC
  0
DICTIONARY
  5
3B3
330
3A
100
AcDbDictionary
280
     1
281
     1
  3
ACAD_XREC_ROUNDTRIP
360
3B4
  0
DICTIONARY
  5
3A7
330
34
100
AcDbDictionary
280
     1
281
     1
  3
ACAD_XREC_ROUNDTRIP
360
3A8
  0
DICTIONARY
  5
3A9
330
35
100
AcDbDictionary
280
     1
281
     1
  3
ACAD_XREC_ROUNDTRIP
360
3AA
  0
DICTIONARY
  5
3B9
330
3D
100
AcDbDictionary
280
     1
281
     1
  3
ACAD_XREC_ROUNDTRIP
360
3BA
  0
DICTIONARY
  5
3B1
330
39
100
AcDbDictionary
280
     1
281
     1
  3
ACAD_XREC_ROUNDTRIP
360
3B2
  0
DICTIONARY
  5
395
330
2B
100
AcDbDictionary
280
     1
281
     1
  3
ACAD_XREC_ROUNDTRIP
360
396
  0
DICTIONARY
  5
397
330
2C
100
AcDbDictionary
280
     1
281
     1
  3
ACAD_XREC_ROUNDTRIP
360
398
  0
DICTIONARY
  5
399
330
2D
100
AcDbDictionary
280
     1
281
     1
  3
ACAD_XREC_ROUNDTRIP
360
39A
  0
DICTIONARY
  5
39B
330
2E
100
AcDbDictionary
280
     1
281
     1
  3
ACAD_XREC_ROUNDTRIP
360
39C
  0
DICTIONARY
  5
3A1
330
31
100
AcDbDictionary
280
     1
281
     1
  3
ACAD_XREC_ROUNDTRIP
360
3A2
  0
DICTIONARY
  5
3B5
330
3B
100
AcDbDictionary
280
     1
281
     1
  3
ACAD_XREC_ROUNDTRIP
360
3B6
  0
DICTIONARY
  5
3AF
330
38
100
AcDbDictionary
280
     1
281
     1
  3
ACAD_XREC_ROUNDTRIP
360
3B0
  0
DICTIONARY
  5
3B7
330
3C
100
AcDbDictionary
280
     1
281
     1
  3
ACAD_XREC_ROUNDTRIP
360
3B8
  0
DICTIONARY
  5
3A5
330
33
100
AcDbDictionary
280
     1
281
     1
  3
ACAD_XREC_ROUNDTRIP
360
3A6
  0
DICTIONARY
  5
3C3
330
42
100
AcDbDictionary
280
     1
281
     1
  3
ACAD_XREC_ROUNDTRIP
360
3C4
  0
DICTIONARY
  5
3C1
330
41
100
AcDbDictionary
280
     1
281
     1
  3
ACAD_XREC_ROUNDTRIP
360
3C2
  0
DICTIONARY
  5
3BB
330
3E
100
AcDbDictionary
280
     1
281
     1
  3
ACAD_XREC_ROUNDTRIP
360
3BC
  0
DICTIONARY
  5
3BD
330
3F
100
AcDbDictionary
280
     1
281
     1
  3
ACAD_XREC_ROUNDTRIP
360
3BE
  0
DICTIONARY
  5
3AD
330
37
100
AcDbDictionary
280
     1
281
     1
  3
ACAD_XREC_ROUNDTRIP
360
3AE
  0
DICTIONARY
  5
39F
330
30
100
AcDbDictionary
280
     1
281
     1
  3
ACAD_XREC_ROUNDTRIP
360
3A0
  0
DICTIONARY
  5
3BF
330
40
100
AcDbDictionary
280
     1
281
     1
  3
ACAD_XREC_ROUNDTRIP
360
3C0
  0
CELLSTYLEMAP
  5
3C6
102
{ACAD_REACTORS
330
3C5
102
}
330
3C5
100
AcDbCellStyleMap
 90
        3
300
CELLSTYLE
  1
TABLEFORMAT_BEGIN
 90
        5
170
     1
 91
        0
 92
    32768
 62
   257
 93
        1
300
CONTENTFORMAT
  1
CONTENTFORMAT_BEGIN
 90
        0
 91
        0
 92
        4
 93
        0
300

 40
0.0
140
1.0
 94
        5
 62
     0
340
11
144
6.0
309
CONTENTFORMAT_END
171
     1
301
MARGIN
  1
CELLMARGIN_BEGIN
 40
1.5
 40
1.5
 40
1.5
 40
1.5
 40
1.5
 40
1.5
309
CELLMARGIN_END
 94
        6
 95
        1
302
GRIDFORMAT
  1
GRIDFORMAT_BEGIN
 90
        0
 91
        1
 62
     0
 92
       -2
340
14
 93
        0
 40
0.045
309
GRIDFORMAT_END
 95
        2
302
GRIDFORMAT
  1
GRIDFORMAT_BEGIN
 90
        0
 91
        1
 62
     0
 92
       -2
340
14
 93
        0
 40
0.045
309
GRIDFORMAT_END
 95
        4
302
GRIDFORMAT
  1
GRIDFORMAT_BEGIN
 90
        0
 91
        1
 62
     0
 92
       -2
340
14
 93
        0
 40
0.045
309
GRIDFORMAT_END
 95
        8
302
GRIDFORMAT
  1
GRIDFORMAT_BEGIN
 90
        0
 91
        1
 62
     0
 92
       -2
340
14
 93
        0
 40
0.045
309
GRIDFORMAT_END
 95
       16
302
GRIDFORMAT
  1
GRIDFORMAT_BEGIN
 90
        0
 91
        1
 62
     0
 92
       -2
340
14
 93
        0
 40
0.045
309
GRIDFORMAT_END
 95
       32
302
GRIDFORMAT
  1
GRIDFORMAT_BEGIN
 90
        0
 91
        1
 62
     0
 92
       -2
340
14
 93
        0
 40
0.045
309
GRIDFORMAT_END
309
TABLEFORMAT_END
  1
CELLSTYLE_BEGIN
 90
        1
 91
        1
300
_TITLE
309
CELLSTYLE_END
300
CELLSTYLE
  1
TABLEFORMAT_BEGIN
 90
        5
170
     1
 91
        0
 92
        0
 62
   257
 93
        1
300
CONTENTFORMAT
  1
CONTENTFORMAT_BEGIN
 90
        0
 91
        0
 92
        4
 93
        0
300

 40
0.0
140
1.0
 94
        5
 62
     0
340
11
144
4.5
309
CONTENTFORMAT_END
171
     1
301
MARGIN
  1
CELLMARGIN_BEGIN
 40
1.5
 40
1.5
 40
1.5
 40
1.5
 40
1.5
 40
1.5
309
CELLMARGIN_END
 94
        6
 95
        1
302
GRIDFORMAT
  1
GRIDFORMAT_BEGIN
 90
        0
 91
        1
 62
     0
 92
       -2
340
14
 93
        0
 40
0.045
309
GRIDFORMAT_END
 95
        2
302
GRIDFORMAT
  1
GRIDFORMAT_BEGIN
 90
        0
 91
        1
 62
     0
 92
       -2
340
14
 93
        0
 40
0.045
309
GRIDFORMAT_END
 95
        4
302
GRIDFORMAT
  1
GRIDFORMAT_BEGIN
 90
        0
 91
        1
 62
     0
 92
       -2
340
14
 93
        0
 40
0.045
309
GRIDFORMAT_END
 95
        8
302
GRIDFORMAT
  1
GRIDFORMAT_BEGIN
 90
        0
 91
        1
 62
     0
 92
       -2
340
14
 93
        0
 40
0.045
309
GRIDFORMAT_END
 95
       16
302
GRIDFORMAT
  1
GRIDFORMAT_BEGIN
 90
        0
 91
        1
 62
     0
 92
       -2
340
14
 93
        0
 40
0.045
309
GRIDFORMAT_END
 95
       32
302
GRIDFORMAT
  1
GRIDFORMAT_BEGIN
 90
        0
 91
        1
 62
     0
 92
       -2
340
14
 93
        0
 40
0.045
309
GRIDFORMAT_END
309
TABLEFORMAT_END
  1
CELLSTYLE_BEGIN
 90
        2
 91
        1
300
_HEADER
309
CELLSTYLE_END
300
CELLSTYLE
  1
TABLEFORMAT_BEGIN
 90
        5
170
     1
 91
        0
 92
        0
 62
   257
 93
        1
300
CONTENTFORMAT
  1
CONTENTFORMAT_BEGIN
 90
        0
 91
        0
 92
        4
 93
        0
300

 40
0.0
140
1.0
 94
        2
 62
     0
340
11
144
4.5
309
CONTENTFORMAT_END
171
     1
301
MARGIN
  1
CELLMARGIN_BEGIN
 40
1.5
 40
1.5
 40
1.5
 40
1.5
 40
1.5
 40
1.5
309
CELLMARGIN_END
 94
        6
 95
        1
302
GRIDFORMAT
  1
GRIDFORMAT_BEGIN
 90
        0
 91
        1
 62
     0
 92
       -2
340
14
 93
        0
 40
0.045
309
GRIDFORMAT_END
 95
        2
302
GRIDFORMAT
  1
GRIDFORMAT_BEGIN
 90
        0
 91
        1
 62
     0
 92
       -2
340
14
 93
        0
 40
0.045
309
GRIDFORMAT_END
 95
        4
302
GRIDFORMAT
  1
GRIDFORMAT_BEGIN
 90
        0
 91
        1
 62
     0
 92
       -2
340
14
 93
        0
 40
0.045
309
GRIDFORMAT_END
 95
        8
302
GRIDFORMAT
  1
GRIDFORMAT_BEGIN
 90
        0
 91
        1
 62
     0
 92
       -2
340
14
 93
        0
 40
0.045
309
GRIDFORMAT_END
 95
       16
302
GRIDFORMAT
  1
GRIDFORMAT_BEGIN
 90
        0
 91
        1
 62
     0
 92
       -2
340
14
 93
        0
 40
0.045
309
GRIDFORMAT_END
 95
       32
302
GRIDFORMAT
  1
GRIDFORMAT_BEGIN
 90
        0
 91
        1
 62
     0
 92
       -2
340
14
 93
        0
 40
0.045
309
GRIDFORMAT_END
309
TABLEFORMAT_END
  1
CELLSTYLE_BEGIN
 90
        3
 91
        2
300
_DATA
309
CELLSTYLE_END
  0
XRECORD
  5
39E
102
{ACAD_REACTORS
330
39D
102
}
330
39D
100
AcDbXrecord
280
     1
102
RTVSPost2010Prop28
280
     1
102
RTVSPost2010PropOp28
 70
     1
102
RTVSPost2010Prop29
280
     1
102
RTVSPost2010PropOp29
 70
     1
102
RTVSPost2010Prop30
280
     0
102
RTVSPost2010PropOp30
 70
     1
102
RTVSPost2010Prop31
280
     0
102
RTVSPost2010PropOp31
 70
     1
102
RTVSPost2010Prop32
280
     0
102
RTVSPost2010PropOp32
 70
     1
102
RTVSPost2010Prop33
280
     0
102
RTVSPost2010PropOp33
 70
     1
102
RTVSPost2010Prop34
280
     0
102
RTVSPost2010PropOp34
 70
     1
102
RTVSPost2010Prop35
280
     0
102
RTVSPost2010PropOp35
 70
     1
102
RTVSPost2010Prop36
280
     0
102
RTVSPost2010PropOp36
 70
     1
102
RTVSPost2010Prop37
 90
       50
102
RTVSPost2010PropOp37
 70
     1
102
RTVSPost2010Prop38
140
0.0
102
RTVSPost2010PropOp38
 70
     1
102
RTVSPost2010Prop39
140
1.0
102
RTVSPost2010PropOp39
 70
     1
102
RTVSPost2010Prop40
 90
        0
102
RTVSPost2010PropOp40
 70
     1
102
RTVSPost2010Prop41ColorIndex
 90
       18
102
RTVSPost2010Prop41ColorRGB
 90
        0
102
RTVSPost2010PropOp41
 70
     1
102
RTVSPost2010Prop42
 90
       50
102
RTVSPost2010PropOp42
 70
     1
102
RTVSPost2010Prop43
 90
        3
102
RTVSPost2010PropOp43
 70
     1
102
RTVSPost2010Prop44ColorIndex
 90
        5
102
RTVSPost2010Prop44ColorRGB
 90
      255
102
RTVSPost2010PropOp44
 70
     1
102
RTVSPost2010Prop45
280
     0
102
RTVSPost2010PropOp45
 70
     1
102
RTVSPost2010Prop46
 90
       50
102
RTVSPost2010PropOp46
 70
     1
102
RTVSPost2010Prop47
 90
       50
102
RTVSPost2010PropOp47
 70
     1
102
RTVSPost2010Prop48
 90
       50
102
RTVSPost2010PropOp48
 70
     1
102
RTVSPost2010Prop49
280
     0
102
RTVSPost2010PropOp49
 70
     1
102
RTVSPost2010Prop50
 90
       50
102
RTVSPost2010PropOp50
 70
     1
102
RTVSPost2010Prop51ColorIndex
 90
      256
102
RTVSPost2010Prop51ColorRGB
 90
-16777216
102
RTVSPost2010PropOp51
 70
     0
102
RTVSPost2010Prop52
140
1.0
102
RTVSPost2010PropOp52
 70
     0
102
RTVSPost2010Prop53
 90
        2
102
RTVSPost2010PropOp53
 70
     1
102
RTVSPost2010Prop54
  1
strokes_ogs.tif
102
RTVSPost2010PropOp54
 70
     1
102
RTVSPost2010Prop55
280
     0
102
RTVSPost2010PropOp55
 70
     1
102
RTVSPost2010Prop56
140
1.0
102
RTVSPost2010PropOp56
 70
     1
102
RTVSPost2010Prop57
140
1.0
102
RTVSPost2010PropOp57
 70
     1
  0
XRECORD
  5
3A4
102
{ACAD_REACTORS
330
3A3
102
}
330
3A3
100
AcDbXrecord
280
     1
102
RTVSPost2010Prop28
280
     0
102
RTVSPost2010PropOp28
 70
     1
102
RTVSPost2010Prop29
280
     1
102
RTVSPost2010PropOp29
 70
     1
102
RTVSPost2010Prop30
280
     1
102
RTVSPost2010PropOp30
 70
     1
102
RTVSPost2010Prop31
280
     0
102
RTVSPost2010PropOp31
 70
     1
102
RTVSPost2010Prop32
280
     0
102
RTVSPost2010PropOp32
 70
     1
102
RTVSPost2010Prop33
280
     0
102
RTVSPost2010PropOp33
 70
     1
102
RTVSPost2010Prop34
280
     0
102
RTVSPost2010PropOp34
 70
     1
102
RTVSPost2010Prop35
280
     0
102
RTVSPost2010PropOp35
 70
     1
102
RTVSPost2010Prop36
280
     0
102
RTVSPost2010PropOp36
 70
     1
102
RTVSPost2010Prop37
 90
       50
102
RTVSPost2010PropOp37
 70
     1
102
RTVSPost2010Prop38
140
0.0
102
RTVSPost2010PropOp38
 70
     1
102
RTVSPost2010Prop39
140
1.0
102
RTVSPost2010PropOp39
 70
     1
102
RTVSPost2010Prop40
 90
        0
102
RTVSPost2010PropOp40
 70
     1
102
RTVSPost2010Prop41ColorIndex
 90
       18
102
RTVSPost2010Prop41ColorRGB
 90
        0
102
RTVSPost2010PropOp41
 70
     1
102
RTVSPost2010Prop42
 90
       50
102
RTVSPost2010PropOp42
 70
     1
102
RTVSPost2010Prop43
 90
        3
102
RTVSPost2010PropOp43
 70
     1
102
RTVSPost2010Prop44ColorIndex
 90
        5
102
RTVSPost2010Prop44ColorRGB
 90
      255
102
RTVSPost2010PropOp44
 70
     1
102
RTVSPost2010Prop45
280
     0
102
RTVSPost2010PropOp45
 70
     1
102
RTVSPost2010Prop46
 90
       50
102
RTVSPost2010PropOp46
 70
     1
102
RTVSPost2010Prop47
 90
       50
102
RTVSPost2010PropOp47
 70
     1
102
RTVSPost2010Prop48
 90
       50
102
RTVSPost2010PropOp48
 70
     1
102
RTVSPost2010Prop49
280
     0
102
RTVSPost2010PropOp49
 70
     1
102
RTVSPost2010Prop50
 90
       50
102
RTVSPost2010PropOp50
 70
     1
102
RTVSPost2010Prop51ColorIndex
 90
      256
102
RTVSPost2010Prop51ColorRGB
 90
-16777216
102
RTVSPost2010PropOp51
 70
     0
102
RTVSPost2010Prop52
140
1.0
102
RTVSPost2010PropOp52
 70
     0
102
RTVSPost2010Prop53
 90
        2
102
RTVSPost2010PropOp53
 70
     1
102
RTVSPost2010Prop54
  1
strokes_ogs.tif
102
RTVSPost2010PropOp54
 70
     1
102
RTVSPost2010Prop55
280
     0
102
RTVSPost2010PropOp55
 70
     1
102
RTVSPost2010Prop56
140
1.0
102
RTVSPost2010PropOp56
 70
     1
102
RTVSPost2010Prop57
140
1.0
102
RTVSPost2010PropOp57
 70
     1
  0
XRECORD
  5
3AC
102
{ACAD_REACTORS
330
3AB
102
}
330
3AB
100
AcDbXrecord
280
     1
102
RTVSPost2010Prop28
280
     0
102
RTVSPost2010PropOp28
 70
     1
102
RTVSPost2010Prop29
280
     1
102
RTVSPost2010PropOp29
 70
     1
102
RTVSPost2010Prop30
280
     1
102
RTVSPost2010PropOp30
 70
     1
102
RTVSPost2010Prop31
280
     0
102
RTVSPost2010PropOp31
 70
     1
102
RTVSPost2010Prop32
280
     0
102
RTVSPost2010PropOp32
 70
     1
102
RTVSPost2010Prop33
280
     0
102
RTVSPost2010PropOp33
 70
     1
102
RTVSPost2010Prop34
280
     0
102
RTVSPost2010PropOp34
 70
     1
102
RTVSPost2010Prop35
280
     0
102
RTVSPost2010PropOp35
 70
     1
102
RTVSPost2010Prop36
280
     0
102
RTVSPost2010PropOp36
 70
     1
102
RTVSPost2010Prop37
 90
       50
102
RTVSPost2010PropOp37
 70
     1
102
RTVSPost2010Prop38
140
0.0
102
RTVSPost2010PropOp38
 70
     1
102
RTVSPost2010Prop39
140
1.0
102
RTVSPost2010PropOp39
 70
     1
102
RTVSPost2010Prop40
 90
        0
102
RTVSPost2010PropOp40
 70
     1
102
RTVSPost2010Prop41ColorIndex
 90
       18
102
RTVSPost2010Prop41ColorRGB
 90
        0
102
RTVSPost2010PropOp41
 70
     1
102
RTVSPost2010Prop42
 90
       50
102
RTVSPost2010PropOp42
 70
     1
102
RTVSPost2010Prop43
 90
        3
102
RTVSPost2010PropOp43
 70
     1
102
RTVSPost2010Prop44ColorIndex
 90
        5
102
RTVSPost2010Prop44ColorRGB
 90
      255
102
RTVSPost2010PropOp44
 70
     1
102
RTVSPost2010Prop45
280
     0
102
RTVSPost2010PropOp45
 70
     1
102
RTVSPost2010Prop46
 90
       50
102
RTVSPost2010PropOp46
 70
     1
102
RTVSPost2010Prop47
 90
       50
102
RTVSPost2010PropOp47
 70
     1
102
RTVSPost2010Prop48
 90
       50
102
RTVSPost2010PropOp48
 70
     1
102
RTVSPost2010Prop49
280
     0
102
RTVSPost2010PropOp49
 70
     1
102
RTVSPost2010Prop50
 90
       50
102
RTVSPost2010PropOp50
 70
     1
102
RTVSPost2010Prop51ColorIndex
 90
      256
102
RTVSPost2010Prop51ColorRGB
 90
-16777216
102
RTVSPost2010PropOp51
 70
     0
102
RTVSPost2010Prop52
140
1.0
102
RTVSPost2010PropOp52
 70
     0
102
RTVSPost2010Prop53
 90
        2
102
RTVSPost2010PropOp53
 70
     1
102
RTVSPost2010Prop54
  1
strokes_ogs.tif
102
RTVSPost2010PropOp54
 70
     1
102
RTVSPost2010Prop55
280
     0
102
RTVSPost2010PropOp55
 70
     1
102
RTVSPost2010Prop56
140
1.0
102
RTVSPost2010PropOp56
 70
     1
102
RTVSPost2010Prop57
140
1.0
102
RTVSPost2010PropOp57
 70
     1
  0
XRECORD
  5
3B4
102
{ACAD_REACTORS
330
3B3
102
}
330
3B3
100
AcDbXrecord
280
     1
102
RTVSPost2010Prop28
280
     0
102
RTVSPost2010PropOp28
 70
     1
102
RTVSPost2010Prop29
280
     1
102
RTVSPost2010PropOp29
 70
     1
102
RTVSPost2010Prop30
280
     1
102
RTVSPost2010PropOp30
 70
     1
102
RTVSPost2010Prop31
280
     0
102
RTVSPost2010PropOp31
 70
     1
102
RTVSPost2010Prop32
280
     0
102
RTVSPost2010PropOp32
 70
     1
102
RTVSPost2010Prop33
280
     0
102
RTVSPost2010PropOp33
 70
     1
102
RTVSPost2010Prop34
280
     0
102
RTVSPost2010PropOp34
 70
     1
102
RTVSPost2010Prop35
280
     0
102
RTVSPost2010PropOp35
 70
     1
102
RTVSPost2010Prop36
280
     0
102
RTVSPost2010PropOp36
 70
     1
102
RTVSPost2010Prop37
 90
       50
102
RTVSPost2010PropOp37
 70
     1
102
RTVSPost2010Prop38
140
0.0
102
RTVSPost2010PropOp38
 70
     1
102
RTVSPost2010Prop39
140
1.0
102
RTVSPost2010PropOp39
 70
     1
102
RTVSPost2010Prop40
 90
        0
102
RTVSPost2010PropOp40
 70
     1
102
RTVSPost2010Prop41ColorIndex
 90
       18
102
RTVSPost2010Prop41ColorRGB
 90
        0
102
RTVSPost2010PropOp41
 70
     1
102
RTVSPost2010Prop42
 90
       50
102
RTVSPost2010PropOp42
 70
     1
102
RTVSPost2010Prop43
 90
        3
102
RTVSPost2010PropOp43
 70
     1
102
RTVSPost2010Prop44ColorIndex
 90
        5
102
RTVSPost2010Prop44ColorRGB
 90
      255
102
RTVSPost2010PropOp44
 70
     1
102
RTVSPost2010Prop45
280
     0
102
RTVSPost2010PropOp45
 70
     1
102
RTVSPost2010Prop46
 90
       50
102
RTVSPost2010PropOp46
 70
     1
102
RTVSPost2010Prop47
 90
       50
102
RTVSPost2010PropOp47
 70
     1
102
RTVSPost2010Prop48
 90
       50
102
RTVSPost2010PropOp48
 70
     1
102
RTVSPost2010Prop49
280
     0
102
RTVSPost2010PropOp49
 70
     1
102
RTVSPost2010Prop50
 90
       50
102
RTVSPost2010PropOp50
 70
     1
102
RTVSPost2010Prop51ColorIndex
 90
      256
102
RTVSPost2010Prop51ColorRGB
 90
-16777216
102
RTVSPost2010PropOp51
 70
     0
102
RTVSPost2010Prop52
140
1.0
102
RTVSPost2010PropOp52
 70
     0
102
RTVSPost2010Prop53
 90
        2
102
RTVSPost2010PropOp53
 70
     1
102
RTVSPost2010Prop54
  1
strokes_ogs.tif
102
RTVSPost2010PropOp54
 70
     1
102
RTVSPost2010Prop55
280
     0
102
RTVSPost2010PropOp55
 70
     1
102
RTVSPost2010Prop56
140
1.0
102
RTVSPost2010PropOp56
 70
     1
102
RTVSPost2010Prop57
140
1.0
102
RTVSPost2010PropOp57
 70
     1
  0
XRECORD
  5
3A8
102
{ACAD_REACTORS
330
3A7
102
}
330
3A7
100
AcDbXrecord
280
     1
102
RTVSPost2010Prop28
280
     0
102
RTVSPost2010PropOp28
 70
     1
102
RTVSPost2010Prop29
280
     1
102
RTVSPost2010PropOp29
 70
     1
102
RTVSPost2010Prop30
280
     1
102
RTVSPost2010PropOp30
 70
     1
102
RTVSPost2010Prop31
280
     0
102
RTVSPost2010PropOp31
 70
     1
102
RTVSPost2010Prop32
280
     0
102
RTVSPost2010PropOp32
 70
     1
102
RTVSPost2010Prop33
280
     0
102
RTVSPost2010PropOp33
 70
     1
102
RTVSPost2010Prop34
280
     0
102
RTVSPost2010PropOp34
 70
     1
102
RTVSPost2010Prop35
280
     0
102
RTVSPost2010PropOp35
 70
     1
102
RTVSPost2010Prop36
280
     0
102
RTVSPost2010PropOp36
 70
     1
102
RTVSPost2010Prop37
 90
       50
102
RTVSPost2010PropOp37
 70
     1
102
RTVSPost2010Prop38
140
0.0
102
RTVSPost2010PropOp38
 70
     1
102
RTVSPost2010Prop39
140
1.0
102
RTVSPost2010PropOp39
 70
     1
102
RTVSPost2010Prop40
 90
        0
102
RTVSPost2010PropOp40
 70
     1
102
RTVSPost2010Prop41ColorIndex
 90
       18
102
RTVSPost2010Prop41ColorRGB
 90
        0
102
RTVSPost2010PropOp41
 70
     1
102
RTVSPost2010Prop42
 90
       50
102
RTVSPost2010PropOp42
 70
     1
102
RTVSPost2010Prop43
 90
        3
102
RTVSPost2010PropOp43
 70
     1
102
RTVSPost2010Prop44ColorIndex
 90
        5
102
RTVSPost2010Prop44ColorRGB
 90
      255
102
RTVSPost2010PropOp44
 70
     1
102
RTVSPost2010Prop45
280
     0
102
RTVSPost2010PropOp45
 70
     1
102
RTVSPost2010Prop46
 90
       50
102
RTVSPost2010PropOp46
 70
     1
102
RTVSPost2010Prop47
 90
       50
102
RTVSPost2010PropOp47
 70
     1
102
RTVSPost2010Prop48
 90
       50
102
RTVSPost2010PropOp48
 70
     1
102
RTVSPost2010Prop49
280
     0
102
RTVSPost2010PropOp49
 70
     1
102
RTVSPost2010Prop50
 90
       50
102
RTVSPost2010PropOp50
 70
     1
102
RTVSPost2010Prop51ColorIndex
 90
      256
102
RTVSPost2010Prop51ColorRGB
 90
-16777216
102
RTVSPost2010PropOp51
 70
     0
102
RTVSPost2010Prop52
140
1.0
102
RTVSPost2010PropOp52
 70
     0
102
RTVSPost2010Prop53
 90
        2
102
RTVSPost2010PropOp53
 70
     1
102
RTVSPost2010Prop54
  1
strokes_ogs.tif
102
RTVSPost2010PropOp54
 70
     1
102
RTVSPost2010Prop55
280
     0
102
RTVSPost2010PropOp55
 70
     1
102
RTVSPost2010Prop56
140
1.0
102
RTVSPost2010PropOp56
 70
     1
102
RTVSPost2010Prop57
140
1.0
102
RTVSPost2010PropOp57
 70
     1
  0
XRECORD
  5
3AA
102
{ACAD_REACTORS
330
3A9
102
}
330
3A9
100
AcDbXrecord
280
     1
102
RTVSPost2010Prop28
280
     0
102
RTVSPost2010PropOp28
 70
     1
102
RTVSPost2010Prop29
280
     1
102
RTVSPost2010PropOp29
 70
     1
102
RTVSPost2010Prop30
280
     1
102
RTVSPost2010PropOp30
 70
     1
102
RTVSPost2010Prop31
280
     0
102
RTVSPost2010PropOp31
 70
     1
102
RTVSPost2010Prop32
280
     0
102
RTVSPost2010PropOp32
 70
     1
102
RTVSPost2010Prop33
280
     0
102
RTVSPost2010PropOp33
 70
     1
102
RTVSPost2010Prop34
280
     0
102
RTVSPost2010PropOp34
 70
     1
102
RTVSPost2010Prop35
280
     0
102
RTVSPost2010PropOp35
 70
     1
102
RTVSPost2010Prop36
280
     0
102
RTVSPost2010PropOp36
 70
     1
102
RTVSPost2010Prop37
 90
       50
102
RTVSPost2010PropOp37
 70
     1
102
RTVSPost2010Prop38
140
0.0
102
RTVSPost2010PropOp38
 70
     1
102
RTVSPost2010Prop39
140
1.0
102
RTVSPost2010PropOp39
 70
     1
102
RTVSPost2010Prop40
 90
        0
102
RTVSPost2010PropOp40
 70
     1
102
RTVSPost2010Prop41ColorIndex
 90
       18
102
RTVSPost2010Prop41ColorRGB
 90
        0
102
RTVSPost2010PropOp41
 70
     1
102
RTVSPost2010Prop42
 90
       50
102
RTVSPost2010PropOp42
 70
     1
102
RTVSPost2010Prop43
 90
        3
102
RTVSPost2010PropOp43
 70
     1
102
RTVSPost2010Prop44ColorIndex
 90
        5
102
RTVSPost2010Prop44ColorRGB
 90
      255
102
RTVSPost2010PropOp44
 70
     1
102
RTVSPost2010Prop45
280
     0
102
RTVSPost2010PropOp45
 70
     1
102
RTVSPost2010Prop46
 90
       50
102
RTVSPost2010PropOp46
 70
     1
102
RTVSPost2010Prop47
 90
       50
102
RTVSPost2010PropOp47
 70
     1
102
RTVSPost2010Prop48
 90
       50
102
RTVSPost2010PropOp48
 70
     1
102
RTVSPost2010Prop49
280
     0
102
RTVSPost2010PropOp49
 70
     1
102
RTVSPost2010Prop50
 90
       50
102
RTVSPost2010PropOp50
 70
     1
102
RTVSPost2010Prop51ColorIndex
 90
      256
102
RTVSPost2010Prop51ColorRGB
 90
-16777216
102
RTVSPost2010PropOp51
 70
     0
102
RTVSPost2010Prop52
140
1.0
102
RTVSPost2010PropOp52
 70
     0
102
RTVSPost2010Prop53
 90
        2
102
RTVSPost2010PropOp53
 70
     1
102
RTVSPost2010Prop54
  1
strokes_ogs.tif
102
RTVSPost2010PropOp54
 70
     1
102
RTVSPost2010Prop55
280
     0
102
RTVSPost2010PropOp55
 70
     1
102
RTVSPost2010Prop56
140
1.0
102
RTVSPost2010PropOp56
 70
     1
102
RTVSPost2010Prop57
140
1.0
102
RTVSPost2010PropOp57
 70
     1
  0
XRECORD
  5
3BA
102
{ACAD_REACTORS
330
3B9
102
}
330
3B9
100
AcDbXrecord
280
     1
102
RTVSPost2010Prop28
280
     0
102
RTVSPost2010PropOp28
 70
     0
102
RTVSPost2010Prop29
280
     1
102
RTVSPost2010PropOp29
 70
     0
102
RTVSPost2010Prop30
280
     1
102
RTVSPost2010PropOp30
 70
     0
102
RTVSPost2010Prop31
280
     0
102
RTVSPost2010PropOp31
 70
     0
102
RTVSPost2010Prop32
280
     0
102
RTVSPost2010PropOp32
 70
     0
102
RTVSPost2010Prop33
280
     0
102
RTVSPost2010PropOp33
 70
     0
102
RTVSPost2010Prop34
280
     0
102
RTVSPost2010PropOp34
 70
     0
102
RTVSPost2010Prop35
280
     0
102
RTVSPost2010PropOp35
 70
     0
102
RTVSPost2010Prop36
280
     0
102
RTVSPost2010PropOp36
 70
     0
102
RTVSPost2010Prop37
 90
       50
102
RTVSPost2010PropOp37
 70
     0
102
RTVSPost2010Prop38
140
0.0
102
RTVSPost2010PropOp38
 70
     0
102
RTVSPost2010Prop39
140
1.0
102
RTVSPost2010PropOp39
 70
     0
102
RTVSPost2010Prop40
 90
        0
102
RTVSPost2010PropOp40
 70
     0
102
RTVSPost2010Prop41ColorIndex
 90
       18
102
RTVSPost2010Prop41ColorRGB
 90
        0
102
RTVSPost2010PropOp41
 70
     0
102
RTVSPost2010Prop42
 90
       50
102
RTVSPost2010PropOp42
 70
     0
102
RTVSPost2010Prop43
 90
        3
102
RTVSPost2010PropOp43
 70
     0
102
RTVSPost2010Prop44ColorIndex
 90
        5
102
RTVSPost2010Prop44ColorRGB
 90
      255
102
RTVSPost2010PropOp44
 70
     0
102
RTVSPost2010Prop45
280
     0
102
RTVSPost2010PropOp45
 70
     0
102
RTVSPost2010Prop46
 90
       50
102
RTVSPost2010PropOp46
 70
     0
102
RTVSPost2010Prop47
 90
       50
102
RTVSPost2010PropOp47
 70
     0
102
RTVSPost2010Prop48
 90
       50
102
RTVSPost2010PropOp48
 70
     0
102
RTVSPost2010Prop49
280
     0
102
RTVSPost2010PropOp49
 70
     0
102
RTVSPost2010Prop50
 90
       50
102
RTVSPost2010PropOp50
 70
     0
102
RTVSPost2010Prop51ColorIndex
 90
      256
102
RTVSPost2010Prop51ColorRGB
 90
-16777216
102
RTVSPost2010PropOp51
 70
     0
102
RTVSPost2010Prop52
140
1.0
102
RTVSPost2010PropOp52
 70
     0
102
RTVSPost2010Prop53
 90
        2
102
RTVSPost2010PropOp53
 70
     0
102
RTVSPost2010Prop54
  1
strokes_ogs.tif
102
RTVSPost2010PropOp54
 70
     0
102
RTVSPost2010Prop55
280
     0
102
RTVSPost2010PropOp55
 70
     0
102
RTVSPost2010Prop56
140
1.0
102
RTVSPost2010PropOp56
 70
     0
102
RTVSPost2010Prop57
140
1.0
102
RTVSPost2010PropOp57
 70
     0
  0
XRECORD
  5
3B2
102
{ACAD_REACTORS
330
3B1
102
}
330
3B1
100
AcDbXrecord
280
     1
102
RTVSPost2010Prop28
280
     0
102
RTVSPost2010PropOp28
 70
     1
102
RTVSPost2010Prop29
280
     1
102
RTVSPost2010PropOp29
 70
     1
102
RTVSPost2010Prop30
280
     1
102
RTVSPost2010PropOp30
 70
     1
102
RTVSPost2010Prop31
280
     0
102
RTVSPost2010PropOp31
 70
     1
102
RTVSPost2010Prop32
280
     0
102
RTVSPost2010PropOp32
 70
     1
102
RTVSPost2010Prop33
280
     0
102
RTVSPost2010PropOp33
 70
     1
102
RTVSPost2010Prop34
280
     0
102
RTVSPost2010PropOp34
 70
     1
102
RTVSPost2010Prop35
280
     0
102
RTVSPost2010PropOp35
 70
     1
102
RTVSPost2010Prop36
280
     0
102
RTVSPost2010PropOp36
 70
     1
102
RTVSPost2010Prop37
 90
       50
102
RTVSPost2010PropOp37
 70
     1
102
RTVSPost2010Prop38
140
0.0
102
RTVSPost2010PropOp38
 70
     1
102
RTVSPost2010Prop39
140
1.0
102
RTVSPost2010PropOp39
 70
     1
102
RTVSPost2010Prop40
 90
        0
102
RTVSPost2010PropOp40
 70
     1
102
RTVSPost2010Prop41ColorIndex
 90
       18
102
RTVSPost2010Prop41ColorRGB
 90
        0
102
RTVSPost2010PropOp41
 70
     1
102
RTVSPost2010Prop42
 90
       50
102
RTVSPost2010PropOp42
 70
     1
102
RTVSPost2010Prop43
 90
        3
102
RTVSPost2010PropOp43
 70
     1
102
RTVSPost2010Prop44ColorIndex
 90
        5
102
RTVSPost2010Prop44ColorRGB
 90
      255
102
RTVSPost2010PropOp44
 70
     1
102
RTVSPost2010Prop45
280
     0
102
RTVSPost2010PropOp45
 70
     1
102
RTVSPost2010Prop46
 90
       50
102
RTVSPost2010PropOp46
 70
     1
102
RTVSPost2010Prop47
 90
       50
102
RTVSPost2010PropOp47
 70
     1
102
RTVSPost2010Prop48
 90
       50
102
RTVSPost2010PropOp48
 70
     1
102
RTVSPost2010Prop49
280
     0
102
RTVSPost2010PropOp49
 70
     1
102
RTVSPost2010Prop50
 90
       50
102
RTVSPost2010PropOp50
 70
     1
102
RTVSPost2010Prop51ColorIndex
 90
      256
102
RTVSPost2010Prop51ColorRGB
 90
-16777216
102
RTVSPost2010PropOp51
 70
     0
102
RTVSPost2010Prop52
140
1.0
102
RTVSPost2010PropOp52
 70
     0
102
RTVSPost2010Prop53
 90
        2
102
RTVSPost2010PropOp53
 70
     1
102
RTVSPost2010Prop54
  1
strokes_ogs.tif
102
RTVSPost2010PropOp54
 70
     1
102
RTVSPost2010Prop55
280
     0
102
RTVSPost2010PropOp55
 70
     1
102
RTVSPost2010Prop56
140
1.0
102
RTVSPost2010PropOp56
 70
     1
102
RTVSPost2010Prop57
140
1.0
102
RTVSPost2010PropOp57
 70
     1
  0
XRECORD
  5
396
102
{ACAD_REACTORS
330
395
102
}
330
395
100
AcDbXrecord
280
     1
102
RTVSPost2010Prop28
280
     0
102
RTVSPost2010PropOp28
 70
     1
102
RTVSPost2010Prop29
280
     1
102
RTVSPost2010PropOp29
 70
     1
102
RTVSPost2010Prop30
280
     1
102
RTVSPost2010PropOp30
 70
     1
102
RTVSPost2010Prop31
280
     0
102
RTVSPost2010PropOp31
 70
     1
102
RTVSPost2010Prop32
280
     0
102
RTVSPost2010PropOp32
 70
     1
102
RTVSPost2010Prop33
280
     0
102
RTVSPost2010PropOp33
 70
     1
102
RTVSPost2010Prop34
280
     0
102
RTVSPost2010PropOp34
 70
     1
102
RTVSPost2010Prop35
280
     0
102
RTVSPost2010PropOp35
 70
     1
102
RTVSPost2010Prop36
280
     0
102
RTVSPost2010PropOp36
 70
     1
102
RTVSPost2010Prop37
 90
       50
102
RTVSPost2010PropOp37
 70
     1
102
RTVSPost2010Prop38
140
0.0
102
RTVSPost2010PropOp38
 70
     1
102
RTVSPost2010Prop39
140
1.0
102
RTVSPost2010PropOp39
 70
     1
102
RTVSPost2010Prop40
 90
        0
102
RTVSPost2010PropOp40
 70
     1
102
RTVSPost2010Prop41ColorIndex
 90
       18
102
RTVSPost2010Prop41ColorRGB
 90
        0
102
RTVSPost2010PropOp41
 70
     1
102
RTVSPost2010Prop42
 90
       50
102
RTVSPost2010PropOp42
 70
     1
102
RTVSPost2010Prop43
 90
        3
102
RTVSPost2010PropOp43
 70
     1
102
RTVSPost2010Prop44ColorIndex
 90
        5
102
RTVSPost2010Prop44ColorRGB
 90
      255
102
RTVSPost2010PropOp44
 70
     1
102
RTVSPost2010Prop45
280
     0
102
RTVSPost2010PropOp45
 70
     1
102
RTVSPost2010Prop46
 90
       50
102
RTVSPost2010PropOp46
 70
     1
102
RTVSPost2010Prop47
 90
       50
102
RTVSPost2010PropOp47
 70
     1
102
RTVSPost2010Prop48
 90
       50
102
RTVSPost2010PropOp48
 70
     1
102
RTVSPost2010Prop49
280
     0
102
RTVSPost2010PropOp49
 70
     1
102
RTVSPost2010Prop50
 90
       50
102
RTVSPost2010PropOp50
 70
     1
102
RTVSPost2010Prop51ColorIndex
 90
      256
102
RTVSPost2010Prop51ColorRGB
 90
-16777216
102
RTVSPost2010PropOp51
 70
     0
102
RTVSPost2010Prop52
140
1.0
102
RTVSPost2010PropOp52
 70
     0
102
RTVSPost2010Prop53
 90
        2
102
RTVSPost2010PropOp53
 70
     1
102
RTVSPost2010Prop54
  1
strokes_ogs.tif
102
RTVSPost2010PropOp54
 70
     1
102
RTVSPost2010Prop55
280
     0
102
RTVSPost2010PropOp55
 70
     1
102
RTVSPost2010Prop56
140
1.0
102
RTVSPost2010PropOp56
 70
     1
102
RTVSPost2010Prop57
140
1.0
102
RTVSPost2010PropOp57
 70
     1
  0
XRECORD
  5
398
102
{ACAD_REACTORS
330
397
102
}
330
397
100
AcDbXrecord
280
     1
102
RTVSPost2010Prop28
280
     0
102
RTVSPost2010PropOp28
 70
     1
102
RTVSPost2010Prop29
280
     1
102
RTVSPost2010PropOp29
 70
     1
102
RTVSPost2010Prop30
280
     1
102
RTVSPost2010PropOp30
 70
     1
102
RTVSPost2010Prop31
280
     0
102
RTVSPost2010PropOp31
 70
     1
102
RTVSPost2010Prop32
280
     0
102
RTVSPost2010PropOp32
 70
     1
102
RTVSPost2010Prop33
280
     0
102
RTVSPost2010PropOp33
 70
     1
102
RTVSPost2010Prop34
280
     0
102
RTVSPost2010PropOp34
 70
     1
102
RTVSPost2010Prop35
280
     0
102
RTVSPost2010PropOp35
 70
     1
102
RTVSPost2010Prop36
280
     0
102
RTVSPost2010PropOp36
 70
     1
102
RTVSPost2010Prop37
 90
       50
102
RTVSPost2010PropOp37
 70
     1
102
RTVSPost2010Prop38
140
0.0
102
RTVSPost2010PropOp38
 70
     1
102
RTVSPost2010Prop39
140
1.0
102
RTVSPost2010PropOp39
 70
     1
102
RTVSPost2010Prop40
 90
        0
102
RTVSPost2010PropOp40
 70
     1
102
RTVSPost2010Prop41ColorIndex
 90
       18
102
RTVSPost2010Prop41ColorRGB
 90
        0
102
RTVSPost2010PropOp41
 70
     1
102
RTVSPost2010Prop42
 90
       50
102
RTVSPost2010PropOp42
 70
     1
102
RTVSPost2010Prop43
 90
        3
102
RTVSPost2010PropOp43
 70
     1
102
RTVSPost2010Prop44ColorIndex
 90
        5
102
RTVSPost2010Prop44ColorRGB
 90
      255
102
RTVSPost2010PropOp44
 70
     1
102
RTVSPost2010Prop45
280
     0
102
RTVSPost2010PropOp45
 70
     1
102
RTVSPost2010Prop46
 90
       50
102
RTVSPost2010PropOp46
 70
     1
102
RTVSPost2010Prop47
 90
       50
102
RTVSPost2010PropOp47
 70
     1
102
RTVSPost2010Prop48
 90
       50
102
RTVSPost2010PropOp48
 70
     1
102
RTVSPost2010Prop49
280
     0
102
RTVSPost2010PropOp49
 70
     1
102
RTVSPost2010Prop50
 90
       50
102
RTVSPost2010PropOp50
 70
     1
102
RTVSPost2010Prop51ColorIndex
 90
      256
102
RTVSPost2010Prop51ColorRGB
 90
-16777216
102
RTVSPost2010PropOp51
 70
     0
102
RTVSPost2010Prop52
140
1.0
102
RTVSPost2010PropOp52
 70
     0
102
RTVSPost2010Prop53
 90
        2
102
RTVSPost2010PropOp53
 70
     1
102
RTVSPost2010Prop54
  1
strokes_ogs.tif
102
RTVSPost2010PropOp54
 70
     1
102
RTVSPost2010Prop55
280
     0
102
RTVSPost2010PropOp55
 70
     1
102
RTVSPost2010Prop56
140
1.0
102
RTVSPost2010PropOp56
 70
     1
102
RTVSPost2010Prop57
140
1.0
102
RTVSPost2010PropOp57
 70
     1
  0
XRECORD
  5
39A
102
{ACAD_REACTORS
330
399
102
}
330
399
100
AcDbXrecord
280
     1
102
RTVSPost2010Prop28
280
     0
102
RTVSPost2010PropOp28
 70
     1
102
RTVSPost2010Prop29
280
     1
102
RTVSPost2010PropOp29
 70
     1
102
RTVSPost2010Prop30
280
     1
102
RTVSPost2010PropOp30
 70
     1
102
RTVSPost2010Prop31
280
     0
102
RTVSPost2010PropOp31
 70
     1
102
RTVSPost2010Prop32
280
     0
102
RTVSPost2010PropOp32
 70
     1
102
RTVSPost2010Prop33
280
     0
102
RTVSPost2010PropOp33
 70
     1
102
RTVSPost2010Prop34
280
     0
102
RTVSPost2010PropOp34
 70
     1
102
RTVSPost2010Prop35
280
     0
102
RTVSPost2010PropOp35
 70
     1
102
RTVSPost2010Prop36
280
     0
102
RTVSPost2010PropOp36
 70
     1
102
RTVSPost2010Prop37
 90
       50
102
RTVSPost2010PropOp37
 70
     1
102
RTVSPost2010Prop38
140
0.0
102
RTVSPost2010PropOp38
 70
     1
102
RTVSPost2010Prop39
140
1.0
102
RTVSPost2010PropOp39
 70
     1
102
RTVSPost2010Prop40
 90
        0
102
RTVSPost2010PropOp40
 70
     1
102
RTVSPost2010Prop41ColorIndex
 90
       18
102
RTVSPost2010Prop41ColorRGB
 90
        0
102
RTVSPost2010PropOp41
 70
     1
102
RTVSPost2010Prop42
 90
       50
102
RTVSPost2010PropOp42
 70
     1
102
RTVSPost2010Prop43
 90
        3
102
RTVSPost2010PropOp43
 70
     1
102
RTVSPost2010Prop44ColorIndex
 90
        5
102
RTVSPost2010Prop44ColorRGB
 90
      255
102
RTVSPost2010PropOp44
 70
     1
102
RTVSPost2010Prop45
280
     0
102
RTVSPost2010PropOp45
 70
     1
102
RTVSPost2010Prop46
 90
       50
102
RTVSPost2010PropOp46
 70
     1
102
RTVSPost2010Prop47
 90
       50
102
RTVSPost2010PropOp47
 70
     1
102
RTVSPost2010Prop48
 90
       50
102
RTVSPost2010PropOp48
 70
     1
102
RTVSPost2010Prop49
280
     0
102
RTVSPost2010PropOp49
 70
     1
102
RTVSPost2010Prop50
 90
       50
102
RTVSPost2010PropOp50
 70
     1
102
RTVSPost2010Prop51ColorIndex
 90
      256
102
RTVSPost2010Prop51ColorRGB
 90
-16777216
102
RTVSPost2010PropOp51
 70
     0
102
RTVSPost2010Prop52
140
1.0
102
RTVSPost2010PropOp52
 70
     0
102
RTVSPost2010Prop53
 90
        2
102
RTVSPost2010PropOp53
 70
     1
102
RTVSPost2010Prop54
  1
strokes_ogs.tif
102
RTVSPost2010PropOp54
 70
     1
102
RTVSPost2010Prop55
280
     0
102
RTVSPost2010PropOp55
 70
     1
102
RTVSPost2010Prop56
140
1.0
102
RTVSPost2010PropOp56
 70
     1
102
RTVSPost2010Prop57
140
1.0
102
RTVSPost2010PropOp57
 70
     1
  0
XRECORD
  5
39C
102
{ACAD_REACTORS
330
39B
102
}
330
39B
100
AcDbXrecord
280
     1
102
RTVSPost2010Prop28
280
     0
102
RTVSPost2010PropOp28
 70
     1
102
RTVSPost2010Prop29
280
     1
102
RTVSPost2010PropOp29
 70
     1
102
RTVSPost2010Prop30
280
     1
102
RTVSPost2010PropOp30
 70
     1
102
RTVSPost2010Prop31
280
     0
102
RTVSPost2010PropOp31
 70
     1
102
RTVSPost2010Prop32
280
     0
102
RTVSPost2010PropOp32
 70
     1
102
RTVSPost2010Prop33
280
     0
102
RTVSPost2010PropOp33
 70
     1
102
RTVSPost2010Prop34
280
     0
102
RTVSPost2010PropOp34
 70
     1
102
RTVSPost2010Prop35
280
     0
102
RTVSPost2010PropOp35
 70
     1
102
RTVSPost2010Prop36
280
     0
102
RTVSPost2010PropOp36
 70
     1
102
RTVSPost2010Prop37
 90
       50
102
RTVSPost2010PropOp37
 70
     1
102
RTVSPost2010Prop38
140
0.0
102
RTVSPost2010PropOp38
 70
     1
102
RTVSPost2010Prop39
140
1.0
102
RTVSPost2010PropOp39
 70
     1
102
RTVSPost2010Prop40
 90
        0
102
RTVSPost2010PropOp40
 70
     1
102
RTVSPost2010Prop41ColorIndex
 90
       18
102
RTVSPost2010Prop41ColorRGB
 90
        0
102
RTVSPost2010PropOp41
 70
     1
102
RTVSPost2010Prop42
 90
       50
102
RTVSPost2010PropOp42
 70
     1
102
RTVSPost2010Prop43
 90
        3
102
RTVSPost2010PropOp43
 70
     1
102
RTVSPost2010Prop44ColorIndex
 90
        5
102
RTVSPost2010Prop44ColorRGB
 90
      255
102
RTVSPost2010PropOp44
 70
     1
102
RTVSPost2010Prop45
280
     0
102
RTVSPost2010PropOp45
 70
     1
102
RTVSPost2010Prop46
 90
       50
102
RTVSPost2010PropOp46
 70
     1
102
RTVSPost2010Prop47
 90
       50
102
RTVSPost2010PropOp47
 70
     1
102
RTVSPost2010Prop48
 90
       50
102
RTVSPost2010PropOp48
 70
     1
102
RTVSPost2010Prop49
280
     0
102
RTVSPost2010PropOp49
 70
     1
102
RTVSPost2010Prop50
 90
       50
102
RTVSPost2010PropOp50
 70
     1
102
RTVSPost2010Prop51ColorIndex
 90
      256
102
RTVSPost2010Prop51ColorRGB
 90
-16777216
102
RTVSPost2010PropOp51
 70
     0
102
RTVSPost2010Prop52
140
1.0
102
RTVSPost2010PropOp52
 70
     0
102
RTVSPost2010Prop53
 90
        2
102
RTVSPost2010PropOp53
 70
     1
102
RTVSPost2010Prop54
  1
strokes_ogs.tif
102
RTVSPost2010PropOp54
 70
     1
102
RTVSPost2010Prop55
280
     0
102
RTVSPost2010PropOp55
 70
     1
102
RTVSPost2010Prop56
140
1.0
102
RTVSPost2010PropOp56
 70
     1
102
RTVSPost2010Prop57
140
1.0
102
RTVSPost2010PropOp57
 70
     1
  0
XRECORD
  5
3A2
102
{ACAD_REACTORS
330
3A1
102
}
330
3A1
100
AcDbXrecord
280
     1
102
RTVSPost2010Prop28
280
     0
102
RTVSPost2010PropOp28
 70
     1
102
RTVSPost2010Prop29
280
     1
102
RTVSPost2010PropOp29
 70
     1
102
RTVSPost2010Prop30
280
     1
102
RTVSPost2010PropOp30
 70
     1
102
RTVSPost2010Prop31
280
     0
102
RTVSPost2010PropOp31
 70
     1
102
RTVSPost2010Prop32
280
     0
102
RTVSPost2010PropOp32
 70
     1
102
RTVSPost2010Prop33
280
     0
102
RTVSPost2010PropOp33
 70
     1
102
RTVSPost2010Prop34
280
     0
102
RTVSPost2010PropOp34
 70
     1
102
RTVSPost2010Prop35
280
     0
102
RTVSPost2010PropOp35
 70
     1
102
RTVSPost2010Prop36
280
     0
102
RTVSPost2010PropOp36
 70
     1
102
RTVSPost2010Prop37
 90
       50
102
RTVSPost2010PropOp37
 70
     1
102
RTVSPost2010Prop38
140
0.0
102
RTVSPost2010PropOp38
 70
     1
102
RTVSPost2010Prop39
140
1.0
102
RTVSPost2010PropOp39
 70
     1
102
RTVSPost2010Prop40
 90
        0
102
RTVSPost2010PropOp40
 70
     1
102
RTVSPost2010Prop41ColorIndex
 90
       18
102
RTVSPost2010Prop41ColorRGB
 90
        0
102
RTVSPost2010PropOp41
 70
     1
102
RTVSPost2010Prop42
 90
       50
102
RTVSPost2010PropOp42
 70
     1
102
RTVSPost2010Prop43
 90
        3
102
RTVSPost2010PropOp43
 70
     1
102
RTVSPost2010Prop44ColorIndex
 90
        5
102
RTVSPost2010Prop44ColorRGB
 90
      255
102
RTVSPost2010PropOp44
 70
     1
102
RTVSPost2010Prop45
280
     0
102
RTVSPost2010PropOp45
 70
     1
102
RTVSPost2010Prop46
 90
       50
102
RTVSPost2010PropOp46
 70
     1
102
RTVSPost2010Prop47
 90
       50
102
RTVSPost2010PropOp47
 70
     1
102
RTVSPost2010Prop48
 90
       50
102
RTVSPost2010PropOp48
 70
     1
102
RTVSPost2010Prop49
280
     0
102
RTVSPost2010PropOp49
 70
     1
102
RTVSPost2010Prop50
 90
       50
102
RTVSPost2010PropOp50
 70
     1
102
RTVSPost2010Prop51ColorIndex
 90
      256
102
RTVSPost2010Prop51ColorRGB
 90
-16777216
102
RTVSPost2010PropOp51
 70
     0
102
RTVSPost2010Prop52
140
1.0
102
RTVSPost2010PropOp52
 70
     0
102
RTVSPost2010Prop53
 90
        2
102
RTVSPost2010PropOp53
 70
     1
102
RTVSPost2010Prop54
  1
strokes_ogs.tif
102
RTVSPost2010PropOp54
 70
     1
102
RTVSPost2010Prop55
280
     0
102
RTVSPost2010PropOp55
 70
     1
102
RTVSPost2010Prop56
140
1.0
102
RTVSPost2010PropOp56
 70
     1
102
RTVSPost2010Prop57
140
1.0
102
RTVSPost2010PropOp57
 70
     1
  0
XRECORD
  5
3B6
102
{ACAD_REACTORS
330
3B5
102
}
330
3B5
100
AcDbXrecord
280
     1
102
RTVSPost2010Prop28
280
     0
102
RTVSPost2010PropOp28
 70
     0
102
RTVSPost2010Prop29
280
     1
102
RTVSPost2010PropOp29
 70
     0
102
RTVSPost2010Prop30
280
     1
102
RTVSPost2010PropOp30
 70
     0
102
RTVSPost2010Prop31
280
     0
102
RTVSPost2010PropOp31
 70
     0
102
RTVSPost2010Prop32
280
     0
102
RTVSPost2010PropOp32
 70
     0
102
RTVSPost2010Prop33
280
     0
102
RTVSPost2010PropOp33
 70
     0
102
RTVSPost2010Prop34
280
     0
102
RTVSPost2010PropOp34
 70
     0
102
RTVSPost2010Prop35
280
     0
102
RTVSPost2010PropOp35
 70
     0
102
RTVSPost2010Prop36
280
     0
102
RTVSPost2010PropOp36
 70
     0
102
RTVSPost2010Prop37
 90
       50
102
RTVSPost2010PropOp37
 70
     0
102
RTVSPost2010Prop38
140
0.0
102
RTVSPost2010PropOp38
 70
     0
102
RTVSPost2010Prop39
140
1.0
102
RTVSPost2010PropOp39
 70
     0
102
RTVSPost2010Prop40
 90
        0
102
RTVSPost2010PropOp40
 70
     0
102
RTVSPost2010Prop41ColorIndex
 90
       18
102
RTVSPost2010Prop41ColorRGB
 90
        0
102
RTVSPost2010PropOp41
 70
     0
102
RTVSPost2010Prop42
 90
       50
102
RTVSPost2010PropOp42
 70
     0
102
RTVSPost2010Prop43
 90
        3
102
RTVSPost2010PropOp43
 70
     0
102
RTVSPost2010Prop44ColorIndex
 90
        5
102
RTVSPost2010Prop44ColorRGB
 90
      255
102
RTVSPost2010PropOp44
 70
     0
102
RTVSPost2010Prop45
280
     0
102
RTVSPost2010PropOp45
 70
     0
102
RTVSPost2010Prop46
 90
       50
102
RTVSPost2010PropOp46
 70
     0
102
RTVSPost2010Prop47
 90
       50
102
RTVSPost2010PropOp47
 70
     0
102
RTVSPost2010Prop48
 90
       50
102
RTVSPost2010PropOp48
 70
     0
102
RTVSPost2010Prop49
280
     0
102
RTVSPost2010PropOp49
 70
     0
102
RTVSPost2010Prop50
 90
       50
102
RTVSPost2010PropOp50
 70
     0
102
RTVSPost2010Prop51ColorIndex
 90
      256
102
RTVSPost2010Prop51ColorRGB
 90
-16777216
102
RTVSPost2010PropOp51
 70
     0
102
RTVSPost2010Prop52
140
1.0
102
RTVSPost2010PropOp52
 70
     0
102
RTVSPost2010Prop53
 90
        2
102
RTVSPost2010PropOp53
 70
     0
102
RTVSPost2010Prop54
  1
strokes_ogs.tif
102
RTVSPost2010PropOp54
 70
     0
102
RTVSPost2010Prop55
280
     0
102
RTVSPost2010PropOp55
 70
     0
102
RTVSPost2010Prop56
140
1.0
102
RTVSPost2010PropOp56
 70
     0
102
RTVSPost2010Prop57
140
1.0
102
RTVSPost2010PropOp57
 70
     0
  0
XRECORD
  5
3B0
102
{ACAD_REACTORS
330
3AF
102
}
330
3AF
100
AcDbXrecord
280
     1
102
RTVSPost2010Prop28
280
     0
102
RTVSPost2010PropOp28
 70
     1
102
RTVSPost2010Prop29
280
     1
102
RTVSPost2010PropOp29
 70
     1
102
RTVSPost2010Prop30
280
     1
102
RTVSPost2010PropOp30
 70
     1
102
RTVSPost2010Prop31
280
     0
102
RTVSPost2010PropOp31
 70
     1
102
RTVSPost2010Prop32
280
     0
102
RTVSPost2010PropOp32
 70
     1
102
RTVSPost2010Prop33
280
     0
102
RTVSPost2010PropOp33
 70
     1
102
RTVSPost2010Prop34
280
     0
102
RTVSPost2010PropOp34
 70
     1
102
RTVSPost2010Prop35
280
     0
102
RTVSPost2010PropOp35
 70
     1
102
RTVSPost2010Prop36
280
     0
102
RTVSPost2010PropOp36
 70
     1
102
RTVSPost2010Prop37
 90
       50
102
RTVSPost2010PropOp37
 70
     1
102
RTVSPost2010Prop38
140
0.0
102
RTVSPost2010PropOp38
 70
     1
102
RTVSPost2010Prop39
140
1.0
102
RTVSPost2010PropOp39
 70
     1
102
RTVSPost2010Prop40
 90
        0
102
RTVSPost2010PropOp40
 70
     1
102
RTVSPost2010Prop41ColorIndex
 90
       18
102
RTVSPost2010Prop41ColorRGB
 90
        0
102
RTVSPost2010PropOp41
 70
     1
102
RTVSPost2010Prop42
 90
       50
102
RTVSPost2010PropOp42
 70
     1
102
RTVSPost2010Prop43
 90
        3
102
RTVSPost2010PropOp43
 70
     1
102
RTVSPost2010Prop44ColorIndex
 90
        5
102
RTVSPost2010Prop44ColorRGB
 90
      255
102
RTVSPost2010PropOp44
 70
     1
102
RTVSPost2010Prop45
280
     0
102
RTVSPost2010PropOp45
 70
     1
102
RTVSPost2010Prop46
 90
       50
102
RTVSPost2010PropOp46
 70
     1
102
RTVSPost2010Prop47
 90
       50
102
RTVSPost2010PropOp47
 70
     1
102
RTVSPost2010Prop48
 90
       50
102
RTVSPost2010PropOp48
 70
     1
102
RTVSPost2010Prop49
280
     0
102
RTVSPost2010PropOp49
 70
     1
102
RTVSPost2010Prop50
 90
       50
102
RTVSPost2010PropOp50
 70
     1
102
RTVSPost2010Prop51ColorIndex
 90
      256
102
RTVSPost2010Prop51ColorRGB
 90
-16777216
102
RTVSPost2010PropOp51
 70
     0
102
RTVSPost2010Prop52
140
1.0
102
RTVSPost2010PropOp52
 70
     0
102
RTVSPost2010Prop53
 90
        2
102
RTVSPost2010PropOp53
 70
     1
102
RTVSPost2010Prop54
  1
strokes_ogs.tif
102
RTVSPost2010PropOp54
 70
     1
102
RTVSPost2010Prop55
280
     0
102
RTVSPost2010PropOp55
 70
     1
102
RTVSPost2010Prop56
140
1.0
102
RTVSPost2010PropOp56
 70
     1
102
RTVSPost2010Prop57
140
1.0
102
RTVSPost2010PropOp57
 70
     1
  0
XRECORD
  5
3B8
102
{ACAD_REACTORS
330
3B7
102
}
330
3B7
100
AcDbXrecord
280
     1
102
RTVSPost2010Prop28
280
     0
102
RTVSPost2010PropOp28
 70
     0
102
RTVSPost2010Prop29
280
     1
102
RTVSPost2010PropOp29
 70
     0
102
RTVSPost2010Prop30
280
     1
102
RTVSPost2010PropOp30
 70
     0
102
RTVSPost2010Prop31
280
     0
102
RTVSPost2010PropOp31
 70
     0
102
RTVSPost2010Prop32
280
     0
102
RTVSPost2010PropOp32
 70
     0
102
RTVSPost2010Prop33
280
     0
102
RTVSPost2010PropOp33
 70
     0
102
RTVSPost2010Prop34
280
     0
102
RTVSPost2010PropOp34
 70
     0
102
RTVSPost2010Prop35
280
     0
102
RTVSPost2010PropOp35
 70
     0
102
RTVSPost2010Prop36
280
     0
102
RTVSPost2010PropOp36
 70
     0
102
RTVSPost2010Prop37
 90
       50
102
RTVSPost2010PropOp37
 70
     0
102
RTVSPost2010Prop38
140
0.0
102
RTVSPost2010PropOp38
 70
     0
102
RTVSPost2010Prop39
140
1.0
102
RTVSPost2010PropOp39
 70
     0
102
RTVSPost2010Prop40
 90
        0
102
RTVSPost2010PropOp40
 70
     0
102
RTVSPost2010Prop41ColorIndex
 90
       18
102
RTVSPost2010Prop41ColorRGB
 90
        0
102
RTVSPost2010PropOp41
 70
     0
102
RTVSPost2010Prop42
 90
       50
102
RTVSPost2010PropOp42
 70
     0
102
RTVSPost2010Prop43
 90
        3
102
RTVSPost2010PropOp43
 70
     0
102
RTVSPost2010Prop44ColorIndex
 90
        5
102
RTVSPost2010Prop44ColorRGB
 90
      255
102
RTVSPost2010PropOp44
 70
     0
102
RTVSPost2010Prop45
280
     0
102
RTVSPost2010PropOp45
 70
     0
102
RTVSPost2010Prop46
 90
       50
102
RTVSPost2010PropOp46
 70
     0
102
RTVSPost2010Prop47
 90
       50
102
RTVSPost2010PropOp47
 70
     0
102
RTVSPost2010Prop48
 90
       50
102
RTVSPost2010PropOp48
 70
     0
102
RTVSPost2010Prop49
280
     0
102
RTVSPost2010PropOp49
 70
     0
102
RTVSPost2010Prop50
 90
       50
102
RTVSPost2010PropOp50
 70
     0
102
RTVSPost2010Prop51ColorIndex
 90
      256
102
RTVSPost2010Prop51ColorRGB
 90
-16777216
102
RTVSPost2010PropOp51
 70
     0
102
RTVSPost2010Prop52
140
1.0
102
RTVSPost2010PropOp52
 70
     0
102
RTVSPost2010Prop53
 90
        2
102
RTVSPost2010PropOp53
 70
     0
102
RTVSPost2010Prop54
  1
strokes_ogs.tif
102
RTVSPost2010PropOp54
 70
     0
102
RTVSPost2010Prop55
280
     0
102
RTVSPost2010PropOp55
 70
     0
102
RTVSPost2010Prop56
140
1.0
102
RTVSPost2010PropOp56
 70
     0
102
RTVSPost2010Prop57
140
1.0
102
RTVSPost2010PropOp57
 70
     0
  0
XRECORD
  5
3A6
102
{ACAD_REACTORS
330
3A5
102
}
330
3A5
100
AcDbXrecord
280
     1
102
RTVSPost2010Prop28
280
     0
102
RTVSPost2010PropOp28
 70
     1
102
RTVSPost2010Prop29
280
     1
102
RTVSPost2010PropOp29
 70
     1
102
RTVSPost2010Prop30
280
     1
102
RTVSPost2010PropOp30
 70
     1
102
RTVSPost2010Prop31
280
     0
102
RTVSPost2010PropOp31
 70
     1
102
RTVSPost2010Prop32
280
     0
102
RTVSPost2010PropOp32
 70
     1
102
RTVSPost2010Prop33
280
     0
102
RTVSPost2010PropOp33
 70
     1
102
RTVSPost2010Prop34
280
     0
102
RTVSPost2010PropOp34
 70
     1
102
RTVSPost2010Prop35
280
     0
102
RTVSPost2010PropOp35
 70
     1
102
RTVSPost2010Prop36
280
     0
102
RTVSPost2010PropOp36
 70
     1
102
RTVSPost2010Prop37
 90
       50
102
RTVSPost2010PropOp37
 70
     1
102
RTVSPost2010Prop38
140
0.0
102
RTVSPost2010PropOp38
 70
     1
102
RTVSPost2010Prop39
140
1.0
102
RTVSPost2010PropOp39
 70
     1
102
RTVSPost2010Prop40
 90
        0
102
RTVSPost2010PropOp40
 70
     1
102
RTVSPost2010Prop41ColorIndex
 90
       18
102
RTVSPost2010Prop41ColorRGB
 90
        0
102
RTVSPost2010PropOp41
 70
     1
102
RTVSPost2010Prop42
 90
       50
102
RTVSPost2010PropOp42
 70
     1
102
RTVSPost2010Prop43
 90
        3
102
RTVSPost2010PropOp43
 70
     1
102
RTVSPost2010Prop44ColorIndex
 90
        5
102
RTVSPost2010Prop44ColorRGB
 90
      255
102
RTVSPost2010PropOp44
 70
     1
102
RTVSPost2010Prop45
280
     0
102
RTVSPost2010PropOp45
 70
     1
102
RTVSPost2010Prop46
 90
       50
102
RTVSPost2010PropOp46
 70
     1
102
RTVSPost2010Prop47
 90
       50
102
RTVSPost2010PropOp47
 70
     1
102
RTVSPost2010Prop48
 90
       50
102
RTVSPost2010PropOp48
 70
     1
102
RTVSPost2010Prop49
280
     0
102
RTVSPost2010PropOp49
 70
     1
102
RTVSPost2010Prop50
 90
       50
102
RTVSPost2010PropOp50
 70
     1
102
RTVSPost2010Prop51ColorIndex
 90
      256
102
RTVSPost2010Prop51ColorRGB
 90
-16777216
102
RTVSPost2010PropOp51
 70
     0
102
RTVSPost2010Prop52
140
1.0
102
RTVSPost2010PropOp52
 70
     0
102
RTVSPost2010Prop53
 90
        2
102
RTVSPost2010PropOp53
 70
     1
102
RTVSPost2010Prop54
  1
strokes_ogs.tif
102
RTVSPost2010PropOp54
 70
     1
102
RTVSPost2010Prop55
280
     0
102
RTVSPost2010PropOp55
 70
     1
102
RTVSPost2010Prop56
140
1.0
102
RTVSPost2010PropOp56
 70
     1
102
RTVSPost2010Prop57
140
1.0
102
RTVSPost2010PropOp57
 70
     1
  0
XRECORD
  5
3C4
102
{ACAD_REACTORS
330
3C3
102
}
330
3C3
100
AcDbXrecord
280
     1
102
RTVSPost2010Prop28
280
     0
102
RTVSPost2010PropOp28
 70
     1
102
RTVSPost2010Prop29
280
     1
102
RTVSPost2010PropOp29
 70
     1
102
RTVSPost2010Prop30
280
     1
102
RTVSPost2010PropOp30
 70
     1
102
RTVSPost2010Prop31
280
     0
102
RTVSPost2010PropOp31
 70
     1
102
RTVSPost2010Prop32
280
     0
102
RTVSPost2010PropOp32
 70
     1
102
RTVSPost2010Prop33
280
     0
102
RTVSPost2010PropOp33
 70
     1
102
RTVSPost2010Prop34
280
     0
102
RTVSPost2010PropOp34
 70
     1
102
RTVSPost2010Prop35
280
     0
102
RTVSPost2010PropOp35
 70
     1
102
RTVSPost2010Prop36
280
     0
102
RTVSPost2010PropOp36
 70
     1
102
RTVSPost2010Prop37
 90
       50
102
RTVSPost2010PropOp37
 70
     1
102
RTVSPost2010Prop38
140
0.0
102
RTVSPost2010PropOp38
 70
     1
102
RTVSPost2010Prop39
140
1.0
102
RTVSPost2010PropOp39
 70
     1
102
RTVSPost2010Prop40
 90
        0
102
RTVSPost2010PropOp40
 70
     1
102
RTVSPost2010Prop41ColorIndex
 90
       18
102
RTVSPost2010Prop41ColorRGB
 90
        0
102
RTVSPost2010PropOp41
 70
     1
102
RTVSPost2010Prop42
 90
       50
102
RTVSPost2010PropOp42
 70
     1
102
RTVSPost2010Prop43
 90
        3
102
RTVSPost2010PropOp43
 70
     1
102
RTVSPost2010Prop44ColorIndex
 90
        5
102
RTVSPost2010Prop44ColorRGB
 90
      255
102
RTVSPost2010PropOp44
 70
     1
102
RTVSPost2010Prop45
280
     0
102
RTVSPost2010PropOp45
 70
     1
102
RTVSPost2010Prop46
 90
       50
102
RTVSPost2010PropOp46
 70
     1
102
RTVSPost2010Prop47
 90
       50
102
RTVSPost2010PropOp47
 70
     1
102
RTVSPost2010Prop48
 90
       50
102
RTVSPost2010PropOp48
 70
     1
102
RTVSPost2010Prop49
280
     0
102
RTVSPost2010PropOp49
 70
     1
102
RTVSPost2010Prop50
 90
       50
102
RTVSPost2010PropOp50
 70
     1
102
RTVSPost2010Prop51ColorIndex
 90
      256
102
RTVSPost2010Prop51ColorRGB
 90
-16777216
102
RTVSPost2010PropOp51
 70
     0
102
RTVSPost2010Prop52
140
1.0
102
RTVSPost2010PropOp52
 70
     0
102
RTVSPost2010Prop53
 90
        2
102
RTVSPost2010PropOp53
 70
     1
102
RTVSPost2010Prop54
  1
strokes_ogs.tif
102
RTVSPost2010PropOp54
 70
     1
102
RTVSPost2010Prop55
280
     0
102
RTVSPost2010PropOp55
 70
     1
102
RTVSPost2010Prop56
140
1.0
102
RTVSPost2010PropOp56
 70
     1
102
RTVSPost2010Prop57
140
1.0
102
RTVSPost2010PropOp57
 70
     1
  0
XRECORD
  5
3C2
102
{ACAD_REACTORS
330
3C1
102
}
330
3C1
100
AcDbXrecord
280
     1
102
RTVSPost2010Prop28
280
     0
102
RTVSPost2010PropOp28
 70
     1
102
RTVSPost2010Prop29
280
     1
102
RTVSPost2010PropOp29
 70
     1
102
RTVSPost2010Prop30
280
     1
102
RTVSPost2010PropOp30
 70
     1
102
RTVSPost2010Prop31
280
     0
102
RTVSPost2010PropOp31
 70
     1
102
RTVSPost2010Prop32
280
     0
102
RTVSPost2010PropOp32
 70
     1
102
RTVSPost2010Prop33
280
     0
102
RTVSPost2010PropOp33
 70
     1
102
RTVSPost2010Prop34
280
     0
102
RTVSPost2010PropOp34
 70
     1
102
RTVSPost2010Prop35
280
     0
102
RTVSPost2010PropOp35
 70
     1
102
RTVSPost2010Prop36
280
     0
102
RTVSPost2010PropOp36
 70
     1
102
RTVSPost2010Prop37
 90
       50
102
RTVSPost2010PropOp37
 70
     1
102
RTVSPost2010Prop38
140
0.0
102
RTVSPost2010PropOp38
 70
     1
102
RTVSPost2010Prop39
140
1.0
102
RTVSPost2010PropOp39
 70
     1
102
RTVSPost2010Prop40
 90
        0
102
RTVSPost2010PropOp40
 70
     1
102
RTVSPost2010Prop41ColorIndex
 90
       18
102
RTVSPost2010Prop41ColorRGB
 90
        0
102
RTVSPost2010PropOp41
 70
     1
102
RTVSPost2010Prop42
 90
       50
102
RTVSPost2010PropOp42
 70
     1
102
RTVSPost2010Prop43
 90
        3
102
RTVSPost2010PropOp43
 70
     1
102
RTVSPost2010Prop44ColorIndex
 90
        5
102
RTVSPost2010Prop44ColorRGB
 90
      255
102
RTVSPost2010PropOp44
 70
     1
102
RTVSPost2010Prop45
280
     0
102
RTVSPost2010PropOp45
 70
     1
102
RTVSPost2010Prop46
 90
       50
102
RTVSPost2010PropOp46
 70
     1
102
RTVSPost2010Prop47
 90
       50
102
RTVSPost2010PropOp47
 70
     1
102
RTVSPost2010Prop48
 90
       50
102
RTVSPost2010PropOp48
 70
     1
102
RTVSPost2010Prop49
280
     0
102
RTVSPost2010PropOp49
 70
     1
102
RTVSPost2010Prop50
 90
       50
102
RTVSPost2010PropOp50
 70
     1
102
RTVSPost2010Prop51ColorIndex
 90
      256
102
RTVSPost2010Prop51ColorRGB
 90
-16777216
102
RTVSPost2010PropOp51
 70
     0
102
RTVSPost2010Prop52
140
1.0
102
RTVSPost2010PropOp52
 70
     0
102
RTVSPost2010Prop53
 90
        2
102
RTVSPost2010PropOp53
 70
     1
102
RTVSPost2010Prop54
  1
strokes_ogs.tif
102
RTVSPost2010PropOp54
 70
     1
102
RTVSPost2010Prop55
280
     0
102
RTVSPost2010PropOp55
 70
     1
102
RTVSPost2010Prop56
140
1.0
102
RTVSPost2010PropOp56
 70
     1
102
RTVSPost2010Prop57
140
1.0
102
RTVSPost2010PropOp57
 70
     1
  0
XRECORD
  5
3BC
102
{ACAD_REACTORS
330
3BB
102
}
330
3BB
100
AcDbXrecord
280
     1
102
RTVSPost2010Prop28
280
     0
102
RTVSPost2010PropOp28
 70
     1
102
RTVSPost2010Prop29
280
     1
102
RTVSPost2010PropOp29
 70
     1
102
RTVSPost2010Prop30
280
     1
102
RTVSPost2010PropOp30
 70
     1
102
RTVSPost2010Prop31
280
     0
102
RTVSPost2010PropOp31
 70
     1
102
RTVSPost2010Prop32
280
     0
102
RTVSPost2010PropOp32
 70
     1
102
RTVSPost2010Prop33
280
     0
102
RTVSPost2010PropOp33
 70
     1
102
RTVSPost2010Prop34
280
     0
102
RTVSPost2010PropOp34
 70
     1
102
RTVSPost2010Prop35
280
     0
102
RTVSPost2010PropOp35
 70
     1
102
RTVSPost2010Prop36
280
     0
102
RTVSPost2010PropOp36
 70
     1
102
RTVSPost2010Prop37
 90
       50
102
RTVSPost2010PropOp37
 70
     1
102
RTVSPost2010Prop38
140
0.0
102
RTVSPost2010PropOp38
 70
     1
102
RTVSPost2010Prop39
140
1.0
102
RTVSPost2010PropOp39
 70
     1
102
RTVSPost2010Prop40
 90
        0
102
RTVSPost2010PropOp40
 70
     1
102
RTVSPost2010Prop41ColorIndex
 90
       18
102
RTVSPost2010Prop41ColorRGB
 90
        0
102
RTVSPost2010PropOp41
 70
     1
102
RTVSPost2010Prop42
 90
       50
102
RTVSPost2010PropOp42
 70
     1
102
RTVSPost2010Prop43
 90
        3
102
RTVSPost2010PropOp43
 70
     1
102
RTVSPost2010Prop44ColorIndex
 90
        5
102
RTVSPost2010Prop44ColorRGB
 90
      255
102
RTVSPost2010PropOp44
 70
     1
102
RTVSPost2010Prop45
280
     0
102
RTVSPost2010PropOp45
 70
     1
102
RTVSPost2010Prop46
 90
       50
102
RTVSPost2010PropOp46
 70
     1
102
RTVSPost2010Prop47
 90
       50
102
RTVSPost2010PropOp47
 70
     1
102
RTVSPost2010Prop48
 90
       50
102
RTVSPost2010PropOp48
 70
     1
102
RTVSPost2010Prop49
280
     0
102
RTVSPost2010PropOp49
 70
     1
102
RTVSPost2010Prop50
 90
       50
102
RTVSPost2010PropOp50
 70
     1
102
RTVSPost2010Prop51ColorIndex
 90
      256
102
RTVSPost2010Prop51ColorRGB
 90
-16777216
102
RTVSPost2010PropOp51
 70
     0
102
RTVSPost2010Prop52
140
1.0
102
RTVSPost2010PropOp52
 70
     0
102
RTVSPost2010Prop53
 90
        2
102
RTVSPost2010PropOp53
 70
     1
102
RTVSPost2010Prop54
  1
strokes_ogs.tif
102
RTVSPost2010PropOp54
 70
     1
102
RTVSPost2010Prop55
280
     0
102
RTVSPost2010PropOp55
 70
     1
102
RTVSPost2010Prop56
140
1.0
102
RTVSPost2010PropOp56
 70
     1
102
RTVSPost2010Prop57
140
1.0
102
RTVSPost2010PropOp57
 70
     1
  0
XRECORD
  5
3BE
102
{ACAD_REACTORS
330
3BD
102
}
330
3BD
100
AcDbXrecord
280
     1
102
RTVSPost2010Prop28
280
     0
102
RTVSPost2010PropOp28
 70
     1
102
RTVSPost2010Prop29
280
     1
102
RTVSPost2010PropOp29
 70
     1
102
RTVSPost2010Prop30
280
     1
102
RTVSPost2010PropOp30
 70
     1
102
RTVSPost2010Prop31
280
     0
102
RTVSPost2010PropOp31
 70
     1
102
RTVSPost2010Prop32
280
     0
102
RTVSPost2010PropOp32
 70
     1
102
RTVSPost2010Prop33
280
     0
102
RTVSPost2010PropOp33
 70
     1
102
RTVSPost2010Prop34
280
     0
102
RTVSPost2010PropOp34
 70
     1
102
RTVSPost2010Prop35
280
     0
102
RTVSPost2010PropOp35
 70
     1
102
RTVSPost2010Prop36
280
     0
102
RTVSPost2010PropOp36
 70
     1
102
RTVSPost2010Prop37
 90
       50
102
RTVSPost2010PropOp37
 70
     1
102
RTVSPost2010Prop38
140
0.0
102
RTVSPost2010PropOp38
 70
     1
102
RTVSPost2010Prop39
140
1.0
102
RTVSPost2010PropOp39
 70
     1
102
RTVSPost2010Prop40
 90
        0
102
RTVSPost2010PropOp40
 70
     1
102
RTVSPost2010Prop41ColorIndex
 90
       18
102
RTVSPost2010Prop41ColorRGB
 90
        0
102
RTVSPost2010PropOp41
 70
     1
102
RTVSPost2010Prop42
 90
       50
102
RTVSPost2010PropOp42
 70
     1
102
RTVSPost2010Prop43
 90
        3
102
RTVSPost2010PropOp43
 70
     1
102
RTVSPost2010Prop44ColorIndex
 90
        5
102
RTVSPost2010Prop44ColorRGB
 90
      255
102
RTVSPost2010PropOp44
 70
     1
102
RTVSPost2010Prop45
280
     0
102
RTVSPost2010PropOp45
 70
     1
102
RTVSPost2010Prop46
 90
       50
102
RTVSPost2010PropOp46
 70
     1
102
RTVSPost2010Prop47
 90
       50
102
RTVSPost2010PropOp47
 70
     1
102
RTVSPost2010Prop48
 90
       50
102
RTVSPost2010PropOp48
 70
     1
102
RTVSPost2010Prop49
280
     0
102
RTVSPost2010PropOp49
 70
     1
102
RTVSPost2010Prop50
 90
       50
102
RTVSPost2010PropOp50
 70
     1
102
RTVSPost2010Prop51ColorIndex
 90
      256
102
RTVSPost2010Prop51ColorRGB
 90
-16777216
102
RTVSPost2010PropOp51
 70
     0
102
RTVSPost2010Prop52
140
1.0
102
RTVSPost2010PropOp52
 70
     0
102
RTVSPost2010Prop53
 90
        2
102
RTVSPost2010PropOp53
 70
     1
102
RTVSPost2010Prop54
  1
strokes_ogs.tif
102
RTVSPost2010PropOp54
 70
     1
102
RTVSPost2010Prop55
280
     0
102
RTVSPost2010PropOp55
 70
     1
102
RTVSPost2010Prop56
140
1.0
102
RTVSPost2010PropOp56
 70
     1
102
RTVSPost2010Prop57
140
1.0
102
RTVSPost2010PropOp57
 70
     1
  0
XRECORD
  5
3AE
102
{ACAD_REACTORS
330
3AD
102
}
330
3AD
100
AcDbXrecord
280
     1
102
RTVSPost2010Prop28
280
     0
102
RTVSPost2010PropOp28
 70
     1
102
RTVSPost2010Prop29
280
     1
102
RTVSPost2010PropOp29
 70
     1
102
RTVSPost2010Prop30
280
     1
102
RTVSPost2010PropOp30
 70
     1
102
RTVSPost2010Prop31
280
     0
102
RTVSPost2010PropOp31
 70
     1
102
RTVSPost2010Prop32
280
     0
102
RTVSPost2010PropOp32
 70
     1
102
RTVSPost2010Prop33
280
     0
102
RTVSPost2010PropOp33
 70
     1
102
RTVSPost2010Prop34
280
     0
102
RTVSPost2010PropOp34
 70
     1
102
RTVSPost2010Prop35
280
     0
102
RTVSPost2010PropOp35
 70
     1
102
RTVSPost2010Prop36
280
     0
102
RTVSPost2010PropOp36
 70
     1
102
RTVSPost2010Prop37
 90
       50
102
RTVSPost2010PropOp37
 70
     1
102
RTVSPost2010Prop38
140
0.0
102
RTVSPost2010PropOp38
 70
     1
102
RTVSPost2010Prop39
140
1.0
102
RTVSPost2010PropOp39
 70
     1
102
RTVSPost2010Prop40
 90
        0
102
RTVSPost2010PropOp40
 70
     1
102
RTVSPost2010Prop41ColorIndex
 90
       18
102
RTVSPost2010Prop41ColorRGB
 90
        0
102
RTVSPost2010PropOp41
 70
     1
102
RTVSPost2010Prop42
 90
       50
102
RTVSPost2010PropOp42
 70
     1
102
RTVSPost2010Prop43
 90
        3
102
RTVSPost2010PropOp43
 70
     1
102
RTVSPost2010Prop44ColorIndex
 90
        5
102
RTVSPost2010Prop44ColorRGB
 90
      255
102
RTVSPost2010PropOp44
 70
     1
102
RTVSPost2010Prop45
280
     0
102
RTVSPost2010PropOp45
 70
     1
102
RTVSPost2010Prop46
 90
       50
102
RTVSPost2010PropOp46
 70
     1
102
RTVSPost2010Prop47
 90
       50
102
RTVSPost2010PropOp47
 70
     1
102
RTVSPost2010Prop48
 90
       50
102
RTVSPost2010PropOp48
 70
     1
102
RTVSPost2010Prop49
280
     0
102
RTVSPost2010PropOp49
 70
     1
102
RTVSPost2010Prop50
 90
       50
102
RTVSPost2010PropOp50
 70
     1
102
RTVSPost2010Prop51ColorIndex
 90
      256
102
RTVSPost2010Prop51ColorRGB
 90
-16777216
102
RTVSPost2010PropOp51
 70
     0
102
RTVSPost2010Prop52
140
1.0
102
RTVSPost2010PropOp52
 70
     0
102
RTVSPost2010Prop53
 90
        2
102
RTVSPost2010PropOp53
 70
     1
102
RTVSPost2010Prop54
  1
strokes_ogs.tif
102
RTVSPost2010PropOp54
 70
     1
102
RTVSPost2010Prop55
280
     0
102
RTVSPost2010PropOp55
 70
     1
102
RTVSPost2010Prop56
140
1.0
102
RTVSPost2010PropOp56
 70
     1
102
RTVSPost2010Prop57
140
1.0
102
RTVSPost2010PropOp57
 70
     1
  0
XRECORD
  5
3A0
102
{ACAD_REACTORS
330
39F
102
}
330
39F
100
AcDbXrecord
280
     1
102
RTVSPost2010Prop28
280
     0
102
RTVSPost2010PropOp28
 70
     1
102
RTVSPost2010Prop29
280
     1
102
RTVSPost2010PropOp29
 70
     1
102
RTVSPost2010Prop30
280
     1
102
RTVSPost2010PropOp30
 70
     1
102
RTVSPost2010Prop31
280
     0
102
RTVSPost2010PropOp31
 70
     1
102
RTVSPost2010Prop32
280
     0
102
RTVSPost2010PropOp32
 70
     1
102
RTVSPost2010Prop33
280
     0
102
RTVSPost2010PropOp33
 70
     1
102
RTVSPost2010Prop34
280
     0
102
RTVSPost2010PropOp34
 70
     1
102
RTVSPost2010Prop35
280
     0
102
RTVSPost2010PropOp35
 70
     1
102
RTVSPost2010Prop36
280
     0
102
RTVSPost2010PropOp36
 70
     1
102
RTVSPost2010Prop37
 90
       50
102
RTVSPost2010PropOp37
 70
     1
102
RTVSPost2010Prop38
140
0.0
102
RTVSPost2010PropOp38
 70
     1
102
RTVSPost2010Prop39
140
1.0
102
RTVSPost2010PropOp39
 70
     1
102
RTVSPost2010Prop40
 90
        0
102
RTVSPost2010PropOp40
 70
     1
102
RTVSPost2010Prop41ColorIndex
 90
       18
102
RTVSPost2010Prop41ColorRGB
 90
        0
102
RTVSPost2010PropOp41
 70
     1
102
RTVSPost2010Prop42
 90
       50
102
RTVSPost2010PropOp42
 70
     1
102
RTVSPost2010Prop43
 90
        3
102
RTVSPost2010PropOp43
 70
     1
102
RTVSPost2010Prop44ColorIndex
 90
        5
102
RTVSPost2010Prop44ColorRGB
 90
      255
102
RTVSPost2010PropOp44
 70
     1
102
RTVSPost2010Prop45
280
     0
102
RTVSPost2010PropOp45
 70
     1
102
RTVSPost2010Prop46
 90
       50
102
RTVSPost2010PropOp46
 70
     1
102
RTVSPost2010Prop47
 90
       50
102
RTVSPost2010PropOp47
 70
     1
102
RTVSPost2010Prop48
 90
       50
102
RTVSPost2010PropOp48
 70
     1
102
RTVSPost2010Prop49
280
     0
102
RTVSPost2010PropOp49
 70
     1
102
RTVSPost2010Prop50
 90
       50
102
RTVSPost2010PropOp50
 70
     1
102
RTVSPost2010Prop51ColorIndex
 90
      256
102
RTVSPost2010Prop51ColorRGB
 90
-16777216
102
RTVSPost2010PropOp51
 70
     0
102
RTVSPost2010Prop52
140
1.0
102
RTVSPost2010PropOp52
 70
     0
102
RTVSPost2010Prop53
 90
        2
102
RTVSPost2010PropOp53
 70
     1
102
RTVSPost2010Prop54
  1
strokes_ogs.tif
102
RTVSPost2010PropOp54
 70
     1
102
RTVSPost2010Prop55
280
     0
102
RTVSPost2010PropOp55
 70
     1
102
RTVSPost2010Prop56
140
1.0
102
RTVSPost2010PropOp56
 70
     1
102
RTVSPost2010Prop57
140
1.0
102
RTVSPost2010PropOp57
 70
     1
  0
XRECORD
  5
3C0
102
{ACAD_REACTORS
330
3BF
102
}
330
3BF
100
AcDbXrecord
280
     1
102
RTVSPost2010Prop28
280
     0
102
RTVSPost2010PropOp28
 70
     1
102
RTVSPost2010Prop29
280
     1
102
RTVSPost2010PropOp29
 70
     1
102
RTVSPost2010Prop30
280
     1
102
RTVSPost2010PropOp30
 70
     1
102
RTVSPost2010Prop31
280
     0
102
RTVSPost2010PropOp31
 70
     1
102
RTVSPost2010Prop32
280
     0
102
RTVSPost2010PropOp32
 70
     1
102
RTVSPost2010Prop33
280
     0
102
RTVSPost2010PropOp33
 70
     1
102
RTVSPost2010Prop34
280
     0
102
RTVSPost2010PropOp34
 70
     1
102
RTVSPost2010Prop35
280
     0
102
RTVSPost2010PropOp35
 70
     1
102
RTVSPost2010Prop36
280
     0
102
RTVSPost2010PropOp36
 70
     1
102
RTVSPost2010Prop37
 90
       50
102
RTVSPost2010PropOp37
 70
     1
102
RTVSPost2010Prop38
140
0.0
102
RTVSPost2010PropOp38
 70
     1
102
RTVSPost2010Prop39
140
1.0
102
RTVSPost2010PropOp39
 70
     1
102
RTVSPost2010Prop40
 90
        0
102
RTVSPost2010PropOp40
 70
     1
102
RTVSPost2010Prop41ColorIndex
 90
       18
102
RTVSPost2010Prop41ColorRGB
 90
        0
102
RTVSPost2010PropOp41
 70
     1
102
RTVSPost2010Prop42
 90
       50
102
RTVSPost2010PropOp42
 70
     1
102
RTVSPost2010Prop43
 90
        3
102
RTVSPost2010PropOp43
 70
     1
102
RTVSPost2010Prop44ColorIndex
 90
        5
102
RTVSPost2010Prop44ColorRGB
 90
      255
102
RTVSPost2010PropOp44
 70
     1
102
RTVSPost2010Prop45
280
     0
102
RTVSPost2010PropOp45
 70
     1
102
RTVSPost2010Prop46
 90
       50
102
RTVSPost2010PropOp46
 70
     1
102
RTVSPost2010Prop47
 90
       50
102
RTVSPost2010PropOp47
 70
     1
102
RTVSPost2010Prop48
 90
       50
102
RTVSPost2010PropOp48
 70
     1
102
RTVSPost2010Prop49
280
     0
102
RTVSPost2010PropOp49
 70
     1
102
RTVSPost2010Prop50
 90
       50
102
RTVSPost2010PropOp50
 70
     1
102
RTVSPost2010Prop51ColorIndex
 90
      256
102
RTVSPost2010Prop51ColorRGB
 90
-16777216
102
RTVSPost2010PropOp51
 70
     0
102
RTVSPost2010Prop52
140
1.0
102
RTVSPost2010PropOp52
 70
     0
102
RTVSPost2010Prop53
 90
        2
102
RTVSPost2010PropOp53
 70
     1
102
RTVSPost2010Prop54
  1
strokes_ogs.tif
102
RTVSPost2010PropOp54
 70
     1
102
RTVSPost2010Prop55
280
     0
102
RTVSPost2010PropOp55
 70
     1
102
RTVSPost2010Prop56
140
1.0
102
RTVSPost2010PropOp56
 70
     1
102
RTVSPost2010Prop57
140
1.0
102
RTVSPost2010PropOp57
 70
     1
  0
ENDSEC
  0
EOF
