  0
SECTION
  2
HEADER
  9
$ACADVER
  1
AC1024
  9
$ACADMAINTVER
 70
     6
  9
$DWGCODEPAGE
  3
ANSI_1252
  9
$INSBASE
 10
0.0
 20
0.0
 30
0.0
  9
$EXTMIN
 10
1.000000E+20
 20
1.000000E+20
 30
1.000000E+20
  9
$EXTMAX
 10
-1.000000E+20
 20
-1.000000E+20
 30
-1.000000E+20
  9
$LIMMIN
 10
0.0
 20
0.0
  9
$LIMMAX
 10
420.0
 20
297.0
  9
$ORTHOMODE
 70
     0
  9
$REGENMODE
 70
     1
  9
$FILLMODE
 70
     1
  9
$QTEXTMODE
 70
     0
  9
$MIRRTEXT
 70
     1
  9
$LTSCALE
 40
1.0
  9
$ATTMODE
 70
     1
  9
$TEXTSIZE
 40
2.5
  9
$TRACEWID
 40
1.0
  9
$TEXTSTYLE
  7
Standard
  9
$CLAYER
  8
0
  9
$CELTYPE
  6
ByLayer
  9
$CECOLOR
 62
   256
  9
$CELTSCALE
 40
1.0
  9
$DISPSILH
 70
     0
  9
$DIMSCALE
 40
1.0
  9
$DIMASZ
 40
2.5
  9
$DIMEXO
 40
0.625
  9
$DIMDLI
 40
3.75
  9
$DIMRND
 40
0.0
  9
$DIMDLE
 40
0.0
  9
$DIMEXE
 40
1.25
  9
$DIMTP
 40
0.0
  9
$DIMTM
 40
0.0
  9
$DIMTXT
 40
2.5
  9
$DIMCEN
 40
2.5
  9
$DIMTSZ
 40
0.0
  9
$DIMTOL
 70
     0
  9
$DIMLIM
 70
     0
  9
$DIMTIH
 70
     0
  9
$DIMTOH
 70
     0
  9
$DIMSE1
 70
     0
  9
$DIMSE2
 70
     0
  9
$DIMTAD
 70
     1
  9
$DIMZIN
 70
     8
  9
$DIMBLK
  1

  9
$DIMASO
 70
     1
  9
$DIMSHO
 70
     1
  9
$DIMPOST
  1

  9
$DIMAPOST
  1

  9
$DIMALT
 70
     0
  9
$DIMALTD
 70
     3
  9
$DIMALTF
 40
0.03937
  9
$DIMLFAC
 40
1.0
  9
$DIMTOFL
 70
     1
  9
$DIMTVP
 40
0.0
  9
$DIMTIX
 70
     0
  9
$DIMSOXD
 70
     0
  9
$DIMSAH
 70
     0
  9
$DIMBLK1
  1

  9
$DIMBLK2
  1

  9
$DIMSTYLE
  2
ISO-25
  9
$DIMCLRD
 70
     0
  9
$DIMCLRE
 70
     0
  9
$DIMCLRT
 70
     0
  9
$DIMTFAC
 40
1.0
  9
$DIMGAP
 40
0.625
  9
$DIMJUST
 70
     0
  9
$DIMSD1
 70
     0
  9
$DIMSD2
 70
     0
  9
$DIMTOLJ
 70
     0
  9
$DIMTZIN
 70
     8
  9
$DIMALTZ
 70
     0
  9
$DIMALTTZ
 70
     0
  9
$DIMUPT
 70
     0
  9
$DIMDEC
 70
     2
  9
$DIMTDEC
 70
     2
  9
$DIMALTU
 70
     2
  9
$DIMALTTD
 70
     3
  9
$DIMTXSTY
  7
Standard
  9
$DIMAUNIT
 70
     0
  9
$DIMADEC
 70
     0
  9
$DIMALTRND
 40
0.0
  9
$DIMAZIN
 70
     0
  9
$DIMDSEP
 70
    44
  9
$DIMATFIT
 70
     3
  9
$DIMFRAC
 70
     0
  9
$DIMLDRBLK
  1

  9
$DIMLUNIT
 70
     2
  9
$DIMLWD
 70
    -2
  9
$DIMLWE
 70
    -2
  9
$DIMTMOVE
 70
     0
  9
$DIMFXL
 40
1.0
  9
$DIMFXLON
 70
     0
  9
$DIMJOGANG
 40
0.785398
  9
$DIMTFILL
 70
     0
  9
$DIMTFILLCLR
 70
     0
  9
$DIMARCSYM
 70
     0
  9
$DIMLTYPE
  6

  9
$DIMLTEX1
  6

  9
$DIMLTEX2
  6

  9
$DIMTXTDIRECTION
 70
     0
  9
$LUNITS
 70
     2
  9
$LUPREC
 70
     4
  9
$SKETCHINC
 40
1.0
  9
$FILLETRAD
 40
10.0
  9
$AUNITS
 70
     0
  9
$AUPREC
 70
     0
  9
$MENU
  1
.
  9
$ELEVATION
 40
0.0
  9
$PELEVATION
 40
0.0
  9
$THICKNESS
 40
0.0
  9
$LIMCHECK
 70
     0
  9
$CHAMFERA
 40
0.0
  9
$CHAMFERB
 40
0.0
  9
$CHAMFERC
 40
0.0
  9
$CHAMFERD
 40
0.0
  9
$SKPOLY
 70
     0
  9
$TDCREATE
 40
2458660.404886181
  9
$TDUCREATE
 40
2458660.321552847
  9
$TDUPDATE
 40
2458660.404886863
  9
$TDUUPDATE
 40
2458660.32155353
  9
$TDINDWG
 40
0.0000000116
  9
$TDUSRTIMER
 40
0.0000000116
  9
$USRTIMER
 70
     1
  9
$ANGBASE
 50
0.0
  9
$ANGDIR
 70
     0
  9
$PDMODE
 70
     0
  9
$PDSIZE
 40
0.0
  9
$PLINEWID
 40
0.0
  9
$SPLFRAME
 70
     0
  9
$SPLINETYPE
 70
     6
  9
$SPLINESEGS
 70
     8
  9
$HANDSEED
  5
1F0
  9
$SURFTAB1
 70
     6
  9
$SURFTAB2
 70
     6
  9
$SURFTYPE
 70
     6
  9
$SURFU
 70
     6
  9
$SURFV
 70
     6
  9
$UCSBASE
  2

  9
$UCSNAME
  2

  9
$UCSORG
 10
0.0
 20
0.0
 30
0.0
  9
$UCSXDIR
 10
1.0
 20
0.0
 30
0.0
  9
$UCSYDIR
 10
0.0
 20
1.0
 30
0.0
  9
$UCSORTHOREF
  2

  9
$UCSORTHOVIEW
 70
     0
  9
$UCSORGTOP
 10
0.0
 20
0.0
 30
0.0
  9
$UCSORGBOTTOM
 10
0.0
 20
0.0
 30
0.0
  9
$UCSORGLEFT
 10
0.0
 20
0.0
 30
0.0
  9
$UCSORGRIGHT
 10
0.0
 20
0.0
 30
0.0
  9
$UCSORGFRONT
 10
0.0
 20
0.0
 30
0.0
  9
$UCSORGBACK
 10
0.0
 20
0.0
 30
0.0
  9
$PUCSBASE
  2

  9
$PUCSNAME
  2

  9
$PUCSORG
 10
0.0
 20
0.0
 30
0.0
  9
$PUCSXDIR
 10
1.0
 20
0.0
 30
0.0
  9
$PUCSYDIR
 10
0.0
 20
1.0
 30
0.0
  9
$PUCSORTHOREF
  2

  9
$PUCSORTHOVIEW
 70
     0
  9
$PUCSORGTOP
 10
0.0
 20
0.0
 30
0.0
  9
$PUCSORGBOTTOM
 10
0.0
 20
0.0
 30
0.0
  9
$PUCSORGLEFT
 10
0.0
 20
0.0
 30
0.0
  9
$PUCSORGRIGHT
 10
0.0
 20
0.0
 30
0.0
  9
$PUCSORGFRONT
 10
0.0
 20
0.0
 30
0.0
  9
$PUCSORGBACK
 10
0.0
 20
0.0
 30
0.0
  9
$USERI1
 70
     0
  9
$USERI2
 70
     0
  9
$USERI3
 70
     0
  9
$USERI4
 70
     0
  9
$USERI5
 70
     0
  9
$USERR1
 40
0.0
  9
$USERR2
 40
0.0
  9
$USERR3
 40
0.0
  9
$USERR4
 40
0.0
  9
$USERR5
 40
0.0
  9
$WORLDVIEW
 70
     1
  9
$SHADEDGE
 70
     3
  9
$SHADEDIF
 70
    70
  9
$TILEMODE
 70
     1
  9
$MAXACTVP
 70
    64
  9
$PINSBASE
 10
0.0
 20
0.0
 30
0.0
  9
$PLIMCHECK
 70
     0
  9
$PEXTMIN
 10
1.000000E+20
 20
1.000000E+20
 30
1.000000E+20
  9
$PEXTMAX
 10
-1.000000E+20
 20
-1.000000E+20
 30
-1.000000E+20
  9
$PLIMMIN
 10
0.0
 20
0.0
  9
$PLIMMAX
 10
420.0
 20
297.0
  9
$UNITMODE
 70
     0
  9
$VISRETAIN
 70
     1
  9
$PLINEGEN
 70
     0
  9
$PSLTSCALE
 70
     1
  9
$TREEDEPTH
 70
  3020
  9
$CMLSTYLE
  2
Standard
  9
$CMLJUST
 70
     0
  9
$CMLSCALE
 40
20.0
  9
$PROXYGRAPHICS
 70
     1
  9
$MEASUREMENT
 70
     1
  9
$CELWEIGHT
370
    -1
  9
$ENDCAPS
280
     0
  9
$JOINSTYLE
280
     0
  9
$LWDISPLAY
290
     0
  9
$INSUNITS
 70
     4
  9
$HYPERLINKBASE
  1

  9
$STYLESHEET
  1

  9
$XEDIT
290
     1
  9
$CEPSNTYPE
380
     0
  9
$PSTYLEMODE
290
     1
  9
$FINGERPRINTGUID
  2
{B80C5C9B-42D2-4B05-BFD9-86C3F331FFD8}
  9
$VERSIONGUID
  2
{FAEB1C32-E019-11D5-929B-00C0DF256EC4}
  9
$EXTNAMES
290
     1
  9
$PSVPSCALE
 40
0.0
  9
$OLESTARTUP
290
     0
  9
$SORTENTS
280
   127
  9
$INDEXCTL
280
     0
  9
$HIDETEXT
280
     1
  9
$XCLIPFRAME
280
     2
  9
$HALOGAP
280
     0
  9
$OBSCOLOR
 70
   257
  9
$OBSLTYPE
280
     0
  9
$INTERSECTIONDISPLAY
280
     0
  9
$INTERSECTIONCOLOR
 70
   257
  9
$DIMASSOC
280
     2
  9
$PROJECTNAME
  1

  9
$CAMERADISPLAY
290
     0
  9
$LENSLENGTH
 40
50.0
  9
$CAMERAHEIGHT
 40
0.0
  9
$STEPSPERSEC
 40
2.0
  9
$STEPSIZE
 40
6.0
  9
$3DDWFPREC
 40
2.0
  9
$PSOLWIDTH
 40
5.0
  9
$PSOLHEIGHT
 40
80.0
  9
$LOFTANG1
 40
1.570796
  9
$LOFTANG2
 40
1.570796
  9
$LOFTMAG1
 40
0.0
  9
$LOFTMAG2
 40
0.0
  9
$LOFTPARAM
 70
     7
  9
$LOFTNORMALS
280
     1
  9
$LATITUDE
 40
37.795
  9
$LONGITUDE
 40
-122.394
  9
$NORTHDIRECTION
 40
0.0
  9
$TIMEZONE
 70
 -8000
  9
$LIGHTGLYPHDISPLAY
280
     1
  9
$TILEMODELIGHTSYNCH
280
     1
  9
$CMATERIAL
347
44
  9
$SOLIDHIST
280
     0
  9
$SHOWHIST
280
     1
  9
$DWFFRAME
280
     2
  9
$DGNFRAME
280
     2
  9
$REALWORLDSCALE
290
     1
  9
$INTERFERECOLOR
 62
   256
  9
$CSHADOW
280
     0
  9
$SHADOWPLANELOCATION
 40
0.0
  0
ENDSEC
  0
SECTION
  2
CLASSES
  0
CLASS
  1
ACDBDICTIONARYWDFLT
  2
AcDbDictionaryWithDefault
  3
ObjectDBX Classes
 90
        0
 91
        4
280
     0
281
     0
  0
CLASS
  1
VISUALSTYLE
  2
AcDbVisualStyle
  3
ObjectDBX Classes
 90
     4095
 91
        4
280
     0
281
     0
  0
CLASS
  1
MATERIAL
  2
AcDbMaterial
  3
ObjectDBX Classes
 90
     1153
 91
        4
280
     0
281
     0
  0
CLASS
  1
SCALE
  2
AcDbScale
  3
ObjectDBX Classes
 90
     1153
 91
        4
280
     0
281
     0
  0
CLASS
  1
TABLESTYLE
  2
AcDbTableStyle
  3
ObjectDBX Classes
 90
     4095
 91
        4
280
     0
281
     0
  0
CLASS
  1
MLEADERSTYLE
  2
AcDbMLeaderStyle
  3
ACDB_MLEADERSTYLE_CLASS
 90
     4095
 91
        4
280
     0
281
     0
  0
CLASS
  1
SUN
  2
AcDbSun
  3
SCENEOE
 90
     1153
 91
        4
280
     0
281
     0
  0
CLASS
  1
DICTIONARYVAR
  2
AcDbDictionaryVar
  3
ObjectDBX Classes
 90
        0
 91
        4
280
     0
281
     0
  0
CLASS
  1
CELLSTYLEMAP
  2
AcDbCellStyleMap
  3
ObjectDBX Classes
 90
     1152
 91
        4
280
     0
281
     0
  0
ENDSEC
  0
SECTION
  2
TABLES
  0
TABLE
  2
VPORT
  5
8
330
0
100
AcDbSymbolTable
 70
     1
  0
VPORT
  5
29
330
8
100
AcDbSymbolTableRecord
100
AcDbViewportTableRecord
  2
*Active
 70
     0
 10
0.0
 20
0.0
 11
1.0
 21
1.0
 12
344.186916
 22
148.5
 13
0.0
 23
0.0
 14
10.0
 24
10.0
 15
10.0
 25
10.0
 16
0.0
 26
0.0
 36
1.0
 17
0.0
 27
0.0
 37
0.0
 40
297.0
 41
1.972973
 42
50.0
 43
0.0
 44
0.0
 50
0.0
 51
0.0
 71
     0
 72
   100
 73
     1
 74
     3
 75
     0
 76
     0
 77
     0
 78
     0
281
     0
 65
     1
110
0.0
120
0.0
130
0.0
111
1.0
121
0.0
131
0.0
112
0.0
122
1.0
132
0.0
 79
     0
146
0.0
348
2F
 60
     3
 61
     5
292
     1
282
     1
141
0.0
142
0.0
 63
   250
361
6D
  0
ENDTAB
  0
TABLE
  2
LTYPE
  5
5
330
0
100
AcDbSymbolTable
 70
     1
  0
LTYPE
  5
14
330
5
100
AcDbSymbolTableRecord
100
AcDbLinetypeTableRecord
  2
ByBlock
 70
     0
  3

 72
    65
 73
     0
 40
0.0
  0
LTYPE
  5
15
330
5
100
AcDbSymbolTableRecord
100
AcDbLinetypeTableRecord
  2
ByLayer
 70
     0
  3

 72
    65
 73
     0
 40
0.0
  0
LTYPE
  5
16
330
5
100
AcDbSymbolTableRecord
100
AcDbLinetypeTableRecord
  2
Continuous
 70
     0
  3
Solid line
 72
    65
 73
     0
 40
0.0
  0
ENDTAB
  0
TABLE
  2
LAYER
  5
2
330
0
100
AcDbSymbolTable
 70
     1
  0
LAYER
  5
10
330
2
100
AcDbSymbolTableRecord
100
AcDbLayerTableRecord
  2
0
 70
     0
 62
   106
  6
Continuous
370
     0
390
F
347
46
  0
ENDTAB
  0
TABLE
  2
STYLE
  5
3
330
0
100
AcDbSymbolTable
 70
     4
  0
STYLE
  5
11
330
3
100
AcDbSymbolTableRecord
100
AcDbTextStyleTableRecord
  2
Standard
 70
     0
 40
0.0
 41
1.0
 50
0.0
 71
     0
 42
2.5
  3
txt
  4

  0
STYLE
  5
6E
330
3
100
AcDbSymbolTableRecord
100
AcDbTextStyleTableRecord
  2
Default
 70
     0
 40
0.0
 41
1.0
 50
0.0
 71
     0
 42
2.5
  3

  4

1001
ACAD
1000
txt
1071
        0
  0
STYLE
  5
6F
330
3
100
AcDbSymbolTableRecord
100
AcDbTextStyleTableRecord
  2
ISO
 70
     0
 40
0.0
 41
1.0
 50
0.0
 71
     0
 42
2.5
  3

  4

1001
ACAD
1000
txt
1071
        0
  0
STYLE
  5
70
330
3
100
AcDbSymbolTableRecord
100
AcDbTextStyleTableRecord
  2
zucchetti
 70
     0
 40
0.0
 41
1.0
 50
0.0
 71
     0
 42
2.5
  3

  4

1001
ACAD
1000
Arial
1071
        0
  0
ENDTAB
  0
TABLE
  2
VIEW
  5
6
330
0
100
AcDbSymbolTable
 70
     0
  0
ENDTAB
  0
TABLE
  2
UCS
  5
7
330
0
100
AcDbSymbolTable
 70
     0
  0
ENDTAB
  0
TABLE
  2
APPID
  5
9
330
0
100
AcDbSymbolTable
 70
     1
  0
APPID
  5
12
330
9
100
AcDbSymbolTableRecord
100
AcDbRegAppTableRecord
  2
ACAD
 70
     0
  0
ENDTAB
  0
TABLE
  2
DIMSTYLE
  5
A
330
0
100
AcDbSymbolTable
 70
     4
100
AcDbDimStyleTable
  0
DIMSTYLE
105
27
330
A
100
AcDbSymbolTableRecord
100
AcDbDimStyleTableRecord
  2
ISO-25
 70
     0
 41
2.5
 42
0.625
 43
3.75
 44
1.25
 73
     0
 74
     0
 77
     1
 78
     8
140
2.5
141
2.5
143
0.03937
147
0.625
171
     3
172
     1
178
     0
271
     2
272
     2
274
     3
278
    44
283
     0
284
     8
340
11
  0
DIMSTYLE
105
71
330
A
100
AcDbSymbolTableRecord
100
AcDbDimStyleTableRecord
  2
Default
 70
     0
  3
<>
 41
4.375
 42
1.05
 44
2.1
 49
10.01
 73
     0
 74
     0
 77
     1
 78
     8
140
3.5
146
0.4
147
1.75
172
     1
271
     2
178
     3
271
     2
272
     3
284
     8
340
6E
341
72
342
72
  0
DIMSTYLE
105
79
330
A
100
AcDbSymbolTableRecord
100
AcDbDimStyleTableRecord
  2
ISO
 70
     0
  3
<>
 41
4.375
 42
1.05
 44
2.1
 49
10.01
 73
     0
 74
     0
 77
     1
 78
     8
140
3.5
146
0.4
147
1.75
172
     1
271
     2
178
     3
271
     2
272
     3
284
     8
340
6F
341
72
342
72
  0
DIMSTYLE
105
7A
330
A
100
AcDbSymbolTableRecord
100
AcDbDimStyleTableRecord
  2
zucchetti
 70
     0
  3
<>
 41
3.0
 42
0.9
 44
1.8
 49
8.58
 73
     0
 74
     0
 77
     1
 78
     8
140
3.0
146
0.6
147
1.5
172
     1
176
     3
177
     3
271
     2
178
     3
271
     2
272
     2
284
     8
340
70
  0
ENDTAB
  0
TABLE
  2
BLOCK_RECORD
  5
1
330
0
100
AcDbSymbolTable
 70
     6
  0
BLOCK_RECORD
  5
1F
330
1
100
AcDbSymbolTableRecord
100
AcDbBlockTableRecord
  2
*Model_Space
340
22
 70
     0
280
     1
281
     0
  0
BLOCK_RECORD
  5
1B
330
1
100
AcDbSymbolTableRecord
100
AcDbBlockTableRecord
  2
*Paper_Space
340
1E
 70
     0
280
     1
281
     0
  0
BLOCK_RECORD
  5
23
330
1
100
AcDbSymbolTableRecord
100
AcDbBlockTableRecord
  2
*Paper_Space0
340
26
 70
     0
280
     1
281
     0
  0
BLOCK_RECORD
  5
72
330
1
100
AcDbSymbolTableRecord
100
AcDbBlockTableRecord
  2
_CLOSED
340
0
 70
     0
280
     1
281
     0
  0
BLOCK_RECORD
  5
7B
330
1
100
AcDbSymbolTableRecord
100
AcDbBlockTableRecord
  2
a
340
0
102
{BLKREFS
331
BB
102
}
 70
     0
280
     1
281
     0
  0
BLOCK_RECORD
  5
BC
330
1
100
AcDbSymbolTableRecord
100
AcDbBlockTableRecord
  2
b
340
0
102
{BLKREFS
331
108
102
}
 70
     0
280
     1
281
     0
  0
BLOCK_RECORD
  5
109
330
1
100
AcDbSymbolTableRecord
100
AcDbBlockTableRecord
  2
c
340
0
102
{BLKREFS
331
15F
102
}
 70
     0
280
     1
281
     0
  0
BLOCK_RECORD
  5
160
330
1
100
AcDbSymbolTableRecord
100
AcDbBlockTableRecord
  2
d
340
0
102
{BLKREFS
331
1B6
102
}
 70
     0
280
     1
281
     0
  0
ENDTAB
  0
ENDSEC
  0
SECTION
  2
BLOCKS
  0
BLOCK
  5
20
330
1F
100
AcDbEntity
  8
0
100
AcDbBlockBegin
  2
*Model_Space
 70
     0
 10
0.0
 20
0.0
 30
0.0
  3
*Model_Space
  1

  0
ENDBLK
  5
21
330
1F
100
AcDbEntity
  8
0
100
AcDbBlockEnd
  0
BLOCK
  5
1C
330
1B
100
AcDbEntity
 67
     1
  8
0
100
AcDbBlockBegin
  2
*Paper_Space
 70
     0
 10
0.0
 20
0.0
 30
0.0
  3
*Paper_Space
  1

  0
ENDBLK
  5
1D
330
1B
100
AcDbEntity
 67
     1
  8
0
100
AcDbBlockEnd
  0
BLOCK
  5
24
330
23
100
AcDbEntity
  8
0
100
AcDbBlockBegin
  2
*Paper_Space0
 70
     0
 10
0.0
 20
0.0
 30
0.0
  3
*Paper_Space0
  1

  0
ENDBLK
  5
25
330
23
100
AcDbEntity
  8
0
100
AcDbBlockEnd
  0
BLOCK
  5
73
330
72
100
AcDbEntity
  8
0
100
AcDbBlockBegin
  2
_CLOSED
 70
     0
 10
0.0
 20
0.0
 30
0.0
  3
_CLOSED
  1

  0
LINE
  5
75
330
72
100
AcDbEntity
  8
0
  6
ByBlock
 62
     0
370
    -2
100
AcDbLine
 10
-1.0
 20
0.166667
 30
0.0
 11
0.0
 21
0.0
 31
0.0
  0
LINE
  5
76
330
72
100
AcDbEntity
  8
0
  6
ByBlock
 62
     0
370
    -2
100
AcDbLine
 10
0.0
 20
0.0
 30
0.0
 11
-1.0
 21
-0.166667
 31
0.0
  0
LINE
  5
77
330
72
100
AcDbEntity
  8
0
  6
ByBlock
 62
     0
370
    -2
100
AcDbLine
 10
-1.0
 20
0.166667
 30
0.0
 11
-1.0
 21
-0.166667
 31
0.0
  0
LINE
  5
78
330
72
100
AcDbEntity
  8
0
  6
ByBlock
 62
     0
370
    -2
100
AcDbLine
 10
0.0
 20
0.0
 30
0.0
 11
-1.0
 21
0.0
 31
0.0
  0
ENDBLK
  5
74
330
72
100
AcDbEntity
  8
0
100
AcDbBlockEnd
  0
BLOCK
  5
B9
330
7B
100
AcDbEntity
  8
0
100
AcDbBlockBegin
  2
a
 70
     0
 10
0.657455
 20
76.756454
 30
0.0
  3
a
  1

  0
LINE
  5
7C
330
7B
100
AcDbEntity
  8
0
  6
Continuous
 62
     0
370
     0
100
AcDbLine
 10
142.205023
 20
1065.513001
 30
0.0
 11
142.205023
 21
926.45872
 31
0.0
  0
LINE
  5
7D
330
7B
100
AcDbEntity
  8
0
  6
Continuous
 62
     0
370
    30
100
AcDbLine
 10
142.207931
 20
926.458672
 30
0.0
 11
142.207931
 21
1065.528626
 31
0.0
  0
LINE
  5
7E
330
7B
100
AcDbEntity
  8
0
  6
Continuous
 62
     0
370
     0
100
AcDbLine
 10
142.207931
 20
1065.528626
 30
0.0
 11
142.205023
 21
1065.513001
 31
0.0
  0
LINE
  5
7F
330
7B
100
AcDbEntity
  8
0
  6
Continuous
 62
     0
370
     0
100
AcDbLine
 10
104.896005
 20
926.458709
 30
0.0
 11
104.896005
 21
1065.513001
 31
0.0
  0
LINE
  5
80
330
7B
100
AcDbEntity
  8
0
  6
Continuous
 62
     0
370
     0
100
AcDbLine
 10
104.896005
 20
1065.513001
 30
0.0
 11
104.893097
 21
1065.528626
 31
0.0
  0
LINE
  5
81
330
7B
100
AcDbEntity
  8
0
  6
Continuous
 62
     0
370
    30
100
AcDbLine
 10
104.893097
 20
1065.528626
 30
0.0
 11
104.893097
 21
926.458662
 31
0.0
  0
LWPOLYLINE
  5
82
330
7B
100
AcDbEntity
  8
0
  6
Continuous
 62
     0
370
     0
100
AcDbPolyline
 90
        5
 70
     0
 43
0.0
 10
106.388809
 20
1066.80603
 10
106.178421
 20
1066.717896
 10
106.01725
 20
1066.593994
 10
105.919281
 20
1066.445435
 10
105.893509
 20
1066.279053
  0
LWPOLYLINE
  5
83
330
7B
100
AcDbEntity
  8
0
  6
Continuous
 62
     0
370
    30
100
AcDbPolyline
 90
        9
 70
     0
 43
0.0
 10
104.893105
 20
1065.528687
 10
104.922729
 20
1065.797363
 10
105.010544
 20
1066.053345
 10
105.151802
 20
1066.284058
 10
105.339447
 20
1066.479126
 10
105.563957
 20
1066.630371
 10
105.81414
 20
1066.733521
 10
106.078865
 20
1066.78894
 10
106.388809
 20
1066.80603
  0
LWPOLYLINE
  5
84
330
7B
100
AcDbEntity
  8
0
  6
Continuous
 62
     0
370
     0
100
AcDbPolyline
 90
        7
 70
     0
 43
0.0
 10
105.893509
 20
1066.279053
 10
105.649338
 20
1066.247314
 10
105.419456
 20
1066.170654
 10
105.217026
 20
1066.052856
 10
105.056602
 20
1065.901489
 10
104.94841
 20
1065.727417
 10
104.896004
 20
1065.513062
  0
LWPOLYLINE
  5
85
330
7B
100
AcDbEntity
  8
0
  6
Continuous
 62
     0
370
     0
100
AcDbPolyline
 90
        7
 70
     0
 43
0.0
 10
141.20752
 20
1066.279053
 10
141.451691
 20
1066.247314
 10
141.681564
 20
1066.170654
 10
141.884003
 20
1066.052856
 10
142.044434
 20
1065.901489
 10
142.152618
 20
1065.727417
 10
142.205017
 20
1065.513062
  0
LWPOLYLINE
  5
86
330
7B
100
AcDbEntity
  8
0
  6
Continuous
 62
     0
370
    30
100
AcDbPolyline
 90
        9
 70
     0
 43
0.0
 10
142.207932
 20
1065.528687
 10
142.178299
 20
1065.797363
 10
142.090485
 20
1066.053345
 10
141.949219
 20
1066.284058
 10
141.761581
 20
1066.479126
 10
141.537064
 20
1066.630371
 10
141.28688
 20
1066.733521
 10
141.022156
 20
1066.78894
 10
140.712219
 20
1066.80603
  0
LWPOLYLINE
  5
87
330
7B
100
AcDbEntity
  8
0
  6
Continuous
 62
     0
370
     0
100
AcDbPolyline
 90
        5
 70
     0
 43
0.0
 10
140.712219
 20
1066.80603
 10
140.922607
 20
1066.717896
 10
141.083771
 20
1066.593994
 10
141.181747
 20
1066.445435
 10
141.20752
 20
1066.279053
  0
LINE
  5
88
330
7B
100
AcDbEntity
  8
0
  6
Continuous
 62
     0
370
    30
100
AcDbLine
 10
106.38881
 20
1066.806048
 30
0.0
 11
140.712219
 21
1066.806048
 31
0.0
  0
LINE
  5
89
330
7B
100
AcDbEntity
  8
0
  6
Continuous
 62
     0
370
     0
100
AcDbLine
 10
108.587935
 20
1034.33149
 30
0.0
 11
105.89351
 21
1066.279046
 31
0.0
  0
LWPOLYLINE
  5
8A
330
7B
100
AcDbEntity
  8
0
  6
Continuous
 62
     0
370
     0
100
AcDbPolyline
 90
       22
 70
     0
 43
0.0
 10
123.550514
 20
1022.633484
 10
122.481148
 20
1022.665588
 10
121.417213
 20
1022.761475
 10
120.364143
 20
1022.920776
 10
119.327309
 20
1023.1427
 10
118.311943
 20
1023.426086
 10
117.323212
 20
1023.769409
 10
116.366234
 20
1024.171143
 10
115.445778
 20
1024.629028
 10
114.566528
 20
1025.140747
 10
113.733086
 20
1025.703857
 10
112.949554
 20
1026.315308
 10
112.219925
 20
1026.972168
 10
111.548058
 20
1027.670898
 10
110.93721
 20
1028.408203
 10
110.390503
 20
1029.179932
 10
109.910881
 20
1029.982666
 10
109.50061
 20
1030.81189
 10
109.161774
 20
1031.663574
 10
108.896286
 20
1032.533325
 10
108.705315
 20
1033.41687
 10
108.587936
 20
1034.331543
  0
LWPOLYLINE
  5
8B
330
7B
100
AcDbEntity
  8
0
  6
Continuous
 62
     0
370
     0
100
AcDbPolyline
 90
       22
 70
     0
 43
0.0
 10
138.513092
 20
1034.331543
 10
138.39946
 20
1033.438721
 10
138.210342
 20
1032.554932
 10
137.946671
 20
1031.684814
 10
137.609619
 20
1030.832642
 10
137.20108
 20
1030.002686
 10
136.723145
 20
1029.199341
 10
136.178055
 20
1028.426758
 10
135.568741
 20
1027.688599
 10
134.898346
 20
1026.988892
 10
134.17009
 20
1026.330933
 10
133.387833
 20
1025.718384
 10
132.555573
 20
1025.153931
 10
131.677399
 20
1024.640991
 10
130.757904
 20
1024.181763
 10
129.801758
 20
1023.778625
 10
128.813751
 20
1023.433838
 10
127.798981
 20
1023.148987
 10
126.762611
 20
1022.925476
 10
125.709877
 20
1022.764648
 10
124.646149
 20
1022.667175
 10
123.550514
 20
1022.633484
  0
LINE
  5
8C
330
7B
100
AcDbEntity
  8
0
  6
Continuous
 62
     0
370
     0
100
AcDbLine
 10
141.207518
 20
1066.279046
 30
0.0
 11
138.513093
 21
1034.33149
 31
0.0
  0
LWPOLYLINE
  5
8D
330
7B
100
AcDbEntity
  8
0
  6
Continuous
 62
     0
370
     0
100
AcDbPolyline
 90
       30
 70
     0
 43
0.0
 10
117.050514
 20
1057.904297
 10
117.082626
 20
1057.489502
 10
117.183403
 20
1057.063721
 10
117.358261
 20
1056.633911
 10
117.610565
 20
1056.207642
 10
117.941055
 20
1055.793457
 10
118.347473
 20
1055.400024
 10
118.824463
 20
1055.035767
 10
119.363754
 20
1054.708374
 10
119.954575
 20
1054.423828
 10
120.584412
 20
1054.186523
 10
121.239838
 20
1053.999146
 10
121.907372
 20
1053.861938
 10
122.57431
 20
1053.77356
 10
123.229332
 20
1053.731323
 10
123.869286
 20
1053.731201
 10
124.524254
 20
1053.773315
 10
125.19117
 20
1053.86145
 10
125.858719
 20
1053.998535
 10
126.514214
 20
1054.185791
 10
127.144173
 20
1054.422852
 10
127.735161
 20
1054.707153
 10
128.274658
 20
1055.034546
 10
128.751907
 20
1055.398682
 10
129.1586
 20
1055.791992
 10
129.48938
 20
1056.206055
 10
129.741974
 20
1056.632324
 10
129.917114
 20
1057.062134
 10
130.018158
 20
1057.487915
 10
130.050507
 20
1057.904297
  0
LWPOLYLINE
  5
8E
330
7B
100
AcDbEntity
  8
0
  6
Continuous
 62
     0
370
     0
100
AcDbPolyline
 90
       30
 70
     0
 43
0.0
 10
130.050507
 20
1057.904297
 10
130.018402
 20
1058.319092
 10
129.917633
 20
1058.744873
 10
129.742767
 20
1059.174683
 10
129.490463
 20
1059.600952
 10
129.159973
 20
1060.015137
 10
128.753555
 20
1060.408569
 10
128.276566
 20
1060.772827
 10
127.737274
 20
1061.10022
 10
127.146454
 20
1061.384766
 10
126.516609
 20
1061.62207
 10
125.861191
 20
1061.809448
 10
125.193657
 20
1061.946655
 10
124.526718
 20
1062.035034
 10
123.871696
 20
1062.077271
 10
123.231743
 20
1062.077393
 10
122.576775
 20
1062.035278
 10
121.909859
 20
1061.947144
 10
121.24231
 20
1061.810059
 10
120.586815
 20
1061.622803
 10
119.956856
 20
1061.385742
 10
119.365868
 20
1061.10144
 10
118.826363
 20
1060.774048
 10
118.349121
 20
1060.410034
 10
117.942429
 20
1060.016602
 10
117.611656
 20
1059.602539
 10
117.359055
 20
1059.17627
 10
117.183914
 20
1058.74646
 10
117.08287
 20
1058.320679
 10
117.050514
 20
1057.904297
  0
LINE
  5
8F
330
7B
100
AcDbEntity
  8
0
  6
Continuous
 62
     0
370
     0
100
AcDbLine
 10
107.59043
 20
926.497404
 30
0.0
 11
107.59043
 21
1033.565445
 31
0.0
  0
LINE
  5
90
330
7B
100
AcDbEntity
  8
0
  6
Continuous
 62
     0
370
     0
100
AcDbLine
 10
107.59043
 20
1033.565445
 30
0.0
 11
104.896005
 21
1065.513001
 31
0.0
  0
LINE
  5
91
330
7B
100
AcDbEntity
  8
0
  6
Continuous
 62
     0
370
     0
100
AcDbLine
 10
123.550514
 20
926.587374
 30
0.0
 11
123.550514
 21
1021.86746
 31
0.0
  0
LWPOLYLINE
  5
92
330
7B
100
AcDbEntity
  8
0
  6
Continuous
 62
     0
370
     0
100
AcDbPolyline
 90
       23
 70
     0
 43
0.0
 10
123.550514
 20
1021.867432
 10
122.316063
 20
1021.904724
 10
121.088753
 20
1022.016602
 10
119.884178
 20
1022.202271
 10
118.717476
 20
1022.455444
 10
117.593544
 20
1022.772461
 10
116.516914
 20
1023.148987
 10
115.494339
 20
1023.579346
 10
114.530853
 20
1024.057983
 10
113.628448
 20
1024.579834
 10
112.788391
 20
1025.140259
 10
112.011429
 20
1025.734985
 10
111.297981
 20
1026.359619
 10
110.648354
 20
1027.010376
 10
110.062477
 20
1027.683472
 10
109.539635
 20
1028.375977
 10
109.079079
 20
1029.085205
 10
108.680153
 20
1029.808594
 10
108.34227
 20
1030.543579
 10
108.064865
 20
1031.288208
 10
107.84742
 20
1032.040527
 10
107.689514
 20
1032.798462
 10
107.590431
 20
1033.56543
  0
LINE
  5
93
330
7B
100
AcDbEntity
  8
0
  6
Continuous
 62
     0
370
     0
100
AcDbLine
 10
139.510598
 20
926.497411
 30
0.0
 11
139.510598
 21
1033.565445
 31
0.0
  0
LWPOLYLINE
  5
94
330
7B
100
AcDbEntity
  8
0
  6
Continuous
 62
     0
370
     0
100
AcDbPolyline
 90
       23
 70
     0
 43
0.0
 10
139.510605
 20
1033.56543
 10
139.41243
 20
1032.803955
 10
139.254959
 20
1032.045898
 10
139.037933
 20
1031.293579
 10
138.760971
 20
1030.54895
 10
138.423523
 20
1029.813843
 10
138.02504
 20
1029.090332
 10
137.564926
 20
1028.381104
 10
137.042526
 20
1027.688354
 10
136.457108
 20
1027.015137
 10
135.807938
 20
1026.364258
 10
135.094955
 20
1025.73938
 10
134.318451
 20
1025.144409
 10
133.478836
 20
1024.58374
 10
132.576874
 20
1024.061646
 10
131.613815
 20
1023.582642
 10
130.59166
 20
1023.151917
 10
129.515396
 20
1022.774963
 10
128.391785
 20
1022.457458
 10
127.22538
 20
1022.203857
 10
126.021027
 20
1022.0177
 10
124.793823
 20
1021.905212
 10
123.550514
 20
1021.867432
  0
LINE
  5
95
330
7B
100
AcDbEntity
  8
0
  6
Continuous
 62
     0
370
     0
100
AcDbLine
 10
142.205023
 20
1065.513001
 30
0.0
 11
139.510598
 21
1033.565445
 31
0.0
  0
ELLIPSE
  5
96
330
7B
100
AcDbEntity
  8
0
  6
Continuous
 62
     0
370
     0
100
AcDbEllipse
 10
138.513093
 20
1033.565445
 30
0.0
 11
-0.9964623279164656
 21
0.08404063923659823
 31
0.0
210
0.0
220
0.0
230
-1.0
 40
0.764921
 41
1.506372907779865
 42
3.031777808551951
  0
LINE
  5
97
330
7B
100
AcDbEntity
  8
0
  6
Continuous
 62
     0
370
     0
100
AcDbLine
 10
123.550514
 20
1022.633505
 30
0.0
 11
123.550514
 21
1021.86746
 31
0.0
  0
LWPOLYLINE
  5
98
330
7B
100
AcDbEntity
  8
0
  6
Continuous
 62
     0
370
     0
100
AcDbPolyline
 90
        7
 70
     0
 43
0.0
 10
108.587936
 20
1034.331543
 10
108.342606
 20
1034.299316
 10
108.11174
 20
1034.222168
 10
107.910545
 20
1034.104614
 10
107.750984
 20
1033.954102
 10
107.642723
 20
1033.779297
 10
107.590431
 20
1033.56543
  0
ARC
  5
99
330
7B
100
AcDbEntity
  8
0
  6
Continuous
 62
     0
370
    30
100
AcDbCircle
 10
99.050514
 20
1068.607083
 30
0.0
 40
0.500000000000004
100
AcDbArc
 50
90.0
 51
180.0
  0
ARC
  5
9A
330
7B
100
AcDbEntity
  8
0
  6
Continuous
 62
     0
370
    30
100
AcDbCircle
 10
148.050514
 20
1068.607083
 30
0.0
 40
0.5
100
AcDbArc
 50
0.0
 51
90.0
  0
LINE
  5
9B
330
7B
100
AcDbEntity
  8
0
  6
Continuous
 62
     0
370
    30
100
AcDbLine
 10
99.050514
 20
1069.107083
 30
0.0
 11
148.050514
 21
1069.107083
 31
0.0
  0
LINE
  5
9C
330
7B
100
AcDbEntity
  8
0
  6
Continuous
 62
     0
370
    30
100
AcDbLine
 10
98.550514
 20
926.30276
 30
0.0
 11
98.550514
 21
1068.607083
 31
0.0
  0
LINE
  5
9D
330
7B
100
AcDbEntity
  8
0
  6
Continuous
 62
     0
370
    30
100
AcDbLine
 10
148.550514
 20
1068.607083
 30
0.0
 11
148.550514
 21
926.302793
 31
0.0
  0
LWPOLYLINE
  5
9E
330
7B
100
AcDbEntity
  8
0
  6
Continuous
 62
     0
370
     0
100
AcDbPolyline
 90
       32
 70
     0
 43
0.0
 10
93.334015
 20
923.37439
 10
93.375076
 20
923.401062
 10
93.493332
 20
923.427673
 10
93.6884
 20
923.454102
 10
93.959892
 20
923.480408
 10
94.307243
 20
923.506348
 10
94.729385
 20
923.531982
 10
95.225189
 20
923.557251
 10
95.793503
 20
923.582031
 10
96.432961
 20
923.606262
 10
97.141762
 20
923.629883
 10
97.918053
 20
923.652832
 10
98.759995
 20
923.67511
 10
99.665459
 20
923.696594
 10
100.631989
 20
923.717285
 10
101.657104
 20
923.737061
 10
102.738297
 20
923.75592
 10
103.87281
 20
923.773804
 10
105.057625
 20
923.790649
 10
106.289719
 20
923.806458
 10
107.566032
 20
923.821106
 10
108.883293
 20
923.834656
 10
110.238045
 20
923.847046
 10
111.626831
 20
923.858154
 10
113.046173
 20
923.868103
 10
114.492416
 20
923.876709
 10
115.961815
 20
923.884094
 10
117.450607
 20
923.890137
 10
118.95504
 20
923.894836
 10
120.471245
 20
923.898193
 10
121.995316
 20
923.900269
 10
123.550758
 20
923.90094
  0
LWPOLYLINE
  5
9F
330
7B
100
AcDbEntity
  8
0
  6
Continuous
 62
     0
370
     0
100
AcDbPolyline
 90
       32
 70
     0
 43
0.0
 10
123.550758
 20
923.90094
 10
125.078842
 20
923.900269
 10
126.60302
 20
923.898254
 10
128.1194
 20
923.894897
 10
129.624069
 20
923.890198
 10
131.113174
 20
923.884155
 10
132.582962
 20
923.876831
 10
134.029648
 20
923.868225
 10
135.449509
 20
923.858337
 10
136.838867
 20
923.847229
 10
138.19426
 20
923.8349
 10
139.512207
 20
923.821411
 10
140.789291
 20
923.806702
 10
142.022202
 20
923.790955
 10
143.207901
 20
923.774109
 10
144.343338
 20
923.756287
 10
145.425507
 20
923.737427
 10
146.451645
 20
923.717651
 10
147.41925
 20
923.697021
 10
148.325836
 20
923.675537
 10
149.16893
 20
923.653259
 10
149.946411
 20
923.63031
 10
150.656433
 20
923.606689
 10
151.29715
 20
923.582458
 10
151.86676
 20
923.557678
 10
152.363861
 20
923.532471
 10
152.787338
 20
923.506836
 10
153.136032
 20
923.480835
 10
153.408905
 20
923.45459
 10
153.605347
 20
923.428162
 10
153.724976
 20
923.40155
 10
153.767471
 20
923.37439
  0
LWPOLYLINE
  5
A0
330
7B
100
AcDbEntity
  8
0
  6
Continuous
 62
     0
370
    30
100
AcDbPolyline
 90
       21
 70
     0
 43
0.0
 10
87.83522
 20
723.671204
 10
86.639801
 20
723.645203
 10
85.504753
 20
723.618347
 10
84.43132
 20
723.590759
 10
83.421997
 20
723.562378
 10
82.479454
 20
723.533447
 10
81.606316
 20
723.503906
 10
80.804268
 20
723.473816
 10
80.074059
 20
723.443176
 10
79.41642
 20
723.411987
 10
78.832123
 20
723.380249
 10
78.322014
 20
723.348083
 10
77.886887
 20
723.315735
 10
77.527496
 20
723.283081
 10
77.244553
 20
723.250244
 10
77.038666
 20
723.217163
 10
76.910217
 20
723.184021
 10
76.859535
 20
723.150757
 10
76.886597
 20
723.117432
 10
76.991028
 20
723.084229
 10
77.175453
 20
723.05072
  0
LWPOLYLINE
  5
A1
330
7B
100
AcDbEntity
  8
0
  6
Continuous
 62
     0
370
    30
100
AcDbPolyline
 90
       63
 70
     0
 43
0.0
 10
170.027039
 20
723.050842
 10
170.21138
 20
723.084351
 10
170.316299
 20
723.11792
 10
170.341507
 20
723.151489
 10
170.287186
 20
723.18512
 10
170.153763
 20
723.218628
 10
169.941544
 20
723.252136
 10
169.650665
 20
723.285461
 10
169.281265
 20
723.318542
 10
168.833817
 20
723.351257
 10
168.309265
 20
723.383606
 10
167.708557
 20
723.415588
 10
167.032913
 20
723.447083
 10
166.283676
 20
723.478088
 10
165.462173
 20
723.508606
 10
164.569626
 20
723.538574
 10
163.607269
 20
723.56781
 10
162.576462
 20
723.596191
 10
161.478897
 20
723.62384
 10
160.316284
 20
723.650635
 10
159.090637
 20
723.676697
 10
157.804199
 20
723.701843
 10
156.459229
 20
723.726013
 10
155.057968
 20
723.749268
 10
153.602676
 20
723.771423
 10
152.095795
 20
723.79248
 10
150.540298
 20
723.812439
 10
148.939209
 20
723.831238
 10
147.295563
 20
723.848877
 10
145.612442
 20
723.865356
 10
143.892838
 20
723.880615
 10
142.139404
 20
723.894653
 10
140.354599
 20
723.90741
 10
138.540985
 20
723.918762
 10
136.701752
 20
723.928772
 10
134.840256
 20
723.9375
 10
132.959778
 20
723.944885
 10
131.063461
 20
723.950989
 10
129.154434
 20
723.955688
 10
127.235916
 20
723.959045
 10
125.311195
 20
723.960938
 10
123.383591
 20
723.961426
 10
121.45636
 20
723.96051
 10
119.532768
 20
723.958252
 10
117.616066
 20
723.954651
 10
115.709526
 20
723.949707
 10
113.816414
 20
723.943359
 10
111.939972
 20
723.935669
 10
110.08342
 20
723.926575
 10
108.249947
 20
723.916138
 10
106.442566
 20
723.904419
 10
104.664162
 20
723.891479
 10
102.917671
 20
723.877319
 10
101.20639
 20
723.861938
 10
99.53376
 20
723.845276
 10
97.902687
 20
723.827332
 10
96.314842
 20
723.808167
 10
94.771713
 20
723.787842
 10
93.275826
 20
723.766418
 10
91.830887
 20
723.744019
 10
90.440697
 20
723.720642
 10
89.108795
 20
723.696411
 10
87.83522
 20
723.671204
  0
LWPOLYLINE
  5
A2
330
7B
100
AcDbEntity
  8
0
  6
Continuous
 62
     0
370
     0
100
AcDbPolyline
 90
       32
 70
     0
 43
0.0
 10
89.822136
 20
723.746094
 10
88.66877
 20
723.725769
 10
87.540726
 20
723.704529
 10
86.441368
 20
723.682251
 10
85.374123
 20
723.659119
 10
84.342453
 20
723.63501
 10
83.349838
 20
723.609985
 10
82.399742
 20
723.584106
 10
81.495605
 20
723.557312
 10
80.640793
 20
723.529724
 10
79.838585
 20
723.501343
 10
79.092163
 20
723.472229
 10
78.404526
 20
723.442383
 10
77.778519
 20
723.411926
 10
77.216782
 20
723.380859
 10
76.721718
 20
723.349304
 10
76.295464
 20
723.317261
 10
75.939903
 20
723.284851
 10
75.656586
 20
723.252075
 10
75.446777
 20
723.219116
 10
75.311386
 20
723.185974
 10
75.250984
 20
723.15271
 10
75.2658
 20
723.119446
 10
75.355721
 20
723.086243
 10
75.520256
 20
723.053162
 10
75.758598
 20
723.020325
 10
76.069588
 20
722.987732
 10
76.451767
 20
722.955566
 10
76.903343
 20
722.923767
 10
77.422272
 20
722.892517
 10
78.006218
 20
722.861816
 10
78.673714
 20
722.830811
  0
LWPOLYLINE
  5
A3
330
7B
100
AcDbEntity
  8
0
  6
Continuous
 62
     0
370
     0
100
AcDbPolyline
 90
       71
 70
     0
 43
0.0
 10
168.57193
 20
722.837158
 10
169.228271
 20
722.868469
 10
169.816803
 20
722.900391
 10
170.334824
 20
722.932861
 10
170.779968
 20
722.96582
 10
171.150146
 20
722.999207
 10
171.443665
 20
723.032959
 10
171.659103
 20
723.066956
 10
171.795502
 20
723.101135
 10
171.852219
 20
723.135437
 10
171.829041
 20
723.169739
 10
171.726151
 20
723.203918
 10
171.544098
 20
723.237976
 10
171.283859
 20
723.27179
 10
170.946762
 20
723.305237
 10
170.534485
 20
723.338318
 10
170.049057
 20
723.370911
 10
169.492813
 20
723.402954
 10
168.868393
 20
723.434387
 10
168.178665
 20
723.465149
 10
167.426727
 20
723.495178
 10
166.615906
 20
723.524414
 10
165.749664
 20
723.552856
 10
164.831573
 20
723.580383
 10
163.865311
 20
723.606995
 10
162.854645
 20
723.63269
 10
161.803314
 20
723.65741
 10
160.715118
 20
723.681152
 10
159.593796
 20
723.703857
 10
158.443039
 20
723.725586
 10
157.257263
 20
723.74646
 10
156.014236
 20
723.766846
 10
154.712997
 20
723.786743
 10
153.354111
 20
723.80603
 10
151.938416
 20
723.824707
 10
150.467041
 20
723.842651
 10
148.941437
 20
723.859802
 10
147.363373
 20
723.876099
 10
145.73494
 20
723.891479
 10
144.058548
 20
723.905884
 10
142.336929
 20
723.91925
 10
140.57312
 20
723.93158
 10
138.770477
 20
723.942688
 10
136.932602
 20
723.952637
 10
135.063385
 20
723.961365
 10
133.166962
 20
723.96875
 10
131.247665
 20
723.974854
 10
129.310013
 20
723.979614
 10
127.358673
 20
723.983032
 10
125.398399
 20
723.985046
 10
123.434044
 20
723.985657
 10
121.470474
 20
723.984863
 10
119.51255
 20
723.982727
 10
117.565079
 20
723.979126
 10
115.63279
 20
723.974243
 10
113.720276
 20
723.968018
 10
111.83197
 20
723.960449
 10
109.972115
 20
723.95166
 10
108.144722
 20
723.94165
 10
106.353561
 20
723.93042
 10
104.602119
 20
723.918091
 10
102.8936
 20
723.904663
 10
101.230911
 20
723.890259
 10
99.616638
 20
723.874878
 10
98.05304
 20
723.858643
 10
96.542068
 20
723.841553
 10
95.08535
 20
723.82373
 10
93.684204
 20
723.805176
 10
92.33963
 20
723.786011
 10
91.052361
 20
723.766296
 10
89.822136
 20
723.746094
  0
LWPOLYLINE
  5
A4
330
7B
100
AcDbEntity
  8
0
  6
Continuous
 62
     0
370
    30
100
AcDbPolyline
 90
       66
 70
     0
 43
0.0
 10
90.592484
 20
723.7323
 10
91.911209
 20
723.753906
 10
93.28968
 20
723.774841
 10
94.726265
 20
723.794922
 10
96.218971
 20
723.814209
 10
97.765472
 20
723.832581
 10
99.363113
 20
723.850037
 10
101.008911
 20
723.866394
 10
102.699577
 20
723.881653
 10
104.431534
 20
723.895813
 10
106.200935
 20
723.908752
 10
108.003693
 20
723.92041
 10
109.835503
 20
723.930847
 10
111.691902
 20
723.940002
 10
113.568275
 20
723.947754
 10
115.459915
 20
723.954224
 10
117.362038
 20
723.95929
 10
119.269844
 20
723.963013
 10
121.178558
 20
723.965332
 10
123.08345
 20
723.96637
 10
124.979904
 20
723.966003
 10
126.863403
 20
723.964355
 10
128.72963
 20
723.961426
 10
130.574417
 20
723.957214
 10
132.39386
 20
723.951782
 10
134.18428
 20
723.94519
 10
135.94223
 20
723.9375
 10
137.67514
 20
723.92865
 10
139.403046
 20
723.918518
 10
141.122604
 20
723.907166
 10
142.829407
 20
723.894531
 10
144.519012
 20
723.880676
 10
146.186905
 20
723.865479
 10
147.828552
 20
723.84906
 10
149.439453
 20
723.831421
 10
151.015152
 20
723.812561
 10
152.551285
 20
723.792542
 10
154.043655
 20
723.771423
 10
155.48819
 20
723.749207
 10
156.881073
 20
723.725891
 10
158.218689
 20
723.70166
 10
159.497711
 20
723.676453
 10
160.715134
 20
723.650452
 10
161.86824
 20
723.623657
 10
162.954681
 20
723.59613
 10
163.972443
 20
723.567932
 10
164.919922
 20
723.539246
 10
165.795822
 20
723.510071
 10
166.599289
 20
723.480469
 10
167.329803
 20
723.4505
 10
167.987228
 20
723.420349
 10
168.571732
 20
723.390015
 10
169.083893
 20
723.359619
 10
169.525803
 20
723.329102
 10
169.903198
 20
723.298035
 10
170.214294
 20
723.266479
 10
170.456604
 20
723.234436
 10
170.627823
 20
723.202026
 10
170.725983
 20
723.169312
 10
170.749374
 20
723.136353
 10
170.69664
 20
723.10321
 10
170.566772
 20
723.069946
 10
170.3591
 20
723.036743
 10
170.073364
 20
723.00354
 10
169.709702
 20
722.970581
 10
169.262421
 20
722.937378
  0
LWPOLYLINE
  5
A5
330
7B
100
AcDbEntity
  8
0
  6
Continuous
 62
     0
370
    30
100
AcDbPolyline
 90
       28
 70
     0
 43
0.0
 10
78.0242
 20
722.925232
 10
77.558105
 20
722.95752
 10
77.16539
 20
722.990234
 10
76.84803
 20
723.023376
 10
76.607658
 20
723.056763
 10
76.445518
 20
723.090454
 10
76.362503
 20
723.124268
 10
76.359077
 20
723.158081
 10
76.435333
 20
723.191895
 10
76.590942
 20
723.225647
 10
76.825172
 20
723.259155
 10
77.136917
 20
723.292358
 10
77.524681
 20
723.325195
 10
77.986626
 20
723.357605
 10
78.520546
 20
723.389526
 10
79.123962
 20
723.420837
 10
79.79409
 20
723.451477
 10
80.527901
 20
723.481445
 10
81.322144
 20
723.51062
 10
82.173393
 20
723.539001
 10
83.078072
 20
723.566467
 10
84.032478
 20
723.593079
 10
85.032852
 20
723.618713
 10
86.075363
 20
723.643433
 10
87.156181
 20
723.667175
 10
88.271484
 20
723.68988
 10
89.41748
 20
723.711609
 10
90.592484
 20
723.7323
  0
LWPOLYLINE
  5
A6
330
7B
100
AcDbEntity
  8
0
  6
Continuous
 62
     0
370
     0
100
AcDbPolyline
 90
       62
 70
     0
 43
0.0
 10
90.0821
 20
735.609436
 10
91.2967
 20
735.629395
 10
92.568108
 20
735.648865
 10
93.895874
 20
735.667847
 10
95.279312
 20
735.686157
 10
96.717438
 20
735.703796
 10
98.208961
 20
735.720642
 10
99.752304
 20
735.736755
 10
101.345566
 20
735.751953
 10
102.986526
 20
735.766235
 10
104.672684
 20
735.779541
 10
106.401192
 20
735.791748
 10
108.16893
 20
735.802917
 10
109.972504
 20
735.812866
 10
111.808228
 20
735.821655
 10
113.67218
 20
735.829224
 10
115.560234
 20
735.835449
 10
117.468048
 20
735.840393
 10
119.391136
 20
735.843994
 10
121.324883
 20
735.846252
 10
123.264572
 20
735.847168
 10
125.20546
 20
735.84668
 10
127.142761
 20
735.844788
 10
129.071747
 20
735.841614
 10
130.987717
 20
735.837036
 10
132.886108
 20
735.831116
 10
134.762466
 20
735.823975
 10
136.612549
 20
735.815491
 10
138.432266
 20
735.805786
 10
140.217789
 20
735.794922
 10
141.96553
 20
735.782959
 10
143.672195
 20
735.769897
 10
145.334747
 20
735.755737
 10
146.95047
 20
735.740662
 10
148.516983
 20
735.724731
 10
150.032166
 20
735.707886
 10
151.494247
 20
735.690308
 10
152.901764
 20
735.671936
 10
154.253555
 20
735.653015
 10
155.548752
 20
735.633423
 10
156.786774
 20
735.613403
 10
157.967438
 20
735.592834
 10
159.109238
 20
735.571533
 10
160.222748
 20
735.549255
 10
161.304352
 20
735.526001
 10
162.350403
 20
735.50177
 10
163.357178
 20
735.476562
 10
164.321014
 20
735.4505
 10
165.238205
 20
735.423462
 10
166.105164
 20
735.395569
 10
166.918335
 20
735.366882
 10
167.674301
 20
735.337341
 10
168.369797
 20
735.307129
 10
169.001724
 20
735.276245
 10
169.567215
 20
735.24469
 10
170.063614
 20
735.212585
 10
170.488586
 20
735.180054
 10
170.840073
 20
735.147034
 10
171.116318
 20
735.113708
 10
171.315933
 20
735.080139
 10
171.437897
 20
735.046387
 10
171.481613
 20
735.012024
  0
LWPOLYLINE
  5
A7
330
7B
100
AcDbEntity
  8
0
  6
Continuous
 62
     0
370
     0
100
AcDbPolyline
 90
       22
 70
     0
 43
0.0
 10
75.619888
 20
735.012024
 10
75.661278
 20
735.04541
 10
75.778854
 20
735.078735
 10
75.972115
 20
735.111877
 10
76.240196
 20
735.144775
 10
76.581902
 20
735.177368
 10
76.995682
 20
735.209595
 10
77.479683
 20
735.241394
 10
78.031746
 20
735.272644
 10
78.64946
 20
735.303284
 10
79.330154
 20
735.333313
 10
80.070946
 20
735.362671
 10
80.868759
 20
735.391235
 10
81.720367
 20
735.419006
 10
82.622421
 20
735.445984
 10
83.571457
 20
735.472046
 10
84.563965
 20
735.497253
 10
85.59639
 20
735.521484
 10
86.665146
 20
735.5448
 10
87.766701
 20
735.567139
 10
88.897522
 20
735.588562
 10
90.0821
 20
735.609436
  0
LWPOLYLINE
  5
A8
330
7B
100
AcDbEntity
  8
0
  6
Continuous
 62
     0
370
     0
100
AcDbPolyline
 90
       62
 70
     0
 43
0.0
 10
89.335602
 20
724.52179
 10
90.57753
 20
724.542175
 10
91.877548
 20
724.562134
 10
93.235214
 20
724.581482
 10
94.649811
 20
724.60022
 10
96.120331
 20
724.618225
 10
97.645462
 20
724.635498
 10
99.223579
 20
724.651917
 10
100.852745
 20
724.66748
 10
102.530701
 20
724.682129
 10
104.25486
 20
724.695679
 10
106.022331
 20
724.708191
 10
107.829918
 20
724.719604
 10
109.674141
 20
724.729797
 10
111.551231
 20
724.73877
 10
113.457184
 20
724.74646
 10
115.387772
 20
724.752808
 10
117.338554
 20
724.757874
 10
119.304947
 20
724.761597
 10
121.282219
 20
724.763855
 10
123.265556
 20
724.764771
 10
125.250092
 20
724.764282
 10
127.230949
 20
724.76239
 10
129.203278
 20
724.759094
 10
131.162277
 20
724.754395
 10
133.103271
 20
724.748352
 10
135.021729
 20
724.741028
 10
136.913284
 20
724.732361
 10
138.773758
 20
724.722473
 10
140.599258
 20
724.711365
 10
142.386093
 20
724.699097
 10
144.13089
 20
724.68573
 10
145.830566
 20
724.671265
 10
147.482361
 20
724.655884
 10
149.083771
 20
724.639526
 10
150.632706
 20
724.622314
 10
152.127319
 20
724.604309
 10
153.566116
 20
724.585571
 10
154.947906
 20
724.566162
 10
156.27182
 20
724.546143
 10
157.537262
 20
724.525635
 10
158.744064
 20
724.504639
 10
159.911346
 20
724.482849
 10
161.049652
 20
724.460083
 10
162.155304
 20
724.436279
 10
163.224564
 20
724.411499
 10
164.253632
 20
724.385742
 10
165.238754
 20
724.359009
 10
166.176147
 20
724.331421
 10
167.062134
 20
724.302856
 10
167.893066
 20
724.273499
 10
168.665482
 20
724.243347
 10
169.376007
 20
724.212402
 10
170.0215
 20
724.180786
 10
170.599014
 20
724.14856
 10
171.105865
 20
724.115723
 10
171.539627
 20
724.082458
 10
171.898224
 20
724.048706
 10
172.17984
 20
724.014648
 10
172.383102
 20
723.980286
 10
172.506927
 20
723.94574
 10
172.55069
 20
723.911011
  0
LWPOLYLINE
  5
A9
330
7B
100
AcDbEntity
  8
0
  6
Continuous
 62
     0
370
     0
100
AcDbPolyline
 90
       22
 70
     0
 43
0.0
 10
74.550819
 20
723.911011
 10
74.593178
 20
723.94519
 10
74.713509
 20
723.979248
 10
74.911301
 20
724.013123
 10
75.185669
 20
724.046814
 10
75.535378
 20
724.0802
 10
75.958847
 20
724.113159
 10
76.45417
 20
724.14563
 10
77.019157
 20
724.177612
 10
77.651321
 20
724.208984
 10
78.347923
 20
724.239685
 10
79.106018
 20
724.269653
 10
79.922447
 20
724.298889
 10
80.793915
 20
724.327332
 10
81.71698
 20
724.354858
 10
82.68811
 20
724.381531
 10
83.703697
 20
724.407288
 10
84.760094
 20
724.432129
 10
85.853661
 20
724.455933
 10
86.980743
 20
724.478821
 10
88.137741
 20
724.500671
 10
89.335602
 20
724.52179
  0
LINE
  5
AA
330
7B
100
AcDbEntity
  8
0
  6
Continuous
 62
     0
370
    30
100
AcDbLine
 10
170.343537
 20
723.235521
 30
0.0
 11
170.398625
 21
723.24306
 31
0.0
  0
LINE
  5
AB
330
7B
100
AcDbEntity
  8
0
  6
Continuous
 62
     0
370
    30
100
AcDbLine
 10
76.702878
 20
723.243058
 30
0.0
 11
76.857957
 21
723.223053
 31
0.0
  0
LINE
  5
AC
330
7B
100
AcDbEntity
  8
0
  6
Continuous
 62
     0
370
     0
100
AcDbLine
 10
87.835217
 20
723.671216
 30
0.0
 11
87.835217
 21
723.681189
 31
0.0
  0
LINE
  5
AD
330
7B
100
AcDbEntity
  8
0
  6
Continuous
 62
     0
370
    30
100
AcDbLine
 10
76.857957
 20
723.1452
 30
0.0
 11
76.857957
 21
723.263063
 31
0.0
  0
LINE
  5
AE
330
7B
100
AcDbEntity
  8
0
  6
Continuous
 62
     0
370
    30
100
AcDbLine
 10
170.343537
 20
723.146287
 30
0.0
 11
170.343537
 21
723.2506
 31
0.0
  0
LWPOLYLINE
  5
AF
330
7B
100
AcDbEntity
  8
0
  6
Continuous
 62
     0
370
    30
100
AcDbPolyline
 90
       50
 70
     0
 43
0.0
 10
78.681412
 20
722.829651
 10
78.539841
 20
722.835938
 10
78.401062
 20
722.842163
 10
78.265083
 20
722.84845
 10
78.131905
 20
722.854736
 10
78.001541
 20
722.861084
 10
77.874001
 20
722.867432
 10
77.749283
 20
722.873779
 10
77.627396
 20
722.880188
 10
77.508347
 20
722.886597
 10
77.392136
 20
722.893005
 10
77.278778
 20
722.899414
 10
77.168259
 20
722.905884
 10
77.060577
 20
722.912415
 10
76.955734
 20
722.918884
 10
76.853737
 20
722.925415
 10
76.75457
 20
722.932007
 10
76.658241
 20
722.938538
 10
76.564743
 20
722.945129
 10
76.474075
 20
722.951782
 10
76.386238
 20
722.958435
 10
76.301231
 20
722.965088
 10
76.219048
 20
722.971802
 10
76.139671
 20
722.978516
 10
76.063072
 20
722.985291
 10
75.989227
 20
722.992126
 10
75.918106
 20
722.998962
 10
75.849678
 20
723.005859
 10
75.783913
 20
723.012817
 10
75.720779
 20
723.019897
 10
75.660233
 20
723.026978
 10
75.602188
 20
723.03418
 10
75.546608
 20
723.041504
 10
75.493362
 20
723.04895
 10
75.442253
 20
723.056641
 10
75.393066
 20
723.064575
 10
75.345589
 20
723.072815
 10
75.299591
 20
723.081543
 10
75.254707
 20
723.09082
 10
75.210396
 20
723.100891
 10
75.165573
 20
723.112366
 10
75.118988
 20
723.125854
 10
75.069336
 20
723.14209
 10
75.01371
 20
723.163757
 10
74.947891
 20
723.19519
 10
74.86734
 20
723.243713
 10
74.767906
 20
723.324951
 10
74.657516
 20
723.461243
 10
74.570152
 20
723.664124
 10
74.550819
 20
723.911011
  0
LWPOLYLINE
  5
B0
330
7B
100
AcDbEntity
  8
0
  6
Continuous
 62
     0
370
    30
100
AcDbPolyline
 90
       49
 70
     0
 43
0.0
 10
172.55069
 20
723.911011
 10
172.532104
 20
723.667603
 10
172.445572
 20
723.463745
 10
172.335327
 20
723.326599
 10
172.23555
 20
723.244629
 10
172.154678
 20
723.195801
 10
172.088913
 20
723.164429
 10
172.033096
 20
723.142578
 10
171.983109
 20
723.125916
 10
171.936707
 20
723.112488
 10
171.891953
 20
723.101135
 10
171.847443
 20
723.091003
 10
171.802536
 20
723.081665
 10
171.756668
 20
723.072998
 10
171.70929
 20
723.064697
 10
171.660049
 20
723.056763
 10
171.608795
 20
723.049011
 10
171.55545
 20
723.041504
 10
171.499878
 20
723.03418
 10
171.441956
 20
723.026978
 10
171.381592
 20
723.019958
 10
171.318665
 20
723.012939
 10
171.253067
 20
723.006042
 10
171.184753
 20
722.999146
 10
171.113693
 20
722.992249
 10
171.039886
 20
722.985474
 10
170.963318
 20
722.978699
 10
170.883957
 20
722.971924
 10
170.801804
 20
722.96521
 10
170.716843
 20
722.958557
 10
170.629059
 20
722.951904
 10
170.538452
 20
722.945251
 10
170.445007
 20
722.93866
 10
170.34874
 20
722.932068
 10
170.249634
 20
722.925537
 10
170.147705
 20
722.919006
 10
170.042923
 20
722.912476
 10
169.935318
 20
722.906006
 10
169.824875
 20
722.899536
 10
169.711594
 20
722.893127
 10
169.595459
 20
722.886719
 10
169.476486
 20
722.88031
 10
169.354675
 20
722.873901
 10
169.230026
 20
722.867554
 10
169.102554
 20
722.861206
 10
168.972275
 20
722.854858
 10
168.839172
 20
722.848572
 10
168.703262
 20
722.842285
 10
168.563797
 20
722.835999
  0
LINE
  5
B1
330
7B
100
AcDbEntity
  8
0
  6
Continuous
 62
     0
370
    30
100
AcDbLine
 10
171.481614
 20
735.01203
 30
0.0
 11
172.550682
 21
723.911037
 31
0.0
  0
LINE
  5
B2
330
7B
100
AcDbEntity
  8
0
  6
Continuous
 62
     0
370
    30
100
AcDbLine
 10
74.550821
 20
723.911034
 30
0.0
 11
75.619889
 21
735.012027
 31
0.0
  0
LWPOLYLINE
  5
B3
330
7B
100
AcDbEntity
  8
0
  6
Continuous
 62
     0
370
    30
100
AcDbPolyline
 90
       85
 70
     0
 43
0.0
 10
90.929634
 20
736.723938
 10
91.880035
 20
736.739685
 10
92.855492
 20
736.754944
 10
93.855125
 20
736.769714
 10
94.878059
 20
736.783997
 10
95.923439
 20
736.797791
 10
96.990417
 20
736.811035
 10
98.078178
 20
736.82373
 10
99.185875
 20
736.835938
 10
100.312683
 20
736.847595
 10
101.457764
 20
736.858704
 10
102.620216
 20
736.869202
 10
103.799118
 20
736.87915
 10
104.993523
 20
736.88855
 10
106.202507
 20
736.897339
 10
107.425102
 20
736.905518
 10
108.660339
 20
736.913086
 10
109.907242
 20
736.920105
 10
111.164848
 20
736.926453
 10
112.43219
 20
736.93219
 10
113.708267
 20
736.937317
 10
114.992081
 20
736.941833
 10
116.282616
 20
736.94574
 10
117.578857
 20
736.948975
 10
118.879784
 20
736.951538
 10
120.184387
 20
736.953552
 10
121.491631
 20
736.954834
 10
122.800484
 20
736.955566
 10
124.109924
 20
736.955566
 10
125.418915
 20
736.955017
 10
126.726425
 20
736.953735
 10
128.031448
 20
736.951904
 10
129.332962
 20
736.949341
 10
130.629944
 20
736.946228
 10
131.921387
 20
736.942444
 10
133.206253
 20
736.938049
 10
134.483551
 20
736.932983
 10
135.752243
 20
736.927368
 10
137.011337
 20
736.921082
 10
138.259872
 20
736.914185
 10
139.496872
 20
736.906677
 10
140.721359
 20
736.89856
 10
141.932358
 20
736.889893
 10
143.128937
 20
736.880554
 10
144.310135
 20
736.870728
 10
145.475021
 20
736.860291
 10
146.622726
 20
736.849243
 10
147.752335
 20
736.837708
 10
148.862961
 20
736.825562
 10
149.95372
 20
736.812927
 10
151.023773
 20
736.799744
 10
152.07225
 20
736.786011
 10
153.098358
 20
736.771851
 10
154.101288
 20
736.757141
 10
155.080307
 20
736.741943
 10
156.034622
 20
736.726257
 10
156.96347
 20
736.710144
 10
157.866135
 20
736.693542
 10
158.741913
 20
736.676514
 10
159.590103
 20
736.659058
 10
160.410095
 20
736.641235
 10
161.201263
 20
736.622986
 10
161.963043
 20
736.60437
 10
162.694794
 20
736.585327
 10
163.395981
 20
736.565979
 10
164.066055
 20
736.546265
 10
164.704559
 20
736.526245
 10
165.31102
 20
736.50592
 10
165.88504
 20
736.485229
 10
166.42627
 20
736.464294
 10
166.934357
 20
736.443054
 10
167.408997
 20
736.42157
 10
167.849976
 20
736.39978
 10
168.257202
 20
736.377686
 10
168.630707
 20
736.355286
 10
168.970581
 20
736.332581
 10
169.27713
 20
736.309509
 10
169.551575
 20
736.285828
 10
169.795364
 20
736.26123
 10
170.011551
 20
736.235107
 10
170.206451
 20
736.205811
 10
170.396973
 20
736.167603
 10
170.628357
 20
736.098328
 10
171.042114
 20
735.855713
 10
171.481613
 20
735.012024
  0
LWPOLYLINE
  5
B4
330
7B
100
AcDbEntity
  8
0
  6
Continuous
 62
     0
370
    30
100
AcDbPolyline
 90
       92
 70
     0
 43
0.0
 10
75.619888
 20
735.012024
 10
75.698288
 20
735.344543
 10
75.848587
 20
735.624817
 10
76.029083
 20
735.828918
 10
76.197182
 20
735.959167
 10
76.334152
 20
736.037659
 10
76.442757
 20
736.086487
 10
76.531097
 20
736.118835
 10
76.606689
 20
736.142212
 10
76.674263
 20
736.160339
 10
76.737007
 20
736.175049
 10
76.797638
 20
736.187805
 10
76.857368
 20
736.199158
 10
76.917091
 20
736.209473
 10
76.977699
 20
736.219055
 10
77.039917
 20
736.22821
 10
77.104095
 20
736.237
 10
77.170517
 20
736.245483
 10
77.239365
 20
736.253723
 10
77.310822
 20
736.26178
 10
77.385056
 20
736.269653
 10
77.462242
 20
736.277405
 10
77.542465
 20
736.285095
 10
77.625778
 20
736.292725
 10
77.712242
 20
736.300232
 10
77.801903
 20
736.307678
 10
77.894814
 20
736.315063
 10
77.991028
 20
736.322449
 10
78.090576
 20
736.329712
 10
78.193466
 20
736.336975
 10
78.299713
 20
736.344238
 10
78.409317
 20
736.351379
 10
78.522278
 20
736.358582
 10
78.638603
 20
736.365662
 10
78.758301
 20
736.372742
 10
78.881371
 20
736.379822
 10
79.007828
 20
736.386841
 10
79.137672
 20
736.393799
 10
79.270912
 20
736.400757
 10
79.407547
 20
736.407715
 10
79.547585
 20
736.414612
 10
79.691025
 20
736.421448
 10
79.837868
 20
736.428345
 10
79.988098
 20
736.435181
 10
80.141708
 20
736.441956
 10
80.298676
 20
736.44873
 10
80.458992
 20
736.455444
 10
80.622658
 20
736.462158
 10
80.789658
 20
736.468872
 10
80.959976
 20
736.475525
 10
81.133621
 20
736.482117
 10
81.31057
 20
736.488708
 10
81.490814
 20
736.4953
 10
81.674339
 20
736.501831
 10
81.861145
 20
736.508362
 10
82.051201
 20
736.514832
 10
82.244514
 20
736.52124
 10
82.441055
 20
736.527649
 10
82.640816
 20
736.534058
 10
82.843773
 20
736.540405
 10
83.049927
 20
736.546753
 10
83.259247
 20
736.552979
 10
83.471725
 20
736.559265
 10
83.68734
 20
736.565491
 10
83.90609
 20
736.571655
 10
84.127945
 20
736.57782
 10
84.352898
 20
736.583923
 10
84.580925
 20
736.589966
 10
84.812019
 20
736.596008
 10
85.046158
 20
736.60199
 10
85.283325
 20
736.607971
 10
85.523499
 20
736.613892
 10
85.766663
 20
736.619812
 10
86.012794
 20
736.625671
 10
86.261879
 20
736.63147
 10
86.513901
 20
736.637207
 10
86.768829
 20
736.642944
 10
87.026657
 20
736.648682
 10
87.287361
 20
736.654297
 10
87.550911
 20
736.659912
 10
87.817299
 20
736.665466
 10
88.086502
 20
736.671021
 10
88.35849
 20
736.676514
 10
88.633255
 20
736.681946
 10
88.910767
 20
736.687317
 10
89.191017
 20
736.692688
 10
89.473976
 20
736.697998
 10
89.759621
 20
736.703308
 10
90.04792
 20
736.708496
 10
90.33886
 20
736.713684
 10
90.632408
 20
736.718811
 10
90.929634
 20
736.723938
  0
LWPOLYLINE
  5
B5
330
7B
100
AcDbEntity
  8
0
  6
Continuous
 62
     0
370
    30
100
AcDbPolyline
 90
       21
 70
     0
 43
0.0
 10
77.175453
 20
723.05072
 10
81.776962
 20
722.398682
 10
86.387611
 20
721.814697
 10
91.006378
 20
721.298889
 10
95.632263
 20
720.851379
 10
100.264252
 20
720.47229
 10
104.901337
 20
720.161682
 10
109.542511
 20
719.919617
 10
114.186752
 20
719.746216
 10
118.833054
 20
719.641418
 10
123.480392
 20
719.605286
 10
128.127762
 20
719.637878
 10
132.774139
 20
719.739075
 10
137.418503
 20
719.908936
 10
142.05986
 20
720.147461
 10
146.697189
 20
720.454468
 10
151.329468
 20
720.830078
 10
155.955704
 20
721.274048
 10
160.57486
 20
721.786316
 10
165.185959
 20
722.366699
 10
170.027039
 20
723.050842
  0
LINE
  5
B6
330
7B
100
AcDbEntity
  8
0
  6
Continuous
 62
     0
370
    30
100
AcDbLine
 10
93.334014
 20
923.374406
 30
0.0
 11
76.957261
 21
736.215929
 31
0.0
  0
LINE
  5
B7
330
7B
100
AcDbEntity
  8
0
  6
Continuous
 62
     0
370
    30
100
AcDbLine
 10
170.144235
 20
736.216011
 30
0.0
 11
153.767478
 21
923.374407
 31
0.0
  0
LWPOLYLINE
  5
B8
330
7B
100
AcDbEntity
  8
0
  6
Continuous
 62
     0
370
    30
100
AcDbPolyline
 90
      180
 70
     0
 43
0.0
 10
93.334015
 20
923.37439
 10
93.419472
 20
923.868408
 10
93.58503
 20
924.34082
 10
93.82489
 20
924.776733
 10
94.129753
 20
925.163208
 10
94.483398
 20
925.48761
 10
94.859756
 20
925.738403
 10
95.211792
 20
925.909302
 10
95.49733
 20
926.010315
 10
95.713615
 20
926.068176
 10
95.881187
 20
926.103394
 10
96.021004
 20
926.127563
 10
96.146255
 20
926.145935
 10
96.265091
 20
926.160889
 10
96.382729
 20
926.174011
 10
96.501732
 20
926.185852
 10
96.624001
 20
926.196777
 10
96.751343
 20
926.207092
 10
96.88472
 20
926.217041
 10
97.024727
 20
926.226685
 10
97.171867
 20
926.236084
 10
97.326393
 20
926.2453
 10
97.488441
 20
926.254333
 10
97.658188
 20
926.263184
 10
97.835777
 20
926.271912
 10
98.02137
 20
926.280518
 10
98.215126
 20
926.289001
 10
98.41713
 20
926.297424
 10
98.627365
 20
926.305725
 10
98.845787
 20
926.313965
 10
99.072357
 20
926.322144
 10
99.30703
 20
926.330139
 10
99.549767
 20
926.338135
 10
99.800499
 20
926.345947
 10
100.059166
 20
926.353699
 10
100.325714
 20
926.361389
 10
100.600075
 20
926.368958
 10
100.882202
 20
926.376404
 10
101.17202
 20
926.383789
 10
101.469467
 20
926.391052
 10
101.77446
 20
926.398193
 10
102.086884
 20
926.405273
 10
102.406647
 20
926.412231
 10
102.733635
 20
926.419067
 10
103.067757
 20
926.425842
 10
103.408897
 20
926.432434
 10
103.75695
 20
926.438965
 10
104.111786
 20
926.445374
 10
104.473282
 20
926.45166
 10
104.841324
 20
926.457825
 10
105.215782
 20
926.463867
 10
105.596535
 20
926.469788
 10
105.983459
 20
926.475525
 10
106.376442
 20
926.481201
 10
106.775352
 20
926.486755
 10
107.180061
 20
926.492126
 10
107.590416
 20
926.497375
 10
108.006279
 20
926.502563
 10
108.427498
 20
926.507507
 10
108.853943
 20
926.51239
 10
109.285446
 20
926.51709
 10
109.721878
 20
926.521667
 10
110.163094
 20
926.526123
 10
110.608932
 20
926.530396
 10
111.05925
 20
926.534546
 10
111.513878
 20
926.538513
 10
111.972664
 20
926.542358
 10
112.435455
 20
926.546082
 10
112.902092
 20
926.549622
 10
113.372414
 20
926.552979
 10
113.846268
 20
926.556213
 10
114.323479
 20
926.559326
 10
114.803879
 20
926.562256
 10
115.287315
 20
926.565002
 10
115.773605
 20
926.567627
 10
116.262589
 20
926.570068
 10
116.754097
 20
926.572388
 10
117.247971
 20
926.574463
 10
117.744019
 20
926.576477
 10
118.242081
 20
926.578247
 10
118.741974
 20
926.579895
 10
119.24353
 20
926.581421
 10
119.746574
 20
926.582703
 10
120.250931
 20
926.583862
 10
120.756424
 20
926.584839
 10
121.262886
 20
926.585693
 10
121.770142
 20
926.586365
 10
122.278015
 20
926.586853
 10
122.786324
 20
926.587158
 10
123.294907
 20
926.587341
 10
123.803589
 20
926.587341
 10
124.312172
 20
926.587158
 10
124.820503
 20
926.586853
 10
125.328392
 20
926.586365
 10
125.83567
 20
926.585693
 10
126.342148
 20
926.5849
 10
126.847664
 20
926.583862
 10
127.352028
 20
926.582703
 10
127.855072
 20
926.581421
 10
128.356613
 20
926.579956
 10
128.856491
 20
926.578308
 10
129.354523
 20
926.576477
 10
129.850555
 20
926.574524
 10
130.344406
 20
926.572388
 10
130.835922
 20
926.570068
 10
131.324921
 20
926.567627
 10
131.811234
 20
926.565002
 10
132.294693
 20
926.562256
 10
132.775131
 20
926.559326
 10
133.25238
 20
926.556274
 10
133.726288
 20
926.55304
 10
134.196655
 20
926.549622
 10
134.66333
 20
926.546082
 10
135.126144
 20
926.542419
 10
135.584976
 20
926.538574
 10
136.039627
 20
926.534546
 10
136.48996
 20
926.530396
 10
136.935837
 20
926.526123
 10
137.377075
 20
926.521729
 10
137.813538
 20
926.517151
 10
138.245071
 20
926.51239
 10
138.671509
 20
926.507568
 10
139.092743
 20
926.502563
 10
139.508621
 20
926.497437
 10
139.918991
 20
926.492188
 10
140.323746
 20
926.486755
 10
140.722717
 20
926.481262
 10
141.115768
 20
926.475586
 10
141.502777
 20
926.469788
 10
141.883591
 20
926.463867
 10
142.258118
 20
926.457825
 10
142.626205
 20
926.451721
 10
142.987732
 20
926.445435
 10
143.342575
 20
926.439026
 10
143.690613
 20
926.432495
 10
144.031754
 20
926.425903
 10
144.36586
 20
926.419128
 10
144.692871
 20
926.412292
 10
145.012665
 20
926.405334
 10
145.32515
 20
926.398254
 10
145.630219
 20
926.391113
 10
145.927765
 20
926.38385
 10
146.217682
 20
926.376465
 10
146.499893
 20
926.369019
 10
146.774323
 20
926.36145
 10
147.040924
 20
926.35376
 10
147.299637
 20
926.346008
 10
147.5504
 20
926.338135
 10
147.793137
 20
926.3302
 10
148.027817
 20
926.322144
 10
148.254349
 20
926.314026
 10
148.472717
 20
926.305847
 10
148.682938
 20
926.297485
 10
148.88504
 20
926.289062
 10
149.079041
 20
926.280579
 10
149.264954
 20
926.271912
 10
149.44278
 20
926.263184
 10
149.612625
 20
926.254333
 10
149.774643
 20
926.2453
 10
149.929001
 20
926.236145
 10
150.075958
 20
926.226746
 10
150.215912
 20
926.217102
 10
150.349304
 20
926.207153
 10
150.476776
 20
926.196838
 10
150.599411
 20
926.185852
 10
150.718369
 20
926.174072
 10
150.835526
 20
926.161072
 10
150.954529
 20
926.145996
 10
151.079605
 20
926.127808
 10
151.219391
 20
926.103577
 10
151.386902
 20
926.068359
 10
151.602768
 20
926.010742
 10
151.887558
 20
925.910095
 10
152.239838
 20
925.739746
 10
152.616013
 20
925.489136
 10
152.969803
 20
925.165161
 10
153.275101
 20
924.778992
 10
153.51535
 20
924.343323
 10
153.68129
 20
923.871277
 10
153.767471
 20
923.37439
  0
ENDBLK
  5
BA
330
7B
100
AcDbEntity
  8
0
100
AcDbBlockEnd
  0
BLOCK
  5
106
330
BC
100
AcDbEntity
  8
0
100
AcDbBlockBegin
  2
b
 70
     0
 10
0.657455
 20
23.808395
 30
0.0
  3
b
  1

  0
LINE
  5
BD
330
BC
100
AcDbEntity
  8
0
  6
Continuous
 62
     0
370
    30
100
AcDbLine
 10
142.207923
 20
502.030514
 30
0.0
 11
142.205016
 21
501.974653
 31
0.0
  0
LINE
  5
BE
330
BC
100
AcDbEntity
  8
0
  6
Continuous
 62
     0
370
    30
100
AcDbLine
 10
104.895998
 20
501.974653
 30
0.0
 11
104.89309
 21
502.030514
 31
0.0
  0
LWPOLYLINE
  5
BF
330
BC
100
AcDbEntity
  8
0
  6
Continuous
 62
     0
370
     0
100
AcDbPolyline
 90
        6
 70
     0
 43
0.0
 10
106.388802
 20
502.030518
 10
106.224808
 20
501.954742
 10
106.087082
 20
501.852936
 10
105.982552
 20
501.730011
 10
105.916527
 20
501.592346
 10
105.893501
 20
501.402466
  0
LWPOLYLINE
  5
C0
330
BC
100
AcDbEntity
  8
0
  6
Continuous
 62
     0
370
     0
100
AcDbPolyline
 90
        7
 70
     0
 43
0.0
 10
105.893501
 20
501.402466
 10
105.649231
 20
501.411835
 10
105.419266
 20
501.459961
 10
105.216782
 20
501.544495
 10
105.056366
 20
501.660248
 10
104.948235
 20
501.798798
 10
104.895996
 20
501.97464
  0
LWPOLYLINE
  5
C1
330
BC
100
AcDbEntity
  8
0
  6
Continuous
 62
     0
370
     0
100
AcDbPolyline
 90
        7
 70
     0
 43
0.0
 10
141.207504
 20
501.402466
 10
141.451782
 20
501.411835
 10
141.681747
 20
501.459961
 10
141.884232
 20
501.544495
 10
142.044647
 20
501.660248
 10
142.152771
 20
501.798798
 10
142.205017
 20
501.97464
  0
LWPOLYLINE
  5
C2
330
BC
100
AcDbEntity
  8
0
  6
Continuous
 62
     0
370
     0
100
AcDbPolyline
 90
        6
 70
     0
 43
0.0
 10
140.712204
 20
502.030518
 10
140.876205
 20
501.954742
 10
141.013931
 20
501.852936
 10
141.118454
 20
501.730011
 10
141.184494
 20
501.592346
 10
141.207504
 20
501.402466
  0
LINE
  5
C3
330
BC
100
AcDbEntity
  8
0
  6
Continuous
 62
     0
370
     0
100
AcDbLine
 10
108.587928
 20
463.328844
 30
0.0
 11
105.893503
 21
501.402457
 31
0.0
  0
ARC
  5
C4
330
BC
100
AcDbEntity
  8
0
  6
Continuous
 62
     0
370
     0
100
AcDbCircle
 10
123.550718
 20
464.387956
 30
0.0
 40
15.00022743265306
100
AcDbArc
 50
184.048818
 51
269.999191
  0
ARC
  5
C5
330
BC
100
AcDbEntity
  8
0
  6
Continuous
 62
     0
370
     0
100
AcDbCircle
 10
123.550295
 20
464.387956
 30
0.0
 40
15.00022743265311
100
AcDbArc
 50
270.000809
 51
355.951182
  0
LINE
  5
C6
330
BC
100
AcDbEntity
  8
0
  6
Continuous
 62
     0
370
     0
100
AcDbLine
 10
141.20751
 20
501.402457
 30
0.0
 11
138.513085
 21
463.328844
 31
0.0
  0
LWPOLYLINE
  5
C7
330
BC
100
AcDbEntity
  8
0
  6
Continuous
 62
     0
370
     0
100
AcDbPolyline
 90
       31
 70
     0
 43
0.0
 10
117.050507
 20
491.421814
 10
117.080421
 20
490.944672
 10
117.174156
 20
490.4552
 10
117.336708
 20
489.960571
 10
117.571274
 20
489.468964
 10
117.87883
 20
488.989441
 10
118.257774
 20
488.531403
 10
118.703812
 20
488.103912
 10
119.210037
 20
487.715363
 10
119.767281
 20
487.372833
 10
120.364655
 20
487.081635
 10
120.990227
 20
486.845062
 10
121.63179
 20
486.664398
 10
122.277542
 20
486.53894
 10
122.916702
 20
486.466248
 10
123.539909
 20
486.442535
 10
124.162422
 20
486.464661
 10
124.80117
 20
486.535583
 10
125.446869
 20
486.659149
 10
126.088776
 20
486.837891
 10
126.715103
 20
487.07251
 10
127.313652
 20
487.361877
 10
127.872475
 20
487.702698
 10
128.38063
 20
488.089752
 10
128.828888
 20
488.516022
 10
129.210236
 20
488.973175
 10
129.520309
 20
489.452118
 10
129.757401
 20
489.943451
 10
129.922409
 20
490.438141
 10
130.018448
 20
490.927917
 10
130.050507
 20
491.421814
  0
LWPOLYLINE
  5
C8
330
BC
100
AcDbEntity
  8
0
  6
Continuous
 62
     0
370
     0
100
AcDbPolyline
 90
       31
 70
     0
 43
0.0
 10
130.050507
 20
491.421814
 10
130.020599
 20
491.898956
 10
129.926849
 20
492.388428
 10
129.764297
 20
492.883087
 10
129.529739
 20
493.374664
 10
129.222183
 20
493.854187
 10
128.843246
 20
494.312256
 10
128.397202
 20
494.739746
 10
127.890976
 20
495.128265
 10
127.333733
 20
495.470795
 10
126.736359
 20
495.762024
 10
126.110786
 20
495.998566
 10
125.469223
 20
496.17923
 10
124.823471
 20
496.304688
 10
124.184311
 20
496.37738
 10
123.561104
 20
496.401093
 10
122.938591
 20
496.378998
 10
122.299843
 20
496.308075
 10
121.654144
 20
496.184479
 10
121.012238
 20
496.005768
 10
120.38591
 20
495.771118
 10
119.787361
 20
495.48175
 10
119.228539
 20
495.14093
 10
118.720375
 20
494.753876
 10
118.272125
 20
494.327606
 10
117.89077
 20
493.870453
 10
117.580704
 20
493.391541
 10
117.343613
 20
492.900208
 10
117.178612
 20
492.405518
 10
117.082565
 20
491.915741
 10
117.050507
 20
491.421814
  0
LINE
  5
C9
330
BC
100
AcDbEntity
  8
0
  6
Continuous
 62
     0
370
    30
100
AcDbLine
 10
107.590423
 20
463.901039
 30
0.0
 11
104.895998
 21
501.974653
 31
0.0
  0
ARC
  5
CA
330
BC
100
AcDbEntity
  8
0
  6
Continuous
 62
     0
370
    30
100
AcDbCircle
 10
123.550579
 20
465.030594
 30
0.0
 40
16.00007759604509
100
AcDbArc
 50
184.048267
 51
269.999741
  0
ARC
  5
CB
330
BC
100
AcDbEntity
  8
0
  6
Continuous
 62
     0
370
    30
100
AcDbCircle
 10
123.550434
 20
465.030594
 30
0.0
 40
16.00007759604508
100
AcDbArc
 50
270.000259
 51
355.951733
  0
LINE
  5
CC
330
BC
100
AcDbEntity
  8
0
  6
Continuous
 62
     0
370
    30
100
AcDbLine
 10
142.205016
 20
501.974653
 30
0.0
 11
139.510591
 21
463.901039
 31
0.0
  0
ELLIPSE
  5
CD
330
BC
100
AcDbEntity
  8
0
  6
Continuous
 62
     0
370
     0
100
AcDbEllipse
 10
138.513085
 20
463.971632
 30
0.0
 11
-0.9975052532219582
 21
0.07059227857630697
 31
0.0
210
0.0
220
0.0
230
1.0
 40
0.641845
 41
1.616187756841665
 42
3.141592657613751
  0
LINE
  5
CE
330
BC
100
AcDbEntity
  8
0
  6
Continuous
 62
     0
370
     0
100
AcDbLine
 10
123.550507
 20
449.387729
 30
0.0
 11
123.550507
 21
449.030516
 31
0.0
  0
LWPOLYLINE
  5
CF
330
BC
100
AcDbEntity
  8
0
  6
Continuous
 62
     0
370
     0
100
AcDbPolyline
 90
        7
 70
     0
 43
0.0
 10
108.587929
 20
463.328857
 10
108.342529
 20
463.33844
 10
108.111603
 20
463.386902
 10
107.910378
 20
463.471344
 10
107.750816
 20
463.586487
 10
107.642601
 20
463.725525
 10
107.590424
 20
463.901031
  0
LINE
  5
D0
330
BC
100
AcDbEntity
  8
0
  6
Continuous
 62
     0
370
    30
100
AcDbLine
 10
98.550507
 20
504.030514
 30
0.0
 11
98.550507
 21
502.030514
 31
0.0
  0
LINE
  5
D1
330
BC
100
AcDbEntity
  8
0
  6
Continuous
 62
     0
370
    30
100
AcDbLine
 10
98.550507
 20
502.030514
 30
0.0
 11
99.050507
 21
502.030514
 31
0.0
  0
LINE
  5
D2
330
BC
100
AcDbEntity
  8
0
  6
Continuous
 62
     0
370
     0
100
AcDbLine
 10
99.050507
 20
502.030514
 30
0.0
 11
99.050507
 21
504.030514
 31
0.0
  0
LINE
  5
D3
330
BC
100
AcDbEntity
  8
0
  6
Continuous
 62
     0
370
    30
100
AcDbLine
 10
99.050507
 20
504.030514
 30
0.0
 11
98.550507
 21
504.030514
 31
0.0
  0
LINE
  5
D4
330
BC
100
AcDbEntity
  8
0
  6
Continuous
 62
     0
370
     0
100
AcDbLine
 10
148.050507
 20
504.030514
 30
0.0
 11
148.050507
 21
502.030514
 31
0.0
  0
LINE
  5
D5
330
BC
100
AcDbEntity
  8
0
  6
Continuous
 62
     0
370
    30
100
AcDbLine
 10
148.050507
 20
502.030514
 30
0.0
 11
148.550507
 21
502.030514
 31
0.0
  0
LINE
  5
D6
330
BC
100
AcDbEntity
  8
0
  6
Continuous
 62
     0
370
    30
100
AcDbLine
 10
148.550507
 20
502.030514
 30
0.0
 11
148.550507
 21
504.030514
 31
0.0
  0
LINE
  5
D7
330
BC
100
AcDbEntity
  8
0
  6
Continuous
 62
     0
370
    30
100
AcDbLine
 10
148.550507
 20
504.030514
 30
0.0
 11
148.050507
 21
504.030514
 31
0.0
  0
LINE
  5
D8
330
BC
100
AcDbEntity
  8
0
  6
Continuous
 62
     0
370
    30
100
AcDbLine
 10
148.050507
 20
504.030514
 30
0.0
 11
99.050507
 21
504.030514
 31
0.0
  0
LINE
  5
D9
330
BC
100
AcDbEntity
  8
0
  6
Continuous
 62
     0
370
    30
100
AcDbLine
 10
99.050507
 20
502.030514
 30
0.0
 11
148.050507
 21
502.030514
 31
0.0
  0
LINE
  5
DA
330
BC
100
AcDbEntity
  8
0
  6
Continuous
 62
     0
370
    30
100
AcDbLine
 10
133.550507
 20
452.540535
 30
0.0
 11
133.550507
 21
434.506952
 31
0.0
  0
LWPOLYLINE
  5
DB
330
BC
100
AcDbEntity
  8
0
  6
Continuous
 62
     0
370
     0
100
AcDbPolyline
 90
       37
 70
     0
 43
0.0
 10
113.550507
 20
434.506958
 10
113.582329
 20
434.520874
 10
113.681465
 20
434.535095
 10
113.852699
 20
434.54953
 10
114.099625
 20
434.563995
 10
114.424324
 20
434.578308
 10
114.827118
 20
434.592285
 10
115.306374
 20
434.605743
 10
115.858444
 20
434.618469
 10
116.477707
 20
434.630341
 10
117.156746
 20
434.641144
 10
117.88662
 20
434.650787
 10
118.657295
 20
434.659149
 10
119.458054
 20
434.666199
 10
120.277954
 20
434.671875
 10
121.106308
 20
434.676178
 10
121.933052
 20
434.679169
 10
122.749046
 20
434.680908
 10
123.546326
 20
434.681488
 10
124.343369
 20
434.680939
 10
125.15921
 20
434.679199
 10
125.985886
 20
434.676208
 10
126.81427
 20
434.671906
 10
127.634323
 20
434.66626
 10
128.435333
 20
434.659241
 10
129.20639
 20
434.650879
 10
129.936752
 20
434.641266
 10
130.616379
 20
434.630463
 10
131.236328
 20
434.618591
 10
131.789139
 20
434.605865
 10
132.269196
 20
434.592438
 10
132.672806
 20
434.578461
 10
132.998337
 20
434.564148
 10
133.246094
 20
434.549683
 10
133.418106
 20
434.535248
 10
133.51799
 20
434.521027
 10
133.550507
 20
434.506958
  0
LINE
  5
DC
330
BC
100
AcDbEntity
  8
0
  6
Continuous
 62
     0
370
    30
100
AcDbLine
 10
113.550507
 20
434.506952
 30
0.0
 11
113.550507
 21
157.117399
 31
0.0
  0
LWPOLYLINE
  5
DD
330
BC
100
AcDbEntity
  8
0
  6
Continuous
 62
     0
370
    30
100
AcDbPolyline
 90
       37
 70
     0
 43
0.0
 10
133.550507
 20
157.117401
 10
133.512421
 20
157.132584
 10
133.398666
 20
157.147675
 10
133.210052
 20
157.162537
 10
132.948135
 20
157.177048
 10
132.61499
 20
157.191101
 10
132.212738
 20
157.20459
 10
131.744553
 20
157.217422
 10
131.21431
 20
157.229507
 10
130.62587
 20
157.240723
 10
129.983505
 20
157.251007
 10
129.292358
 20
157.260284
 10
128.557632
 20
157.268463
 10
127.784691
 20
157.275497
 10
126.979515
 20
157.281326
 10
126.14843
 20
157.285919
 10
125.297768
 20
157.28923
 10
124.433853
 20
157.291229
 10
123.563156
 20
157.291901
 10
122.692276
 20
157.29126
 10
121.827827
 20
157.289291
 10
120.976418
 20
157.286041
 10
120.144623
 20
157.281494
 10
119.338776
 20
157.275696
 10
118.565018
 20
157.268677
 10
117.829124
 20
157.260529
 10
117.136566
 20
157.251297
 10
116.49279
 20
157.241043
 10
115.90287
 20
157.229843
 10
115.370895
 20
157.217789
 10
114.900818
 20
157.204971
 10
114.496559
 20
157.191498
 10
114.1614
 20
157.17746
 10
113.897423
 20
157.162964
 10
113.706627
 20
157.148102
 10
113.590736
 20
157.133026
 10
113.550507
 20
157.117401
  0
LINE
  5
DE
330
BC
100
AcDbEntity
  8
0
  6
Continuous
 62
     0
370
    30
100
AcDbLine
 10
133.550507
 20
157.117399
 30
0.0
 11
133.550507
 21
434.506952
 31
0.0
  0
LWPOLYLINE
  5
DF
330
BC
100
AcDbEntity
  8
0
  6
Continuous
 62
     0
370
    30
100
AcDbPolyline
 90
       12
 70
     0
 43
0.0
 10
129.650711
 20
156.979111
 10
130.283142
 20
156.988358
 10
130.869736
 20
156.998489
 10
131.406387
 20
157.009415
 10
131.889725
 20
157.021088
 10
132.316467
 20
157.033417
 10
132.683365
 20
157.04631
 10
132.987946
 20
157.059677
 10
133.228439
 20
157.073456
 10
133.403046
 20
157.08754
 10
133.510513
 20
157.101822
 10
133.550507
 20
157.117401
  0
LWPOLYLINE
  5
E0
330
BC
100
AcDbEntity
  8
0
  6
Continuous
 62
     0
370
    30
100
AcDbPolyline
 90
       12
 70
     0
 43
0.0
 10
113.550507
 20
157.117401
 10
113.584557
 20
157.103012
 10
113.686432
 20
157.088715
 10
113.855591
 20
157.074631
 10
114.09066
 20
157.060822
 10
114.389946
 20
157.047409
 10
114.751732
 20
157.03447
 10
115.173622
 20
157.022095
 10
115.652359
 20
157.010361
 10
116.184624
 20
156.999359
 10
116.767097
 20
156.989166
 10
117.450714
 20
156.979111
  0
ELLIPSE
  5
E1
330
BC
100
AcDbEntity
  8
0
  6
Continuous
 62
     0
370
    30
100
AcDbEllipse
 10
123.550714
 20
157.117341
 30
0.0
 11
6.09999999999929
 21
2.942523387634805E-6
 31
0.0
210
0.0
220
0.0
230
1.0
 40
0.017453
 41
0.0000000000000666
 42
1.735159425494967
  0
ELLIPSE
  5
E2
330
BC
100
AcDbEntity
  8
0
  6
Continuous
 62
     0
370
    30
100
AcDbEllipse
 10
123.550714
 20
157.117341
 30
0.0
 11
6.09999999999929
 21
2.942523387634805E-6
 31
0.0
210
0.0
220
0.0
230
1.0
 40
0.017453
 41
1.735159425494967
 42
3.14159265358986
  0
ARC
  5
E3
330
BC
100
AcDbEntity
  8
0
  6
Continuous
 62
     0
370
     0
100
AcDbCircle
 10
123.546592
 20
104.025413
 30
0.0
 40
27.2240362278591
100
AcDbArc
 50
89.9913
 51
270.008755
  0
ARC
  5
E4
330
BC
100
AcDbEntity
  8
0
  6
Continuous
 62
     0
370
     0
100
AcDbCircle
 10
123.554885
 20
104.025413
 30
0.0
 40
27.2240362278591
100
AcDbArc
 50
269.9913
 51
90.008755
  0
ARC
  5
E5
330
BC
100
AcDbEntity
  8
0
  6
Continuous
 62
     0
370
     0
100
AcDbCircle
 10
123.546137
 20
103.977618
 30
0.0
 40
30.21216516068602
100
AcDbArc
 50
89.9913
 51
270.008755
  0
ARC
  5
E6
330
BC
100
AcDbEntity
  8
0
  6
Continuous
 62
     0
370
     0
100
AcDbCircle
 10
123.555341
 20
103.977618
 30
0.0
 40
30.21216516068602
100
AcDbArc
 50
269.9913
 51
90.008755
  0
LWPOLYLINE
  5
E7
330
BC
100
AcDbEntity
  8
0
  6
Continuous
 62
     0
370
    30
100
AcDbPolyline
 90
       29
 70
     0
 43
0.0
 10
138.55072
 20
135.786087
 10
138.770782
 20
135.608597
 10
138.928345
 20
135.45726
 10
139.022064
 20
135.333618
 10
139.050705
 20
135.239273
 10
139.013046
 20
135.176239
 10
138.908432
 20
135.145721
 10
138.737747
 20
135.146835
 10
138.50209
 20
135.17836
 10
138.20256
 20
135.239105
 10
137.840607
 20
135.327164
 10
137.418472
 20
135.439163
 10
136.938538
 20
135.571472
 10
136.40329
 20
135.720657
 10
135.815323
 20
135.883499
 10
135.176804
 20
136.056442
 10
134.489685
 20
136.235718
 10
133.756805
 20
136.417557
 10
132.981415
 20
136.59819
 10
132.166779
 20
136.773926
 10
131.315598
 20
136.941544
 10
130.430344
 20
137.098297
 10
129.514526
 20
137.241226
 10
128.571915
 20
137.367386
 10
127.605438
 20
137.474365
 10
126.617935
 20
137.559921
 10
125.614685
 20
137.622421
 10
124.602844
 20
137.660675
 10
123.55072
 20
137.67421
  0
LWPOLYLINE
  5
E8
330
BC
100
AcDbEntity
  8
0
  6
Continuous
 62
     0
370
    30
100
AcDbPolyline
 90
       29
 70
     0
 43
0.0
 10
123.55072
 20
137.67421
 10
122.536095
 20
137.661606
 10
121.524071
 20
137.624268
 10
120.520378
 20
137.562653
 10
119.532173
 20
137.477921
 10
118.564865
 20
137.371689
 10
117.621323
 20
137.246201
 10
116.704453
 20
137.103836
 10
115.817993
 20
136.94754
 10
114.965515
 20
136.780273
 10
114.149475
 20
136.604797
 10
113.372581
 20
136.424271
 10
112.638069
 20
136.242401
 10
111.949196
 20
136.062973
 10
111.308853
 20
135.889725
 10
110.718979
 20
135.726456
 10
110.181732
 20
135.576691
 10
109.699707
 20
135.44371
 10
109.275398
 20
135.330887
 10
108.911171
 20
135.241867
 10
108.609306
 20
135.180084
 10
108.371262
 20
135.147446
 10
108.198158
 20
135.145187
 10
108.091087
 20
135.174515
 10
108.050949
 20
135.236359
 10
108.077156
 20
135.329575
 10
108.168488
 20
135.452179
 10
108.323715
 20
135.602509
 10
108.550728
 20
135.786072
  0
LWPOLYLINE
  5
E9
330
BC
100
AcDbEntity
  8
0
  6
Continuous
 62
     0
370
    30
100
AcDbPolyline
 90
       73
 70
     0
 43
0.0
 10
108.55072
 20
144.82251
 10
106.839958
 20
144.203461
 10
105.140686
 20
143.512115
 10
103.457352
 20
142.748398
 10
101.794434
 20
141.912628
 10
100.156456
 20
141.005463
 10
98.547928
 20
140.027954
 10
96.973289
 20
138.981491
 10
95.436913
 20
137.867874
 10
93.943024
 20
136.689255
 10
92.495697
 20
135.448105
 10
91.098793
 20
134.147263
 10
89.755936
 20
132.789902
 10
88.470497
 20
131.379425
 10
87.245529
 20
129.91954
 10
86.083794
 20
128.414185
 10
84.987686
 20
126.867439
 10
83.959251
 20
125.283592
 10
83.000191
 20
123.667038
 10
82.111801
 20
122.02224
 10
81.295029
 20
120.353699
 10
80.550446
 20
118.665939
 10
79.878242
 20
116.96344
 10
79.27829
 20
115.250618
 10
78.750099
 20
113.531784
 10
78.292862
 20
111.811127
 10
77.905495
 20
110.092682
 10
77.586617
 20
108.380295
 10
77.33461
 20
106.677635
 10
77.147629
 20
104.988144
 10
77.023651
 20
103.315033
 10
76.960449
 20
101.661293
 10
76.955742
 20
100.025528
 10
77.009232
 20
98.375221
 10
77.123138
 20
96.705078
 10
77.299683
 20
95.018044
 10
77.540932
 20
93.317307
 10
77.84877
 20
91.60627
 10
78.224854
 20
89.88855
 10
78.670601
 20
88.167984
 10
79.187141
 20
86.44857
 10
79.77533
 20
84.734474
 10
80.435715
 20
83.029991
 10
81.16848
 20
81.339516
 10
81.973488
 20
79.667534
 10
82.850235
 20
78.018547
 10
83.797836
 20
76.397072
 10
84.815041
 20
74.807587
 10
85.90023
 20
73.254486
 10
87.051407
 20
71.742081
 10
88.26622
 20
70.27449
 10
89.541985
 20
68.85569
 10
90.875687
 20
67.48941
 10
92.264008
 20
66.179123
 10
93.703354
 20
64.928024
 10
95.189911
 20
63.739002
 10
96.719635
 20
62.614609
 10
98.288315
 20
61.557053
 10
99.891617
 20
60.568172
 10
101.525085
 20
59.649437
 10
103.184242
 20
58.801952
 10
104.864555
 20
58.026443
 10
106.561523
 20
57.323265
 10
108.270714
 20
56.692425
 10
109.987747
 20
56.133583
 10
111.708389
 20
55.646072
 10
113.428528
 20
55.228916
 10
115.144241
 20
54.880867
 10
116.851768
 20
54.600403
 10
118.547585
 20
54.385773
 10
120.228363
 20
54.235023
 10
121.891022
 20
54.146019
 10
123.550766
 20
54.116455
  0
LWPOLYLINE
  5
EA
330
BC
100
AcDbEntity
  8
0
  6
Continuous
 62
     0
370
    30
100
AcDbPolyline
 90
       73
 70
     0
 43
0.0
 10
123.550766
 20
54.116455
 10
125.192215
 20
54.14537
 10
126.85466
 20
54.233707
 10
128.535248
 20
54.383762
 10
130.230911
 20
54.597675
 10
131.938339
 20
54.877403
 10
133.653976
 20
55.224697
 10
135.374084
 20
55.641083
 10
137.094742
 20
56.127811
 10
138.811844
 20
56.68586
 10
140.521133
 20
57.315903
 10
142.218277
 20
58.01828
 10
143.898788
 20
58.792992
 10
145.558197
 20
59.639687
 10
147.191986
 20
60.557636
 10
148.795639
 20
61.54575
 10
150.364731
 20
62.602558
 10
151.894897
 20
63.726223
 10
153.381958
 20
64.914543
 10
154.821854
 20
66.16497
 10
156.210754
 20
67.474625
 10
157.545074
 20
68.840309
 10
158.821503
 20
70.258545
 10
160.037003
 20
71.725616
 10
161.188904
 20
73.237549
 10
162.274826
 20
74.790222
 10
163.292786
 20
76.379333
 10
164.241165
 20
78.000481
 10
165.118698
 20
79.649185
 10
165.924515
 20
81.320946
 10
166.658081
 20
83.01123
 10
167.31926
 20
84.715584
 10
167.908249
 20
86.429604
 10
168.425568
 20
88.148979
 10
168.872086
 20
89.86956
 10
169.248932
 20
91.587326
 10
169.557526
 20
93.298462
 10
169.7995
 20
94.999336
 10
169.976746
 20
96.686531
 10
170.091324
 20
98.35688
 10
170.145477
 20
100.007423
 10
170.141403
 20
101.64315
 10
170.078857
 20
103.296661
 10
169.955566
 20
104.969566
 10
169.769302
 20
106.658897
 10
169.518021
 20
108.361435
 10
169.19989
 20
110.07373
 10
168.813278
 20
111.79213
 10
168.356827
 20
113.512787
 10
167.829422
 20
115.231659
 10
167.230255
 20
116.944572
 10
166.558868
 20
118.647209
 10
165.815079
 20
120.335159
 10
164.9991
 20
122.003929
 10
164.111496
 20
123.649017
 10
163.153214
 20
125.265915
 10
162.125534
 20
126.850143
 10
161.030167
 20
128.397308
 10
159.869141
 20
129.903168
 10
158.644852
 20
131.363571
 10
157.360062
 20
132.774597
 10
156.017822
 20
134.132584
 10
154.621506
 20
135.434052
 10
153.174713
 20
136.675873
 10
151.68132
 20
137.855209
 10
150.145386
 20
138.969559
 10
148.571152
 20
140.016769
 10
146.962967
 20
140.995056
 10
145.325287
 20
141.903
 10
143.662628
 20
142.739563
 10
141.979492
 20
143.504074
 10
140.280365
 20
144.196228
 10
138.55072
 20
144.822525
  0
LWPOLYLINE
  5
EB
330
BC
100
AcDbEntity
  8
0
  6
Continuous
 62
     0
370
    30
100
AcDbPolyline
 90
       40
 70
     0
 43
0.0
 10
127.391289
 20
146.585068
 10
127.334099
 20
146.793381
 10
127.194511
 20
146.966553
 10
127.023369
 20
147.096649
 10
126.835136
 20
147.201599
 10
126.637001
 20
147.288544
 10
126.433624
 20
147.360962
 10
126.226631
 20
147.421829
 10
126.017227
 20
147.473785
 10
125.80603
 20
147.518219
 10
125.593498
 20
147.556091
 10
125.380074
 20
147.588364
 10
125.166061
 20
147.615784
 10
124.951569
 20
147.638824
 10
124.736702
 20
147.657944
 10
124.521523
 20
147.673431
 10
124.306091
 20
147.68544
 10
124.090462
 20
147.694168
 10
123.874687
 20
147.699799
 10
123.658836
 20
147.702515
 10
123.442963
 20
147.702484
 10
123.227112
 20
147.699707
 10
123.011345
 20
147.694016
 10
122.795723
 20
147.685242
 10
122.580292
 20
147.673203
 10
122.365112
 20
147.657745
 10
122.150238
 20
147.638687
 10
121.935738
 20
147.615723
 10
121.72171
 20
147.588394
 10
121.508278
 20
147.556168
 10
121.295746
 20
147.518311
 10
121.084549
 20
147.473877
 10
120.875137
 20
147.421921
 10
120.668144
 20
147.361069
 10
120.464767
 20
147.288666
 10
120.266609
 20
147.201752
 10
120.078369
 20
147.096817
 10
119.907242
 20
146.966721
 10
119.767563
 20
146.79361
 10
119.710144
 20
146.585068
  0
LWPOLYLINE
  5
EC
330
BC
100
AcDbEntity
  8
0
  6
Continuous
 62
     0
370
     0
100
AcDbPolyline
 90
       20
 70
     0
 43
0.0
 10
138.55072
 20
146.332001
 10
138.521896
 20
146.348221
 10
138.432739
 20
146.364777
 10
138.279602
 20
146.381546
 10
138.059433
 20
146.398453
 10
137.769897
 20
146.415375
 10
137.4095
 20
146.432159
 10
136.977737
 20
146.448715
 10
136.475143
 20
146.464874
 10
135.903397
 20
146.480515
 10
135.265259
 20
146.495514
 10
134.564606
 20
146.50972
 10
133.806366
 20
146.523041
 10
132.996323
 20
146.53537
 10
132.141083
 20
146.546616
 10
131.247818
 20
146.556702
 10
130.324097
 20
146.565582
 10
129.377686
 20
146.573227
 10
128.416351
 20
146.579636
 10
127.391289
 20
146.585068
  0
LWPOLYLINE
  5
ED
330
BC
100
AcDbEntity
  8
0
  6
Continuous
 62
     0
370
     0
100
AcDbPolyline
 90
       20
 70
     0
 43
0.0
 10
119.710144
 20
146.585068
 10
118.741249
 20
146.579971
 10
117.779282
 20
146.573639
 10
116.831802
 20
146.566055
 10
115.906548
 20
146.557236
 10
115.011299
 20
146.547226
 10
114.153648
 20
146.536041
 10
113.340797
 20
146.523773
 10
112.579369
 20
146.510513
 10
111.875229
 20
146.496353
 10
111.233345
 20
146.4814
 10
110.657646
 20
146.46579
 10
110.150993
 20
146.449646
 10
109.715088
 20
146.433121
 10
109.350548
 20
146.416336
 10
109.056915
 20
146.399429
 10
108.832771
 20
146.382523
 10
108.675819
 20
146.365723
 10
108.583038
 20
146.349167
 10
108.55072
 20
146.331985
  0
LINE
  5
EE
330
BC
100
AcDbEntity
  8
0
  6
Continuous
 62
     0
370
    30
100
AcDbLine
 10
127.391292
 20
146.585064
 30
0.0
 11
127.391295
 21
140.086054
 31
0.0
  0
ELLIPSE
  5
EF
330
BC
100
AcDbEntity
  8
0
  6
Continuous
 62
     0
370
    30
100
AcDbEllipse
 10
123.550723
 20
139.832987
 30
0.0
 11
14.99999999999882
 21
7.235713248278065E-6
 31
0.0
210
0.0
220
0.0
230
1.0
 40
0.017453
 41
1.311874802114323
 42
1.829717886127104
  0
LINE
  5
F0
330
BC
100
AcDbEntity
  8
0
  6
Continuous
 62
     0
370
    30
100
AcDbLine
 10
119.710149
 20
140.086051
 30
0.0
 11
119.710146
 21
146.58506
 31
0.0
  0
ELLIPSE
  5
F1
330
BC
100
AcDbEntity
  8
0
  6
Continuous
 62
     0
370
    30
100
AcDbEllipse
 10
123.550716
 20
153.798671
 30
0.0
 11
-6.09999999999929
 21
-2.942523387634805E-6
 31
0.0
210
0.0
220
0.0
230
-1.0
 40
0.017453
 41
-0.0000000000000666
 42
1.406433228094824
  0
ELLIPSE
  5
F2
330
BC
100
AcDbEntity
  8
0
  6
Continuous
 62
     0
370
    30
100
AcDbEllipse
 10
123.550716
 20
153.798671
 30
0.0
 11
-6.09999999999929
 21
-2.942523387634805E-6
 31
0.0
210
0.0
220
0.0
230
-1.0
 40
0.017453
 41
1.406433228094824
 42
3.141592653589727
  0
ARC
  5
F3
330
BC
100
AcDbEntity
  8
0
  6
Continuous
 62
     0
370
     0
100
AcDbCircle
 10
123.552707
 20
100.700758
 30
0.0
 40
46.68784306991931
100
AcDbArc
 50
45.716508
 51
71.262055
  0
ARC
  5
F4
330
BC
100
AcDbEntity
  8
0
  6
Continuous
 62
     0
370
     0
100
AcDbCircle
 10
123.54092
 20
100.709965
 30
0.0
 40
46.67659947351299
100
AcDbArc
 50
108.732499
 51
225.716526
  0
LWPOLYLINE
  5
F5
330
BC
100
AcDbEntity
  8
0
  6
Continuous
 62
     0
370
     0
100
AcDbPolyline
 90
       82
 70
     0
 43
0.0
 10
156.150574
 20
134.124298
 10
157.305374
 20
132.957703
 10
158.433762
 20
131.734024
 10
159.53212
 20
130.453583
 10
160.596741
 20
129.117035
 10
161.623917
 20
127.72525
 10
162.609909
 20
126.279457
 10
163.55098
 20
124.781166
 10
164.443466
 20
123.232208
 10
165.283737
 20
121.634743
 10
166.068314
 20
119.991234
 10
166.793839
 20
118.304459
 10
167.457138
 20
116.577515
 10
168.055252
 20
114.813774
 10
168.585464
 20
113.016891
 10
169.045288
 20
111.190765
 10
169.432602
 20
109.339523
 10
169.74556
 20
107.467491
 10
169.982681
 20
105.57917
 10
170.142853
 20
103.679184
 10
170.225327
 20
101.77224
 10
170.229752
 20
99.863113
 10
170.156174
 20
97.956596
 10
170.00502
 20
96.057442
 10
169.777084
 20
94.170357
 10
169.473572
 20
92.299927
 10
169.096024
 20
90.450615
 10
168.646317
 20
88.626694
 10
168.126663
 20
86.832253
 10
167.539566
 20
85.071121
 10
166.887787
 20
83.346893
 10
166.174301
 20
81.662888
 10
165.402298
 20
80.02211
 10
164.575165
 20
78.427284
 10
163.696381
 20
76.880798
 10
162.769547
 20
75.38475
 10
161.798309
 20
73.940903
 10
160.786392
 20
72.550705
 10
159.737503
 20
71.215317
 10
158.655319
 20
69.935577
 10
157.543488
 20
68.712074
 10
156.40152
 20
67.541054
 10
155.206512
 20
66.399033
 10
153.954544
 20
65.285194
 10
152.646088
 20
64.203201
 10
151.281921
 20
63.156765
 10
149.863068
 20
62.14962
 10
148.3909
 20
61.185505
 10
146.867111
 20
60.268124
 10
145.293655
 20
59.401123
 10
143.672867
 20
58.588058
 10
142.00737
 20
57.832355
 10
140.300095
 20
57.137287
 10
138.55426
 20
56.505924
 10
136.773407
 20
55.94112
 10
134.961288
 20
55.445469
 10
133.121948
 20
55.021282
 10
131.259598
 20
54.670547
 10
129.378662
 20
54.394932
 10
127.483711
 20
54.195736
 10
125.579399
 20
54.073898
 10
123.670494
 20
54.029961
 10
121.761765
 20
54.064091
 10
119.858009
 20
54.176056
 10
117.963943
 20
54.365234
 10
116.084236
 20
54.630634
 10
114.223404
 20
54.970886
 10
112.385834
 20
55.384274
 10
110.575706
 20
55.868748
 10
108.796982
 20
56.421963
 10
107.053383
 20
57.041283
 10
105.348373
 20
57.723835
 10
103.685104
 20
58.466518
 10
102.06646
 20
59.26606
 10
100.494995
 20
60.119022
 10
98.972954
 20
61.021866
 10
97.502266
 20
61.970947
 10
96.084541
 20
62.962589
 10
94.721085
 20
63.99308
 10
93.412903
 20
65.058716
 10
92.160706
 20
66.15583
 10
90.950905
 20
67.294464
  0
LWPOLYLINE
  5
F6
330
BC
100
AcDbEntity
  8
0
  6
Continuous
 62
     0
370
     0
100
AcDbPolyline
 90
       83
 70
     0
 43
0.0
 10
90.082092
 20
66.384193
 10
91.293747
 20
65.242828
 10
92.561935
 20
64.129288
 10
93.886223
 20
63.04715
 10
95.265923
 20
62.000034
 10
96.700058
 20
60.991611
 10
98.187363
 20
60.025555
 10
99.726257
 20
59.105511
 10
101.314873
 20
58.235081
 10
102.951012
 20
57.417789
 10
104.632179
 20
56.65704
 10
106.355576
 20
55.956108
 10
108.118103
 20
55.318077
 10
109.916382
 20
54.745831
 10
111.746788
 20
54.242016
 10
113.605423
 20
53.80901
 10
115.48819
 20
53.448898
 10
117.390793
 20
53.163445
 10
119.308777
 20
52.954079
 10
121.237564
 20
52.821869
 10
123.172485
 20
52.767517
 10
125.108818
 20
52.791355
 10
127.041832
 20
52.893314
 10
128.966797
 20
53.07296
 10
130.879074
 20
53.329479
 10
132.774109
 20
53.661686
 10
134.647476
 20
54.068047
 10
136.494934
 20
54.546688
 10
138.312424
 20
55.095432
 10
140.09613
 20
55.7118
 10
141.842484
 20
56.393059
 10
143.548157
 20
57.13625
 10
145.210159
 20
57.938202
 10
146.825745
 20
58.795586
 10
148.392517
 20
59.704926
 10
149.908371
 20
60.662651
 10
151.371521
 20
61.665115
 10
152.780457
 20
62.70863
 10
154.134033
 20
63.789494
 10
155.431335
 20
64.904022
 10
156.671783
 20
66.048561
 10
157.855026
 20
67.219528
 10
158.996704
 20
68.430695
 10
160.11058
 20
69.698372
 10
161.193069
 20
71.022148
 10
162.240555
 20
72.401337
 10
163.249344
 20
73.834953
 10
164.215805
 20
75.321739
 10
165.136246
 20
76.860123
 10
166.007095
 20
78.448219
 10
166.824814
 20
80.083855
 10
167.585999
 20
81.764519
 10
168.287384
 20
83.487427
 10
168.925873
 20
85.249481
 10
169.498581
 20
87.047302
 10
170.002853
 20
88.877258
 10
170.436325
 20
90.735458
 10
170.796906
 20
92.617821
 10
171.082825
 20
94.520035
 10
171.292648
 20
96.437653
 10
171.425308
 20
98.366104
 10
171.480103
 20
100.300713
 10
171.456696
 20
102.236755
 10
171.355148
 20
104.169495
 10
171.175903
 20
106.094231
 10
170.919769
 20
108.006294
 10
170.587921
 20
109.901146
 10
170.181915
 20
111.774361
 10
169.703598
 20
113.621696
 10
169.155151
 20
115.439087
 10
168.539062
 20
117.222725
 10
167.858047
 20
118.969025
 10
167.115082
 20
120.674683
 10
166.313324
 20
122.336678
 10
165.4561
 20
123.952286
 10
164.546906
 20
125.519096
 10
163.589294
 20
127.035004
 10
162.586914
 20
128.498215
 10
161.543457
 20
129.907257
 10
160.462631
 20
131.260925
 10
159.348099
 20
132.55835
 10
158.203552
 20
133.79892
 10
157.019394
 20
134.995117
  0
ARC
  5
F7
330
BC
100
AcDbEntity
  8
0
  6
Continuous
 62
     0
370
     0
100
AcDbCircle
 10
123.540723
 20
100.690267
 30
0.0
 40
47.92062952000474
100
AcDbArc
 50
108.228595
 51
225.716479
  0
ARC
  5
F8
330
BC
100
AcDbEntity
  8
0
  6
Continuous
 62
     0
370
     0
100
AcDbCircle
 10
123.552712
 20
100.680738
 30
0.0
 40
47.93219890730343
100
AcDbArc
 50
45.716522
 51
71.765886
  0
LWPOLYLINE
  5
F9
330
BC
100
AcDbEntity
  8
0
  6
Continuous
 62
     0
370
     0
100
AcDbPolyline
 90
       84
 70
     0
 43
0.0
 10
89.335594
 20
65.425262
 10
90.55899
 20
64.272346
 10
91.838799
 20
63.147156
 10
93.174599
 20
62.053204
 10
94.56572
 20
60.994072
 10
96.011208
 20
59.973373
 10
97.509834
 20
58.99472
 10
99.060066
 20
58.061722
 10
100.660072
 20
57.177925
 10
102.307724
 20
56.346813
 10
104.000595
 20
55.571762
 10
105.735947
 20
54.856007
 10
107.51078
 20
54.202618
 10
109.321793
 20
53.614468
 10
111.165436
 20
53.0942
 10
113.037926
 20
52.644207
 10
114.935242
 20
52.266594
 10
116.853195
 20
51.963161
 10
118.787422
 20
51.735382
 10
120.733429
 20
51.584393
 10
122.68663
 20
51.510963
 10
124.642372
 20
51.515507
 10
126.596001
 20
51.598053
 10
128.542847
 20
51.758266
 10
130.478302
 20
51.995449
 10
132.397858
 20
52.308529
 10
134.297119
 20
52.696098
 10
136.171829
 20
53.156414
 10
138.017929
 20
53.687412
 10
139.831589
 20
54.286755
 10
141.609177
 20
54.951828
 10
143.347366
 20
55.67979
 10
145.043045
 20
56.46759
 10
146.69342
 20
57.311996
 10
148.296021
 20
58.209641
 10
149.848633
 20
59.157036
 10
151.349365
 20
60.150616
 10
152.796631
 20
61.186752
 10
154.189117
 20
62.261806
 10
155.525848
 20
63.372128
 10
156.806076
 20
64.514107
 10
158.029373
 20
65.684174
 10
159.199448
 20
66.883011
 10
160.339279
 20
68.134117
 10
161.449661
 20
69.441444
 10
162.527023
 20
70.804459
 10
163.567795
 20
72.222351
 10
164.568329
 20
73.694038
 10
165.525024
 20
75.218124
 10
166.434311
 20
76.792946
 10
167.292633
 20
78.416527
 10
168.096603
 20
80.086578
 10
168.84288
 20
81.800529
 10
169.528305
 20
83.555504
 10
170.149918
 20
85.348358
 10
170.704941
 20
87.175667
 10
171.190857
 20
89.03376
 10
171.605408
 20
90.918739
 10
171.94664
 20
92.8265
 10
172.212906
 20
94.752747
 10
172.402908
 20
96.693062
 10
172.515686
 20
98.642906
 10
172.550644
 20
100.597649
 10
172.507553
 20
102.552635
 10
172.386551
 20
104.503189
 10
172.188187
 20
106.444687
 10
171.91333
 20
108.372559
 10
171.563202
 20
110.282341
 10
171.139404
 20
112.169701
 10
170.643829
 20
114.030495
 10
170.078674
 20
115.860764
 10
169.446426
 20
117.656769
 10
168.749817
 20
119.415031
 10
167.991806
 20
121.132324
 10
167.175507
 20
122.805717
 10
166.304245
 20
124.432541
 10
165.381439
 20
126.010468
 10
164.410645
 20
127.537437
 10
163.395432
 20
129.011719
 10
162.339462
 20
130.431854
 10
161.246368
 20
131.796707
 10
160.119797
 20
133.105408
 10
158.963318
 20
134.357361
 10
157.7659
 20
135.566513
  0
ARC
  5
FA
330
BC
100
AcDbEntity
  8
0
  6
Continuous
 62
     0
370
     0
100
AcDbCircle
 10
123.541197
 20
100.496614
 30
0.0
 40
48.99003272753365
100
AcDbArc
 50
103.211788
 51
225.715983
  0
ARC
  5
FB
330
BC
100
AcDbEntity
  8
0
  6
Continuous
 62
     0
370
     0
100
AcDbCircle
 10
123.552304
 20
100.486118
 30
0.0
 40
49.00207674781068
100
AcDbArc
 50
45.716673
 51
76.78197
  0
LWPOLYLINE
  5
FC
330
BC
100
AcDbEntity
  8
0
  6
Continuous
 62
     0
370
    30
100
AcDbPolyline
 90
       54
 70
     0
 43
0.0
 10
112.345604
 20
148.19249
 10
110.430969
 20
147.701813
 10
108.537666
 20
147.134338
 10
106.668762
 20
146.491089
 10
104.827301
 20
145.773071
 10
103.01635
 20
144.981308
 10
101.238861
 20
144.11705
 10
99.497643
 20
143.181854
 10
97.795486
 20
142.177338
 10
96.135185
 20
141.105087
 10
94.519547
 20
139.96669
 10
92.951202
 20
138.763977
 10
91.43261
 20
137.499008
 10
89.966217
 20
136.17392
 10
88.554451
 20
134.790802
 10
87.199722
 20
133.351807
 10
85.904175
 20
131.859299
 10
84.6698
 20
130.315826
 10
83.498573
 20
128.723907
 10
82.392502
 20
127.08609
 10
81.353523
 20
125.40493
 10
80.383255
 20
123.683197
 10
79.483139
 20
121.923767
 10
78.65461
 20
120.129524
 10
77.899109
 20
118.303368
 10
77.218025
 20
116.448174
 10
76.612396
 20
114.566994
 10
76.083046
 20
112.662941
 10
75.630791
 20
110.739128
 10
75.256462
 20
108.79866
 10
74.960846
 20
106.844666
 10
74.74437
 20
104.880318
 10
74.607224
 20
102.908829
 10
74.549591
 20
100.933426
 10
74.571655
 20
98.957314
 10
74.673569
 20
96.983719
 10
74.855072
 20
95.015831
 10
75.1157
 20
93.056839
 10
75.455002
 20
91.109932
 10
75.872505
 20
89.178299
 10
76.367722
 20
87.265114
 10
76.939812
 20
85.373474
 10
77.587662
 20
83.506401
 10
78.310165
 20
81.666924
 10
79.106224
 20
79.858055
 10
79.974686
 20
78.082809
 10
80.914085
 20
76.34404
 10
81.922821
 20
74.644539
 10
82.999298
 20
72.987099
 10
84.141731
 20
71.374428
 10
85.348282
 20
69.809166
 10
86.616982
 20
68.29377
 10
87.945824
 20
66.830704
 10
89.333382
 20
65.421669
  0
LWPOLYLINE
  5
FD
330
BC
100
AcDbEntity
  8
0
  6
Continuous
 62
     0
370
    30
100
AcDbPolyline
 90
       93
 70
     0
 43
0.0
 10
89.333382
 20
65.421669
 10
90.764748
 20
64.080498
 10
92.24897
 20
62.797386
 10
93.783379
 20
61.574787
 10
95.365395
 20
60.414661
 10
96.992485
 20
59.318756
 10
98.662117
 20
58.288818
 10
100.371719
 20
57.326542
 10
102.118507
 20
56.433468
 10
103.899666
 20
55.611084
 10
105.712318
 20
54.860641
 10
107.553528
 20
54.183258
 10
109.420341
 20
53.580055
 10
111.309837
 20
53.052113
 10
113.218971
 20
52.60025
 10
115.144661
 20
52.225121
 10
117.083832
 20
51.92738
 10
119.033371
 20
51.707485
 10
120.990135
 20
51.565765
 10
122.950996
 20
51.502529
 10
124.912819
 20
51.517963
 10
126.872459
 20
51.611866
 10
128.826782
 20
51.78397
 10
130.772659
 20
52.034016
 10
132.706955
 20
52.361736
 10
134.626541
 20
52.766792
 10
136.528366
 20
53.248409
 10
138.409439
 20
53.805679
 10
140.266708
 20
54.437695
 10
142.097183
 20
55.143551
 10
143.897858
 20
55.92223
 10
145.665939
 20
56.772358
 10
147.398605
 20
57.692474
 10
149.093079
 20
58.681129
 10
150.746582
 20
59.736862
 10
152.356415
 20
60.858032
 10
153.920105
 20
62.042713
 10
155.435196
 20
63.28894
 10
156.8992
 20
64.594757
 10
158.309692
 20
65.958191
 10
159.664398
 20
67.377052
 10
160.961258
 20
68.848961
 10
162.198242
 20
70.371529
 10
163.373276
 20
71.942368
 10
164.48436
 20
73.559052
 10
165.52977
 20
75.218964
 10
166.507996
 20
76.919334
 10
167.417465
 20
78.657433
 10
168.256668
 20
80.430504
 10
169.024078
 20
82.235779
 10
169.71846
 20
84.070389
 10
170.338913
 20
85.931313
 10
170.884506
 20
87.815544
 10
171.354309
 20
89.720062
 10
171.747406
 20
91.641869
 10
172.063095
 20
93.577888
 10
172.301041
 20
95.525009
 10
172.460953
 20
97.480095
 10
172.542557
 20
99.439987
 10
172.545563
 20
101.401573
 10
172.469894
 20
103.361702
 10
172.315826
 20
105.317245
 10
172.08371
 20
107.265076
 10
171.77388
 20
109.202049
 10
171.386673
 20
111.125053
 10
170.922668
 20
113.030991
 10
170.382751
 20
114.916847
 10
169.767883
 20
116.779625
 10
169.078995
 20
118.61631
 10
168.317047
 20
120.423904
 10
167.483231
 20
122.199516
 10
166.579041
 20
123.940369
 10
165.605972
 20
125.643692
 10
164.565552
 20
127.306725
 10
163.45929
 20
128.926712
 10
162.288986
 20
130.501099
 10
161.056656
 20
132.027435
 10
159.764267
 20
133.503281
 10
158.413818
 20
134.926178
 10
157.00737
 20
136.293762
 10
155.547287
 20
137.603973
 10
154.035995
 20
138.854797
 10
152.475922
 20
140.04425
 10
150.869507
 20
141.170288
 10
149.219208
 20
142.230988
 10
147.52771
 20
143.224731
 10
145.797806
 20
144.150055
 10
144.032303
 20
145.005524
 10
142.233994
 20
145.789673
 10
140.405701
 20
146.501099
 10
138.550339
 20
147.138672
 10
136.670944
 20
147.701538
 10
134.75592
 20
148.192307
  0
ARC
  5
FE
330
BC
100
AcDbEntity
  8
0
  6
Continuous
 62
     0
370
    30
100
AcDbCircle
 10
123.550824
 20
143.119374
 30
0.0
 40
12.30013770051494
100
AcDbArc
 50
119.71635
 51
156.818561
  0
ARC
  5
FF
330
BC
100
AcDbEntity
  8
0
  6
Continuous
 62
     0
370
    30
100
AcDbCircle
 10
123.550592
 20
143.11934
 30
0.0
 40
12.30017941855369
100
AcDbArc
 50
23.181583
 51
60.283681
  0
LINE
  5
100
330
BC
100
AcDbEntity
  8
0
  6
Continuous
 62
     0
370
    30
100
AcDbLine
 10
129.650714
 20
157.117344
 30
0.0
 11
129.650716
 21
153.8003
 31
0.0
  0
LINE
  5
101
330
BC
100
AcDbEntity
  8
0
  6
Continuous
 62
     0
370
    30
100
AcDbLine
 10
117.450714
 20
157.117338
 30
0.0
 11
117.450716
 21
153.800294
 31
0.0
  0
LINE
  5
102
330
BC
100
AcDbEntity
  8
0
  6
Continuous
 62
     0
370
    30
100
AcDbLine
 10
108.550725
 20
135.17025
 30
0.0
 11
108.550719
 21
146.33199
 31
0.0
  0
LINE
  5
103
330
BC
100
AcDbEntity
  8
0
  6
Continuous
 62
     0
370
    30
100
AcDbLine
 10
138.550725
 20
135.170265
 30
0.0
 11
138.550719
 21
146.332004
 31
0.0
  0
LWPOLYLINE
  5
104
330
BC
100
AcDbEntity
  8
0
  6
Continuous
 62
     0
370
    30
100
AcDbPolyline
 90
      127
 70
     0
 43
0.0
 10
108.55072
 20
146.331985
 10
108.592705
 20
146.684845
 10
108.715744
 20
147.016953
 10
108.910721
 20
147.308563
 10
109.159317
 20
147.541168
 10
109.423164
 20
147.698792
 10
109.638596
 20
147.78125
 10
109.784065
 20
147.818481
 10
109.889473
 20
147.838135
 10
109.977852
 20
147.850876
 10
110.06147
 20
147.860794
 10
110.145813
 20
147.869217
 10
110.234001
 20
147.876846
 10
110.327782
 20
147.883972
 10
110.428169
 20
147.890762
 10
110.535858
 20
147.897324
 10
110.651237
 20
147.903717
 10
110.77459
 20
147.909958
 10
110.906059
 20
147.916092
 10
111.045769
 20
147.922104
 10
111.193733
 20
147.928024
 10
111.349937
 20
147.933838
 10
111.514343
 20
147.93956
 10
111.686935
 20
147.94519
 10
111.867661
 20
147.950714
 10
112.056412
 20
147.956161
 10
112.253105
 20
147.961502
 10
112.457619
 20
147.966736
 10
112.669861
 20
147.971878
 10
112.889687
 20
147.976913
 10
113.116943
 20
147.981842
 10
113.351463
 20
147.986649
 10
113.593102
 20
147.991348
 10
113.841705
 20
147.995941
 10
114.097107
 20
148.000412
 10
114.359161
 20
148.004761
 10
114.627693
 20
148.008972
 10
114.902504
 20
148.013077
 10
115.183411
 20
148.017029
 10
115.470215
 20
148.020859
 10
115.762726
 20
148.024567
 10
116.060745
 20
148.028122
 10
116.364059
 20
148.03154
 10
116.672447
 20
148.034805
 10
116.98568
 20
148.037933
 10
117.303535
 20
148.040924
 10
117.625786
 20
148.043747
 10
117.952209
 20
148.046432
 10
118.282578
 20
148.048965
 10
118.616661
 20
148.051346
 10
118.954239
 20
148.053558
 10
119.29509
 20
148.055618
 10
119.638954
 20
148.057526
 10
119.985603
 20
148.059265
 10
120.334785
 20
148.060837
 10
120.686241
 20
148.062256
 10
121.039734
 20
148.063507
 10
121.395004
 20
148.06459
 10
121.751801
 20
148.065506
 10
122.109863
 20
148.066269
 10
122.468941
 20
148.066849
 10
122.828781
 20
148.067276
 10
123.189117
 20
148.06752
 10
123.549706
 20
148.067612
 10
123.910294
 20
148.06752
 10
124.270615
 20
148.067276
 10
124.630424
 20
148.066849
 10
124.989464
 20
148.066269
 10
125.347496
 20
148.065521
 10
125.704254
 20
148.06459
 10
126.059502
 20
148.063507
 10
126.412987
 20
148.062256
 10
126.764458
 20
148.060852
 10
127.113663
 20
148.059265
 10
127.460358
 20
148.057526
 10
127.804291
 20
148.055634
 10
128.145218
 20
148.053574
 10
128.48288
 20
148.051361
 10
128.817032
 20
148.048981
 10
129.147461
 20
148.046463
 10
129.473923
 20
148.043777
 10
129.796188
 20
148.040939
 10
130.113998
 20
148.037964
 10
130.42717
 20
148.034836
 10
130.735504
 20
148.031555
 10
131.038757
 20
148.028137
 10
131.336761
 20
148.024582
 10
131.629303
 20
148.020889
 10
131.916168
 20
148.017059
 10
132.197159
 20
148.013107
 10
132.472076
 20
148.009003
 10
132.740707
 20
148.004791
 10
133.002853
 20
148.000443
 10
133.258347
 20
147.995972
 10
133.507004
 20
147.991394
 10
133.748688
 20
147.986694
 10
133.983246
 20
147.981873
 10
134.210495
 20
147.976944
 10
134.430298
 20
147.971924
 10
134.642532
 20
147.966782
 10
134.847092
 20
147.961548
 10
135.043839
 20
147.956207
 10
135.232666
 20
147.95076
 10
135.413452
 20
147.945236
 10
135.586121
 20
147.939606
 10
135.75061
 20
147.933884
 10
135.906845
 20
147.92807
 10
136.054794
 20
147.92215
 10
136.194489
 20
147.916138
 10
136.326019
 20
147.910019
 10
136.449478
 20
147.903763
 10
136.564926
 20
147.897385
 10
136.672668
 20
147.890823
 10
136.773041
 20
147.884033
 10
136.866852
 20
147.876907
 10
136.955093
 20
147.869293
 10
137.039368
 20
147.860886
 10
137.123077
 20
147.850967
 10
137.211517
 20
147.838181
 10
137.316574
 20
147.818695
 10
137.461884
 20
147.781631
 10
137.676788
 20
147.699478
 10
137.940491
 20
147.542404
 10
138.189285
 20
147.310211
 10
138.384705
 20
147.019043
 10
138.508148
 20
146.686676
 10
138.55072
 20
146.332001
  0
LINE
  5
105
330
BC
100
AcDbEntity
  8
0
  6
Continuous
 62
     0
370
    30
100
AcDbLine
 10
113.550507
 20
434.506952
 30
0.0
 11
113.550507
 21
452.540535
 31
0.0
  0
ENDBLK
  5
107
330
BC
100
AcDbEntity
  8
0
100
AcDbBlockEnd
  0
BLOCK
  5
15D
330
109
100
AcDbEntity
  8
0
100
AcDbBlockBegin
  2
c
 70
     0
 10
59.671127
 20
76.756454
 30
0.0
  3
c
  1

  0
LINE
  5
10A
330
109
100
AcDbEntity
  8
0
  6
Continuous
 62
     0
370
     0
100
AcDbLine
 10
374.952625
 20
907.808177
 30
0.0
 11
374.952625
 21
1065.513062
 31
0.0
  0
LINE
  5
10B
330
109
100
AcDbEntity
  8
0
  6
Continuous
 62
     0
370
     0
100
AcDbLine
 10
374.952625
 20
1065.513062
 30
0.0
 11
374.896764
 21
1065.528687
 31
0.0
  0
LINE
  5
10C
330
109
100
AcDbEntity
  8
0
  6
Continuous
 62
     0
370
     0
100
AcDbLine
 10
374.896764
 20
907.762516
 30
0.0
 11
374.952625
 21
907.808177
 31
0.0
  0
LINE
  5
10D
330
109
100
AcDbEntity
  8
0
  6
Continuous
 62
     0
370
    30
100
AcDbLine
 10
374.896764
 20
1066.806109
 30
0.0
 11
375.524821
 21
1066.279107
 31
0.0
  0
LWPOLYLINE
  5
10E
330
109
100
AcDbEntity
  8
0
  6
Continuous
 62
     0
370
     0
100
AcDbPolyline
 90
        7
 70
     0
 43
0.0
 10
375.524811
 20
1066.279053
 10
375.515442
 20
1066.247314
 10
375.467316
 20
1066.170532
 10
375.382812
 20
1066.052734
 10
375.267059
 20
1065.901245
 10
375.12851
 20
1065.727051
 10
374.952637
 20
1065.513062
  0
LINE
  5
10F
330
109
100
AcDbEntity
  8
0
  6
Continuous
 62
     0
370
    30
100
AcDbLine
 10
413.598435
 20
1034.331551
 30
0.0
 11
375.524821
 21
1066.279107
 31
0.0
  0
LWPOLYLINE
  5
110
330
109
100
AcDbEntity
  8
0
  6
Continuous
 62
     0
370
    30
100
AcDbPolyline
 90
       25
 70
     0
 43
0.0
 10
427.539551
 20
1022.633545
 10
427.510254
 20
1022.658142
 10
427.422638
 20
1022.731628
 10
427.2771
 20
1022.85376
 10
427.074066
 20
1023.02417
 10
426.814301
 20
1023.242126
 10
426.498993
 20
1023.506714
 10
426.129303
 20
1023.816895
 10
425.706512
 20
1024.171631
 10
425.232452
 20
1024.569458
 10
424.708984
 20
1025.008667
 10
424.138031
 20
1025.487793
 10
423.52182
 20
1026.004883
 10
422.862885
 20
1026.557739
 10
422.163696
 20
1027.144409
 10
421.42691
 20
1027.762695
 10
420.655548
 20
1028.409912
 10
419.8526
 20
1029.08374
 10
419.021057
 20
1029.781372
 10
418.164276
 20
1030.500366
 10
417.285614
 20
1031.237671
 10
416.388428
 20
1031.990479
 10
415.476196
 20
1032.755859
 10
414.552551
 20
1033.530884
 10
413.59845
 20
1034.331543
  0
LINE
  5
111
330
109
100
AcDbEntity
  8
0
  6
Continuous
 62
     0
370
     0
100
AcDbLine
 10
413.02624
 20
907.808177
 30
0.0
 11
413.02624
 21
1033.565506
 31
0.0
  0
LINE
  5
112
330
109
100
AcDbEntity
  8
0
  6
Continuous
 62
     0
370
     0
100
AcDbLine
 10
413.02624
 20
1033.565506
 30
0.0
 11
374.952625
 21
1065.513062
 31
0.0
  0
LINE
  5
113
330
109
100
AcDbEntity
  8
0
  6
Continuous
 62
     0
370
     0
100
AcDbLine
 10
374.952625
 20
907.808177
 30
0.0
 11
413.02624
 21
907.808177
 31
0.0
  0
LINE
  5
114
330
109
100
AcDbEntity
  8
0
  6
Continuous
 62
     0
370
     0
100
AcDbLine
 10
413.02624
 20
907.808177
 30
0.0
 11
427.896763
 21
907.808177
 31
0.0
  0
LINE
  5
115
330
109
100
AcDbEntity
  8
0
  6
Continuous
 62
     0
370
    30
100
AcDbLine
 10
427.896763
 20
907.808177
 30
0.0
 11
427.896763
 21
1021.867521
 31
0.0
  0
LWPOLYLINE
  5
116
330
109
100
AcDbEntity
  8
0
  6
Continuous
 62
     0
370
     0
100
AcDbPolyline
 90
       29
 70
     0
 43
0.0
 10
427.896759
 20
1021.867493
 10
427.867279
 20
1021.89093
 10
427.778778
 20
1021.959167
 10
427.632568
 20
1022.074585
 10
427.430969
 20
1022.233948
 10
427.176239
 20
1022.434448
 10
426.870941
 20
1022.6745
 10
426.517883
 20
1022.952209
 10
426.120422
 20
1023.264893
 10
425.682068
 20
1023.609741
 10
425.206116
 20
1023.984131
 10
424.69574
 20
1024.38562
 10
424.1539
 20
1024.81189
 10
423.583313
 20
1025.260742
 10
422.986572
 20
1025.730225
 10
422.366211
 20
1026.218262
 10
421.724731
 20
1026.722778
 10
421.064667
 20
1027.242065
 10
420.387878
 20
1027.774414
 10
419.696167
 20
1028.318604
 10
418.991241
 20
1028.873169
 10
418.274658
 20
1029.436768
 10
417.547943
 20
1030.008545
 10
416.812592
 20
1030.587036
 10
416.069794
 20
1031.171265
 10
415.32074
 20
1031.760498
 10
414.566559
 20
1032.35376
 10
413.808655
 20
1032.949951
 10
413.026245
 20
1033.565552
  0
ARC
  5
117
330
109
100
AcDbEntity
  8
0
  6
Continuous
 62
     0
370
    30
100
AcDbCircle
 10
426.896763
 20
1021.867521
 30
0.0
 40
0.9999999999994507
100
AcDbArc
 50
0.0
 51
50.0
  0
LWPOLYLINE
  5
118
330
109
100
AcDbEntity
  8
0
  6
Continuous
 62
     0
370
     0
100
AcDbPolyline
 90
        7
 70
     0
 43
0.0
 10
413.59845
 20
1034.331543
 10
413.588837
 20
1034.299438
 10
413.540375
 20
1034.222168
 10
413.455963
 20
1034.104614
 10
413.34079
 20
1033.953857
 10
413.201752
 20
1033.779053
 10
413.026245
 20
1033.565552
  0
LINE
  5
119
330
109
100
AcDbEntity
  8
0
  6
Continuous
 62
     0
370
     0
100
AcDbLine
 10
372.896764
 20
1068.607144
 30
0.0
 11
374.896764
 21
1068.607144
 31
0.0
  0
LINE
  5
11A
330
109
100
AcDbEntity
  8
0
  6
Continuous
 62
     0
370
    30
100
AcDbLine
 10
374.896764
 20
1068.607144
 30
0.0
 11
374.896764
 21
1069.107144
 31
0.0
  0
LINE
  5
11B
330
109
100
AcDbEntity
  8
0
  6
Continuous
 62
     0
370
    30
100
AcDbLine
 10
374.896764
 20
1069.107144
 30
0.0
 11
372.896764
 21
1069.107144
 31
0.0
  0
LINE
  5
11C
330
109
100
AcDbEntity
  8
0
  6
Continuous
 62
     0
370
    30
100
AcDbLine
 10
372.896764
 20
1069.107144
 30
0.0
 11
372.896764
 21
1068.607144
 31
0.0
  0
LINE
  5
11D
330
109
100
AcDbEntity
  8
0
  6
Continuous
 62
     0
370
    30
100
AcDbLine
 10
374.896764
 20
905.007144
 30
0.0
 11
374.896764
 21
1068.607144
 31
0.0
  0
LINE
  5
11E
330
109
100
AcDbEntity
  8
0
  6
Continuous
 62
     0
370
    30
100
AcDbLine
 10
372.896764
 20
1068.607144
 30
0.0
 11
372.896764
 21
905.007144
 31
0.0
  0
LINE
  5
11F
330
109
100
AcDbEntity
  8
0
  6
Continuous
 62
     0
370
     0
100
AcDbLine
 10
372.896764
 20
905.007144
 30
0.0
 11
374.896764
 21
905.007144
 31
0.0
  0
LINE
  5
120
330
109
100
AcDbEntity
  8
0
  6
Continuous
 62
     0
370
    30
100
AcDbLine
 10
372.896764
 20
905.007144
 30
0.0
 11
372.896764
 21
904.507144
 31
0.0
  0
LINE
  5
121
330
109
100
AcDbEntity
  8
0
  6
Continuous
 62
     0
370
    30
100
AcDbLine
 10
374.896764
 20
904.507144
 30
0.0
 11
374.896764
 21
905.007144
 31
0.0
  0
ELLIPSE
  5
122
330
109
100
AcDbEntity
  8
0
  6
Continuous
 62
     0
370
     0
100
AcDbEllipse
 10
412.955648
 20
907.808177
 30
0.0
 11
3.130311600626609E-16
 21
-0.9999999999999968
 31
0.0
210
0.0
220
0.0
230
1.0
 40
0.070592
 41
-0.0000000000000044
 42
1.570796326794897
  0
LINE
  5
123
330
109
100
AcDbEntity
  8
0
  6
Continuous
 62
     0
370
    30
100
AcDbLine
 10
374.896764
 20
906.808177
 30
0.0
 11
412.955648
 21
906.808177
 31
0.0
  0
LWPOLYLINE
  5
124
330
109
100
AcDbEntity
  8
0
  6
Continuous
 62
     0
370
    30
100
AcDbPolyline
 90
       22
 70
     0
 43
0.0
 10
426.896759
 20
906.808167
 10
426.858551
 20
906.808167
 10
426.744263
 20
906.808167
 10
426.554413
 20
906.808167
 10
426.289886
 20
906.808167
 10
425.95224
 20
906.808167
 10
425.542969
 20
906.808167
 10
425.06427
 20
906.808167
 10
424.518585
 20
906.808167
 10
423.90863
 20
906.808167
 10
423.237579
 20
906.808167
 10
422.50882
 20
906.808167
 10
421.726013
 20
906.808167
 10
420.893219
 20
906.808167
 10
420.014587
 20
906.808167
 10
419.094666
 20
906.808167
 10
418.138214
 20
906.808167
 10
417.150024
 20
906.808167
 10
416.134979
 20
906.808167
 10
415.097931
 20
906.808167
 10
414.044647
 20
906.808167
 10
412.955658
 20
906.808167
  0
ARC
  5
125
330
109
100
AcDbEntity
  8
0
  6
Continuous
 62
     0
370
    30
100
AcDbCircle
 10
426.896763
 20
907.808177
 30
0.0
 40
1.000000000000508
100
AcDbArc
 50
270.0
 51
360.0
  0
LINE
  5
126
330
109
100
AcDbEntity
  8
0
  6
Continuous
 62
     0
370
    30
100
AcDbLine
 10
372.896764
 20
904.507144
 30
0.0
 11
374.896764
 21
904.507144
 31
0.0
  0
LINE
  5
127
330
109
100
AcDbEntity
  8
0
  6
Continuous
 62
     0
370
     0
100
AcDbLine
 10
401.896763
 20
882.328026
 30
0.0
 11
411.896763
 21
882.328026
 31
0.0
  0
LINE
  5
128
330
109
100
AcDbEntity
  8
0
  6
Continuous
 62
     0
370
     0
100
AcDbLine
 10
411.896763
 20
882.328026
 30
0.0
 11
421.896763
 21
882.328026
 31
0.0
  0
LWPOLYLINE
  5
129
330
109
100
AcDbEntity
  8
0
  6
Continuous
 62
     0
370
     0
100
AcDbPolyline
 90
       19
 70
     0
 43
0.0
 10
442.594849
 20
842.334106
 10
442.594299
 20
842.365906
 10
442.59256
 20
842.464966
 10
442.5896
 20
842.636047
 10
442.585297
 20
842.882812
 10
442.57962
 20
843.207214
 10
442.572601
 20
843.60968
 10
442.56424
 20
844.088562
 10
442.554596
 20
844.640259
 10
442.543793
 20
845.259033
 10
442.531952
 20
845.937622
 10
442.519226
 20
846.666992
 10
442.505798
 20
847.437195
 10
442.491821
 20
848.237427
 10
442.477509
 20
849.056946
 10
442.463074
 20
849.884888
 10
442.448639
 20
850.711243
 10
442.434387
 20
851.526978
 10
442.420349
 20
852.332581
  0
LINE
  5
12A
330
109
100
AcDbEntity
  8
0
  6
Continuous
 62
     0
370
     0
100
AcDbLine
 10
442.420335
 20
852.332595
 30
0.0
 11
442.245811
 21
862.331072
 31
0.0
  0
LINE
  5
12B
330
109
100
AcDbEntity
  8
0
  6
Continuous
 62
     0
370
     0
100
AcDbLine
 10
442.420335
 20
852.332595
 30
0.0
 11
719.809888
 21
857.174447
 31
0.0
  0
LINE
  5
12C
330
109
100
AcDbEntity
  8
0
  6
Continuous
 62
     0
370
    30
100
AcDbLine
 10
719.635379
 20
867.172034
 30
0.0
 11
719.809888
 21
857.174447
 31
0.0
  0
LINE
  5
12D
330
109
100
AcDbEntity
  8
0
  6
Continuous
 62
     0
370
    30
100
AcDbLine
 10
719.809888
 20
857.174447
 30
0.0
 11
719.984397
 21
847.176823
 31
0.0
  0
LINE
  5
12E
330
109
100
AcDbEntity
  8
0
  6
Continuous
 62
     0
370
    30
100
AcDbLine
 10
745.677835
 20
925.636569
 30
0.0
 11
800.125907
 21
926.586987
 31
0.0
  0
ARC
  5
12F
330
109
100
AcDbEntity
  8
0
  6
Continuous
 62
     0
370
    30
100
AcDbCircle
 10
745.730193
 20
922.637026
 30
0.0
 40
2.999999999996468
100
AcDbArc
 50
91.000025
 51
176.000025
  0
LINE
  5
130
330
109
100
AcDbEntity
  8
0
  6
Continuous
 62
     0
370
     0
100
AcDbLine
 10
742.737501
 20
922.846294
 30
0.0
 11
803.161831
 21
923.901031
 31
0.0
  0
LWPOLYLINE
  5
131
330
109
100
AcDbEntity
  8
0
  6
Continuous
 62
     0
370
    30
100
AcDbPolyline
 90
       48
 70
     0
 43
0.0
 10
739.253052
 20
873.016418
 10
739.266541
 20
872.981018
 10
739.306458
 20
872.874756
 10
739.372314
 20
872.698425
 10
739.462646
 20
872.453613
 10
739.575745
 20
872.141846
 10
739.708984
 20
871.764893
 10
739.85968
 20
871.324768
 10
740.024536
 20
870.823914
 10
740.200256
 20
870.264404
 10
740.38385
 20
869.64801
 10
740.571472
 20
868.977417
 10
740.759033
 20
868.255798
 10
740.942322
 20
867.486206
 10
741.117188
 20
866.671204
 10
741.279541
 20
865.813293
 10
741.425659
 20
864.915771
 10
741.551819
 20
863.9823
 10
741.654236
 20
863.016602
 10
741.728821
 20
862.022461
 10
741.772766
 20
861.004944
 10
741.784607
 20
859.97052
 10
741.763062
 20
858.92572
 10
741.706848
 20
857.877136
 10
741.616638
 20
856.830444
 10
741.49469
 20
855.790771
 10
741.342773
 20
854.763
 10
741.162659
 20
853.751648
 10
740.957275
 20
852.760986
 10
740.730408
 20
851.79541
 10
740.485962
 20
850.858826
 10
740.227356
 20
849.953979
 10
739.958252
 20
849.08374
 10
739.682495
 20
848.25061
 10
739.403809
 20
847.457336
 10
739.125916
 20
846.706299
 10
738.852478
 20
846.000061
 10
738.587097
 20
845.341431
 10
738.333191
 20
844.732971
 10
738.094238
 20
844.177551
 10
737.873718
 20
843.677979
 10
737.674744
 20
843.237183
 10
737.500366
 20
842.858337
 10
737.353394
 20
842.544189
 10
737.236511
 20
842.296814
 10
737.151733
 20
842.118164
 10
737.100586
 20
842.010071
 10
737.082397
 20
841.973816
  0
LINE
  5
132
330
109
100
AcDbEntity
  8
0
  6
Continuous
 62
     0
370
    30
100
AcDbLine
 10
742.737501
 20
922.846294
 30
0.0
 11
739.253079
 21
873.016424
 31
0.0
  0
LINE
  5
133
330
109
100
AcDbEntity
  8
0
  6
Continuous
 62
     0
370
    30
100
AcDbLine
 10
737.082381
 20
841.973811
 30
0.0
 11
729.624985
 21
735.327415
 31
0.0
  0
LINE
  5
134
330
109
100
AcDbEntity
  8
0
  6
Continuous
 62
     0
370
    30
100
AcDbLine
 10
729.22445
 20
871.841312
 30
0.0
 11
730.342225
 21
871.86072
 31
0.0
  0
ARC
  5
135
330
109
100
AcDbEntity
  8
0
  6
Continuous
 62
     0
370
    30
100
AcDbCircle
 10
730.830903
 20
843.864985
 30
0.0
 40
1.500000000026397
100
AcDbArc
 50
181.000025
 51
222.81034
  0
LWPOLYLINE
  5
136
330
109
100
AcDbEntity
  8
0
  6
Continuous
 62
     0
370
    30
100
AcDbPolyline
 90
       43
 70
     0
 43
0.0
 10
729.331116
 20
843.838806
 10
729.330566
 20
843.870239
 10
729.328857
 20
843.967651
 10
729.325928
 20
844.135315
 10
729.321716
 20
844.37677
 10
729.316223
 20
844.694336
 10
729.309326
 20
845.089355
 10
729.301086
 20
845.561768
 10
729.291504
 20
846.110046
 10
729.28064
 20
846.73114
 10
729.268616
 20
847.420776
 10
729.255493
 20
848.173035
 10
729.241394
 20
848.980957
 10
729.22644
 20
849.836548
 10
729.210815
 20
850.731201
 10
729.194702
 20
851.65564
 10
729.178223
 20
852.600586
 10
729.161499
 20
853.556946
 10
729.144775
 20
854.515869
 10
729.128113
 20
855.469177
 10
729.111694
 20
856.409363
 10
729.095642
 20
857.330017
 10
729.07959
 20
858.250305
 10
729.063171
 20
859.190247
 10
729.046509
 20
860.143433
 10
729.029785
 20
861.102295
 10
729.013123
 20
862.058777
 10
728.996582
 20
863.003967
 10
728.980469
 20
863.928772
 10
728.964844
 20
864.823914
 10
728.94989
 20
865.680176
 10
728.935791
 20
866.488892
 10
728.922607
 20
867.242004
 10
728.910583
 20
867.932556
 10
728.899719
 20
868.554749
 10
728.890137
 20
869.104126
 10
728.881836
 20
869.577698
 10
728.874939
 20
869.973877
 10
728.869385
 20
870.292603
 10
728.865112
 20
870.535095
 10
728.862183
 20
870.703857
 10
728.860474
 20
870.802307
 10
728.859924
 20
870.834717
  0
LWPOLYLINE
  5
137
330
109
100
AcDbEntity
  8
0
  6
Continuous
 62
     0
370
    30
100
AcDbPolyline
 90
       16
 70
     0
 43
0.0
 10
730.848328
 20
842.865112
 10
730.586365
 20
842.860596
 10
730.390076
 20
842.857117
 10
730.244568
 20
842.854614
 10
730.132385
 20
842.852661
 10
730.043335
 20
842.851074
 10
729.971436
 20
842.849792
 10
729.912781
 20
842.848816
 10
729.865234
 20
842.847961
 10
729.826721
 20
842.84729
 10
729.795776
 20
842.846741
 10
729.771362
 20
842.846558
 10
729.752869
 20
842.846497
 10
729.740173
 20
842.846313
 10
729.732971
 20
842.845886
 10
729.730469
 20
842.845642
  0
LINE
  5
138
330
109
100
AcDbEntity
  8
0
  6
Continuous
 62
     0
370
     0
100
AcDbLine
 10
730.342225
 20
871.86072
 30
0.0
 11
730.848358
 21
842.865138
 31
0.0
  0
LINE
  5
139
330
109
100
AcDbEntity
  8
0
  6
Continuous
 62
     0
370
    30
100
AcDbLine
 10
736.832507
 20
872.474088
 30
0.0
 11
736.841233
 21
871.974164
 31
0.0
  0
LINE
  5
13A
330
109
100
AcDbEntity
  8
0
  6
Continuous
 62
     0
370
    30
100
AcDbLine
 10
736.841235
 20
871.974164
 30
0.0
 11
730.342225
 21
871.86072
 31
0.0
  0
LINE
  5
13B
330
109
100
AcDbEntity
  8
0
  6
Continuous
 62
     0
370
    30
100
AcDbLine
 10
730.848358
 20
842.865138
 30
0.0
 11
737.347368
 21
842.978581
 31
0.0
  0
LINE
  5
13C
330
109
100
AcDbEntity
  8
0
  6
Continuous
 62
     0
370
    30
100
AcDbLine
 10
737.347366
 20
842.978581
 30
0.0
 11
737.354893
 21
842.547339
 31
0.0
  0
LINE
  5
13D
330
109
100
AcDbEntity
  8
0
  6
Continuous
 62
     0
370
    30
100
AcDbLine
 10
723.235078
 20
851.133524
 30
0.0
 11
723.023588
 21
863.249467
 31
0.0
  0
LINE
  5
13E
330
109
100
AcDbEntity
  8
0
  6
Continuous
 62
     0
370
    30
100
AcDbLine
 10
723.023588
 20
863.249467
 30
0.0
 11
723.022153
 21
863.331665
 31
0.0
  0
LINE
  5
13F
330
109
100
AcDbEntity
  8
0
  6
Continuous
 62
     0
370
    30
100
AcDbLine
 10
811.016719
 20
723.746153
 30
0.0
 11
728.148932
 21
722.299656
 31
0.0
  0
LWPOLYLINE
  5
140
330
109
100
AcDbEntity
  8
0
  6
Continuous
 62
     0
370
    30
100
AcDbPolyline
 90
       22
 70
     0
 43
0.0
 10
824.740662
 20
723.985718
 10
824.704407
 20
723.985107
 10
824.595825
 20
723.983154
 10
824.415466
 20
723.980042
 10
824.164185
 20
723.975647
 10
823.843079
 20
723.970032
 10
823.453735
 20
723.963257
 10
822.997803
 20
723.955261
 10
822.477356
 20
723.946228
 10
821.894531
 20
723.936035
 10
821.251831
 20
723.924805
 10
820.551941
 20
723.912598
 10
819.797607
 20
723.899414
 10
818.991821
 20
723.885376
 10
818.137634
 20
723.870483
 10
817.23822
 20
723.854736
 10
816.296814
 20
723.838318
 10
815.316589
 20
723.821228
 10
814.300903
 20
723.803467
 10
813.252991
 20
723.785217
 10
812.176025
 20
723.766418
 10
811.016724
 20
723.746155
  0
LINE
  5
141
330
109
100
AcDbEntity
  8
0
  6
Continuous
 62
     0
370
    30
100
AcDbLine
 10
809.632832
 20
736.723977
 30
0.0
 11
729.538336
 21
735.325889
 31
0.0
  0
LWPOLYLINE
  5
142
330
109
100
AcDbEntity
  8
0
  6
Continuous
 62
     0
370
    30
100
AcDbPolyline
 90
       21
 70
     0
 43
0.0
 10
822.897461
 20
736.955505
 10
822.858704
 20
736.954834
 10
822.742676
 20
736.95282
 10
822.549988
 20
736.949463
 10
822.281616
 20
736.944763
 10
821.938965
 20
736.938782
 10
821.523804
 20
736.931519
 10
821.038086
 20
736.923035
 10
820.484192
 20
736.913391
 10
819.864685
 20
736.902588
 10
819.182556
 20
736.890686
 10
818.440735
 20
736.877747
 10
817.642517
 20
736.86377
 10
816.791321
 20
736.848938
 10
815.890686
 20
736.833191
 10
814.944092
 20
736.816711
 10
813.955322
 20
736.799438
 10
812.92804
 20
736.781494
 10
811.865784
 20
736.762939
 10
810.772339
 20
736.743896
 10
809.632812
 20
736.723999
  0
LINE
  5
143
330
109
100
AcDbEntity
  8
0
  6
Continuous
 62
     0
370
     0
100
AcDbLine
 10
810.543097
 20
735.609502
 30
0.0
 11
824.161265
 21
735.847214
 31
0.0
  0
LINE
  5
144
330
109
100
AcDbEntity
  8
0
  6
Continuous
 62
     0
370
     0
100
AcDbLine
 10
728.314006
 20
734.174153
 30
0.0
 11
810.543097
 21
735.609502
 31
0.0
  0
LINE
  5
145
330
109
100
AcDbEntity
  8
0
  6
Continuous
 62
     0
370
     0
100
AcDbLine
 10
811.502033
 20
724.521834
 30
0.0
 11
825.423946
 21
724.764848
 31
0.0
  0
LINE
  5
146
330
109
100
AcDbEntity
  8
0
  6
Continuous
 62
     0
370
     0
100
AcDbLine
 10
727.438873
 20
723.05447
 30
0.0
 11
811.502033
 21
724.521834
 31
0.0
  0
ARC
  5
147
330
109
100
AcDbEntity
  8
0
  6
Continuous
 62
     0
370
    30
100
AcDbCircle
 10
824.728446
 20
724.685606
 30
0.0
 40
0.7000001354713125
100
AcDbArc
 50
271.000037
 51
6.500013
  0
LWPOLYLINE
  5
148
330
109
100
AcDbEntity
  8
0
  6
Continuous
 62
     0
370
    30
100
AcDbPolyline
 90
       22
 70
     0
 43
0.0
 10
728.148804
 20
722.299683
 10
728.09259
 20
722.300842
 10
728.038513
 20
722.306458
 10
727.984131
 20
722.316406
 10
727.93042
 20
722.330627
 10
727.878113
 20
722.34906
 10
727.827393
 20
722.371582
 10
727.778625
 20
722.398071
 10
727.732178
 20
722.428284
 10
727.688171
 20
722.462158
 10
727.647034
 20
722.499329
 10
727.608948
 20
722.539673
 10
727.574219
 20
722.582947
 10
727.542969
 20
722.628784
 10
727.515503
 20
722.676941
 10
727.491882
 20
722.727173
 10
727.472351
 20
722.779053
 10
727.45697
 20
722.832397
 10
727.445923
 20
722.886841
 10
727.439148
 20
722.942017
 10
727.436768
 20
722.997437
 10
727.438843
 20
723.054443
  0
LINE
  5
149
330
109
100
AcDbEntity
  8
0
  6
Continuous
 62
     0
370
    30
100
AcDbLine
 10
824.161265
 20
735.847214
 30
0.0
 11
825.423946
 21
724.764848
 31
0.0
  0
LINE
  5
14A
330
109
100
AcDbEntity
  8
0
  6
Continuous
 62
     0
370
    30
100
AcDbLine
 10
727.438873
 20
723.05447
 30
0.0
 11
728.314006
 21
734.174153
 31
0.0
  0
LWPOLYLINE
  5
14B
330
109
100
AcDbEntity
  8
0
  6
Continuous
 62
     0
370
    30
100
AcDbPolyline
 90
       26
 70
     0
 43
0.0
 10
729.538147
 20
735.325867
 10
729.462646
 20
735.322388
 10
729.391724
 20
735.314636
 10
729.31897
 20
735.302551
 10
729.247009
 20
735.286194
 10
729.176086
 20
735.265625
 10
729.106689
 20
735.240906
 10
729.038818
 20
735.212158
 10
728.972717
 20
735.179443
 10
728.908691
 20
735.142883
 10
728.846924
 20
735.1026
 10
728.787659
 20
735.058777
 10
728.731079
 20
735.011536
 10
728.677368
 20
734.96106
 10
728.626709
 20
734.907471
 10
728.579285
 20
734.850952
 10
728.535339
 20
734.791809
 10
728.494934
 20
734.730103
 10
728.458191
 20
734.666199
 10
728.425354
 20
734.60022
 10
728.396423
 20
734.532349
 10
728.371521
 20
734.462891
 10
728.35083
 20
734.392029
 10
728.33429
 20
734.320129
 10
728.32196
 20
734.247437
 10
728.314026
 20
734.174133
  0
LWPOLYLINE
  5
14C
330
109
100
AcDbEntity
  8
0
  6
Continuous
 62
     0
370
    30
100
AcDbPolyline
 90
       26
 70
     0
 43
0.0
 10
822.897644
 20
736.955505
 10
822.973267
 20
736.954651
 10
823.044434
 20
736.949402
 10
823.117554
 20
736.93988
 10
823.190002
 20
736.926025
 10
823.261597
 20
736.907959
 10
823.331848
 20
736.885681
 10
823.400696
 20
736.859314
 10
823.467896
 20
736.828918
 10
823.533142
 20
736.794617
 10
823.596252
 20
736.756531
 10
823.657043
 20
736.714783
 10
823.715271
 20
736.669556
 10
823.770691
 20
736.620911
 10
823.823181
 20
736.569153
 10
823.872498
 20
736.514343
 10
823.918518
 20
736.456726
 10
823.96106
 20
736.396545
 10
824.0
 20
736.333923
 10
824.035156
 20
736.269165
 10
824.066406
 20
736.202332
 10
824.093689
 20
736.133789
 10
824.116882
 20
736.06366
 10
824.135925
 20
735.992371
 10
824.150757
 20
735.920227
 10
824.161255
 20
735.847229
  0
ARC
  5
14D
330
109
100
AcDbEntity
  8
0
  6
Continuous
 62
     0
370
    30
100
AcDbCircle
 10
771.016201
 20
1034.104349
 30
0.0
 40
314.4990319959117
100
AcDbArc
 50
262.456398
 51
279.543651
  0
ARC
  5
14E
330
109
100
AcDbEntity
  8
0
  6
Continuous
 62
     0
370
    30
100
AcDbCircle
 10
733.807846
 20
857.419045
 30
0.0
 40
12.30004886534003
100
AcDbArc
 50
210.731523
 51
248.46965
  0
ARC
  5
14F
330
109
100
AcDbEntity
  8
0
  6
Continuous
 62
     0
370
    30
100
AcDbCircle
 10
733.807844
 20
857.418971
 30
0.0
 40
12.30004384286084
100
AcDbArc
 50
113.532506
 51
151.268535
  0
LINE
  5
150
330
109
100
AcDbEntity
  8
0
  6
Continuous
 62
     0
370
    30
100
AcDbLine
 10
719.703483
 20
863.273736
 30
0.0
 11
723.022153
 21
863.331665
 31
0.0
  0
LINE
  5
151
330
109
100
AcDbEntity
  8
0
  6
Continuous
 62
     0
370
    30
100
AcDbLine
 10
719.916408
 20
851.075595
 30
0.0
 11
723.235078
 21
851.133524
 31
0.0
  0
LINE
  5
152
330
109
100
AcDbEntity
  8
0
  6
Continuous
 62
     0
370
    30
100
AcDbLine
 10
739.438441
 20
872.519576
 30
0.0
 11
736.832507
 21
872.474088
 31
0.0
  0
ARC
  5
153
330
109
100
AcDbEntity
  8
0
  6
Continuous
 62
     0
370
    30
100
AcDbCircle
 10
730.3597
 20
870.860864
 30
0.0
 40
1.500023196122173
100
AcDbArc
 50
139.18268
 51
180.999686
  0
LINE
  5
154
330
109
100
AcDbEntity
  8
0
  6
Continuous
 62
     0
370
    30
100
AcDbLine
 10
803.161831
 20
923.901031
 30
0.0
 11
822.810835
 21
736.95402
 31
0.0
  0
LWPOLYLINE
  5
155
330
109
100
AcDbEntity
  8
0
  6
Continuous
 62
     0
370
    30
100
AcDbPolyline
 90
        2
 70
     0
 43
0.0
 10
800.137024
 20
926.587158
 10
800.124695
 20
926.586975
  0
ARC
  5
156
330
109
100
AcDbEntity
  8
0
  6
Continuous
 62
     0
370
    30
100
AcDbCircle
 10
800.178052
 20
923.587191
 30
0.0
 40
3.000238092835933
100
AcDbArc
 50
6.004403
 51
90.783805
  0
LINE
  5
157
330
109
100
AcDbEntity
  8
0
  6
Continuous
 62
     0
370
    30
100
AcDbLine
 10
719.984411
 20
847.17602
 30
0.0
 11
442.594859
 21
842.334097
 31
0.0
  0
LINE
  5
158
330
109
100
AcDbEntity
  8
0
  6
Continuous
 62
     0
370
    30
100
AcDbLine
 10
719.635364
 20
867.172924
 30
0.0
 11
442.245811
 21
862.331072
 31
0.0
  0
ARC
  5
159
330
109
100
AcDbEntity
  8
0
  6
Continuous
 62
     0
370
    30
100
AcDbCircle
 10
441.896764
 20
882.328026
 30
0.0
 40
40.00000071288448
100
AcDbArc
 50
180.000001
 51
270.999999
  0
ARC
  5
15A
330
109
100
AcDbEntity
  8
0
  6
Continuous
 62
     0
370
    30
100
AcDbCircle
 10
441.896763
 20
882.328026
 30
0.0
 40
20.00000048861384
100
AcDbArc
 50
180.000001
 51
270.999999
  0
LINE
  5
15B
330
109
100
AcDbEntity
  8
0
  6
Continuous
 62
     0
370
    30
100
AcDbLine
 10
401.896763
 20
882.328026
 30
0.0
 11
401.896763
 21
906.808177
 31
0.0
  0
LINE
  5
15C
330
109
100
AcDbEntity
  8
0
  6
Continuous
 62
     0
370
    30
100
AcDbLine
 10
421.896763
 20
882.328025
 30
0.0
 11
421.896763
 21
906.808177
 31
0.0
  0
ENDBLK
  5
15E
330
109
100
AcDbEntity
  8
0
100
AcDbBlockEnd
  0
BLOCK
  5
1B4
330
160
100
AcDbEntity
  8
0
100
AcDbBlockBegin
  2
d
 70
     0
 10
-102.502075
 20
0.0
 30
0.0
  3
d
  1

  0
LINE
  5
161
330
160
100
AcDbEntity
  8
0
  6
Continuous
 62
     0
370
     0
100
AcDbLine
 10
-156.520523
 20
1065.513017
 30
0.0
 11
-156.520523
 21
907.808131
 31
0.0
  0
LINE
  5
162
330
160
100
AcDbEntity
  8
0
  6
Continuous
 62
     0
370
     0
100
AcDbLine
 10
-156.520523
 20
907.808131
 30
0.0
 11
-156.464661
 21
907.762471
 31
0.0
  0
LINE
  5
163
330
160
100
AcDbEntity
  8
0
  6
Continuous
 62
     0
370
     0
100
AcDbLine
 10
-156.464661
 20
1065.528641
 30
0.0
 11
-156.520523
 21
1065.513017
 31
0.0
  0
LWPOLYLINE
  5
164
330
160
100
AcDbEntity
  8
0
  6
Continuous
 62
     0
370
     0
100
AcDbPolyline
 90
        7
 70
     0
 43
0.0
 10
-157.092712
 20
1066.279053
 10
-157.083344
 20
1066.247314
 10
-157.035217
 20
1066.170532
 10
-156.950699
 20
1066.052734
 10
-156.834946
 20
1065.901245
 10
-156.696396
 20
1065.727051
 10
-156.520523
 20
1065.513062
  0
LINE
  5
165
330
160
100
AcDbEntity
  8
0
  6
Continuous
 62
     0
370
    30
100
AcDbLine
 10
-156.464661
 20
1066.806063
 30
0.0
 11
-157.092718
 21
1066.279061
 31
0.0
  0
LINE
  5
166
330
160
100
AcDbEntity
  8
0
  6
Continuous
 62
     0
370
    30
100
AcDbLine
 10
-195.166333
 20
1034.331505
 30
0.0
 11
-209.107448
 21
1022.63352
 31
0.0
  0
LINE
  5
167
330
160
100
AcDbEntity
  8
0
  6
Continuous
 62
     0
370
    30
100
AcDbLine
 10
-157.092718
 20
1066.279061
 30
0.0
 11
-195.166333
 21
1034.331505
 31
0.0
  0
LINE
  5
168
330
160
100
AcDbEntity
  8
0
  6
Continuous
 62
     0
370
    30
100
AcDbLine
 10
-209.464661
 20
907.808131
 30
0.0
 11
-209.464661
 21
1021.867475
 31
0.0
  0
LINE
  5
169
330
160
100
AcDbEntity
  8
0
  6
Continuous
 62
     0
370
     0
100
AcDbLine
 10
-209.464661
 20
907.808131
 30
0.0
 11
-194.594138
 21
907.808131
 31
0.0
  0
LINE
  5
16A
330
160
100
AcDbEntity
  8
0
  6
Continuous
 62
     0
370
     0
100
AcDbLine
 10
-194.594138
 20
907.808131
 30
0.0
 11
-194.594138
 21
1033.565461
 31
0.0
  0
LWPOLYLINE
  5
16B
330
160
100
AcDbEntity
  8
0
  6
Continuous
 62
     0
370
     0
100
AcDbPolyline
 90
       29
 70
     0
 43
0.0
 10
-194.594131
 20
1033.56543
 10
-195.354431
 20
1032.967407
 10
-196.112396
 20
1032.371094
 10
-196.866699
 20
1031.77771
 10
-197.615936
 20
1031.188354
 10
-198.358917
 20
1030.603882
 10
-199.094528
 20
1030.025269
 10
-199.821503
 20
1029.453369
 10
-200.538391
 20
1028.889404
 10
-201.243683
 20
1028.334595
 10
-201.935806
 20
1027.790039
 10
-202.613052
 20
1027.257324
 10
-203.273651
 20
1026.737671
 10
-203.91568
 20
1026.232666
 10
-204.536697
 20
1025.744141
 10
-205.134171
 20
1025.27417
 10
-205.705566
 20
1024.824585
 10
-206.24826
 20
1024.397705
 10
-206.759613
 20
1023.995422
 10
-207.236618
 20
1023.620239
 10
-207.676117
 20
1023.274475
 10
-208.074799
 20
1022.960815
 10
-208.429214
 20
1022.682068
 10
-208.735947
 20
1022.440857
 10
-208.992172
 20
1022.239197
 10
-209.195374
 20
1022.078552
 10
-209.343216
 20
1021.961853
 10
-209.433441
 20
1021.892212
 10
-209.464661
 20
1021.867493
  0
LINE
  5
16C
330
160
100
AcDbEntity
  8
0
  6
Continuous
 62
     0
370
     0
100
AcDbLine
 10
-156.520523
 20
1065.513017
 30
0.0
 11
-194.594138
 21
1033.565461
 31
0.0
  0
LINE
  5
16D
330
160
100
AcDbEntity
  8
0
  6
Continuous
 62
     0
370
     0
100
AcDbLine
 10
-194.594138
 20
907.808131
 30
0.0
 11
-156.520523
 21
907.808131
 31
0.0
  0
ELLIPSE
  5
16E
330
160
100
AcDbEntity
  8
0
  6
Continuous
 62
     0
370
     0
100
AcDbEllipse
 10
-194.523545
 20
1033.565461
 30
0.0
 11
-0.64278761085338
 21
0.7660444421398811
 31
0.0
210
0.0
220
0.0
230
1.0
 40
0.054133
 41
-0.0000000281384089
 42
1.525404872633691
  0
ARC
  5
16F
330
160
100
AcDbEntity
  8
0
  6
Continuous
 62
     0
370
    30
100
AcDbCircle
 10
-208.464661
 20
1021.867475
 30
0.0
 40
0.9999999999994507
100
AcDbArc
 50
130.0
 51
180.0
  0
LINE
  5
170
330
160
100
AcDbEntity
  8
0
  6
Continuous
 62
     0
370
    30
100
AcDbLine
 10
-154.464662
 20
1069.107098
 30
0.0
 11
-156.464662
 21
1069.107098
 31
0.0
  0
LINE
  5
171
330
160
100
AcDbEntity
  8
0
  6
Continuous
 62
     0
370
    30
100
AcDbLine
 10
-156.464662
 20
1069.107098
 30
0.0
 11
-156.464662
 21
1068.607098
 31
0.0
  0
LINE
  5
172
330
160
100
AcDbEntity
  8
0
  6
Continuous
 62
     0
370
     0
100
AcDbLine
 10
-156.464662
 20
1068.607098
 30
0.0
 11
-154.464662
 21
1068.607098
 31
0.0
  0
LINE
  5
173
330
160
100
AcDbEntity
  8
0
  6
Continuous
 62
     0
370
    30
100
AcDbLine
 10
-154.464662
 20
1068.607098
 30
0.0
 11
-154.464662
 21
1069.107098
 31
0.0
  0
LINE
  5
174
330
160
100
AcDbEntity
  8
0
  6
Continuous
 62
     0
370
    30
100
AcDbLine
 10
-154.464662
 20
905.007098
 30
0.0
 11
-154.464662
 21
1068.607098
 31
0.0
  0
LINE
  5
175
330
160
100
AcDbEntity
  8
0
  6
Continuous
 62
     0
370
    30
100
AcDbLine
 10
-156.464662
 20
1068.607098
 30
0.0
 11
-156.464662
 21
905.007098
 31
0.0
  0
LINE
  5
176
330
160
100
AcDbEntity
  8
0
  6
Continuous
 62
     0
370
     0
100
AcDbLine
 10
-156.464662
 20
905.007098
 30
0.0
 11
-154.464662
 21
905.007098
 31
0.0
  0
LINE
  5
177
330
160
100
AcDbEntity
  8
0
  6
Continuous
 62
     0
370
    30
100
AcDbLine
 10
-154.464662
 20
904.507098
 30
0.0
 11
-154.464662
 21
905.007098
 31
0.0
  0
LINE
  5
178
330
160
100
AcDbEntity
  8
0
  6
Continuous
 62
     0
370
    30
100
AcDbLine
 10
-156.464662
 20
905.007098
 30
0.0
 11
-156.464662
 21
904.507098
 31
0.0
  0
ELLIPSE
  5
179
330
160
100
AcDbEntity
  8
0
  6
Continuous
 62
     0
370
     0
100
AcDbEllipse
 10
-194.523545
 20
907.808131
 30
0.0
 11
2.643374240529145E-16
 21
1.0
 31
0.0
210
0.0
220
0.0
230
1.0
 40
0.070592
 41
1.570796326794897
 42
3.141592653589797
  0
LINE
  5
17A
330
160
100
AcDbEntity
  8
0
  6
Continuous
 62
     0
370
    30
100
AcDbLine
 10
-194.523545
 20
906.808131
 30
0.0
 11
-156.464661
 21
906.808131
 31
0.0
  0
ARC
  5
17B
330
160
100
AcDbEntity
  8
0
  6
Continuous
 62
     0
370
    30
100
AcDbCircle
 10
-208.464661
 20
907.808131
 30
0.0
 40
1.000000000000508
100
AcDbArc
 50
180.0
 51
270.0
  0
LINE
  5
17C
330
160
100
AcDbEntity
  8
0
  6
Continuous
 62
     0
370
    30
100
AcDbLine
 10
-194.523545
 20
906.808131
 30
0.0
 11
-208.464661
 21
906.808131
 31
0.0
  0
LINE
  5
17D
330
160
100
AcDbEntity
  8
0
  6
Continuous
 62
     0
370
    30
100
AcDbLine
 10
-156.464662
 20
904.507098
 30
0.0
 11
-154.464662
 21
904.507098
 31
0.0
  0
LINE
  5
17E
330
160
100
AcDbEntity
  8
0
  6
Continuous
 62
     0
370
     0
100
AcDbLine
 10
-193.464661
 20
882.32798
 30
0.0
 11
-183.464661
 21
882.32798
 31
0.0
  0
LINE
  5
17F
330
160
100
AcDbEntity
  8
0
  6
Continuous
 62
     0
370
     0
100
AcDbLine
 10
-203.464661
 20
882.32798
 30
0.0
 11
-193.464661
 21
882.32798
 31
0.0
  0
LINE
  5
180
330
160
100
AcDbEntity
  8
0
  6
Continuous
 62
     0
370
     0
100
AcDbLine
 10
-223.988233
 20
852.332549
 30
0.0
 11
-224.162757
 21
842.334072
 31
0.0
  0
LINE
  5
181
330
160
100
AcDbEntity
  8
0
  6
Continuous
 62
     0
370
     0
100
AcDbLine
 10
-223.813709
 20
862.331026
 30
0.0
 11
-223.988233
 21
852.332549
 31
0.0
  0
LINE
  5
182
330
160
100
AcDbEntity
  8
0
  6
Continuous
 62
     0
370
    30
100
AcDbLine
 10
-501.377786
 20
857.174401
 30
0.0
 11
-501.203277
 21
867.171988
 31
0.0
  0
LINE
  5
183
330
160
100
AcDbEntity
  8
0
  6
Continuous
 62
     0
370
     0
100
AcDbLine
 10
-501.377786
 20
857.174401
 30
0.0
 11
-223.988233
 21
852.332549
 31
0.0
  0
LWPOLYLINE
  5
184
330
160
100
AcDbEntity
  8
0
  6
Continuous
 62
     0
370
    30
100
AcDbPolyline
 90
       19
 70
     0
 43
0.0
 10
-501.552307
 20
847.176758
 10
-501.551636
 20
847.21405
 10
-501.549652
 20
847.327393
 10
-501.546387
 20
847.51593
 10
-501.541809
 20
847.777649
 10
-501.536011
 20
848.110291
 10
-501.528992
 20
848.51178
 10
-501.520844
 20
848.97937
 10
-501.511597
 20
849.509094
 10
-501.501312
 20
850.096924
 10
-501.490112
 20
850.738586
 10
-501.478058
 20
851.429016
 10
-501.465271
 20
852.162903
 10
-501.451782
 20
852.934692
 10
-501.437744
 20
853.73877
 10
-501.423248
 20
854.569092
 10
-501.408417
 20
855.419556
 10
-501.393341
 20
856.283386
 10
-501.377777
 20
857.174377
  0
LINE
  5
185
330
160
100
AcDbEntity
  8
0
  6
Continuous
 62
     0
370
    30
100
AcDbLine
 10
-581.693804
 20
926.586941
 30
0.0
 11
-527.245733
 21
925.636523
 31
0.0
  0
ARC
  5
186
330
160
100
AcDbEntity
  8
0
  6
Continuous
 62
     0
370
    30
100
AcDbCircle
 10
-527.298091
 20
922.63698
 30
0.0
 40
3.000000000004878
100
AcDbArc
 50
3.999975
 51
88.999975
  0
LINE
  5
187
330
160
100
AcDbEntity
  8
0
  6
Continuous
 62
     0
370
     0
100
AcDbLine
 10
-584.729729
 20
923.900985
 30
0.0
 11
-524.305399
 21
922.846248
 31
0.0
  0
LWPOLYLINE
  5
188
330
160
100
AcDbEntity
  8
0
  6
Continuous
 62
     0
370
    30
100
AcDbPolyline
 90
       48
 70
     0
 43
0.0
 10
-518.650269
 20
841.973755
 10
-518.668274
 20
842.009705
 10
-518.719299
 20
842.117493
 10
-518.803894
 20
842.295837
 10
-518.920715
 20
842.542847
 10
-519.067505
 20
842.856689
 10
-519.241821
 20
843.235291
 10
-519.440674
 20
843.675781
 10
-519.661072
 20
844.17511
 10
-519.899963
 20
844.730286
 10
-520.153809
 20
845.338501
 10
-520.419189
 20
845.996948
 10
-520.692566
 20
846.702942
 10
-520.970398
 20
847.453796
 10
-521.249084
 20
848.246887
 10
-521.524902
 20
849.079834
 10
-521.794067
 20
849.949951
 10
-522.052673
 20
850.854614
 10
-522.297241
 20
851.791077
 10
-522.52417
 20
852.756531
 10
-522.729675
 20
853.74707
 10
-522.909912
 20
854.758362
 10
-523.061951
 20
855.786072
 10
-523.184082
 20
856.825684
 10
-523.274414
 20
857.872314
 10
-523.33075
 20
858.920959
 10
-523.352478
 20
859.965759
 10
-523.340759
 20
861.000244
 10
-523.296936
 20
862.017883
 10
-523.222534
 20
863.012085
 10
-523.120239
 20
863.977966
 10
-522.994141
 20
864.91156
 10
-522.848145
 20
865.809265
 10
-522.685852
 20
866.667358
 10
-522.510986
 20
867.482544
 10
-522.327759
 20
868.25238
 10
-522.140198
 20
868.974243
 10
-521.952576
 20
869.64502
 10
-521.768982
 20
870.261658
 10
-521.593201
 20
870.821472
 10
-521.428284
 20
871.322632
 10
-521.277527
 20
871.763
 10
-521.144226
 20
872.140198
 10
-521.031006
 20
872.452271
 10
-520.940552
 20
872.697449
 10
-520.874634
 20
872.874023
 10
-520.834534
 20
872.980652
 10
-520.820984
 20
873.016357
  0
LINE
  5
189
330
160
100
AcDbEntity
  8
0
  6
Continuous
 62
     0
370
    30
100
AcDbLine
 10
-524.305399
 20
922.846248
 30
0.0
 11
-520.820977
 21
873.016378
 31
0.0
  0
LINE
  5
18A
330
160
100
AcDbEntity
  8
0
  6
Continuous
 62
     0
370
    30
100
AcDbLine
 10
-518.650279
 20
841.973765
 30
0.0
 11
-511.192883
 21
735.327369
 31
0.0
  0
LWPOLYLINE
  5
18B
330
160
100
AcDbEntity
  8
0
  6
Continuous
 62
     0
370
    30
100
AcDbPolyline
 90
       17
 70
     0
 43
0.0
 10
-511.910126
 20
871.860657
 10
-511.660583
 20
871.856201
 10
-511.468231
 20
871.852966
 10
-511.328308
 20
871.850525
 10
-511.21756
 20
871.848572
 10
-511.128967
 20
871.847046
 10
-511.057159
 20
871.845764
 10
-510.997772
 20
871.844788
 10
-510.948792
 20
871.843933
 10
-510.908508
 20
871.84314
 10
-510.875427
 20
871.842468
 10
-510.848724
 20
871.841919
 10
-510.827637
 20
871.841553
 10
-510.811798
 20
871.84137
 10
-510.800842
 20
871.841248
 10
-510.794464
 20
871.841248
 10
-510.792358
 20
871.841248
  0
LINE
  5
18C
330
160
100
AcDbEntity
  8
0
  6
Continuous
 62
     0
370
     0
100
AcDbLine
 10
-512.416252
 20
842.865092
 30
0.0
 11
-511.910119
 21
871.860675
 31
0.0
  0
LWPOLYLINE
  5
18D
330
160
100
AcDbEntity
  8
0
  6
Continuous
 62
     0
370
    30
100
AcDbPolyline
 90
       16
 70
     0
 43
0.0
 10
-511.298401
 20
842.845581
 10
-511.300659
 20
842.845764
 10
-511.307617
 20
842.846252
 10
-511.320099
 20
842.846436
 10
-511.338318
 20
842.846497
 10
-511.362457
 20
842.84668
 10
-511.393097
 20
842.847229
 10
-511.431274
 20
842.8479
 10
-511.478363
 20
842.848755
 10
-511.536438
 20
842.849731
 10
-511.607697
 20
842.851013
 10
-511.695892
 20
842.852539
 10
-511.806854
 20
842.854492
 10
-511.950623
 20
842.856995
 10
-512.144165
 20
842.860352
 10
-512.41626
 20
842.865112
  0
ARC
  5
18E
330
160
100
AcDbEntity
  8
0
  6
Continuous
 62
     0
370
    30
100
AcDbCircle
 10
-512.398801
 20
843.86494
 30
0.0
 40
1.499999999938665
100
AcDbArc
 50
317.18966
 51
358.999975
  0
LWPOLYLINE
  5
18F
330
160
100
AcDbEntity
  8
0
  6
Continuous
 62
     0
370
    30
100
AcDbPolyline
 90
       43
 70
     0
 43
0.0
 10
-510.427795
 20
870.834656
 10
-510.428345
 20
870.803223
 10
-510.430054
 20
870.705811
 10
-510.432983
 20
870.538086
 10
-510.437195
 20
870.296692
 10
-510.442749
 20
869.979126
 10
-510.449615
 20
869.584106
 10
-510.457886
 20
869.111694
 10
-510.467438
 20
868.563416
 10
-510.478271
 20
867.942322
 10
-510.490326
 20
867.252686
 10
-510.503448
 20
866.500427
 10
-510.517548
 20
865.692505
 10
-510.532501
 20
864.836853
 10
-510.548096
 20
863.942261
 10
-510.56424
 20
863.017822
 10
-510.58075
 20
862.072876
 10
-510.597443
 20
861.116516
 10
-510.614166
 20
860.157593
 10
-510.630798
 20
859.204285
 10
-510.647217
 20
858.264099
 10
-510.6633
 20
857.343445
 10
-510.679352
 20
856.423157
 10
-510.69577
 20
855.483154
 10
-510.712402
 20
854.530029
 10
-510.729126
 20
853.571167
 10
-510.74585
 20
852.614685
 10
-510.762329
 20
851.669495
 10
-510.778473
 20
850.74469
 10
-510.794098
 20
849.849548
 10
-510.809052
 20
848.993286
 10
-510.823181
 20
848.18457
 10
-510.836304
 20
847.431458
 10
-510.848358
 20
846.740845
 10
-510.859222
 20
846.118652
 10
-510.868805
 20
845.569336
 10
-510.877075
 20
845.095764
 10
-510.884003
 20
844.699585
 10
-510.889557
 20
844.380859
 10
-510.893799
 20
844.138367
 10
-510.896759
 20
843.969543
 10
-510.898468
 20
843.871155
 10
-510.899017
 20
843.838745
  0
LINE
  5
190
330
160
100
AcDbEntity
  8
0
  6
Continuous
 62
     0
370
    30
100
AcDbLine
 10
-518.922791
 20
842.547302
 30
0.0
 11
-518.915263
 21
842.978535
 31
0.0
  0
LINE
  5
191
330
160
100
AcDbEntity
  8
0
  6
Continuous
 62
     0
370
    30
100
AcDbLine
 10
-518.915262
 20
842.978535
 30
0.0
 11
-512.416252
 21
842.865092
 31
0.0
  0
LINE
  5
192
330
160
100
AcDbEntity
  8
0
  6
Continuous
 62
     0
370
    30
100
AcDbLine
 10
-511.910119
 20
871.860675
 30
0.0
 11
-518.409129
 21
871.974118
 31
0.0
  0
LINE
  5
193
330
160
100
AcDbEntity
  8
0
  6
Continuous
 62
     0
370
    30
100
AcDbLine
 10
-518.409131
 20
871.974118
 30
0.0
 11
-518.400405
 21
872.474042
 31
0.0
  0
LINE
  5
194
330
160
100
AcDbEntity
  8
0
  6
Continuous
 62
     0
370
    30
100
AcDbLine
 10
-504.801541
 20
851.215676
 30
0.0
 11
-504.802976
 21
851.133478
 31
0.0
  0
LINE
  5
195
330
160
100
AcDbEntity
  8
0
  6
Continuous
 62
     0
370
    30
100
AcDbLine
 10
-504.590051
 20
863.33162
 30
0.0
 11
-504.801541
 21
851.215676
 31
0.0
  0
LINE
  5
196
330
160
100
AcDbEntity
  8
0
  6
Continuous
 62
     0
370
    30
100
AcDbLine
 10
-509.71683
 20
722.29961
 30
0.0
 11
-523.440776
 21
722.539169
 31
0.0
  0
LINE
  5
197
330
160
100
AcDbEntity
  8
0
  6
Continuous
 62
     0
370
    30
100
AcDbLine
 10
-523.440776
 20
722.539169
 30
0.0
 11
-606.308561
 21
723.985667
 31
0.0
  0
LINE
  5
198
330
160
100
AcDbEntity
  8
0
  6
Continuous
 62
     0
370
    30
100
AcDbLine
 10
-511.106234
 20
735.325843
 30
0.0
 11
-524.370889
 21
735.557385
 31
0.0
  0
LINE
  5
199
330
160
100
AcDbEntity
  8
0
  6
Continuous
 62
     0
370
    30
100
AcDbLine
 10
-524.370889
 20
735.557385
 30
0.0
 11
-604.465382
 21
736.955474
 31
0.0
  0
LWPOLYLINE
  5
19A
330
160
100
AcDbEntity
  8
0
  6
Continuous
 62
     0
370
     0
100
AcDbPolyline
 90
       62
 70
     0
 43
0.0
 10
-605.729187
 20
735.847168
 10
-605.689026
 20
735.846497
 10
-605.568665
 20
735.84436
 10
-605.368713
 20
735.840881
 10
-605.090088
 20
735.835999
 10
-604.734131
 20
735.829773
 10
-604.302429
 20
735.822266
 10
-603.797119
 20
735.813416
 10
-603.220581
 20
735.803406
 10
-602.575378
 20
735.792114
 10
-601.864441
 20
735.779724
 10
-601.091003
 20
735.766235
 10
-600.258362
 20
735.751648
 10
-599.370056
 20
735.736145
 10
-598.429749
 20
735.719727
 10
-597.441223
 20
735.702515
 10
-596.408203
 20
735.684448
 10
-595.334534
 20
735.66571
 10
-594.224182
 20
735.646362
 10
-593.080872
 20
735.626404
 10
-591.908447
 20
735.605896
 10
-590.706726
 20
735.584961
 10
-589.451721
 20
735.563049
 10
-588.138916
 20
735.5401
 10
-586.768799
 20
735.516235
 10
-585.342224
 20
735.491333
 10
-583.860413
 20
735.465454
 10
-582.32489
 20
735.43866
 10
-580.737427
 20
735.41095
 10
-579.100098
 20
735.382324
 10
-577.415405
 20
735.352966
 10
-575.686157
 20
735.322754
 10
-573.915466
 20
735.29187
 10
-572.106689
 20
735.260254
 10
-570.26355
 20
735.228088
 10
-568.389954
 20
735.195374
 10
-566.490051
 20
735.162231
 10
-564.568359
 20
735.128662
 10
-562.629456
 20
735.094849
 10
-560.677979
 20
735.060791
 10
-558.718811
 20
735.02655
 10
-556.756836
 20
734.99231
 10
-554.796997
 20
734.95813
 10
-552.844238
 20
734.924011
 10
-550.903381
 20
734.890137
 10
-548.979187
 20
734.856567
 10
-547.076294
 20
734.823364
 10
-545.199219
 20
734.790588
 10
-543.352112
 20
734.758362
 10
-541.539001
 20
734.726685
 10
-539.763733
 20
734.69574
 10
-538.029785
 20
734.665466
 10
-536.340271
 20
734.635925
 10
-534.698059
 20
734.6073
 10
-533.105774
 20
734.579468
 10
-531.565613
 20
734.552612
 10
-530.079407
 20
734.526672
 10
-528.648743
 20
734.501709
 10
-527.274902
 20
734.477722
 10
-525.958801
 20
734.454712
 10
-524.70105
 20
734.4328
 10
-523.500061
 20
734.411804
  0
LINE
  5
19B
330
160
100
AcDbEntity
  8
0
  6
Continuous
 62
     0
370
     0
100
AcDbLine
 10
-523.500074
 20
734.41182
 30
0.0
 11
-509.881904
 21
734.174107
 31
0.0
  0
LWPOLYLINE
  5
19C
330
160
100
AcDbEntity
  8
0
  6
Continuous
 62
     0
370
     0
100
AcDbPolyline
 90
       63
 70
     0
 43
0.0
 10
-606.991821
 20
724.764832
 10
-606.952087
 20
724.764099
 10
-606.833069
 20
724.762024
 10
-606.635193
 20
724.758606
 10
-606.359436
 20
724.753784
 10
-606.007019
 20
724.74762
 10
-605.57959
 20
724.740173
 10
-605.079102
 20
724.731384
 10
-604.507751
 20
724.721436
 10
-603.868225
 20
724.710266
 10
-603.163208
 20
724.697998
 10
-602.395813
 20
724.68457
 10
-601.569214
 20
724.670166
 10
-600.68689
 20
724.654724
 10
-599.752319
 20
724.638428
 10
-598.769104
 20
724.621277
 10
-597.741089
 20
724.603333
 10
-596.671814
 20
724.584656
 10
-595.565186
 20
724.565369
 10
-594.424866
 20
724.545471
 10
-593.254578
 20
724.525024
 10
-592.057617
 20
724.504089
 10
-590.815796
 20
724.482422
 10
-589.516602
 20
724.459778
 10
-588.160522
 20
724.436096
 10
-586.748169
 20
724.411438
 10
-585.280701
 20
724.385803
 10
-583.759399
 20
724.359253
 10
-582.185852
 20
724.331787
 10
-580.562012
 20
724.303467
 10
-578.890137
 20
724.274292
 10
-577.172791
 20
724.244324
 10
-575.412842
 20
724.213562
 10
-573.613403
 20
724.18219
 10
-571.778015
 20
724.150146
 10
-569.910278
 20
724.117554
 10
-568.014221
 20
724.084412
 10
-566.093933
 20
724.050903
 10
-564.15387
 20
724.017029
 10
-562.198547
 20
723.98291
 10
-560.232544
 20
723.948608
 10
-558.26062
 20
723.914185
 10
-556.287537
 20
723.879761
 10
-554.318176
 20
723.845337
 10
-552.357239
 20
723.811157
 10
-550.409424
 20
723.7771
 10
-548.47937
 20
723.743469
 10
-546.571533
 20
723.710144
 10
-544.690247
 20
723.677307
 10
-542.839539
 20
723.64502
 10
-541.023315
 20
723.613281
 10
-539.245117
 20
723.582275
 10
-537.508362
 20
723.551941
 10
-535.816101
 20
723.5224
 10
-534.171021
 20
723.493652
 10
-532.575562
 20
723.46582
 10
-531.031921
 20
723.438904
 10
-529.541809
 20
723.412903
 10
-528.106812
 20
723.387817
 10
-526.728088
 20
723.36377
 10
-525.406494
 20
723.340698
 10
-524.142639
 20
723.318604
 10
-522.928711
 20
723.297424
  0
LINE
  5
19D
330
160
100
AcDbEntity
  8
0
  6
Continuous
 62
     0
370
     0
100
AcDbLine
 10
-522.928686
 20
723.297439
 30
0.0
 11
-509.00677
 21
723.054425
 31
0.0
  0
ARC
  5
19E
330
160
100
AcDbEntity
  8
0
  6
Continuous
 62
     0
370
    30
100
AcDbCircle
 10
-606.296343
 20
724.68556
 30
0.0
 40
0.7000001354676124
100
AcDbArc
 50
173.499987
 51
268.999963
  0
LWPOLYLINE
  5
19F
330
160
100
AcDbEntity
  8
0
  6
Continuous
 62
     0
370
    30
100
AcDbPolyline
 90
       22
 70
     0
 43
0.0
 10
-509.716705
 20
722.299622
 10
-509.660461
 20
722.300781
 10
-509.606415
 20
722.306396
 10
-509.552032
 20
722.316345
 10
-509.498322
 20
722.330566
 10
-509.446014
 20
722.348999
 10
-509.395325
 20
722.371521
 10
-509.346558
 20
722.39801
 10
-509.300049
 20
722.428284
 10
-509.256073
 20
722.462097
 10
-509.214935
 20
722.499268
 10
-509.176849
 20
722.539612
 10
-509.14209
 20
722.582886
 10
-509.11087
 20
722.628723
 10
-509.083374
 20
722.676941
 10
-509.059784
 20
722.727112
 10
-509.040222
 20
722.779053
 10
-509.024872
 20
722.832397
 10
-509.013794
 20
722.886841
 10
-509.00705
 20
722.941956
 10
-509.004639
 20
722.997375
 10
-509.006775
 20
723.054443
  0
LINE
  5
1A0
330
160
100
AcDbEntity
  8
0
  6
Continuous
 62
     0
370
    30
100
AcDbLine
 10
-605.729163
 20
735.847169
 30
0.0
 11
-606.991844
 21
724.764803
 31
0.0
  0
LINE
  5
1A1
330
160
100
AcDbEntity
  8
0
  6
Continuous
 62
     0
370
    30
100
AcDbLine
 10
-509.00677
 20
723.054425
 30
0.0
 11
-509.881904
 21
734.174107
 31
0.0
  0
LWPOLYLINE
  5
1A2
330
160
100
AcDbEntity
  8
0
  6
Continuous
 62
     0
370
    30
100
AcDbPolyline
 90
       26
 70
     0
 43
0.0
 10
-511.106079
 20
735.325867
 10
-511.030548
 20
735.322327
 10
-510.959595
 20
735.314636
 10
-510.886871
 20
735.302551
 10
-510.814911
 20
735.286194
 10
-510.744019
 20
735.265564
 10
-510.674561
 20
735.240845
 10
-510.606689
 20
735.212097
 10
-510.540619
 20
735.179382
 10
-510.476593
 20
735.142822
 10
-510.414825
 20
735.1026
 10
-510.35553
 20
735.058716
 10
-510.29895
 20
735.011475
 10
-510.245239
 20
734.960999
 10
-510.194611
 20
734.90741
 10
-510.147217
 20
734.850891
 10
-510.103241
 20
734.791748
 10
-510.062805
 20
734.730103
 10
-510.026123
 20
734.666138
 10
-509.993225
 20
734.600159
 10
-509.964294
 20
734.532349
 10
-509.939453
 20
734.46283
 10
-509.918701
 20
734.391968
 10
-509.902161
 20
734.320068
 10
-509.889862
 20
734.247437
 10
-509.881897
 20
734.174133
  0
LWPOLYLINE
  5
1A3
330
160
100
AcDbEntity
  8
0
  6
Continuous
 62
     0
370
    30
100
AcDbPolyline
 90
       26
 70
     0
 43
0.0
 10
-604.465576
 20
736.955505
 10
-604.541138
 20
736.954651
 10
-604.612305
 20
736.949402
 10
-604.685425
 20
736.939819
 10
-604.757935
 20
736.925964
 10
-604.829468
 20
736.907898
 10
-604.899719
 20
736.88562
 10
-604.968567
 20
736.859253
 10
-605.035767
 20
736.828857
 10
-605.101013
 20
736.794556
 10
-605.164185
 20
736.75647
 10
-605.224915
 20
736.714722
 10
-605.283142
 20
736.669495
 10
-605.338562
 20
736.620911
 10
-605.391052
 20
736.569092
 10
-605.44043
 20
736.514282
 10
-605.486389
 20
736.456726
 10
-605.528931
 20
736.396484
 10
-605.567871
 20
736.333862
 10
-605.603027
 20
736.269104
 10
-605.634277
 20
736.202271
 10
-605.66156
 20
736.133728
 10
-605.684753
 20
736.06366
 10
-605.703796
 20
735.992371
 10
-605.718628
 20
735.920166
 10
-605.729187
 20
735.847168
  0
ARC
  5
1A4
330
160
100
AcDbEntity
  8
0
  6
Continuous
 62
     0
370
    30
100
AcDbCircle
 10
-552.584099
 20
1034.104303
 30
0.0
 40
314.4990319840344
100
AcDbArc
 50
260.456348
 51
277.543603
  0
ARC
  5
1A5
330
160
100
AcDbEntity
  8
0
  6
Continuous
 62
     0
370
    30
100
AcDbCircle
 10
-515.375744
 20
857.418999
 30
0.0
 40
12.30004886535362
100
AcDbArc
 50
291.53035
 51
329.268477
  0
ARC
  5
1A6
330
160
100
AcDbEntity
  8
0
  6
Continuous
 62
     0
370
    30
100
AcDbCircle
 10
-515.375742
 20
857.418925
 30
0.0
 40
12.30004384286738
100
AcDbArc
 50
28.731465
 51
66.467494
  0
LINE
  5
1A7
330
160
100
AcDbEntity
  8
0
  6
Continuous
 62
     0
370
    30
100
AcDbLine
 10
-501.271381
 20
863.273691
 30
0.0
 11
-504.590051
 21
863.33162
 31
0.0
  0
LINE
  5
1A8
330
160
100
AcDbEntity
  8
0
  6
Continuous
 62
     0
370
    30
100
AcDbLine
 10
-501.484305
 20
851.075549
 30
0.0
 11
-504.802976
 21
851.133478
 31
0.0
  0
LINE
  5
1A9
330
160
100
AcDbEntity
  8
0
  6
Continuous
 62
     0
370
    30
100
AcDbLine
 10
-521.006335
 20
872.51953
 30
0.0
 11
-518.400405
 21
872.474042
 31
0.0
  0
ARC
  5
1AA
330
160
100
AcDbEntity
  8
0
  6
Continuous
 62
     0
370
    30
100
AcDbCircle
 10
-511.927597
 20
870.860819
 30
0.0
 40
1.500023196085542
100
AcDbArc
 50
359.000314
 51
40.81732
  0
LINE
  5
1AB
330
160
100
AcDbEntity
  8
0
  6
Continuous
 62
     0
370
    30
100
AcDbLine
 10
-584.729729
 20
923.900985
 30
0.0
 11
-604.378733
 21
736.953974
 31
0.0
  0
LINE
  5
1AC
330
160
100
AcDbEntity
  8
0
  6
Continuous
 62
     0
370
    30
100
AcDbLine
 10
-581.694904
 20
926.58696
 30
0.0
 11
-581.704908
 21
926.587131
 31
0.0
  0
ARC
  5
1AD
330
160
100
AcDbEntity
  8
0
  6
Continuous
 62
     0
370
    30
100
AcDbCircle
 10
-581.745916
 20
923.587119
 30
0.0
 40
3.000274520306884
100
AcDbArc
 50
89.004779
 51
173.995172
  0
LINE
  5
1AE
330
160
100
AcDbEntity
  8
0
  6
Continuous
 62
     0
370
    30
100
AcDbLine
 10
-501.552309
 20
847.175974
 30
0.0
 11
-224.162757
 21
842.334051
 31
0.0
  0
LINE
  5
1AF
330
160
100
AcDbEntity
  8
0
  6
Continuous
 62
     0
370
    30
100
AcDbLine
 10
-501.203261
 20
867.172878
 30
0.0
 11
-223.813709
 21
862.331026
 31
0.0
  0
ARC
  5
1B0
330
160
100
AcDbEntity
  8
0
  6
Continuous
 62
     0
370
    30
100
AcDbCircle
 10
-223.464661
 20
882.32798
 30
0.0
 40
40.00000071288448
100
AcDbArc
 50
269.000001
 51
359.999999
  0
ARC
  5
1B1
330
160
100
AcDbEntity
  8
0
  6
Continuous
 62
     0
370
    30
100
AcDbCircle
 10
-223.464661
 20
882.32798
 30
0.0
 40
20.00000048861384
100
AcDbArc
 50
269.000001
 51
359.999999
  0
LINE
  5
1B2
330
160
100
AcDbEntity
  8
0
  6
Continuous
 62
     0
370
    30
100
AcDbLine
 10
-183.464661
 20
882.32798
 30
0.0
 11
-183.464661
 21
906.808131
 31
0.0
  0
LINE
  5
1B3
330
160
100
AcDbEntity
  8
0
  6
Continuous
 62
     0
370
    30
100
AcDbLine
 10
-203.464661
 20
882.32798
 30
0.0
 11
-203.464661
 21
906.808131
 31
0.0
  0
ENDBLK
  5
1B5
330
160
100
AcDbEntity
  8
0
100
AcDbBlockEnd
  0
ENDSEC
  0
SECTION
  2
ENTITIES
  0
INSERT
  5
BB
330
1F
100
AcDbEntity
  8
0
  6
Continuous
 62
     7
420
 16250871
370
     0
100
AcDbBlockReference
  2
a
 10
0.657455
 20
76.756454
 30
0.0
  0
INSERT
  5
108
330
1F
100
AcDbEntity
  8
0
  6
Continuous
 62
     7
420
 16250871
370
     0
100
AcDbBlockReference
  2
b
 10
0.657455
 20
23.808395
 30
0.0
  0
INSERT
  5
15F
330
1F
100
AcDbEntity
  8
0
  6
Continuous
 62
     7
420
 16250871
370
     0
100
AcDbBlockReference
  2
c
 10
59.671127
 20
76.756454
 30
0.0
  0
INSERT
  5
1B6
330
1F
100
AcDbEntity
  8
0
  6
Continuous
 62
     7
420
 16250871
370
     0
100
AcDbBlockReference
  2
d
 10
-102.502075
 20
0.0
 30
0.0
  0
ENDSEC
  0
SECTION
  2
OBJECTS
  0
DICTIONARY
  5
C
330
0
100
AcDbDictionary
281
     1
  3
ACAD_DETAILVIEWSTYLE
350
1EE
  3
ACAD_GROUP
350
D
  3
ACAD_LAYOUT
350
1A
  3
ACAD_MATERIAL
350
43
  3
ACAD_MLEADERSTYLE
350
6B
  3
ACAD_MLINESTYLE
350
17
  3
ACAD_PLOTSETTINGS
350
19
  3
ACAD_PLOTSTYLENAME
350
E
  3
ACAD_SCALELIST
350
47
  3
ACAD_SECTIONVIEWSTYLE
350
1EF
  3
ACAD_TABLESTYLE
350
69
  3
ACAD_VISUALSTYLE
350
2A
  3
ACDB_RECOMPOSE_DATA
350
1EB
  3
AcDbVariableDictionary
350
1B7
  0
SUN
  5
6D
330
29
100
AcDbSun
 90
        1
290
     0
 63
     7
421
 16777215
 40
1.0
291
     1
 91
  2455826
 92
 54000000
292
     0
 70
     2
 71
   256
280
     1
  0
DICTIONARY
  5
1EE
102
{ACAD_REACTORS
330
C
102
}
330
C
100
AcDbDictionary
281
     1
  0
DICTIONARY
  5
D
102
{ACAD_REACTORS
330
C
102
}
330
C
100
AcDbDictionary
281
     1
  0
DICTIONARY
  5
1A
102
{ACAD_REACTORS
330
C
102
}
330
C
100
AcDbDictionary
281
     1
  3
Layout1
350
1E
  3
Layout2
350
26
  3
Model
350
22
  0
DICTIONARY
  5
43
102
{ACAD_REACTORS
330
C
102
}
330
C
100
AcDbDictionary
281
     1
  3
ByBlock
350
45
  3
ByLayer
350
44
  3
Global
350
46
  0
DICTIONARY
  5
6B
102
{ACAD_REACTORS
330
C
102
}
330
C
100
AcDbDictionary
281
     1
  3
Standard
350
6C
  0
DICTIONARY
  5
17
102
{ACAD_REACTORS
330
C
102
}
330
C
100
AcDbDictionary
281
     1
  3
Standard
350
18
  0
DICTIONARY
  5
19
102
{ACAD_REACTORS
330
C
102
}
330
C
100
AcDbDictionary
281
     1
  0
ACDBDICTIONARYWDFLT
  5
E
102
{ACAD_REACTORS
330
C
102
}
330
C
100
AcDbDictionary
281
     1
  3
Normal
350
F
100
AcDbDictionaryWithDefault
340
F
  0
DICTIONARY
  5
47
102
{ACAD_REACTORS
330
C
102
}
330
C
100
AcDbDictionary
281
     1
  3
A0
350
48
  3
A1
350
49
  3
A2
350
4A
  3
A3
350
4B
  3
A4
350
4C
  3
A5
350
4D
  3
A6
350
4E
  3
A7
350
4F
  3
A8
350
50
  3
A9
350
51
  3
B0
350
52
  3
B1
350
53
  3
B2
350
54
  3
B3
350
55
  3
B4
350
56
  3
B5
350
57
  3
B6
350
58
  3
B7
350
59
  3
B8
350
5A
  3
B9
350
5B
  3
C0
350
5C
  3
C1
350
5D
  3
C2
350
5E
  3
C3
350
5F
  3
C4
350
60
  3
C5
350
61
  3
C6
350
62
  3
C7
350
63
  3
C8
350
64
  3
C9
350
65
  3
D0
350
66
  3
D1
350
67
  3
D2
350
68
  0
DICTIONARY
  5
1EF
102
{ACAD_REACTORS
330
C
102
}
330
C
100
AcDbDictionary
281
     1
  0
DICTIONARY
  5
69
102
{ACAD_REACTORS
330
C
102
}
330
C
100
AcDbDictionary
281
     1
  3
Standard
350
6A
  0
DICTIONARY
  5
2A
102
{ACAD_REACTORS
330
C
102
}
330
C
100
AcDbDictionary
281
     1
  3
2dWireframe
350
2F
  3
Basic
350
32
  3
Brighten
350
36
  3
ColorChange
350
3A
  3
Conceptual
350
34
  3
Dim
350
35
  3
EdgeColorOff
350
3D
  3
Facepattern
350
39
  3
Flat
350
2B
  3
FlatWithEdges
350
2C
  3
Gouraud
350
2D
  3
GouraudWithEdges
350
2E
  3
Hidden
350
31
  3
JitterOff
350
3B
  3
Linepattern
350
38
  3
OverhangOff
350
3C
  3
Realistic
350
33
  3
Shaded
350
42
  3
Shaded with edges
350
41
  3
Shades of Gray
350
3E
  3
Sketchy
350
3F
  3
Thicken
350
37
  3
Wireframe
350
30
  3
X-Ray
350
40
  0
XRECORD
  5
1EB
102
{ACAD_REACTORS
330
C
102
}
330
C
100
AcDbXrecord
280
     1
 90
        1
330
6A
  0
DICTIONARY
  5
1B7
102
{ACAD_REACTORS
330
C
102
}
330
C
100
AcDbDictionary
281
     1
  3
CANNOSCALE
350
1B8
  3
CMLEADERSTYLE
350
1ED
  3
CTABLESTYLE
350
1EC
  0
LAYOUT
  5
1E
102
{ACAD_REACTORS
330
1A
102
}
330
1A
100
AcDbPlotSettings
  1

  2
none_device
  4

  6

 40
0.0
 41
0.0
 42
0.0
 43
0.0
 44
0.0
 45
0.0
 46
0.0
 47
0.0
 48
0.0
 49
0.0
140
0.0
141
0.0
142
1.0
143
1.0
 70
   688
 72
     1
 73
     0
 74
     5
  7

 75
    16
 76
     0
 77
     2
 78
   300
147
1.0
148
0.0
149
0.0
100
AcDbLayout
  1
Layout1
 70
     1
 71
     1
 10
0.0
 20
0.0
 11
420.0
 21
297.0
 12
0.0
 22
0.0
 32
0.0
 14
1.000000E+20
 24
1.000000E+20
 34
1.000000E+20
 15
-1.000000E+20
 25
-1.000000E+20
 35
-1.000000E+20
146
0.0
 13
0.0
 23
0.0
 33
0.0
 16
1.0
 26
0.0
 36
0.0
 17
0.0
 27
1.0
 37
0.0
 76
     0
330
1B
  0
LAYOUT
  5
26
102
{ACAD_REACTORS
330
1A
102
}
330
1A
100
AcDbPlotSettings
  1

  2
none_device
  4

  6

 40
0.0
 41
0.0
 42
0.0
 43
0.0
 44
0.0
 45
0.0
 46
0.0
 47
0.0
 48
0.0
 49
0.0
140
0.0
141
0.0
142
1.0
143
1.0
 70
   688
 72
     1
 73
     0
 74
     5
  7

 75
    16
 76
     0
 77
     2
 78
   300
147
1.0
148
0.0
149
0.0
100
AcDbLayout
  1
Layout2
 70
     1
 71
     2
 10
0.0
 20
0.0
 11
0.0
 21
0.0
 12
0.0
 22
0.0
 32
0.0
 14
0.0
 24
0.0
 34
0.0
 15
0.0
 25
0.0
 35
0.0
146
0.0
 13
0.0
 23
0.0
 33
0.0
 16
1.0
 26
0.0
 36
0.0
 17
0.0
 27
1.0
 37
0.0
 76
     0
330
23
  0
LAYOUT
  5
22
102
{ACAD_REACTORS
330
1A
102
}
330
1A
100
AcDbPlotSettings
  1

  2
none_device
  4
Letter_(8.50_x_11.00_Inches)
  6

 40
6.35
 41
6.35
 42
6.350005
 43
6.350005
 44
215.9
 45
279.4
 46
0.0
 47
0.0
 48
0.0
 49
0.0
140
0.0
141
0.0
142
1.0
143
1.0
 70
  1712
 72
     1
 73
     0
 74
     0
  7

 75
     0
 76
     0
 77
     2
 78
   300
147
1.0
148
0.0
149
0.0
100
AcDbLayout
  1
Model
 70
     1
 71
     0
 10
0.0
 20
0.0
 11
420.0
 21
297.0
 12
0.0
 22
0.0
 32
0.0
 14
1.000000E+20
 24
1.000000E+20
 34
1.000000E+20
 15
-1.000000E+20
 25
-1.000000E+20
 35
-1.000000E+20
146
0.0
 13
0.0
 23
0.0
 33
0.0
 16
1.0
 26
0.0
 36
0.0
 17
0.0
 27
1.0
 37
0.0
 76
     0
330
1F
331
29
  0
MATERIAL
  5
45
102
{ACAD_REACTORS
330
43
102
}
330
43
100
AcDbMaterial
  1
ByBlock
 72
     1
 94
      127
  0
MATERIAL
  5
44
102
{ACAD_REACTORS
330
43
102
}
330
43
100
AcDbMaterial
  1
ByLayer
 72
     1
 94
      127
  0
MATERIAL
  5
46
102
{ACAD_REACTORS
330
43
102
}
330
43
100
AcDbMaterial
  1
Global
 72
     1
 94
      127
  0
MLEADERSTYLE
  5
6C
102
{ACAD_REACTORS
330
6B
102
}
330
6B
100
AcDbMLeaderStyle
179
     2
170
     2
171
     1
172
     0
 90
        2
 40
0.0
 41
0.0
173
     1
 91
-1056964608
340
14
 92
       -2
290
     1
 42
2.0
291
     1
 43
8.0
  3
Standard
341
0
 44
4.0
300

342
11
174
     1
178
     6
175
     1
176
     0
 93
-1056964608
 45
4.0
292
     0
297
     0
 46
4.0
343
0
 94
-1056964608
 47
1.0
 49
1.0
140
1.0
293
     1
141
0.0
294
     1
177
     0
142
1.0
295
     0
296
     0
143
3.75
271
     0
272
     9
273
     9
  0
MLINESTYLE
  5
18
102
{ACAD_REACTORS
330
17
102
}
330
17
100
AcDbMlineStyle
  2
Standard
 70
     0
  3

 62
   256
 51
90.0
 52
90.0
 71
     2
 49
0.5
 62
   256
  6
BYLAYER
 49
-0.5
 62
   256
  6
BYLAYER
  0
ACDBPLACEHOLDER
  5
F
102
{ACAD_REACTORS
330
E
102
}
330
E
  0
SCALE
  5
48
102
{ACAD_REACTORS
330
47
102
}
330
47
100
AcDbScale
 70
     0
300
1:1
140
1.0
141
1.0
290
     1
  0
SCALE
  5
49
102
{ACAD_REACTORS
330
47
102
}
330
47
100
AcDbScale
 70
     0
300
1:2
140
1.0
141
2.0
290
     0
  0
SCALE
  5
4A
102
{ACAD_REACTORS
330
47
102
}
330
47
100
AcDbScale
 70
     0
300
1:4
140
1.0
141
4.0
290
     0
  0
SCALE
  5
4B
102
{ACAD_REACTORS
330
47
102
}
330
47
100
AcDbScale
 70
     0
300
1:5
140
1.0
141
5.0
290
     0
  0
SCALE
  5
4C
102
{ACAD_REACTORS
330
47
102
}
330
47
100
AcDbScale
 70
     0
300
1:8
140
1.0
141
8.0
290
     0
  0
SCALE
  5
4D
102
{ACAD_REACTORS
330
47
102
}
330
47
100
AcDbScale
 70
     0
300
1:10
140
1.0
141
10.0
290
     0
  0
SCALE
  5
4E
102
{ACAD_REACTORS
330
47
102
}
330
47
100
AcDbScale
 70
     0
300
1:16
140
1.0
141
16.0
290
     0
  0
SCALE
  5
4F
102
{ACAD_REACTORS
330
47
102
}
330
47
100
AcDbScale
 70
     0
300
1:20
140
1.0
141
20.0
290
     0
  0
SCALE
  5
50
102
{ACAD_REACTORS
330
47
102
}
330
47
100
AcDbScale
 70
     0
300
1:30
140
1.0
141
30.0
290
     0
  0
SCALE
  5
51
102
{ACAD_REACTORS
330
47
102
}
330
47
100
AcDbScale
 70
     0
300
1:40
140
1.0
141
40.0
290
     0
  0
SCALE
  5
52
102
{ACAD_REACTORS
330
47
102
}
330
47
100
AcDbScale
 70
     0
300
1:50
140
1.0
141
50.0
290
     0
  0
SCALE
  5
53
102
{ACAD_REACTORS
330
47
102
}
330
47
100
AcDbScale
 70
     0
300
1:100
140
1.0
141
100.0
290
     0
  0
SCALE
  5
54
102
{ACAD_REACTORS
330
47
102
}
330
47
100
AcDbScale
 70
     0
300
2:1
140
2.0
141
1.0
290
     0
  0
SCALE
  5
55
102
{ACAD_REACTORS
330
47
102
}
330
47
100
AcDbScale
 70
     0
300
4:1
140
4.0
141
1.0
290
     0
  0
SCALE
  5
56
102
{ACAD_REACTORS
330
47
102
}
330
47
100
AcDbScale
 70
     0
300
8:1
140
8.0
141
1.0
290
     0
  0
SCALE
  5
57
102
{ACAD_REACTORS
330
47
102
}
330
47
100
AcDbScale
 70
     0
300
10:1
140
10.0
141
1.0
290
     0
  0
SCALE
  5
58
102
{ACAD_REACTORS
330
47
102
}
330
47
100
AcDbScale
 70
     0
300
100:1
140
100.0
141
1.0
290
     0
  0
SCALE
  5
59
102
{ACAD_REACTORS
330
47
102
}
330
47
100
AcDbScale
 70
     0
300
1/128" = 1'-0"
140
0.007812
141
12.0
290
     0
  0
SCALE
  5
5A
102
{ACAD_REACTORS
330
47
102
}
330
47
100
AcDbScale
 70
     0
300
1/64" = 1'-0"
140
0.015625
141
12.0
290
     0
  0
SCALE
  5
5B
102
{ACAD_REACTORS
330
47
102
}
330
47
100
AcDbScale
 70
     0
300
1/32" = 1'-0"
140
0.03125
141
12.0
290
     0
  0
SCALE
  5
5C
102
{ACAD_REACTORS
330
47
102
}
330
47
100
AcDbScale
 70
     0
300
1/16" = 1'-0"
140
0.0625
141
12.0
290
     0
  0
SCALE
  5
5D
102
{ACAD_REACTORS
330
47
102
}
330
47
100
AcDbScale
 70
     0
300
3/32" = 1'-0"
140
0.09375
141
12.0
290
     0
  0
SCALE
  5
5E
102
{ACAD_REACTORS
330
47
102
}
330
47
100
AcDbScale
 70
     0
300
1/8" = 1'-0"
140
0.125
141
12.0
290
     0
  0
SCALE
  5
5F
102
{ACAD_REACTORS
330
47
102
}
330
47
100
AcDbScale
 70
     0
300
3/16" = 1'-0"
140
0.1875
141
12.0
290
     0
  0
SCALE
  5
60
102
{ACAD_REACTORS
330
47
102
}
330
47
100
AcDbScale
 70
     0
300
1/4" = 1'-0"
140
0.25
141
12.0
290
     0
  0
SCALE
  5
61
102
{ACAD_REACTORS
330
47
102
}
330
47
100
AcDbScale
 70
     0
300
3/8" = 1'-0"
140
0.375
141
12.0
290
     0
  0
SCALE
  5
62
102
{ACAD_REACTORS
330
47
102
}
330
47
100
AcDbScale
 70
     0
300
1/2" = 1'-0"
140
0.5
141
12.0
290
     0
  0
SCALE
  5
63
102
{ACAD_REACTORS
330
47
102
}
330
47
100
AcDbScale
 70
     0
300
3/4" = 1'-0"
140
0.75
141
12.0
290
     0
  0
SCALE
  5
64
102
{ACAD_REACTORS
330
47
102
}
330
47
100
AcDbScale
 70
     0
300
1" = 1'-0"
140
1.0
141
12.0
290
     0
  0
SCALE
  5
65
102
{ACAD_REACTORS
330
47
102
}
330
47
100
AcDbScale
 70
     0
300
1-1/2" = 1'-0"
140
1.5
141
12.0
290
     0
  0
SCALE
  5
66
102
{ACAD_REACTORS
330
47
102
}
330
47
100
AcDbScale
 70
     0
300
3" = 1'-0"
140
3.0
141
12.0
290
     0
  0
SCALE
  5
67
102
{ACAD_REACTORS
330
47
102
}
330
47
100
AcDbScale
 70
     0
300
6" = 1'-0"
140
6.0
141
12.0
290
     0
  0
SCALE
  5
68
102
{ACAD_REACTORS
330
47
102
}
330
47
100
AcDbScale
 70
     0
300
1'-0" = 1'-0"
140
12.0
141
12.0
290
     0
  0
TABLESTYLE
  5
6A
102
{ACAD_REACTORS
330
69
102
}
102
{ACAD_XDICTIONARY
360
1E9
102
}
330
69
100
AcDbTableStyle
  3
Standard
 70
     0
 71
     0
 40
0.06
 41
0.06
280
     0
281
     0
  7
Standard
140
4.5
170
     2
 62
     0
 63
   257
283
     0
 90
        4
 91
        0
  1

274
    -2
284
     1
 64
     0
275
    -2
285
     1
 65
     0
276
    -2
286
     1
 66
     0
277
    -2
287
     1
 67
     0
278
    -2
288
     1
 68
     0
279
    -2
289
     1
 69
     0
  7
Standard
140
6.0
170
     5
 62
     0
 63
   257
283
     0
 90
        4
 91
        0
  1

274
    -2
284
     1
 64
     0
275
    -2
285
     1
 65
     0
276
    -2
286
     1
 66
     0
277
    -2
287
     1
 67
     0
278
    -2
288
     1
 68
     0
279
    -2
289
     1
 69
     0
  7
Standard
140
4.5
170
     5
 62
     0
 63
   257
283
     0
 90
        4
 91
        0
  1

274
    -2
284
     1
 64
     0
275
    -2
285
     1
 65
     0
276
    -2
286
     1
 66
     0
277
    -2
287
     1
 67
     0
278
    -2
288
     1
 68
     0
279
    -2
289
     1
 69
     0
  0
VISUALSTYLE
  5
2F
102
{ACAD_REACTORS
330
2A
102
}
102
{ACAD_XDICTIONARY
360
1C1
102
}
330
2A
100
AcDbVisualStyle
  2
2dWireframe
 70
     4
177
     2
291
     0
 71
     0
176
     1
 72
     2
176
     1
 73
     0
176
     1
 90
        0
176
     1
 40
0.6
176
     1
 41
30.0
176
     1
 62
     5
 63
     7
421
 16777215
176
     1
 74
     1
176
     1
 91
        4
176
     1
 64
     7
176
     1
 65
   257
176
     1
 75
     1
176
     1
175
     1
176
     1
 42
1.0
176
     1
 92
        0
176
     1
 66
   257
176
     1
 43
1.0
176
     1
 76
     1
176
     1
 77
     6
176
     1
 78
     2
176
     1
 67
     7
176
     1
 79
     5
176
     1
170
     0
176
     1
171
     0
176
     1
290
     0
176
     1
 93
        1
176
     1
 44
0.0
176
     1
173
     0
176
     1
  0
VISUALSTYLE
  5
32
102
{ACAD_REACTORS
330
2A
102
}
102
{ACAD_XDICTIONARY
360
1C7
102
}
330
2A
100
AcDbVisualStyle
  2
Basic
 70
     7
177
     2
291
     1
 71
     1
176
     1
 72
     0
176
     1
 73
     1
176
     1
 90
        0
176
     1
 40
0.6
176
     1
 41
30.0
176
     1
 62
     5
 63
     7
421
 16777215
176
     1
 74
     0
176
     1
 91
        4
176
     1
 64
     7
176
     1
 65
   257
176
     1
 75
     1
176
     1
175
     1
176
     1
 42
1.0
176
     1
 92
        8
176
     1
 66
     7
176
     1
 43
1.0
176
     1
 76
     1
176
     1
 77
     6
176
     1
 78
     2
176
     1
 67
     7
176
     1
 79
     5
176
     1
170
     0
176
     1
171
     0
176
     1
290
     0
176
     1
 93
        1
176
     1
 44
0.0
176
     1
173
     0
176
     1
  0
VISUALSTYLE
  5
36
102
{ACAD_REACTORS
330
2A
102
}
102
{ACAD_XDICTIONARY
360
1CF
102
}
330
2A
100
AcDbVisualStyle
  2
Brighten
 70
    12
177
     2
291
     1
 71
     2
176
     1
 72
     2
176
     1
 73
     0
176
     1
 90
        0
176
     1
 40
0.6
176
     1
 41
30.0
176
     1
 62
     5
 63
     7
421
 16777215
176
     1
 74
     1
176
     1
 91
        4
176
     1
 64
     7
176
     1
 65
   257
176
     1
 75
     1
176
     1
175
     1
176
     1
 42
1.0
176
     1
 92
        8
176
     1
 66
     7
176
     1
 43
1.0
176
     1
 76
     1
176
     1
 77
     6
176
     1
 78
     2
176
     1
 67
     7
176
     1
 79
     5
176
     1
170
     0
176
     1
171
     0
176
     1
290
     0
176
     1
 93
        1
176
     1
 44
50.0
176
     1
173
     0
176
     1
  0
VISUALSTYLE
  5
3A
102
{ACAD_REACTORS
330
2A
102
}
102
{ACAD_XDICTIONARY
360
1D7
102
}
330
2A
100
AcDbVisualStyle
  2
ColorChange
 70
    16
177
     2
291
     1
 71
     2
176
     1
 72
     2
176
     1
 73
     3
176
     1
 90
        0
176
     1
 40
0.6
176
     1
 41
30.0
176
     1
 62
     5
 63
     8
421
  8421504
176
     1
 74
     1
176
     1
 91
        4
176
     1
 64
     7
176
     1
 65
   257
176
     1
 75
     1
176
     1
175
     1
176
     1
 42
1.0
176
     1
 92
        8
176
     1
 66
     8
424
  8421504
176
     1
 43
1.0
176
     1
 76
     1
176
     1
 77
     6
176
     1
 78
     2
176
     1
 67
     7
176
     1
 79
     5
176
     1
170
     0
176
     1
171
     0
176
     1
290
     0
176
     1
 93
        1
176
     1
 44
0.0
176
     1
173
     0
176
     1
  0
VISUALSTYLE
  5
34
102
{ACAD_REACTORS
330
2A
102
}
102
{ACAD_XDICTIONARY
360
1CB
102
}
330
2A
100
AcDbVisualStyle
  2
Conceptual
 70
     9
177
     2
291
     0
 71
     3
176
     1
 72
     2
176
     1
 73
     0
176
     1
 90
        0
176
     1
 40
0.6
176
     1
 41
30.0
176
     1
 62
     5
 63
     7
421
 16777215
176
     1
 74
     2
176
     1
 91
        2
176
     1
 64
     7
176
     1
 65
   257
176
     1
 75
     1
176
     1
175
     1
176
     1
 42
179.0
176
     1
 92
        8
176
     1
 66
     7
176
     1
 43
1.0
176
     1
 76
     1
176
     1
 77
     6
176
     1
 78
     2
176
     1
 67
     7
176
     1
 79
     3
176
     1
170
     0
176
     1
171
     0
176
     1
290
     0
176
     1
 93
        1
176
     1
 44
0.0
176
     1
173
     0
176
     1
  0
VISUALSTYLE
  5
35
102
{ACAD_REACTORS
330
2A
102
}
102
{ACAD_XDICTIONARY
360
1CD
102
}
330
2A
100
AcDbVisualStyle
  2
Dim
 70
    11
177
     2
291
     1
 71
     2
176
     1
 72
     2
176
     1
 73
     0
176
     1
 90
        0
176
     1
 40
0.6
176
     1
 41
30.0
176
     1
 62
     5
 63
     7
421
 16777215
176
     1
 74
     1
176
     1
 91
        4
176
     1
 64
     7
176
     1
 65
   257
176
     1
 75
     1
176
     1
175
     1
176
     1
 42
1.0
176
     1
 92
        8
176
     1
 66
     7
176
     1
 43
1.0
176
     1
 76
     1
176
     1
 77
     6
176
     1
 78
     2
176
     1
 67
     7
176
     1
 79
     5
176
     1
170
     0
176
     1
171
     0
176
     1
290
     0
176
     1
 93
        1
176
     1
 44
-50.0
176
     1
173
     0
176
     1
  0
VISUALSTYLE
  5
3D
102
{ACAD_REACTORS
330
2A
102
}
102
{ACAD_XDICTIONARY
360
1DD
102
}
330
2A
100
AcDbVisualStyle
  2
EdgeColorOff
 70
    22
177
     2
291
     1
 71
     2
176
     0
 72
     2
176
     0
 73
     0
176
     0
 90
        0
176
     0
 40
0.6
176
     0
 41
30.0
176
     0
 62
     5
 63
     7
421
 16777215
176
     0
 74
     1
176
     0
 91
        4
176
     0
 64
     7
176
     0
 65
   257
176
     0
 75
     1
176
     0
175
     1
176
     0
 42
1.0
176
     0
 92
        8
176
     2
 66
     7
176
     0
 43
1.0
176
     0
 76
     1
176
     0
 77
     6
176
     0
 78
     2
176
     0
 67
     7
176
     0
 79
     5
176
     0
170
     0
176
     0
171
     0
176
     0
290
     0
176
     0
 93
        1
176
     0
 44
0.0
176
     0
173
     0
176
     0
  0
VISUALSTYLE
  5
39
102
{ACAD_REACTORS
330
2A
102
}
102
{ACAD_XDICTIONARY
360
1D5
102
}
330
2A
100
AcDbVisualStyle
  2
Facepattern
 70
    15
177
     2
291
     1
 71
     2
176
     1
 72
     2
176
     1
 73
     0
176
     1
 90
        0
176
     1
 40
0.6
176
     1
 41
30.0
176
     1
 62
     5
 63
     7
421
 16777215
176
     1
 74
     1
176
     1
 91
        4
176
     1
 64
     7
176
     1
 65
   257
176
     1
 75
     1
176
     1
175
     1
176
     1
 42
1.0
176
     1
 92
        8
176
     1
 66
     7
176
     1
 43
1.0
176
     1
 76
     1
176
     1
 77
     6
176
     1
 78
     2
176
     1
 67
     7
176
     1
 79
     5
176
     1
170
     0
176
     1
171
     0
176
     1
290
     0
176
     1
 93
        1
176
     1
 44
0.0
176
     1
173
     0
176
     1
  0
VISUALSTYLE
  5
2B
102
{ACAD_REACTORS
330
2A
102
}
102
{ACAD_XDICTIONARY
360
1B9
102
}
330
2A
100
AcDbVisualStyle
  2
Flat
 70
     0
177
     2
291
     1
 71
     2
176
     1
 72
     1
176
     1
 73
     1
176
     1
 90
        2
176
     1
 40
0.6
176
     1
 41
30.0
176
     1
 62
     5
 63
     7
421
 16777215
176
     1
 74
     0
176
     1
 91
        0
176
     1
 64
     7
176
     1
 65
   257
176
     1
 75
     1
176
     1
175
     1
176
     1
 42
1.0
176
     1
 92
        8
176
     1
 66
     7
176
     1
 43
1.0
176
     1
 76
     1
176
     1
 77
     6
176
     1
 78
     2
176
     1
 67
     7
176
     1
 79
     5
176
     1
170
     0
176
     1
171
     0
176
     1
290
     0
176
     1
 93
       13
176
     1
 44
0.0
176
     1
173
     0
176
     1
  0
VISUALSTYLE
  5
2C
102
{ACAD_REACTORS
330
2A
102
}
102
{ACAD_XDICTIONARY
360
1BB
102
}
330
2A
100
AcDbVisualStyle
  2
FlatWithEdges
 70
     1
177
     2
291
     1
 71
     2
176
     1
 72
     1
176
     1
 73
     1
176
     1
 90
        2
176
     1
 40
0.6
176
     1
 41
30.0
176
     1
 62
     5
 63
     7
421
 16777215
176
     1
 74
     1
176
     1
 91
        0
176
     1
 64
     7
176
     1
 65
   257
176
     1
 75
     1
176
     1
175
     1
176
     1
 42
1.0
176
     1
 92
        0
176
     1
 66
   257
176
     1
 43
1.0
176
     1
 76
     1
176
     1
 77
     6
176
     1
 78
     2
176
     1
 67
     7
176
     1
 79
     5
176
     1
170
     0
176
     1
171
     0
176
     1
290
     0
176
     1
 93
       13
176
     1
 44
0.0
176
     1
173
     0
176
     1
  0
VISUALSTYLE
  5
2D
102
{ACAD_REACTORS
330
2A
102
}
102
{ACAD_XDICTIONARY
360
1BD
102
}
330
2A
100
AcDbVisualStyle
  2
Gouraud
 70
     2
177
     2
291
     1
 71
     2
176
     1
 72
     2
176
     1
 73
     1
176
     1
 90
        2
176
     1
 40
0.6
176
     1
 41
30.0
176
     1
 62
     5
 63
     7
421
 16777215
176
     1
 74
     0
176
     1
 91
        0
176
     1
 64
     7
176
     1
 65
   257
176
     1
 75
     1
176
     1
175
     1
176
     1
 42
1.0
176
     1
 92
        0
176
     1
 66
     7
176
     1
 43
1.0
176
     1
 76
     1
176
     1
 77
     6
176
     1
 78
     2
176
     1
 67
     7
176
     1
 79
     5
176
     1
170
     0
176
     1
171
     0
176
     1
290
     0
176
     1
 93
       13
176
     1
 44
0.0
176
     1
173
     0
176
     1
  0
VISUALSTYLE
  5
2E
102
{ACAD_REACTORS
330
2A
102
}
102
{ACAD_XDICTIONARY
360
1BF
102
}
330
2A
100
AcDbVisualStyle
  2
GouraudWithEdges
 70
     3
177
     2
291
     1
 71
     2
176
     1
 72
     2
176
     1
 73
     1
176
     1
 90
        2
176
     1
 40
0.6
176
     1
 41
30.0
176
     1
 62
     5
 63
     7
421
 16777215
176
     1
 74
     1
176
     1
 91
        0
176
     1
 64
     7
176
     1
 65
   257
176
     1
 75
     1
176
     1
175
     1
176
     1
 42
1.0
176
     1
 92
        0
176
     1
 66
   257
176
     1
 43
1.0
176
     1
 76
     1
176
     1
 77
     6
176
     1
 78
     2
176
     1
 67
     7
176
     1
 79
     5
176
     1
170
     0
176
     1
171
     0
176
     1
290
     0
176
     1
 93
       13
176
     1
 44
0.0
176
     1
173
     0
176
     1
  0
VISUALSTYLE
  5
31
102
{ACAD_REACTORS
330
2A
102
}
102
{ACAD_XDICTIONARY
360
1C5
102
}
330
2A
100
AcDbVisualStyle
  2
Hidden
 70
     6
177
     2
291
     0
 71
     1
176
     1
 72
     2
176
     1
 73
     2
176
     1
 90
        0
176
     1
 40
0.6
176
     1
 41
30.0
176
     1
 62
     5
 63
     7
421
 16777215
176
     1
 74
     2
176
     1
 91
        2
176
     1
 64
     7
176
     1
 65
   257
176
     1
 75
     2
176
     1
175
     1
176
     1
 42
40.0
176
     1
 92
        0
176
     1
 66
   257
176
     1
 43
1.0
176
     1
 76
     1
176
     1
 77
     6
176
     1
 78
     2
176
     1
 67
     7
176
     1
 79
     3
176
     1
170
     0
176
     1
171
     0
176
     1
290
     0
176
     1
 93
        1
176
     1
 44
0.0
176
     1
173
     0
176
     1
  0
VISUALSTYLE
  5
3B
102
{ACAD_REACTORS
330
2A
102
}
102
{ACAD_XDICTIONARY
360
1D9
102
}
330
2A
100
AcDbVisualStyle
  2
JitterOff
 70
    20
177
     2
291
     1
 71
     2
176
     0
 72
     2
176
     0
 73
     0
176
     0
 90
        0
176
     0
 40
0.6
176
     0
 41
30.0
176
     0
 62
     5
 63
     7
421
 16777215
176
     0
 74
     1
176
     0
 91
        4
176
     0
 64
     7
176
     0
 65
   257
176
     0
 75
     1
176
     0
175
     1
176
     0
 42
1.0
176
     0
 92
       10
176
     2
 66
     7
176
     0
 43
1.0
176
     0
 76
     1
176
     0
 77
     6
176
     0
 78
     2
176
     0
 67
     7
176
     0
 79
     5
176
     0
170
     0
176
     0
171
     0
176
     0
290
     0
176
     0
 93
        1
176
     0
 44
0.0
176
     0
173
     0
176
     0
  0
VISUALSTYLE
  5
38
102
{ACAD_REACTORS
330
2A
102
}
102
{ACAD_XDICTIONARY
360
1D3
102
}
330
2A
100
AcDbVisualStyle
  2
Linepattern
 70
    14
177
     2
291
     1
 71
     2
176
     1
 72
     2
176
     1
 73
     0
176
     1
 90
        0
176
     1
 40
0.6
176
     1
 41
30.0
176
     1
 62
     5
 63
     7
421
 16777215
176
     1
 74
     1
176
     1
 91
        4
176
     1
 64
     7
176
     1
 65
   257
176
     1
 75
     7
176
     1
175
     7
176
     1
 42
1.0
176
     1
 92
        8
176
     1
 66
     7
176
     1
 43
1.0
176
     1
 76
     1
176
     1
 77
     6
176
     1
 78
     2
176
     1
 67
     7
176
     1
 79
     5
176
     1
170
     0
176
     1
171
     0
176
     1
290
     0
176
     1
 93
        1
176
     1
 44
0.0
176
     1
173
     0
176
     1
  0
VISUALSTYLE
  5
3C
102
{ACAD_REACTORS
330
2A
102
}
102
{ACAD_XDICTIONARY
360
1DB
102
}
330
2A
100
AcDbVisualStyle
  2
OverhangOff
 70
    21
177
     2
291
     1
 71
     2
176
     0
 72
     2
176
     0
 73
     0
176
     0
 90
        0
176
     0
 40
0.6
176
     0
 41
30.0
176
     0
 62
     5
 63
     7
421
 16777215
176
     0
 74
     1
176
     0
 91
        4
176
     0
 64
     7
176
     0
 65
   257
176
     0
 75
     1
176
     0
175
     1
176
     0
 42
1.0
176
     0
 92
        9
176
     2
 66
     7
176
     0
 43
1.0
176
     0
 76
     1
176
     0
 77
     6
176
     0
 78
     2
176
     0
 67
     7
176
     0
 79
     5
176
     0
170
     0
176
     0
171
     0
176
     0
290
     0
176
     0
 93
        1
176
     0
 44
0.0
176
     0
173
     0
176
     0
  0
VISUALSTYLE
  5
33
102
{ACAD_REACTORS
330
2A
102
}
102
{ACAD_XDICTIONARY
360
1C9
102
}
330
2A
100
AcDbVisualStyle
  2
Realistic
 70
     8
177
     2
291
     0
 71
     2
176
     1
 72
     3
176
     1
 73
     0
176
     1
 90
        2
176
     1
 40
0.6
176
     1
 41
30.0
176
     1
 62
     5
 63
     7
421
 16777215
176
     1
 74
     0
176
     1
 91
        0
176
     1
 64
     7
176
     1
 65
   257
176
     1
 75
     1
176
     1
175
     1
176
     1
 42
1.0
176
     1
 92
        8
176
     1
 66
   257
176
     1
 43
1.0
176
     1
 76
     1
176
     1
 77
     6
176
     1
 78
     2
176
     1
 67
     7
176
     1
 79
     3
176
     1
170
     0
176
     1
171
     0
176
     1
290
     0
176
     1
 93
       13
176
     1
 44
0.0
176
     1
173
     0
176
     1
  0
VISUALSTYLE
  5
42
102
{ACAD_REACTORS
330
2A
102
}
102
{ACAD_XDICTIONARY
360
1E7
102
}
330
2A
100
AcDbVisualStyle
  2
Shaded
 70
    27
177
     2
291
     0
 71
     2
176
     1
 72
     2
176
     1
 73
     1
176
     1
 90
        2
176
     1
 40
0.6
176
     1
 41
30.0
176
     1
 62
     5
 63
     7
421
 16777215
176
     1
 74
     0
176
     1
 91
        4
176
     1
 64
     7
176
     1
 65
   257
176
     1
 75
     1
176
     1
175
     1
176
     1
 42
1.0
176
     1
 92
        8
176
     1
 66
   257
176
     1
 43
1.0
176
     1
 76
     1
176
     1
 77
     6
176
     1
 78
     2
176
     1
 67
     8
425
  7895160
176
     1
 79
     3
176
     1
170
     0
176
     1
171
     0
176
     1
290
     0
176
     1
 93
        5
176
     1
 44
0.0
176
     1
173
     0
176
     1
  0
VISUALSTYLE
  5
41
102
{ACAD_REACTORS
330
2A
102
}
102
{ACAD_XDICTIONARY
360
1E5
102
}
330
2A
100
AcDbVisualStyle
  2
Shaded with edges
 70
    26
177
     2
291
     0
 71
     2
176
     1
 72
     2
176
     1
 73
     1
176
     1
 90
        2
176
     1
 40
0.6
176
     1
 41
30.0
176
     1
 62
     5
 63
     7
421
 16777215
176
     1
 74
     1
176
     1
 91
       10
176
     1
 64
     7
176
     1
 65
   257
176
     1
 75
     2
176
     1
175
     1
176
     1
 42
1.0
176
     1
 92
        8
176
     1
 66
   257
176
     1
 43
1.0
176
     1
 76
     1
176
     1
 77
     6
176
     1
 78
     2
176
     1
 67
     7
176
     1
 79
     3
176
     1
170
     0
176
     1
171
     0
176
     1
290
     0
176
     1
 93
        5
176
     1
 44
0.0
176
     1
173
     0
176
     1
  0
VISUALSTYLE
  5
3E
102
{ACAD_REACTORS
330
2A
102
}
102
{ACAD_XDICTIONARY
360
1DF
102
}
330
2A
100
AcDbVisualStyle
  2
Shades of Gray
 70
    23
177
     2
291
     0
 71
     2
176
     1
 72
     2
176
     1
 73
     3
176
     1
 90
        0
176
     1
 40
0.6
176
     1
 41
30.0
176
     1
 62
     5
 63
     7
421
 16777215
176
     1
 74
     2
176
     1
 91
        2
176
     1
 64
     7
176
     1
 65
     7
176
     1
 75
     1
176
     1
175
     1
176
     1
 42
40.0
176
     1
 92
        8
176
     1
 66
     7
176
     1
 43
1.0
176
     1
 76
     1
176
     1
 77
     6
176
     1
 78
     2
176
     1
 67
     7
176
     1
 79
     3
176
     1
170
     0
176
     1
171
     0
176
     1
290
     0
176
     1
 93
        1
176
     1
 44
0.0
176
     1
173
     0
176
     1
  0
VISUALSTYLE
  5
3F
102
{ACAD_REACTORS
330
2A
102
}
102
{ACAD_XDICTIONARY
360
1E1
102
}
330
2A
100
AcDbVisualStyle
  2
Sketchy
 70
    24
177
     2
291
     0
 71
     1
176
     1
 72
     2
176
     1
 73
     2
176
     1
 90
        0
176
     1
 40
0.6
176
     1
 41
30.0
176
     1
 62
     5
 63
     7
421
 16777215
176
     1
 74
     2
176
     1
 91
        2
176
     1
 64
     7
176
     1
 65
     7
176
     1
 75
     1
176
     1
175
     1
176
     1
 42
40.0
176
     1
 92
       11
176
     1
 66
     7
176
     1
 43
1.0
176
     1
 76
     1
176
     1
 77
     6
176
     1
 78
     2
176
     1
 67
     7
176
     1
 79
     6
176
     1
170
     0
176
     1
171
     0
176
     1
290
     0
176
     1
 93
        1
176
     1
 44
0.0
176
     1
173
     0
176
     1
  0
VISUALSTYLE
  5
37
102
{ACAD_REACTORS
330
2A
102
}
102
{ACAD_XDICTIONARY
360
1D1
102
}
330
2A
100
AcDbVisualStyle
  2
Thicken
 70
    13
177
     2
291
     1
 71
     2
176
     1
 72
     2
176
     1
 73
     0
176
     1
 90
        0
176
     1
 40
0.6
176
     1
 41
30.0
176
     1
 62
     5
 63
     7
421
 16777215
176
     1
 74
     1
176
     1
 91
        4
176
     1
 64
     7
176
     1
 65
   257
176
     1
 75
     1
176
     1
175
     1
176
     1
 42
1.0
176
     1
 92
       12
176
     1
 66
     7
176
     1
 43
1.0
176
     1
 76
     1
176
     1
 77
     6
176
     1
 78
     2
176
     1
 67
     7
176
     1
 79
     5
176
     1
170
     0
176
     1
171
     0
176
     1
290
     0
176
     1
 93
        1
176
     1
 44
0.0
176
     1
173
     0
176
     1
  0
VISUALSTYLE
  5
30
102
{ACAD_REACTORS
330
2A
102
}
102
{ACAD_XDICTIONARY
360
1C3
102
}
330
2A
100
AcDbVisualStyle
  2
Wireframe
 70
     5
177
     2
291
     0
 71
     0
176
     1
 72
     2
176
     1
 73
     0
176
     1
 90
        0
176
     1
 40
0.6
176
     1
 41
30.0
176
     1
 62
     5
 63
     7
421
 16777215
176
     1
 74
     1
176
     1
 91
        4
176
     1
 64
     7
176
     1
 65
   257
176
     1
 75
     1
176
     1
175
     1
176
     1
 42
1.0
176
     1
 92
        0
176
     1
 66
   257
176
     1
 43
1.0
176
     1
 76
     1
176
     1
 77
     6
176
     1
 78
     2
176
     1
 67
     7
176
     1
 79
     3
176
     1
170
     0
176
     1
171
     0
176
     1
290
     0
176
     1
 93
        1
176
     1
 44
0.0
176
     1
173
     0
176
     1
  0
VISUALSTYLE
  5
40
102
{ACAD_REACTORS
330
2A
102
}
102
{ACAD_XDICTIONARY
360
1E3
102
}
330
2A
100
AcDbVisualStyle
  2
X-Ray
 70
    25
177
     2
291
     0
 71
     2
176
     1
 72
     2
176
     1
 73
     1
176
     1
 90
        1
176
     1
 40
0.5
176
     1
 41
30.0
176
     1
 62
     5
 63
     7
421
 16777215
176
     1
 74
     1
176
     1
 91
        0
176
     1
 64
     7
176
     1
 65
   257
176
     1
 75
     1
176
     1
175
     1
176
     1
 42
1.0
176
     1
 92
        8
176
     1
 66
     7
176
     1
 43
1.0
176
     1
 76
     1
176
     1
 77
     6
176
     1
 78
     2
176
     1
 67
     7
176
     1
 79
     3
176
     1
170
     0
176
     1
171
     0
176
     1
290
     0
176
     1
 93
       13
176
     1
 44
0.0
176
     1
173
     0
176
     1
  0
DICTIONARYVAR
  5
1B8
102
{ACAD_REACTORS
330
1B7
102
}
330
1B7
100
DictionaryVariables
280
     0
  1
1:1
  0
DICTIONARYVAR
  5
1ED
102
{ACAD_REACTORS
330
1B7
102
}
330
1B7
100
DictionaryVariables
280
     0
  1
Standard
  0
DICTIONARYVAR
  5
1EC
102
{ACAD_REACTORS
330
1B7
102
}
330
1B7
100
DictionaryVariables
280
     0
  1
Standard
  0
DICTIONARY
  5
1E9
330
6A
100
AcDbDictionary
280
     1
281
     1
  3
ACAD_ROUNDTRIP_2008_TABLESTYLE_CELLSTYLEMAP
360
1EA
  0
DICTIONARY
  5
1C1
330
2F
100
AcDbDictionary
280
     1
281
     1
  3
ACAD_XREC_ROUNDTRIP
360
1C2
  0
DICTIONARY
  5
1C7
330
32
100
AcDbDictionary
280
     1
281
     1
  3
ACAD_XREC_ROUNDTRIP
360
1C8
  0
DICTIONARY
  5
1CF
330
36
100
AcDbDictionary
280
     1
281
     1
  3
ACAD_XREC_ROUNDTRIP
360
1D0
  0
DICTIONARY
  5
1D7
330
3A
100
AcDbDictionary
280
     1
281
     1
  3
ACAD_XREC_ROUNDTRIP
360
1D8
  0
DICTIONARY
  5
1CB
330
34
100
AcDbDictionary
280
     1
281
     1
  3
ACAD_XREC_ROUNDTRIP
360
1CC
  0
DICTIONARY
  5
1CD
330
35
100
AcDbDictionary
280
     1
281
     1
  3
ACAD_XREC_ROUNDTRIP
360
1CE
  0
DICTIONARY
  5
1DD
330
3D
100
AcDbDictionary
280
     1
281
     1
  3
ACAD_XREC_ROUNDTRIP
360
1DE
  0
DICTIONARY
  5
1D5
330
39
100
AcDbDictionary
280
     1
281
     1
  3
ACAD_XREC_ROUNDTRIP
360
1D6
  0
DICTIONARY
  5
1B9
330
2B
100
AcDbDictionary
280
     1
281
     1
  3
ACAD_XREC_ROUNDTRIP
360
1BA
  0
DICTIONARY
  5
1BB
330
2C
100
AcDbDictionary
280
     1
281
     1
  3
ACAD_XREC_ROUNDTRIP
360
1BC
  0
DICTIONARY
  5
1BD
330
2D
100
AcDbDictionary
280
     1
281
     1
  3
ACAD_XREC_ROUNDTRIP
360
1BE
  0
DICTIONARY
  5
1BF
330
2E
100
AcDbDictionary
280
     1
281
     1
  3
ACAD_XREC_ROUNDTRIP
360
1C0
  0
DICTIONARY
  5
1C5
330
31
100
AcDbDictionary
280
     1
281
     1
  3
ACAD_XREC_ROUNDTRIP
360
1C6
  0
DICTIONARY
  5
1D9
330
3B
100
AcDbDictionary
280
     1
281
     1
  3
ACAD_XREC_ROUNDTRIP
360
1DA
  0
DICTIONARY
  5
1D3
330
38
100
AcDbDictionary
280
     1
281
     1
  3
ACAD_XREC_ROUNDTRIP
360
1D4
  0
DICTIONARY
  5
1DB
330
3C
100
AcDbDictionary
280
     1
281
     1
  3
ACAD_XREC_ROUNDTRIP
360
1DC
  0
DICTIONARY
  5
1C9
330
33
100
AcDbDictionary
280
     1
281
     1
  3
ACAD_XREC_ROUNDTRIP
360
1CA
  0
DICTIONARY
  5
1E7
330
42
100
AcDbDictionary
280
     1
281
     1
  3
ACAD_XREC_ROUNDTRIP
360
1E8
  0
DICTIONARY
  5
1E5
330
41
100
AcDbDictionary
280
     1
281
     1
  3
ACAD_XREC_ROUNDTRIP
360
1E6
  0
DICTIONARY
  5
1DF
330
3E
100
AcDbDictionary
280
     1
281
     1
  3
ACAD_XREC_ROUNDTRIP
360
1E0
  0
DICTIONARY
  5
1E1
330
3F
100
AcDbDictionary
280
     1
281
     1
  3
ACAD_XREC_ROUNDTRIP
360
1E2
  0
DICTIONARY
  5
1D1
330
37
100
AcDbDictionary
280
     1
281
     1
  3
ACAD_XREC_ROUNDTRIP
360
1D2
  0
DICTIONARY
  5
1C3
330
30
100
AcDbDictionary
280
     1
281
     1
  3
ACAD_XREC_ROUNDTRIP
360
1C4
  0
DICTIONARY
  5
1E3
330
40
100
AcDbDictionary
280
     1
281
     1
  3
ACAD_XREC_ROUNDTRIP
360
1E4
  0
CELLSTYLEMAP
  5
1EA
102
{ACAD_REACTORS
330
1E9
102
}
330
1E9
100
AcDbCellStyleMap
 90
        3
300
CELLSTYLE
  1
TABLEFORMAT_BEGIN
 90
        5
170
     1
 91
        0
 92
    32768
 62
   257
 93
        1
300
CONTENTFORMAT
  1
CONTENTFORMAT_BEGIN
 90
        0
 91
        0
 92
        4
 93
        0
300

 40
0.0
140
1.0
 94
        5
 62
     0
340
11
144
6.0
309
CONTENTFORMAT_END
171
     1
301
MARGIN
  1
CELLMARGIN_BEGIN
 40
1.5
 40
1.5
 40
1.5
 40
1.5
 40
1.5
 40
1.5
309
CELLMARGIN_END
 94
        6
 95
        1
302
GRIDFORMAT
  1
GRIDFORMAT_BEGIN
 90
        0
 91
        1
 62
     0
 92
       -2
340
14
 93
        0
 40
0.045
309
GRIDFORMAT_END
 95
        2
302
GRIDFORMAT
  1
GRIDFORMAT_BEGIN
 90
        0
 91
        1
 62
     0
 92
       -2
340
14
 93
        0
 40
0.045
309
GRIDFORMAT_END
 95
        4
302
GRIDFORMAT
  1
GRIDFORMAT_BEGIN
 90
        0
 91
        1
 62
     0
 92
       -2
340
14
 93
        0
 40
0.045
309
GRIDFORMAT_END
 95
        8
302
GRIDFORMAT
  1
GRIDFORMAT_BEGIN
 90
        0
 91
        1
 62
     0
 92
       -2
340
14
 93
        0
 40
0.045
309
GRIDFORMAT_END
 95
       16
302
GRIDFORMAT
  1
GRIDFORMAT_BEGIN
 90
        0
 91
        1
 62
     0
 92
       -2
340
14
 93
        0
 40
0.045
309
GRIDFORMAT_END
 95
       32
302
GRIDFORMAT
  1
GRIDFORMAT_BEGIN
 90
        0
 91
        1
 62
     0
 92
       -2
340
14
 93
        0
 40
0.045
309
GRIDFORMAT_END
309
TABLEFORMAT_END
  1
CELLSTYLE_BEGIN
 90
        1
 91
        1
300
_TITLE
309
CELLSTYLE_END
300
CELLSTYLE
  1
TABLEFORMAT_BEGIN
 90
        5
170
     1
 91
        0
 92
        0
 62
   257
 93
        1
300
CONTENTFORMAT
  1
CONTENTFORMAT_BEGIN
 90
        0
 91
        0
 92
        4
 93
        0
300

 40
0.0
140
1.0
 94
        5
 62
     0
340
11
144
4.5
309
CONTENTFORMAT_END
171
     1
301
MARGIN
  1
CELLMARGIN_BEGIN
 40
1.5
 40
1.5
 40
1.5
 40
1.5
 40
1.5
 40
1.5
309
CELLMARGIN_END
 94
        6
 95
        1
302
GRIDFORMAT
  1
GRIDFORMAT_BEGIN
 90
        0
 91
        1
 62
     0
 92
       -2
340
14
 93
        0
 40
0.045
309
GRIDFORMAT_END
 95
        2
302
GRIDFORMAT
  1
GRIDFORMAT_BEGIN
 90
        0
 91
        1
 62
     0
 92
       -2
340
14
 93
        0
 40
0.045
309
GRIDFORMAT_END
 95
        4
302
GRIDFORMAT
  1
GRIDFORMAT_BEGIN
 90
        0
 91
        1
 62
     0
 92
       -2
340
14
 93
        0
 40
0.045
309
GRIDFORMAT_END
 95
        8
302
GRIDFORMAT
  1
GRIDFORMAT_BEGIN
 90
        0
 91
        1
 62
     0
 92
       -2
340
14
 93
        0
 40
0.045
309
GRIDFORMAT_END
 95
       16
302
GRIDFORMAT
  1
GRIDFORMAT_BEGIN
 90
        0
 91
        1
 62
     0
 92
       -2
340
14
 93
        0
 40
0.045
309
GRIDFORMAT_END
 95
       32
302
GRIDFORMAT
  1
GRIDFORMAT_BEGIN
 90
        0
 91
        1
 62
     0
 92
       -2
340
14
 93
        0
 40
0.045
309
GRIDFORMAT_END
309
TABLEFORMAT_END
  1
CELLSTYLE_BEGIN
 90
        2
 91
        1
300
_HEADER
309
CELLSTYLE_END
300
CELLSTYLE
  1
TABLEFORMAT_BEGIN
 90
        5
170
     1
 91
        0
 92
        0
 62
   257
 93
        1
300
CONTENTFORMAT
  1
CONTENTFORMAT_BEGIN
 90
        0
 91
        0
 92
        4
 93
        0
300

 40
0.0
140
1.0
 94
        2
 62
     0
340
11
144
4.5
309
CONTENTFORMAT_END
171
     1
301
MARGIN
  1
CELLMARGIN_BEGIN
 40
1.5
 40
1.5
 40
1.5
 40
1.5
 40
1.5
 40
1.5
309
CELLMARGIN_END
 94
        6
 95
        1
302
GRIDFORMAT
  1
GRIDFORMAT_BEGIN
 90
        0
 91
        1
 62
     0
 92
       -2
340
14
 93
        0
 40
0.045
309
GRIDFORMAT_END
 95
        2
302
GRIDFORMAT
  1
GRIDFORMAT_BEGIN
 90
        0
 91
        1
 62
     0
 92
       -2
340
14
 93
        0
 40
0.045
309
GRIDFORMAT_END
 95
        4
302
GRIDFORMAT
  1
GRIDFORMAT_BEGIN
 90
        0
 91
        1
 62
     0
 92
       -2
340
14
 93
        0
 40
0.045
309
GRIDFORMAT_END
 95
        8
302
GRIDFORMAT
  1
GRIDFORMAT_BEGIN
 90
        0
 91
        1
 62
     0
 92
       -2
340
14
 93
        0
 40
0.045
309
GRIDFORMAT_END
 95
       16
302
GRIDFORMAT
  1
GRIDFORMAT_BEGIN
 90
        0
 91
        1
 62
     0
 92
       -2
340
14
 93
        0
 40
0.045
309
GRIDFORMAT_END
 95
       32
302
GRIDFORMAT
  1
GRIDFORMAT_BEGIN
 90
        0
 91
        1
 62
     0
 92
       -2
340
14
 93
        0
 40
0.045
309
GRIDFORMAT_END
309
TABLEFORMAT_END
  1
CELLSTYLE_BEGIN
 90
        3
 91
        2
300
_DATA
309
CELLSTYLE_END
  0
XRECORD
  5
1C2
102
{ACAD_REACTORS
330
1C1
102
}
330
1C1
100
AcDbXrecord
280
     1
102
RTVSPost2010Prop28
280
     1
102
RTVSPost2010PropOp28
 70
     1
102
RTVSPost2010Prop29
280
     1
102
RTVSPost2010PropOp29
 70
     1
102
RTVSPost2010Prop30
280
     0
102
RTVSPost2010PropOp30
 70
     1
102
RTVSPost2010Prop31
280
     0
102
RTVSPost2010PropOp31
 70
     1
102
RTVSPost2010Prop32
280
     0
102
RTVSPost2010PropOp32
 70
     1
102
RTVSPost2010Prop33
280
     0
102
RTVSPost2010PropOp33
 70
     1
102
RTVSPost2010Prop34
280
     0
102
RTVSPost2010PropOp34
 70
     1
102
RTVSPost2010Prop35
280
     0
102
RTVSPost2010PropOp35
 70
     1
102
RTVSPost2010Prop36
280
     0
102
RTVSPost2010PropOp36
 70
     1
102
RTVSPost2010Prop37
 90
       50
102
RTVSPost2010PropOp37
 70
     1
102
RTVSPost2010Prop38
140
0.0
102
RTVSPost2010PropOp38
 70
     1
102
RTVSPost2010Prop39
140
1.0
102
RTVSPost2010PropOp39
 70
     1
102
RTVSPost2010Prop40
 90
        0
102
RTVSPost2010PropOp40
 70
     1
102
RTVSPost2010Prop41ColorIndex
 90
       18
102
RTVSPost2010Prop41ColorRGB
 90
        0
102
RTVSPost2010PropOp41
 70
     1
102
RTVSPost2010Prop42
 90
       50
102
RTVSPost2010PropOp42
 70
     1
102
RTVSPost2010Prop43
 90
        3
102
RTVSPost2010PropOp43
 70
     1
102
RTVSPost2010Prop44ColorIndex
 90
        5
102
RTVSPost2010Prop44ColorRGB
 90
      255
102
RTVSPost2010PropOp44
 70
     1
102
RTVSPost2010Prop45
280
     0
102
RTVSPost2010PropOp45
 70
     1
102
RTVSPost2010Prop46
 90
       50
102
RTVSPost2010PropOp46
 70
     1
102
RTVSPost2010Prop47
 90
       50
102
RTVSPost2010PropOp47
 70
     1
102
RTVSPost2010Prop48
 90
       50
102
RTVSPost2010PropOp48
 70
     1
102
RTVSPost2010Prop49
280
     0
102
RTVSPost2010PropOp49
 70
     1
102
RTVSPost2010Prop50
 90
       50
102
RTVSPost2010PropOp50
 70
     1
102
RTVSPost2010Prop51ColorIndex
 90
      256
102
RTVSPost2010Prop51ColorRGB
 90
-16777216
102
RTVSPost2010PropOp51
 70
     0
102
RTVSPost2010Prop52
140
1.0
102
RTVSPost2010PropOp52
 70
     0
102
RTVSPost2010Prop53
 90
        2
102
RTVSPost2010PropOp53
 70
     1
102
RTVSPost2010Prop54
  1
strokes_ogs.tif
102
RTVSPost2010PropOp54
 70
     1
102
RTVSPost2010Prop55
280
     0
102
RTVSPost2010PropOp55
 70
     1
102
RTVSPost2010Prop56
140
1.0
102
RTVSPost2010PropOp56
 70
     1
102
RTVSPost2010Prop57
140
1.0
102
RTVSPost2010PropOp57
 70
     1
  0
XRECORD
  5
1C8
102
{ACAD_REACTORS
330
1C7
102
}
330
1C7
100
AcDbXrecord
280
     1
102
RTVSPost2010Prop28
280
     0
102
RTVSPost2010PropOp28
 70
     1
102
RTVSPost2010Prop29
280
     1
102
RTVSPost2010PropOp29
 70
     1
102
RTVSPost2010Prop30
280
     1
102
RTVSPost2010PropOp30
 70
     1
102
RTVSPost2010Prop31
280
     0
102
RTVSPost2010PropOp31
 70
     1
102
RTVSPost2010Prop32
280
     0
102
RTVSPost2010PropOp32
 70
     1
102
RTVSPost2010Prop33
280
     0
102
RTVSPost2010PropOp33
 70
     1
102
RTVSPost2010Prop34
280
     0
102
RTVSPost2010PropOp34
 70
     1
102
RTVSPost2010Prop35
280
     0
102
RTVSPost2010PropOp35
 70
     1
102
RTVSPost2010Prop36
280
     0
102
RTVSPost2010PropOp36
 70
     1
102
RTVSPost2010Prop37
 90
       50
102
RTVSPost2010PropOp37
 70
     1
102
RTVSPost2010Prop38
140
0.0
102
RTVSPost2010PropOp38
 70
     1
102
RTVSPost2010Prop39
140
1.0
102
RTVSPost2010PropOp39
 70
     1
102
RTVSPost2010Prop40
 90
        0
102
RTVSPost2010PropOp40
 70
     1
102
RTVSPost2010Prop41ColorIndex
 90
       18
102
RTVSPost2010Prop41ColorRGB
 90
        0
102
RTVSPost2010PropOp41
 70
     1
102
RTVSPost2010Prop42
 90
       50
102
RTVSPost2010PropOp42
 70
     1
102
RTVSPost2010Prop43
 90
        3
102
RTVSPost2010PropOp43
 70
     1
102
RTVSPost2010Prop44ColorIndex
 90
        5
102
RTVSPost2010Prop44ColorRGB
 90
      255
102
RTVSPost2010PropOp44
 70
     1
102
RTVSPost2010Prop45
280
     0
102
RTVSPost2010PropOp45
 70
     1
102
RTVSPost2010Prop46
 90
       50
102
RTVSPost2010PropOp46
 70
     1
102
RTVSPost2010Prop47
 90
       50
102
RTVSPost2010PropOp47
 70
     1
102
RTVSPost2010Prop48
 90
       50
102
RTVSPost2010PropOp48
 70
     1
102
RTVSPost2010Prop49
280
     0
102
RTVSPost2010PropOp49
 70
     1
102
RTVSPost2010Prop50
 90
       50
102
RTVSPost2010PropOp50
 70
     1
102
RTVSPost2010Prop51ColorIndex
 90
      256
102
RTVSPost2010Prop51ColorRGB
 90
-16777216
102
RTVSPost2010PropOp51
 70
     0
102
RTVSPost2010Prop52
140
1.0
102
RTVSPost2010PropOp52
 70
     0
102
RTVSPost2010Prop53
 90
        2
102
RTVSPost2010PropOp53
 70
     1
102
RTVSPost2010Prop54
  1
strokes_ogs.tif
102
RTVSPost2010PropOp54
 70
     1
102
RTVSPost2010Prop55
280
     0
102
RTVSPost2010PropOp55
 70
     1
102
RTVSPost2010Prop56
140
1.0
102
RTVSPost2010PropOp56
 70
     1
102
RTVSPost2010Prop57
140
1.0
102
RTVSPost2010PropOp57
 70
     1
  0
XRECORD
  5
1D0
102
{ACAD_REACTORS
330
1CF
102
}
330
1CF
100
AcDbXrecord
280
     1
102
RTVSPost2010Prop28
280
     0
102
RTVSPost2010PropOp28
 70
     1
102
RTVSPost2010Prop29
280
     1
102
RTVSPost2010PropOp29
 70
     1
102
RTVSPost2010Prop30
280
     1
102
RTVSPost2010PropOp30
 70
     1
102
RTVSPost2010Prop31
280
     0
102
RTVSPost2010PropOp31
 70
     1
102
RTVSPost2010Prop32
280
     0
102
RTVSPost2010PropOp32
 70
     1
102
RTVSPost2010Prop33
280
     0
102
RTVSPost2010PropOp33
 70
     1
102
RTVSPost2010Prop34
280
     0
102
RTVSPost2010PropOp34
 70
     1
102
RTVSPost2010Prop35
280
     0
102
RTVSPost2010PropOp35
 70
     1
102
RTVSPost2010Prop36
280
     0
102
RTVSPost2010PropOp36
 70
     1
102
RTVSPost2010Prop37
 90
       50
102
RTVSPost2010PropOp37
 70
     1
102
RTVSPost2010Prop38
140
0.0
102
RTVSPost2010PropOp38
 70
     1
102
RTVSPost2010Prop39
140
1.0
102
RTVSPost2010PropOp39
 70
     1
102
RTVSPost2010Prop40
 90
        0
102
RTVSPost2010PropOp40
 70
     1
102
RTVSPost2010Prop41ColorIndex
 90
       18
102
RTVSPost2010Prop41ColorRGB
 90
        0
102
RTVSPost2010PropOp41
 70
     1
102
RTVSPost2010Prop42
 90
       50
102
RTVSPost2010PropOp42
 70
     1
102
RTVSPost2010Prop43
 90
        3
102
RTVSPost2010PropOp43
 70
     1
102
RTVSPost2010Prop44ColorIndex
 90
        5
102
RTVSPost2010Prop44ColorRGB
 90
      255
102
RTVSPost2010PropOp44
 70
     1
102
RTVSPost2010Prop45
280
     0
102
RTVSPost2010PropOp45
 70
     1
102
RTVSPost2010Prop46
 90
       50
102
RTVSPost2010PropOp46
 70
     1
102
RTVSPost2010Prop47
 90
       50
102
RTVSPost2010PropOp47
 70
     1
102
RTVSPost2010Prop48
 90
       50
102
RTVSPost2010PropOp48
 70
     1
102
RTVSPost2010Prop49
280
     0
102
RTVSPost2010PropOp49
 70
     1
102
RTVSPost2010Prop50
 90
       50
102
RTVSPost2010PropOp50
 70
     1
102
RTVSPost2010Prop51ColorIndex
 90
      256
102
RTVSPost2010Prop51ColorRGB
 90
-16777216
102
RTVSPost2010PropOp51
 70
     0
102
RTVSPost2010Prop52
140
1.0
102
RTVSPost2010PropOp52
 70
     0
102
RTVSPost2010Prop53
 90
        2
102
RTVSPost2010PropOp53
 70
     1
102
RTVSPost2010Prop54
  1
strokes_ogs.tif
102
RTVSPost2010PropOp54
 70
     1
102
RTVSPost2010Prop55
280
     0
102
RTVSPost2010PropOp55
 70
     1
102
RTVSPost2010Prop56
140
1.0
102
RTVSPost2010PropOp56
 70
     1
102
RTVSPost2010Prop57
140
1.0
102
RTVSPost2010PropOp57
 70
     1
  0
XRECORD
  5
1D8
102
{ACAD_REACTORS
330
1D7
102
}
330
1D7
100
AcDbXrecord
280
     1
102
RTVSPost2010Prop28
280
     0
102
RTVSPost2010PropOp28
 70
     1
102
RTVSPost2010Prop29
280
     1
102
RTVSPost2010PropOp29
 70
     1
102
RTVSPost2010Prop30
280
     1
102
RTVSPost2010PropOp30
 70
     1
102
RTVSPost2010Prop31
280
     0
102
RTVSPost2010PropOp31
 70
     1
102
RTVSPost2010Prop32
280
     0
102
RTVSPost2010PropOp32
 70
     1
102
RTVSPost2010Prop33
280
     0
102
RTVSPost2010PropOp33
 70
     1
102
RTVSPost2010Prop34
280
     0
102
RTVSPost2010PropOp34
 70
     1
102
RTVSPost2010Prop35
280
     0
102
RTVSPost2010PropOp35
 70
     1
102
RTVSPost2010Prop36
280
     0
102
RTVSPost2010PropOp36
 70
     1
102
RTVSPost2010Prop37
 90
       50
102
RTVSPost2010PropOp37
 70
     1
102
RTVSPost2010Prop38
140
0.0
102
RTVSPost2010PropOp38
 70
     1
102
RTVSPost2010Prop39
140
1.0
102
RTVSPost2010PropOp39
 70
     1
102
RTVSPost2010Prop40
 90
        0
102
RTVSPost2010PropOp40
 70
     1
102
RTVSPost2010Prop41ColorIndex
 90
       18
102
RTVSPost2010Prop41ColorRGB
 90
        0
102
RTVSPost2010PropOp41
 70
     1
102
RTVSPost2010Prop42
 90
       50
102
RTVSPost2010PropOp42
 70
     1
102
RTVSPost2010Prop43
 90
        3
102
RTVSPost2010PropOp43
 70
     1
102
RTVSPost2010Prop44ColorIndex
 90
        5
102
RTVSPost2010Prop44ColorRGB
 90
      255
102
RTVSPost2010PropOp44
 70
     1
102
RTVSPost2010Prop45
280
     0
102
RTVSPost2010PropOp45
 70
     1
102
RTVSPost2010Prop46
 90
       50
102
RTVSPost2010PropOp46
 70
     1
102
RTVSPost2010Prop47
 90
       50
102
RTVSPost2010PropOp47
 70
     1
102
RTVSPost2010Prop48
 90
       50
102
RTVSPost2010PropOp48
 70
     1
102
RTVSPost2010Prop49
280
     0
102
RTVSPost2010PropOp49
 70
     1
102
RTVSPost2010Prop50
 90
       50
102
RTVSPost2010PropOp50
 70
     1
102
RTVSPost2010Prop51ColorIndex
 90
      256
102
RTVSPost2010Prop51ColorRGB
 90
-16777216
102
RTVSPost2010PropOp51
 70
     0
102
RTVSPost2010Prop52
140
1.0
102
RTVSPost2010PropOp52
 70
     0
102
RTVSPost2010Prop53
 90
        2
102
RTVSPost2010PropOp53
 70
     1
102
RTVSPost2010Prop54
  1
strokes_ogs.tif
102
RTVSPost2010PropOp54
 70
     1
102
RTVSPost2010Prop55
280
     0
102
RTVSPost2010PropOp55
 70
     1
102
RTVSPost2010Prop56
140
1.0
102
RTVSPost2010PropOp56
 70
     1
102
RTVSPost2010Prop57
140
1.0
102
RTVSPost2010PropOp57
 70
     1
  0
XRECORD
  5
1CC
102
{ACAD_REACTORS
330
1CB
102
}
330
1CB
100
AcDbXrecord
280
     1
102
RTVSPost2010Prop28
280
     0
102
RTVSPost2010PropOp28
 70
     1
102
RTVSPost2010Prop29
280
     1
102
RTVSPost2010PropOp29
 70
     1
102
RTVSPost2010Prop30
280
     1
102
RTVSPost2010PropOp30
 70
     1
102
RTVSPost2010Prop31
280
     0
102
RTVSPost2010PropOp31
 70
     1
102
RTVSPost2010Prop32
280
     0
102
RTVSPost2010PropOp32
 70
     1
102
RTVSPost2010Prop33
280
     0
102
RTVSPost2010PropOp33
 70
     1
102
RTVSPost2010Prop34
280
     0
102
RTVSPost2010PropOp34
 70
     1
102
RTVSPost2010Prop35
280
     0
102
RTVSPost2010PropOp35
 70
     1
102
RTVSPost2010Prop36
280
     0
102
RTVSPost2010PropOp36
 70
     1
102
RTVSPost2010Prop37
 90
       50
102
RTVSPost2010PropOp37
 70
     1
102
RTVSPost2010Prop38
140
0.0
102
RTVSPost2010PropOp38
 70
     1
102
RTVSPost2010Prop39
140
1.0
102
RTVSPost2010PropOp39
 70
     1
102
RTVSPost2010Prop40
 90
        0
102
RTVSPost2010PropOp40
 70
     1
102
RTVSPost2010Prop41ColorIndex
 90
       18
102
RTVSPost2010Prop41ColorRGB
 90
        0
102
RTVSPost2010PropOp41
 70
     1
102
RTVSPost2010Prop42
 90
       50
102
RTVSPost2010PropOp42
 70
     1
102
RTVSPost2010Prop43
 90
        3
102
RTVSPost2010PropOp43
 70
     1
102
RTVSPost2010Prop44ColorIndex
 90
        5
102
RTVSPost2010Prop44ColorRGB
 90
      255
102
RTVSPost2010PropOp44
 70
     1
102
RTVSPost2010Prop45
280
     0
102
RTVSPost2010PropOp45
 70
     1
102
RTVSPost2010Prop46
 90
       50
102
RTVSPost2010PropOp46
 70
     1
102
RTVSPost2010Prop47
 90
       50
102
RTVSPost2010PropOp47
 70
     1
102
RTVSPost2010Prop48
 90
       50
102
RTVSPost2010PropOp48
 70
     1
102
RTVSPost2010Prop49
280
     0
102
RTVSPost2010PropOp49
 70
     1
102
RTVSPost2010Prop50
 90
       50
102
RTVSPost2010PropOp50
 70
     1
102
RTVSPost2010Prop51ColorIndex
 90
      256
102
RTVSPost2010Prop51ColorRGB
 90
-16777216
102
RTVSPost2010PropOp51
 70
     0
102
RTVSPost2010Prop52
140
1.0
102
RTVSPost2010PropOp52
 70
     0
102
RTVSPost2010Prop53
 90
        2
102
RTVSPost2010PropOp53
 70
     1
102
RTVSPost2010Prop54
  1
strokes_ogs.tif
102
RTVSPost2010PropOp54
 70
     1
102
RTVSPost2010Prop55
280
     0
102
RTVSPost2010PropOp55
 70
     1
102
RTVSPost2010Prop56
140
1.0
102
RTVSPost2010PropOp56
 70
     1
102
RTVSPost2010Prop57
140
1.0
102
RTVSPost2010PropOp57
 70
     1
  0
XRECORD
  5
1CE
102
{ACAD_REACTORS
330
1CD
102
}
330
1CD
100
AcDbXrecord
280
     1
102
RTVSPost2010Prop28
280
     0
102
RTVSPost2010PropOp28
 70
     1
102
RTVSPost2010Prop29
280
     1
102
RTVSPost2010PropOp29
 70
     1
102
RTVSPost2010Prop30
280
     1
102
RTVSPost2010PropOp30
 70
     1
102
RTVSPost2010Prop31
280
     0
102
RTVSPost2010PropOp31
 70
     1
102
RTVSPost2010Prop32
280
     0
102
RTVSPost2010PropOp32
 70
     1
102
RTVSPost2010Prop33
280
     0
102
RTVSPost2010PropOp33
 70
     1
102
RTVSPost2010Prop34
280
     0
102
RTVSPost2010PropOp34
 70
     1
102
RTVSPost2010Prop35
280
     0
102
RTVSPost2010PropOp35
 70
     1
102
RTVSPost2010Prop36
280
     0
102
RTVSPost2010PropOp36
 70
     1
102
RTVSPost2010Prop37
 90
       50
102
RTVSPost2010PropOp37
 70
     1
102
RTVSPost2010Prop38
140
0.0
102
RTVSPost2010PropOp38
 70
     1
102
RTVSPost2010Prop39
140
1.0
102
RTVSPost2010PropOp39
 70
     1
102
RTVSPost2010Prop40
 90
        0
102
RTVSPost2010PropOp40
 70
     1
102
RTVSPost2010Prop41ColorIndex
 90
       18
102
RTVSPost2010Prop41ColorRGB
 90
        0
102
RTVSPost2010PropOp41
 70
     1
102
RTVSPost2010Prop42
 90
       50
102
RTVSPost2010PropOp42
 70
     1
102
RTVSPost2010Prop43
 90
        3
102
RTVSPost2010PropOp43
 70
     1
102
RTVSPost2010Prop44ColorIndex
 90
        5
102
RTVSPost2010Prop44ColorRGB
 90
      255
102
RTVSPost2010PropOp44
 70
     1
102
RTVSPost2010Prop45
280
     0
102
RTVSPost2010PropOp45
 70
     1
102
RTVSPost2010Prop46
 90
       50
102
RTVSPost2010PropOp46
 70
     1
102
RTVSPost2010Prop47
 90
       50
102
RTVSPost2010PropOp47
 70
     1
102
RTVSPost2010Prop48
 90
       50
102
RTVSPost2010PropOp48
 70
     1
102
RTVSPost2010Prop49
280
     0
102
RTVSPost2010PropOp49
 70
     1
102
RTVSPost2010Prop50
 90
       50
102
RTVSPost2010PropOp50
 70
     1
102
RTVSPost2010Prop51ColorIndex
 90
      256
102
RTVSPost2010Prop51ColorRGB
 90
-16777216
102
RTVSPost2010PropOp51
 70
     0
102
RTVSPost2010Prop52
140
1.0
102
RTVSPost2010PropOp52
 70
     0
102
RTVSPost2010Prop53
 90
        2
102
RTVSPost2010PropOp53
 70
     1
102
RTVSPost2010Prop54
  1
strokes_ogs.tif
102
RTVSPost2010PropOp54
 70
     1
102
RTVSPost2010Prop55
280
     0
102
RTVSPost2010PropOp55
 70
     1
102
RTVSPost2010Prop56
140
1.0
102
RTVSPost2010PropOp56
 70
     1
102
RTVSPost2010Prop57
140
1.0
102
RTVSPost2010PropOp57
 70
     1
  0
XRECORD
  5
1DE
102
{ACAD_REACTORS
330
1DD
102
}
330
1DD
100
AcDbXrecord
280
     1
102
RTVSPost2010Prop28
280
     0
102
RTVSPost2010PropOp28
 70
     0
102
RTVSPost2010Prop29
280
     1
102
RTVSPost2010PropOp29
 70
     0
102
RTVSPost2010Prop30
280
     1
102
RTVSPost2010PropOp30
 70
     0
102
RTVSPost2010Prop31
280
     0
102
RTVSPost2010PropOp31
 70
     0
102
RTVSPost2010Prop32
280
     0
102
RTVSPost2010PropOp32
 70
     0
102
RTVSPost2010Prop33
280
     0
102
RTVSPost2010PropOp33
 70
     0
102
RTVSPost2010Prop34
280
     0
102
RTVSPost2010PropOp34
 70
     0
102
RTVSPost2010Prop35
280
     0
102
RTVSPost2010PropOp35
 70
     0
102
RTVSPost2010Prop36
280
     0
102
RTVSPost2010PropOp36
 70
     0
102
RTVSPost2010Prop37
 90
       50
102
RTVSPost2010PropOp37
 70
     0
102
RTVSPost2010Prop38
140
0.0
102
RTVSPost2010PropOp38
 70
     0
102
RTVSPost2010Prop39
140
1.0
102
RTVSPost2010PropOp39
 70
     0
102
RTVSPost2010Prop40
 90
        0
102
RTVSPost2010PropOp40
 70
     0
102
RTVSPost2010Prop41ColorIndex
 90
       18
102
RTVSPost2010Prop41ColorRGB
 90
        0
102
RTVSPost2010PropOp41
 70
     0
102
RTVSPost2010Prop42
 90
       50
102
RTVSPost2010PropOp42
 70
     0
102
RTVSPost2010Prop43
 90
        3
102
RTVSPost2010PropOp43
 70
     0
102
RTVSPost2010Prop44ColorIndex
 90
        5
102
RTVSPost2010Prop44ColorRGB
 90
      255
102
RTVSPost2010PropOp44
 70
     0
102
RTVSPost2010Prop45
280
     0
102
RTVSPost2010PropOp45
 70
     0
102
RTVSPost2010Prop46
 90
       50
102
RTVSPost2010PropOp46
 70
     0
102
RTVSPost2010Prop47
 90
       50
102
RTVSPost2010PropOp47
 70
     0
102
RTVSPost2010Prop48
 90
       50
102
RTVSPost2010PropOp48
 70
     0
102
RTVSPost2010Prop49
280
     0
102
RTVSPost2010PropOp49
 70
     0
102
RTVSPost2010Prop50
 90
       50
102
RTVSPost2010PropOp50
 70
     0
102
RTVSPost2010Prop51ColorIndex
 90
      256
102
RTVSPost2010Prop51ColorRGB
 90
-16777216
102
RTVSPost2010PropOp51
 70
     0
102
RTVSPost2010Prop52
140
1.0
102
RTVSPost2010PropOp52
 70
     0
102
RTVSPost2010Prop53
 90
        2
102
RTVSPost2010PropOp53
 70
     0
102
RTVSPost2010Prop54
  1
strokes_ogs.tif
102
RTVSPost2010PropOp54
 70
     0
102
RTVSPost2010Prop55
280
     0
102
RTVSPost2010PropOp55
 70
     0
102
RTVSPost2010Prop56
140
1.0
102
RTVSPost2010PropOp56
 70
     0
102
RTVSPost2010Prop57
140
1.0
102
RTVSPost2010PropOp57
 70
     0
  0
XRECORD
  5
1D6
102
{ACAD_REACTORS
330
1D5
102
}
330
1D5
100
AcDbXrecord
280
     1
102
RTVSPost2010Prop28
280
     0
102
RTVSPost2010PropOp28
 70
     1
102
RTVSPost2010Prop29
280
     1
102
RTVSPost2010PropOp29
 70
     1
102
RTVSPost2010Prop30
280
     1
102
RTVSPost2010PropOp30
 70
     1
102
RTVSPost2010Prop31
280
     0
102
RTVSPost2010PropOp31
 70
     1
102
RTVSPost2010Prop32
280
     0
102
RTVSPost2010PropOp32
 70
     1
102
RTVSPost2010Prop33
280
     0
102
RTVSPost2010PropOp33
 70
     1
102
RTVSPost2010Prop34
280
     0
102
RTVSPost2010PropOp34
 70
     1
102
RTVSPost2010Prop35
280
     0
102
RTVSPost2010PropOp35
 70
     1
102
RTVSPost2010Prop36
280
     0
102
RTVSPost2010PropOp36
 70
     1
102
RTVSPost2010Prop37
 90
       50
102
RTVSPost2010PropOp37
 70
     1
102
RTVSPost2010Prop38
140
0.0
102
RTVSPost2010PropOp38
 70
     1
102
RTVSPost2010Prop39
140
1.0
102
RTVSPost2010PropOp39
 70
     1
102
RTVSPost2010Prop40
 90
        0
102
RTVSPost2010PropOp40
 70
     1
102
RTVSPost2010Prop41ColorIndex
 90
       18
102
RTVSPost2010Prop41ColorRGB
 90
        0
102
RTVSPost2010PropOp41
 70
     1
102
RTVSPost2010Prop42
 90
       50
102
RTVSPost2010PropOp42
 70
     1
102
RTVSPost2010Prop43
 90
        3
102
RTVSPost2010PropOp43
 70
     1
102
RTVSPost2010Prop44ColorIndex
 90
        5
102
RTVSPost2010Prop44ColorRGB
 90
      255
102
RTVSPost2010PropOp44
 70
     1
102
RTVSPost2010Prop45
280
     0
102
RTVSPost2010PropOp45
 70
     1
102
RTVSPost2010Prop46
 90
       50
102
RTVSPost2010PropOp46
 70
     1
102
RTVSPost2010Prop47
 90
       50
102
RTVSPost2010PropOp47
 70
     1
102
RTVSPost2010Prop48
 90
       50
102
RTVSPost2010PropOp48
 70
     1
102
RTVSPost2010Prop49
280
     0
102
RTVSPost2010PropOp49
 70
     1
102
RTVSPost2010Prop50
 90
       50
102
RTVSPost2010PropOp50
 70
     1
102
RTVSPost2010Prop51ColorIndex
 90
      256
102
RTVSPost2010Prop51ColorRGB
 90
-16777216
102
RTVSPost2010PropOp51
 70
     0
102
RTVSPost2010Prop52
140
1.0
102
RTVSPost2010PropOp52
 70
     0
102
RTVSPost2010Prop53
 90
        2
102
RTVSPost2010PropOp53
 70
     1
102
RTVSPost2010Prop54
  1
strokes_ogs.tif
102
RTVSPost2010PropOp54
 70
     1
102
RTVSPost2010Prop55
280
     0
102
RTVSPost2010PropOp55
 70
     1
102
RTVSPost2010Prop56
140
1.0
102
RTVSPost2010PropOp56
 70
     1
102
RTVSPost2010Prop57
140
1.0
102
RTVSPost2010PropOp57
 70
     1
  0
XRECORD
  5
1BA
102
{ACAD_REACTORS
330
1B9
102
}
330
1B9
100
AcDbXrecord
280
     1
102
RTVSPost2010Prop28
280
     0
102
RTVSPost2010PropOp28
 70
     1
102
RTVSPost2010Prop29
280
     1
102
RTVSPost2010PropOp29
 70
     1
102
RTVSPost2010Prop30
280
     1
102
RTVSPost2010PropOp30
 70
     1
102
RTVSPost2010Prop31
280
     0
102
RTVSPost2010PropOp31
 70
     1
102
RTVSPost2010Prop32
280
     0
102
RTVSPost2010PropOp32
 70
     1
102
RTVSPost2010Prop33
280
     0
102
RTVSPost2010PropOp33
 70
     1
102
RTVSPost2010Prop34
280
     0
102
RTVSPost2010PropOp34
 70
     1
102
RTVSPost2010Prop35
280
     0
102
RTVSPost2010PropOp35
 70
     1
102
RTVSPost2010Prop36
280
     0
102
RTVSPost2010PropOp36
 70
     1
102
RTVSPost2010Prop37
 90
       50
102
RTVSPost2010PropOp37
 70
     1
102
RTVSPost2010Prop38
140
0.0
102
RTVSPost2010PropOp38
 70
     1
102
RTVSPost2010Prop39
140
1.0
102
RTVSPost2010PropOp39
 70
     1
102
RTVSPost2010Prop40
 90
        0
102
RTVSPost2010PropOp40
 70
     1
102
RTVSPost2010Prop41ColorIndex
 90
       18
102
RTVSPost2010Prop41ColorRGB
 90
        0
102
RTVSPost2010PropOp41
 70
     1
102
RTVSPost2010Prop42
 90
       50
102
RTVSPost2010PropOp42
 70
     1
102
RTVSPost2010Prop43
 90
        3
102
RTVSPost2010PropOp43
 70
     1
102
RTVSPost2010Prop44ColorIndex
 90
        5
102
RTVSPost2010Prop44ColorRGB
 90
      255
102
RTVSPost2010PropOp44
 70
     1
102
RTVSPost2010Prop45
280
     0
102
RTVSPost2010PropOp45
 70
     1
102
RTVSPost2010Prop46
 90
       50
102
RTVSPost2010PropOp46
 70
     1
102
RTVSPost2010Prop47
 90
       50
102
RTVSPost2010PropOp47
 70
     1
102
RTVSPost2010Prop48
 90
       50
102
RTVSPost2010PropOp48
 70
     1
102
RTVSPost2010Prop49
280
     0
102
RTVSPost2010PropOp49
 70
     1
102
RTVSPost2010Prop50
 90
       50
102
RTVSPost2010PropOp50
 70
     1
102
RTVSPost2010Prop51ColorIndex
 90
      256
102
RTVSPost2010Prop51ColorRGB
 90
-16777216
102
RTVSPost2010PropOp51
 70
     0
102
RTVSPost2010Prop52
140
1.0
102
RTVSPost2010PropOp52
 70
     0
102
RTVSPost2010Prop53
 90
        2
102
RTVSPost2010PropOp53
 70
     1
102
RTVSPost2010Prop54
  1
strokes_ogs.tif
102
RTVSPost2010PropOp54
 70
     1
102
RTVSPost2010Prop55
280
     0
102
RTVSPost2010PropOp55
 70
     1
102
RTVSPost2010Prop56
140
1.0
102
RTVSPost2010PropOp56
 70
     1
102
RTVSPost2010Prop57
140
1.0
102
RTVSPost2010PropOp57
 70
     1
  0
XRECORD
  5
1BC
102
{ACAD_REACTORS
330
1BB
102
}
330
1BB
100
AcDbXrecord
280
     1
102
RTVSPost2010Prop28
280
     0
102
RTVSPost2010PropOp28
 70
     1
102
RTVSPost2010Prop29
280
     1
102
RTVSPost2010PropOp29
 70
     1
102
RTVSPost2010Prop30
280
     1
102
RTVSPost2010PropOp30
 70
     1
102
RTVSPost2010Prop31
280
     0
102
RTVSPost2010PropOp31
 70
     1
102
RTVSPost2010Prop32
280
     0
102
RTVSPost2010PropOp32
 70
     1
102
RTVSPost2010Prop33
280
     0
102
RTVSPost2010PropOp33
 70
     1
102
RTVSPost2010Prop34
280
     0
102
RTVSPost2010PropOp34
 70
     1
102
RTVSPost2010Prop35
280
     0
102
RTVSPost2010PropOp35
 70
     1
102
RTVSPost2010Prop36
280
     0
102
RTVSPost2010PropOp36
 70
     1
102
RTVSPost2010Prop37
 90
       50
102
RTVSPost2010PropOp37
 70
     1
102
RTVSPost2010Prop38
140
0.0
102
RTVSPost2010PropOp38
 70
     1
102
RTVSPost2010Prop39
140
1.0
102
RTVSPost2010PropOp39
 70
     1
102
RTVSPost2010Prop40
 90
        0
102
RTVSPost2010PropOp40
 70
     1
102
RTVSPost2010Prop41ColorIndex
 90
       18
102
RTVSPost2010Prop41ColorRGB
 90
        0
102
RTVSPost2010PropOp41
 70
     1
102
RTVSPost2010Prop42
 90
       50
102
RTVSPost2010PropOp42
 70
     1
102
RTVSPost2010Prop43
 90
        3
102
RTVSPost2010PropOp43
 70
     1
102
RTVSPost2010Prop44ColorIndex
 90
        5
102
RTVSPost2010Prop44ColorRGB
 90
      255
102
RTVSPost2010PropOp44
 70
     1
102
RTVSPost2010Prop45
280
     0
102
RTVSPost2010PropOp45
 70
     1
102
RTVSPost2010Prop46
 90
       50
102
RTVSPost2010PropOp46
 70
     1
102
RTVSPost2010Prop47
 90
       50
102
RTVSPost2010PropOp47
 70
     1
102
RTVSPost2010Prop48
 90
       50
102
RTVSPost2010PropOp48
 70
     1
102
RTVSPost2010Prop49
280
     0
102
RTVSPost2010PropOp49
 70
     1
102
RTVSPost2010Prop50
 90
       50
102
RTVSPost2010PropOp50
 70
     1
102
RTVSPost2010Prop51ColorIndex
 90
      256
102
RTVSPost2010Prop51ColorRGB
 90
-16777216
102
RTVSPost2010PropOp51
 70
     0
102
RTVSPost2010Prop52
140
1.0
102
RTVSPost2010PropOp52
 70
     0
102
RTVSPost2010Prop53
 90
        2
102
RTVSPost2010PropOp53
 70
     1
102
RTVSPost2010Prop54
  1
strokes_ogs.tif
102
RTVSPost2010PropOp54
 70
     1
102
RTVSPost2010Prop55
280
     0
102
RTVSPost2010PropOp55
 70
     1
102
RTVSPost2010Prop56
140
1.0
102
RTVSPost2010PropOp56
 70
     1
102
RTVSPost2010Prop57
140
1.0
102
RTVSPost2010PropOp57
 70
     1
  0
XRECORD
  5
1BE
102
{ACAD_REACTORS
330
1BD
102
}
330
1BD
100
AcDbXrecord
280
     1
102
RTVSPost2010Prop28
280
     0
102
RTVSPost2010PropOp28
 70
     1
102
RTVSPost2010Prop29
280
     1
102
RTVSPost2010PropOp29
 70
     1
102
RTVSPost2010Prop30
280
     1
102
RTVSPost2010PropOp30
 70
     1
102
RTVSPost2010Prop31
280
     0
102
RTVSPost2010PropOp31
 70
     1
102
RTVSPost2010Prop32
280
     0
102
RTVSPost2010PropOp32
 70
     1
102
RTVSPost2010Prop33
280
     0
102
RTVSPost2010PropOp33
 70
     1
102
RTVSPost2010Prop34
280
     0
102
RTVSPost2010PropOp34
 70
     1
102
RTVSPost2010Prop35
280
     0
102
RTVSPost2010PropOp35
 70
     1
102
RTVSPost2010Prop36
280
     0
102
RTVSPost2010PropOp36
 70
     1
102
RTVSPost2010Prop37
 90
       50
102
RTVSPost2010PropOp37
 70
     1
102
RTVSPost2010Prop38
140
0.0
102
RTVSPost2010PropOp38
 70
     1
102
RTVSPost2010Prop39
140
1.0
102
RTVSPost2010PropOp39
 70
     1
102
RTVSPost2010Prop40
 90
        0
102
RTVSPost2010PropOp40
 70
     1
102
RTVSPost2010Prop41ColorIndex
 90
       18
102
RTVSPost2010Prop41ColorRGB
 90
        0
102
RTVSPost2010PropOp41
 70
     1
102
RTVSPost2010Prop42
 90
       50
102
RTVSPost2010PropOp42
 70
     1
102
RTVSPost2010Prop43
 90
        3
102
RTVSPost2010PropOp43
 70
     1
102
RTVSPost2010Prop44ColorIndex
 90
        5
102
RTVSPost2010Prop44ColorRGB
 90
      255
102
RTVSPost2010PropOp44
 70
     1
102
RTVSPost2010Prop45
280
     0
102
RTVSPost2010PropOp45
 70
     1
102
RTVSPost2010Prop46
 90
       50
102
RTVSPost2010PropOp46
 70
     1
102
RTVSPost2010Prop47
 90
       50
102
RTVSPost2010PropOp47
 70
     1
102
RTVSPost2010Prop48
 90
       50
102
RTVSPost2010PropOp48
 70
     1
102
RTVSPost2010Prop49
280
     0
102
RTVSPost2010PropOp49
 70
     1
102
RTVSPost2010Prop50
 90
       50
102
RTVSPost2010PropOp50
 70
     1
102
RTVSPost2010Prop51ColorIndex
 90
      256
102
RTVSPost2010Prop51ColorRGB
 90
-16777216
102
RTVSPost2010PropOp51
 70
     0
102
RTVSPost2010Prop52
140
1.0
102
RTVSPost2010PropOp52
 70
     0
102
RTVSPost2010Prop53
 90
        2
102
RTVSPost2010PropOp53
 70
     1
102
RTVSPost2010Prop54
  1
strokes_ogs.tif
102
RTVSPost2010PropOp54
 70
     1
102
RTVSPost2010Prop55
280
     0
102
RTVSPost2010PropOp55
 70
     1
102
RTVSPost2010Prop56
140
1.0
102
RTVSPost2010PropOp56
 70
     1
102
RTVSPost2010Prop57
140
1.0
102
RTVSPost2010PropOp57
 70
     1
  0
XRECORD
  5
1C0
102
{ACAD_REACTORS
330
1BF
102
}
330
1BF
100
AcDbXrecord
280
     1
102
RTVSPost2010Prop28
280
     0
102
RTVSPost2010PropOp28
 70
     1
102
RTVSPost2010Prop29
280
     1
102
RTVSPost2010PropOp29
 70
     1
102
RTVSPost2010Prop30
280
     1
102
RTVSPost2010PropOp30
 70
     1
102
RTVSPost2010Prop31
280
     0
102
RTVSPost2010PropOp31
 70
     1
102
RTVSPost2010Prop32
280
     0
102
RTVSPost2010PropOp32
 70
     1
102
RTVSPost2010Prop33
280
     0
102
RTVSPost2010PropOp33
 70
     1
102
RTVSPost2010Prop34
280
     0
102
RTVSPost2010PropOp34
 70
     1
102
RTVSPost2010Prop35
280
     0
102
RTVSPost2010PropOp35
 70
     1
102
RTVSPost2010Prop36
280
     0
102
RTVSPost2010PropOp36
 70
     1
102
RTVSPost2010Prop37
 90
       50
102
RTVSPost2010PropOp37
 70
     1
102
RTVSPost2010Prop38
140
0.0
102
RTVSPost2010PropOp38
 70
     1
102
RTVSPost2010Prop39
140
1.0
102
RTVSPost2010PropOp39
 70
     1
102
RTVSPost2010Prop40
 90
        0
102
RTVSPost2010PropOp40
 70
     1
102
RTVSPost2010Prop41ColorIndex
 90
       18
102
RTVSPost2010Prop41ColorRGB
 90
        0
102
RTVSPost2010PropOp41
 70
     1
102
RTVSPost2010Prop42
 90
       50
102
RTVSPost2010PropOp42
 70
     1
102
RTVSPost2010Prop43
 90
        3
102
RTVSPost2010PropOp43
 70
     1
102
RTVSPost2010Prop44ColorIndex
 90
        5
102
RTVSPost2010Prop44ColorRGB
 90
      255
102
RTVSPost2010PropOp44
 70
     1
102
RTVSPost2010Prop45
280
     0
102
RTVSPost2010PropOp45
 70
     1
102
RTVSPost2010Prop46
 90
       50
102
RTVSPost2010PropOp46
 70
     1
102
RTVSPost2010Prop47
 90
       50
102
RTVSPost2010PropOp47
 70
     1
102
RTVSPost2010Prop48
 90
       50
102
RTVSPost2010PropOp48
 70
     1
102
RTVSPost2010Prop49
280
     0
102
RTVSPost2010PropOp49
 70
     1
102
RTVSPost2010Prop50
 90
       50
102
RTVSPost2010PropOp50
 70
     1
102
RTVSPost2010Prop51ColorIndex
 90
      256
102
RTVSPost2010Prop51ColorRGB
 90
-16777216
102
RTVSPost2010PropOp51
 70
     0
102
RTVSPost2010Prop52
140
1.0
102
RTVSPost2010PropOp52
 70
     0
102
RTVSPost2010Prop53
 90
        2
102
RTVSPost2010PropOp53
 70
     1
102
RTVSPost2010Prop54
  1
strokes_ogs.tif
102
RTVSPost2010PropOp54
 70
     1
102
RTVSPost2010Prop55
280
     0
102
RTVSPost2010PropOp55
 70
     1
102
RTVSPost2010Prop56
140
1.0
102
RTVSPost2010PropOp56
 70
     1
102
RTVSPost2010Prop57
140
1.0
102
RTVSPost2010PropOp57
 70
     1
  0
XRECORD
  5
1C6
102
{ACAD_REACTORS
330
1C5
102
}
330
1C5
100
AcDbXrecord
280
     1
102
RTVSPost2010Prop28
280
     0
102
RTVSPost2010PropOp28
 70
     1
102
RTVSPost2010Prop29
280
     1
102
RTVSPost2010PropOp29
 70
     1
102
RTVSPost2010Prop30
280
     1
102
RTVSPost2010PropOp30
 70
     1
102
RTVSPost2010Prop31
280
     0
102
RTVSPost2010PropOp31
 70
     1
102
RTVSPost2010Prop32
280
     0
102
RTVSPost2010PropOp32
 70
     1
102
RTVSPost2010Prop33
280
     0
102
RTVSPost2010PropOp33
 70
     1
102
RTVSPost2010Prop34
280
     0
102
RTVSPost2010PropOp34
 70
     1
102
RTVSPost2010Prop35
280
     0
102
RTVSPost2010PropOp35
 70
     1
102
RTVSPost2010Prop36
280
     0
102
RTVSPost2010PropOp36
 70
     1
102
RTVSPost2010Prop37
 90
       50
102
RTVSPost2010PropOp37
 70
     1
102
RTVSPost2010Prop38
140
0.0
102
RTVSPost2010PropOp38
 70
     1
102
RTVSPost2010Prop39
140
1.0
102
RTVSPost2010PropOp39
 70
     1
102
RTVSPost2010Prop40
 90
        0
102
RTVSPost2010PropOp40
 70
     1
102
RTVSPost2010Prop41ColorIndex
 90
       18
102
RTVSPost2010Prop41ColorRGB
 90
        0
102
RTVSPost2010PropOp41
 70
     1
102
RTVSPost2010Prop42
 90
       50
102
RTVSPost2010PropOp42
 70
     1
102
RTVSPost2010Prop43
 90
        3
102
RTVSPost2010PropOp43
 70
     1
102
RTVSPost2010Prop44ColorIndex
 90
        5
102
RTVSPost2010Prop44ColorRGB
 90
      255
102
RTVSPost2010PropOp44
 70
     1
102
RTVSPost2010Prop45
280
     0
102
RTVSPost2010PropOp45
 70
     1
102
RTVSPost2010Prop46
 90
       50
102
RTVSPost2010PropOp46
 70
     1
102
RTVSPost2010Prop47
 90
       50
102
RTVSPost2010PropOp47
 70
     1
102
RTVSPost2010Prop48
 90
       50
102
RTVSPost2010PropOp48
 70
     1
102
RTVSPost2010Prop49
280
     0
102
RTVSPost2010PropOp49
 70
     1
102
RTVSPost2010Prop50
 90
       50
102
RTVSPost2010PropOp50
 70
     1
102
RTVSPost2010Prop51ColorIndex
 90
      256
102
RTVSPost2010Prop51ColorRGB
 90
-16777216
102
RTVSPost2010PropOp51
 70
     0
102
RTVSPost2010Prop52
140
1.0
102
RTVSPost2010PropOp52
 70
     0
102
RTVSPost2010Prop53
 90
        2
102
RTVSPost2010PropOp53
 70
     1
102
RTVSPost2010Prop54
  1
strokes_ogs.tif
102
RTVSPost2010PropOp54
 70
     1
102
RTVSPost2010Prop55
280
     0
102
RTVSPost2010PropOp55
 70
     1
102
RTVSPost2010Prop56
140
1.0
102
RTVSPost2010PropOp56
 70
     1
102
RTVSPost2010Prop57
140
1.0
102
RTVSPost2010PropOp57
 70
     1
  0
XRECORD
  5
1DA
102
{ACAD_REACTORS
330
1D9
102
}
330
1D9
100
AcDbXrecord
280
     1
102
RTVSPost2010Prop28
280
     0
102
RTVSPost2010PropOp28
 70
     0
102
RTVSPost2010Prop29
280
     1
102
RTVSPost2010PropOp29
 70
     0
102
RTVSPost2010Prop30
280
     1
102
RTVSPost2010PropOp30
 70
     0
102
RTVSPost2010Prop31
280
     0
102
RTVSPost2010PropOp31
 70
     0
102
RTVSPost2010Prop32
280
     0
102
RTVSPost2010PropOp32
 70
     0
102
RTVSPost2010Prop33
280
     0
102
RTVSPost2010PropOp33
 70
     0
102
RTVSPost2010Prop34
280
     0
102
RTVSPost2010PropOp34
 70
     0
102
RTVSPost2010Prop35
280
     0
102
RTVSPost2010PropOp35
 70
     0
102
RTVSPost2010Prop36
280
     0
102
RTVSPost2010PropOp36
 70
     0
102
RTVSPost2010Prop37
 90
       50
102
RTVSPost2010PropOp37
 70
     0
102
RTVSPost2010Prop38
140
0.0
102
RTVSPost2010PropOp38
 70
     0
102
RTVSPost2010Prop39
140
1.0
102
RTVSPost2010PropOp39
 70
     0
102
RTVSPost2010Prop40
 90
        0
102
RTVSPost2010PropOp40
 70
     0
102
RTVSPost2010Prop41ColorIndex
 90
       18
102
RTVSPost2010Prop41ColorRGB
 90
        0
102
RTVSPost2010PropOp41
 70
     0
102
RTVSPost2010Prop42
 90
       50
102
RTVSPost2010PropOp42
 70
     0
102
RTVSPost2010Prop43
 90
        3
102
RTVSPost2010PropOp43
 70
     0
102
RTVSPost2010Prop44ColorIndex
 90
        5
102
RTVSPost2010Prop44ColorRGB
 90
      255
102
RTVSPost2010PropOp44
 70
     0
102
RTVSPost2010Prop45
280
     0
102
RTVSPost2010PropOp45
 70
     0
102
RTVSPost2010Prop46
 90
       50
102
RTVSPost2010PropOp46
 70
     0
102
RTVSPost2010Prop47
 90
       50
102
RTVSPost2010PropOp47
 70
     0
102
RTVSPost2010Prop48
 90
       50
102
RTVSPost2010PropOp48
 70
     0
102
RTVSPost2010Prop49
280
     0
102
RTVSPost2010PropOp49
 70
     0
102
RTVSPost2010Prop50
 90
       50
102
RTVSPost2010PropOp50
 70
     0
102
RTVSPost2010Prop51ColorIndex
 90
      256
102
RTVSPost2010Prop51ColorRGB
 90
-16777216
102
RTVSPost2010PropOp51
 70
     0
102
RTVSPost2010Prop52
140
1.0
102
RTVSPost2010PropOp52
 70
     0
102
RTVSPost2010Prop53
 90
        2
102
RTVSPost2010PropOp53
 70
     0
102
RTVSPost2010Prop54
  1
strokes_ogs.tif
102
RTVSPost2010PropOp54
 70
     0
102
RTVSPost2010Prop55
280
     0
102
RTVSPost2010PropOp55
 70
     0
102
RTVSPost2010Prop56
140
1.0
102
RTVSPost2010PropOp56
 70
     0
102
RTVSPost2010Prop57
140
1.0
102
RTVSPost2010PropOp57
 70
     0
  0
XRECORD
  5
1D4
102
{ACAD_REACTORS
330
1D3
102
}
330
1D3
100
AcDbXrecord
280
     1
102
RTVSPost2010Prop28
280
     0
102
RTVSPost2010PropOp28
 70
     1
102
RTVSPost2010Prop29
280
     1
102
RTVSPost2010PropOp29
 70
     1
102
RTVSPost2010Prop30
280
     1
102
RTVSPost2010PropOp30
 70
     1
102
RTVSPost2010Prop31
280
     0
102
RTVSPost2010PropOp31
 70
     1
102
RTVSPost2010Prop32
280
     0
102
RTVSPost2010PropOp32
 70
     1
102
RTVSPost2010Prop33
280
     0
102
RTVSPost2010PropOp33
 70
     1
102
RTVSPost2010Prop34
280
     0
102
RTVSPost2010PropOp34
 70
     1
102
RTVSPost2010Prop35
280
     0
102
RTVSPost2010PropOp35
 70
     1
102
RTVSPost2010Prop36
280
     0
102
RTVSPost2010PropOp36
 70
     1
102
RTVSPost2010Prop37
 90
       50
102
RTVSPost2010PropOp37
 70
     1
102
RTVSPost2010Prop38
140
0.0
102
RTVSPost2010PropOp38
 70
     1
102
RTVSPost2010Prop39
140
1.0
102
RTVSPost2010PropOp39
 70
     1
102
RTVSPost2010Prop40
 90
        0
102
RTVSPost2010PropOp40
 70
     1
102
RTVSPost2010Prop41ColorIndex
 90
       18
102
RTVSPost2010Prop41ColorRGB
 90
        0
102
RTVSPost2010PropOp41
 70
     1
102
RTVSPost2010Prop42
 90
       50
102
RTVSPost2010PropOp42
 70
     1
102
RTVSPost2010Prop43
 90
        3
102
RTVSPost2010PropOp43
 70
     1
102
RTVSPost2010Prop44ColorIndex
 90
        5
102
RTVSPost2010Prop44ColorRGB
 90
      255
102
RTVSPost2010PropOp44
 70
     1
102
RTVSPost2010Prop45
280
     0
102
RTVSPost2010PropOp45
 70
     1
102
RTVSPost2010Prop46
 90
       50
102
RTVSPost2010PropOp46
 70
     1
102
RTVSPost2010Prop47
 90
       50
102
RTVSPost2010PropOp47
 70
     1
102
RTVSPost2010Prop48
 90
       50
102
RTVSPost2010PropOp48
 70
     1
102
RTVSPost2010Prop49
280
     0
102
RTVSPost2010PropOp49
 70
     1
102
RTVSPost2010Prop50
 90
       50
102
RTVSPost2010PropOp50
 70
     1
102
RTVSPost2010Prop51ColorIndex
 90
      256
102
RTVSPost2010Prop51ColorRGB
 90
-16777216
102
RTVSPost2010PropOp51
 70
     0
102
RTVSPost2010Prop52
140
1.0
102
RTVSPost2010PropOp52
 70
     0
102
RTVSPost2010Prop53
 90
        2
102
RTVSPost2010PropOp53
 70
     1
102
RTVSPost2010Prop54
  1
strokes_ogs.tif
102
RTVSPost2010PropOp54
 70
     1
102
RTVSPost2010Prop55
280
     0
102
RTVSPost2010PropOp55
 70
     1
102
RTVSPost2010Prop56
140
1.0
102
RTVSPost2010PropOp56
 70
     1
102
RTVSPost2010Prop57
140
1.0
102
RTVSPost2010PropOp57
 70
     1
  0
XRECORD
  5
1DC
102
{ACAD_REACTORS
330
1DB
102
}
330
1DB
100
AcDbXrecord
280
     1
102
RTVSPost2010Prop28
280
     0
102
RTVSPost2010PropOp28
 70
     0
102
RTVSPost2010Prop29
280
     1
102
RTVSPost2010PropOp29
 70
     0
102
RTVSPost2010Prop30
280
     1
102
RTVSPost2010PropOp30
 70
     0
102
RTVSPost2010Prop31
280
     0
102
RTVSPost2010PropOp31
 70
     0
102
RTVSPost2010Prop32
280
     0
102
RTVSPost2010PropOp32
 70
     0
102
RTVSPost2010Prop33
280
     0
102
RTVSPost2010PropOp33
 70
     0
102
RTVSPost2010Prop34
280
     0
102
RTVSPost2010PropOp34
 70
     0
102
RTVSPost2010Prop35
280
     0
102
RTVSPost2010PropOp35
 70
     0
102
RTVSPost2010Prop36
280
     0
102
RTVSPost2010PropOp36
 70
     0
102
RTVSPost2010Prop37
 90
       50
102
RTVSPost2010PropOp37
 70
     0
102
RTVSPost2010Prop38
140
0.0
102
RTVSPost2010PropOp38
 70
     0
102
RTVSPost2010Prop39
140
1.0
102
RTVSPost2010PropOp39
 70
     0
102
RTVSPost2010Prop40
 90
        0
102
RTVSPost2010PropOp40
 70
     0
102
RTVSPost2010Prop41ColorIndex
 90
       18
102
RTVSPost2010Prop41ColorRGB
 90
        0
102
RTVSPost2010PropOp41
 70
     0
102
RTVSPost2010Prop42
 90
       50
102
RTVSPost2010PropOp42
 70
     0
102
RTVSPost2010Prop43
 90
        3
102
RTVSPost2010PropOp43
 70
     0
102
RTVSPost2010Prop44ColorIndex
 90
        5
102
RTVSPost2010Prop44ColorRGB
 90
      255
102
RTVSPost2010PropOp44
 70
     0
102
RTVSPost2010Prop45
280
     0
102
RTVSPost2010PropOp45
 70
     0
102
RTVSPost2010Prop46
 90
       50
102
RTVSPost2010PropOp46
 70
     0
102
RTVSPost2010Prop47
 90
       50
102
RTVSPost2010PropOp47
 70
     0
102
RTVSPost2010Prop48
 90
       50
102
RTVSPost2010PropOp48
 70
     0
102
RTVSPost2010Prop49
280
     0
102
RTVSPost2010PropOp49
 70
     0
102
RTVSPost2010Prop50
 90
       50
102
RTVSPost2010PropOp50
 70
     0
102
RTVSPost2010Prop51ColorIndex
 90
      256
102
RTVSPost2010Prop51ColorRGB
 90
-16777216
102
RTVSPost2010PropOp51
 70
     0
102
RTVSPost2010Prop52
140
1.0
102
RTVSPost2010PropOp52
 70
     0
102
RTVSPost2010Prop53
 90
        2
102
RTVSPost2010PropOp53
 70
     0
102
RTVSPost2010Prop54
  1
strokes_ogs.tif
102
RTVSPost2010PropOp54
 70
     0
102
RTVSPost2010Prop55
280
     0
102
RTVSPost2010PropOp55
 70
     0
102
RTVSPost2010Prop56
140
1.0
102
RTVSPost2010PropOp56
 70
     0
102
RTVSPost2010Prop57
140
1.0
102
RTVSPost2010PropOp57
 70
     0
  0
XRECORD
  5
1CA
102
{ACAD_REACTORS
330
1C9
102
}
330
1C9
100
AcDbXrecord
280
     1
102
RTVSPost2010Prop28
280
     0
102
RTVSPost2010PropOp28
 70
     1
102
RTVSPost2010Prop29
280
     1
102
RTVSPost2010PropOp29
 70
     1
102
RTVSPost2010Prop30
280
     1
102
RTVSPost2010PropOp30
 70
     1
102
RTVSPost2010Prop31
280
     0
102
RTVSPost2010PropOp31
 70
     1
102
RTVSPost2010Prop32
280
     0
102
RTVSPost2010PropOp32
 70
     1
102
RTVSPost2010Prop33
280
     0
102
RTVSPost2010PropOp33
 70
     1
102
RTVSPost2010Prop34
280
     0
102
RTVSPost2010PropOp34
 70
     1
102
RTVSPost2010Prop35
280
     0
102
RTVSPost2010PropOp35
 70
     1
102
RTVSPost2010Prop36
280
     0
102
RTVSPost2010PropOp36
 70
     1
102
RTVSPost2010Prop37
 90
       50
102
RTVSPost2010PropOp37
 70
     1
102
RTVSPost2010Prop38
140
0.0
102
RTVSPost2010PropOp38
 70
     1
102
RTVSPost2010Prop39
140
1.0
102
RTVSPost2010PropOp39
 70
     1
102
RTVSPost2010Prop40
 90
        0
102
RTVSPost2010PropOp40
 70
     1
102
RTVSPost2010Prop41ColorIndex
 90
       18
102
RTVSPost2010Prop41ColorRGB
 90
        0
102
RTVSPost2010PropOp41
 70
     1
102
RTVSPost2010Prop42
 90
       50
102
RTVSPost2010PropOp42
 70
     1
102
RTVSPost2010Prop43
 90
        3
102
RTVSPost2010PropOp43
 70
     1
102
RTVSPost2010Prop44ColorIndex
 90
        5
102
RTVSPost2010Prop44ColorRGB
 90
      255
102
RTVSPost2010PropOp44
 70
     1
102
RTVSPost2010Prop45
280
     0
102
RTVSPost2010PropOp45
 70
     1
102
RTVSPost2010Prop46
 90
       50
102
RTVSPost2010PropOp46
 70
     1
102
RTVSPost2010Prop47
 90
       50
102
RTVSPost2010PropOp47
 70
     1
102
RTVSPost2010Prop48
 90
       50
102
RTVSPost2010PropOp48
 70
     1
102
RTVSPost2010Prop49
280
     0
102
RTVSPost2010PropOp49
 70
     1
102
RTVSPost2010Prop50
 90
       50
102
RTVSPost2010PropOp50
 70
     1
102
RTVSPost2010Prop51ColorIndex
 90
      256
102
RTVSPost2010Prop51ColorRGB
 90
-16777216
102
RTVSPost2010PropOp51
 70
     0
102
RTVSPost2010Prop52
140
1.0
102
RTVSPost2010PropOp52
 70
     0
102
RTVSPost2010Prop53
 90
        2
102
RTVSPost2010PropOp53
 70
     1
102
RTVSPost2010Prop54
  1
strokes_ogs.tif
102
RTVSPost2010PropOp54
 70
     1
102
RTVSPost2010Prop55
280
     0
102
RTVSPost2010PropOp55
 70
     1
102
RTVSPost2010Prop56
140
1.0
102
RTVSPost2010PropOp56
 70
     1
102
RTVSPost2010Prop57
140
1.0
102
RTVSPost2010PropOp57
 70
     1
  0
XRECORD
  5
1E8
102
{ACAD_REACTORS
330
1E7
102
}
330
1E7
100
AcDbXrecord
280
     1
102
RTVSPost2010Prop28
280
     0
102
RTVSPost2010PropOp28
 70
     1
102
RTVSPost2010Prop29
280
     1
102
RTVSPost2010PropOp29
 70
     1
102
RTVSPost2010Prop30
280
     1
102
RTVSPost2010PropOp30
 70
     1
102
RTVSPost2010Prop31
280
     0
102
RTVSPost2010PropOp31
 70
     1
102
RTVSPost2010Prop32
280
     0
102
RTVSPost2010PropOp32
 70
     1
102
RTVSPost2010Prop33
280
     0
102
RTVSPost2010PropOp33
 70
     1
102
RTVSPost2010Prop34
280
     0
102
RTVSPost2010PropOp34
 70
     1
102
RTVSPost2010Prop35
280
     0
102
RTVSPost2010PropOp35
 70
     1
102
RTVSPost2010Prop36
280
     0
102
RTVSPost2010PropOp36
 70
     1
102
RTVSPost2010Prop37
 90
       50
102
RTVSPost2010PropOp37
 70
     1
102
RTVSPost2010Prop38
140
0.0
102
RTVSPost2010PropOp38
 70
     1
102
RTVSPost2010Prop39
140
1.0
102
RTVSPost2010PropOp39
 70
     1
102
RTVSPost2010Prop40
 90
        0
102
RTVSPost2010PropOp40
 70
     1
102
RTVSPost2010Prop41ColorIndex
 90
       18
102
RTVSPost2010Prop41ColorRGB
 90
        0
102
RTVSPost2010PropOp41
 70
     1
102
RTVSPost2010Prop42
 90
       50
102
RTVSPost2010PropOp42
 70
     1
102
RTVSPost2010Prop43
 90
        3
102
RTVSPost2010PropOp43
 70
     1
102
RTVSPost2010Prop44ColorIndex
 90
        5
102
RTVSPost2010Prop44ColorRGB
 90
      255
102
RTVSPost2010PropOp44
 70
     1
102
RTVSPost2010Prop45
280
     0
102
RTVSPost2010PropOp45
 70
     1
102
RTVSPost2010Prop46
 90
       50
102
RTVSPost2010PropOp46
 70
     1
102
RTVSPost2010Prop47
 90
       50
102
RTVSPost2010PropOp47
 70
     1
102
RTVSPost2010Prop48
 90
       50
102
RTVSPost2010PropOp48
 70
     1
102
RTVSPost2010Prop49
280
     0
102
RTVSPost2010PropOp49
 70
     1
102
RTVSPost2010Prop50
 90
       50
102
RTVSPost2010PropOp50
 70
     1
102
RTVSPost2010Prop51ColorIndex
 90
      256
102
RTVSPost2010Prop51ColorRGB
 90
-16777216
102
RTVSPost2010PropOp51
 70
     0
102
RTVSPost2010Prop52
140
1.0
102
RTVSPost2010PropOp52
 70
     0
102
RTVSPost2010Prop53
 90
        2
102
RTVSPost2010PropOp53
 70
     1
102
RTVSPost2010Prop54
  1
strokes_ogs.tif
102
RTVSPost2010PropOp54
 70
     1
102
RTVSPost2010Prop55
280
     0
102
RTVSPost2010PropOp55
 70
     1
102
RTVSPost2010Prop56
140
1.0
102
RTVSPost2010PropOp56
 70
     1
102
RTVSPost2010Prop57
140
1.0
102
RTVSPost2010PropOp57
 70
     1
  0
XRECORD
  5
1E6
102
{ACAD_REACTORS
330
1E5
102
}
330
1E5
100
AcDbXrecord
280
     1
102
RTVSPost2010Prop28
280
     0
102
RTVSPost2010PropOp28
 70
     1
102
RTVSPost2010Prop29
280
     1
102
RTVSPost2010PropOp29
 70
     1
102
RTVSPost2010Prop30
280
     1
102
RTVSPost2010PropOp30
 70
     1
102
RTVSPost2010Prop31
280
     0
102
RTVSPost2010PropOp31
 70
     1
102
RTVSPost2010Prop32
280
     0
102
RTVSPost2010PropOp32
 70
     1
102
RTVSPost2010Prop33
280
     0
102
RTVSPost2010PropOp33
 70
     1
102
RTVSPost2010Prop34
280
     0
102
RTVSPost2010PropOp34
 70
     1
102
RTVSPost2010Prop35
280
     0
102
RTVSPost2010PropOp35
 70
     1
102
RTVSPost2010Prop36
280
     0
102
RTVSPost2010PropOp36
 70
     1
102
RTVSPost2010Prop37
 90
       50
102
RTVSPost2010PropOp37
 70
     1
102
RTVSPost2010Prop38
140
0.0
102
RTVSPost2010PropOp38
 70
     1
102
RTVSPost2010Prop39
140
1.0
102
RTVSPost2010PropOp39
 70
     1
102
RTVSPost2010Prop40
 90
        0
102
RTVSPost2010PropOp40
 70
     1
102
RTVSPost2010Prop41ColorIndex
 90
       18
102
RTVSPost2010Prop41ColorRGB
 90
        0
102
RTVSPost2010PropOp41
 70
     1
102
RTVSPost2010Prop42
 90
       50
102
RTVSPost2010PropOp42
 70
     1
102
RTVSPost2010Prop43
 90
        3
102
RTVSPost2010PropOp43
 70
     1
102
RTVSPost2010Prop44ColorIndex
 90
        5
102
RTVSPost2010Prop44ColorRGB
 90
      255
102
RTVSPost2010PropOp44
 70
     1
102
RTVSPost2010Prop45
280
     0
102
RTVSPost2010PropOp45
 70
     1
102
RTVSPost2010Prop46
 90
       50
102
RTVSPost2010PropOp46
 70
     1
102
RTVSPost2010Prop47
 90
       50
102
RTVSPost2010PropOp47
 70
     1
102
RTVSPost2010Prop48
 90
       50
102
RTVSPost2010PropOp48
 70
     1
102
RTVSPost2010Prop49
280
     0
102
RTVSPost2010PropOp49
 70
     1
102
RTVSPost2010Prop50
 90
       50
102
RTVSPost2010PropOp50
 70
     1
102
RTVSPost2010Prop51ColorIndex
 90
      256
102
RTVSPost2010Prop51ColorRGB
 90
-16777216
102
RTVSPost2010PropOp51
 70
     0
102
RTVSPost2010Prop52
140
1.0
102
RTVSPost2010PropOp52
 70
     0
102
RTVSPost2010Prop53
 90
        2
102
RTVSPost2010PropOp53
 70
     1
102
RTVSPost2010Prop54
  1
strokes_ogs.tif
102
RTVSPost2010PropOp54
 70
     1
102
RTVSPost2010Prop55
280
     0
102
RTVSPost2010PropOp55
 70
     1
102
RTVSPost2010Prop56
140
1.0
102
RTVSPost2010PropOp56
 70
     1
102
RTVSPost2010Prop57
140
1.0
102
RTVSPost2010PropOp57
 70
     1
  0
XRECORD
  5
1E0
102
{ACAD_REACTORS
330
1DF
102
}
330
1DF
100
AcDbXrecord
280
     1
102
RTVSPost2010Prop28
280
     0
102
RTVSPost2010PropOp28
 70
     1
102
RTVSPost2010Prop29
280
     1
102
RTVSPost2010PropOp29
 70
     1
102
RTVSPost2010Prop30
280
     1
102
RTVSPost2010PropOp30
 70
     1
102
RTVSPost2010Prop31
280
     0
102
RTVSPost2010PropOp31
 70
     1
102
RTVSPost2010Prop32
280
     0
102
RTVSPost2010PropOp32
 70
     1
102
RTVSPost2010Prop33
280
     0
102
RTVSPost2010PropOp33
 70
     1
102
RTVSPost2010Prop34
280
     0
102
RTVSPost2010PropOp34
 70
     1
102
RTVSPost2010Prop35
280
     0
102
RTVSPost2010PropOp35
 70
     1
102
RTVSPost2010Prop36
280
     0
102
RTVSPost2010PropOp36
 70
     1
102
RTVSPost2010Prop37
 90
       50
102
RTVSPost2010PropOp37
 70
     1
102
RTVSPost2010Prop38
140
0.0
102
RTVSPost2010PropOp38
 70
     1
102
RTVSPost2010Prop39
140
1.0
102
RTVSPost2010PropOp39
 70
     1
102
RTVSPost2010Prop40
 90
        0
102
RTVSPost2010PropOp40
 70
     1
102
RTVSPost2010Prop41ColorIndex
 90
       18
102
RTVSPost2010Prop41ColorRGB
 90
        0
102
RTVSPost2010PropOp41
 70
     1
102
RTVSPost2010Prop42
 90
       50
102
RTVSPost2010PropOp42
 70
     1
102
RTVSPost2010Prop43
 90
        3
102
RTVSPost2010PropOp43
 70
     1
102
RTVSPost2010Prop44ColorIndex
 90
        5
102
RTVSPost2010Prop44ColorRGB
 90
      255
102
RTVSPost2010PropOp44
 70
     1
102
RTVSPost2010Prop45
280
     0
102
RTVSPost2010PropOp45
 70
     1
102
RTVSPost2010Prop46
 90
       50
102
RTVSPost2010PropOp46
 70
     1
102
RTVSPost2010Prop47
 90
       50
102
RTVSPost2010PropOp47
 70
     1
102
RTVSPost2010Prop48
 90
       50
102
RTVSPost2010PropOp48
 70
     1
102
RTVSPost2010Prop49
280
     0
102
RTVSPost2010PropOp49
 70
     1
102
RTVSPost2010Prop50
 90
       50
102
RTVSPost2010PropOp50
 70
     1
102
RTVSPost2010Prop51ColorIndex
 90
      256
102
RTVSPost2010Prop51ColorRGB
 90
-16777216
102
RTVSPost2010PropOp51
 70
     0
102
RTVSPost2010Prop52
140
1.0
102
RTVSPost2010PropOp52
 70
     0
102
RTVSPost2010Prop53
 90
        2
102
RTVSPost2010PropOp53
 70
     1
102
RTVSPost2010Prop54
  1
strokes_ogs.tif
102
RTVSPost2010PropOp54
 70
     1
102
RTVSPost2010Prop55
280
     0
102
RTVSPost2010PropOp55
 70
     1
102
RTVSPost2010Prop56
140
1.0
102
RTVSPost2010PropOp56
 70
     1
102
RTVSPost2010Prop57
140
1.0
102
RTVSPost2010PropOp57
 70
     1
  0
XRECORD
  5
1E2
102
{ACAD_REACTORS
330
1E1
102
}
330
1E1
100
AcDbXrecord
280
     1
102
RTVSPost2010Prop28
280
     0
102
RTVSPost2010PropOp28
 70
     1
102
RTVSPost2010Prop29
280
     1
102
RTVSPost2010PropOp29
 70
     1
102
RTVSPost2010Prop30
280
     1
102
RTVSPost2010PropOp30
 70
     1
102
RTVSPost2010Prop31
280
     0
102
RTVSPost2010PropOp31
 70
     1
102
RTVSPost2010Prop32
280
     0
102
RTVSPost2010PropOp32
 70
     1
102
RTVSPost2010Prop33
280
     0
102
RTVSPost2010PropOp33
 70
     1
102
RTVSPost2010Prop34
280
     0
102
RTVSPost2010PropOp34
 70
     1
102
RTVSPost2010Prop35
280
     0
102
RTVSPost2010PropOp35
 70
     1
102
RTVSPost2010Prop36
280
     0
102
RTVSPost2010PropOp36
 70
     1
102
RTVSPost2010Prop37
 90
       50
102
RTVSPost2010PropOp37
 70
     1
102
RTVSPost2010Prop38
140
0.0
102
RTVSPost2010PropOp38
 70
     1
102
RTVSPost2010Prop39
140
1.0
102
RTVSPost2010PropOp39
 70
     1
102
RTVSPost2010Prop40
 90
        0
102
RTVSPost2010PropOp40
 70
     1
102
RTVSPost2010Prop41ColorIndex
 90
       18
102
RTVSPost2010Prop41ColorRGB
 90
        0
102
RTVSPost2010PropOp41
 70
     1
102
RTVSPost2010Prop42
 90
       50
102
RTVSPost2010PropOp42
 70
     1
102
RTVSPost2010Prop43
 90
        3
102
RTVSPost2010PropOp43
 70
     1
102
RTVSPost2010Prop44ColorIndex
 90
        5
102
RTVSPost2010Prop44ColorRGB
 90
      255
102
RTVSPost2010PropOp44
 70
     1
102
RTVSPost2010Prop45
280
     0
102
RTVSPost2010PropOp45
 70
     1
102
RTVSPost2010Prop46
 90
       50
102
RTVSPost2010PropOp46
 70
     1
102
RTVSPost2010Prop47
 90
       50
102
RTVSPost2010PropOp47
 70
     1
102
RTVSPost2010Prop48
 90
       50
102
RTVSPost2010PropOp48
 70
     1
102
RTVSPost2010Prop49
280
     0
102
RTVSPost2010PropOp49
 70
     1
102
RTVSPost2010Prop50
 90
       50
102
RTVSPost2010PropOp50
 70
     1
102
RTVSPost2010Prop51ColorIndex
 90
      256
102
RTVSPost2010Prop51ColorRGB
 90
-16777216
102
RTVSPost2010PropOp51
 70
     0
102
RTVSPost2010Prop52
140
1.0
102
RTVSPost2010PropOp52
 70
     0
102
RTVSPost2010Prop53
 90
        2
102
RTVSPost2010PropOp53
 70
     1
102
RTVSPost2010Prop54
  1
strokes_ogs.tif
102
RTVSPost2010PropOp54
 70
     1
102
RTVSPost2010Prop55
280
     0
102
RTVSPost2010PropOp55
 70
     1
102
RTVSPost2010Prop56
140
1.0
102
RTVSPost2010PropOp56
 70
     1
102
RTVSPost2010Prop57
140
1.0
102
RTVSPost2010PropOp57
 70
     1
  0
XRECORD
  5
1D2
102
{ACAD_REACTORS
330
1D1
102
}
330
1D1
100
AcDbXrecord
280
     1
102
RTVSPost2010Prop28
280
     0
102
RTVSPost2010PropOp28
 70
     1
102
RTVSPost2010Prop29
280
     1
102
RTVSPost2010PropOp29
 70
     1
102
RTVSPost2010Prop30
280
     1
102
RTVSPost2010PropOp30
 70
     1
102
RTVSPost2010Prop31
280
     0
102
RTVSPost2010PropOp31
 70
     1
102
RTVSPost2010Prop32
280
     0
102
RTVSPost2010PropOp32
 70
     1
102
RTVSPost2010Prop33
280
     0
102
RTVSPost2010PropOp33
 70
     1
102
RTVSPost2010Prop34
280
     0
102
RTVSPost2010PropOp34
 70
     1
102
RTVSPost2010Prop35
280
     0
102
RTVSPost2010PropOp35
 70
     1
102
RTVSPost2010Prop36
280
     0
102
RTVSPost2010PropOp36
 70
     1
102
RTVSPost2010Prop37
 90
       50
102
RTVSPost2010PropOp37
 70
     1
102
RTVSPost2010Prop38
140
0.0
102
RTVSPost2010PropOp38
 70
     1
102
RTVSPost2010Prop39
140
1.0
102
RTVSPost2010PropOp39
 70
     1
102
RTVSPost2010Prop40
 90
        0
102
RTVSPost2010PropOp40
 70
     1
102
RTVSPost2010Prop41ColorIndex
 90
       18
102
RTVSPost2010Prop41ColorRGB
 90
        0
102
RTVSPost2010PropOp41
 70
     1
102
RTVSPost2010Prop42
 90
       50
102
RTVSPost2010PropOp42
 70
     1
102
RTVSPost2010Prop43
 90
        3
102
RTVSPost2010PropOp43
 70
     1
102
RTVSPost2010Prop44ColorIndex
 90
        5
102
RTVSPost2010Prop44ColorRGB
 90
      255
102
RTVSPost2010PropOp44
 70
     1
102
RTVSPost2010Prop45
280
     0
102
RTVSPost2010PropOp45
 70
     1
102
RTVSPost2010Prop46
 90
       50
102
RTVSPost2010PropOp46
 70
     1
102
RTVSPost2010Prop47
 90
       50
102
RTVSPost2010PropOp47
 70
     1
102
RTVSPost2010Prop48
 90
       50
102
RTVSPost2010PropOp48
 70
     1
102
RTVSPost2010Prop49
280
     0
102
RTVSPost2010PropOp49
 70
     1
102
RTVSPost2010Prop50
 90
       50
102
RTVSPost2010PropOp50
 70
     1
102
RTVSPost2010Prop51ColorIndex
 90
      256
102
RTVSPost2010Prop51ColorRGB
 90
-16777216
102
RTVSPost2010PropOp51
 70
     0
102
RTVSPost2010Prop52
140
1.0
102
RTVSPost2010PropOp52
 70
     0
102
RTVSPost2010Prop53
 90
        2
102
RTVSPost2010PropOp53
 70
     1
102
RTVSPost2010Prop54
  1
strokes_ogs.tif
102
RTVSPost2010PropOp54
 70
     1
102
RTVSPost2010Prop55
280
     0
102
RTVSPost2010PropOp55
 70
     1
102
RTVSPost2010Prop56
140
1.0
102
RTVSPost2010PropOp56
 70
     1
102
RTVSPost2010Prop57
140
1.0
102
RTVSPost2010PropOp57
 70
     1
  0
XRECORD
  5
1C4
102
{ACAD_REACTORS
330
1C3
102
}
330
1C3
100
AcDbXrecord
280
     1
102
RTVSPost2010Prop28
280
     0
102
RTVSPost2010PropOp28
 70
     1
102
RTVSPost2010Prop29
280
     1
102
RTVSPost2010PropOp29
 70
     1
102
RTVSPost2010Prop30
280
     1
102
RTVSPost2010PropOp30
 70
     1
102
RTVSPost2010Prop31
280
     0
102
RTVSPost2010PropOp31
 70
     1
102
RTVSPost2010Prop32
280
     0
102
RTVSPost2010PropOp32
 70
     1
102
RTVSPost2010Prop33
280
     0
102
RTVSPost2010PropOp33
 70
     1
102
RTVSPost2010Prop34
280
     0
102
RTVSPost2010PropOp34
 70
     1
102
RTVSPost2010Prop35
280
     0
102
RTVSPost2010PropOp35
 70
     1
102
RTVSPost2010Prop36
280
     0
102
RTVSPost2010PropOp36
 70
     1
102
RTVSPost2010Prop37
 90
       50
102
RTVSPost2010PropOp37
 70
     1
102
RTVSPost2010Prop38
140
0.0
102
RTVSPost2010PropOp38
 70
     1
102
RTVSPost2010Prop39
140
1.0
102
RTVSPost2010PropOp39
 70
     1
102
RTVSPost2010Prop40
 90
        0
102
RTVSPost2010PropOp40
 70
     1
102
RTVSPost2010Prop41ColorIndex
 90
       18
102
RTVSPost2010Prop41ColorRGB
 90
        0
102
RTVSPost2010PropOp41
 70
     1
102
RTVSPost2010Prop42
 90
       50
102
RTVSPost2010PropOp42
 70
     1
102
RTVSPost2010Prop43
 90
        3
102
RTVSPost2010PropOp43
 70
     1
102
RTVSPost2010Prop44ColorIndex
 90
        5
102
RTVSPost2010Prop44ColorRGB
 90
      255
102
RTVSPost2010PropOp44
 70
     1
102
RTVSPost2010Prop45
280
     0
102
RTVSPost2010PropOp45
 70
     1
102
RTVSPost2010Prop46
 90
       50
102
RTVSPost2010PropOp46
 70
     1
102
RTVSPost2010Prop47
 90
       50
102
RTVSPost2010PropOp47
 70
     1
102
RTVSPost2010Prop48
 90
       50
102
RTVSPost2010PropOp48
 70
     1
102
RTVSPost2010Prop49
280
     0
102
RTVSPost2010PropOp49
 70
     1
102
RTVSPost2010Prop50
 90
       50
102
RTVSPost2010PropOp50
 70
     1
102
RTVSPost2010Prop51ColorIndex
 90
      256
102
RTVSPost2010Prop51ColorRGB
 90
-16777216
102
RTVSPost2010PropOp51
 70
     0
102
RTVSPost2010Prop52
140
1.0
102
RTVSPost2010PropOp52
 70
     0
102
RTVSPost2010Prop53
 90
        2
102
RTVSPost2010PropOp53
 70
     1
102
RTVSPost2010Prop54
  1
strokes_ogs.tif
102
RTVSPost2010PropOp54
 70
     1
102
RTVSPost2010Prop55
280
     0
102
RTVSPost2010PropOp55
 70
     1
102
RTVSPost2010Prop56
140
1.0
102
RTVSPost2010PropOp56
 70
     1
102
RTVSPost2010Prop57
140
1.0
102
RTVSPost2010PropOp57
 70
     1
  0
XRECORD
  5
1E4
102
{ACAD_REACTORS
330
1E3
102
}
330
1E3
100
AcDbXrecord
280
     1
102
RTVSPost2010Prop28
280
     0
102
RTVSPost2010PropOp28
 70
     1
102
RTVSPost2010Prop29
280
     1
102
RTVSPost2010PropOp29
 70
     1
102
RTVSPost2010Prop30
280
     1
102
RTVSPost2010PropOp30
 70
     1
102
RTVSPost2010Prop31
280
     0
102
RTVSPost2010PropOp31
 70
     1
102
RTVSPost2010Prop32
280
     0
102
RTVSPost2010PropOp32
 70
     1
102
RTVSPost2010Prop33
280
     0
102
RTVSPost2010PropOp33
 70
     1
102
RTVSPost2010Prop34
280
     0
102
RTVSPost2010PropOp34
 70
     1
102
RTVSPost2010Prop35
280
     0
102
RTVSPost2010PropOp35
 70
     1
102
RTVSPost2010Prop36
280
     0
102
RTVSPost2010PropOp36
 70
     1
102
RTVSPost2010Prop37
 90
       50
102
RTVSPost2010PropOp37
 70
     1
102
RTVSPost2010Prop38
140
0.0
102
RTVSPost2010PropOp38
 70
     1
102
RTVSPost2010Prop39
140
1.0
102
RTVSPost2010PropOp39
 70
     1
102
RTVSPost2010Prop40
 90
        0
102
RTVSPost2010PropOp40
 70
     1
102
RTVSPost2010Prop41ColorIndex
 90
       18
102
RTVSPost2010Prop41ColorRGB
 90
        0
102
RTVSPost2010PropOp41
 70
     1
102
RTVSPost2010Prop42
 90
       50
102
RTVSPost2010PropOp42
 70
     1
102
RTVSPost2010Prop43
 90
        3
102
RTVSPost2010PropOp43
 70
     1
102
RTVSPost2010Prop44ColorIndex
 90
        5
102
RTVSPost2010Prop44ColorRGB
 90
      255
102
RTVSPost2010PropOp44
 70
     1
102
RTVSPost2010Prop45
280
     0
102
RTVSPost2010PropOp45
 70
     1
102
RTVSPost2010Prop46
 90
       50
102
RTVSPost2010PropOp46
 70
     1
102
RTVSPost2010Prop47
 90
       50
102
RTVSPost2010PropOp47
 70
     1
102
RTVSPost2010Prop48
 90
       50
102
RTVSPost2010PropOp48
 70
     1
102
RTVSPost2010Prop49
280
     0
102
RTVSPost2010PropOp49
 70
     1
102
RTVSPost2010Prop50
 90
       50
102
RTVSPost2010PropOp50
 70
     1
102
RTVSPost2010Prop51ColorIndex
 90
      256
102
RTVSPost2010Prop51ColorRGB
 90
-16777216
102
RTVSPost2010PropOp51
 70
     0
102
RTVSPost2010Prop52
140
1.0
102
RTVSPost2010PropOp52
 70
     0
102
RTVSPost2010Prop53
 90
        2
102
RTVSPost2010PropOp53
 70
     1
102
RTVSPost2010Prop54
  1
strokes_ogs.tif
102
RTVSPost2010PropOp54
 70
     1
102
RTVSPost2010Prop55
280
     0
102
RTVSPost2010PropOp55
 70
     1
102
RTVSPost2010Prop56
140
1.0
102
RTVSPost2010PropOp56
 70
     1
102
RTVSPost2010Prop57
140
1.0
102
RTVSPost2010PropOp57
 70
     1
  0
ENDSEC
  0
EOF
