  0
SECTION
  2
HEADER
  9
$ACADVER
  1
AC1024
  9
$ACADMAINTVER
 70
     6
  9
$DWGCODEPAGE
  3
ANSI_1252
  9
$INSBASE
 10
0.0
 20
0.0
 30
0.0
  9
$EXTMIN
 10
1.000000E+20
 20
1.000000E+20
 30
1.000000E+20
  9
$EXTMAX
 10
-1.000000E+20
 20
-1.000000E+20
 30
-1.000000E+20
  9
$LIMMIN
 10
0.0
 20
0.0
  9
$LIMMAX
 10
420.0
 20
297.0
  9
$ORTHOMODE
 70
     0
  9
$REGENMODE
 70
     1
  9
$FILLMODE
 70
     1
  9
$QTEXTMODE
 70
     0
  9
$MIRRTEXT
 70
     1
  9
$LTSCALE
 40
1.0
  9
$ATTMODE
 70
     1
  9
$TEXTSIZE
 40
2.5
  9
$TRACEWID
 40
1.0
  9
$TEXTSTYLE
  7
Standard
  9
$CLAYER
  8
0
  9
$CELTYPE
  6
ByLayer
  9
$CECOLOR
 62
   256
  9
$CELTSCALE
 40
1.0
  9
$DISPSILH
 70
     0
  9
$DIMSCALE
 40
1.0
  9
$DIMASZ
 40
2.5
  9
$DIMEXO
 40
0.625
  9
$DIMDLI
 40
3.75
  9
$DIMRND
 40
0.0
  9
$DIMDLE
 40
0.0
  9
$DIMEXE
 40
1.25
  9
$DIMTP
 40
0.0
  9
$DIMTM
 40
0.0
  9
$DIMTXT
 40
2.5
  9
$DIMCEN
 40
2.5
  9
$DIMTSZ
 40
0.0
  9
$DIMTOL
 70
     0
  9
$DIMLIM
 70
     0
  9
$DIMTIH
 70
     0
  9
$DIMTOH
 70
     0
  9
$DIMSE1
 70
     0
  9
$DIMSE2
 70
     0
  9
$DIMTAD
 70
     1
  9
$DIMZIN
 70
     8
  9
$DIMBLK
  1

  9
$DIMASO
 70
     1
  9
$DIMSHO
 70
     1
  9
$DIMPOST
  1

  9
$DIMAPOST
  1

  9
$DIMALT
 70
     0
  9
$DIMALTD
 70
     3
  9
$DIMALTF
 40
0.03937
  9
$DIMLFAC
 40
1.0
  9
$DIMTOFL
 70
     1
  9
$DIMTVP
 40
0.0
  9
$DIMTIX
 70
     0
  9
$DIMSOXD
 70
     0
  9
$DIMSAH
 70
     0
  9
$DIMBLK1
  1

  9
$DIMBLK2
  1

  9
$DIMSTYLE
  2
ISO-25
  9
$DIMCLRD
 70
     0
  9
$DIMCLRE
 70
     0
  9
$DIMCLRT
 70
     0
  9
$DIMTFAC
 40
1.0
  9
$DIMGAP
 40
0.625
  9
$DIMJUST
 70
     0
  9
$DIMSD1
 70
     0
  9
$DIMSD2
 70
     0
  9
$DIMTOLJ
 70
     0
  9
$DIMTZIN
 70
     8
  9
$DIMALTZ
 70
     0
  9
$DIMALTTZ
 70
     0
  9
$DIMUPT
 70
     0
  9
$DIMDEC
 70
     2
  9
$DIMTDEC
 70
     2
  9
$DIMALTU
 70
     2
  9
$DIMALTTD
 70
     3
  9
$DIMTXSTY
  7
Standard
  9
$DIMAUNIT
 70
     0
  9
$DIMADEC
 70
     0
  9
$DIMALTRND
 40
0.0
  9
$DIMAZIN
 70
     0
  9
$DIMDSEP
 70
    44
  9
$DIMATFIT
 70
     3
  9
$DIMFRAC
 70
     0
  9
$DIMLDRBLK
  1

  9
$DIMLUNIT
 70
     2
  9
$DIMLWD
 70
    -2
  9
$DIMLWE
 70
    -2
  9
$DIMTMOVE
 70
     0
  9
$DIMFXL
 40
1.0
  9
$DIMFXLON
 70
     0
  9
$DIMJOGANG
 40
0.785398
  9
$DIMTFILL
 70
     0
  9
$DIMTFILLCLR
 70
     0
  9
$DIMARCSYM
 70
     0
  9
$DIMLTYPE
  6

  9
$DIMLTEX1
  6

  9
$DIMLTEX2
  6

  9
$DIMTXTDIRECTION
 70
     0
  9
$LUNITS
 70
     2
  9
$LUPREC
 70
     4
  9
$SKETCHINC
 40
1.0
  9
$FILLETRAD
 40
10.0
  9
$AUNITS
 70
     0
  9
$AUPREC
 70
     0
  9
$MENU
  1
.
  9
$ELEVATION
 40
0.0
  9
$PELEVATION
 40
0.0
  9
$THICKNESS
 40
0.0
  9
$LIMCHECK
 70
     0
  9
$CHAMFERA
 40
0.0
  9
$CHAMFERB
 40
0.0
  9
$CHAMFERC
 40
0.0
  9
$CHAMFERD
 40
0.0
  9
$SKPOLY
 70
     0
  9
$TDCREATE
 40
2458660.394759526
  9
$TDUCREATE
 40
2458660.311426192
  9
$TDUPDATE
 40
2458660.394760984
  9
$TDUUPDATE
 40
2458660.311427651
  9
$TDINDWG
 40
0.0000000116
  9
$TDUSRTIMER
 40
0.0000000116
  9
$USRTIMER
 70
     1
  9
$ANGBASE
 50
0.0
  9
$ANGDIR
 70
     0
  9
$PDMODE
 70
     0
  9
$PDSIZE
 40
0.0
  9
$PLINEWID
 40
0.0
  9
$SPLFRAME
 70
     0
  9
$SPLINETYPE
 70
     6
  9
$SPLINESEGS
 70
     8
  9
$HANDSEED
  5
399
  9
$SURFTAB1
 70
     6
  9
$SURFTAB2
 70
     6
  9
$SURFTYPE
 70
     6
  9
$SURFU
 70
     6
  9
$SURFV
 70
     6
  9
$UCSBASE
  2

  9
$UCSNAME
  2

  9
$UCSORG
 10
0.0
 20
0.0
 30
0.0
  9
$UCSXDIR
 10
1.0
 20
0.0
 30
0.0
  9
$UCSYDIR
 10
0.0
 20
1.0
 30
0.0
  9
$UCSORTHOREF
  2

  9
$UCSORTHOVIEW
 70
     0
  9
$UCSORGTOP
 10
0.0
 20
0.0
 30
0.0
  9
$UCSORGBOTTOM
 10
0.0
 20
0.0
 30
0.0
  9
$UCSORGLEFT
 10
0.0
 20
0.0
 30
0.0
  9
$UCSORGRIGHT
 10
0.0
 20
0.0
 30
0.0
  9
$UCSORGFRONT
 10
0.0
 20
0.0
 30
0.0
  9
$UCSORGBACK
 10
0.0
 20
0.0
 30
0.0
  9
$PUCSBASE
  2

  9
$PUCSNAME
  2

  9
$PUCSORG
 10
0.0
 20
0.0
 30
0.0
  9
$PUCSXDIR
 10
1.0
 20
0.0
 30
0.0
  9
$PUCSYDIR
 10
0.0
 20
1.0
 30
0.0
  9
$PUCSORTHOREF
  2

  9
$PUCSORTHOVIEW
 70
     0
  9
$PUCSORGTOP
 10
0.0
 20
0.0
 30
0.0
  9
$PUCSORGBOTTOM
 10
0.0
 20
0.0
 30
0.0
  9
$PUCSORGLEFT
 10
0.0
 20
0.0
 30
0.0
  9
$PUCSORGRIGHT
 10
0.0
 20
0.0
 30
0.0
  9
$PUCSORGFRONT
 10
0.0
 20
0.0
 30
0.0
  9
$PUCSORGBACK
 10
0.0
 20
0.0
 30
0.0
  9
$USERI1
 70
     0
  9
$USERI2
 70
     0
  9
$USERI3
 70
     0
  9
$USERI4
 70
     0
  9
$USERI5
 70
     0
  9
$USERR1
 40
0.0
  9
$USERR2
 40
0.0
  9
$USERR3
 40
0.0
  9
$USERR4
 40
0.0
  9
$USERR5
 40
0.0
  9
$WORLDVIEW
 70
     1
  9
$SHADEDGE
 70
     3
  9
$SHADEDIF
 70
    70
  9
$TILEMODE
 70
     1
  9
$MAXACTVP
 70
    64
  9
$PINSBASE
 10
0.0
 20
0.0
 30
0.0
  9
$PLIMCHECK
 70
     0
  9
$PEXTMIN
 10
1.000000E+20
 20
1.000000E+20
 30
1.000000E+20
  9
$PEXTMAX
 10
-1.000000E+20
 20
-1.000000E+20
 30
-1.000000E+20
  9
$PLIMMIN
 10
0.0
 20
0.0
  9
$PLIMMAX
 10
420.0
 20
297.0
  9
$UNITMODE
 70
     0
  9
$VISRETAIN
 70
     1
  9
$PLINEGEN
 70
     0
  9
$PSLTSCALE
 70
     1
  9
$TREEDEPTH
 70
  3020
  9
$CMLSTYLE
  2
Standard
  9
$CMLJUST
 70
     0
  9
$CMLSCALE
 40
20.0
  9
$PROXYGRAPHICS
 70
     1
  9
$MEASUREMENT
 70
     1
  9
$CELWEIGHT
370
    -1
  9
$ENDCAPS
280
     0
  9
$JOINSTYLE
280
     0
  9
$LWDISPLAY
290
     0
  9
$INSUNITS
 70
     4
  9
$HYPERLINKBASE
  1

  9
$STYLESHEET
  1

  9
$XEDIT
290
     1
  9
$CEPSNTYPE
380
     0
  9
$PSTYLEMODE
290
     1
  9
$FINGERPRINTGUID
  2
{BC8532C3-298A-44E2-8584-14DBBDF32CA2}
  9
$VERSIONGUID
  2
{FAEB1C32-E019-11D5-929B-00C0DF256EC4}
  9
$EXTNAMES
290
     1
  9
$PSVPSCALE
 40
0.0
  9
$OLESTARTUP
290
     0
  9
$SORTENTS
280
   127
  9
$INDEXCTL
280
     0
  9
$HIDETEXT
280
     1
  9
$XCLIPFRAME
280
     2
  9
$HALOGAP
280
     0
  9
$OBSCOLOR
 70
   257
  9
$OBSLTYPE
280
     0
  9
$INTERSECTIONDISPLAY
280
     0
  9
$INTERSECTIONCOLOR
 70
   257
  9
$DIMASSOC
280
     2
  9
$PROJECTNAME
  1

  9
$CAMERADISPLAY
290
     0
  9
$LENSLENGTH
 40
50.0
  9
$CAMERAHEIGHT
 40
0.0
  9
$STEPSPERSEC
 40
2.0
  9
$STEPSIZE
 40
6.0
  9
$3DDWFPREC
 40
2.0
  9
$PSOLWIDTH
 40
5.0
  9
$PSOLHEIGHT
 40
80.0
  9
$LOFTANG1
 40
1.570796
  9
$LOFTANG2
 40
1.570796
  9
$LOFTMAG1
 40
0.0
  9
$LOFTMAG2
 40
0.0
  9
$LOFTPARAM
 70
     7
  9
$LOFTNORMALS
280
     1
  9
$LATITUDE
 40
37.795
  9
$LONGITUDE
 40
-122.394
  9
$NORTHDIRECTION
 40
0.0
  9
$TIMEZONE
 70
 -8000
  9
$LIGHTGLYPHDISPLAY
280
     1
  9
$TILEMODELIGHTSYNCH
280
     1
  9
$CMATERIAL
347
44
  9
$SOLIDHIST
280
     0
  9
$SHOWHIST
280
     1
  9
$DWFFRAME
280
     2
  9
$DGNFRAME
280
     2
  9
$REALWORLDSCALE
290
     1
  9
$INTERFERECOLOR
 62
   256
  9
$CSHADOW
280
     0
  9
$SHADOWPLANELOCATION
 40
0.0
  0
ENDSEC
  0
SECTION
  2
CLASSES
  0
CLASS
  1
ACDBDICTIONARYWDFLT
  2
AcDbDictionaryWithDefault
  3
ObjectDBX Classes
 90
        0
 91
        4
280
     0
281
     0
  0
CLASS
  1
VISUALSTYLE
  2
AcDbVisualStyle
  3
ObjectDBX Classes
 90
     4095
 91
        4
280
     0
281
     0
  0
CLASS
  1
MATERIAL
  2
AcDbMaterial
  3
ObjectDBX Classes
 90
     1153
 91
        4
280
     0
281
     0
  0
CLASS
  1
SCALE
  2
AcDbScale
  3
ObjectDBX Classes
 90
     1153
 91
        4
280
     0
281
     0
  0
CLASS
  1
TABLESTYLE
  2
AcDbTableStyle
  3
ObjectDBX Classes
 90
     4095
 91
        4
280
     0
281
     0
  0
CLASS
  1
MLEADERSTYLE
  2
AcDbMLeaderStyle
  3
ACDB_MLEADERSTYLE_CLASS
 90
     4095
 91
        4
280
     0
281
     0
  0
CLASS
  1
SUN
  2
AcDbSun
  3
SCENEOE
 90
     1153
 91
        4
280
     0
281
     0
  0
CLASS
  1
DICTIONARYVAR
  2
AcDbDictionaryVar
  3
ObjectDBX Classes
 90
        0
 91
        4
280
     0
281
     0
  0
CLASS
  1
CELLSTYLEMAP
  2
AcDbCellStyleMap
  3
ObjectDBX Classes
 90
     1152
 91
        4
280
     0
281
     0
  0
ENDSEC
  0
SECTION
  2
TABLES
  0
TABLE
  2
VPORT
  5
8
330
0
100
AcDbSymbolTable
 70
     1
  0
VPORT
  5
29
330
8
100
AcDbSymbolTableRecord
100
AcDbViewportTableRecord
  2
*Active
 70
     0
 10
0.0
 20
0.0
 11
1.0
 21
1.0
 12
344.186916
 22
148.5
 13
0.0
 23
0.0
 14
10.0
 24
10.0
 15
10.0
 25
10.0
 16
0.0
 26
0.0
 36
1.0
 17
0.0
 27
0.0
 37
0.0
 40
297.0
 41
1.972973
 42
50.0
 43
0.0
 44
0.0
 50
0.0
 51
0.0
 71
     0
 72
   100
 73
     1
 74
     3
 75
     0
 76
     0
 77
     0
 78
     0
281
     0
 65
     1
110
0.0
120
0.0
130
0.0
111
1.0
121
0.0
131
0.0
112
0.0
122
1.0
132
0.0
 79
     0
146
0.0
348
2F
 60
     3
 61
     5
292
     1
282
     1
141
0.0
142
0.0
 63
   250
361
6D
  0
ENDTAB
  0
TABLE
  2
LTYPE
  5
5
330
0
100
AcDbSymbolTable
 70
     1
  0
LTYPE
  5
14
330
5
100
AcDbSymbolTableRecord
100
AcDbLinetypeTableRecord
  2
ByBlock
 70
     0
  3

 72
    65
 73
     0
 40
0.0
  0
LTYPE
  5
15
330
5
100
AcDbSymbolTableRecord
100
AcDbLinetypeTableRecord
  2
ByLayer
 70
     0
  3

 72
    65
 73
     0
 40
0.0
  0
LTYPE
  5
16
330
5
100
AcDbSymbolTableRecord
100
AcDbLinetypeTableRecord
  2
Continuous
 70
     0
  3
Solid line
 72
    65
 73
     0
 40
0.0
  0
ENDTAB
  0
TABLE
  2
LAYER
  5
2
330
0
100
AcDbSymbolTable
 70
     1
  0
LAYER
  5
10
330
2
100
AcDbSymbolTableRecord
100
AcDbLayerTableRecord
  2
0
 70
     0
 62
   106
  6
Continuous
370
     0
390
F
347
46
  0
ENDTAB
  0
TABLE
  2
STYLE
  5
3
330
0
100
AcDbSymbolTable
 70
     4
  0
STYLE
  5
11
330
3
100
AcDbSymbolTableRecord
100
AcDbTextStyleTableRecord
  2
Standard
 70
     0
 40
0.0
 41
1.0
 50
0.0
 71
     0
 42
2.5
  3
txt
  4

  0
STYLE
  5
6E
330
3
100
AcDbSymbolTableRecord
100
AcDbTextStyleTableRecord
  2
Default
 70
     0
 40
0.0
 41
1.0
 50
0.0
 71
     0
 42
2.5
  3

  4

1001
ACAD
1000
txt
1071
        0
  0
STYLE
  5
6F
330
3
100
AcDbSymbolTableRecord
100
AcDbTextStyleTableRecord
  2
ISO
 70
     0
 40
0.0
 41
1.0
 50
0.0
 71
     0
 42
2.5
  3

  4

1001
ACAD
1000
txt
1071
        0
  0
STYLE
  5
70
330
3
100
AcDbSymbolTableRecord
100
AcDbTextStyleTableRecord
  2
zucchetti
 70
     0
 40
0.0
 41
1.0
 50
0.0
 71
     0
 42
2.5
  3

  4

1001
ACAD
1000
Arial
1071
        0
  0
ENDTAB
  0
TABLE
  2
VIEW
  5
6
330
0
100
AcDbSymbolTable
 70
     0
  0
ENDTAB
  0
TABLE
  2
UCS
  5
7
330
0
100
AcDbSymbolTable
 70
     0
  0
ENDTAB
  0
TABLE
  2
APPID
  5
9
330
0
100
AcDbSymbolTable
 70
     1
  0
APPID
  5
12
330
9
100
AcDbSymbolTableRecord
100
AcDbRegAppTableRecord
  2
ACAD
 70
     0
  0
ENDTAB
  0
TABLE
  2
DIMSTYLE
  5
A
330
0
100
AcDbSymbolTable
 70
     4
100
AcDbDimStyleTable
  0
DIMSTYLE
105
27
330
A
100
AcDbSymbolTableRecord
100
AcDbDimStyleTableRecord
  2
ISO-25
 70
     0
 41
2.5
 42
0.625
 43
3.75
 44
1.25
 73
     0
 74
     0
 77
     1
 78
     8
140
2.5
141
2.5
143
0.03937
147
0.625
171
     3
172
     1
178
     0
271
     2
272
     2
274
     3
278
    44
283
     0
284
     8
340
11
  0
DIMSTYLE
105
71
330
A
100
AcDbSymbolTableRecord
100
AcDbDimStyleTableRecord
  2
Default
 70
     0
  3
<>
 41
4.375
 42
1.05
 44
2.1
 49
10.01
 73
     0
 74
     0
 77
     1
 78
     8
140
3.5
146
0.4
147
1.75
172
     1
271
     2
178
     3
271
     2
272
     3
284
     8
340
6E
341
72
342
72
  0
DIMSTYLE
105
79
330
A
100
AcDbSymbolTableRecord
100
AcDbDimStyleTableRecord
  2
ISO
 70
     0
  3
<>
 41
4.375
 42
1.05
 44
2.1
 49
10.01
 73
     0
 74
     0
 77
     1
 78
     8
140
3.5
146
0.4
147
1.75
172
     1
271
     2
178
     3
271
     2
272
     3
284
     8
340
6F
341
72
342
72
  0
DIMSTYLE
105
7A
330
A
100
AcDbSymbolTableRecord
100
AcDbDimStyleTableRecord
  2
zucchetti
 70
     0
  3
<>
 41
3.0
 42
0.9
 44
1.8
 49
8.58
 73
     0
 74
     0
 77
     1
 78
     8
140
3.0
146
0.6
147
1.5
172
     1
176
     3
177
     3
271
     2
178
     3
271
     2
272
     2
284
     8
340
70
  0
ENDTAB
  0
TABLE
  2
BLOCK_RECORD
  5
1
330
0
100
AcDbSymbolTable
 70
     6
  0
BLOCK_RECORD
  5
1F
330
1
100
AcDbSymbolTableRecord
100
AcDbBlockTableRecord
  2
*Model_Space
340
22
 70
     0
280
     1
281
     0
  0
BLOCK_RECORD
  5
1B
330
1
100
AcDbSymbolTableRecord
100
AcDbBlockTableRecord
  2
*Paper_Space
340
1E
 70
     0
280
     1
281
     0
  0
BLOCK_RECORD
  5
23
330
1
100
AcDbSymbolTableRecord
100
AcDbBlockTableRecord
  2
*Paper_Space0
340
26
 70
     0
280
     1
281
     0
  0
BLOCK_RECORD
  5
72
330
1
100
AcDbSymbolTableRecord
100
AcDbBlockTableRecord
  2
_CLOSED
340
0
 70
     0
280
     1
281
     0
  0
BLOCK_RECORD
  5
7B
330
1
100
AcDbSymbolTableRecord
100
AcDbBlockTableRecord
  2
a
340
0
102
{BLKREFS
331
E1
102
}
 70
     0
280
     1
281
     0
  0
BLOCK_RECORD
  5
E2
330
1
100
AcDbSymbolTableRecord
100
AcDbBlockTableRecord
  2
b
340
0
102
{BLKREFS
331
1B6
102
}
 70
     0
280
     1
281
     0
  0
BLOCK_RECORD
  5
1B7
330
1
100
AcDbSymbolTableRecord
100
AcDbBlockTableRecord
  2
c
340
0
102
{BLKREFS
331
286
102
}
 70
     0
280
     1
281
     0
  0
BLOCK_RECORD
  5
287
330
1
100
AcDbSymbolTableRecord
100
AcDbBlockTableRecord
  2
d
340
0
102
{BLKREFS
331
35F
102
}
 70
     0
280
     1
281
     0
  0
ENDTAB
  0
ENDSEC
  0
SECTION
  2
BLOCKS
  0
BLOCK
  5
20
330
1F
100
AcDbEntity
  8
0
100
AcDbBlockBegin
  2
*Model_Space
 70
     0
 10
0.0
 20
0.0
 30
0.0
  3
*Model_Space
  1

  0
ENDBLK
  5
21
330
1F
100
AcDbEntity
  8
0
100
AcDbBlockEnd
  0
BLOCK
  5
1C
330
1B
100
AcDbEntity
 67
     1
  8
0
100
AcDbBlockBegin
  2
*Paper_Space
 70
     0
 10
0.0
 20
0.0
 30
0.0
  3
*Paper_Space
  1

  0
ENDBLK
  5
1D
330
1B
100
AcDbEntity
 67
     1
  8
0
100
AcDbBlockEnd
  0
BLOCK
  5
24
330
23
100
AcDbEntity
  8
0
100
AcDbBlockBegin
  2
*Paper_Space0
 70
     0
 10
0.0
 20
0.0
 30
0.0
  3
*Paper_Space0
  1

  0
ENDBLK
  5
25
330
23
100
AcDbEntity
  8
0
100
AcDbBlockEnd
  0
BLOCK
  5
73
330
72
100
AcDbEntity
  8
0
100
AcDbBlockBegin
  2
_CLOSED
 70
     0
 10
0.0
 20
0.0
 30
0.0
  3
_CLOSED
  1

  0
LINE
  5
75
330
72
100
AcDbEntity
  8
0
  6
ByBlock
 62
     0
370
    -2
100
AcDbLine
 10
-1.0
 20
0.166667
 30
0.0
 11
0.0
 21
0.0
 31
0.0
  0
LINE
  5
76
330
72
100
AcDbEntity
  8
0
  6
ByBlock
 62
     0
370
    -2
100
AcDbLine
 10
0.0
 20
0.0
 30
0.0
 11
-1.0
 21
-0.166667
 31
0.0
  0
LINE
  5
77
330
72
100
AcDbEntity
  8
0
  6
ByBlock
 62
     0
370
    -2
100
AcDbLine
 10
-1.0
 20
0.166667
 30
0.0
 11
-1.0
 21
-0.166667
 31
0.0
  0
LINE
  5
78
330
72
100
AcDbEntity
  8
0
  6
ByBlock
 62
     0
370
    -2
100
AcDbLine
 10
0.0
 20
0.0
 30
0.0
 11
-1.0
 21
0.0
 31
0.0
  0
ENDBLK
  5
74
330
72
100
AcDbEntity
  8
0
100
AcDbBlockEnd
  0
BLOCK
  5
DF
330
7B
100
AcDbEntity
  8
0
100
AcDbBlockBegin
  2
a
 70
     0
 10
18.380348
 20
99.914375
 30
0.0
  3
a
  1

  0
LWPOLYLINE
  5
7C
330
7B
100
AcDbEntity
  8
0
  6
Continuous
 62
     0
370
     0
100
AcDbPolyline
 90
       24
 70
     0
 43
0.0
 10
182.227676
 20
1256.565063
 10
182.910965
 20
1256.57666
 10
183.532303
 20
1256.588745
 10
184.091141
 20
1256.601196
 10
184.592209
 20
1256.614136
 10
185.052475
 20
1256.62793
 10
185.467743
 20
1256.642456
 10
185.83136
 20
1256.657959
 10
186.136932
 20
1256.674072
 10
186.37854
 20
1256.690796
 10
186.550934
 20
1256.70813
 10
186.649765
 20
1256.72583
 10
186.671768
 20
1256.743774
 10
186.614929
 20
1256.761841
 10
186.478561
 20
1256.779785
 10
186.263382
 20
1256.797485
 10
185.971542
 20
1256.814819
 10
185.606476
 20
1256.831665
 10
185.172821
 20
1256.847778
 10
184.676285
 20
1256.863159
 10
184.123352
 20
1256.877686
 10
183.521103
 20
1256.891113
 10
182.876999
 20
1256.903687
 10
182.197052
 20
1256.915039
  0
ELLIPSE
  5
7D
330
7B
100
AcDbEntity
  8
0
  6
Continuous
 62
     0
370
    30
100
AcDbEllipse
 10
173.173645
 20
1272.237469
 30
0.0
 11
14.5
 21
-3.094350603939058E-15
 31
0.0
210
0.0
220
0.0
230
1.0
 40
0.017452
 41
0.969812559584776
 42
1.013896151988016
  0
ELLIPSE
  5
7E
330
7B
100
AcDbEntity
  8
0
  6
Continuous
 62
     0
370
    30
100
AcDbEllipse
 10
173.173645
 20
1272.237469
 30
0.0
 11
14.5
 21
-3.094350603939058E-15
 31
0.0
210
0.0
220
0.0
230
1.0
 40
0.017452
 41
0.0000000000000124
 42
0.9698125595847751
  0
ELLIPSE
  5
7F
330
7B
100
AcDbEntity
  8
0
  6
Continuous
 62
     0
370
     0
100
AcDbEllipse
 10
173.173645
 20
1257.739678
 30
0.0
 11
-14.5
 21
3.094350603939058E-15
 31
0.0
210
0.0
220
0.0
230
-1.0
 40
0.017452
 41
2.234611281965203
 42
3.141592653589781
  0
ELLIPSE
  5
80
330
7B
100
AcDbEntity
  8
0
  6
Continuous
 62
     0
370
    30
100
AcDbEllipse
 10
173.173645
 20
1286.035362
 30
0.0
 11
-14.49999999999999
 21
0.0
 31
0.0
210
0.0
220
0.0
230
-1.0
 40
0.017452
 41
2.032231815133312
 42
3.76764861458766
  0
LWPOLYLINE
  5
81
330
7B
100
AcDbEntity
  8
0
  6
Continuous
 62
     0
370
    30
100
AcDbPolyline
 90
       19
 70
     0
 43
0.0
 10
187.673645
 20
1298.783447
 10
187.644913
 20
1298.82666
 10
187.560135
 20
1298.922974
 10
187.421417
 20
1299.070068
 10
187.230881
 20
1299.265869
 10
186.991058
 20
1299.507568
 10
186.705261
 20
1299.79187
 10
186.377014
 20
1300.11499
 10
186.009933
 20
1300.473022
 10
185.607605
 20
1300.862305
 10
185.173218
 20
1301.279297
 10
184.709625
 20
1301.720703
 10
184.219467
 20
1302.183472
 10
183.705124
 20
1302.664551
 10
183.168503
 20
1303.161255
 10
182.610855
 20
1303.671509
 10
182.033539
 20
1304.192627
 10
181.438004
 20
1304.721436
 10
180.819717
 20
1305.26001
  0
ELLIPSE
  5
82
330
7B
100
AcDbEntity
  8
0
  6
Continuous
 62
     0
370
     0
100
AcDbEllipse
 10
173.173645
 20
1305.044974
 30
0.0
 11
14.49999999999999
 21
0.0
 31
0.0
210
0.0
220
0.0
230
1.0
 40
0.017452
 41
1.015358033683315
 42
1.234003612581878
  0
ARC
  5
83
330
7B
100
AcDbEntity
  8
0
  6
Continuous
 62
     0
370
    30
100
AcDbCircle
 10
214.059012
 20
1343.958111
 30
0.0
 40
51.01367213899432
100
AcDbArc
 50
227.620186
 51
229.339463
  0
LINE
  5
84
330
7B
100
AcDbEntity
  8
0
  6
Continuous
 62
     0
370
     0
100
AcDbLine
 10
177.177912
 20
1314.284158
 30
0.0
 11
178.882837
 21
1314.284158
 31
0.0
  0
LINE
  5
85
330
7B
100
AcDbEntity
  8
0
  6
Continuous
 62
     0
370
    30
100
AcDbLine
 10
178.882837
 20
1314.284158
 30
0.0
 11
179.673645
 21
1314.80834
 31
0.0
  0
LINE
  5
86
330
7B
100
AcDbEntity
  8
0
  6
Continuous
 62
     0
370
    30
100
AcDbLine
 10
179.673645
 20
1314.80834
 30
0.0
 11
179.673645
 21
1328.531098
 31
0.0
  0
ARC
  5
87
330
7B
100
AcDbEntity
  8
0
  6
Continuous
 62
     0
370
     0
100
AcDbCircle
 10
58.482522
 20
1466.165562
 30
0.0
 40
197.5293314161457
100
AcDbArc
 50
307.113552
 51
307.845475
  0
LINE
  5
88
330
7B
100
AcDbEntity
  8
0
  6
Continuous
 62
     0
370
    30
100
AcDbLine
 10
179.673645
 20
1314.80834
 30
0.0
 11
179.673645
 21
1310.182652
 31
0.0
  0
LWPOLYLINE
  5
89
330
7B
100
AcDbEntity
  8
0
  6
Continuous
 62
     0
370
     0
100
AcDbPolyline
 90
        3
 70
     0
 43
0.0
 10
178.882843
 20
1314.28418
 10
178.864243
 20
1314.257935
 10
177.370438
 20
1312.083496
  0
LINE
  5
8A
330
7B
100
AcDbEntity
  8
0
  6
Continuous
 62
     0
370
    30
100
AcDbLine
 10
179.673645
 20
1310.182652
 30
0.0
 11
179.673645
 21
1306.274676
 31
0.0
  0
ELLIPSE
  5
8B
330
7B
100
AcDbEntity
  8
0
  6
Continuous
 62
     0
370
    30
100
AcDbEllipse
 10
173.173645
 20
1286.035362
 30
0.0
 11
11.75
 21
0.0
 31
0.0
210
0.0
220
0.0
230
1.0
 40
0.017452
 41
0.0
 42
0.9886123645420932
  0
LINE
  5
8C
330
7B
100
AcDbEntity
  8
0
  6
Continuous
 62
     0
370
    30
100
AcDbLine
 10
184.923645
 20
1272.579947
 30
0.0
 11
184.923645
 21
1272.385751
 31
0.0
  0
LINE
  5
8D
330
7B
100
AcDbEntity
  8
0
  6
Continuous
 62
     0
370
    30
100
AcDbLine
 10
184.923645
 20
1286.035362
 30
0.0
 11
184.923645
 21
1285.683722
 31
0.0
  0
LINE
  5
8E
330
7B
100
AcDbEntity
  8
0
  6
Continuous
 62
     0
370
    30
100
AcDbLine
 10
175.931466
 20
1328.531098
 30
0.0
 11
179.673645
 21
1328.531098
 31
0.0
  0
LINE
  5
8F
330
7B
100
AcDbEntity
  8
0
  6
Continuous
 62
     0
370
    30
100
AcDbLine
 10
187.673645
 20
1286.035362
 30
0.0
 11
187.673645
 21
1298.78349
 31
0.0
  0
LWPOLYLINE
  5
90
330
7B
100
AcDbEntity
  8
0
  6
Continuous
 62
     0
370
    30
100
AcDbPolyline
 90
       44
 70
     0
 43
0.0
 10
187.673645
 20
1257.739624
 10
187.635986
 20
1257.467651
 10
187.52774
 20
1257.218384
 10
187.362991
 20
1257.013306
 10
187.174713
 20
1256.87085
 10
187.015213
 20
1256.794312
 10
186.90451
 20
1256.758667
 10
186.82486
 20
1256.73999
 10
186.760147
 20
1256.728149
 10
186.701523
 20
1256.71936
 10
186.644073
 20
1256.712036
 10
186.585419
 20
1256.705566
 10
186.524261
 20
1256.699585
 10
186.459488
 20
1256.69397
 10
186.390488
 20
1256.688599
 10
186.316986
 20
1256.68335
 10
186.238739
 20
1256.678345
 10
186.155518
 20
1256.67334
 10
186.067184
 20
1256.668335
 10
185.973724
 20
1256.663574
 10
185.875122
 20
1256.658691
 10
185.771347
 20
1256.654053
 10
185.662384
 20
1256.649292
 10
185.548218
 20
1256.644775
 10
185.428833
 20
1256.640137
 10
185.30423
 20
1256.63562
 10
185.174438
 20
1256.631226
 10
185.03952
 20
1256.626831
 10
184.899536
 20
1256.622437
 10
184.754547
 20
1256.618164
 10
184.604584
 20
1256.614014
 10
184.449707
 20
1256.609741
 10
184.289963
 20
1256.605713
 10
184.125397
 20
1256.601685
 10
183.9561
 20
1256.597656
 10
183.78212
 20
1256.59375
 10
183.603531
 20
1256.589844
 10
183.420425
 20
1256.58606
 10
183.232849
 20
1256.582397
 10
183.040909
 20
1256.578735
 10
182.844681
 20
1256.575195
 10
182.644257
 20
1256.571655
 10
182.439728
 20
1256.568237
 10
182.227707
 20
1256.564819
  0
LINE
  5
91
330
7B
100
AcDbEntity
  8
0
  6
Continuous
 62
     0
370
    30
100
AcDbLine
 10
187.673645
 20
1257.739678
 30
0.0
 11
187.673645
 21
1272.237469
 31
0.0
  0
LINE
  5
92
330
7B
100
AcDbEntity
  8
0
  6
Continuous
 62
     0
370
     0
100
AcDbLine
 10
191.828154
 20
1486.78164
 30
0.0
 11
191.828154
 21
1329.076755
 31
0.0
  0
LINE
  5
93
330
7B
100
AcDbEntity
  8
0
  6
Continuous
 62
     0
370
     0
100
AcDbLine
 10
191.828154
 20
1329.076755
 30
0.0
 11
191.831062
 21
1329.031094
 31
0.0
  0
LINE
  5
94
330
7B
100
AcDbEntity
  8
0
  6
Continuous
 62
     0
370
    30
100
AcDbLine
 10
191.831062
 20
1329.031094
 30
0.0
 11
191.831062
 21
1486.797264
 31
0.0
  0
LINE
  5
95
330
7B
100
AcDbEntity
  8
0
  6
Continuous
 62
     0
370
     0
100
AcDbLine
 10
191.831062
 20
1486.797264
 30
0.0
 11
191.828154
 21
1486.78164
 31
0.0
  0
LINE
  5
96
330
7B
100
AcDbEntity
  8
0
  6
Continuous
 62
     0
370
     0
100
AcDbLine
 10
191.828154
 20
1329.076755
 30
0.0
 11
189.133729
 21
1329.076755
 31
0.0
  0
ELLIPSE
  5
97
330
7B
100
AcDbEntity
  8
0
  6
Continuous
 62
     0
370
     0
100
AcDbEllipse
 10
188.136224
 20
1329.076755
 30
0.0
 11
3.735224068259677E-15
 21
1.0
 31
0.0
210
0.0
220
0.0
230
-1.0
 40
0.997505
 41
1.570796326794793
 42
2.147969659112799
  0
ARC
  5
98
330
7B
100
AcDbEntity
  8
0
  6
Continuous
 62
     0
370
    30
100
AcDbCircle
 10
190.826176
 20
1329.079258
 30
0.0
 40
1.006039187444242
100
AcDbArc
 50
326.984219
 51
357.255925
  0
LINE
  5
99
330
7B
100
AcDbEntity
  8
0
  6
Continuous
 62
     0
370
     0
100
AcDbLine
 10
154.519136
 20
1382.031105
 30
0.0
 11
154.519136
 21
1486.78164
 31
0.0
  0
LINE
  5
9A
330
7B
100
AcDbEntity
  8
0
  6
Continuous
 62
     0
370
     0
100
AcDbLine
 10
154.519136
 20
1486.78164
 30
0.0
 11
154.516228
 21
1486.797264
 31
0.0
  0
LINE
  5
9B
330
7B
100
AcDbEntity
  8
0
  6
Continuous
 62
     0
370
    30
100
AcDbLine
 10
154.516228
 20
1486.797264
 30
0.0
 11
154.516228
 21
1382.031105
 31
0.0
  0
LWPOLYLINE
  5
9C
330
7B
100
AcDbEntity
  8
0
  6
Continuous
 62
     0
370
     0
100
AcDbPolyline
 90
        5
 70
     0
 43
0.0
 10
156.011948
 20
1488.074707
 10
155.801575
 20
1487.98645
 10
155.640381
 20
1487.862671
 10
155.542404
 20
1487.713989
 10
155.516647
 20
1487.547729
  0
LWPOLYLINE
  5
9D
330
7B
100
AcDbEntity
  8
0
  6
Continuous
 62
     0
370
    30
100
AcDbPolyline
 90
        9
 70
     0
 43
0.0
 10
154.516235
 20
1486.797241
 10
154.545868
 20
1487.06604
 10
154.633667
 20
1487.321899
 10
154.774933
 20
1487.552734
 10
154.962585
 20
1487.747803
 10
155.187103
 20
1487.898926
 10
155.437271
 20
1488.002075
 10
155.702011
 20
1488.057617
 10
156.011948
 20
1488.074707
  0
LWPOLYLINE
  5
9E
330
7B
100
AcDbEntity
  8
0
  6
Continuous
 62
     0
370
     0
100
AcDbPolyline
 90
        7
 70
     0
 43
0.0
 10
155.516647
 20
1487.547729
 10
155.272461
 20
1487.515991
 10
155.042587
 20
1487.439209
 10
154.840149
 20
1487.321533
 10
154.679733
 20
1487.170166
 10
154.571548
 20
1486.995972
 10
154.519135
 20
1486.781616
  0
LWPOLYLINE
  5
9F
330
7B
100
AcDbEntity
  8
0
  6
Continuous
 62
     0
370
     0
100
AcDbPolyline
 90
        7
 70
     0
 43
0.0
 10
190.830643
 20
1487.547729
 10
191.074829
 20
1487.515991
 10
191.304703
 20
1487.439209
 10
191.507141
 20
1487.321533
 10
191.667557
 20
1487.170166
 10
191.775742
 20
1486.995972
 10
191.828156
 20
1486.781616
  0
LWPOLYLINE
  5
A0
330
7B
100
AcDbEntity
  8
0
  6
Continuous
 62
     0
370
    30
100
AcDbPolyline
 90
        9
 70
     0
 43
0.0
 10
191.831055
 20
1486.797241
 10
191.801422
 20
1487.06604
 10
191.713623
 20
1487.321899
 10
191.572357
 20
1487.552734
 10
191.384705
 20
1487.747803
 10
191.160187
 20
1487.898926
 10
190.910019
 20
1488.002075
 10
190.645279
 20
1488.057617
 10
190.335342
 20
1488.074707
  0
LWPOLYLINE
  5
A1
330
7B
100
AcDbEntity
  8
0
  6
Continuous
 62
     0
370
     0
100
AcDbPolyline
 90
        5
 70
     0
 43
0.0
 10
190.335342
 20
1488.074707
 10
190.545715
 20
1487.98645
 10
190.706909
 20
1487.862671
 10
190.804886
 20
1487.713989
 10
190.830643
 20
1487.547729
  0
LINE
  5
A2
330
7B
100
AcDbEntity
  8
0
  6
Continuous
 62
     0
370
    30
100
AcDbLine
 10
156.011941
 20
1488.074687
 30
0.0
 11
190.335349
 21
1488.074687
 31
0.0
  0
LINE
  5
A3
330
7B
100
AcDbEntity
  8
0
  6
Continuous
 62
     0
370
     0
100
AcDbLine
 10
158.211066
 20
1455.600128
 30
0.0
 11
155.516641
 21
1487.547684
 31
0.0
  0
LWPOLYLINE
  5
A4
330
7B
100
AcDbEntity
  8
0
  6
Continuous
 62
     0
370
     0
100
AcDbPolyline
 90
       22
 70
     0
 43
0.0
 10
173.173645
 20
1443.9021
 10
172.104279
 20
1443.934204
 10
171.040344
 20
1444.030151
 10
169.987274
 20
1444.189453
 10
168.950439
 20
1444.411377
 10
167.935074
 20
1444.694702
 10
166.94635
 20
1445.038086
 10
165.989365
 20
1445.439697
 10
165.068909
 20
1445.897705
 10
164.189667
 20
1446.409424
 10
163.356216
 20
1446.972534
 10
162.572678
 20
1447.583984
 10
161.843048
 20
1448.240723
 10
161.171188
 20
1448.939575
 10
160.560349
 20
1449.676758
 10
160.013626
 20
1450.448608
 10
159.534012
 20
1451.251221
 10
159.123734
 20
1452.080566
 10
158.784897
 20
1452.932251
 10
158.519409
 20
1453.802002
 10
158.328445
 20
1454.685425
 10
158.21106
 20
1455.600098
  0
LWPOLYLINE
  5
A5
330
7B
100
AcDbEntity
  8
0
  6
Continuous
 62
     0
370
     0
100
AcDbPolyline
 90
       22
 70
     0
 43
0.0
 10
188.13623
 20
1455.600098
 10
188.022598
 20
1454.707275
 10
187.833466
 20
1453.823608
 10
187.569809
 20
1452.953369
 10
187.232758
 20
1452.101196
 10
186.824219
 20
1451.271362
 10
186.346268
 20
1450.468018
 10
185.801178
 20
1449.695435
 10
185.191879
 20
1448.957275
 10
184.521469
 20
1448.257446
 10
183.793228
 20
1447.599609
 10
183.010971
 20
1446.986938
 10
182.178696
 20
1446.422607
 10
181.300537
 20
1445.909546
 10
180.381027
 20
1445.450317
 10
179.424896
 20
1445.047241
 10
178.43689
 20
1444.702515
 10
177.422104
 20
1444.417603
 10
176.385742
 20
1444.194092
 10
175.333008
 20
1444.033325
 10
174.269272
 20
1443.935791
 10
173.173645
 20
1443.9021
  0
LINE
  5
A6
330
7B
100
AcDbEntity
  8
0
  6
Continuous
 62
     0
370
     0
100
AcDbLine
 10
190.830649
 20
1487.547684
 30
0.0
 11
188.136224
 21
1455.600128
 31
0.0
  0
LWPOLYLINE
  5
A7
330
7B
100
AcDbEntity
  8
0
  6
Continuous
 62
     0
370
     0
100
AcDbPolyline
 90
       30
 70
     0
 43
0.0
 10
166.673645
 20
1479.172974
 10
166.705765
 20
1478.758057
 10
166.806534
 20
1478.332397
 10
166.9814
 20
1477.902588
 10
167.233704
 20
1477.476318
 10
167.564178
 20
1477.062134
 10
167.970596
 20
1476.668701
 10
168.447601
 20
1476.304443
 10
168.986877
 20
1475.976929
 10
169.577713
 20
1475.692383
 10
170.20755
 20
1475.4552
 10
170.862961
 20
1475.2677
 10
171.530502
 20
1475.130493
 10
172.197433
 20
1475.042236
 10
172.852463
 20
1474.999878
 10
173.492416
 20
1474.999878
 10
174.147385
 20
1475.041992
 10
174.814301
 20
1475.130127
 10
175.481857
 20
1475.26709
 10
176.137344
 20
1475.454346
 10
176.767303
 20
1475.691406
 10
177.358292
 20
1475.97583
 10
177.897797
 20
1476.303223
 10
178.375046
 20
1476.667236
 10
178.781738
 20
1477.060547
 10
179.112503
 20
1477.474731
 10
179.365097
 20
1477.901001
 10
179.540253
 20
1478.330811
 10
179.641281
 20
1478.756592
 10
179.673645
 20
1479.172974
  0
LWPOLYLINE
  5
A8
330
7B
100
AcDbEntity
  8
0
  6
Continuous
 62
     0
370
     0
100
AcDbPolyline
 90
       30
 70
     0
 43
0.0
 10
179.673645
 20
1479.172974
 10
179.641525
 20
1479.587769
 10
179.540756
 20
1480.013428
 10
179.365891
 20
1480.443359
 10
179.113586
 20
1480.869629
 10
178.783112
 20
1481.283813
 10
178.376694
 20
1481.677246
 10
177.899689
 20
1482.041382
 10
177.360413
 20
1482.368896
 10
176.769577
 20
1482.653442
 10
176.13974
 20
1482.890747
 10
175.484329
 20
1483.078125
 10
174.816788
 20
1483.215332
 10
174.149857
 20
1483.303711
 10
173.494827
 20
1483.345947
 10
172.854874
 20
1483.346069
 10
172.199905
 20
1483.303955
 10
171.53299
 20
1483.21582
 10
170.865433
 20
1483.078735
 10
170.209946
 20
1482.891479
 10
169.579987
 20
1482.654419
 10
168.988998
 20
1482.369995
 10
168.449493
 20
1482.042725
 10
167.972244
 20
1481.678589
 10
167.565552
 20
1481.285278
 10
167.234787
 20
1480.871094
 10
166.982193
 20
1480.444946
 10
166.807037
 20
1480.015015
 10
166.706009
 20
1479.589355
 10
166.673645
 20
1479.172974
  0
LINE
  5
A9
330
7B
100
AcDbEntity
  8
0
  6
Continuous
 62
     0
370
     0
100
AcDbLine
 10
157.213561
 20
1382.031105
 30
0.0
 11
157.213561
 21
1454.834084
 31
0.0
  0
LINE
  5
AA
330
7B
100
AcDbEntity
  8
0
  6
Continuous
 62
     0
370
     0
100
AcDbLine
 10
157.213561
 20
1454.834084
 30
0.0
 11
154.519136
 21
1486.78164
 31
0.0
  0
LINE
  5
AB
330
7B
100
AcDbEntity
  8
0
  6
Continuous
 62
     0
370
     0
100
AcDbLine
 10
173.173645
 20
1360.053137
 30
0.0
 11
173.173645
 21
1443.136099
 31
0.0
  0
LWPOLYLINE
  5
AC
330
7B
100
AcDbEntity
  8
0
  6
Continuous
 62
     0
370
     0
100
AcDbPolyline
 90
       23
 70
     0
 43
0.0
 10
173.173645
 20
1443.136108
 10
171.939453
 20
1443.173828
 10
170.715454
 20
1443.285522
 10
169.516571
 20
1443.469238
 10
168.350433
 20
1443.72168
 10
167.225296
 20
1444.03833
 10
166.148529
 20
1444.414307
 10
165.125977
 20
1444.844116
 10
164.162125
 20
1445.322266
 10
163.259277
 20
1445.84375
 10
162.418808
 20
1446.403687
 10
161.641434
 20
1446.997925
 10
160.927505
 20
1447.622314
 10
160.27739
 20
1448.272705
 10
159.690994
 20
1448.945435
 10
159.167633
 20
1449.637695
 10
158.706543
 20
1450.34668
 10
158.307068
 20
1451.069702
 10
157.968613
 20
1451.804565
 10
157.690613
 20
1452.54895
 10
157.47258
 20
1453.301025
 10
157.314056
 20
1454.058838
 10
157.213562
 20
1454.834106
  0
LINE
  5
AD
330
7B
100
AcDbEntity
  8
0
  6
Continuous
 62
     0
370
     0
100
AcDbLine
 10
175.883727
 20
1329.076755
 30
0.0
 11
189.133729
 21
1329.076755
 31
0.0
  0
LINE
  5
AE
330
7B
100
AcDbEntity
  8
0
  6
Continuous
 62
     0
370
     0
100
AcDbLine
 10
189.133729
 20
1329.076755
 30
0.0
 11
189.133729
 21
1454.834084
 31
0.0
  0
LWPOLYLINE
  5
AF
330
7B
100
AcDbEntity
  8
0
  6
Continuous
 62
     0
370
     0
100
AcDbPolyline
 90
       23
 70
     0
 43
0.0
 10
189.133728
 20
1454.834106
 10
189.035583
 20
1454.072754
 10
188.878143
 20
1453.314819
 10
188.661194
 20
1452.562622
 10
188.384308
 20
1451.818115
 10
188.046967
 20
1451.083008
 10
187.648621
 20
1450.359741
 10
187.18866
 20
1449.650513
 10
186.666443
 20
1448.958008
 10
186.081207
 20
1448.28479
 10
185.432251
 20
1447.634033
 10
184.719498
 20
1447.009155
 10
183.943268
 20
1446.414307
 10
183.103958
 20
1445.853638
 10
182.202255
 20
1445.331421
 10
181.239502
 20
1444.852417
 10
180.217987
 20
1444.421753
 10
179.142166
 20
1444.044678
 10
178.017853
 20
1443.726929
 10
176.852386
 20
1443.473267
 10
175.654037
 20
1443.28833
 10
174.430389
 20
1443.175171
 10
173.173645
 20
1443.136108
  0
LINE
  5
B0
330
7B
100
AcDbEntity
  8
0
  6
Continuous
 62
     0
370
     0
100
AcDbLine
 10
191.828154
 20
1486.78164
 30
0.0
 11
189.133729
 21
1454.834084
 31
0.0
  0
LINE
  5
B1
330
7B
100
AcDbEntity
  8
0
  6
Continuous
 62
     0
370
    30
100
AcDbLine
 10
183.873645
 20
1328.076755
 30
0.0
 11
179.673645
 21
1328.076755
 31
0.0
  0
ELLIPSE
  5
B2
330
7B
100
AcDbEntity
  8
0
  6
Continuous
 62
     0
370
     0
100
AcDbEllipse
 10
188.136224
 20
1454.834084
 30
0.0
 11
-0.9964623279164656
 21
0.08404063923659823
 31
0.0
210
0.0
220
0.0
230
-1.0
 40
0.764921
 41
1.506372907779881
 42
3.03177780855196
  0
LINE
  5
B3
330
7B
100
AcDbEntity
  8
0
  6
Continuous
 62
     0
370
     0
100
AcDbLine
 10
173.173645
 20
1443.902143
 30
0.0
 11
173.173645
 21
1443.136099
 31
0.0
  0
LWPOLYLINE
  5
B4
330
7B
100
AcDbEntity
  8
0
  6
Continuous
 62
     0
370
     0
100
AcDbPolyline
 90
        7
 70
     0
 43
0.0
 10
158.21106
 20
1455.600098
 10
157.965729
 20
1455.567993
 10
157.734863
 20
1455.490845
 10
157.533676
 20
1455.373291
 10
157.374115
 20
1455.222656
 10
157.265854
 20
1455.047974
 10
157.213562
 20
1454.834106
  0
ARC
  5
B5
330
7B
100
AcDbEntity
  8
0
  6
Continuous
 62
     0
370
    30
100
AcDbCircle
 10
148.673645
 20
1489.875722
 30
0.0
 40
0.500000000000004
100
AcDbArc
 50
90.0
 51
180.0
  0
ARC
  5
B6
330
7B
100
AcDbEntity
  8
0
  6
Continuous
 62
     0
370
    30
100
AcDbCircle
 10
197.673645
 20
1489.875722
 30
0.0
 40
0.5
100
AcDbArc
 50
0.0
 51
90.0
  0
LINE
  5
B7
330
7B
100
AcDbEntity
  8
0
  6
Continuous
 62
     0
370
    30
100
AcDbLine
 10
148.673645
 20
1490.375722
 30
0.0
 11
197.673645
 21
1490.375722
 31
0.0
  0
LINE
  5
B8
330
7B
100
AcDbEntity
  8
0
  6
Continuous
 62
     0
370
    30
100
AcDbLine
 10
148.173645
 20
1382.031105
 30
0.0
 11
148.173645
 21
1489.875722
 31
0.0
  0
LINE
  5
B9
330
7B
100
AcDbEntity
  8
0
  6
Continuous
 62
     0
370
    30
100
AcDbLine
 10
198.173645
 20
1489.875722
 30
0.0
 11
198.173645
 21
1328.531097
 31
0.0
  0
LINE
  5
BA
330
7B
100
AcDbEntity
  8
0
  6
Continuous
 62
     0
370
    30
100
AcDbLine
 10
183.173645
 20
1328.076759
 30
0.0
 11
183.173645
 21
1325.781097
 31
0.0
  0
ELLIPSE
  5
BB
330
7B
100
AcDbEntity
  8
0
  6
Continuous
 62
     0
370
    30
100
AcDbEllipse
 10
173.173645
 20
1272.537421
 30
0.0
 11
-14.50000000000001
 21
4.352217263162005E-15
 31
0.0
210
0.0
220
0.0
230
-1.0
 40
0.017452
 41
2.125563929410632
 42
3.735627710324532
  0
ELLIPSE
  5
BC
330
7B
100
AcDbEntity
  8
0
  6
Continuous
 62
     0
370
    30
100
AcDbEllipse
 10
173.173645
 20
1285.535441
 30
0.0
 11
14.50000000000001
 21
-4.352217263162005E-15
 31
0.0
210
0.0
220
0.0
230
1.0
 40
0.017452
 41
0.0000000000000169
 42
1.105986737985197
  0
LINE
  5
BD
330
7B
100
AcDbEntity
  8
0
  6
Continuous
 62
     0
370
    30
100
AcDbLine
 10
185.189635
 20
1272.395781
 30
0.0
 11
184.923645
 21
1272.390002
 31
0.0
  0
ELLIPSE
  5
BE
330
7B
100
AcDbEntity
  8
0
  6
Continuous
 62
     0
370
    30
100
AcDbEllipse
 10
173.173645
 20
1272.537421
 30
0.0
 11
12.0
 21
0.0
 31
0.0
210
0.0
220
0.0
230
1.0
 40
0.017452
 41
6.07870510821103
 42
7.163542790266443
  0
LINE
  5
BF
330
7B
100
AcDbEntity
  8
0
  6
Continuous
 62
     0
370
    30
100
AcDbLine
 10
187.673645
 20
1285.535441
 30
0.0
 11
187.673645
 21
1272.537421
 31
0.0
  0
LINE
  5
C0
330
7B
100
AcDbEntity
  8
0
  6
Continuous
 62
     0
370
    30
100
AcDbLine
 10
183.873645
 20
1328.531097
 30
0.0
 11
183.873645
 21
1302.507409
 31
0.0
  0
LINE
  5
C1
330
7B
100
AcDbEntity
  8
0
  6
Continuous
 62
     0
370
    30
100
AcDbLine
 10
183.873645
 20
1328.531097
 30
0.0
 11
209.173645
 21
1328.531097
 31
0.0
  0
LINE
  5
C2
330
7B
100
AcDbEntity
  8
0
  6
Continuous
 62
     0
370
     0
100
AcDbLine
 10
209.173645
 20
1299.531097
 30
0.0
 11
209.173645
 21
1328.531097
 31
0.0
  0
ARC
  5
C3
330
7B
100
AcDbEntity
  8
0
  6
Continuous
 62
     0
370
    30
100
AcDbCircle
 10
209.173645
 20
1327.531097
 30
0.0
 40
1.000000000001684
100
AcDbArc
 50
0.0
 51
90.0
  0
LINE
  5
C4
330
7B
100
AcDbEntity
  8
0
  6
Continuous
 62
     0
370
    30
100
AcDbLine
 10
210.173645
 20
1300.531097
 30
0.0
 11
210.173645
 21
1327.531097
 31
0.0
  0
LINE
  5
C5
330
7B
100
AcDbEntity
  8
0
  6
Continuous
 62
     0
370
    30
100
AcDbLine
 10
114.045462
 20
1382.031105
 30
0.0
 11
141.273645
 21
1382.031105
 31
0.0
  0
LINE
  5
C6
330
7B
100
AcDbEntity
  8
0
  6
Continuous
 62
     0
370
    30
100
AcDbLine
 10
141.273645
 20
1382.031105
 30
0.0
 11
168.501828
 21
1382.031105
 31
0.0
  0
LINE
  5
C7
330
7B
100
AcDbEntity
  8
0
  6
Continuous
 62
     0
370
     0
100
AcDbLine
 10
111.056878
 20
1379.292572
 30
0.0
 11
141.273645
 21
1379.292572
 31
0.0
  0
LINE
  5
C8
330
7B
100
AcDbEntity
  8
0
  6
Continuous
 62
     0
370
     0
100
AcDbLine
 10
141.273645
 20
1379.292572
 30
0.0
 11
171.490413
 21
1379.292572
 31
0.0
  0
LINE
  5
C9
330
7B
100
AcDbEntity
  8
0
  6
Continuous
 62
     0
370
    30
100
AcDbLine
 10
107.545014
 20
1179.031092
 30
0.0
 11
92.970423
 21
1179.031092
 31
0.0
  0
LINE
  5
CA
330
7B
100
AcDbEntity
  8
0
  6
Continuous
 62
     0
370
    30
100
AcDbLine
 10
189.576868
 20
1179.031092
 30
0.0
 11
107.545014
 21
1179.031092
 31
0.0
  0
LINE
  5
CB
330
7B
100
AcDbEntity
  8
0
  6
Continuous
 62
     0
370
    30
100
AcDbLine
 10
108.673792
 20
1192.031092
 30
0.0
 11
94.586961
 21
1192.031092
 31
0.0
  0
LINE
  5
CC
330
7B
100
AcDbEntity
  8
0
  6
Continuous
 62
     0
370
    30
100
AcDbLine
 10
187.96033
 20
1192.031092
 30
0.0
 11
108.673792
 21
1192.031092
 31
0.0
  0
LINE
  5
CD
330
7B
100
AcDbEntity
  8
0
  6
Continuous
 62
     0
370
     0
100
AcDbLine
 10
107.804974
 20
1190.900899
 30
0.0
 11
189.204576
 21
1190.900899
 31
0.0
  0
LWPOLYLINE
  5
CE
330
7B
100
AcDbEntity
  8
0
  6
Continuous
 62
     0
370
     0
100
AcDbPolyline
 90
       22
 70
     0
 43
0.0
 10
93.342712
 20
1190.900879
 10
93.38105
 20
1190.900879
 10
93.495903
 20
1190.900879
 10
93.68679
 20
1190.900879
 10
93.952858
 20
1190.900879
 10
94.2929
 20
1190.900879
 10
94.705368
 20
1190.900879
 10
95.188416
 20
1190.900879
 10
95.739883
 20
1190.900879
 10
96.357338
 20
1190.900879
 10
97.038101
 20
1190.900879
 10
97.779282
 20
1190.900879
 10
98.577782
 20
1190.900879
 10
99.430359
 20
1190.900879
 10
100.333641
 20
1190.900879
 10
101.284157
 20
1190.900879
 10
102.278358
 20
1190.900879
 10
103.312675
 20
1190.900879
 10
104.383507
 20
1190.900879
 10
105.487282
 20
1190.900879
 10
106.620461
 20
1190.900879
 10
107.804977
 20
1190.900879
  0
LINE
  5
CF
330
7B
100
AcDbEntity
  8
0
  6
Continuous
 62
     0
370
     0
100
AcDbLine
 10
107.058476
 20
1179.798184
 30
0.0
 11
190.273645
 21
1179.798184
 31
0.0
  0
LWPOLYLINE
  5
D0
330
7B
100
AcDbEntity
  8
0
  6
Continuous
 62
     0
370
     0
100
AcDbPolyline
 90
       22
 70
     0
 43
0.0
 10
92.273643
 20
1179.798218
 10
92.312881
 20
1179.798218
 10
92.430428
 20
1179.798218
 10
92.625793
 20
1179.798218
 10
92.898094
 20
1179.798218
 10
93.246101
 20
1179.798218
 10
93.668236
 20
1179.798218
 10
94.16259
 20
1179.798218
 10
94.726959
 20
1179.798218
 10
95.358856
 20
1179.798218
 10
96.055534
 20
1179.798218
 10
96.814018
 20
1179.798218
 10
97.631157
 20
1179.798218
 10
98.503616
 20
1179.798218
 10
99.42794
 20
1179.798218
 10
100.400581
 20
1179.798218
 10
101.4179
 20
1179.798218
 10
102.476234
 20
1179.798218
 10
103.571915
 20
1179.798218
 10
104.701271
 20
1179.798218
 10
105.86068
 20
1179.798218
 10
107.058479
 20
1179.798218
  0
ARC
  5
D1
330
7B
100
AcDbEntity
  8
0
  6
Continuous
 62
     0
370
    30
100
AcDbCircle
 10
189.576868
 20
1179.731092
 30
0.0
 40
0.7000001354754408
100
AcDbArc
 50
270.000012
 51
5.499988
  0
ARC
  5
D2
330
7B
100
AcDbEntity
  8
0
  6
Continuous
 62
     0
370
    30
100
AcDbCircle
 10
92.970423
 20
1179.731092
 30
0.0
 40
0.7000001413679997
100
AcDbArc
 50
174.500013
 51
269.990711
  0
LINE
  5
D3
330
7B
100
AcDbEntity
  8
0
  6
Continuous
 62
     0
370
    30
100
AcDbLine
 10
93.342715
 20
1190.900899
 30
0.0
 11
92.273645
 21
1179.798184
 31
0.0
  0
LINE
  5
D4
330
7B
100
AcDbEntity
  8
0
  6
Continuous
 62
     0
370
    30
100
AcDbLine
 10
189.204576
 20
1190.900899
 30
0.0
 11
190.273645
 21
1179.798184
 31
0.0
  0
ARC
  5
D5
330
7B
100
AcDbEntity
  8
0
  6
Continuous
 62
     0
370
    30
100
AcDbCircle
 10
94.587057
 20
1190.780986
 30
0.0
 40
1.250106050203721
100
AcDbArc
 50
90.012119
 51
174.495586
  0
ARC
  5
D6
330
7B
100
AcDbEntity
  8
0
  6
Continuous
 62
     0
370
    30
100
AcDbCircle
 10
187.960234
 20
1190.780986
 30
0.0
 40
1.250106050213086
100
AcDbArc
 50
5.504414
 51
89.987881
  0
ARC
  5
D7
330
7B
100
AcDbEntity
  8
0
  6
Continuous
 62
     0
370
    30
100
AcDbCircle
 10
141.323649
 20
1490.040263
 30
0.0
 40
314.4991578833587
100
AcDbArc
 50
261.456375
 51
278.543625
  0
LINE
  5
D8
330
7B
100
AcDbEntity
  8
0
  6
Continuous
 62
     0
370
    30
100
AcDbLine
 10
111.056878
 20
1379.292572
 30
0.0
 11
94.673623
 21
1192.031105
 31
0.0
  0
LINE
  5
D9
330
7B
100
AcDbEntity
  8
0
  6
Continuous
 62
     0
370
    30
100
AcDbLine
 10
187.873668
 20
1192.031105
 30
0.0
 11
171.490413
 21
1379.292572
 31
0.0
  0
ARC
  5
DA
330
7B
100
AcDbEntity
  8
0
  6
Continuous
 62
     0
370
    30
100
AcDbCircle
 10
168.501584
 20
1379.030839
 30
0.0
 40
3.000266432054185
100
AcDbArc
 50
5.004661
 51
89.974331
  0
ARC
  5
DB
330
7B
100
AcDbEntity
  8
0
  6
Continuous
 62
     0
370
    30
100
AcDbCircle
 10
114.045706
 20
1379.030839
 30
0.0
 40
3.000266432054055
100
AcDbArc
 50
90.025669
 51
174.995339
  0
ARC
  5
DC
330
7B
100
AcDbEntity
  8
0
  6
Continuous
 62
     0
370
    30
100
AcDbCircle
 10
209.173621
 20
1300.531122
 30
0.0
 40
1.000024307965854
100
AcDbArc
 50
270.001393
 51
359.998607
  0
LINE
  5
DD
330
7B
100
AcDbEntity
  8
0
  6
Continuous
 62
     0
370
    30
100
AcDbLine
 10
209.173645
 20
1299.531097
 30
0.0
 11
186.96757
 21
1299.531097
 31
0.0
  0
LINE
  5
DE
330
7B
100
AcDbEntity
  8
0
  6
Continuous
 62
     0
370
    30
100
AcDbLine
 10
179.673645
 20
1325.781097
 30
0.0
 11
183.873645
 21
1325.781097
 31
0.0
  0
ENDBLK
  5
E0
330
7B
100
AcDbEntity
  8
0
100
AcDbBlockEnd
  0
BLOCK
  5
1B4
330
E2
100
AcDbEntity
  8
0
100
AcDbBlockBegin
  2
b
 70
     0
 10
18.380348
 20
99.914375
 30
0.0
  3
b
  1

  0
ELLIPSE
  5
E3
330
E2
100
AcDbEntity
  8
0
  6
Continuous
 62
     0
370
    30
100
AcDbEllipse
 10
173.173637
 20
587.793967
 30
0.0
 11
14.5
 21
-1.772756807872818E-13
 31
0.0
210
0.0
220
0.0
230
-1.0
 40
0.999848
 41
2.035631939042291
 42
2.240418323074715
  0
ELLIPSE
  5
E4
330
E2
100
AcDbEntity
  8
0
  6
Continuous
 62
     0
370
    30
100
AcDbEllipse
 10
173.173637
 20
587.793967
 30
0.0
 11
14.5
 21
-1.772756807872818E-13
 31
0.0
210
0.0
220
0.0
230
-1.0
 40
0.999848
 41
1.260055989217229
 42
1.881538078832032
  0
ELLIPSE
  5
E5
330
E2
100
AcDbEntity
  8
0
  6
Continuous
 62
     0
370
    30
100
AcDbEllipse
 10
173.173637
 20
587.793967
 30
0.0
 11
14.5
 21
-1.772756807872818E-13
 31
0.0
210
0.0
220
0.0
230
-1.0
 40
0.999848
 41
0.9698125595847398
 42
1.105960714547483
  0
ELLIPSE
  5
E6
330
E2
100
AcDbEntity
  8
0
  6
Continuous
 62
     0
370
    30
100
AcDbEllipse
 10
173.173637
 20
587.793967
 30
0.0
 11
14.5
 21
-1.772756807872818E-13
 31
0.0
210
0.0
220
0.0
230
-1.0
 40
0.999848
 41
0.86357511286279
 42
0.9698125595847384
  0
ELLIPSE
  5
E7
330
E2
100
AcDbEntity
  8
0
  6
Continuous
 62
     0
370
     0
100
AcDbEllipse
 10
173.173637
 20
587.540908
 30
0.0
 11
-14.5
 21
1.772756807872818E-13
 31
0.0
210
0.0
220
0.0
230
1.0
 40
0.999848
 41
2.171780094005069
 42
2.304476466493638
  0
ELLIPSE
  5
E8
330
E2
100
AcDbEntity
  8
0
  6
Continuous
 62
     0
370
     0
100
AcDbEllipse
 10
173.173637
 20
587.540908
 30
0.0
 11
-14.5
 21
1.772756807872818E-13
 31
0.0
210
0.0
220
0.0
230
1.0
 40
0.999848
 41
2.035631939042312
 42
2.171780094005054
  0
ELLIPSE
  5
E9
330
E2
100
AcDbEntity
  8
0
  6
Continuous
 62
     0
370
     0
100
AcDbEllipse
 10
173.173637
 20
587.540908
 30
0.0
 11
-14.5
 21
1.772756807872818E-13
 31
0.0
210
0.0
220
0.0
230
1.0
 40
0.999848
 41
1.203439367229848
 42
1.938150991194791
  0
ELLIPSE
  5
EA
330
E2
100
AcDbEntity
  8
0
  6
Continuous
 62
     0
370
     0
100
AcDbEllipse
 10
173.173637
 20
587.540908
 30
0.0
 11
-14.5
 21
1.772756807872818E-13
 31
0.0
210
0.0
220
0.0
230
1.0
 40
0.999848
 41
0.9011743305150786
 42
1.105960714547505
  0
ELLIPSE
  5
EB
330
E2
100
AcDbEntity
  8
0
  6
Continuous
 62
     0
370
    30
100
AcDbEllipse
 10
173.173637
 20
588.034807
 30
0.0
 11
-14.49999999999999
 21
0.0
 31
0.0
210
0.0
220
0.0
230
1.0
 40
0.999848
 41
2.0356319390423
 42
2.252052146484109
  0
ELLIPSE
  5
EC
330
E2
100
AcDbEntity
  8
0
  6
Continuous
 62
     0
370
    30
100
AcDbEllipse
 10
173.173637
 20
588.034807
 30
0.0
 11
-14.49999999999999
 21
0.0
 31
0.0
210
0.0
220
0.0
230
1.0
 40
0.999848
 41
1.570796326794897
 42
1.814551245617761
  0
ELLIPSE
  5
ED
330
E2
100
AcDbEntity
  8
0
  6
Continuous
 62
     0
370
    30
100
AcDbEllipse
 10
173.173637
 20
588.034807
 30
0.0
 11
-14.49999999999999
 21
0.0
 31
0.0
210
0.0
220
0.0
230
1.0
 40
0.999848
 41
1.327046023751388
 42
1.570796326794895
  0
ELLIPSE
  5
EE
330
E2
100
AcDbEntity
  8
0
  6
Continuous
 62
     0
370
    30
100
AcDbEllipse
 10
173.173637
 20
588.034807
 30
0.0
 11
-14.49999999999999
 21
0.0
 31
0.0
210
0.0
220
0.0
230
1.0
 40
0.999848
 41
0.9011743305150643
 42
1.105960714547487
  0
ELLIPSE
  5
EF
330
E2
100
AcDbEntity
  8
0
  6
Continuous
 62
     0
370
     0
100
AcDbEllipse
 10
173.173637
 20
588.36662
 30
0.0
 11
14.49999999999999
 21
0.0
 31
0.0
210
0.0
220
0.0
230
-1.0
 40
0.999848
 41
2.075217486985657
 42
2.126234619906489
  0
ELLIPSE
  5
F0
330
E2
100
AcDbEntity
  8
0
  6
Continuous
 62
     0
370
     0
100
AcDbEllipse
 10
173.173637
 20
588.36662
 30
0.0
 11
14.49999999999999
 21
0.0
 31
0.0
210
0.0
220
0.0
230
-1.0
 40
0.999848
 41
1.570796326794898
 42
1.619625614923788
  0
LWPOLYLINE
  5
F1
330
E2
100
AcDbEntity
  8
0
  6
Continuous
 62
     0
370
    30
100
AcDbPolyline
 90
        2
 70
     0
 43
0.0
 10
164.914047
 20
600.273193
 10
165.527557
 20
600.684937
  0
LWPOLYLINE
  5
F2
330
E2
100
AcDbEntity
  8
0
  6
Continuous
 62
     0
370
    30
100
AcDbPolyline
 90
        3
 70
     0
 43
0.0
 10
165.527557
 20
576.048279
 10
165.317825
 20
576.177795
 10
164.445557
 20
576.773193
  0
LWPOLYLINE
  5
F3
330
E2
100
AcDbEntity
  8
0
  6
Continuous
 62
     0
370
    30
100
AcDbPolyline
 90
        3
 70
     0
 43
0.0
 10
181.901718
 20
576.773193
 10
181.700424
 20
576.627258
 10
180.819717
 20
576.048279
  0
LWPOLYLINE
  5
F4
330
E2
100
AcDbEntity
  8
0
  6
Continuous
 62
     0
370
    30
100
AcDbPolyline
 90
        2
 70
     0
 43
0.0
 10
180.819717
 20
600.684937
 10
181.433228
 20
600.273193
  0
ELLIPSE
  5
F5
330
E2
100
AcDbEntity
  8
0
  6
Continuous
 62
     0
370
     0
100
AcDbEllipse
 10
173.173637
 20
588.36662
 30
0.0
 11
14.49999999999999
 21
0.0
 31
0.0
210
0.0
220
0.0
230
-1.0
 40
0.999848
 41
1.521996369403126
 42
1.570796326794896
  0
ELLIPSE
  5
F6
330
E2
100
AcDbEntity
  8
0
  6
Continuous
 62
     0
370
     0
100
AcDbEllipse
 10
173.173637
 20
588.36662
 30
0.0
 11
14.49999999999999
 21
0.0
 31
0.0
210
0.0
220
0.0
230
-1.0
 40
0.999848
 41
1.015358033683308
 42
1.066375166609084
  0
ARC
  5
F7
330
E2
100
AcDbEntity
  8
0
  6
Continuous
 62
     0
370
    30
100
AcDbCircle
 10
181.047575
 20
576.201948
 30
0.0
 40
28.98772647419658
100
AcDbArc
 50
119.726666
 51
122.371012
  0
ARC
  5
F8
330
E2
100
AcDbEntity
  8
0
  6
Continuous
 62
     0
370
    30
100
AcDbCircle
 10
179.508734
 20
599.183303
 30
0.0
 40
27.03150187725996
100
AcDbArc
 50
238.854185
 51
241.652371
  0
ARC
  5
F9
330
E2
100
AcDbEntity
  8
0
  6
Continuous
 62
     0
370
    30
100
AcDbCircle
 10
166.838541
 20
599.183303
 30
0.0
 40
27.03150188068249
100
AcDbArc
 50
298.347629
 51
301.145815
  0
ARC
  5
FA
330
E2
100
AcDbEntity
  8
0
  6
Continuous
 62
     0
370
    30
100
AcDbCircle
 10
165.2997
 20
576.201948
 30
0.0
 40
28.98772646989428
100
AcDbArc
 50
57.628988
 51
60.273334
  0
LINE
  5
FB
330
E2
100
AcDbEntity
  8
0
  6
Continuous
 62
     0
370
    30
100
AcDbLine
 10
167.095391
 20
603.023471
 30
0.0
 11
166.673637
 21
603.020932
 31
0.0
  0
LINE
  5
FC
330
E2
100
AcDbEntity
  8
0
  6
Continuous
 62
     0
370
    30
100
AcDbLine
 10
166.673637
 20
603.020932
 30
0.0
 11
166.673637
 21
574.044319
 31
0.0
  0
ARC
  5
FD
330
E2
100
AcDbEntity
  8
0
  6
Continuous
 62
     0
370
    30
100
AcDbCircle
 10
167.846677
 20
607.0312
 30
0.0
 40
33.00773194004903
100
AcDbArc
 50
267.963375
 51
269.336461
  0
LINE
  5
FE
330
E2
100
AcDbEntity
  8
0
  6
Continuous
 62
     0
370
     0
100
AcDbLine
 10
167.464425
 20
574.025682
 30
0.0
 11
178.882829
 21
574.025682
 31
0.0
  0
ARC
  5
FF
330
E2
100
AcDbEntity
  8
0
  6
Continuous
 62
     0
370
    30
100
AcDbCircle
 10
178.500577
 20
607.031299
 30
0.0
 40
33.00783036073997
100
AcDbArc
 50
270.663538
 51
272.036656
  0
LINE
  5
100
330
E2
100
AcDbEntity
  8
0
  6
Continuous
 62
     0
370
    30
100
AcDbLine
 10
179.673637
 20
574.044319
 30
0.0
 11
179.673637
 21
603.020932
 31
0.0
  0
LINE
  5
101
330
E2
100
AcDbEntity
  8
0
  6
Continuous
 62
     0
370
    30
100
AcDbLine
 10
179.673637
 20
603.020932
 30
0.0
 11
179.251872
 21
603.023471
 31
0.0
  0
LWPOLYLINE
  5
102
330
E2
100
AcDbEntity
  8
0
  6
Continuous
 62
     0
370
     0
100
AcDbPolyline
 90
        6
 70
     0
 43
0.0
 10
173.173645
 20
573.868835
 10
172.141174
 20
573.899048
 10
171.093796
 20
573.929199
 10
170.016632
 20
573.959351
 10
168.894775
 20
573.989441
 10
167.464432
 20
574.025696
  0
ARC
  5
103
330
E2
100
AcDbEntity
  8
0
  6
Continuous
 62
     0
370
     0
100
AcDbCircle
 10
173.509331
 20
599.80497
 30
0.0
 40
25.93831370594261
100
AcDbArc
 50
267.387716
 51
269.258457
  0
ARC
  5
104
330
E2
100
AcDbEntity
  8
0
  6
Continuous
 62
     0
370
     0
100
AcDbCircle
 10
172.8382
 20
599.803988
 30
0.0
 40
25.93732892299743
100
AcDbArc
 50
270.741005
 51
272.61286
  0
LWPOLYLINE
  5
105
330
E2
100
AcDbEntity
  8
0
  6
Continuous
 62
     0
370
     0
100
AcDbPolyline
 90
        6
 70
     0
 43
0.0
 10
178.882828
 20
574.025696
 10
177.708099
 20
573.996033
 10
176.576782
 20
573.966064
 10
175.492081
 20
573.935974
 10
174.440552
 20
573.905823
 10
173.173645
 20
573.868835
  0
ARC
  5
106
330
E2
100
AcDbEntity
  8
0
  6
Continuous
 62
     0
370
    30
100
AcDbCircle
 10
204.742739
 20
-464.155543
 30
0.0
 40
1038.500463351222
100
AcDbArc
 50
91.406713
 51
91.718567
  0
ARC
  5
107
330
E2
100
AcDbEntity
  8
0
  6
Continuous
 62
     0
370
    30
100
AcDbCircle
 10
141.51575
 20
-467.498086
 30
0.0
 40
1041.844170195275
100
AcDbArc
 50
88.282061
 51
88.593164
  0
LINE
  5
108
330
E2
100
AcDbEntity
  8
0
  6
Continuous
 62
     0
370
    30
100
AcDbLine
 10
167.082889
 20
603.023473
 30
0.0
 11
179.264366
 21
603.023473
 31
0.0
  0
LINE
  5
109
330
E2
100
AcDbEntity
  8
0
  6
Continuous
 62
     0
370
    30
100
AcDbLine
 10
191.831054
 20
966.822121
 30
0.0
 11
191.828146
 21
966.76626
 31
0.0
  0
LINE
  5
10A
330
E2
100
AcDbEntity
  8
0
  6
Continuous
 62
     0
370
    30
100
AcDbLine
 10
154.519128
 20
966.76626
 30
0.0
 11
154.516221
 21
966.822121
 31
0.0
  0
LWPOLYLINE
  5
10B
330
E2
100
AcDbEntity
  8
0
  6
Continuous
 62
     0
370
     0
100
AcDbPolyline
 90
        5
 70
     0
 43
0.0
 10
156.011932
 20
966.822144
 10
155.800446
 20
966.716187
 10
155.638794
 20
966.567505
 10
155.541275
 20
966.388977
 10
155.516632
 20
966.194092
  0
LWPOLYLINE
  5
10C
330
E2
100
AcDbEntity
  8
0
  6
Continuous
 62
     0
370
     0
100
AcDbPolyline
 90
        7
 70
     0
 43
0.0
 10
155.516632
 20
966.194092
 10
155.272354
 20
966.20343
 10
155.042404
 20
966.251587
 10
154.83992
 20
966.336121
 10
154.679489
 20
966.451843
 10
154.571365
 20
966.590393
 10
154.519135
 20
966.766235
  0
LWPOLYLINE
  5
10D
330
E2
100
AcDbEntity
  8
0
  6
Continuous
 62
     0
370
     0
100
AcDbPolyline
 90
        7
 70
     0
 43
0.0
 10
190.830643
 20
966.194092
 10
191.074921
 20
966.20343
 10
191.304871
 20
966.251587
 10
191.507355
 20
966.336121
 10
191.667786
 20
966.451843
 10
191.775909
 20
966.590393
 10
191.82814
 20
966.766235
  0
LWPOLYLINE
  5
10E
330
E2
100
AcDbEntity
  8
0
  6
Continuous
 62
     0
370
     0
100
AcDbPolyline
 90
        5
 70
     0
 43
0.0
 10
190.335342
 20
966.822144
 10
190.546829
 20
966.716187
 10
190.708481
 20
966.567505
 10
190.806
 20
966.388977
 10
190.830643
 20
966.194092
  0
LINE
  5
10F
330
E2
100
AcDbEntity
  8
0
  6
Continuous
 62
     0
370
     0
100
AcDbLine
 10
158.211059
 20
928.120451
 30
0.0
 11
155.516634
 21
966.194064
 31
0.0
  0
ARC
  5
110
330
E2
100
AcDbEntity
  8
0
  6
Continuous
 62
     0
370
     0
100
AcDbCircle
 10
173.173849
 20
929.179563
 30
0.0
 40
15.00022743265311
100
AcDbArc
 50
184.048818
 51
269.999191
  0
ARC
  5
111
330
E2
100
AcDbEntity
  8
0
  6
Continuous
 62
     0
370
     0
100
AcDbCircle
 10
173.173426
 20
929.179563
 30
0.0
 40
15.00022743265311
100
AcDbArc
 50
270.000809
 51
355.951182
  0
LINE
  5
112
330
E2
100
AcDbEntity
  8
0
  6
Continuous
 62
     0
370
     0
100
AcDbLine
 10
190.830641
 20
966.194064
 30
0.0
 11
188.136216
 21
928.120451
 31
0.0
  0
LWPOLYLINE
  5
113
330
E2
100
AcDbEntity
  8
0
  6
Continuous
 62
     0
370
     0
100
AcDbPolyline
 90
       31
 70
     0
 43
0.0
 10
166.67363
 20
956.21344
 10
166.703552
 20
955.736267
 10
166.797287
 20
955.246826
 10
166.959839
 20
954.752136
 10
167.194412
 20
954.260559
 10
167.501953
 20
953.781067
 10
167.880905
 20
953.322998
 10
168.326935
 20
952.895508
 10
168.833176
 20
952.506958
 10
169.390411
 20
952.164429
 10
169.987778
 20
951.87323
 10
170.613358
 20
951.636658
 10
171.254913
 20
951.455994
 10
171.900681
 20
951.330566
 10
172.539825
 20
951.257874
 10
173.16304
 20
951.234131
 10
173.785553
 20
951.256226
 10
174.424301
 20
951.327209
 10
175.070007
 20
951.450745
 10
175.711899
 20
951.629456
 10
176.338226
 20
951.864136
 10
176.936783
 20
952.153503
 10
177.495605
 20
952.494324
 10
178.003769
 20
952.881348
 10
178.452011
 20
953.307617
 10
178.833374
 20
953.764771
 10
179.143433
 20
954.243713
 10
179.380524
 20
954.735046
 10
179.545532
 20
955.229736
 10
179.641586
 20
955.719543
 10
179.67363
 20
956.21344
  0
LWPOLYLINE
  5
114
330
E2
100
AcDbEntity
  8
0
  6
Continuous
 62
     0
370
     0
100
AcDbPolyline
 90
       31
 70
     0
 43
0.0
 10
179.67363
 20
956.21344
 10
179.643723
 20
956.690552
 10
179.549988
 20
957.180054
 10
179.387436
 20
957.674683
 10
179.152863
 20
958.16626
 10
178.845322
 20
958.645813
 10
178.46637
 20
959.103882
 10
178.02034
 20
959.531311
 10
177.514099
 20
959.919861
 10
176.956863
 20
960.26239
 10
176.359497
 20
960.553589
 10
175.733917
 20
960.790161
 10
175.092361
 20
960.970825
 10
174.446594
 20
961.096313
 10
173.807449
 20
961.169006
 10
173.184235
 20
961.192688
 10
172.561722
 20
961.170593
 10
171.922974
 20
961.09967
 10
171.277267
 20
960.976074
 10
170.635376
 20
960.797363
 10
170.009048
 20
960.562744
 10
169.410492
 20
960.273376
 10
168.851669
 20
959.932556
 10
168.343506
 20
959.545471
 10
167.895264
 20
959.119202
 10
167.513901
 20
958.662048
 10
167.203842
 20
958.183167
 10
166.966751
 20
957.691833
 10
166.801743
 20
957.197144
 10
166.705688
 20
956.707336
 10
166.67363
 20
956.21344
  0
LINE
  5
115
330
E2
100
AcDbEntity
  8
0
  6
Continuous
 62
     0
370
    30
100
AcDbLine
 10
157.213553
 20
928.692646
 30
0.0
 11
154.519128
 21
966.76626
 31
0.0
  0
ARC
  5
116
330
E2
100
AcDbEntity
  8
0
  6
Continuous
 62
     0
370
    30
100
AcDbCircle
 10
173.173728
 20
929.822221
 30
0.0
 40
16.00009732741983
100
AcDbArc
 50
184.048333
 51
269.999675
  0
ARC
  5
117
330
E2
100
AcDbEntity
  8
0
  6
Continuous
 62
     0
370
    30
100
AcDbCircle
 10
173.173547
 20
929.822221
 30
0.0
 40
16.00009732741989
100
AcDbArc
 50
270.000325
 51
355.951667
  0
LINE
  5
118
330
E2
100
AcDbEntity
  8
0
  6
Continuous
 62
     0
370
    30
100
AcDbLine
 10
191.828146
 20
966.76626
 30
0.0
 11
189.133721
 21
928.692646
 31
0.0
  0
ELLIPSE
  5
119
330
E2
100
AcDbEntity
  8
0
  6
Continuous
 62
     0
370
     0
100
AcDbEllipse
 10
188.136216
 20
928.763239
 30
0.0
 11
-0.9975052532219582
 21
0.07059227857630697
 31
0.0
210
0.0
220
0.0
230
1.0
 40
0.641845
 41
1.616187756841681
 42
3.141592657613762
  0
LINE
  5
11A
330
E2
100
AcDbEntity
  8
0
  6
Continuous
 62
     0
370
     0
100
AcDbLine
 10
173.173637
 20
914.179336
 30
0.0
 11
173.173637
 21
913.822123
 31
0.0
  0
LWPOLYLINE
  5
11B
330
E2
100
AcDbEntity
  8
0
  6
Continuous
 62
     0
370
     0
100
AcDbPolyline
 90
        7
 70
     0
 43
0.0
 10
158.21106
 20
928.120422
 10
157.965652
 20
928.130066
 10
157.734741
 20
928.178528
 10
157.533508
 20
928.262939
 10
157.373947
 20
928.378113
 10
157.265732
 20
928.517151
 10
157.213547
 20
928.692627
  0
LINE
  5
11C
330
E2
100
AcDbEntity
  8
0
  6
Continuous
 62
     0
370
    30
100
AcDbLine
 10
148.173637
 20
968.822121
 30
0.0
 11
148.173637
 21
966.822121
 31
0.0
  0
LINE
  5
11D
330
E2
100
AcDbEntity
  8
0
  6
Continuous
 62
     0
370
    30
100
AcDbLine
 10
148.173637
 20
966.822121
 30
0.0
 11
148.673637
 21
966.822121
 31
0.0
  0
LINE
  5
11E
330
E2
100
AcDbEntity
  8
0
  6
Continuous
 62
     0
370
     0
100
AcDbLine
 10
148.673637
 20
966.822121
 30
0.0
 11
148.673637
 21
968.822121
 31
0.0
  0
LINE
  5
11F
330
E2
100
AcDbEntity
  8
0
  6
Continuous
 62
     0
370
    30
100
AcDbLine
 10
148.673637
 20
968.822121
 30
0.0
 11
148.173637
 21
968.822121
 31
0.0
  0
LINE
  5
120
330
E2
100
AcDbEntity
  8
0
  6
Continuous
 62
     0
370
     0
100
AcDbLine
 10
197.673637
 20
968.822121
 30
0.0
 11
197.673637
 21
966.822121
 31
0.0
  0
LINE
  5
121
330
E2
100
AcDbEntity
  8
0
  6
Continuous
 62
     0
370
    30
100
AcDbLine
 10
197.673637
 20
966.822121
 30
0.0
 11
198.173637
 21
966.822121
 31
0.0
  0
LINE
  5
122
330
E2
100
AcDbEntity
  8
0
  6
Continuous
 62
     0
370
    30
100
AcDbLine
 10
198.173637
 20
966.822121
 30
0.0
 11
198.173637
 21
968.822121
 31
0.0
  0
LINE
  5
123
330
E2
100
AcDbEntity
  8
0
  6
Continuous
 62
     0
370
    30
100
AcDbLine
 10
198.173637
 20
968.822121
 30
0.0
 11
197.673637
 21
968.822121
 31
0.0
  0
LINE
  5
124
330
E2
100
AcDbEntity
  8
0
  6
Continuous
 62
     0
370
    30
100
AcDbLine
 10
197.673637
 20
968.822121
 30
0.0
 11
148.673637
 21
968.822121
 31
0.0
  0
LINE
  5
125
330
E2
100
AcDbEntity
  8
0
  6
Continuous
 62
     0
370
    30
100
AcDbLine
 10
148.673637
 20
966.822121
 30
0.0
 11
197.673637
 21
966.822121
 31
0.0
  0
LINE
  5
126
330
E2
100
AcDbEntity
  8
0
  6
Continuous
 62
     0
370
    30
100
AcDbLine
 10
183.173637
 20
917.332128
 30
0.0
 11
183.173637
 21
899.298558
 31
0.0
  0
LWPOLYLINE
  5
127
330
E2
100
AcDbEntity
  8
0
  6
Continuous
 62
     0
370
     0
100
AcDbPolyline
 90
       37
 70
     0
 43
0.0
 10
163.173645
 20
899.298584
 10
163.20546
 20
899.3125
 10
163.304596
 20
899.326721
 10
163.47583
 20
899.341125
 10
163.722763
 20
899.355591
 10
164.047455
 20
899.369934
 10
164.450256
 20
899.383911
 10
164.929504
 20
899.397339
 10
165.481583
 20
899.410095
 10
166.100845
 20
899.421936
 10
166.779877
 20
899.432739
 10
167.50975
 20
899.442383
 10
168.280426
 20
899.450745
 10
169.081177
 20
899.457825
 10
169.901077
 20
899.463501
 10
170.729446
 20
899.467773
 10
171.556183
 20
899.470764
 10
172.372177
 20
899.472534
 10
173.169464
 20
899.473083
 10
173.966507
 20
899.472534
 10
174.782333
 20
899.470825
 10
175.609009
 20
899.467834
 10
176.437408
 20
899.463501
 10
177.257446
 20
899.457886
 10
178.058472
 20
899.450867
 10
178.829514
 20
899.442505
 10
179.559891
 20
899.432861
 10
180.239517
 20
899.422058
 10
180.859451
 20
899.410217
 10
181.412277
 20
899.397461
 10
181.892319
 20
899.384033
 10
182.295944
 20
899.370056
 10
182.621475
 20
899.355774
 10
182.869217
 20
899.341309
 10
183.041245
 20
899.326843
 10
183.141129
 20
899.312622
 10
183.173645
 20
899.298584
  0
LINE
  5
128
330
E2
100
AcDbEntity
  8
0
  6
Continuous
 62
     0
370
    30
100
AcDbLine
 10
163.173637
 20
689.023446
 30
0.0
 11
163.173637
 21
608.910986
 31
0.0
  0
LINE
  5
129
330
E2
100
AcDbEntity
  8
0
  6
Continuous
 62
     0
370
    30
100
AcDbLine
 10
163.173637
 20
899.298558
 30
0.0
 11
163.173637
 21
775.523446
 31
0.0
  0
LWPOLYLINE
  5
12A
330
E2
100
AcDbEntity
  8
0
  6
Continuous
 62
     0
370
     0
100
AcDbPolyline
 90
       37
 70
     0
 43
0.0
 10
163.173645
 20
608.911011
 10
163.211563
 20
608.926147
 10
163.325302
 20
608.941284
 10
163.513916
 20
608.956116
 10
163.775909
 20
608.970642
 10
164.109177
 20
608.98468
 10
164.511444
 20
608.998169
 10
164.979507
 20
609.011047
 10
165.509811
 20
609.023071
 10
166.098419
 20
609.034302
 10
166.740723
 20
609.044617
 10
167.431961
 20
609.053894
 10
168.166824
 20
609.062073
 10
168.939697
 20
609.069092
 10
169.744781
 20
609.074951
 10
170.575912
 20
609.079529
 10
171.426773
 20
609.082825
 10
172.290924
 20
609.084839
 10
173.161774
 20
609.08551
 10
174.032715
 20
609.084839
 10
174.897141
 20
609.082886
 10
175.748444
 20
609.079651
 10
176.580185
 20
609.075073
 10
177.386078
 20
609.069275
 10
178.159897
 20
609.062256
 10
178.895874
 20
609.054138
 10
179.588364
 20
609.044861
 10
180.232056
 20
609.034607
 10
180.822205
 20
609.023438
 10
181.354141
 20
609.011353
 10
181.823959
 20
608.998535
 10
182.228058
 20
608.985046
 10
182.563232
 20
608.971008
 10
182.827194
 20
608.956543
 10
183.017838
 20
608.94165
 10
183.133606
 20
608.926575
 10
183.173645
 20
608.911011
  0
LINE
  5
12B
330
E2
100
AcDbEntity
  8
0
  6
Continuous
 62
     0
370
    30
100
AcDbLine
 10
183.173637
 20
608.910986
 30
0.0
 11
183.173637
 21
899.298558
 31
0.0
  0
LWPOLYLINE
  5
12C
330
E2
100
AcDbEntity
  8
0
  6
Continuous
 62
     0
370
     0
100
AcDbPolyline
 90
       13
 70
     0
 43
0.0
 10
156.659958
 20
613.584839
 10
156.162216
 20
613.78833
 10
155.688293
 20
614.035522
 10
155.246719
 20
614.32196
 10
154.84552
 20
614.642456
 10
154.491913
 20
614.991211
 10
154.192307
 20
615.361877
 10
153.952103
 20
615.747803
 10
153.775665
 20
616.142029
 10
153.666153
 20
616.537415
 10
153.625565
 20
616.926819
 10
153.654617
 20
617.303162
 10
153.759705
 20
617.677429
  0
LWPOLYLINE
  5
12D
330
E2
100
AcDbEntity
  8
0
  6
Continuous
 62
     0
370
     0
100
AcDbPolyline
 90
       12
 70
     0
 43
0.0
 10
161.198532
 20
614.734497
 10
161.024597
 20
614.39801
 10
160.783401
 20
614.095825
 10
160.479492
 20
613.83374
 10
160.118637
 20
613.616638
 10
159.707687
 20
613.448669
 10
159.254456
 20
613.333008
 10
158.767532
 20
613.271912
 10
158.256134
 20
613.266479
 10
157.730011
 20
613.316833
 10
157.199112
 20
613.421997
 10
156.659958
 20
613.584839
  0
LINE
  5
12E
330
E2
100
AcDbEntity
  8
0
  6
Continuous
 62
     0
370
    30
100
AcDbLine
 10
163.173637
 20
603.023162
 30
0.0
 11
163.173637
 21
608.910986
 31
0.0
  0
ELLIPSE
  5
12F
330
E2
100
AcDbEntity
  8
0
  6
Continuous
 62
     0
370
     0
100
AcDbEllipse
 10
173.173637
 20
601.662094
 30
0.0
 11
-10.0
 21
0.0
 31
0.0
210
0.0
220
0.0
230
-1.0
 40
0.017452
 41
0.4510268117956565
 42
0.8510071550932329
  0
LINE
  5
130
330
E2
100
AcDbEntity
  8
0
  6
Continuous
 62
     0
370
    30
100
AcDbLine
 10
179.673637
 20
601.838564
 30
0.0
 11
179.765899
 21
601.793326
 31
0.0
  0
ARC
  5
131
330
E2
100
AcDbEntity
  8
0
  6
Continuous
 62
     0
370
    30
100
AcDbCircle
 10
173.174076
 20
588.484504
 30
0.0
 40
14.8504038972475
100
AcDbArc
 50
78.245257
 51
101.754743
  0
LINE
  5
132
330
E2
100
AcDbEntity
  8
0
  6
Continuous
 62
     0
370
    30
100
AcDbLine
 10
166.581376
 20
601.793326
 30
0.0
 11
166.673637
 21
601.838564
 31
0.0
  0
ELLIPSE
  5
133
330
E2
100
AcDbEntity
  8
0
  6
Continuous
 62
     0
370
     0
100
AcDbEllipse
 10
173.173637
 20
601.662094
 30
0.0
 11
-10.0
 21
0.0
 31
0.0
210
0.0
220
0.0
230
-1.0
 40
0.017452
 41
2.290585498496561
 42
3.141592653589793
  0
ELLIPSE
  5
134
330
E2
100
AcDbEntity
  8
0
  6
Continuous
 62
     0
370
    30
100
AcDbEllipse
 10
173.173637
 20
588.026098
 30
0.0
 11
-15.25
 21
0.0
 31
0.0
210
0.0
220
0.0
230
1.0
 40
0.999848
 41
5.152709582200318
 42
5.239513754926946
  0
ELLIPSE
  5
135
330
E2
100
AcDbEntity
  8
0
  6
Continuous
 62
     0
370
    30
100
AcDbEllipse
 10
173.173637
 20
588.026098
 30
0.0
 11
-15.25
 21
0.0
 31
0.0
210
0.0
220
0.0
230
1.0
 40
0.999848
 41
4.530945872202874
 42
4.893832088566505
  0
ELLIPSE
  5
136
330
E2
100
AcDbEntity
  8
0
  6
Continuous
 62
     0
370
    30
100
AcDbEllipse
 10
173.173637
 20
588.026098
 30
0.0
 11
-15.25
 21
0.0
 31
0.0
210
0.0
220
0.0
230
1.0
 40
0.999848
 41
4.185264205845591
 42
4.272068378569116
  0
ARC
  5
137
330
E2
100
AcDbEntity
  8
0
  6
Continuous
 62
     0
370
    30
100
AcDbCircle
 10
173.008626
 20
588.135294
 30
0.0
 40
15.23819455225522
100
AcDbArc
 50
59.051393
 51
63.676226
  0
ARC
  5
138
330
E2
100
AcDbEntity
  8
0
  6
Continuous
 62
     0
370
    30
100
AcDbCircle
 10
173.338649
 20
588.135294
 30
0.0
 40
15.23819455228825
100
AcDbArc
 50
116.323774
 51
120.948607
  0
ELLIPSE
  5
139
330
E2
100
AcDbEntity
  8
0
  6
Continuous
 62
     0
370
    30
100
AcDbEllipse
 10
173.173637
 20
587.799218
 30
0.0
 11
-14.50000000000001
 21
2.493389977461001E-13
 31
0.0
210
0.0
220
0.0
230
1.0
 40
0.999848
 41
2.035631939042318
 42
2.277459993340845
  0
ELLIPSE
  5
13A
330
E2
100
AcDbEntity
  8
0
  6
Continuous
 62
     0
370
    30
100
AcDbEllipse
 10
173.173637
 20
587.799218
 30
0.0
 11
-14.50000000000001
 21
2.493389977461001E-13
 31
0.0
210
0.0
220
0.0
230
1.0
 40
0.999848
 41
1.261346786987575
 42
1.880244475062197
  0
ELLIPSE
  5
13B
330
E2
100
AcDbEntity
  8
0
  6
Continuous
 62
     0
370
    30
100
AcDbEllipse
 10
173.173637
 20
587.799218
 30
0.0
 11
-14.50000000000001
 21
2.493389977461001E-13
 31
0.0
210
0.0
220
0.0
230
1.0
 40
0.999848
 41
0.9011743305150821
 42
1.105960714547505
  0
ELLIPSE
  5
13C
330
E2
100
AcDbEntity
  8
0
  6
Continuous
 62
     0
370
    30
100
AcDbEllipse
 10
173.173637
 20
588.026098
 30
0.0
 11
14.50000000000001
 21
-2.493389977461001E-13
 31
0.0
210
0.0
220
0.0
230
-1.0
 40
0.999848
 41
2.035631939042288
 42
2.240418323074711
  0
ELLIPSE
  5
13D
330
E2
100
AcDbEntity
  8
0
  6
Continuous
 62
     0
370
    30
100
AcDbEllipse
 10
173.173637
 20
588.026098
 30
0.0
 11
14.50000000000001
 21
-2.493389977461001E-13
 31
0.0
210
0.0
220
0.0
230
-1.0
 40
0.999848
 41
1.324264071097559
 42
1.817324220833343
  0
ELLIPSE
  5
13E
330
E2
100
AcDbEntity
  8
0
  6
Continuous
 62
     0
370
    30
100
AcDbEllipse
 10
173.173637
 20
588.026098
 30
0.0
 11
14.50000000000001
 21
-2.493389977461001E-13
 31
0.0
210
0.0
220
0.0
230
-1.0
 40
0.999848
 41
0.8885872234650094
 42
1.105960714547475
  0
ARC
  5
13F
330
E2
100
AcDbEntity
  8
0
  6
Continuous
 62
     0
370
    30
100
AcDbCircle
 10
183.369561
 20
601.859267
 30
0.0
 40
2.608059147202549
100
AcDbArc
 50
194.551069
 51
212.618705
  0
ARC
  5
140
330
E2
100
AcDbEntity
  8
0
  6
Continuous
 62
     0
370
    30
100
AcDbCircle
 10
162.977714
 20
601.859267
 30
0.0
 40
2.608059145834211
100
AcDbArc
 50
327.381295
 51
345.448931
  0
LINE
  5
141
330
E2
100
AcDbEntity
  8
0
  6
Continuous
 62
     0
370
    30
100
AcDbLine
 10
183.173637
 20
601.662094
 30
0.0
 11
183.173637
 21
600.39176
 31
0.0
  0
LINE
  5
142
330
E2
100
AcDbEntity
  8
0
  6
Continuous
 62
     0
370
    30
100
AcDbLine
 10
183.175113
 20
600.273177
 30
0.0
 11
183.173637
 21
600.39176
 31
0.0
  0
ARC
  5
143
330
E2
100
AcDbEntity
  8
0
  6
Continuous
 62
     0
370
     0
100
AcDbCircle
 10
191.934941
 20
596.190868
 30
0.0
 40
10.19136432796464
100
AcDbArc
 50
150.926101
 51
156.386467
  0
LWPOLYLINE
  5
144
330
E2
100
AcDbEntity
  8
0
  6
Continuous
 62
     0
370
     0
100
AcDbPolyline
 90
        3
 70
     0
 43
0.0
 10
183.173645
 20
601.662109
 10
183.140045
 20
601.414307
 10
183.027756
 20
601.14325
  0
ARC
  5
145
330
E2
100
AcDbEntity
  8
0
  6
Continuous
 62
     0
370
     0
100
AcDbCircle
 10
181.137777
 20
600.386432
 30
0.0
 40
2.035867771093372
100
AcDbArc
 50
0.149961
 51
21.822581
  0
LINE
  5
146
330
E2
100
AcDbEntity
  8
0
  6
Continuous
 62
     0
370
    30
100
AcDbLine
 10
183.17365
 20
600.379429
 30
0.0
 11
183.175148
 21
600.273177
 31
0.0
  0
LINE
  5
147
330
E2
100
AcDbEntity
  8
0
  6
Continuous
 62
     0
370
    30
100
AcDbLine
 10
183.173637
 20
608.910986
 30
0.0
 11
183.173637
 21
601.662094
 31
0.0
  0
LWPOLYLINE
  5
148
330
E2
100
AcDbEntity
  8
0
  6
Continuous
 62
     0
370
    30
100
AcDbPolyline
 90
        9
 70
     0
 43
0.0
 10
161.198532
 20
614.734497
 10
160.702011
 20
613.471497
 10
160.190125
 20
612.15387
 10
159.664124
 20
610.78479
 10
159.125229
 20
609.36731
 10
158.5746
 20
607.904602
 10
158.013458
 20
606.399841
 10
157.443054
 20
604.856384
 10
156.771912
 20
603.023254
  0
LWPOLYLINE
  5
149
330
E2
100
AcDbEntity
  8
0
  6
Continuous
 62
     0
370
    30
100
AcDbPolyline
 90
        6
 70
     0
 43
0.0
 10
153.759705
 20
617.677429
 10
153.306351
 20
616.525024
 10
152.841263
 20
615.330078
 10
152.36525
 20
614.094666
 10
151.879074
 20
612.820862
 10
151.223633
 20
611.085449
  0
LINE
  5
14A
330
E2
100
AcDbEntity
  8
0
  6
Continuous
 62
     0
370
    30
100
AcDbLine
 10
161.198529
 20
614.734472
 30
0.0
 11
163.173637
 21
619.726935
 31
0.0
  0
LINE
  5
14B
330
E2
100
AcDbEntity
  8
0
  6
Continuous
 62
     0
370
    30
100
AcDbLine
 10
163.173637
 20
641.472929
 30
0.0
 11
153.759709
 21
617.677437
 31
0.0
  0
LINE
  5
14C
330
E2
100
AcDbEntity
  8
0
  6
Continuous
 62
     0
370
    30
100
AcDbLine
 10
163.173637
 20
899.298558
 30
0.0
 11
163.173637
 21
917.332128
 31
0.0
  0
LINE
  5
14D
330
E2
100
AcDbEntity
  8
0
  6
Continuous
 62
     0
370
     0
100
AcDbLine
 10
131.837625
 20
774.514716
 30
0.0
 11
171.55898
 21
774.514717
 31
0.0
  0
LINE
  5
14E
330
E2
100
AcDbEntity
  8
0
  6
Continuous
 62
     0
370
     0
100
AcDbLine
 10
110.576586
 20
774.514717
 30
0.0
 11
131.837625
 21
774.514716
 31
0.0
  0
LINE
  5
14F
330
E2
100
AcDbEntity
  8
0
  6
Continuous
 62
     0
370
     0
100
AcDbLine
 10
131.864697
 20
764.266898
 30
0.0
 11
110.666017
 21
764.266899
 31
0.0
  0
LWPOLYLINE
  5
150
330
E2
100
AcDbEntity
  8
0
  6
Continuous
 62
     0
370
     0
100
AcDbPolyline
 90
       38
 70
     0
 43
0.0
 10
171.469543
 20
764.266907
 10
171.430603
 20
764.266907
 10
171.315979
 20
764.266907
 10
171.129272
 20
764.266907
 10
170.874435
 20
764.266907
 10
170.555695
 20
764.266907
 10
170.177505
 20
764.266907
 10
169.740372
 20
764.266907
 10
169.232971
 20
764.266907
 10
168.652527
 20
764.266907
 10
167.997528
 20
764.266907
 10
167.266968
 20
764.266907
 10
166.460358
 20
764.266907
 10
165.577835
 20
764.266907
 10
164.620209
 20
764.266907
 10
163.588898
 20
764.266907
 10
162.486069
 20
764.266907
 10
161.31456
 20
764.266907
 10
160.077896
 20
764.266907
 10
158.780273
 20
764.266907
 10
157.426514
 20
764.266907
 10
156.021988
 20
764.266907
 10
154.572571
 20
764.266907
 10
153.084549
 20
764.266907
 10
151.564529
 20
764.266907
 10
150.019379
 20
764.266907
 10
148.456055
 20
764.266907
 10
146.881516
 20
764.266907
 10
145.302704
 20
764.266907
 10
143.726364
 20
764.266907
 10
142.158966
 20
764.266907
 10
140.606674
 20
764.266907
 10
139.075226
 20
764.266907
 10
137.569946
 20
764.266907
 10
136.095612
 20
764.266907
 10
134.656525
 20
764.266907
 10
133.256439
 20
764.266907
 10
131.8647
 20
764.266907
  0
LINE
  5
151
330
E2
100
AcDbEntity
  8
0
  6
Continuous
 62
     0
370
    30
100
AcDbLine
 10
132.140329
 20
775.523442
 30
0.0
 11
111.576548
 21
775.523444
 31
0.0
  0
LWPOLYLINE
  5
152
330
E2
100
AcDbEntity
  8
0
  6
Continuous
 62
     0
370
    30
100
AcDbPolyline
 90
       38
 70
     0
 43
0.0
 10
170.559021
 20
775.523438
 10
170.520996
 20
775.523438
 10
170.406021
 20
775.523438
 10
170.213165
 20
775.523438
 10
169.942123
 20
775.523438
 10
169.593216
 20
775.523438
 10
169.167358
 20
775.523438
 10
168.666122
 20
775.523438
 10
168.09169
 20
775.523438
 10
167.446793
 20
775.523438
 10
166.734711
 20
775.523438
 10
165.959198
 20
775.523438
 10
165.124435
 20
775.523438
 10
164.23494
 20
775.523438
 10
163.295532
 20
775.523438
 10
162.311234
 20
775.523438
 10
161.287186
 20
775.523438
 10
160.222244
 20
775.523438
 10
159.099884
 20
775.523438
 10
157.920959
 20
775.523438
 10
156.688248
 20
775.523438
 10
155.405106
 20
775.523438
 10
154.075394
 20
775.523438
 10
152.703445
 20
775.523438
 10
151.294067
 20
775.523438
 10
149.852432
 20
775.523438
 10
148.384064
 20
775.523438
 10
146.89476
 20
775.523438
 10
145.390488
 20
775.523438
 10
143.877335
 20
775.523438
 10
142.36142
 20
775.523438
 10
140.848801
 20
775.523438
 10
139.345398
 20
775.523438
 10
137.856934
 20
775.523438
 10
136.388855
 20
775.523438
 10
134.946274
 20
775.523438
 10
133.53392
 20
775.523438
 10
132.140335
 20
775.523438
  0
LINE
  5
153
330
E2
100
AcDbEntity
  8
0
  6
Continuous
 62
     0
370
    30
100
AcDbLine
 10
171.067783
 20
763.523444
 30
0.0
 11
111.067783
 21
763.523444
 31
0.0
  0
LINE
  5
154
330
E2
100
AcDbEntity
  8
0
  6
Continuous
 62
     0
370
    30
100
AcDbLine
 10
111.067783
 20
763.523444
 30
0.0
 11
111.067783
 21
701.023444
 31
0.0
  0
LINE
  5
155
330
E2
100
AcDbEntity
  8
0
  6
Continuous
 62
     0
370
    30
100
AcDbLine
 10
111.067783
 20
701.023444
 30
0.0
 11
171.067783
 21
701.023444
 31
0.0
  0
LINE
  5
156
330
E2
100
AcDbEntity
  8
0
  6
Continuous
 62
     0
370
     0
100
AcDbLine
 10
166.565199
 20
690.032169
 30
0.0
 11
110.576586
 21
690.03217
 31
0.0
  0
LWPOLYLINE
  5
157
330
E2
100
AcDbEntity
  8
0
  6
Continuous
 62
     0
370
     0
100
AcDbPolyline
 90
       13
 70
     0
 43
0.0
 10
171.558975
 20
690.032166
 10
171.519012
 20
690.032166
 10
171.400284
 20
690.032166
 10
171.204926
 20
690.032166
 10
170.935608
 20
690.032166
 10
170.595505
 20
690.032166
 10
170.188141
 20
690.032166
 10
169.717438
 20
690.032166
 10
169.187546
 20
690.032166
 10
168.60289
 20
690.032166
 10
167.967972
 20
690.032166
 10
167.287384
 20
690.032166
 10
166.565201
 20
690.032166
  0
LINE
  5
158
330
E2
100
AcDbEntity
  8
0
  6
Continuous
 62
     0
370
     0
100
AcDbLine
 10
166.490415
 20
700.279988
 30
0.0
 11
171.469548
 21
700.279989
 31
0.0
  0
LINE
  5
159
330
E2
100
AcDbEntity
  8
0
  6
Continuous
 62
     0
370
     0
100
AcDbLine
 10
110.666017
 20
700.279989
 30
0.0
 11
166.490415
 21
700.279988
 31
0.0
  0
LINE
  5
15A
330
E2
100
AcDbEntity
  8
0
  6
Continuous
 62
     0
370
    30
100
AcDbLine
 10
165.729009
 20
689.023443
 30
0.0
 11
170.559018
 21
689.023444
 31
0.0
  0
LWPOLYLINE
  5
15B
330
E2
100
AcDbEntity
  8
0
  6
Continuous
 62
     0
370
    30
100
AcDbPolyline
 90
       51
 70
     0
 43
0.0
 10
111.576546
 20
689.023438
 10
111.616959
 20
689.023438
 10
111.737625
 20
689.023438
 10
111.93721
 20
689.023438
 10
112.213745
 20
689.023438
 10
112.564713
 20
689.023438
 10
112.987053
 20
689.023438
 10
113.477234
 20
689.023438
 10
114.031342
 20
689.023438
 10
114.645111
 20
689.023438
 10
115.320976
 20
689.023438
 10
116.068291
 20
689.023438
 10
116.886765
 20
689.023438
 10
117.775352
 20
689.023438
 10
118.732399
 20
689.023438
 10
119.755646
 20
689.023438
 10
120.842209
 20
689.023438
 10
121.988625
 20
689.023438
 10
123.190872
 20
689.023438
 10
124.44442
 20
689.023438
 10
125.74427
 20
689.023438
 10
127.085052
 20
689.023438
 10
128.46106
 20
689.023438
 10
129.866348
 20
689.023438
 10
131.294846
 20
689.023438
 10
132.740387
 20
689.023438
 10
134.196823
 20
689.023438
 10
135.658112
 20
689.023438
 10
137.118408
 20
689.023438
 10
138.572037
 20
689.023438
 10
140.017242
 20
689.023438
 10
141.477188
 20
689.023438
 10
142.952942
 20
689.023438
 10
144.439117
 20
689.023438
 10
145.930038
 20
689.023438
 10
147.419769
 20
689.023438
 10
148.902191
 20
689.023438
 10
150.371078
 20
689.023438
 10
151.820221
 20
689.023438
 10
153.243439
 20
689.023438
 10
154.634735
 20
689.023438
 10
155.988342
 20
689.023438
 10
157.298767
 20
689.023438
 10
158.560989
 20
689.023438
 10
159.77037
 20
689.023438
 10
160.922821
 20
689.023438
 10
162.014771
 20
689.023438
 10
163.043259
 20
689.023438
 10
164.005905
 20
689.023438
 10
164.90094
 20
689.023438
 10
165.729004
 20
689.023438
  0
LWPOLYLINE
  5
15C
330
E2
100
AcDbEntity
  8
0
  6
Continuous
 62
     0
370
    30
100
AcDbPolyline
 90
       28
 70
     0
 43
0.0
 10
151.223602
 20
603.023254
 10
151.189133
 20
602.999634
 10
151.091049
 20
602.932617
 10
150.931046
 20
602.824036
 10
150.711517
 20
602.676636
 10
150.435852
 20
602.494446
 10
150.107498
 20
602.281433
 10
149.730026
 20
602.042236
 10
149.307068
 20
601.781616
 10
148.84169
 20
601.504456
 10
148.335922
 20
601.216064
 10
147.791656
 20
600.921814
 10
147.2108
 20
600.626953
 10
146.595154
 20
600.337036
 10
145.945969
 20
600.058899
 10
145.264191
 20
599.800171
 10
144.550751
 20
599.568298
 10
143.808075
 20
599.371277
 10
143.041061
 20
599.217834
 10
142.254913
 20
599.116638
 10
141.456772
 20
599.073303
 10
140.656448
 20
599.08905
 10
139.863754
 20
599.164551
 10
139.086853
 20
599.295105
 10
138.332809
 20
599.473267
 10
137.606079
 20
599.690613
 10
136.909241
 20
599.937866
 10
136.233505
 20
600.211487
  0
LINE
  5
15D
330
E2
100
AcDbEntity
  8
0
  6
Continuous
 62
     0
370
    30
100
AcDbLine
 10
128.173637
 20
602.023484
 30
0.0
 11
128.173637
 21
588.523483
 31
0.0
  0
LINE
  5
15E
330
E2
100
AcDbEntity
  8
0
  6
Continuous
 62
     0
370
    30
100
AcDbLine
 10
128.173637
 20
588.523483
 30
0.0
 11
128.173637
 21
575.023484
 31
0.0
  0
LINE
  5
15F
330
E2
100
AcDbEntity
  8
0
  6
Continuous
 62
     0
370
     0
100
AcDbLine
 10
129.173637
 20
603.023484
 30
0.0
 11
129.173637
 21
588.523483
 31
0.0
  0
LINE
  5
160
330
E2
100
AcDbEntity
  8
0
  6
Continuous
 62
     0
370
     0
100
AcDbLine
 10
129.173637
 20
588.523483
 30
0.0
 11
129.173637
 21
574.023484
 31
0.0
  0
LINE
  5
161
330
E2
100
AcDbEntity
  8
0
  6
Continuous
 62
     0
370
     0
100
AcDbLine
 10
129.173637
 20
588.523483
 30
0.0
 11
164.173637
 21
588.523483
 31
0.0
  0
LINE
  5
162
330
E2
100
AcDbEntity
  8
0
  6
Continuous
 62
     0
370
    30
100
AcDbLine
 10
164.173637
 20
588.523483
 30
0.0
 11
164.173637
 21
574.023816
 31
0.0
  0
LWPOLYLINE
  5
163
330
E2
100
AcDbEntity
  8
0
  6
Continuous
 62
     0
370
    30
100
AcDbPolyline
 90
       41
 70
     0
 43
0.0
 10
151.273636
 20
574.023682
 10
151.239944
 20
574.047058
 10
151.140488
 20
574.115479
 10
150.977722
 20
574.226318
 10
150.754074
 20
574.376953
 10
150.472275
 20
574.564331
 10
150.135956
 20
574.78363
 10
149.748993
 20
575.029907
 10
149.315201
 20
575.298035
 10
148.838043
 20
575.582825
 10
148.319672
 20
575.878906
 10
147.762009
 20
576.180725
 10
147.166977
 20
576.482666
 10
146.536285
 20
576.778809
 10
145.870972
 20
577.061584
 10
145.171936
 20
577.323242
 10
144.440369
 20
577.555969
 10
143.679749
 20
577.750977
 10
142.894699
 20
577.898926
 10
142.090561
 20
577.991333
 10
141.276443
 20
578.023254
 10
140.462662
 20
577.991699
 10
139.658524
 20
577.899414
 10
138.872696
 20
577.752441
 10
138.112289
 20
577.557922
 10
137.380875
 20
577.325012
 10
136.681473
 20
577.063293
 10
136.015869
 20
576.780823
 10
135.384995
 20
576.484985
 10
134.78981
 20
576.182983
 10
134.231827
 20
575.881165
 10
133.713074
 20
575.585022
 10
133.235565
 20
575.300049
 10
132.801453
 20
575.031738
 10
132.414108
 20
574.785217
 10
132.077393
 20
574.565674
 10
131.795181
 20
574.378174
 10
131.571106
 20
574.227295
 10
131.407837
 20
574.116089
 10
131.307846
 20
574.047302
 10
131.273636
 20
574.023499
  0
LINE
  5
164
330
E2
100
AcDbEntity
  8
0
  6
Continuous
 62
     0
370
    30
100
AcDbLine
 10
164.173637
 20
588.523483
 30
0.0
 11
164.173637
 21
603.023151
 31
0.0
  0
LINE
  5
165
330
E2
100
AcDbEntity
  8
0
  6
Continuous
 62
     0
370
    30
100
AcDbLine
 10
179.673637
 20
600.273176
 30
0.0
 11
183.873637
 21
600.273176
 31
0.0
  0
LINE
  5
166
330
E2
100
AcDbEntity
  8
0
  6
Continuous
 62
     0
370
    30
100
AcDbLine
 10
164.173637
 20
600.273176
 30
0.0
 11
166.673637
 21
600.273176
 31
0.0
  0
LINE
  5
167
330
E2
100
AcDbEntity
  8
0
  6
Continuous
 62
     0
370
    30
100
AcDbLine
 10
183.873637
 20
588.523483
 30
0.0
 11
183.873637
 21
574.023484
 31
0.0
  0
LINE
  5
168
330
E2
100
AcDbEntity
  8
0
  6
Continuous
 62
     0
370
    30
100
AcDbLine
 10
183.873637
 20
603.023484
 30
0.0
 11
183.873637
 21
588.523483
 31
0.0
  0
LINE
  5
169
330
E2
100
AcDbEntity
  8
0
  6
Continuous
 62
     0
370
     0
100
AcDbLine
 10
209.173637
 20
588.523483
 30
0.0
 11
209.173637
 21
603.023484
 31
0.0
  0
LINE
  5
16A
330
E2
100
AcDbEntity
  8
0
  6
Continuous
 62
     0
370
     0
100
AcDbLine
 10
209.173637
 20
574.023484
 30
0.0
 11
209.173637
 21
588.523483
 31
0.0
  0
LINE
  5
16B
330
E2
100
AcDbEntity
  8
0
  6
Continuous
 62
     0
370
    30
100
AcDbLine
 10
210.173637
 20
588.523483
 30
0.0
 11
210.173637
 21
602.023484
 31
0.0
  0
LWPOLYLINE
  5
16C
330
E2
100
AcDbEntity
  8
0
  6
Continuous
 62
     0
370
    30
100
AcDbPolyline
 90
       22
 70
     0
 43
0.0
 10
210.173645
 20
575.023499
 10
210.173645
 20
575.061157
 10
210.173645
 20
575.173828
 10
210.173645
 20
575.360962
 10
210.173645
 20
575.621521
 10
210.173645
 20
575.953918
 10
210.173645
 20
576.356506
 10
210.173645
 20
576.826904
 10
210.173645
 20
577.362427
 10
210.173645
 20
577.960327
 10
210.173645
 20
578.617004
 10
210.173645
 20
579.328979
 10
210.173645
 20
580.092224
 10
210.173645
 20
580.902405
 10
210.17363
 20
581.755188
 10
210.17363
 20
582.645691
 10
210.173645
 20
583.568848
 10
210.173645
 20
584.519531
 10
210.173645
 20
585.492798
 10
210.17363
 20
586.483337
 10
210.17363
 20
587.485168
 10
210.17363
 20
588.523499
  0
LINE
  5
16D
330
E2
100
AcDbEntity
  8
0
  6
Continuous
 62
     0
370
    30
100
AcDbLine
 10
151.273638
 20
574.023694
 30
0.0
 11
151.273638
 21
220.023484
 31
0.0
  0
LINE
  5
16E
330
E2
100
AcDbEntity
  8
0
  6
Continuous
 62
     0
370
    30
100
AcDbLine
 10
131.273638
 20
220.023484
 30
0.0
 11
131.273638
 21
574.023504
 31
0.0
  0
LINE
  5
16F
330
E2
100
AcDbEntity
  8
0
  6
Continuous
 62
     0
370
    30
100
AcDbLine
 10
151.273638
 20
220.023484
 30
0.0
 11
131.273638
 21
220.023484
 31
0.0
  0
ARC
  5
170
330
E2
100
AcDbEntity
  8
0
  6
Continuous
 62
     0
370
     0
100
AcDbCircle
 10
141.273638
 20
165.736494
 30
0.0
 40
27.22818308097027
100
AcDbArc
 50
90.0
 51
270.0
  0
ARC
  5
171
330
E2
100
AcDbEntity
  8
0
  6
Continuous
 62
     0
370
     0
100
AcDbCircle
 10
141.273638
 20
165.736494
 30
0.0
 40
27.22818308097027
100
AcDbArc
 50
270.0
 51
90.0
  0
ARC
  5
172
330
E2
100
AcDbEntity
  8
0
  6
Continuous
 62
     0
370
     0
100
AcDbCircle
 10
141.273638
 20
165.736494
 30
0.0
 40
30.21676717524537
100
AcDbArc
 50
90.0
 51
270.0
  0
ARC
  5
173
330
E2
100
AcDbEntity
  8
0
  6
Continuous
 62
     0
370
     0
100
AcDbCircle
 10
141.273638
 20
165.736494
 30
0.0
 40
30.21676717524542
100
AcDbArc
 50
270.0
 51
90.0
  0
LWPOLYLINE
  5
174
330
E2
100
AcDbEntity
  8
0
  6
Continuous
 62
     0
370
    30
100
AcDbPolyline
 90
       29
 70
     0
 43
0.0
 10
156.273636
 20
198.757294
 10
156.493637
 20
198.562683
 10
156.651138
 20
198.393646
 10
156.744781
 20
198.252228
 10
156.7733
 20
198.140335
 10
156.735397
 20
198.059906
 10
156.630417
 20
198.01207
 10
156.459259
 20
197.995972
 10
156.223129
 20
198.010452
 10
155.923172
 20
198.054337
 10
155.560883
 20
198.125839
 10
155.138504
 20
198.221725
 10
154.658386
 20
198.338608
 10
154.122986
 20
198.473099
 10
153.534912
 20
198.621826
 10
152.896332
 20
198.781296
 10
152.209198
 20
198.947784
 10
151.476334
 20
199.11763
 10
150.701004
 20
199.287155
 10
149.886475
 20
199.452713
 10
149.035446
 20
199.611099
 10
148.150345
 20
199.75946
 10
147.234711
 20
199.894913
 10
146.292297
 20
200.014618
 10
145.326065
 20
200.116272
 10
144.338837
 20
200.197754
 10
143.335892
 20
200.257416
 10
142.324356
 20
200.293961
 10
141.273636
 20
200.306824
  0
LWPOLYLINE
  5
175
330
E2
100
AcDbEntity
  8
0
  6
Continuous
 62
     0
370
    30
100
AcDbPolyline
 90
       29
 70
     0
 43
0.0
 10
141.273636
 20
200.306824
 10
140.259323
 20
200.29483
 10
139.24762
 20
200.25914
 10
138.244232
 20
200.200287
 10
137.256332
 20
200.119553
 10
136.289276
 20
200.0186
 10
135.345978
 20
199.899506
 10
134.429306
 20
199.764572
 10
133.543045
 20
199.616623
 10
132.69075
 20
199.458542
 10
131.874863
 20
199.293198
 10
131.098083
 20
199.123749
 10
130.363632
 20
198.953842
 10
129.674789
 20
198.78717
 10
129.034439
 20
198.627396
 10
128.444519
 20
198.47821
 10
127.907181
 20
198.343155
 10
127.425026
 20
198.225586
 10
127.000534
 20
198.128876
 10
126.636055
 20
198.056442
 10
126.333824
 20
198.011536
 10
126.095375
 20
197.995972
 10
125.921867
 20
198.010941
 10
125.814484
 20
198.057632
 10
125.774178
 20
198.136887
 10
125.800331
 20
198.247681
 10
125.891663
 20
198.388077
 10
126.046898
 20
198.556152
 10
126.273636
 20
198.757294
  0
ARC
  5
176
330
E2
100
AcDbEntity
  8
0
  6
Continuous
 62
     0
370
    30
100
AcDbCircle
 10
141.273638
 20
165.736502
 30
0.0
 40
46.60002267296939
100
AcDbArc
 50
108.569268
 51
270.0
  0
ARC
  5
177
330
E2
100
AcDbEntity
  8
0
  6
Continuous
 62
     0
370
    30
100
AcDbCircle
 10
141.273638
 20
165.736502
 30
0.0
 40
46.6000226762269
100
AcDbArc
 50
103.993917
 51
105.057684
  0
ARC
  5
178
330
E2
100
AcDbEntity
  8
0
  6
Continuous
 62
     0
370
    30
100
AcDbCircle
 10
141.273638
 20
165.736502
 30
0.0
 40
46.60002266331051
100
AcDbArc
 50
74.942316
 51
76.00607
  0
ARC
  5
179
330
E2
100
AcDbEntity
  8
0
  6
Continuous
 62
     0
370
    30
100
AcDbCircle
 10
141.273638
 20
165.736502
 30
0.0
 40
46.60002267296934
100
AcDbArc
 50
270.0
 51
71.43059
  0
LWPOLYLINE
  5
17A
330
E2
100
AcDbEntity
  8
0
  6
Continuous
 62
     0
370
    30
100
AcDbPolyline
 90
       40
 70
     0
 43
0.0
 10
145.114212
 20
209.236496
 10
145.056702
 20
209.444855
 10
144.917526
 20
209.618011
 10
144.746323
 20
209.748108
 10
144.558075
 20
209.853088
 10
144.360001
 20
209.940048
 10
144.156647
 20
210.012482
 10
143.949661
 20
210.073349
 10
143.740265
 20
210.12532
 10
143.529083
 20
210.169769
 10
143.316574
 20
210.207642
 10
143.10318
 20
210.239929
 10
142.889175
 20
210.267349
 10
142.674713
 20
210.290405
 10
142.459854
 20
210.30954
 10
142.24469
 20
210.325027
 10
142.029282
 20
210.337051
 10
141.81366
 20
210.345795
 10
141.597916
 20
210.35144
 10
141.38208
 20
210.354156
 10
141.166214
 20
210.354126
 10
140.950394
 20
210.351334
 10
140.73465
 20
210.345642
 10
140.519028
 20
210.336868
 10
140.303619
 20
210.324844
 10
140.088455
 20
210.309387
 10
139.873596
 20
210.290314
 10
139.659103
 20
210.267365
 10
139.445099
 20
210.240036
 10
139.231689
 20
210.207825
 10
139.019165
 20
210.169983
 10
138.807983
 20
210.125565
 10
138.598587
 20
210.073624
 10
138.391586
 20
210.012802
 10
138.188217
 20
209.94043
 10
137.990097
 20
209.853546
 10
137.801804
 20
209.748642
 10
137.630554
 20
209.618637
 10
137.491135
 20
209.445679
 10
137.43306
 20
209.236496
  0
LINE
  5
17B
330
E2
100
AcDbEntity
  8
0
  6
Continuous
 62
     0
370
     0
100
AcDbLine
 10
156.273638
 20
209.236497
 30
0.0
 11
145.114211
 21
209.236496
 31
0.0
  0
LINE
  5
17C
330
E2
100
AcDbEntity
  8
0
  6
Continuous
 62
     0
370
    30
100
AcDbLine
 10
141.273638
 20
210.736496
 30
0.0
 11
154.773638
 21
210.736497
 31
0.0
  0
LINE
  5
17D
330
E2
100
AcDbEntity
  8
0
  6
Continuous
 62
     0
370
    30
100
AcDbLine
 10
127.773638
 20
210.736497
 30
0.0
 11
141.273638
 21
210.736496
 31
0.0
  0
LINE
  5
17E
330
E2
100
AcDbEntity
  8
0
  6
Continuous
 62
     0
370
     0
100
AcDbLine
 10
137.433065
 20
209.236496
 30
0.0
 11
126.273638
 21
209.236497
 31
0.0
  0
LINE
  5
17F
330
E2
100
AcDbEntity
  8
0
  6
Continuous
 62
     0
370
    30
100
AcDbLine
 10
145.114211
 20
209.236496
 30
0.0
 11
145.114211
 21
202.736496
 31
0.0
  0
LINE
  5
180
330
E2
100
AcDbEntity
  8
0
  6
Continuous
 62
     0
370
    30
100
AcDbLine
 10
145.114211
 20
202.736497
 30
0.0
 11
137.433065
 21
202.736497
 31
0.0
  0
LINE
  5
181
330
E2
100
AcDbEntity
  8
0
  6
Continuous
 62
     0
370
    30
100
AcDbLine
 10
137.433065
 20
202.736496
 30
0.0
 11
137.433065
 21
209.236496
 31
0.0
  0
LINE
  5
182
330
E2
100
AcDbEntity
  8
0
  6
Continuous
 62
     0
370
    30
100
AcDbLine
 10
135.173638
 20
216.704308
 30
0.0
 11
140.275531
 21
216.704308
 31
0.0
  0
LINE
  5
183
330
E2
100
AcDbEntity
  8
0
  6
Continuous
 62
     0
370
    30
100
AcDbLine
 10
140.275531
 20
216.704308
 30
0.0
 11
147.373638
 21
216.704308
 31
0.0
  0
ARC
  5
184
330
E2
100
AcDbEntity
  8
0
  6
Continuous
 62
     0
370
     0
100
AcDbCircle
 10
141.273638
 20
165.736502
 30
0.0
 40
46.68668487401008
100
AcDbArc
 50
45.711729
 51
71.547479
  0
ARC
  5
185
330
E2
100
AcDbEntity
  8
0
  6
Continuous
 62
     0
370
     0
100
AcDbCircle
 10
141.273638
 20
165.736502
 30
0.0
 40
46.68668486951182
100
AcDbArc
 50
74.551926
 51
76.088753
  0
ARC
  5
186
330
E2
100
AcDbEntity
  8
0
  6
Continuous
 62
     0
370
     0
100
AcDbCircle
 10
141.273638
 20
165.736502
 30
0.0
 40
46.68668487847876
100
AcDbArc
 50
103.911229
 51
105.448074
  0
ARC
  5
187
330
E2
100
AcDbEntity
  8
0
  6
Continuous
 62
     0
370
     0
100
AcDbCircle
 10
141.273638
 20
165.736502
 30
0.0
 40
46.68668487400541
100
AcDbArc
 50
108.452225
 51
225.711729
  0
ARC
  5
188
330
E2
100
AcDbEntity
  8
0
  6
Continuous
 62
     0
370
     0
100
AcDbCircle
 10
141.273638
 20
165.736502
 30
0.0
 40
46.68668487400598
100
AcDbArc
 50
225.711729
 51
45.711729
  0
ARC
  5
189
330
E2
100
AcDbEntity
  8
0
  6
Continuous
 62
     0
370
     0
100
AcDbCircle
 10
141.273638
 20
165.736502
 30
0.0
 40
47.93093012196519
100
AcDbArc
 50
225.711729
 51
45.711729
  0
ARC
  5
18A
330
E2
100
AcDbEntity
  8
0
  6
Continuous
 62
     0
370
     0
100
AcDbCircle
 10
141.273638
 20
165.736502
 30
0.0
 40
47.93093012196512
100
AcDbArc
 50
102.589847
 51
225.711729
  0
ARC
  5
18B
330
E2
100
AcDbEntity
  8
0
  6
Continuous
 62
     0
370
     0
100
AcDbCircle
 10
141.273638
 20
165.736502
 30
0.0
 40
47.93093012197447
100
AcDbArc
 50
45.711729
 51
77.410159
  0
ARC
  5
18C
330
E2
100
AcDbEntity
  8
0
  6
Continuous
 62
     0
370
     0
100
AcDbCircle
 10
141.273638
 20
165.736502
 30
0.0
 40
48.99999999999982
100
AcDbArc
 50
225.711729
 51
45.711729
  0
ARC
  5
18D
330
E2
100
AcDbEntity
  8
0
  6
Continuous
 62
     0
370
     0
100
AcDbCircle
 10
141.273638
 20
165.736502
 30
0.0
 40
48.99999999999926
100
AcDbArc
 50
101.213577
 51
225.711729
  0
ARC
  5
18E
330
E2
100
AcDbEntity
  8
0
  6
Continuous
 62
     0
370
     0
100
AcDbCircle
 10
141.273638
 20
165.736502
 30
0.0
 40
48.99999999999099
100
AcDbArc
 50
45.711729
 51
78.786426
  0
ARC
  5
18F
330
E2
100
AcDbEntity
  8
0
  6
Continuous
 62
     0
370
    30
100
AcDbCircle
 10
141.273933
 20
165.73638
 30
0.0
 40
49.00334169192415
100
AcDbArc
 50
101.209408
 51
225.711382
  0
ARC
  5
190
330
E2
100
AcDbEntity
  8
0
  6
Continuous
 62
     0
370
    30
100
AcDbCircle
 10
141.273479
 20
165.73656
 30
0.0
 40
49.00315324101051
100
AcDbArc
 50
225.711908
 51
78.790731
  0
ARC
  5
191
330
E2
100
AcDbEntity
  8
0
  6
Continuous
 62
     0
370
    30
100
AcDbCircle
 10
141.273676
 20
206.02345
 30
0.0
 40
12.30004867680025
100
AcDbArc
 50
119.731498
 51
157.469546
  0
ARC
  5
192
330
E2
100
AcDbEntity
  8
0
  6
Continuous
 62
     0
370
    30
100
AcDbCircle
 10
141.273604
 20
206.023454
 30
0.0
 40
12.30004204138729
100
AcDbArc
 50
22.533234
 51
60.268513
  0
LINE
  5
193
330
E2
100
AcDbEntity
  8
0
  6
Continuous
 62
     0
370
    30
100
AcDbLine
 10
147.373638
 20
220.023484
 30
0.0
 11
147.373638
 21
216.704308
 31
0.0
  0
LINE
  5
194
330
E2
100
AcDbEntity
  8
0
  6
Continuous
 62
     0
370
    30
100
AcDbLine
 10
135.173638
 20
220.023484
 30
0.0
 11
135.173638
 21
216.704308
 31
0.0
  0
LINE
  5
195
330
E2
100
AcDbEntity
  8
0
  6
Continuous
 62
     0
370
    30
100
AcDbLine
 10
126.273638
 20
198.005341
 30
0.0
 11
126.273638
 21
209.236497
 31
0.0
  0
LINE
  5
196
330
E2
100
AcDbEntity
  8
0
  6
Continuous
 62
     0
370
    30
100
AcDbLine
 10
156.273638
 20
198.005341
 30
0.0
 11
156.273638
 21
209.236497
 31
0.0
  0
ARC
  5
197
330
E2
100
AcDbEntity
  8
0
  6
Continuous
 62
     0
370
    30
100
AcDbCircle
 10
127.773705
 20
209.236429
 30
0.0
 40
1.500067575863408
100
AcDbArc
 50
90.002581
 51
179.997419
  0
ARC
  5
198
330
E2
100
AcDbEntity
  8
0
  6
Continuous
 62
     0
370
    30
100
AcDbCircle
 10
154.77357
 20
209.236429
 30
0.0
 40
1.500067841410515
100
AcDbArc
 50
0.002591
 51
89.989306
  0
ARC
  5
199
330
E2
100
AcDbEntity
  8
0
  6
Continuous
 62
     0
370
    30
100
AcDbCircle
 10
209.173613
 20
575.023508
 30
0.0
 40
1.00002430796947
100
AcDbArc
 50
270.001393
 51
359.998607
  0
ARC
  5
19A
330
E2
100
AcDbEntity
  8
0
  6
Continuous
 62
     0
370
    30
100
AcDbCircle
 10
209.173613
 20
602.02346
 30
0.0
 40
1.00002430796925
100
AcDbArc
 50
0.001393
 51
89.998607
  0
LINE
  5
19B
330
E2
100
AcDbEntity
  8
0
  6
Continuous
 62
     0
370
    30
100
AcDbLine
 10
209.173637
 20
603.023484
 30
0.0
 11
183.873637
 21
603.023484
 31
0.0
  0
LINE
  5
19C
330
E2
100
AcDbEntity
  8
0
  6
Continuous
 62
     0
370
    30
100
AcDbLine
 10
209.173637
 20
574.023484
 30
0.0
 11
183.873637
 21
574.023484
 31
0.0
  0
LINE
  5
19D
330
E2
100
AcDbEntity
  8
0
  6
Continuous
 62
     0
370
    30
100
AcDbLine
 10
179.673637
 20
576.773176
 30
0.0
 11
183.873637
 21
576.773176
 31
0.0
  0
LINE
  5
19E
330
E2
100
AcDbEntity
  8
0
  6
Continuous
 62
     0
370
    30
100
AcDbLine
 10
164.173637
 20
576.773176
 30
0.0
 11
166.673637
 21
576.773176
 31
0.0
  0
LINE
  5
19F
330
E2
100
AcDbEntity
  8
0
  6
Continuous
 62
     0
370
    30
100
AcDbLine
 10
164.173637
 20
603.023151
 30
0.0
 11
151.223448
 21
603.023274
 31
0.0
  0
LINE
  5
1A0
330
E2
100
AcDbEntity
  8
0
  6
Continuous
 62
     0
370
    30
100
AcDbLine
 10
129.173637
 20
603.023484
 30
0.0
 11
131.323709
 21
603.023463
 31
0.0
  0
LINE
  5
1A1
330
E2
100
AcDbEntity
  8
0
  6
Continuous
 62
     0
370
    30
100
AcDbLine
 10
164.173637
 20
574.023816
 30
0.0
 11
151.273638
 21
574.023694
 31
0.0
  0
LINE
  5
1A2
330
E2
100
AcDbEntity
  8
0
  6
Continuous
 62
     0
370
    30
100
AcDbLine
 10
129.173637
 20
574.023484
 30
0.0
 11
131.273638
 21
574.023504
 31
0.0
  0
ARC
  5
1A3
330
E2
100
AcDbEntity
  8
0
  6
Continuous
 62
     0
370
    30
100
AcDbCircle
 10
129.173663
 20
602.023458
 30
0.0
 40
1.000025415574554
100
AcDbArc
 50
90.001456
 51
179.992814
  0
ARC
  5
1A4
330
E2
100
AcDbEntity
  8
0
  6
Continuous
 62
     0
370
    30
100
AcDbCircle
 10
129.173663
 20
575.023509
 30
0.0
 40
1.000025415583465
100
AcDbArc
 50
180.007186
 51
269.998544
  0
LINE
  5
1A5
330
E2
100
AcDbEntity
  8
0
  6
Continuous
 62
     0
370
    30
100
AcDbLine
 10
151.223638
 20
689.023444
 30
0.0
 11
151.223638
 21
603.023283
 31
0.0
  0
LINE
  5
1A6
330
E2
100
AcDbEntity
  8
0
  6
Continuous
 62
     0
370
    30
100
AcDbLine
 10
131.323638
 20
689.023444
 30
0.0
 11
131.323638
 21
603.023494
 31
0.0
  0
ARC
  5
1A7
330
E2
100
AcDbEntity
  8
0
  6
Continuous
 62
     0
370
    30
100
AcDbCircle
 10
111.576588
 20
690.023469
 30
0.0
 40
1.000025764673809
100
AcDbArc
 50
179.501488
 51
269.99435
  0
ARC
  5
1A8
330
E2
100
AcDbEntity
  8
0
  6
Continuous
 62
     0
370
    30
100
AcDbCircle
 10
170.558987
 20
690.02347
 30
0.0
 40
1.000026672238638
100
AcDbArc
 50
270.005521
 51
0.49846
  0
ARC
  5
1A9
330
E2
100
AcDbEntity
  8
0
  6
Continuous
 62
     0
370
    30
100
AcDbCircle
 10
111.416009
 20
700.273437
 30
0.0
 40
0.7500066068027331
100
AcDbArc
 50
89.999805
 51
179.499501
  0
ARC
  5
1AA
330
E2
100
AcDbEntity
  8
0
  6
Continuous
 62
     0
370
    30
100
AcDbCircle
 10
170.719566
 20
700.273437
 30
0.0
 40
0.7500066702414758
100
AcDbArc
 50
0.500504
 51
90.001649
  0
LINE
  5
1AB
330
E2
100
AcDbEntity
  8
0
  6
Continuous
 62
     0
370
    30
100
AcDbLine
 10
110.666017
 20
700.279989
 30
0.0
 11
110.576586
 21
690.03217
 31
0.0
  0
LINE
  5
1AC
330
E2
100
AcDbEntity
  8
0
  6
Continuous
 62
     0
370
    30
100
AcDbLine
 10
171.469548
 20
700.279989
 30
0.0
 11
171.55898
 21
690.03217
 31
0.0
  0
LINE
  5
1AD
330
E2
100
AcDbEntity
  8
0
  6
Continuous
 62
     0
370
    30
100
AcDbLine
 10
171.067783
 20
701.023444
 30
0.0
 11
171.067783
 21
763.523444
 31
0.0
  0
ARC
  5
1AE
330
E2
100
AcDbEntity
  8
0
  6
Continuous
 62
     0
370
    30
100
AcDbCircle
 10
170.558803
 20
774.523421
 30
0.0
 40
1.000022905991729
100
AcDbArc
 50
359.501323
 51
89.993564
  0
ARC
  5
1AF
330
E2
100
AcDbEntity
  8
0
  6
Continuous
 62
     0
370
    30
100
AcDbCircle
 10
111.576825
 20
774.523421
 30
0.0
 40
1.000022765944059
100
AcDbArc
 50
90.006579
 51
180.498686
  0
ARC
  5
1B0
330
E2
100
AcDbEntity
  8
0
  6
Continuous
 62
     0
370
    30
100
AcDbCircle
 10
170.719381
 20
764.273448
 30
0.0
 40
0.7500045879856194
100
AcDbArc
 50
270.004488
 51
359.499654
  0
ARC
  5
1B1
330
E2
100
AcDbEntity
  8
0
  6
Continuous
 62
     0
370
    30
100
AcDbCircle
 10
111.416246
 20
764.273447
 30
0.0
 40
0.7500036345653174
100
AcDbArc
 50
180.500274
 51
269.999191
  0
LINE
  5
1B2
330
E2
100
AcDbEntity
  8
0
  6
Continuous
 62
     0
370
    30
100
AcDbLine
 10
171.469548
 20
764.266899
 30
0.0
 11
171.55898
 21
774.514717
 31
0.0
  0
LINE
  5
1B3
330
E2
100
AcDbEntity
  8
0
  6
Continuous
 62
     0
370
    30
100
AcDbLine
 10
110.666017
 20
764.266899
 30
0.0
 11
110.576586
 21
774.514717
 31
0.0
  0
ENDBLK
  5
1B5
330
E2
100
AcDbEntity
  8
0
100
AcDbBlockEnd
  0
BLOCK
  5
284
330
1B7
100
AcDbEntity
  8
0
100
AcDbBlockBegin
  2
c
 70
     0
 10
50.684059
 20
99.914375
 30
0.0
  3
c
  1

  0
LWPOLYLINE
  5
1B8
330
1B7
100
AcDbEntity
  8
0
  6
Continuous
 62
     0
370
    30
100
AcDbPolyline
 90
       35
 70
     0
 43
0.0
 10
804.879211
 20
1256.975464
 10
804.840027
 20
1256.974731
 10
804.723572
 20
1256.972778
 10
804.532471
 20
1256.96936
 10
804.270691
 20
1256.964844
 10
803.942993
 20
1256.959106
 10
803.554993
 20
1256.952271
 10
803.103821
 20
1256.944458
 10
802.582703
 20
1256.935303
 10
801.992859
 20
1256.925049
 10
801.336731
 20
1256.913574
 10
800.617981
 20
1256.901001
 10
799.841553
 20
1256.887451
 10
799.013489
 20
1256.873047
 10
798.140869
 20
1256.857788
 10
797.231445
 20
1256.841919
 10
796.29364
 20
1256.825562
 10
795.335999
 20
1256.808838
 10
794.36731
 20
1256.791992
 10
793.396057
 20
1256.775024
 10
792.430237
 20
1256.758179
 10
791.459229
 20
1256.741211
 10
790.471436
 20
1256.723999
 10
789.474609
 20
1256.706543
 10
788.477051
 20
1256.689087
 10
787.487366
 20
1256.671875
 10
786.514465
 20
1256.654907
 10
785.567078
 20
1256.638306
 10
784.653625
 20
1256.622437
 10
783.781921
 20
1256.607178
 10
782.958984
 20
1256.592773
 10
782.190857
 20
1256.579468
 10
781.482422
 20
1256.567017
 10
780.837341
 20
1256.555786
 10
780.248413
 20
1256.545532
  0
LINE
  5
1B9
330
1B7
100
AcDbEntity
  8
0
  6
Continuous
 62
     0
370
    30
100
AcDbLine
 10
780.24842
 20
1256.545506
 30
0.0
 11
777.883306
 21
1256.504223
 31
0.0
  0
LINE
  5
1BA
330
1B7
100
AcDbEntity
  8
0
  6
Continuous
 62
     0
370
    30
100
AcDbLine
 10
805.60853
 20
1272.490529
 30
0.0
 11
779.153254
 21
1272.028751
 31
0.0
  0
LINE
  5
1BB
330
1B7
100
AcDbEntity
  8
0
  6
Continuous
 62
     0
370
    30
100
AcDbLine
 10
779.153254
 20
1272.028751
 30
0.0
 11
777.761103
 21
1272.004451
 31
0.0
  0
LINE
  5
1BC
330
1B7
100
AcDbEntity
  8
0
  6
Continuous
 62
     0
370
     0
100
AcDbLine
 10
776.866006
 20
1257.486618
 30
0.0
 11
779.406314
 21
1257.530959
 31
0.0
  0
LINE
  5
1BD
330
1B7
100
AcDbEntity
  8
0
  6
Continuous
 62
     0
370
     0
100
AcDbLine
 10
779.406314
 20
1257.530959
 30
0.0
 11
805.86159
 21
1257.992738
 31
0.0
  0
LINE
  5
1BE
330
1B7
100
AcDbEntity
  8
0
  6
Continuous
 62
     0
370
    30
100
AcDbLine
 10
777.40765
 20
1285.800378
 30
0.0
 11
805.367689
 21
1286.288422
 31
0.0
  0
LINE
  5
1BF
330
1B7
100
AcDbEntity
  8
0
  6
Continuous
 62
     0
370
    30
100
AcDbLine
 10
805.367689
 20
1286.288422
 30
0.0
 11
805.057986
 21
1304.031327
 31
0.0
  0
ARC
  5
1C0
330
1B7
100
AcDbEntity
  8
0
  6
Continuous
 62
     0
370
    30
100
AcDbCircle
 10
790.381227
 20
1314.031301
 30
0.0
 40
15.25006066871961
100
AcDbArc
 50
220.728074
 51
319.024714
  0
LWPOLYLINE
  5
1C1
330
1B7
100
AcDbEntity
  8
0
  6
Continuous
 62
     0
370
    30
100
AcDbPolyline
 90
       21
 70
     0
 43
0.0
 10
776.184509
 20
1296.53064
 10
776.191467
 20
1296.497314
 10
776.211731
 20
1296.396606
 10
776.243347
 20
1296.23291
 10
776.283569
 20
1296.009521
 10
776.328857
 20
1295.731689
 10
776.375244
 20
1295.405396
 10
776.418579
 20
1295.039062
 10
776.454834
 20
1294.641479
 10
776.481201
 20
1294.222412
 10
776.495422
 20
1293.792114
 10
776.496704
 20
1293.361328
 10
776.485291
 20
1292.941162
 10
776.463135
 20
1292.54187
 10
776.4328
 20
1292.173218
 10
776.397949
 20
1291.844116
 10
776.362366
 20
1291.563354
 10
776.329834
 20
1291.337036
 10
776.30365
 20
1291.17041
 10
776.286621
 20
1291.067139
 10
776.280457
 20
1291.031494
  0
LINE
  5
1C2
330
1B7
100
AcDbEntity
  8
0
  6
Continuous
 62
     0
370
    30
100
AcDbLine
 10
802.853716
 20
1272.742487
 30
0.0
 11
802.858951
 21
1272.442536
 31
0.0
  0
LINE
  5
1C3
330
1B7
100
AcDbEntity
  8
0
  6
Continuous
 62
     0
370
    30
100
AcDbLine
 10
802.618108
 20
1286.240428
 30
0.0
 11
802.626834
 21
1285.740507
 31
0.0
  0
LINE
  5
1C4
330
1B7
100
AcDbEntity
  8
0
  6
Continuous
 62
     0
370
    30
100
AcDbLine
 10
779.357295
 20
1272.332355
 30
0.0
 11
779.362531
 21
1272.032404
 31
0.0
  0
LINE
  5
1C5
330
1B7
100
AcDbEntity
  8
0
  6
Continuous
 62
     0
370
    30
100
AcDbLine
 10
779.121687
 20
1285.830296
 30
0.0
 11
779.130414
 21
1285.330375
 31
0.0
  0
LINE
  5
1C6
330
1B7
100
AcDbEntity
  8
0
  6
Continuous
 62
     0
370
    30
100
AcDbLine
 10
776.340447
 20
1287.596072
 30
0.0
 11
776.280481
 21
1291.031529
 31
0.0
  0
LINE
  5
1C7
330
1B7
100
AcDbEntity
  8
0
  6
Continuous
 62
     0
370
    30
100
AcDbLine
 10
776.184493
 20
1296.530665
 30
0.0
 11
776.0527
 21
1304.081097
 31
0.0
  0
ARC
  5
1C8
330
1B7
100
AcDbEntity
  8
0
  6
Continuous
 62
     0
370
    30
100
AcDbCircle
 10
777.865881
 20
1257.504095
 30
0.0
 40
1.000024206708933
100
AcDbArc
 50
181.001387
 51
270.998601
  0
ARC
  5
1C9
330
1B7
100
AcDbEntity
  8
0
  6
Continuous
 62
     0
370
    30
100
AcDbCircle
 10
804.861716
 20
1257.97531
 30
0.0
 40
1.00002540700099
100
AcDbArc
 50
271.007186
 51
0.998544
  0
LINE
  5
1CA
330
1B7
100
AcDbEntity
  8
0
  6
Continuous
 62
     0
370
    30
100
AcDbLine
 10
776.866006
 20
1257.486618
 30
0.0
 11
776.648097
 21
1269.970638
 31
0.0
  0
LINE
  5
1CB
330
1B7
100
AcDbEntity
  8
0
  6
Continuous
 62
     0
370
    30
100
AcDbLine
 10
805.86159
 20
1257.992738
 30
0.0
 11
805.60853
 21
1272.490529
 31
0.0
  0
LINE
  5
1CC
330
1B7
100
AcDbEntity
  8
0
  6
Continuous
 62
     0
370
     0
100
AcDbLine
 10
412.138437
 20
1329.076755
 30
0.0
 11
412.138437
 21
1486.78164
 31
0.0
  0
LINE
  5
1CD
330
1B7
100
AcDbEntity
  8
0
  6
Continuous
 62
     0
370
     0
100
AcDbLine
 10
412.138437
 20
1486.78164
 30
0.0
 11
412.082576
 21
1486.797264
 31
0.0
  0
LINE
  5
1CE
330
1B7
100
AcDbEntity
  8
0
  6
Continuous
 62
     0
370
     0
100
AcDbLine
 10
412.082576
 20
1329.031094
 30
0.0
 11
412.138437
 21
1329.076755
 31
0.0
  0
ELLIPSE
  5
1CF
330
1B7
100
AcDbEntity
  8
0
  6
Continuous
 62
     0
370
     0
100
AcDbEllipse
 10
450.14146
 20
1329.076755
 30
0.0
 11
3.130311600626609E-16
 21
-0.9999999999999968
 31
0.0
210
0.0
220
0.0
230
1.0
 40
0.070592
 41
-0.0000000000000044
 42
1.570796326794968
  0
LINE
  5
1D0
330
1B7
100
AcDbEntity
  8
0
  6
Continuous
 62
     0
370
     0
100
AcDbLine
 10
450.212052
 20
1329.076755
 30
0.0
 11
412.138437
 21
1329.076755
 31
0.0
  0
LINE
  5
1D1
330
1B7
100
AcDbEntity
  8
0
  6
Continuous
 62
     0
370
    30
100
AcDbLine
 10
412.082576
 20
1328.076755
 30
0.0
 11
450.14146
 21
1328.076755
 31
0.0
  0
LINE
  5
1D2
330
1B7
100
AcDbEntity
  8
0
  6
Continuous
 62
     0
370
    30
100
AcDbLine
 10
412.082576
 20
1488.074687
 30
0.0
 11
412.710633
 21
1487.547684
 31
0.0
  0
LWPOLYLINE
  5
1D3
330
1B7
100
AcDbEntity
  8
0
  6
Continuous
 62
     0
370
     0
100
AcDbPolyline
 90
        7
 70
     0
 43
0.0
 10
412.710632
 20
1487.547729
 10
412.701263
 20
1487.515869
 10
412.653137
 20
1487.439209
 10
412.568604
 20
1487.321411
 10
412.45285
 20
1487.169922
 10
412.314301
 20
1486.995605
 10
412.138428
 20
1486.781616
  0
LINE
  5
1D4
330
1B7
100
AcDbEntity
  8
0
  6
Continuous
 62
     0
370
    30
100
AcDbLine
 10
450.784247
 20
1455.600128
 30
0.0
 11
412.710633
 21
1487.547684
 31
0.0
  0
LWPOLYLINE
  5
1D5
330
1B7
100
AcDbEntity
  8
0
  6
Continuous
 62
     0
370
    30
100
AcDbPolyline
 90
       25
 70
     0
 43
0.0
 10
464.725372
 20
1443.9021
 10
464.696075
 20
1443.926758
 10
464.608459
 20
1444.000244
 10
464.462921
 20
1444.122314
 10
464.259857
 20
1444.292725
 10
464.000122
 20
1444.510742
 10
463.684814
 20
1444.775269
 10
463.315094
 20
1445.085449
 10
462.892334
 20
1445.440186
 10
462.418274
 20
1445.838013
 10
461.894806
 20
1446.277222
 10
461.323822
 20
1446.756348
 10
460.707642
 20
1447.273438
 10
460.048676
 20
1447.826294
 10
459.349487
 20
1448.413086
 10
458.612732
 20
1449.03125
 10
457.84137
 20
1449.678467
 10
457.038391
 20
1450.352295
 10
456.206879
 20
1451.050049
 10
455.350098
 20
1451.768921
 10
454.471405
 20
1452.506226
 10
453.574219
 20
1453.259033
 10
452.662018
 20
1454.024536
 10
451.738373
 20
1454.799561
 10
450.784241
 20
1455.600098
  0
LINE
  5
1D6
330
1B7
100
AcDbEntity
  8
0
  6
Continuous
 62
     0
370
     0
100
AcDbLine
 10
450.212052
 20
1329.076755
 30
0.0
 11
450.212052
 21
1454.834084
 31
0.0
  0
LINE
  5
1D7
330
1B7
100
AcDbEntity
  8
0
  6
Continuous
 62
     0
370
     0
100
AcDbLine
 10
450.212052
 20
1454.834084
 30
0.0
 11
412.138437
 21
1486.78164
 31
0.0
  0
LINE
  5
1D8
330
1B7
100
AcDbEntity
  8
0
  6
Continuous
 62
     0
370
     0
100
AcDbLine
 10
450.212052
 20
1329.076755
 30
0.0
 11
465.082575
 21
1329.076755
 31
0.0
  0
LINE
  5
1D9
330
1B7
100
AcDbEntity
  8
0
  6
Continuous
 62
     0
370
    30
100
AcDbLine
 10
465.082575
 20
1329.076755
 30
0.0
 11
465.082575
 21
1443.136099
 31
0.0
  0
LINE
  5
1DA
330
1B7
100
AcDbEntity
  8
0
  6
Continuous
 62
     0
370
     0
100
AcDbLine
 10
465.082575
 20
1443.136099
 30
0.0
 11
450.212052
 21
1454.834084
 31
0.0
  0
LWPOLYLINE
  5
1DB
330
1B7
100
AcDbEntity
  8
0
  6
Continuous
 62
     0
370
    30
100
AcDbPolyline
 90
       22
 70
     0
 43
0.0
 10
464.082581
 20
1328.076782
 10
464.044373
 20
1328.076782
 10
463.930084
 20
1328.076782
 10
463.740204
 20
1328.076782
 10
463.475708
 20
1328.076782
 10
463.138031
 20
1328.076782
 10
462.72876
 20
1328.076782
 10
462.250061
 20
1328.076782
 10
461.704407
 20
1328.076782
 10
461.094421
 20
1328.076782
 10
460.423401
 20
1328.076782
 10
459.694611
 20
1328.076782
 10
458.911835
 20
1328.076782
 10
458.079041
 20
1328.076782
 10
457.200378
 20
1328.076782
 10
456.280457
 20
1328.076782
 10
455.324036
 20
1328.076782
 10
454.335846
 20
1328.076782
 10
453.320801
 20
1328.076782
 10
452.283752
 20
1328.076782
 10
451.230469
 20
1328.076782
 10
450.141449
 20
1328.076782
  0
ARC
  5
1DC
330
1B7
100
AcDbEntity
  8
0
  6
Continuous
 62
     0
370
    30
100
AcDbCircle
 10
464.082575
 20
1329.076755
 30
0.0
 40
1.000000000000508
100
AcDbArc
 50
270.0
 51
360.0
  0
ARC
  5
1DD
330
1B7
100
AcDbEntity
  8
0
  6
Continuous
 62
     0
370
    30
100
AcDbCircle
 10
464.082575
 20
1443.136099
 30
0.0
 40
0.9999999999994507
100
AcDbArc
 50
0.0
 51
50.0
  0
LWPOLYLINE
  5
1DE
330
1B7
100
AcDbEntity
  8
0
  6
Continuous
 62
     0
370
     0
100
AcDbPolyline
 90
        7
 70
     0
 43
0.0
 10
450.784241
 20
1455.600098
 10
450.774658
 20
1455.567993
 10
450.726166
 20
1455.490723
 10
450.641754
 20
1455.373169
 10
450.526611
 20
1455.222534
 10
450.387573
 20
1455.047607
 10
450.212067
 20
1454.834106
  0
LINE
  5
1DF
330
1B7
100
AcDbEntity
  8
0
  6
Continuous
 62
     0
370
     0
100
AcDbLine
 10
410.082576
 20
1489.875722
 30
0.0
 11
412.082576
 21
1489.875722
 31
0.0
  0
LINE
  5
1E0
330
1B7
100
AcDbEntity
  8
0
  6
Continuous
 62
     0
370
    30
100
AcDbLine
 10
412.082576
 20
1489.875722
 30
0.0
 11
412.082576
 21
1490.375722
 31
0.0
  0
LINE
  5
1E1
330
1B7
100
AcDbEntity
  8
0
  6
Continuous
 62
     0
370
    30
100
AcDbLine
 10
412.082576
 20
1490.375722
 30
0.0
 11
410.082576
 21
1490.375722
 31
0.0
  0
LINE
  5
1E2
330
1B7
100
AcDbEntity
  8
0
  6
Continuous
 62
     0
370
    30
100
AcDbLine
 10
410.082576
 20
1490.375722
 30
0.0
 11
410.082576
 21
1489.875722
 31
0.0
  0
LINE
  5
1E3
330
1B7
100
AcDbEntity
  8
0
  6
Continuous
 62
     0
370
    30
100
AcDbLine
 10
410.082576
 20
1325.775722
 30
0.0
 11
412.082576
 21
1325.775722
 31
0.0
  0
LINE
  5
1E4
330
1B7
100
AcDbEntity
  8
0
  6
Continuous
 62
     0
370
    30
100
AcDbLine
 10
412.082576
 20
1325.775722
 30
0.0
 11
412.082576
 21
1326.275722
 31
0.0
  0
LINE
  5
1E5
330
1B7
100
AcDbEntity
  8
0
  6
Continuous
 62
     0
370
     0
100
AcDbLine
 10
412.082576
 20
1326.275722
 30
0.0
 11
410.082576
 21
1326.275722
 31
0.0
  0
LINE
  5
1E6
330
1B7
100
AcDbEntity
  8
0
  6
Continuous
 62
     0
370
    30
100
AcDbLine
 10
410.082576
 20
1326.275722
 30
0.0
 11
410.082576
 21
1325.775722
 31
0.0
  0
LINE
  5
1E7
330
1B7
100
AcDbEntity
  8
0
  6
Continuous
 62
     0
370
    30
100
AcDbLine
 10
412.082576
 20
1326.275722
 30
0.0
 11
412.082576
 21
1489.875722
 31
0.0
  0
LINE
  5
1E8
330
1B7
100
AcDbEntity
  8
0
  6
Continuous
 62
     0
370
    30
100
AcDbLine
 10
410.082576
 20
1489.875722
 30
0.0
 11
410.082576
 21
1326.275722
 31
0.0
  0
LINE
  5
1E9
330
1B7
100
AcDbEntity
  8
0
  6
Continuous
 62
     0
370
     0
100
AcDbLine
 10
439.082575
 20
1303.596603
 30
0.0
 11
449.082575
 21
1303.596603
 31
0.0
  0
LINE
  5
1EA
330
1B7
100
AcDbEntity
  8
0
  6
Continuous
 62
     0
370
     0
100
AcDbLine
 10
449.082575
 20
1303.596603
 30
0.0
 11
459.082575
 21
1303.596603
 31
0.0
  0
LWPOLYLINE
  5
1EB
330
1B7
100
AcDbEntity
  8
0
  6
Continuous
 62
     0
370
     0
100
AcDbPolyline
 90
       19
 70
     0
 43
0.0
 10
479.78067
 20
1263.602661
 10
479.780121
 20
1263.634521
 10
479.778381
 20
1263.733521
 10
479.775391
 20
1263.904663
 10
479.771088
 20
1264.151367
 10
479.765442
 20
1264.47583
 10
479.758392
 20
1264.878296
 10
479.750061
 20
1265.357178
 10
479.740417
 20
1265.908813
 10
479.729614
 20
1266.527588
 10
479.717773
 20
1267.206177
 10
479.705048
 20
1267.935547
 10
479.691589
 20
1268.705688
 10
479.677643
 20
1269.505981
 10
479.66333
 20
1270.325439
 10
479.648865
 20
1271.153442
 10
479.63446
 20
1271.979858
 10
479.620209
 20
1272.795532
 10
479.60614
 20
1273.601196
  0
LINE
  5
1EC
330
1B7
100
AcDbEntity
  8
0
  6
Continuous
 62
     0
370
     0
100
AcDbLine
 10
479.606147
 20
1273.601172
 30
0.0
 11
479.431623
 21
1283.599649
 31
0.0
  0
LINE
  5
1ED
330
1B7
100
AcDbEntity
  8
0
  6
Continuous
 62
     0
370
     0
100
AcDbLine
 10
479.606147
 20
1273.601172
 30
0.0
 11
769.99372
 21
1278.669906
 31
0.0
  0
LINE
  5
1EE
330
1B7
100
AcDbEntity
  8
0
  6
Continuous
 62
     0
370
     0
100
AcDbLine
 10
769.99372
 20
1278.669906
 30
0.0
 11
769.819196
 21
1288.668383
 31
0.0
  0
LWPOLYLINE
  5
1EF
330
1B7
100
AcDbEntity
  8
0
  6
Continuous
 62
     0
370
     0
100
AcDbPolyline
 90
       19
 70
     0
 43
0.0
 10
770.168274
 20
1268.671387
 10
770.167603
 20
1268.709473
 10
770.165588
 20
1268.822876
 10
770.162292
 20
1269.011108
 10
770.157776
 20
1269.272705
 10
770.151917
 20
1269.605469
 10
770.144958
 20
1270.00708
 10
770.13678
 20
1270.474365
 10
770.127502
 20
1271.003906
 10
770.117249
 20
1271.591553
 10
770.106079
 20
1272.23291
 10
770.094055
 20
1272.923218
 10
770.081238
 20
1273.657104
 10
770.067749
 20
1274.428833
 10
770.053711
 20
1275.232666
 10
770.039246
 20
1276.062744
 10
770.024353
 20
1276.913574
 10
770.009277
 20
1277.777466
 10
769.993713
 20
1278.669922
  0
LWPOLYLINE
  5
1F0
330
1B7
100
AcDbEntity
  8
0
  6
Continuous
 62
     0
370
    30
100
AcDbPolyline
 90
       28
 70
     0
 43
0.0
 10
728.877686
 20
1267.950073
 10
728.421143
 20
1267.944702
 10
727.991394
 20
1267.947388
 10
727.594604
 20
1267.961548
 10
727.238037
 20
1267.991333
 10
726.929199
 20
1268.041382
 10
726.675476
 20
1268.116211
 10
726.483643
 20
1268.21936
 10
726.356873
 20
1268.350952
 10
726.297668
 20
1268.510132
 10
726.308472
 20
1268.696045
 10
726.389282
 20
1268.904907
 10
726.537109
 20
1269.129395
 10
726.748901
 20
1269.362183
 10
727.020325
 20
1269.595703
 10
727.34436
 20
1269.823364
 10
727.713562
 20
1270.038208
 10
728.120483
 20
1270.233521
 10
728.558167
 20
1270.404297
 10
729.020691
 20
1270.54895
 10
729.502319
 20
1270.666748
 10
729.997253
 20
1270.75647
 10
730.500366
 20
1270.817749
 10
731.008301
 20
1270.851685
 10
731.518066
 20
1270.859375
 10
732.02655
 20
1270.842407
 10
732.530701
 20
1270.802002
 10
733.041748
 20
1270.737305
  0
LWPOLYLINE
  5
1F1
330
1B7
100
AcDbEntity
  8
0
  6
Continuous
 62
     0
370
    30
100
AcDbPolyline
 90
        8
 70
     0
 43
0.0
 10
733.041748
 20
1270.737305
 10
733.61499
 20
1270.637085
 10
734.176392
 20
1270.511597
 10
734.72229
 20
1270.362305
 10
735.249084
 20
1270.191162
 10
735.750977
 20
1270.000122
 10
736.21637
 20
1269.79187
 10
736.686035
 20
1269.536865
  0
LWPOLYLINE
  5
1F2
330
1B7
100
AcDbEntity
  8
0
  6
Continuous
 62
     0
370
    30
100
AcDbPolyline
 90
        3
 70
     0
 43
0.0
 10
736.686035
 20
1269.536865
 10
736.955078
 20
1269.356567
 10
737.192871
 20
1269.153198
  0
LWPOLYLINE
  5
1F3
330
1B7
100
AcDbEntity
  8
0
  6
Continuous
 62
     0
370
     0
100
AcDbPolyline
 90
       17
 70
     0
 43
0.0
 10
733.041748
 20
1270.737305
 10
732.661377
 20
1270.458374
 10
732.271667
 20
1270.146118
 10
731.879639
 20
1269.80603
 10
731.492249
 20
1269.444214
 10
731.116272
 20
1269.067017
 10
730.758484
 20
1268.681152
 10
730.425171
 20
1268.293457
 10
730.122253
 20
1267.910889
 10
729.855164
 20
1267.540039
 10
729.62854
 20
1267.187744
 10
729.446472
 20
1266.859985
 10
729.312195
 20
1266.562866
 10
729.228027
 20
1266.301392
 10
729.195557
 20
1266.080322
 10
729.215271
 20
1265.903564
 10
729.29303
 20
1265.767944
  0
LWPOLYLINE
  5
1F4
330
1B7
100
AcDbEntity
  8
0
  6
Continuous
 62
     0
370
     0
100
AcDbPolyline
 90
       22
 70
     0
 43
0.0
 10
765.319885
 20
1240.540527
 10
765.108398
 20
1240.532837
 10
764.85022
 20
1240.468994
 10
764.550354
 20
1240.350098
 10
764.214661
 20
1240.178711
 10
763.849609
 20
1239.957886
 10
763.462219
 20
1239.692017
 10
763.06012
 20
1239.38623
 10
762.65094
 20
1239.046509
 10
762.242737
 20
1238.679443
 10
761.843323
 20
1238.291992
 10
761.46051
 20
1237.891846
 10
761.101685
 20
1237.486572
 10
760.773804
 20
1237.084229
 10
760.483154
 20
1236.692505
 10
760.235474
 20
1236.318848
 10
760.035461
 20
1235.970703
 10
759.887085
 20
1235.654785
 10
759.793152
 20
1235.377075
 10
759.755493
 20
1235.143066
 10
759.774841
 20
1234.957397
 10
759.8526
 20
1234.821533
  0
LWPOLYLINE
  5
1F5
330
1B7
100
AcDbEntity
  8
0
  6
Continuous
 62
     0
370
     0
100
AcDbPolyline
 90
        3
 70
     0
 43
0.0
 10
765.544922
 20
1240.442749
 10
765.482666
 20
1240.490723
 10
765.319885
 20
1240.540527
  0
LWPOLYLINE
  5
1F6
330
1B7
100
AcDbEntity
  8
0
  6
Continuous
 62
     0
370
     0
100
AcDbPolyline
 90
        4
 70
     0
 43
0.0
 10
830.525024
 20
1272.630493
 10
830.611023
 20
1272.611694
 10
830.671997
 20
1272.589722
 10
830.717407
 20
1272.543213
  0
LWPOLYLINE
  5
1F7
330
1B7
100
AcDbEntity
  8
0
  6
Continuous
 62
     0
370
     0
100
AcDbPolyline
 90
       22
 70
     0
 43
0.0
 10
822.768188
 20
1271.643311
 10
822.798767
 20
1271.696045
 10
822.901062
 20
1271.755859
 10
823.073059
 20
1271.821899
 10
823.311768
 20
1271.892822
 10
823.612793
 20
1271.967529
 10
823.970642
 20
1272.044312
 10
824.378906
 20
1272.12207
 10
824.830078
 20
1272.199341
 10
825.315979
 20
1272.274658
 10
825.82782
 20
1272.34668
 10
826.356262
 20
1272.414185
 10
826.891724
 20
1272.475708
 10
827.4245
 20
1272.530396
 10
827.944885
 20
1272.577026
 10
828.44342
 20
1272.61499
 10
828.911072
 20
1272.643433
 10
829.339355
 20
1272.661865
 10
829.720459
 20
1272.670044
 10
830.047485
 20
1272.667603
 10
830.314453
 20
1272.654907
 10
830.525024
 20
1272.630493
  0
LWPOLYLINE
  5
1F8
330
1B7
100
AcDbEntity
  8
0
  6
Continuous
 62
     0
370
     0
100
AcDbPolyline
 90
        4
 70
     0
 43
0.0
 10
829.543274
 20
1281.30249
 10
829.629211
 20
1281.283813
 10
829.690247
 20
1281.261719
 10
829.735657
 20
1281.215332
  0
LWPOLYLINE
  5
1F9
330
1B7
100
AcDbEntity
  8
0
  6
Continuous
 62
     0
370
     0
100
AcDbPolyline
 90
       22
 70
     0
 43
0.0
 10
821.786438
 20
1280.315308
 10
821.817017
 20
1280.368042
 10
821.919312
 20
1280.427979
 10
822.091309
 20
1280.494019
 10
822.330017
 20
1280.564941
 10
822.631042
 20
1280.639526
 10
822.988892
 20
1280.716431
 10
823.397156
 20
1280.794189
 10
823.848267
 20
1280.871338
 10
824.334229
 20
1280.946655
 10
824.846069
 20
1281.018677
 10
825.374512
 20
1281.086182
 10
825.909973
 20
1281.147705
 10
826.442749
 20
1281.202393
 10
826.963135
 20
1281.249146
 10
827.46167
 20
1281.286987
 10
827.929321
 20
1281.31543
 10
828.357605
 20
1281.333862
 10
828.738708
 20
1281.342041
 10
829.065735
 20
1281.339722
 10
829.332703
 20
1281.326904
 10
829.543274
 20
1281.30249
  0
LWPOLYLINE
  5
1FA
330
1B7
100
AcDbEntity
  8
0
  6
Continuous
 62
     0
370
    30
100
AcDbPolyline
 90
       11
 70
     0
 43
0.0
 10
775.918823
 20
1268.771851
 10
775.935852
 20
1268.798706
 10
775.986389
 20
1268.87915
 10
776.069519
 20
1269.012085
 10
776.183411
 20
1269.196045
 10
776.325317
 20
1269.428467
 10
776.49231
 20
1269.706543
 10
776.681335
 20
1270.02771
 10
776.889038
 20
1270.389526
 10
777.111877
 20
1270.789673
 10
777.37384
 20
1271.278076
  0
LINE
  5
1FB
330
1B7
100
AcDbEntity
  8
0
  6
Continuous
 62
     0
370
     0
100
AcDbLine
 10
777.373844
 20
1271.278132
 30
0.0
 11
777.242611
 21
1278.796434
 31
0.0
  0
LINE
  5
1FC
330
1B7
100
AcDbEntity
  8
0
  6
Continuous
 62
     0
370
     0
100
AcDbLine
 10
777.242611
 20
1278.796434
 30
0.0
 11
777.111379
 21
1286.314736
 31
0.0
  0
LWPOLYLINE
  5
1FD
330
1B7
100
AcDbEntity
  8
0
  6
Continuous
 62
     0
370
    30
100
AcDbPolyline
 90
       11
 70
     0
 43
0.0
 10
777.111389
 20
1286.314697
 10
776.860901
 20
1286.745972
 10
776.622559
 20
1287.142212
 10
776.400269
 20
1287.501099
 10
776.197632
 20
1287.820312
 10
776.018127
 20
1288.097412
 10
775.864929
 20
1288.329956
 10
775.741089
 20
1288.515503
 10
775.649536
 20
1288.651367
 10
775.592102
 20
1288.736084
 10
775.569824
 20
1288.768799
  0
ARC
  5
1FE
330
1B7
100
AcDbEntity
  8
0
  6
Continuous
 62
     0
370
    30
100
AcDbCircle
 10
819.736723
 20
1310.525955
 30
0.0
 40
49.02145522439827
100
AcDbArc
 50
209.596599
 51
210.962672
  0
ARC
  5
1FF
330
1B7
100
AcDbEntity
  8
0
  6
Continuous
 62
     0
370
    30
100
AcDbCircle
 10
820.818181
 20
1248.569264
 30
0.0
 40
49.02145530471221
100
AcDbArc
 50
151.037328
 51
152.403401
  0
LWPOLYLINE
  5
200
330
1B7
100
AcDbEntity
  8
0
  6
Continuous
 62
     0
370
    30
100
AcDbPolyline
 90
        6
 70
     0
 43
0.0
 10
781.827637
 20
1273.189453
 10
782.020203
 20
1272.966187
 10
782.229797
 20
1272.765503
 10
782.461304
 20
1272.600952
 10
782.710571
 20
1272.472168
 10
782.990967
 20
1272.395752
  0
LINE
  5
201
330
1B7
100
AcDbEntity
  8
0
  6
Continuous
 62
     0
370
    30
100
AcDbLine
 10
782.990939
 20
1272.395781
 30
0.0
 11
805.60328
 21
1272.790481
 31
0.0
  0
LINE
  5
202
330
1B7
100
AcDbEntity
  8
0
  6
Continuous
 62
     0
370
    30
100
AcDbLine
 10
805.376398
 20
1285.788501
 30
0.0
 11
782.7598
 21
1285.393727
 31
0.0
  0
LWPOLYLINE
  5
203
330
1B7
100
AcDbEntity
  8
0
  6
Continuous
 62
     0
370
    30
100
AcDbPolyline
 90
        6
 70
     0
 43
0.0
 10
782.759827
 20
1285.393677
 10
782.496033
 20
1285.312256
 10
782.25177
 20
1285.17688
 10
782.026367
 20
1285.006348
 10
781.823608
 20
1284.800903
 10
781.62915
 20
1284.559937
  0
LINE
  5
204
330
1B7
100
AcDbEntity
  8
0
  6
Continuous
 62
     0
370
     0
100
AcDbLine
 10
781.629142
 20
1284.559967
 30
0.0
 11
781.827615
 21
1273.189499
 31
0.0
  0
LWPOLYLINE
  5
205
330
1B7
100
AcDbEntity
  8
0
  6
Continuous
 62
     0
370
    30
100
AcDbPolyline
 90
       11
 70
     0
 43
0.0
 10
779.960327
 20
1272.342896
 10
780.227539
 20
1272.347656
 10
780.512451
 20
1272.352417
 10
780.810486
 20
1272.357422
 10
781.117249
 20
1272.363647
 10
781.42865
 20
1272.36792
 10
781.739807
 20
1272.37561
 10
782.048828
 20
1272.376343
 10
782.352661
 20
1272.38623
 10
782.656311
 20
1272.390015
 10
782.990967
 20
1272.395752
  0
LWPOLYLINE
  5
206
330
1B7
100
AcDbEntity
  8
0
  6
Continuous
 62
     0
370
     0
100
AcDbPolyline
 90
        8
 70
     0
 43
0.0
 10
781.827637
 20
1273.189331
 10
781.628479
 20
1273.232178
 10
781.438721
 20
1273.341797
 10
781.266174
 20
1273.49707
 10
781.111206
 20
1273.68103
 10
780.972107
 20
1273.883789
 10
780.846619
 20
1274.099121
 10
780.731323
 20
1274.326782
  0
LWPOLYLINE
  5
207
330
1B7
100
AcDbEntity
  8
0
  6
Continuous
 62
     0
370
     0
100
AcDbPolyline
 90
        5
 70
     0
 43
0.0
 10
780.731323
 20
1274.326782
 10
780.360779
 20
1273.92627
 10
780.035156
 20
1273.535034
 10
779.761536
 20
1273.161743
 10
779.535522
 20
1272.795654
  0
ARC
  5
208
330
1B7
100
AcDbEntity
  8
0
  6
Continuous
 62
     0
370
     0
100
AcDbCircle
 10
784.037092
 20
1276.593299
 30
0.0
 40
5.889484249497212
100
AcDbArc
 50
220.151969
 51
226.194693
  0
LINE
  5
209
330
1B7
100
AcDbEntity
  8
0
  6
Continuous
 62
     0
370
    30
100
AcDbLine
 10
779.543573
 20
1272.335607
 30
0.0
 11
779.960315
 21
1272.342881
 31
0.0
  0
LINE
  5
20A
330
1B7
100
AcDbEntity
  8
0
  6
Continuous
 62
     0
370
    30
100
AcDbLine
 10
777.927576
 20
1272.3074
 30
0.0
 11
779.543573
 21
1272.335607
 31
0.0
  0
LWPOLYLINE
  5
20B
330
1B7
100
AcDbEntity
  8
0
  6
Continuous
 62
     0
370
     0
100
AcDbPolyline
 90
        5
 70
     0
 43
0.0
 10
779.324707
 20
1284.873535
 10
779.54895
 20
1284.5354
 10
779.832275
 20
1284.172974
 10
780.16864
 20
1283.794067
 10
780.573181
 20
1283.385132
  0
LWPOLYLINE
  5
20C
330
1B7
100
AcDbEntity
  8
0
  6
Continuous
 62
     0
370
     0
100
AcDbPolyline
 90
        8
 70
     0
 43
0.0
 10
780.573181
 20
1283.385132
 10
780.678833
 20
1283.613281
 10
780.796509
 20
1283.833008
 10
780.928162
 20
1284.040649
 10
781.076294
 20
1284.230225
 10
781.243042
 20
1284.391846
 10
781.428467
 20
1284.508911
 10
781.62915
 20
1284.560181
  0
LWPOLYLINE
  5
20D
330
1B7
100
AcDbEntity
  8
0
  6
Continuous
 62
     0
370
    30
100
AcDbPolyline
 90
       11
 70
     0
 43
0.0
 10
782.759827
 20
1285.393677
 10
782.44696
 20
1285.387939
 10
782.14447
 20
1285.382202
 10
781.841614
 20
1285.380737
 10
781.534119
 20
1285.370483
 10
781.224121
 20
1285.367676
 10
780.913696
 20
1285.36084
 10
780.607422
 20
1285.356445
 10
780.30957
 20
1285.351074
 10
780.024414
 20
1285.345947
 10
779.733459
 20
1285.340942
  0
ARC
  5
20E
330
1B7
100
AcDbEntity
  8
0
  6
Continuous
 62
     0
370
     0
100
AcDbCircle
 10
783.958493
 20
1281.233157
 30
0.0
 40
5.892748164859757
100
AcDbArc
 50
135.806439
 51
141.845843
  0
LINE
  5
20F
330
1B7
100
AcDbEntity
  8
0
  6
Continuous
 62
     0
370
    30
100
AcDbLine
 10
777.700695
 20
1285.30542
 30
0.0
 11
779.316692
 21
1285.333627
 31
0.0
  0
LINE
  5
210
330
1B7
100
AcDbEntity
  8
0
  6
Continuous
 62
     0
370
    30
100
AcDbLine
 10
779.316692
 20
1285.333627
 30
0.0
 11
779.733437
 21
1285.340901
 31
0.0
  0
LINE
  5
211
330
1B7
100
AcDbEntity
  8
0
  6
Continuous
 62
     0
370
     0
100
AcDbLine
 10
779.535543
 20
1272.795659
 30
0.0
 11
779.543573
 21
1272.335607
 31
0.0
  0
LWPOLYLINE
  5
212
330
1B7
100
AcDbEntity
  8
0
  6
Continuous
 62
     0
370
     0
100
AcDbPolyline
 90
        6
 70
     0
 43
0.0
 10
777.830688
 20
1276.824219
 10
778.114136
 20
1276.002441
 10
778.447266
 20
1275.20166
 10
778.807556
 20
1274.41333
 10
779.173401
 20
1273.626099
 10
779.535522
 20
1272.795654
  0
ARC
  5
213
330
1B7
100
AcDbEntity
  8
0
  6
Continuous
 62
     0
370
     0
100
AcDbCircle
 10
1249.722395
 20
1418.596646
 30
0.0
 40
492.7283679067293
100
AcDbArc
 50
196.482755
 51
196.722073
  0
ARC
  5
214
330
1B7
100
AcDbEntity
  8
0
  6
Continuous
 62
     0
370
     0
100
AcDbCircle
 10
692.72448
 20
1183.806576
 30
0.0
 40
127.1471106811906
100
AcDbArc
 50
47.542005
 51
48.338606
  0
LINE
  5
215
330
1B7
100
AcDbEntity
  8
0
  6
Continuous
 62
     0
370
     0
100
AcDbLine
 10
778.512945
 20
1280.025741
 30
0.0
 11
778.555074
 21
1277.612209
 31
0.0
  0
ARC
  5
216
330
1B7
100
AcDbEntity
  8
0
  6
Continuous
 62
     0
370
     0
100
AcDbCircle
 10
689.460714
 20
1370.778945
 30
0.0
 40
127.147331491021
100
AcDbArc
 50
313.661394
 51
314.457994
  0
LWPOLYLINE
  5
217
330
1B7
100
AcDbEntity
  8
0
  6
Continuous
 62
     0
370
     0
100
AcDbPolyline
 90
        8
 70
     0
 43
0.0
 10
780.731323
 20
1274.326782
 10
780.48407
 20
1274.811523
 10
780.209717
 20
1275.283081
 10
779.910095
 20
1275.740601
 10
779.590515
 20
1276.187134
 10
779.258362
 20
1276.627441
 10
778.924866
 20
1277.069214
 10
778.555054
 20
1277.612183
  0
LWPOLYLINE
  5
218
330
1B7
100
AcDbEntity
  8
0
  6
Continuous
 62
     0
370
     0
100
AcDbPolyline
 90
        8
 70
     0
 43
0.0
 10
778.512939
 20
1280.025757
 10
778.805481
 20
1280.495728
 10
779.121399
 20
1280.950073
 10
779.439209
 20
1281.401001
 10
779.74585
 20
1281.856567
 10
780.033508
 20
1282.321655
 10
780.296143
 20
1282.799683
 10
780.573181
 20
1283.385132
  0
LINE
  5
219
330
1B7
100
AcDbEntity
  8
0
  6
Continuous
 62
     0
370
     0
100
AcDbLine
 10
779.324722
 20
1284.873575
 30
0.0
 11
779.316692
 21
1285.333627
 31
0.0
  0
ARC
  5
21A
330
1B7
100
AcDbEntity
  8
0
  6
Continuous
 62
     0
370
     0
100
AcDbCircle
 10
1253.369099
 20
1155.816738
 30
0.0
 40
491.752414587488
100
AcDbArc
 50
165.277689
 51
165.517483
  0
LWPOLYLINE
  5
21B
330
1B7
100
AcDbEntity
  8
0
  6
Continuous
 62
     0
370
     0
100
AcDbPolyline
 90
        6
 70
     0
 43
0.0
 10
779.324707
 20
1284.873535
 10
779.005859
 20
1284.064941
 10
778.66803
 20
1283.265503
 10
778.334961
 20
1282.465698
 10
778.028381
 20
1281.654663
 10
777.761475
 20
1280.788086
  0
LINE
  5
21C
330
1B7
100
AcDbEntity
  8
0
  6
Continuous
 62
     0
370
     0
100
AcDbLine
 10
777.761473
 20
1280.788029
 30
0.0
 11
778.512945
 21
1280.025741
 31
0.0
  0
LINE
  5
21D
330
1B7
100
AcDbEntity
  8
0
  6
Continuous
 62
     0
370
     0
100
AcDbLine
 10
778.555074
 20
1277.612209
 30
0.0
 11
777.830663
 21
1276.824159
 31
0.0
  0
LINE
  5
21E
330
1B7
100
AcDbEntity
  8
0
  6
Continuous
 62
     0
370
    30
100
AcDbLine
 10
805.376398
 20
1285.788501
 30
0.0
 11
805.60328
 21
1272.790481
 31
0.0
  0
LINE
  5
21F
330
1B7
100
AcDbEntity
  8
0
  6
Continuous
 62
     0
370
    30
100
AcDbLine
 10
770.168244
 20
1268.671427
 30
0.0
 11
775.918765
 21
1268.771802
 31
0.0
  0
LINE
  5
220
330
1B7
100
AcDbEntity
  8
0
  6
Continuous
 62
     0
370
    30
100
AcDbLine
 10
769.819196
 20
1288.668381
 30
0.0
 11
775.569728
 21
1288.768757
 31
0.0
  0
LWPOLYLINE
  5
221
330
1B7
100
AcDbEntity
  8
0
  6
Continuous
 62
     0
370
    30
100
AcDbPolyline
 90
       32
 70
     0
 43
0.0
 10
829.735657
 20
1281.215332
 10
829.615906
 20
1282.612915
 10
829.572388
 20
1284.015503
 10
829.605469
 20
1285.418457
 10
829.714966
 20
1286.817261
 10
829.90033
 20
1288.208008
 10
830.161133
 20
1289.586792
 10
830.496643
 20
1290.949585
 10
830.906006
 20
1292.292236
 10
831.387939
 20
1293.610962
 10
831.941101
 20
1294.901611
 10
832.563599
 20
1296.160767
 10
833.253662
 20
1297.384521
 10
834.009521
 20
1298.569214
 10
834.828918
 20
1299.711426
 10
835.709351
 20
1300.807739
 10
836.648315
 20
1301.85498
 10
837.643005
 20
1302.850098
 10
838.69043
 20
1303.790039
 10
839.787659
 20
1304.672119
 10
840.931396
 20
1305.493652
 10
842.118225
 20
1306.252319
 10
843.344666
 20
1306.946045
 10
844.607178
 20
1307.572388
 10
845.902039
 20
1308.129761
 10
847.225281
 20
1308.616333
 10
848.573181
 20
1309.030762
 10
849.94165
 20
1309.371948
 10
851.326904
 20
1309.638794
 10
852.724915
 20
1309.830444
 10
854.131287
 20
1309.946411
 10
855.572205
 20
1309.986206
  0
LWPOLYLINE
  5
222
330
1B7
100
AcDbEntity
  8
0
  6
Continuous
 62
     0
370
    30
100
AcDbPolyline
 90
       26
 70
     0
 43
0.0
 10
821.786438
 20
1280.315308
 10
821.643005
 20
1281.927368
 10
821.576965
 20
1283.544556
 10
821.588684
 20
1285.162842
 10
821.67804
 20
1286.778809
 10
821.844666
 20
1288.388672
 10
822.088135
 20
1289.98877
 10
822.407959
 20
1291.575439
 10
822.803589
 20
1293.14502
 10
823.274048
 20
1294.694092
 10
823.818237
 20
1296.218872
 10
824.434998
 20
1297.715942
 10
825.122681
 20
1299.182007
 10
825.8797
 20
1300.61377
 10
826.704407
 20
1302.007812
 10
827.595154
 20
1303.360962
 10
828.549744
 20
1304.670044
 10
829.565918
 20
1305.932373
 10
830.641479
 20
1307.144775
 10
831.773926
 20
1308.304565
 10
832.960632
 20
1309.40918
 10
834.198853
 20
1310.456055
 10
835.485962
 20
1311.442627
 10
836.818787
 20
1312.366943
 10
838.194336
 20
1313.226807
 10
839.6297
 20
1314.031128
  0
LINE
  5
223
330
1B7
100
AcDbEntity
  8
0
  6
Continuous
 62
     0
370
    30
100
AcDbLine
 10
830.717421
 20
1272.543256
 30
0.0
 11
829.735664
 21
1281.215288
 31
0.0
  0
LINE
  5
224
330
1B7
100
AcDbEntity
  8
0
  6
Continuous
 62
     0
370
    30
100
AcDbLine
 10
822.768199
 20
1271.643328
 30
0.0
 11
821.786442
 21
1280.315359
 31
0.0
  0
LWPOLYLINE
  5
225
330
1B7
100
AcDbEntity
  8
0
  6
Continuous
 62
     0
370
    30
100
AcDbPolyline
 90
       16
 70
     0
 43
0.0
 10
765.544922
 20
1240.442749
 10
766.632141
 20
1239.390015
 10
767.76239
 20
1238.390137
 10
768.933411
 20
1237.444946
 10
770.142883
 20
1236.556396
 10
771.388489
 20
1235.725952
 10
772.667847
 20
1234.955078
 10
773.978394
 20
1234.245239
 10
775.31781
 20
1233.5979
 10
776.683472
 20
1233.01416
 10
778.072754
 20
1232.494995
 10
779.483032
 20
1232.041382
 10
780.911682
 20
1231.654175
 10
782.356079
 20
1231.334106
 10
783.813416
 20
1231.081787
 10
785.393494
 20
1230.886353
  0
LWPOLYLINE
  5
226
330
1B7
100
AcDbEntity
  8
0
  6
Continuous
 62
     0
370
    30
100
AcDbPolyline
 90
       59
 70
     0
 43
0.0
 10
759.8526
 20
1234.821533
 10
761.149414
 20
1233.563965
 10
762.497375
 20
1232.365723
 10
763.893738
 20
1231.229492
 10
765.335999
 20
1230.157104
 10
766.821716
 20
1229.150635
 10
768.348083
 20
1228.211914
 10
769.912476
 20
1227.342773
 10
771.511902
 20
1226.5448
 10
773.143555
 20
1225.819336
 10
774.804443
 20
1225.168091
 10
776.491516
 20
1224.591919
 10
778.201599
 20
1224.091919
 10
779.931641
 20
1223.669067
 10
781.678467
 20
1223.324341
 10
783.438904
 20
1223.05835
 10
785.209656
 20
1222.871338
 10
786.987488
 20
1222.763672
 10
788.769104
 20
1222.735596
 10
790.55127
 20
1222.787354
 10
792.33075
 20
1222.918701
 10
794.104309
 20
1223.129272
 10
795.868591
 20
1223.418701
 10
797.620422
 20
1223.786377
 10
799.356567
 20
1224.231934
 10
801.073975
 20
1224.754272
 10
802.76947
 20
1225.352173
 10
804.440063
 20
1226.024658
 10
806.082642
 20
1226.770508
 10
807.694092
 20
1227.588501
 10
809.271667
 20
1228.477051
 10
810.812683
 20
1229.434448
 10
812.314331
 20
1230.458618
 10
813.773926
 20
1231.547852
 10
815.188721
 20
1232.700195
 10
816.556213
 20
1233.913818
 10
817.874023
 20
1235.186279
 10
819.139893
 20
1236.515137
 10
820.351624
 20
1237.897949
 10
821.506958
 20
1239.33252
 10
822.60376
 20
1240.81604
 10
823.640198
 20
1242.345947
 10
824.614685
 20
1243.919312
 10
825.525269
 20
1245.533325
 10
826.370361
 20
1247.185181
 10
827.148376
 20
1248.87207
 10
827.858093
 20
1250.590698
 10
828.498352
 20
1252.338135
 10
829.068054
 20
1254.111084
 10
829.565979
 20
1255.906616
 10
829.991211
 20
1257.721558
 10
830.343201
 20
1259.55249
 10
830.621216
 20
1261.39624
 10
830.824768
 20
1263.24939
 10
830.953491
 20
1265.108765
 10
831.007202
 20
1266.971069
 10
830.985718
 20
1268.833008
 10
830.889099
 20
1270.691406
 10
830.717407
 20
1272.543213
  0
LWPOLYLINE
  5
227
330
1B7
100
AcDbEntity
  8
0
  6
Continuous
 62
     0
370
    30
100
AcDbPolyline
 90
       40
 70
     0
 43
0.0
 10
785.393494
 20
1230.886353
 10
786.942322
 20
1230.772461
 10
788.496399
 20
1230.734131
 10
790.052002
 20
1230.771973
 10
791.605774
 20
1230.885498
 10
793.154724
 20
1231.074707
 10
794.695618
 20
1231.339111
 10
796.22522
 20
1231.678467
 10
797.740356
 20
1232.092041
 10
799.237732
 20
1232.578857
 10
800.714294
 20
1233.138062
 10
802.16687
 20
1233.768555
 10
803.592346
 20
1234.469116
 10
804.987732
 20
1235.238403
 10
806.349915
 20
1236.074707
 10
807.676086
 20
1236.976318
 10
808.963318
 20
1237.941406
 10
810.208862
 20
1238.96814
 10
811.409912
 20
1240.054199
 10
812.563965
 20
1241.197266
 10
813.668457
 20
1242.39502
 10
814.721008
 20
1243.64502
 10
815.719177
 20
1244.94458
 10
816.660767
 20
1246.290894
 10
817.543579
 20
1247.681152
 10
818.365967
 20
1249.112427
 10
819.126099
 20
1250.581421
 10
819.822388
 20
1252.084961
 10
820.453064
 20
1253.619995
 10
821.016663
 20
1255.183228
 10
821.511963
 20
1256.77124
 10
821.937988
 20
1258.380737
 10
822.293823
 20
1260.008057
 10
822.578613
 20
1261.649658
 10
822.791748
 20
1263.30188
 10
822.932861
 20
1264.961426
 10
823.001648
 20
1266.624634
 10
822.997925
 20
1268.288086
 10
822.92157
 20
1269.947998
 10
822.768188
 20
1271.643311
  0
LINE
  5
228
330
1B7
100
AcDbEntity
  8
0
  6
Continuous
 62
     0
370
    30
100
AcDbLine
 10
765.544911
 20
1240.442733
 30
0.0
 11
737.191794
 21
1269.154725
 31
0.0
  0
LINE
  5
229
330
1B7
100
AcDbEntity
  8
0
  6
Continuous
 62
     0
370
    30
100
AcDbLine
 10
729.293021
 20
1265.767942
 30
0.0
 11
759.852595
 21
1234.821565
 31
0.0
  0
ARC
  5
22A
330
1B7
100
AcDbEntity
  8
0
  6
Continuous
 62
     0
370
    30
100
AcDbCircle
 10
711.381774
 20
1248.064976
 30
0.0
 40
25.1834817856611
100
AcDbArc
 50
44.664922
 51
53.175514
  0
LINE
  5
22B
330
1B7
100
AcDbEntity
  8
0
  6
Continuous
 62
     0
370
    30
100
AcDbLine
 10
770.168244
 20
1268.671429
 30
0.0
 11
738.219742
 21
1268.113766
 31
0.0
  0
LINE
  5
22C
330
1B7
100
AcDbEntity
  8
0
  6
Continuous
 62
     0
370
    30
100
AcDbLine
 10
479.780671
 20
1263.602695
 30
0.0
 11
726.878397
 21
1267.915802
 31
0.0
  0
LINE
  5
22D
330
1B7
100
AcDbEntity
  8
0
  6
Continuous
 62
     0
370
    30
100
AcDbLine
 10
769.819196
 20
1288.668383
 30
0.0
 11
479.431623
 21
1283.599649
 31
0.0
  0
ARC
  5
22E
330
1B7
100
AcDbEntity
  8
0
  6
Continuous
 62
     0
370
    30
100
AcDbCircle
 10
479.082576
 20
1303.596604
 30
0.0
 40
40.00000071288455
100
AcDbArc
 50
180.000001
 51
270.999999
  0
ARC
  5
22F
330
1B7
100
AcDbEntity
  8
0
  6
Continuous
 62
     0
370
    30
100
AcDbCircle
 10
479.082575
 20
1303.596604
 30
0.0
 40
20.00000048861384
100
AcDbArc
 50
180.000001
 51
270.999999
  0
LINE
  5
230
330
1B7
100
AcDbEntity
  8
0
  6
Continuous
 62
     0
370
    30
100
AcDbLine
 10
439.082575
 20
1303.596603
 30
0.0
 11
439.082575
 21
1328.076759
 31
0.0
  0
LINE
  5
231
330
1B7
100
AcDbEntity
  8
0
  6
Continuous
 62
     0
370
    30
100
AcDbLine
 10
459.082575
 20
1303.596603
 30
0.0
 11
459.082575
 21
1328.076759
 31
0.0
  0
LINE
  5
232
330
1B7
100
AcDbEntity
  8
0
  6
Continuous
 62
     0
370
     0
100
AcDbLine
 10
604.389988
 20
1348.034496
 30
0.0
 11
604.389988
 21
1349.465114
 31
0.0
  0
LWPOLYLINE
  5
233
330
1B7
100
AcDbEntity
  8
0
  6
Continuous
 62
     0
370
     0
100
AcDbPolyline
 90
       59
 70
     0
 43
0.0
 10
604.390015
 20
1288.482666
 10
604.390015
 20
1288.518799
 10
604.390015
 20
1288.628418
 10
604.390015
 20
1288.813599
 10
604.390015
 20
1289.075439
 10
604.390015
 20
1289.414795
 10
604.390015
 20
1289.831909
 10
604.390015
 20
1290.326294
 10
604.390015
 20
1290.896973
 10
604.390015
 20
1291.542358
 10
604.390015
 20
1292.260132
 10
604.390015
 20
1293.047363
 10
604.390015
 20
1293.901001
 10
604.390015
 20
1294.816895
 10
604.390015
 20
1295.790771
 10
604.390015
 20
1296.818237
 10
604.390015
 20
1297.894043
 10
604.390015
 20
1299.013184
 10
604.390015
 20
1300.170288
 10
604.390015
 20
1301.359863
 10
604.390015
 20
1302.576538
 10
604.390015
 20
1303.814819
 10
604.390015
 20
1305.06958
 10
604.390015
 20
1306.335571
 10
604.390015
 20
1307.608032
 10
604.390015
 20
1308.882202
 10
604.390015
 20
1310.15625
 10
604.390015
 20
1311.459717
 10
604.390015
 20
1312.800781
 10
604.390015
 20
1314.176514
 10
604.390015
 20
1315.58374
 10
604.390015
 20
1317.018555
 10
604.390015
 20
1318.476807
 10
604.390015
 20
1319.954102
 10
604.390015
 20
1321.445435
 10
604.390015
 20
1322.945557
 10
604.390015
 20
1324.448975
 10
604.390015
 20
1325.949951
 10
604.390015
 20
1327.442505
 10
604.390015
 20
1328.920654
 10
604.390015
 20
1330.378418
 10
604.390015
 20
1331.809937
 10
604.390015
 20
1333.209351
 10
604.390015
 20
1334.571167
 10
604.390015
 20
1335.890015
 10
604.390015
 20
1337.161255
 10
604.390015
 20
1338.380127
 10
604.390015
 20
1339.542969
 10
604.390015
 20
1340.646118
 10
604.390015
 20
1341.686646
 10
604.390015
 20
1342.662231
 10
604.390015
 20
1343.571167
 10
604.390015
 20
1344.412109
 10
604.390015
 20
1345.184448
 10
604.390015
 20
1345.888062
 10
604.390015
 20
1346.523315
 10
604.390015
 20
1347.090942
 10
604.390015
 20
1347.592041
 10
604.390015
 20
1348.034546
  0
LINE
  5
234
330
1B7
100
AcDbEntity
  8
0
  6
Continuous
 62
     0
370
     0
100
AcDbLine
 10
614.637806
 20
1347.949261
 30
0.0
 11
614.637806
 21
1288.572151
 31
0.0
  0
LWPOLYLINE
  5
235
330
1B7
100
AcDbEntity
  8
0
  6
Continuous
 62
     0
370
     0
100
AcDbPolyline
 90
        8
 70
     0
 43
0.0
 10
614.637817
 20
1349.375732
 10
614.637817
 20
1349.345093
 10
614.637817
 20
1349.254883
 10
614.637817
 20
1349.107422
 10
614.637817
 20
1348.905518
 10
614.637817
 20
1348.651855
 10
614.637817
 20
1348.349609
 10
614.637817
 20
1347.949219
  0
LINE
  5
236
330
1B7
100
AcDbEntity
  8
0
  6
Continuous
 62
     0
370
    30
100
AcDbLine
 10
603.381262
 20
1347.081452
 30
0.0
 11
603.381261
 21
1289.482682
 31
0.0
  0
LWPOLYLINE
  5
237
330
1B7
100
AcDbEntity
  8
0
  6
Continuous
 62
     0
370
    30
100
AcDbPolyline
 90
        8
 70
     0
 43
0.0
 10
603.381287
 20
1348.46521
 10
603.381287
 20
1348.43689
 10
603.381287
 20
1348.353027
 10
603.381287
 20
1348.2146
 10
603.381287
 20
1348.023315
 10
603.381287
 20
1347.780884
 10
603.381287
 20
1347.489258
 10
603.381287
 20
1347.081421
  0
LINE
  5
238
330
1B7
100
AcDbEntity
  8
0
  6
Continuous
 62
     0
370
    30
100
AcDbLine
 10
615.381261
 20
1318.973917
 30
0.0
 11
615.381261
 21
1288.973917
 31
0.0
  0
LINE
  5
239
330
1B7
100
AcDbEntity
  8
0
  6
Continuous
 62
     0
370
    30
100
AcDbLine
 10
615.381261
 20
1348.973917
 30
0.0
 11
615.381261
 21
1318.973917
 31
0.0
  0
LINE
  5
23A
330
1B7
100
AcDbEntity
  8
0
  6
Continuous
 62
     0
370
    30
100
AcDbLine
 10
677.881261
 20
1318.973917
 30
0.0
 11
677.881261
 21
1348.973917
 31
0.0
  0
LINE
  5
23B
330
1B7
100
AcDbEntity
  8
0
  6
Continuous
 62
     0
370
    30
100
AcDbLine
 10
677.881261
 20
1288.973917
 30
0.0
 11
677.881261
 21
1318.973917
 31
0.0
  0
LWPOLYLINE
  5
23C
330
1B7
100
AcDbEntity
  8
0
  6
Continuous
 62
     0
370
     0
100
AcDbPolyline
 90
       45
 70
     0
 43
0.0
 10
688.872559
 20
1349.465088
 10
688.872559
 20
1349.425293
 10
688.872559
 20
1349.307007
 10
688.872559
 20
1349.112427
 10
688.872559
 20
1348.844116
 10
688.872559
 20
1348.505249
 10
688.872559
 20
1348.099365
 10
688.872559
 20
1347.630249
 10
688.872559
 20
1347.102295
 10
688.872559
 20
1346.519531
 10
688.872559
 20
1345.886719
 10
688.872559
 20
1345.208374
 10
688.872559
 20
1344.489014
 10
688.872559
 20
1343.719482
 10
688.872559
 20
1342.885864
 10
688.872559
 20
1341.987915
 10
688.872559
 20
1341.025635
 10
688.872559
 20
1339.999512
 10
688.872559
 20
1338.910889
 10
688.872559
 20
1337.76123
 10
688.872559
 20
1336.552734
 10
688.872559
 20
1335.288208
 10
688.872559
 20
1333.970947
 10
688.872559
 20
1332.604858
 10
688.872559
 20
1331.194214
 10
688.872559
 20
1329.743896
 10
688.872559
 20
1328.259033
 10
688.872559
 20
1326.745605
 10
688.872559
 20
1325.209106
 10
688.872559
 20
1323.655884
 10
688.872559
 20
1322.092285
 10
688.872559
 20
1320.524414
 10
688.872559
 20
1318.95874
 10
688.872559
 20
1317.401245
 10
688.872559
 20
1315.858032
 10
688.872559
 20
1314.334839
 10
688.872559
 20
1312.836914
 10
688.872559
 20
1311.369385
 10
688.872559
 20
1309.936646
 10
688.872559
 20
1308.542969
 10
688.872559
 20
1307.192017
 10
688.872559
 20
1305.886597
 10
688.872559
 20
1304.629639
 10
688.872559
 20
1303.423218
 10
688.872559
 20
1302.252808
  0
LINE
  5
23D
330
1B7
100
AcDbEntity
  8
0
  6
Continuous
 62
     0
370
     0
100
AcDbLine
 10
688.872536
 20
1302.252827
 30
0.0
 11
688.872535
 21
1288.48272
 31
0.0
  0
LINE
  5
23E
330
1B7
100
AcDbEntity
  8
0
  6
Continuous
 62
     0
370
     0
100
AcDbLine
 10
678.624716
 20
1288.572151
 30
0.0
 11
678.624717
 21
1302.301871
 31
0.0
  0
LINE
  5
23F
330
1B7
100
AcDbEntity
  8
0
  6
Continuous
 62
     0
370
     0
100
AcDbLine
 10
678.624717
 20
1302.301871
 30
0.0
 11
678.624716
 21
1349.375683
 31
0.0
  0
LINE
  5
240
330
1B7
100
AcDbEntity
  8
0
  6
Continuous
 62
     0
370
    30
100
AcDbLine
 10
689.881261
 20
1289.482682
 30
0.0
 11
689.881262
 21
1302.801197
 31
0.0
  0
LINE
  5
241
330
1B7
100
AcDbEntity
  8
0
  6
Continuous
 62
     0
370
    30
100
AcDbLine
 10
689.881262
 20
1302.801197
 30
0.0
 11
689.881261
 21
1348.465152
 31
0.0
  0
ARC
  5
242
330
1B7
100
AcDbEntity
  8
0
  6
Continuous
 62
     0
370
     0
100
AcDbCircle
 10
790.381222
 20
1314.031097
 30
0.0
 40
13.5
100
AcDbArc
 50
90.0
 51
270.0
  0
ARC
  5
243
330
1B7
100
AcDbEntity
  8
0
  6
Continuous
 62
     0
370
     0
100
AcDbCircle
 10
790.381222
 20
1314.031097
 30
0.0
 40
13.5
100
AcDbArc
 50
270.0
 51
90.0
  0
ARC
  5
244
330
1B7
100
AcDbEntity
  8
0
  6
Continuous
 62
     0
370
    30
100
AcDbCircle
 10
790.381222
 20
1314.031097
 30
0.0
 40
14.50000000000001
100
AcDbArc
 50
90.0
 51
270.0
  0
ARC
  5
245
330
1B7
100
AcDbEntity
  8
0
  6
Continuous
 62
     0
370
    30
100
AcDbCircle
 10
790.381222
 20
1314.031097
 30
0.0
 40
14.5
100
AcDbArc
 50
270.0
 51
90.0
  0
LINE
  5
246
330
1B7
100
AcDbEntity
  8
0
  6
Continuous
 62
     0
370
     0
100
AcDbLine
 10
1158.881222
 20
1314.031097
 30
0.0
 11
804.881202
 21
1314.031097
 31
0.0
  0
LINE
  5
247
330
1B7
100
AcDbEntity
  8
0
  6
Continuous
 62
     0
370
    30
100
AcDbLine
 10
1158.881221
 20
1324.030868
 30
0.0
 11
1158.881222
 21
1314.031097
 31
0.0
  0
LINE
  5
248
330
1B7
100
AcDbEntity
  8
0
  6
Continuous
 62
     0
370
    30
100
AcDbLine
 10
1158.881222
 20
1314.031097
 30
0.0
 11
1158.881221
 21
1304.031327
 31
0.0
  0
LINE
  5
249
330
1B7
100
AcDbEntity
  8
0
  6
Continuous
 62
     0
370
    30
100
AcDbLine
 10
1185.940025
 20
1382.031105
 30
0.0
 11
1240.396392
 21
1382.031105
 31
0.0
  0
ARC
  5
24A
330
1B7
100
AcDbEntity
  8
0
  6
Continuous
 62
     0
370
    30
100
AcDbCircle
 10
1185.940025
 20
1379.031105
 30
0.0
 40
2.999999999996178
100
AcDbArc
 50
90.0
 51
175.0
  0
LINE
  5
24B
330
1B7
100
AcDbEntity
  8
0
  6
Continuous
 62
     0
370
     0
100
AcDbLine
 10
1182.951441
 20
1379.292572
 30
0.0
 11
1243.384976
 21
1379.292572
 31
0.0
  0
LWPOLYLINE
  5
24C
330
1B7
100
AcDbEntity
  8
0
  6
Continuous
 62
     0
370
    30
100
AcDbPolyline
 90
       48
 70
     0
 43
0.0
 10
1178.5979
 20
1329.531128
 10
1178.610718
 20
1329.495483
 10
1178.648926
 20
1329.38855
 10
1178.711792
 20
1329.211182
 10
1178.797852
 20
1328.964966
 10
1178.905273
 20
1328.651367
 10
1179.031738
 20
1328.272217
 10
1179.174561
 20
1327.829712
 10
1179.330566
 20
1327.326172
 10
1179.496582
 20
1326.763916
 10
1179.669434
 20
1326.144653
 10
1179.845215
 20
1325.471069
 10
1180.020142
 20
1324.74646
 10
1180.189941
 20
1323.973999
 10
1180.350586
 20
1323.156372
 10
1180.498047
 20
1322.296021
 10
1180.62854
 20
1321.396362
 10
1180.738281
 20
1320.460938
 10
1180.82373
 20
1319.493896
 10
1180.880859
 20
1318.499146
 10
1180.907104
 20
1317.481812
 10
1180.901123
 20
1316.447754
 10
1180.86145
 20
1315.40332
 10
1180.787231
 20
1314.354492
 10
1180.678711
 20
1313.307007
 10
1180.538208
 20
1312.266846
 10
1180.36792
 20
1311.239502
 10
1180.1698
 20
1310.230591
 10
1179.947144
 20
1309.244141
 10
1179.703613
 20
1308.283447
 10
1179.442749
 20
1307.351562
 10
1179.168335
 20
1306.45166
 10
1178.884155
 20
1305.586426
 10
1178.593872
 20
1304.758667
 10
1178.301514
 20
1303.970581
 10
1178.01062
 20
1303.224731
 10
1177.724976
 20
1302.523804
 10
1177.44812
 20
1301.870117
 10
1177.183716
 20
1301.266357
 10
1176.935303
 20
1300.715454
 10
1176.706177
 20
1300.220093
 10
1176.499634
 20
1299.783081
 10
1176.318848
 20
1299.407471
 10
1176.166748
 20
1299.096069
 10
1176.045532
 20
1298.850952
 10
1175.957275
 20
1298.674072
 10
1175.904053
 20
1298.566895
 10
1175.885742
 20
1298.531128
  0
LINE
  5
24D
330
1B7
100
AcDbEntity
  8
0
  6
Continuous
 62
     0
370
    30
100
AcDbLine
 10
1182.951441
 20
1379.292572
 30
0.0
 11
1178.597877
 21
1329.531105
 31
0.0
  0
LINE
  5
24E
330
1B7
100
AcDbEntity
  8
0
  6
Continuous
 62
     0
370
    30
100
AcDbLine
 10
1175.885729
 20
1298.531105
 30
0.0
 11
1166.568186
 21
1192.031105
 31
0.0
  0
LINE
  5
24F
330
1B7
100
AcDbEntity
  8
0
  6
Continuous
 62
     0
370
    30
100
AcDbLine
 10
1168.55023
 20
1328.53116
 30
0.0
 11
1169.668209
 21
1328.531097
 31
0.0
  0
ARC
  5
250
330
1B7
100
AcDbEntity
  8
0
  6
Continuous
 62
     0
370
    30
100
AcDbCircle
 10
1169.668209
 20
1300.531097
 30
0.0
 40
1.500000000344499
100
AcDbArc
 50
180.0
 51
221.810315
  0
LINE
  5
251
330
1B7
100
AcDbEntity
  8
0
  6
Continuous
 62
     0
370
    30
100
AcDbLine
 10
1168.168209
 20
1300.531097
 30
0.0
 11
1168.168209
 21
1327.531097
 31
0.0
  0
LINE
  5
252
330
1B7
100
AcDbEntity
  8
0
  6
Continuous
 62
     0
370
    30
100
AcDbLine
 10
1169.668209
 20
1299.531097
 30
0.0
 11
1168.550175
 21
1299.531097
 31
0.0
  0
LINE
  5
253
330
1B7
100
AcDbEntity
  8
0
  6
Continuous
 62
     0
370
     0
100
AcDbLine
 10
1169.668209
 20
1328.531097
 30
0.0
 11
1169.668209
 21
1299.531097
 31
0.0
  0
LINE
  5
254
330
1B7
100
AcDbEntity
  8
0
  6
Continuous
 62
     0
370
    30
100
AcDbLine
 10
1176.168209
 20
1329.031097
 30
0.0
 11
1176.168209
 21
1328.531097
 31
0.0
  0
LINE
  5
255
330
1B7
100
AcDbEntity
  8
0
  6
Continuous
 62
     0
370
    30
100
AcDbLine
 10
1176.168209
 20
1328.531097
 30
0.0
 11
1169.668209
 21
1328.531097
 31
0.0
  0
LINE
  5
256
330
1B7
100
AcDbEntity
  8
0
  6
Continuous
 62
     0
370
    30
100
AcDbLine
 10
1169.668209
 20
1299.531097
 30
0.0
 11
1176.168209
 21
1299.531097
 31
0.0
  0
LINE
  5
257
330
1B7
100
AcDbEntity
  8
0
  6
Continuous
 62
     0
370
    30
100
AcDbLine
 10
1176.168209
 20
1299.531097
 30
0.0
 11
1176.168209
 21
1299.099167
 31
0.0
  0
LINE
  5
258
330
1B7
100
AcDbEntity
  8
0
  6
Continuous
 62
     0
370
    30
100
AcDbLine
 10
1162.200397
 20
1307.931097
 30
0.0
 11
1162.200397
 21
1320.048886
 31
0.0
  0
LINE
  5
259
330
1B7
100
AcDbEntity
  8
0
  6
Continuous
 62
     0
370
    30
100
AcDbLine
 10
1162.200397
 20
1320.048886
 30
0.0
 11
1162.200397
 21
1320.131097
 31
0.0
  0
LINE
  5
25A
330
1B7
100
AcDbEntity
  8
0
  6
Continuous
 62
     0
370
    30
100
AcDbLine
 10
1247.745381
 20
1179.031092
 30
0.0
 11
1164.864986
 21
1179.031092
 31
0.0
  0
LWPOLYLINE
  5
25B
330
1B7
100
AcDbEntity
  8
0
  6
Continuous
 62
     0
370
    30
100
AcDbPolyline
 90
       22
 70
     0
 43
0.0
 10
1261.471436
 20
1179.031128
 10
1261.435181
 20
1179.031128
 10
1261.326538
 20
1179.031128
 10
1261.146118
 20
1179.031128
 10
1260.894897
 20
1179.031128
 10
1260.57373
 20
1179.031128
 10
1260.184326
 20
1179.031128
 10
1259.728271
 20
1179.031128
 10
1259.207764
 20
1179.031128
 10
1258.624878
 20
1179.031128
 10
1257.982056
 20
1179.031128
 10
1257.282104
 20
1179.031128
 10
1256.527588
 20
1179.031128
 10
1255.72168
 20
1179.031128
 10
1254.867432
 20
1179.031128
 10
1253.967896
 20
1179.031128
 10
1253.026245
 20
1179.031128
 10
1252.045898
 20
1179.031128
 10
1251.030029
 20
1179.031128
 10
1249.981934
 20
1179.031128
 10
1248.904785
 20
1179.031128
 10
1247.745361
 20
1179.031128
  0
LINE
  5
25C
330
1B7
100
AcDbEntity
  8
0
  6
Continuous
 62
     0
370
    30
100
AcDbLine
 10
1246.588205
 20
1192.031092
 30
0.0
 11
1166.481524
 21
1192.031092
 31
0.0
  0
LWPOLYLINE
  5
25D
330
1B7
100
AcDbEntity
  8
0
  6
Continuous
 62
     0
370
    30
100
AcDbPolyline
 90
       21
 70
     0
 43
0.0
 10
1259.854858
 20
1192.031128
 10
1259.816162
 20
1192.031128
 10
1259.700073
 20
1192.031128
 10
1259.507324
 20
1192.031128
 10
1259.238892
 20
1192.031128
 10
1258.89624
 20
1192.031128
 10
1258.480957
 20
1192.031128
 10
1257.995239
 20
1192.031128
 10
1257.441162
 20
1192.031128
 10
1256.821655
 20
1192.031128
 10
1256.139404
 20
1192.031128
 10
1255.397461
 20
1192.031128
 10
1254.599121
 20
1192.031128
 10
1253.747803
 20
1192.031128
 10
1252.847046
 20
1192.031128
 10
1251.900269
 20
1192.031128
 10
1250.911377
 20
1192.031128
 10
1249.883911
 20
1192.031128
 10
1248.821533
 20
1192.031128
 10
1247.727905
 20
1192.031128
 10
1246.588257
 20
1192.031128
  0
LINE
  5
25E
330
1B7
100
AcDbEntity
  8
0
  6
Continuous
 62
     0
370
     0
100
AcDbLine
 10
1247.47888
 20
1190.900899
 30
0.0
 11
1261.099139
 21
1190.900899
 31
0.0
  0
LINE
  5
25F
330
1B7
100
AcDbEntity
  8
0
  6
Continuous
 62
     0
370
     0
100
AcDbLine
 10
1165.237278
 20
1190.900899
 30
0.0
 11
1247.47888
 21
1190.900899
 31
0.0
  0
LINE
  5
260
330
1B7
100
AcDbEntity
  8
0
  6
Continuous
 62
     0
370
     0
100
AcDbLine
 10
1248.244159
 20
1179.798184
 30
0.0
 11
1262.168209
 21
1179.798184
 31
0.0
  0
LINE
  5
261
330
1B7
100
AcDbEntity
  8
0
  6
Continuous
 62
     0
370
     0
100
AcDbLine
 10
1164.168209
 20
1179.798184
 30
0.0
 11
1248.244159
 21
1179.798184
 31
0.0
  0
ARC
  5
262
330
1B7
100
AcDbEntity
  8
0
  6
Continuous
 62
     0
370
    30
100
AcDbCircle
 10
1261.471431
 20
1179.731092
 30
0.0
 40
0.7000001353447455
100
AcDbArc
 50
270.000012
 51
5.499988
  0
ARC
  5
263
330
1B7
100
AcDbEntity
  8
0
  6
Continuous
 62
     0
370
    30
100
AcDbCircle
 10
1164.864986
 20
1179.731092
 30
0.0
 40
0.7000001413463148
100
AcDbArc
 50
174.500013
 51
269.990711
  0
LINE
  5
264
330
1B7
100
AcDbEntity
  8
0
  6
Continuous
 62
     0
370
    30
100
AcDbLine
 10
1165.237278
 20
1190.900899
 30
0.0
 11
1164.168209
 21
1179.798184
 31
0.0
  0
LINE
  5
265
330
1B7
100
AcDbEntity
  8
0
  6
Continuous
 62
     0
370
    30
100
AcDbLine
 10
1261.099139
 20
1190.900899
 30
0.0
 11
1262.168209
 21
1179.798184
 31
0.0
  0
ARC
  5
266
330
1B7
100
AcDbEntity
  8
0
  6
Continuous
 62
     0
370
    30
100
AcDbCircle
 10
1166.48162
 20
1190.780986
 30
0.0
 40
1.250106050109214
100
AcDbArc
 50
90.012119
 51
174.495586
  0
ARC
  5
267
330
1B7
100
AcDbEntity
  8
0
  6
Continuous
 62
     0
370
    30
100
AcDbCircle
 10
1259.854797
 20
1190.780986
 30
0.0
 40
1.25010605013633
100
AcDbArc
 50
5.504414
 51
89.987881
  0
ARC
  5
268
330
1B7
100
AcDbEntity
  8
0
  6
Continuous
 62
     0
370
    30
100
AcDbCircle
 10
1213.167603
 20
1490.040137
 30
0.0
 40
314.4990319119795
100
AcDbArc
 50
261.456373
 51
278.543627
  0
ARC
  5
269
330
1B7
100
AcDbEntity
  8
0
  6
Continuous
 62
     0
370
    30
100
AcDbCircle
 10
1172.881255
 20
1314.031136
 30
0.0
 40
12.30004886528215
100
AcDbArc
 50
209.731498
 51
247.469625
  0
ARC
  5
26A
330
1B7
100
AcDbEntity
  8
0
  6
Continuous
 62
     0
370
    30
100
AcDbCircle
 10
1172.881252
 20
1314.031063
 30
0.0
 40
12.30004384297609
100
AcDbArc
 50
112.532481
 51
150.26851
  0
LINE
  5
26B
330
1B7
100
AcDbEntity
  8
0
  6
Continuous
 62
     0
370
    30
100
AcDbLine
 10
1158.881221
 20
1320.131097
 30
0.0
 11
1162.200397
 21
1320.131097
 31
0.0
  0
LINE
  5
26C
330
1B7
100
AcDbEntity
  8
0
  6
Continuous
 62
     0
370
    30
100
AcDbLine
 10
1158.881221
 20
1307.931097
 30
0.0
 11
1162.200397
 21
1307.931097
 31
0.0
  0
LINE
  5
26D
330
1B7
100
AcDbEntity
  8
0
  6
Continuous
 62
     0
370
    30
100
AcDbLine
 10
1178.774857
 20
1329.031097
 30
0.0
 11
1176.168209
 21
1329.031097
 31
0.0
  0
ARC
  5
26E
330
1B7
100
AcDbEntity
  8
0
  6
Continuous
 62
     0
370
    30
100
AcDbCircle
 10
1169.668542
 20
1327.53097
 30
0.0
 40
1.500333456140607
100
AcDbArc
 50
138.189261
 51
179.987033
  0
LINE
  5
26F
330
1B7
100
AcDbEntity
  8
0
  6
Continuous
 62
     0
370
    30
100
AcDbLine
 10
1259.768231
 20
1192.031105
 30
0.0
 11
1243.384976
 21
1379.292572
 31
0.0
  0
ARC
  5
270
330
1B7
100
AcDbEntity
  8
0
  6
Continuous
 62
     0
370
    30
100
AcDbCircle
 10
1240.396146
 20
1379.030837
 30
0.0
 40
3.000268176132356
100
AcDbArc
 50
5.004693
 51
89.993398
  0
LINE
  5
271
330
1B7
100
AcDbEntity
  8
0
  6
Continuous
 62
     0
370
    30
100
AcDbLine
 10
828.071975
 20
1304.031327
 30
0.0
 11
800.881432
 21
1304.031327
 31
0.0
  0
LINE
  5
272
330
1B7
100
AcDbEntity
  8
0
  6
Continuous
 62
     0
370
    30
100
AcDbLine
 10
1158.881221
 20
1304.031327
 30
0.0
 11
838.978572
 21
1304.031327
 31
0.0
  0
LINE
  5
273
330
1B7
100
AcDbEntity
  8
0
  6
Continuous
 62
     0
370
    30
100
AcDbLine
 10
1158.881221
 20
1324.030868
 30
0.0
 11
800.881431
 21
1324.030868
 31
0.0
  0
LINE
  5
274
330
1B7
100
AcDbEntity
  8
0
  6
Continuous
 62
     0
370
    30
100
AcDbLine
 10
689.881261
 20
1323.981097
 30
0.0
 11
779.832852
 21
1323.981097
 31
0.0
  0
LINE
  5
275
330
1B7
100
AcDbEntity
  8
0
  6
Continuous
 62
     0
370
    30
100
AcDbLine
 10
689.881261
 20
1304.081097
 30
0.0
 11
779.833519
 21
1304.081097
 31
0.0
  0
ARC
  5
276
330
1B7
100
AcDbEntity
  8
0
  6
Continuous
 62
     0
370
    30
100
AcDbCircle
 10
688.881235
 20
1348.46513
 30
0.0
 40
1.000026065743419
100
AcDbArc
 50
0.004395
 51
90.498495
  0
ARC
  5
277
330
1B7
100
AcDbEntity
  8
0
  6
Continuous
 62
     0
370
    30
100
AcDbCircle
 10
688.881234
 20
1289.482692
 30
0.0
 40
1.000026876805644
100
AcDbArc
 50
269.501552
 51
359.9956
  0
ARC
  5
278
330
1B7
100
AcDbEntity
  8
0
  6
Continuous
 62
     0
370
    30
100
AcDbCircle
 10
678.631268
 20
1348.625708
 30
0.0
 40
0.7500071020876713
100
AcDbArc
 50
90.500536
 51
179.994441
  0
ARC
  5
279
330
1B7
100
AcDbEntity
  8
0
  6
Continuous
 62
     0
370
    30
100
AcDbCircle
 10
678.631268
 20
1289.322113
 30
0.0
 40
0.7500070357536219
100
AcDbArc
 50
180.000502
 51
269.499469
  0
LINE
  5
27A
330
1B7
100
AcDbEntity
  8
0
  6
Continuous
 62
     0
370
    30
100
AcDbLine
 10
678.624716
 20
1349.375683
 30
0.0
 11
688.872535
 21
1349.465114
 31
0.0
  0
LINE
  5
27B
330
1B7
100
AcDbEntity
  8
0
  6
Continuous
 62
     0
370
    30
100
AcDbLine
 10
678.624716
 20
1288.572151
 30
0.0
 11
688.872535
 21
1288.48272
 31
0.0
  0
LINE
  5
27C
330
1B7
100
AcDbEntity
  8
0
  6
Continuous
 62
     0
370
    30
100
AcDbLine
 10
677.881261
 20
1348.973917
 30
0.0
 11
615.381261
 21
1348.973917
 31
0.0
  0
LINE
  5
27D
330
1B7
100
AcDbEntity
  8
0
  6
Continuous
 62
     0
370
    30
100
AcDbLine
 10
677.881261
 20
1288.973917
 30
0.0
 11
615.381261
 21
1288.973917
 31
0.0
  0
ARC
  5
27E
330
1B7
100
AcDbEntity
  8
0
  6
Continuous
 62
     0
370
    30
100
AcDbCircle
 10
604.381285
 20
1348.465014
 30
0.0
 40
1.000024167198651
100
AcDbArc
 50
89.501396
 51
179.995202
  0
ARC
  5
27F
330
1B7
100
AcDbEntity
  8
0
  6
Continuous
 62
     0
370
    30
100
AcDbCircle
 10
604.381288
 20
1289.482702
 30
0.0
 40
1.000026523492842
100
AcDbArc
 50
180.002874
 51
270.498468
  0
ARC
  5
280
330
1B7
100
AcDbEntity
  8
0
  6
Continuous
 62
     0
370
    30
100
AcDbCircle
 10
614.631255
 20
1348.625592
 30
0.0
 40
0.750005694050988
100
AcDbArc
 50
0.007214
 51
89.49957
  0
ARC
  5
281
330
1B7
100
AcDbEntity
  8
0
  6
Continuous
 62
     0
370
    30
100
AcDbCircle
 10
614.631255
 20
1289.322123
 30
0.0
 40
0.7500065268588381
100
AcDbArc
 50
270.500493
 51
359.994524
  0
LINE
  5
282
330
1B7
100
AcDbEntity
  8
0
  6
Continuous
 62
     0
370
    30
100
AcDbLine
 10
614.637806
 20
1349.375683
 30
0.0
 11
604.389988
 21
1349.465114
 31
0.0
  0
LINE
  5
283
330
1B7
100
AcDbEntity
  8
0
  6
Continuous
 62
     0
370
    30
100
AcDbLine
 10
614.637806
 20
1288.572151
 30
0.0
 11
604.389988
 21
1288.48272
 31
0.0
  0
ENDBLK
  5
285
330
1B7
100
AcDbEntity
  8
0
100
AcDbBlockEnd
  0
BLOCK
  5
35D
330
287
100
AcDbEntity
  8
0
100
AcDbBlockBegin
  2
d
 70
     0
 10
-43.131775
 20
0.0
 30
0.0
  3
d
  1

  0
LINE
  5
288
330
287
100
AcDbEntity
  8
0
  6
Continuous
 62
     0
370
    30
100
AcDbLine
 10
-514.703357
 20
1256.934208
 30
0.0
 11
-517.06847
 21
1256.975491
 31
0.0
  0
LINE
  5
289
330
287
100
AcDbEntity
  8
0
  6
Continuous
 62
     0
370
    30
100
AcDbLine
 10
-490.072582
 20
1256.504276
 30
0.0
 11
-514.703357
 21
1256.934208
 31
0.0
  0
LINE
  5
28A
330
287
100
AcDbEntity
  8
0
  6
Continuous
 62
     0
370
    30
100
AcDbLine
 10
-515.257499
 20
1272.446241
 30
0.0
 11
-517.797805
 21
1272.490583
 31
0.0
  0
LINE
  5
28B
330
287
100
AcDbEntity
  8
0
  6
Continuous
 62
     0
370
    30
100
AcDbLine
 10
-489.950378
 20
1272.004504
 30
0.0
 11
-515.257499
 21
1272.446241
 31
0.0
  0
LINE
  5
28C
330
287
100
AcDbEntity
  8
0
  6
Continuous
 62
     0
370
     0
100
AcDbLine
 10
-515.510559
 20
1257.94845
 30
0.0
 11
-489.055282
 21
1257.486671
 31
0.0
  0
LINE
  5
28D
330
287
100
AcDbEntity
  8
0
  6
Continuous
 62
     0
370
     0
100
AcDbLine
 10
-518.050865
 20
1257.992791
 30
0.0
 11
-515.510559
 21
1257.94845
 31
0.0
  0
LINE
  5
28E
330
287
100
AcDbEntity
  8
0
  6
Continuous
 62
     0
370
    30
100
AcDbLine
 10
-517.556965
 20
1286.288476
 30
0.0
 11
-489.596926
 21
1285.800431
 31
0.0
  0
LINE
  5
28F
330
287
100
AcDbEntity
  8
0
  6
Continuous
 62
     0
370
    30
100
AcDbLine
 10
-517.556965
 20
1286.288476
 30
0.0
 11
-517.225151
 21
1305.298088
 31
0.0
  0
LINE
  5
290
330
287
100
AcDbEntity
  8
0
  6
Continuous
 62
     0
370
     0
100
AcDbLine
 10
-488.229568
 20
1304.791968
 30
0.0
 11
-490.40903
 21
1304.830011
 31
0.0
  0
ARC
  5
291
330
287
100
AcDbEntity
  8
0
  6
Continuous
 62
     0
370
    30
100
AcDbCircle
 10
-502.570505
 20
1314.031217
 30
0.0
 40
15.2500389864203
100
AcDbArc
 50
215.110653
 51
322.889347
  0
LINE
  5
292
330
287
100
AcDbEntity
  8
0
  6
Continuous
 62
     0
370
     0
100
AcDbLine
 10
-515.04569
 20
1305.260045
 30
0.0
 11
-517.225151
 21
1305.298088
 31
0.0
  0
LWPOLYLINE
  5
293
330
287
100
AcDbEntity
  8
0
  6
Continuous
 62
     0
370
    30
100
AcDbPolyline
 90
       21
 70
     0
 43
0.0
 10
-488.469757
 20
1291.031616
 10
-488.475616
 20
1291.06543
 10
-488.492371
 20
1291.166992
 10
-488.518311
 20
1291.331787
 10
-488.55072
 20
1291.556641
 10
-488.586212
 20
1291.836182
 10
-488.621155
 20
1292.163818
 10
-488.651672
 20
1292.53125
 10
-488.674103
 20
1292.929565
 10
-488.685791
 20
1293.349121
 10
-488.684937
 20
1293.779541
 10
-488.671173
 20
1294.209839
 10
-488.645142
 20
1294.629028
 10
-488.60907
 20
1295.027222
 10
-488.565918
 20
1295.394531
 10
-488.519623
 20
1295.722168
 10
-488.474304
 20
1296.001465
 10
-488.433838
 20
1296.226562
 10
-488.401886
 20
1296.392212
 10
-488.381226
 20
1296.494995
 10
-488.373779
 20
1296.530762
  0
ARC
  5
294
330
287
100
AcDbEntity
  8
0
  6
Continuous
 62
     0
370
    30
100
AcDbCircle
 10
-502.566779
 20
1314.033556
 30
0.0
 40
15.25443220250569
100
AcDbArc
 50
210.572465
 51
215.109791
  0
ARC
  5
295
330
287
100
AcDbEntity
  8
0
  6
Continuous
 62
     0
370
    30
100
AcDbCircle
 10
-502.574148
 20
1314.033686
 30
0.0
 40
15.25443348808012
100
AcDbArc
 50
322.890205
 51
327.427531
  0
LINE
  5
296
330
287
100
AcDbEntity
  8
0
  6
Continuous
 62
     0
370
    30
100
AcDbLine
 10
-488.072715
 20
1313.778091
 30
0.0
 11
-488.229568
 21
1304.791968
 31
0.0
  0
LWPOLYLINE
  5
297
330
287
100
AcDbEntity
  8
0
  6
Continuous
 62
     0
370
     0
100
AcDbPolyline
 90
        6
 70
     0
 43
0.0
 10
-488.229553
 20
1304.791992
 10
-488.24115
 20
1305.662598
 10
-488.30542
 20
1306.535645
 10
-488.420319
 20
1307.411987
 10
-488.582672
 20
1308.292236
 10
-488.838348
 20
1309.375122
  0
LWPOLYLINE
  5
298
330
287
100
AcDbEntity
  8
0
  6
Continuous
 62
     0
370
     0
100
AcDbPolyline
 90
        6
 70
     0
 43
0.0
 10
-517.225159
 20
1305.298096
 10
-517.183228
 20
1306.167847
 10
-517.088501
 20
1307.038086
 10
-516.943054
 20
1307.90979
 10
-516.750061
 20
1308.783936
 10
-516.456787
 20
1309.8573
  0
LINE
  5
299
330
287
100
AcDbEntity
  8
0
  6
Continuous
 62
     0
370
    30
100
AcDbLine
 10
-517.068298
 20
1314.284211
 30
0.0
 11
-517.225151
 21
1305.298088
 31
0.0
  0
ARC
  5
29A
330
287
100
AcDbEntity
  8
0
  6
Continuous
 62
     0
370
    30
100
AcDbCircle
 10
-473.47113
 20
1304.516844
 30
0.0
 40
16.30020902547661
100
AcDbArc
 50
167.817717
 51
175.410169
  0
ARC
  5
29B
330
287
100
AcDbEntity
  8
0
  6
Continuous
 62
     0
370
    30
100
AcDbCircle
 10
-531.984209
 20
1305.538192
 30
0.0
 40
16.30021698764793
100
AcDbArc
 50
2.589832
 51
10.182594
  0
LINE
  5
29C
330
287
100
AcDbEntity
  8
0
  6
Continuous
 62
     0
370
    30
100
AcDbLine
 10
-515.042991
 20
1272.74254
 30
0.0
 11
-515.048227
 21
1272.442589
 31
0.0
  0
LINE
  5
29D
330
287
100
AcDbEntity
  8
0
  6
Continuous
 62
     0
370
    30
100
AcDbLine
 10
-514.807384
 20
1286.240481
 30
0.0
 11
-514.81611
 21
1285.74056
 31
0.0
  0
LINE
  5
29E
330
287
100
AcDbEntity
  8
0
  6
Continuous
 62
     0
370
    30
100
AcDbLine
 10
-491.546571
 20
1272.332409
 30
0.0
 11
-491.551806
 21
1272.032458
 31
0.0
  0
LINE
  5
29F
330
287
100
AcDbEntity
  8
0
  6
Continuous
 62
     0
370
    30
100
AcDbLine
 10
-491.310963
 20
1285.83035
 30
0.0
 11
-491.319689
 21
1285.330429
 31
0.0
  0
LINE
  5
2A0
330
287
100
AcDbEntity
  8
0
  6
Continuous
 62
     0
370
    30
100
AcDbLine
 10
-488.529721
 20
1287.596187
 30
0.0
 11
-488.469756
 21
1291.031583
 31
0.0
  0
LINE
  5
2A1
330
287
100
AcDbEntity
  8
0
  6
Continuous
 62
     0
370
    30
100
AcDbLine
 10
-488.373769
 20
1296.530718
 30
0.0
 11
-488.229568
 21
1304.791968
 31
0.0
  0
ARC
  5
2A2
330
287
100
AcDbEntity
  8
0
  6
Continuous
 62
     0
370
    30
100
AcDbCircle
 10
-490.055157
 20
1257.504148
 30
0.0
 40
1.000024206676107
100
AcDbArc
 50
269.001399
 51
358.998613
  0
ARC
  5
2A3
330
287
100
AcDbEntity
  8
0
  6
Continuous
 62
     0
370
    30
100
AcDbCircle
 10
-517.050992
 20
1257.975364
 30
0.0
 40
1.000025406984412
100
AcDbArc
 50
179.001456
 51
268.992814
  0
LINE
  5
2A4
330
287
100
AcDbEntity
  8
0
  6
Continuous
 62
     0
370
    30
100
AcDbLine
 10
-489.055282
 20
1257.486671
 30
0.0
 11
-488.837372
 21
1269.970723
 31
0.0
  0
LINE
  5
2A5
330
287
100
AcDbEntity
  8
0
  6
Continuous
 62
     0
370
    30
100
AcDbLine
 10
-518.050865
 20
1257.992791
 30
0.0
 11
-517.797805
 21
1272.490583
 31
0.0
  0
LINE
  5
2A6
330
287
100
AcDbEntity
  8
0
  6
Continuous
 62
     0
370
     0
100
AcDbLine
 10
-124.327713
 20
1486.781693
 30
0.0
 11
-124.327713
 21
1329.076808
 31
0.0
  0
LINE
  5
2A7
330
287
100
AcDbEntity
  8
0
  6
Continuous
 62
     0
370
     0
100
AcDbLine
 10
-124.327713
 20
1329.076808
 30
0.0
 11
-124.271851
 21
1329.031147
 31
0.0
  0
LINE
  5
2A8
330
287
100
AcDbEntity
  8
0
  6
Continuous
 62
     0
370
     0
100
AcDbLine
 10
-124.271851
 20
1486.797318
 30
0.0
 11
-124.327713
 21
1486.781693
 31
0.0
  0
LINE
  5
2A9
330
287
100
AcDbEntity
  8
0
  6
Continuous
 62
     0
370
     0
100
AcDbLine
 10
-124.327713
 20
1329.076808
 30
0.0
 11
-162.401328
 21
1329.076808
 31
0.0
  0
ELLIPSE
  5
2AA
330
287
100
AcDbEntity
  8
0
  6
Continuous
 62
     0
370
     0
100
AcDbEllipse
 10
-162.330735
 20
1329.076808
 30
0.0
 11
2.643374240529145E-16
 21
1.0
 31
0.0
210
0.0
220
0.0
230
1.0
 40
0.070592
 41
1.570796326794797
 42
3.141592653589797
  0
LINE
  5
2AB
330
287
100
AcDbEntity
  8
0
  6
Continuous
 62
     0
370
    30
100
AcDbLine
 10
-162.330735
 20
1328.076808
 30
0.0
 11
-124.271851
 21
1328.076808
 31
0.0
  0
LWPOLYLINE
  5
2AC
330
287
100
AcDbEntity
  8
0
  6
Continuous
 62
     0
370
     0
100
AcDbPolyline
 90
        7
 70
     0
 43
0.0
 10
-124.89991
 20
1487.547729
 10
-124.890533
 20
1487.515991
 10
-124.842407
 20
1487.439209
 10
-124.757889
 20
1487.321411
 10
-124.642136
 20
1487.169922
 10
-124.503593
 20
1486.995728
 10
-124.327713
 20
1486.781738
  0
LINE
  5
2AD
330
287
100
AcDbEntity
  8
0
  6
Continuous
 62
     0
370
    30
100
AcDbLine
 10
-124.271851
 20
1488.07474
 30
0.0
 11
-124.899908
 21
1487.547738
 31
0.0
  0
LINE
  5
2AE
330
287
100
AcDbEntity
  8
0
  6
Continuous
 62
     0
370
    30
100
AcDbLine
 10
-162.973523
 20
1455.600182
 30
0.0
 11
-176.914638
 21
1443.902197
 31
0.0
  0
LINE
  5
2AF
330
287
100
AcDbEntity
  8
0
  6
Continuous
 62
     0
370
    30
100
AcDbLine
 10
-124.899908
 20
1487.547738
 30
0.0
 11
-162.973523
 21
1455.600182
 31
0.0
  0
LINE
  5
2B0
330
287
100
AcDbEntity
  8
0
  6
Continuous
 62
     0
370
    30
100
AcDbLine
 10
-177.271851
 20
1329.076808
 30
0.0
 11
-177.271851
 21
1443.136152
 31
0.0
  0
LINE
  5
2B1
330
287
100
AcDbEntity
  8
0
  6
Continuous
 62
     0
370
     0
100
AcDbLine
 10
-177.271851
 20
1329.076808
 30
0.0
 11
-162.401328
 21
1329.076808
 31
0.0
  0
LINE
  5
2B2
330
287
100
AcDbEntity
  8
0
  6
Continuous
 62
     0
370
     0
100
AcDbLine
 10
-162.401328
 20
1329.076808
 30
0.0
 11
-162.401328
 21
1454.834137
 31
0.0
  0
LINE
  5
2B3
330
287
100
AcDbEntity
  8
0
  6
Continuous
 62
     0
370
     0
100
AcDbLine
 10
-162.401328
 20
1454.834137
 30
0.0
 11
-177.271851
 21
1443.136152
 31
0.0
  0
LINE
  5
2B4
330
287
100
AcDbEntity
  8
0
  6
Continuous
 62
     0
370
     0
100
AcDbLine
 10
-124.327713
 20
1486.781693
 30
0.0
 11
-162.401328
 21
1454.834137
 31
0.0
  0
ARC
  5
2B5
330
287
100
AcDbEntity
  8
0
  6
Continuous
 62
     0
370
    30
100
AcDbCircle
 10
-176.271851
 20
1329.076808
 30
0.0
 40
1.000000000000508
100
AcDbArc
 50
180.0
 51
270.0
  0
LINE
  5
2B6
330
287
100
AcDbEntity
  8
0
  6
Continuous
 62
     0
370
    30
100
AcDbLine
 10
-162.330735
 20
1328.076808
 30
0.0
 11
-176.271851
 21
1328.076808
 31
0.0
  0
ELLIPSE
  5
2B7
330
287
100
AcDbEntity
  8
0
  6
Continuous
 62
     0
370
     0
100
AcDbEllipse
 10
-162.330735
 20
1454.834137
 30
0.0
 11
-0.64278761085338
 21
0.7660444421398811
 31
0.0
210
0.0
220
0.0
230
1.0
 40
0.054133
 41
-0.0000000281384089
 42
1.5254048726337
  0
ARC
  5
2B8
330
287
100
AcDbEntity
  8
0
  6
Continuous
 62
     0
370
    30
100
AcDbCircle
 10
-176.271851
 20
1443.136152
 30
0.0
 40
0.9999999999994507
100
AcDbArc
 50
130.0
 51
180.0
  0
LINE
  5
2B9
330
287
100
AcDbEntity
  8
0
  6
Continuous
 62
     0
370
    30
100
AcDbLine
 10
-122.271852
 20
1490.375775
 30
0.0
 11
-124.271852
 21
1490.375775
 31
0.0
  0
LINE
  5
2BA
330
287
100
AcDbEntity
  8
0
  6
Continuous
 62
     0
370
    30
100
AcDbLine
 10
-124.271852
 20
1490.375775
 30
0.0
 11
-124.271852
 21
1489.875775
 31
0.0
  0
LINE
  5
2BB
330
287
100
AcDbEntity
  8
0
  6
Continuous
 62
     0
370
     0
100
AcDbLine
 10
-124.271852
 20
1489.875775
 30
0.0
 11
-122.271852
 21
1489.875775
 31
0.0
  0
LINE
  5
2BC
330
287
100
AcDbEntity
  8
0
  6
Continuous
 62
     0
370
    30
100
AcDbLine
 10
-122.271852
 20
1489.875775
 30
0.0
 11
-122.271852
 21
1490.375775
 31
0.0
  0
LINE
  5
2BD
330
287
100
AcDbEntity
  8
0
  6
Continuous
 62
     0
370
     0
100
AcDbLine
 10
-122.271852
 20
1326.275775
 30
0.0
 11
-124.271852
 21
1326.275775
 31
0.0
  0
LINE
  5
2BE
330
287
100
AcDbEntity
  8
0
  6
Continuous
 62
     0
370
    30
100
AcDbLine
 10
-124.271852
 20
1326.275775
 30
0.0
 11
-124.271852
 21
1325.775775
 31
0.0
  0
LINE
  5
2BF
330
287
100
AcDbEntity
  8
0
  6
Continuous
 62
     0
370
    30
100
AcDbLine
 10
-124.271852
 20
1325.775775
 30
0.0
 11
-122.271852
 21
1325.775775
 31
0.0
  0
LINE
  5
2C0
330
287
100
AcDbEntity
  8
0
  6
Continuous
 62
     0
370
    30
100
AcDbLine
 10
-122.271852
 20
1325.775775
 30
0.0
 11
-122.271852
 21
1326.275775
 31
0.0
  0
LINE
  5
2C1
330
287
100
AcDbEntity
  8
0
  6
Continuous
 62
     0
370
    30
100
AcDbLine
 10
-122.271852
 20
1326.275775
 30
0.0
 11
-122.271852
 21
1489.875775
 31
0.0
  0
LINE
  5
2C2
330
287
100
AcDbEntity
  8
0
  6
Continuous
 62
     0
370
    30
100
AcDbLine
 10
-124.271852
 20
1489.875775
 30
0.0
 11
-124.271852
 21
1326.275775
 31
0.0
  0
LINE
  5
2C3
330
287
100
AcDbEntity
  8
0
  6
Continuous
 62
     0
370
     0
100
AcDbLine
 10
-161.271851
 20
1303.596656
 30
0.0
 11
-151.271851
 21
1303.596656
 31
0.0
  0
LINE
  5
2C4
330
287
100
AcDbEntity
  8
0
  6
Continuous
 62
     0
370
     0
100
AcDbLine
 10
-171.271851
 20
1303.596656
 30
0.0
 11
-161.271851
 21
1303.596656
 31
0.0
  0
LINE
  5
2C5
330
287
100
AcDbEntity
  8
0
  6
Continuous
 62
     0
370
     0
100
AcDbLine
 10
-191.795423
 20
1273.601226
 30
0.0
 11
-191.969947
 21
1263.602749
 31
0.0
  0
LINE
  5
2C6
330
287
100
AcDbEntity
  8
0
  6
Continuous
 62
     0
370
     0
100
AcDbLine
 10
-191.620899
 20
1283.599703
 30
0.0
 11
-191.795423
 21
1273.601226
 31
0.0
  0
LINE
  5
2C7
330
287
100
AcDbEntity
  8
0
  6
Continuous
 62
     0
370
     0
100
AcDbLine
 10
-482.008471
 20
1288.668436
 30
0.0
 11
-482.182996
 21
1278.669959
 31
0.0
  0
LINE
  5
2C8
330
287
100
AcDbEntity
  8
0
  6
Continuous
 62
     0
370
     0
100
AcDbLine
 10
-482.182996
 20
1278.669959
 30
0.0
 11
-191.795423
 21
1273.601226
 31
0.0
  0
LINE
  5
2C9
330
287
100
AcDbEntity
  8
0
  6
Continuous
 62
     0
370
     0
100
AcDbLine
 10
-482.182996
 20
1278.669959
 30
0.0
 11
-482.357519
 21
1268.671482
 31
0.0
  0
LWPOLYLINE
  5
2CA
330
287
100
AcDbEntity
  8
0
  6
Continuous
 62
     0
370
    30
100
AcDbPolyline
 90
        6
 70
     0
 43
0.0
 10
-445.290619
 20
1268.027344
 10
-444.404175
 20
1268.016113
 10
-443.499481
 20
1268.002075
 10
-442.594177
 20
1267.984985
 10
-441.706177
 20
1267.964355
 10
-440.820679
 20
1267.946411
  0
LINE
  5
2CB
330
287
100
AcDbEntity
  8
0
  6
Continuous
 62
     0
370
    30
100
AcDbLine
 10
-446.082336
 20
1268.03776
 30
0.0
 11
-445.290633
 21
1268.027323
 31
0.0
  0
LWPOLYLINE
  5
2CC
330
287
100
AcDbEntity
  8
0
  6
Continuous
 62
     0
370
     0
100
AcDbPolyline
 90
        3
 70
     0
 43
0.0
 10
-441.4823
 20
1265.768066
 10
-441.544556
 20
1265.719971
 10
-441.707336
 20
1265.670166
  0
LWPOLYLINE
  5
2CD
330
287
100
AcDbEntity
  8
0
  6
Continuous
 62
     0
370
     0
100
AcDbPolyline
 90
       11
 70
     0
 43
0.0
 10
-441.707336
 20
1265.670166
 10
-441.925201
 20
1265.678833
 10
-442.192139
 20
1265.746826
 10
-442.502716
 20
1265.872559
 10
-442.850586
 20
1266.053589
 10
-443.228638
 20
1266.286133
 10
-443.62915
 20
1266.565552
 10
-444.043945
 20
1266.886108
 10
-444.464569
 20
1267.241211
 10
-444.882385
 20
1267.623657
 10
-445.290619
 20
1268.027344
  0
LWPOLYLINE
  5
2CE
330
287
100
AcDbEntity
  8
0
  6
Continuous
 62
     0
370
     0
100
AcDbPolyline
 90
        3
 70
     0
 43
0.0
 10
-472.04187
 20
1234.821655
 10
-472.104126
 20
1234.773682
 10
-472.266907
 20
1234.723877
  0
LWPOLYLINE
  5
2CF
330
287
100
AcDbEntity
  8
0
  6
Continuous
 62
     0
370
     0
100
AcDbPolyline
 90
       22
 70
     0
 43
0.0
 10
-472.266907
 20
1234.723877
 10
-472.478424
 20
1234.731567
 10
-472.736603
 20
1234.79541
 10
-473.036469
 20
1234.914185
 10
-473.372192
 20
1235.085693
 10
-473.737274
 20
1235.306519
 10
-474.124664
 20
1235.572388
 10
-474.526825
 20
1235.878174
 10
-474.935974
 20
1236.217896
 10
-475.344208
 20
1236.585083
 10
-475.743591
 20
1236.972534
 10
-476.126434
 20
1237.372681
 10
-476.48526
 20
1237.777954
 10
-476.813171
 20
1238.180298
 10
-477.10376
 20
1238.572144
 10
-477.35144
 20
1238.945679
 10
-477.551422
 20
1239.293823
 10
-477.699799
 20
1239.609863
 10
-477.793701
 20
1239.887451
 10
-477.831299
 20
1240.12146
 10
-477.81192
 20
1240.307129
 10
-477.73407
 20
1240.442871
  0
LWPOLYLINE
  5
2D0
330
287
100
AcDbEntity
  8
0
  6
Continuous
 62
     0
370
     0
100
AcDbPolyline
 90
       22
 70
     0
 43
0.0
 10
-542.906677
 20
1272.543335
 10
-542.876099
 20
1272.490601
 10
-542.773865
 20
1272.430786
 10
-542.601807
 20
1272.364746
 10
-542.363159
 20
1272.293701
 10
-542.062134
 20
1272.219116
 10
-541.704224
 20
1272.142334
 10
-541.296021
 20
1272.064575
 10
-540.844849
 20
1271.987305
 10
-540.358948
 20
1271.911987
 10
-539.847107
 20
1271.839966
 10
-539.318665
 20
1271.772461
 10
-538.783203
 20
1271.710938
 10
-538.250427
 20
1271.65625
 10
-537.730042
 20
1271.609619
 10
-537.231445
 20
1271.571655
 10
-536.763794
 20
1271.543213
 10
-536.33551
 20
1271.52478
 10
-535.954407
 20
1271.516602
 10
-535.627441
 20
1271.519043
 10
-535.360413
 20
1271.531738
 10
-535.149902
 20
1271.556152
  0
LWPOLYLINE
  5
2D1
330
287
100
AcDbEntity
  8
0
  6
Continuous
 62
     0
370
     0
100
AcDbPolyline
 90
        4
 70
     0
 43
0.0
 10
-535.149902
 20
1271.556152
 10
-535.063904
 20
1271.574951
 10
-535.00293
 20
1271.596924
 10
-534.957458
 20
1271.643433
  0
LWPOLYLINE
  5
2D2
330
287
100
AcDbEntity
  8
0
  6
Continuous
 62
     0
370
     0
100
AcDbPolyline
 90
       22
 70
     0
 43
0.0
 10
-541.924927
 20
1281.215332
 10
-541.894348
 20
1281.16272
 10
-541.792114
 20
1281.102783
 10
-541.620056
 20
1281.036743
 10
-541.381348
 20
1280.96582
 10
-541.080383
 20
1280.891235
 10
-540.722473
 20
1280.814331
 10
-540.31427
 20
1280.736572
 10
-539.863098
 20
1280.659302
 10
-539.377197
 20
1280.583984
 10
-538.865356
 20
1280.511963
 10
-538.336914
 20
1280.44458
 10
-537.801392
 20
1280.382935
 10
-537.268677
 20
1280.328247
 10
-536.748291
 20
1280.281616
 10
-536.249695
 20
1280.243652
 10
-535.782043
 20
1280.21521
 10
-535.35376
 20
1280.196777
 10
-534.972656
 20
1280.188721
 10
-534.64563
 20
1280.19104
 10
-534.378662
 20
1280.203857
 10
-534.168152
 20
1280.228271
  0
LWPOLYLINE
  5
2D3
330
287
100
AcDbEntity
  8
0
  6
Continuous
 62
     0
370
     0
100
AcDbPolyline
 90
        4
 70
     0
 43
0.0
 10
-534.168152
 20
1280.228271
 10
-534.082153
 20
1280.246948
 10
-534.021179
 20
1280.268921
 10
-533.975708
 20
1280.31543
  0
LINE
  5
2D4
330
287
100
AcDbEntity
  8
0
  6
Continuous
 62
     0
370
     0
100
AcDbLine
 10
-489.431887
 20
1278.796487
 30
0.0
 11
-489.56312
 21
1271.278185
 31
0.0
  0
LWPOLYLINE
  5
2D5
330
287
100
AcDbEntity
  8
0
  6
Continuous
 62
     0
370
    30
100
AcDbPolyline
 90
       11
 70
     0
 43
0.0
 10
-489.56311
 20
1271.278198
 10
-489.327881
 20
1270.838501
 10
-489.103516
 20
1270.434204
 10
-488.893829
 20
1270.067749
 10
-488.702454
 20
1269.741699
 10
-488.532898
 20
1269.45874
 10
-488.388184
 20
1269.221313
 10
-488.271057
 20
1269.03186
 10
-488.184235
 20
1268.892822
 10
-488.129608
 20
1268.805908
 10
-488.108124
 20
1268.771851
  0
LWPOLYLINE
  5
2D6
330
287
100
AcDbEntity
  8
0
  6
Continuous
 62
     0
370
    30
100
AcDbPolyline
 90
       11
 70
     0
 43
0.0
 10
-487.759064
 20
1288.768799
 10
-487.777313
 20
1288.742065
 10
-487.830872
 20
1288.663086
 10
-487.918579
 20
1288.533081
 10
-488.038605
 20
1288.353516
 10
-488.188293
 20
1288.126587
 10
-488.364746
 20
1287.854858
 10
-488.56485
 20
1287.540527
 10
-488.785065
 20
1287.186035
 10
-489.021698
 20
1286.794067
 10
-489.300659
 20
1286.314819
  0
LINE
  5
2D7
330
287
100
AcDbEntity
  8
0
  6
Continuous
 62
     0
370
     0
100
AcDbLine
 10
-489.300655
 20
1286.314789
 30
0.0
 11
-489.431887
 21
1278.796487
 31
0.0
  0
ARC
  5
2D8
330
287
100
AcDbEntity
  8
0
  6
Continuous
 62
     0
370
    30
100
AcDbCircle
 10
-531.925999
 20
1310.526008
 30
0.0
 40
49.02145528604221
100
AcDbArc
 50
329.037328
 51
330.403401
  0
ARC
  5
2D9
330
287
100
AcDbEntity
  8
0
  6
Continuous
 62
     0
370
    30
100
AcDbCircle
 10
-533.007457
 20
1248.569317
 30
0.0
 40
49.02145539874545
100
AcDbArc
 50
27.596599
 51
28.962672
  0
LINE
  5
2DA
330
287
100
AcDbEntity
  8
0
  6
Continuous
 62
     0
370
    30
100
AcDbLine
 10
-517.792555
 20
1272.790534
 30
0.0
 11
-495.180214
 21
1272.395834
 31
0.0
  0
LWPOLYLINE
  5
2DB
330
287
100
AcDbEntity
  8
0
  6
Continuous
 62
     0
370
    30
100
AcDbPolyline
 90
        6
 70
     0
 43
0.0
 10
-495.180206
 20
1272.395874
 10
-494.912384
 20
1272.467285
 10
-494.66217
 20
1272.593872
 10
-494.42981
 20
1272.756836
 10
-494.219116
 20
1272.955933
 10
-494.016876
 20
1273.189575
  0
LINE
  5
2DC
330
287
100
AcDbEntity
  8
0
  6
Continuous
 62
     0
370
     0
100
AcDbLine
 10
-494.01689
 20
1273.189552
 30
0.0
 11
-493.818418
 21
1284.56002
 31
0.0
  0
LWPOLYLINE
  5
2DD
330
287
100
AcDbEntity
  8
0
  6
Continuous
 62
     0
370
    30
100
AcDbPolyline
 90
        6
 70
     0
 43
0.0
 10
-493.81842
 20
1284.560059
 10
-494.00235
 20
1284.788818
 10
-494.203827
 20
1284.996094
 10
-494.428162
 20
1285.168335
 10
-494.671326
 20
1285.30603
 10
-494.949066
 20
1285.393799
  0
LINE
  5
2DE
330
287
100
AcDbEntity
  8
0
  6
Continuous
 62
     0
370
    30
100
AcDbLine
 10
-494.949076
 20
1285.39378
 30
0.0
 11
-517.565674
 21
1285.788554
 31
0.0
  0
LINE
  5
2DF
330
287
100
AcDbEntity
  8
0
  6
Continuous
 62
     0
370
    30
100
AcDbLine
 10
-491.732849
 20
1272.33566
 30
0.0
 11
-490.116852
 21
1272.307453
 31
0.0
  0
LINE
  5
2E0
330
287
100
AcDbEntity
  8
0
  6
Continuous
 62
     0
370
    30
100
AcDbLine
 10
-492.149591
 20
1272.342935
 30
0.0
 11
-491.732849
 21
1272.33566
 31
0.0
  0
LINE
  5
2E1
330
287
100
AcDbEntity
  8
0
  6
Continuous
 62
     0
370
    30
100
AcDbLine
 10
-495.180214
 20
1272.395834
 30
0.0
 11
-492.14959
 21
1272.342934
 31
0.0
  0
LINE
  5
2E2
330
287
100
AcDbEntity
  8
0
  6
Continuous
 62
     0
370
    30
100
AcDbLine
 10
-494.949076
 20
1285.39378
 30
0.0
 11
-491.922712
 21
1285.340955
 31
0.0
  0
LINE
  5
2E3
330
287
100
AcDbEntity
  8
0
  6
Continuous
 62
     0
370
    30
100
AcDbLine
 10
-491.922713
 20
1285.340955
 30
0.0
 11
-491.505967
 21
1285.33368
 31
0.0
  0
LINE
  5
2E4
330
287
100
AcDbEntity
  8
0
  6
Continuous
 62
     0
370
    30
100
AcDbLine
 10
-491.505967
 20
1285.33368
 30
0.0
 11
-489.889971
 21
1285.305473
 31
0.0
  0
ARC
  5
2E5
330
287
100
AcDbEntity
  8
0
  6
Continuous
 62
     0
370
     0
100
AcDbCircle
 10
-496.226381
 20
1276.593364
 30
0.0
 40
5.889500941061303
100
AcDbArc
 50
313.805505
 51
319.848026
  0
LWPOLYLINE
  5
2E6
330
287
100
AcDbEntity
  8
0
  6
Continuous
 62
     0
370
     0
100
AcDbPolyline
 90
        5
 70
     0
 43
0.0
 10
-492.920563
 20
1274.326782
 10
-492.550079
 20
1273.92627
 10
-492.224457
 20
1273.535156
 10
-491.950775
 20
1273.161743
 10
-491.724823
 20
1272.795654
  0
LWPOLYLINE
  5
2E7
330
287
100
AcDbEntity
  8
0
  6
Continuous
 62
     0
370
     0
100
AcDbPolyline
 90
        8
 70
     0
 43
0.0
 10
-494.016907
 20
1273.189331
 10
-493.81778
 20
1273.232178
 10
-493.628021
 20
1273.341919
 10
-493.455444
 20
1273.49707
 10
-493.300507
 20
1273.68103
 10
-493.161407
 20
1273.883789
 10
-493.035919
 20
1274.099121
 10
-492.920563
 20
1274.326782
  0
ARC
  5
2E8
330
287
100
AcDbEntity
  8
0
  6
Continuous
 62
     0
370
     0
100
AcDbCircle
 10
-496.147781
 20
1281.233199
 30
0.0
 40
5.892764808673338
100
AcDbArc
 50
38.154162
 51
44.193363
  0
LWPOLYLINE
  5
2E9
330
287
100
AcDbEntity
  8
0
  6
Continuous
 62
     0
370
     0
100
AcDbPolyline
 90
        8
 70
     0
 43
0.0
 10
-492.762451
 20
1283.385254
 10
-492.868134
 20
1283.613403
 10
-492.985779
 20
1283.83313
 10
-493.117462
 20
1284.040771
 10
-493.265564
 20
1284.230225
 10
-493.432281
 20
1284.391968
 10
-493.617767
 20
1284.509033
 10
-493.81842
 20
1284.560181
  0
LWPOLYLINE
  5
2EA
330
287
100
AcDbEntity
  8
0
  6
Continuous
 62
     0
370
     0
100
AcDbPolyline
 90
        5
 70
     0
 43
0.0
 10
-491.514008
 20
1284.873657
 10
-491.73822
 20
1284.535522
 10
-492.021576
 20
1284.172974
 10
-492.35791
 20
1283.794067
 10
-492.762451
 20
1283.385254
  0
ARC
  5
2EB
330
287
100
AcDbEntity
  8
0
  6
Continuous
 62
     0
370
     0
100
AcDbCircle
 10
-961.911681
 20
1418.596703
 30
0.0
 40
492.7283794336468
100
AcDbArc
 50
343.277927
 51
343.517245
  0
LWPOLYLINE
  5
2EC
330
287
100
AcDbEntity
  8
0
  6
Continuous
 62
     0
370
     0
100
AcDbPolyline
 90
        6
 70
     0
 43
0.0
 10
-491.724823
 20
1272.795654
 10
-491.377777
 20
1273.593018
 10
-491.012177
 20
1274.380493
 10
-490.651276
 20
1275.168457
 10
-490.316559
 20
1275.968628
 10
-490.019928
 20
1276.824219
  0
LINE
  5
2ED
330
287
100
AcDbEntity
  8
0
  6
Continuous
 62
     0
370
     0
100
AcDbLine
 10
-491.732849
 20
1272.33566
 30
0.0
 11
-491.724818
 21
1272.795712
 31
0.0
  0
ARC
  5
2EE
330
287
100
AcDbEntity
  8
0
  6
Continuous
 62
     0
370
     0
100
AcDbCircle
 10
-401.64999
 20
1370.778998
 30
0.0
 40
127.1473314918245
100
AcDbArc
 50
225.542006
 51
226.338606
  0
LINE
  5
2EF
330
287
100
AcDbEntity
  8
0
  6
Continuous
 62
     0
370
     0
100
AcDbLine
 10
-490.702221
 20
1280.025794
 30
0.0
 11
-490.74435
 21
1277.612263
 31
0.0
  0
ARC
  5
2F0
330
287
100
AcDbEntity
  8
0
  6
Continuous
 62
     0
370
     0
100
AcDbCircle
 10
-404.913755
 20
1183.806629
 30
0.0
 40
127.1471106835444
100
AcDbArc
 50
131.661394
 51
132.457995
  0
LWPOLYLINE
  5
2F1
330
287
100
AcDbEntity
  8
0
  6
Continuous
 62
     0
370
     0
100
AcDbPolyline
 90
        8
 70
     0
 43
0.0
 10
-492.762451
 20
1283.385254
 10
-492.532471
 20
1282.892456
 10
-492.274933
 20
1282.411987
 10
-491.991699
 20
1281.944458
 10
-491.68811
 20
1281.487427
 10
-491.371735
 20
1281.036011
 10
-491.053986
 20
1280.583252
 10
-490.702209
 20
1280.025757
  0
LWPOLYLINE
  5
2F2
330
287
100
AcDbEntity
  8
0
  6
Continuous
 62
     0
370
     0
100
AcDbPolyline
 90
        8
 70
     0
 43
0.0
 10
-490.744354
 20
1277.612305
 10
-491.053436
 20
1277.152466
 10
-491.385223
 20
1276.709229
 10
-491.71875
 20
1276.269287
 10
-492.04126
 20
1275.824341
 10
-492.345123
 20
1275.369263
 10
-492.624359
 20
1274.900269
 10
-492.920563
 20
1274.326782
  0
LINE
  5
2F3
330
287
100
AcDbEntity
  8
0
  6
Continuous
 62
     0
370
     0
100
AcDbLine
 10
-491.505967
 20
1285.33368
 30
0.0
 11
-491.513998
 21
1284.873629
 31
0.0
  0
LWPOLYLINE
  5
2F4
330
287
100
AcDbEntity
  8
0
  6
Continuous
 62
     0
370
     0
100
AcDbPolyline
 90
        6
 70
     0
 43
0.0
 10
-489.950745
 20
1280.788086
 10
-490.205261
 20
1281.618896
 10
-490.510132
 20
1282.430664
 10
-490.842529
 20
1283.230713
 10
-491.180573
 20
1284.029907
 10
-491.514008
 20
1284.873657
  0
ARC
  5
2F5
330
287
100
AcDbEntity
  8
0
  6
Continuous
 62
     0
370
     0
100
AcDbCircle
 10
-965.558384
 20
1155.816789
 30
0.0
 40
491.7524242426574
100
AcDbArc
 50
14.482517
 51
14.722311
  0
LINE
  5
2F6
330
287
100
AcDbEntity
  8
0
  6
Continuous
 62
     0
370
     0
100
AcDbLine
 10
-489.950749
 20
1280.788083
 30
0.0
 11
-490.702221
 21
1280.025794
 31
0.0
  0
LINE
  5
2F7
330
287
100
AcDbEntity
  8
0
  6
Continuous
 62
     0
370
     0
100
AcDbLine
 10
-490.74435
 20
1277.612263
 30
0.0
 11
-490.019939
 21
1276.824213
 31
0.0
  0
LINE
  5
2F8
330
287
100
AcDbEntity
  8
0
  6
Continuous
 62
     0
370
    30
100
AcDbLine
 10
-517.565674
 20
1285.788554
 30
0.0
 11
-517.792555
 21
1272.790534
 31
0.0
  0
LINE
  5
2F9
330
287
100
AcDbEntity
  8
0
  6
Continuous
 62
     0
370
    30
100
AcDbLine
 10
-482.357519
 20
1268.67148
 30
0.0
 11
-488.108041
 21
1268.771856
 31
0.0
  0
LINE
  5
2FA
330
287
100
AcDbEntity
  8
0
  6
Continuous
 62
     0
370
    30
100
AcDbLine
 10
-482.008471
 20
1288.668434
 30
0.0
 11
-487.759004
 21
1288.76881
 31
0.0
  0
LWPOLYLINE
  5
2FB
330
287
100
AcDbEntity
  8
0
  6
Continuous
 62
     0
370
    30
100
AcDbPolyline
 90
       19
 70
     0
 43
0.0
 10
-541.924927
 20
1281.215332
 10
-541.804016
 20
1282.633179
 10
-541.761536
 20
1284.056152
 10
-541.797913
 20
1285.479248
 10
-541.912903
 20
1286.897949
 10
-542.105957
 20
1288.308228
 10
-542.376526
 20
1289.705811
 10
-542.723999
 20
1291.086426
 10
-543.147339
 20
1292.446167
 10
-543.645203
 20
1293.78064
 10
-544.216125
 20
1295.085815
 10
-544.858154
 20
1296.35791
 10
-545.569458
 20
1297.593018
 10
-546.348083
 20
1298.787231
 10
-547.191589
 20
1299.937134
 10
-548.097412
 20
1301.039185
 10
-549.062866
 20
1302.089966
 10
-550.084961
 20
1303.086426
 10
-551.167847
 20
1304.031372
  0
LWPOLYLINE
  5
2FC
330
287
100
AcDbEntity
  8
0
  6
Continuous
 62
     0
370
    30
100
AcDbPolyline
 90
       17
 70
     0
 43
0.0
 10
-533.975708
 20
1280.31543
 10
-533.835876
 20
1281.872925
 10
-533.76825
 20
1283.435303
 10
-533.773193
 20
1284.999146
 10
-533.850708
 20
1286.560913
 10
-534.000427
 20
1288.117554
 10
-534.221924
 20
1289.665771
 10
-534.514832
 20
1291.202026
 10
-534.878601
 20
1292.723145
 10
-535.312561
 20
1294.225952
 10
-535.815674
 20
1295.707153
 10
-536.386902
 20
1297.163574
 10
-537.024963
 20
1298.592285
 10
-537.728394
 20
1299.990112
 10
-538.495667
 20
1301.354126
 10
-539.325317
 20
1302.681274
 10
-540.26123
 20
1304.031372
  0
LINE
  5
2FD
330
287
100
AcDbEntity
  8
0
  6
Continuous
 62
     0
370
    30
100
AcDbLine
 10
-542.906694
 20
1272.54331
 30
0.0
 11
-541.924937
 21
1281.215341
 31
0.0
  0
LINE
  5
2FE
330
287
100
AcDbEntity
  8
0
  6
Continuous
 62
     0
370
    30
100
AcDbLine
 10
-534.957472
 20
1271.643381
 30
0.0
 11
-533.975715
 21
1280.315413
 31
0.0
  0
LWPOLYLINE
  5
2FF
330
287
100
AcDbEntity
  8
0
  6
Continuous
 62
     0
370
    30
100
AcDbPolyline
 90
       16
 70
     0
 43
0.0
 10
-477.734192
 20
1240.442749
 10
-478.821442
 20
1239.390015
 10
-479.951691
 20
1238.390137
 10
-481.12265
 20
1237.445068
 10
-482.332153
 20
1236.556519
 10
-483.577789
 20
1235.726074
 10
-484.857117
 20
1234.9552
 10
-486.167694
 20
1234.245361
 10
-487.50708
 20
1233.5979
 10
-488.872742
 20
1233.01416
 10
-490.262024
 20
1232.494995
 10
-491.672333
 20
1232.041382
 10
-493.100983
 20
1231.654175
 10
-494.545319
 20
1231.334106
 10
-496.002686
 20
1231.081787
 10
-497.582733
 20
1230.886475
  0
LWPOLYLINE
  5
300
330
287
100
AcDbEntity
  8
0
  6
Continuous
 62
     0
370
    30
100
AcDbPolyline
 90
       59
 70
     0
 43
0.0
 10
-472.04187
 20
1234.821655
 10
-473.338715
 20
1233.563965
 10
-474.686646
 20
1232.365723
 10
-476.083008
 20
1231.229492
 10
-477.525269
 20
1230.157104
 10
-479.010956
 20
1229.150635
 10
-480.537384
 20
1228.212036
 10
-482.101746
 20
1227.342896
 10
-483.701202
 20
1226.5448
 10
-485.332855
 20
1225.819458
 10
-486.993744
 20
1225.168213
 10
-488.680786
 20
1224.592041
 10
-490.3909
 20
1224.091919
 10
-492.120911
 20
1223.669067
 10
-493.867737
 20
1223.324341
 10
-495.628143
 20
1223.05835
 10
-497.398926
 20
1222.871338
 10
-499.176758
 20
1222.763672
 10
-500.958374
 20
1222.735596
 10
-502.74057
 20
1222.787354
 10
-504.52005
 20
1222.918823
 10
-506.293549
 20
1223.129395
 10
-508.057861
 20
1223.418701
 10
-509.809692
 20
1223.786499
 10
-511.545868
 20
1224.232056
 10
-513.263245
 20
1224.754272
 10
-514.95874
 20
1225.352295
 10
-516.629333
 20
1226.024658
 10
-518.271912
 20
1226.770508
 10
-519.883362
 20
1227.588501
 10
-521.460938
 20
1228.477173
 10
-523.001953
 20
1229.434448
 10
-524.503601
 20
1230.458618
 10
-525.963196
 20
1231.547852
 10
-527.377991
 20
1232.700195
 10
-528.745483
 20
1233.913818
 10
-530.063293
 20
1235.186279
 10
-531.329163
 20
1236.515137
 10
-532.540894
 20
1237.898071
 10
-533.696228
 20
1239.33252
 10
-534.79303
 20
1240.816162
 10
-535.829529
 20
1242.345947
 10
-536.803955
 20
1243.919312
 10
-537.714539
 20
1245.533325
 10
-538.559631
 20
1247.185181
 10
-539.337646
 20
1248.87207
 10
-540.047363
 20
1250.590698
 10
-540.687622
 20
1252.338135
 10
-541.257324
 20
1254.111206
 10
-541.755249
 20
1255.906738
 10
-542.180481
 20
1257.721558
 10
-542.532471
 20
1259.55249
 10
-542.810486
 20
1261.39624
 10
-543.014038
 20
1263.249512
 10
-543.142761
 20
1265.108887
 10
-543.196472
 20
1266.971191
 10
-543.174988
 20
1268.83313
 10
-543.078369
 20
1270.691406
 10
-542.906677
 20
1272.543335
  0
LWPOLYLINE
  5
301
330
287
100
AcDbEntity
  8
0
  6
Continuous
 62
     0
370
    30
100
AcDbPolyline
 90
       40
 70
     0
 43
0.0
 10
-497.582733
 20
1230.886475
 10
-499.131622
 20
1230.772461
 10
-500.685669
 20
1230.734253
 10
-502.241241
 20
1230.771973
 10
-503.795074
 20
1230.885498
 10
-505.344025
 20
1231.074707
 10
-506.884888
 20
1231.339233
 10
-508.41452
 20
1231.678589
 10
-509.929626
 20
1232.092041
 10
-511.427032
 20
1232.578979
 10
-512.903564
 20
1233.138062
 10
-514.35614
 20
1233.768677
 10
-515.781616
 20
1234.469238
 10
-517.177002
 20
1235.238403
 10
-518.539185
 20
1236.074707
 10
-519.865356
 20
1236.97644
 10
-521.152588
 20
1237.941528
 10
-522.398132
 20
1238.96814
 10
-523.599182
 20
1240.054199
 10
-524.753235
 20
1241.197266
 10
-525.857727
 20
1242.395142
 10
-526.910278
 20
1243.645142
 10
-527.908447
 20
1244.94458
 10
-528.850037
 20
1246.290894
 10
-529.732849
 20
1247.681274
 10
-530.555237
 20
1249.112427
 10
-531.315369
 20
1250.581421
 10
-532.011658
 20
1252.084961
 10
-532.642395
 20
1253.619995
 10
-533.205933
 20
1255.183228
 10
-533.701233
 20
1256.771362
 10
-534.127258
 20
1258.380737
 10
-534.483093
 20
1260.008057
 10
-534.767883
 20
1261.649658
 10
-534.981018
 20
1263.302002
 10
-535.122131
 20
1264.961548
 10
-535.190918
 20
1266.624756
 10
-535.187195
 20
1268.288208
 10
-535.11084
 20
1269.947998
 10
-534.957458
 20
1271.643433
  0
LINE
  5
302
330
287
100
AcDbEntity
  8
0
  6
Continuous
 62
     0
370
    30
100
AcDbLine
 10
-477.734186
 20
1240.442786
 30
0.0
 11
-450.409018
 21
1268.113819
 31
0.0
  0
LINE
  5
303
330
287
100
AcDbEntity
  8
0
  6
Continuous
 62
     0
370
    30
100
AcDbLine
 10
-441.482297
 20
1265.767995
 30
0.0
 11
-472.041869
 21
1234.821618
 31
0.0
  0
ARC
  5
304
330
287
100
AcDbEntity
  8
0
  6
Continuous
 62
     0
370
    30
100
AcDbCircle
 10
-423.612617
 20
1248.110094
 30
0.0
 40
25.12223952088944
100
AcDbArc
 50
127.96603
 51
135.341534
  0
LINE
  5
305
330
287
100
AcDbEntity
  8
0
  6
Continuous
 62
     0
370
    30
100
AcDbLine
 10
-482.357519
 20
1268.671482
 30
0.0
 11
-446.082327
 21
1268.038297
 31
0.0
  0
LINE
  5
306
330
287
100
AcDbEntity
  8
0
  6
Continuous
 62
     0
370
    30
100
AcDbLine
 10
-191.969947
 20
1263.602749
 30
0.0
 11
-441.06698
 21
1267.950753
 31
0.0
  0
LINE
  5
307
330
287
100
AcDbEntity
  8
0
  6
Continuous
 62
     0
370
    30
100
AcDbLine
 10
-482.008471
 20
1288.668436
 30
0.0
 11
-191.620899
 21
1283.599703
 31
0.0
  0
ARC
  5
308
330
287
100
AcDbEntity
  8
0
  6
Continuous
 62
     0
370
    30
100
AcDbCircle
 10
-191.271851
 20
1303.596657
 30
0.0
 40
40.00000071288455
100
AcDbArc
 50
269.000001
 51
359.999999
  0
ARC
  5
309
330
287
100
AcDbEntity
  8
0
  6
Continuous
 62
     0
370
    30
100
AcDbCircle
 10
-191.271851
 20
1303.596657
 30
0.0
 40
20.00000048861384
100
AcDbArc
 50
269.000001
 51
359.999999
  0
LINE
  5
30A
330
287
100
AcDbEntity
  8
0
  6
Continuous
 62
     0
370
    30
100
AcDbLine
 10
-151.271851
 20
1303.596656
 30
0.0
 11
-151.271851
 21
1328.076813
 31
0.0
  0
LINE
  5
30B
330
287
100
AcDbEntity
  8
0
  6
Continuous
 62
     0
370
    30
100
AcDbLine
 10
-171.271851
 20
1303.596656
 30
0.0
 11
-171.271851
 21
1328.076813
 31
0.0
  0
LINE
  5
30C
330
287
100
AcDbEntity
  8
0
  6
Continuous
 62
     0
370
     0
100
AcDbLine
 10
-316.579261
 20
1349.465167
 30
0.0
 11
-316.579261
 21
1289.913391
 31
0.0
  0
LINE
  5
30D
330
287
100
AcDbEntity
  8
0
  6
Continuous
 62
     0
370
     0
100
AcDbLine
 10
-316.579261
 20
1289.913391
 30
0.0
 11
-316.579261
 21
1288.482773
 31
0.0
  0
LWPOLYLINE
  5
30E
330
287
100
AcDbEntity
  8
0
  6
Continuous
 62
     0
370
     0
100
AcDbPolyline
 90
        8
 70
     0
 43
0.0
 10
-326.827087
 20
1288.572266
 10
-326.827087
 20
1288.602783
 10
-326.827087
 20
1288.692993
 10
-326.827087
 20
1288.840454
 10
-326.827087
 20
1289.042358
 10
-326.827087
 20
1289.296021
 10
-326.827087
 20
1289.598267
 10
-326.827087
 20
1289.998657
  0
LINE
  5
30F
330
287
100
AcDbEntity
  8
0
  6
Continuous
 62
     0
370
     0
100
AcDbLine
 10
-326.827079
 20
1289.998626
 30
0.0
 11
-326.827079
 21
1349.375736
 31
0.0
  0
LWPOLYLINE
  5
310
330
287
100
AcDbEntity
  8
0
  6
Continuous
 62
     0
370
    30
100
AcDbPolyline
 90
        8
 70
     0
 43
0.0
 10
-315.570526
 20
1289.482788
 10
-315.570526
 20
1289.512207
 10
-315.570526
 20
1289.599243
 10
-315.570526
 20
1289.741455
 10
-315.570526
 20
1289.936279
 10
-315.570526
 20
1290.180908
 10
-315.570526
 20
1290.472534
 10
-315.570526
 20
1290.866455
  0
LINE
  5
311
330
287
100
AcDbEntity
  8
0
  6
Continuous
 62
     0
370
    30
100
AcDbLine
 10
-315.570535
 20
1290.866436
 30
0.0
 11
-315.570534
 21
1348.465205
 31
0.0
  0
LINE
  5
312
330
287
100
AcDbEntity
  8
0
  6
Continuous
 62
     0
370
    30
100
AcDbLine
 10
-327.570534
 20
1288.97397
 30
0.0
 11
-327.570534
 21
1318.97397
 31
0.0
  0
LINE
  5
313
330
287
100
AcDbEntity
  8
0
  6
Continuous
 62
     0
370
    30
100
AcDbLine
 10
-327.570534
 20
1318.97397
 30
0.0
 11
-327.570534
 21
1348.97397
 31
0.0
  0
LINE
  5
314
330
287
100
AcDbEntity
  8
0
  6
Continuous
 62
     0
370
    30
100
AcDbLine
 10
-390.070534
 20
1348.97397
 30
0.0
 11
-390.070534
 21
1318.97397
 31
0.0
  0
LINE
  5
315
330
287
100
AcDbEntity
  8
0
  6
Continuous
 62
     0
370
    30
100
AcDbLine
 10
-390.070534
 20
1318.97397
 30
0.0
 11
-390.070534
 21
1288.97397
 31
0.0
  0
LINE
  5
316
330
287
100
AcDbEntity
  8
0
  6
Continuous
 62
     0
370
     0
100
AcDbLine
 10
-401.061809
 20
1335.69506
 30
0.0
 11
-401.061808
 21
1349.465167
 31
0.0
  0
LINE
  5
317
330
287
100
AcDbEntity
  8
0
  6
Continuous
 62
     0
370
     0
100
AcDbLine
 10
-401.061808
 20
1288.482773
 30
0.0
 11
-401.061809
 21
1335.69506
 31
0.0
  0
LINE
  5
318
330
287
100
AcDbEntity
  8
0
  6
Continuous
 62
     0
370
     0
100
AcDbLine
 10
-390.81399
 20
1335.646017
 30
0.0
 11
-390.813989
 21
1288.572205
 31
0.0
  0
LINE
  5
319
330
287
100
AcDbEntity
  8
0
  6
Continuous
 62
     0
370
     0
100
AcDbLine
 10
-390.813989
 20
1349.375736
 30
0.0
 11
-390.81399
 21
1335.646017
 31
0.0
  0
LINE
  5
31A
330
287
100
AcDbEntity
  8
0
  6
Continuous
 62
     0
370
    30
100
AcDbLine
 10
-402.070535
 20
1335.14669
 30
0.0
 11
-402.070534
 21
1289.482735
 31
0.0
  0
LINE
  5
31B
330
287
100
AcDbEntity
  8
0
  6
Continuous
 62
     0
370
    30
100
AcDbLine
 10
-402.070534
 20
1348.465205
 30
0.0
 11
-402.070535
 21
1335.14669
 31
0.0
  0
ARC
  5
31C
330
287
100
AcDbEntity
  8
0
  6
Continuous
 62
     0
370
    30
100
AcDbCircle
 10
-502.570497
 20
1314.031151
 30
0.0
 40
14.50000000000001
100
AcDbArc
 50
270.0
 51
90.0
  0
ARC
  5
31D
330
287
100
AcDbEntity
  8
0
  6
Continuous
 62
     0
370
    30
100
AcDbCircle
 10
-502.570497
 20
1314.031151
 30
0.0
 40
14.50000000000001
100
AcDbArc
 50
90.0
 51
270.0
  0
ARC
  5
31E
330
287
100
AcDbEntity
  8
0
  6
Continuous
 62
     0
370
     0
100
AcDbCircle
 10
-502.570497
 20
1314.031151
 30
0.0
 40
13.50000000000001
100
AcDbArc
 50
270.0
 51
90.0
  0
ARC
  5
31F
330
287
100
AcDbEntity
  8
0
  6
Continuous
 62
     0
370
     0
100
AcDbCircle
 10
-502.570497
 20
1314.031151
 30
0.0
 40
13.50000000000001
100
AcDbArc
 50
90.0
 51
270.0
  0
LINE
  5
320
330
287
100
AcDbEntity
  8
0
  6
Continuous
 62
     0
370
     0
100
AcDbLine
 10
-517.072714
 20
1314.031151
 30
0.0
 11
-871.070495
 21
1314.031151
 31
0.0
  0
LINE
  5
321
330
287
100
AcDbEntity
  8
0
  6
Continuous
 62
     0
370
    30
100
AcDbLine
 10
-871.070495
 20
1314.031151
 30
0.0
 11
-871.070494
 21
1324.030921
 31
0.0
  0
LINE
  5
322
330
287
100
AcDbEntity
  8
0
  6
Continuous
 62
     0
370
    30
100
AcDbLine
 10
-871.070494
 20
1304.03138
 30
0.0
 11
-871.070495
 21
1314.031151
 31
0.0
  0
LWPOLYLINE
  5
323
330
287
100
AcDbEntity
  8
0
  6
Continuous
 62
     0
370
    30
100
AcDbPolyline
 90
       60
 70
     0
 43
0.0
 10
-952.585693
 20
1382.031128
 10
-952.553772
 20
1382.031128
 10
-952.455688
 20
1382.031128
 10
-952.288208
 20
1382.031128
 10
-952.048218
 20
1382.031128
 10
-951.733276
 20
1382.031128
 10
-951.34137
 20
1382.031128
 10
-950.870972
 20
1382.031128
 10
-950.32135
 20
1382.031128
 10
-949.692322
 20
1382.031128
 10
-948.984619
 20
1382.031128
 10
-948.199463
 20
1382.031128
 10
-947.339172
 20
1382.031128
 10
-946.406494
 20
1382.031128
 10
-945.405151
 20
1382.031128
 10
-944.339478
 20
1382.031128
 10
-943.214417
 20
1382.031128
 10
-942.035461
 20
1382.031128
 10
-940.808594
 20
1382.031128
 10
-939.540222
 20
1382.031128
 10
-938.236816
 20
1382.031128
 10
-936.905212
 20
1382.031128
 10
-935.552124
 20
1382.031128
 10
-934.184387
 20
1382.031128
 10
-932.808472
 20
1382.031128
 10
-931.430725
 20
1382.031128
 10
-930.05719
 20
1382.031128
 10
-928.69342
 20
1382.031128
 10
-927.344666
 20
1382.031128
 10
-926.015564
 20
1382.031128
 10
-924.704041
 20
1382.031128
 10
-923.375061
 20
1382.031128
 10
-922.026367
 20
1382.031128
 10
-920.662659
 20
1382.031128
 10
-919.289124
 20
1382.031128
 10
-917.911377
 20
1382.031128
 10
-916.535461
 20
1382.031128
 10
-915.167664
 20
1382.031128
 10
-913.814514
 20
1382.031128
 10
-912.482849
 20
1382.031128
 10
-911.179321
 20
1382.031128
 10
-909.910767
 20
1382.031128
 10
-908.683777
 20
1382.031128
 10
-907.504639
 20
1382.031128
 10
-906.379395
 20
1382.031128
 10
-905.313477
 20
1382.031128
 10
-904.31189
 20
1382.031128
 10
-903.378967
 20
1382.031128
 10
-902.518372
 20
1382.031128
 10
-901.733032
 20
1382.031128
 10
-901.024963
 20
1382.031128
 10
-900.395691
 20
1382.031128
 10
-899.845825
 20
1382.031128
 10
-899.375122
 20
1382.031128
 10
-898.98291
 20
1382.031128
 10
-898.667725
 20
1382.031128
 10
-898.42749
 20
1382.031128
 10
-898.259705
 20
1382.031128
 10
-898.161438
 20
1382.031128
 10
-898.129272
 20
1382.031128
  0
ARC
  5
324
330
287
100
AcDbEntity
  8
0
  6
Continuous
 62
     0
370
    30
100
AcDbCircle
 10
-898.129298
 20
1379.031158
 30
0.0
 40
3.00000000004138
100
AcDbArc
 50
5.0
 51
90.0
  0
LWPOLYLINE
  5
325
330
287
100
AcDbEntity
  8
0
  6
Continuous
 62
     0
370
     0
100
AcDbPolyline
 90
       62
 70
     0
 43
0.0
 10
-955.574219
 20
1379.292603
 10
-955.534119
 20
1379.292603
 10
-955.414001
 20
1379.292603
 10
-955.214294
 20
1379.292603
 10
-954.935364
 20
1379.292603
 10
-954.577942
 20
1379.292603
 10
-954.143066
 20
1379.292603
 10
-953.631958
 20
1379.292603
 10
-953.045776
 20
1379.292603
 10
-952.386169
 20
1379.292603
 10
-951.654907
 20
1379.292603
 10
-950.854004
 20
1379.292603
 10
-949.985413
 20
1379.292603
 10
-949.051453
 20
1379.292603
 10
-948.054749
 20
1379.292603
 10
-946.997925
 20
1379.292603
 10
-945.883606
 20
1379.292603
 10
-944.714844
 20
1379.292603
 10
-943.494812
 20
1379.292603
 10
-942.226746
 20
1379.292603
 10
-940.913879
 20
1379.292603
 10
-939.559692
 20
1379.292603
 10
-938.167969
 20
1379.292603
 10
-936.742249
 20
1379.292603
 10
-935.286316
 20
1379.292603
 10
-933.804016
 20
1379.292603
 10
-932.299377
 20
1379.292603
 10
-930.776367
 20
1379.292603
 10
-929.238892
 20
1379.292603
 10
-927.691162
 20
1379.292603
 10
-926.137268
 20
1379.292603
 10
-924.581299
 20
1379.292603
 10
-923.027405
 20
1379.292603
 10
-921.479675
 20
1379.292603
 10
-919.9422
 20
1379.292603
 10
-918.419128
 20
1379.292603
 10
-916.914429
 20
1379.292603
 10
-915.432129
 20
1379.292603
 10
-913.976074
 20
1379.292603
 10
-912.550293
 20
1379.292603
 10
-911.158447
 20
1379.292603
 10
-909.80426
 20
1379.292603
 10
-908.491272
 20
1379.292603
 10
-907.223083
 20
1379.292603
 10
-906.00293
 20
1379.292603
 10
-904.834045
 20
1379.292603
 10
-903.719604
 20
1379.292603
 10
-902.662659
 20
1379.292603
 10
-901.665771
 20
1379.292603
 10
-900.731689
 20
1379.292603
 10
-899.862915
 20
1379.292603
 10
-899.06189
 20
1379.292603
 10
-898.330444
 20
1379.292603
 10
-897.670654
 20
1379.292603
 10
-897.08429
 20
1379.292603
 10
-896.573059
 20
1379.292603
 10
-896.137939
 20
1379.292603
 10
-895.780334
 20
1379.292603
 10
-895.501221
 20
1379.292603
 10
-895.301331
 20
1379.292603
 10
-895.18103
 20
1379.292603
 10
-895.140686
 20
1379.292603
  0
LWPOLYLINE
  5
326
330
287
100
AcDbEntity
  8
0
  6
Continuous
 62
     0
370
    30
100
AcDbPolyline
 90
       48
 70
     0
 43
0.0
 10
-888.075012
 20
1298.531128
 10
-888.093262
 20
1298.566772
 10
-888.146362
 20
1298.673584
 10
-888.234436
 20
1298.850342
 10
-888.35553
 20
1299.095215
 10
-888.507568
 20
1299.406372
 10
-888.688232
 20
1299.781738
 10
-888.894653
 20
1300.218506
 10
-889.123718
 20
1300.713745
 10
-889.372192
 20
1301.264526
 10
-889.636536
 20
1301.868042
 10
-889.913269
 20
1302.521606
 10
-890.198914
 20
1303.222412
 10
-890.489746
 20
1303.96814
 10
-890.782227
 20
1304.755981
 10
-891.072449
 20
1305.58374
 10
-891.356689
 20
1306.44873
 10
-891.631104
 20
1307.348633
 10
-891.891968
 20
1308.280396
 10
-892.13562
 20
1309.240967
 10
-892.358337
 20
1310.227417
 10
-892.556519
 20
1311.236206
 10
-892.72699
 20
1312.263428
 10
-892.867615
 20
1313.303711
 10
-892.976135
 20
1314.351074
 10
-893.050598
 20
1315.399902
 10
-893.090271
 20
1316.444458
 10
-893.096375
 20
1317.478394
 10
-893.070251
 20
1318.49585
 10
-893.013184
 20
1319.490723
 10
-892.927917
 20
1320.457886
 10
-892.818176
 20
1321.393433
 10
-892.687744
 20
1322.293213
 10
-892.540344
 20
1323.153687
 10
-892.379761
 20
1323.971436
 10
-892.209961
 20
1324.744019
 10
-892.035095
 20
1325.46875
 10
-891.859253
 20
1326.142578
 10
-891.686462
 20
1326.761963
 10
-891.520447
 20
1327.324463
 10
-891.36438
 20
1327.828247
 10
-891.221497
 20
1328.270874
 10
-891.094971
 20
1328.650269
 10
-890.987427
 20
1328.963989
 10
-890.901245
 20
1329.210571
 10
-890.838318
 20
1329.388184
 10
-890.800049
 20
1329.495361
 10
-890.78717
 20
1329.531128
  0
LINE
  5
327
330
287
100
AcDbEntity
  8
0
  6
Continuous
 62
     0
370
    30
100
AcDbLine
 10
-895.140714
 20
1379.292626
 30
0.0
 11
-890.78715
 21
1329.531158
 31
0.0
  0
LINE
  5
328
330
287
100
AcDbEntity
  8
0
  6
Continuous
 62
     0
370
    30
100
AcDbLine
 10
-888.075002
 20
1298.531158
 30
0.0
 11
-878.757459
 21
1192.031158
 31
0.0
  0
LINE
  5
329
330
287
100
AcDbEntity
  8
0
  6
Continuous
 62
     0
370
    30
100
AcDbLine
 10
-881.857482
 20
1328.531151
 30
0.0
 11
-880.739503
 21
1328.531213
 31
0.0
  0
LINE
  5
32A
330
287
100
AcDbEntity
  8
0
  6
Continuous
 62
     0
370
     0
100
AcDbLine
 10
-881.857482
 20
1299.531151
 30
0.0
 11
-881.857482
 21
1328.531151
 31
0.0
  0
LINE
  5
32B
330
287
100
AcDbEntity
  8
0
  6
Continuous
 62
     0
370
    30
100
AcDbLine
 10
-880.739448
 20
1299.531151
 30
0.0
 11
-881.857482
 21
1299.531151
 31
0.0
  0
ARC
  5
32C
330
287
100
AcDbEntity
  8
0
  6
Continuous
 62
     0
370
    30
100
AcDbCircle
 10
-881.857482
 20
1300.531151
 30
0.0
 40
1.499999999970429
100
AcDbArc
 50
318.189685
 51
0.0
  0
LINE
  5
32D
330
287
100
AcDbEntity
  8
0
  6
Continuous
 62
     0
370
    30
100
AcDbLine
 10
-880.357482
 20
1327.531151
 30
0.0
 11
-880.357482
 21
1300.531151
 31
0.0
  0
LINE
  5
32E
330
287
100
AcDbEntity
  8
0
  6
Continuous
 62
     0
370
    30
100
AcDbLine
 10
-888.357482
 20
1299.09922
 30
0.0
 11
-888.357482
 21
1299.531151
 31
0.0
  0
LINE
  5
32F
330
287
100
AcDbEntity
  8
0
  6
Continuous
 62
     0
370
    30
100
AcDbLine
 10
-888.357482
 20
1299.531151
 30
0.0
 11
-881.857482
 21
1299.531151
 31
0.0
  0
LINE
  5
330
330
287
100
AcDbEntity
  8
0
  6
Continuous
 62
     0
370
    30
100
AcDbLine
 10
-881.857482
 20
1328.531151
 30
0.0
 11
-888.357482
 21
1328.531151
 31
0.0
  0
LINE
  5
331
330
287
100
AcDbEntity
  8
0
  6
Continuous
 62
     0
370
    30
100
AcDbLine
 10
-888.357482
 20
1328.531151
 30
0.0
 11
-888.357482
 21
1329.031151
 31
0.0
  0
LINE
  5
332
330
287
100
AcDbEntity
  8
0
  6
Continuous
 62
     0
370
    30
100
AcDbLine
 10
-874.38967
 20
1308.013362
 30
0.0
 11
-874.38967
 21
1307.931151
 31
0.0
  0
LINE
  5
333
330
287
100
AcDbEntity
  8
0
  6
Continuous
 62
     0
370
    30
100
AcDbLine
 10
-874.38967
 20
1320.131151
 30
0.0
 11
-874.38967
 21
1308.013362
 31
0.0
  0
LINE
  5
334
330
287
100
AcDbEntity
  8
0
  6
Continuous
 62
     0
370
    30
100
AcDbLine
 10
-877.054259
 20
1179.031145
 30
0.0
 11
-890.780312
 21
1179.031145
 31
0.0
  0
LINE
  5
335
330
287
100
AcDbEntity
  8
0
  6
Continuous
 62
     0
370
    30
100
AcDbLine
 10
-890.780312
 20
1179.031145
 30
0.0
 11
-973.660704
 21
1179.031145
 31
0.0
  0
LINE
  5
336
330
287
100
AcDbEntity
  8
0
  6
Continuous
 62
     0
370
    30
100
AcDbLine
 10
-878.670797
 20
1192.031145
 30
0.0
 11
-891.937488
 21
1192.031145
 31
0.0
  0
LINE
  5
337
330
287
100
AcDbEntity
  8
0
  6
Continuous
 62
     0
370
    30
100
AcDbLine
 10
-891.937488
 20
1192.031145
 30
0.0
 11
-972.044166
 21
1192.031145
 31
0.0
  0
LWPOLYLINE
  5
338
330
287
100
AcDbEntity
  8
0
  6
Continuous
 62
     0
370
     0
100
AcDbPolyline
 90
       62
 70
     0
 43
0.0
 10
-973.288391
 20
1190.901001
 10
-973.24823
 20
1190.901001
 10
-973.12793
 20
1190.901001
 10
-972.927917
 20
1190.901001
 10
-972.649231
 20
1190.901001
 10
-972.293213
 20
1190.901001
 10
-971.861511
 20
1190.901001
 10
-971.356079
 20
1190.901001
 10
-970.779419
 20
1190.901001
 10
-970.134155
 20
1190.901001
 10
-969.423157
 20
1190.901001
 10
-968.649536
 20
1190.901001
 10
-967.816772
 20
1190.901001
 10
-966.928345
 20
1190.901001
 10
-965.987915
 20
1190.901001
 10
-964.999207
 20
1190.901001
 10
-963.966003
 20
1190.901001
 10
-962.892212
 20
1190.901001
 10
-961.781677
 20
1190.901001
 10
-960.638245
 20
1190.901001
 10
-959.465576
 20
1190.901001
 10
-958.263672
 20
1190.901001
 10
-957.008484
 20
1190.901001
 10
-955.695496
 20
1190.901001
 10
-954.325134
 20
1190.901001
 10
-952.898376
 20
1190.901001
 10
-951.416382
 20
1190.901001
 10
-949.880615
 20
1190.901001
 10
-948.292847
 20
1190.901001
 10
-946.655273
 20
1190.901001
 10
-944.970398
 20
1190.901001
 10
-943.240845
 20
1190.901001
 10
-941.46991
 20
1190.901001
 10
-939.660828
 20
1190.901001
 10
-937.817383
 20
1190.901001
 10
-935.943481
 20
1190.901001
 10
-934.043335
 20
1190.901001
 10
-932.121399
 20
1190.901001
 10
-930.182129
 20
1190.901001
 10
-928.230347
 20
1190.901001
 10
-926.270935
 20
1190.901001
 10
-924.308655
 20
1190.901001
 10
-922.348511
 20
1190.901001
 10
-920.395447
 20
1190.901001
 10
-918.454285
 20
1190.901001
 10
-916.529846
 20
1190.901001
 10
-914.626648
 20
1190.901001
 10
-912.749268
 20
1190.901001
 10
-910.901855
 20
1190.901001
 10
-909.088501
 20
1190.901001
 10
-907.312988
 20
1190.901001
 10
-905.578735
 20
1190.901001
 10
-903.888977
 20
1190.901001
 10
-902.246521
 20
1190.901001
 10
-900.653992
 20
1190.901001
 10
-899.113586
 20
1190.901001
 10
-897.627136
 20
1190.901001
 10
-896.196289
 20
1190.901001
 10
-894.822205
 20
1190.901001
 10
-893.50592
 20
1190.901001
 10
-892.247986
 20
1190.901001
 10
-891.046814
 20
1190.901001
  0
LINE
  5
339
330
287
100
AcDbEntity
  8
0
  6
Continuous
 62
     0
370
     0
100
AcDbLine
 10
-891.046813
 20
1190.900953
 30
0.0
 11
-877.426551
 21
1190.900953
 31
0.0
  0
LWPOLYLINE
  5
33A
330
287
100
AcDbEntity
  8
0
  6
Continuous
 62
     0
370
     0
100
AcDbPolyline
 90
       63
 70
     0
 43
0.0
 10
-974.357483
 20
1179.798218
 10
-974.317749
 20
1179.798218
 10
-974.198669
 20
1179.798218
 10
-974.000793
 20
1179.798218
 10
-973.724976
 20
1179.798218
 10
-973.372498
 20
1179.798218
 10
-972.945007
 20
1179.798218
 10
-972.444397
 20
1179.798218
 10
-971.873047
 20
1179.798218
 10
-971.233398
 20
1179.798218
 10
-970.528259
 20
1179.798218
 10
-969.760742
 20
1179.798218
 10
-968.934021
 20
1179.798218
 10
-968.051575
 20
1179.798218
 10
-967.116821
 20
1179.798218
 10
-966.133545
 20
1179.798218
 10
-965.105286
 20
1179.798218
 10
-964.035889
 20
1179.798218
 10
-962.929077
 20
1179.798218
 10
-961.788574
 20
1179.798218
 10
-960.618103
 20
1179.798218
 10
-959.420959
 20
1179.798218
 10
-958.178955
 20
1179.798218
 10
-956.879578
 20
1179.798218
 10
-955.523254
 20
1179.798218
 10
-954.110779
 20
1179.798218
 10
-952.643066
 20
1179.798218
 10
-951.121521
 20
1179.798218
 10
-949.547729
 20
1179.798218
 10
-947.923645
 20
1179.798218
 10
-946.251526
 20
1179.798218
 10
-944.533936
 20
1179.798218
 10
-942.773682
 20
1179.798218
 10
-940.973999
 20
1179.798218
 10
-939.138306
 20
1179.798218
 10
-937.270264
 20
1179.798218
 10
-935.373901
 20
1179.798218
 10
-933.453369
 20
1179.798218
 10
-931.513
 20
1179.798218
 10
-929.557373
 20
1179.798218
 10
-927.591064
 20
1179.798218
 10
-925.618835
 20
1179.798218
 10
-923.645447
 20
1179.798218
 10
-921.675781
 20
1179.798218
 10
-919.714539
 20
1179.798218
 10
-917.766479
 20
1179.798218
 10
-915.836121
 20
1179.798218
 10
-913.92804
 20
1179.798218
 10
-912.046387
 20
1179.798218
 10
-910.195435
 20
1179.798218
 10
-908.378906
 20
1179.798218
 10
-906.600464
 20
1179.798218
 10
-904.863464
 20
1179.798218
 10
-903.170898
 20
1179.798218
 10
-901.525574
 20
1179.798218
 10
-899.929871
 20
1179.798218
 10
-898.385986
 20
1179.798218
 10
-896.895691
 20
1179.798218
 10
-895.460449
 20
1179.798218
 10
-894.081482
 20
1179.798218
 10
-892.759705
 20
1179.798218
 10
-891.495667
 20
1179.798218
 10
-890.281555
 20
1179.798218
  0
LINE
  5
33B
330
287
100
AcDbEntity
  8
0
  6
Continuous
 62
     0
370
     0
100
AcDbLine
 10
-890.281534
 20
1179.798237
 30
0.0
 11
-876.357482
 21
1179.798237
 31
0.0
  0
ARC
  5
33C
330
287
100
AcDbEntity
  8
0
  6
Continuous
 62
     0
370
    30
100
AcDbCircle
 10
-973.660704
 20
1179.731145
 30
0.0
 40
0.7000001355210348
100
AcDbArc
 50
174.500012
 51
269.999988
  0
ARC
  5
33D
330
287
100
AcDbEntity
  8
0
  6
Continuous
 62
     0
370
    30
100
AcDbCircle
 10
-877.054259
 20
1179.731145
 30
0.0
 40
0.7000001413113914
100
AcDbArc
 50
270.009289
 51
5.499987
  0
LINE
  5
33E
330
287
100
AcDbEntity
  8
0
  6
Continuous
 62
     0
370
    30
100
AcDbLine
 10
-877.426551
 20
1190.900953
 30
0.0
 11
-876.357482
 21
1179.798237
 31
0.0
  0
LINE
  5
33F
330
287
100
AcDbEntity
  8
0
  6
Continuous
 62
     0
370
    30
100
AcDbLine
 10
-973.288412
 20
1190.900953
 30
0.0
 11
-974.357482
 21
1179.798237
 31
0.0
  0
ARC
  5
340
330
287
100
AcDbEntity
  8
0
  6
Continuous
 62
     0
370
    30
100
AcDbCircle
 10
-878.670893
 20
1190.781039
 30
0.0
 40
1.250106050046613
100
AcDbArc
 50
5.504414
 51
89.987881
  0
ARC
  5
341
330
287
100
AcDbEntity
  8
0
  6
Continuous
 62
     0
370
    30
100
AcDbCircle
 10
-972.04407
 20
1190.781039
 30
0.0
 40
1.250106050163936
100
AcDbArc
 50
90.012119
 51
174.495586
  0
ARC
  5
342
330
287
100
AcDbEntity
  8
0
  6
Continuous
 62
     0
370
    30
100
AcDbCircle
 10
-925.356876
 20
1490.040191
 30
0.0
 40
314.4990319125781
100
AcDbArc
 50
261.456373
 51
278.543627
  0
ARC
  5
343
330
287
100
AcDbEntity
  8
0
  6
Continuous
 62
     0
370
    30
100
AcDbCircle
 10
-885.070528
 20
1314.03119
 30
0.0
 40
12.30004886533025
100
AcDbArc
 50
292.530375
 51
330.268502
  0
ARC
  5
344
330
287
100
AcDbEntity
  8
0
  6
Continuous
 62
     0
370
    30
100
AcDbCircle
 10
-885.070525
 20
1314.031116
 30
0.0
 40
12.30004384286753
100
AcDbArc
 50
29.73149
 51
67.467519
  0
LINE
  5
345
330
287
100
AcDbEntity
  8
0
  6
Continuous
 62
     0
370
    30
100
AcDbLine
 10
-871.070494
 20
1320.131151
 30
0.0
 11
-874.38967
 21
1320.131151
 31
0.0
  0
LINE
  5
346
330
287
100
AcDbEntity
  8
0
  6
Continuous
 62
     0
370
    30
100
AcDbLine
 10
-871.070494
 20
1307.931151
 30
0.0
 11
-874.38967
 21
1307.931151
 31
0.0
  0
LINE
  5
347
330
287
100
AcDbEntity
  8
0
  6
Continuous
 62
     0
370
    30
100
AcDbLine
 10
-890.96413
 20
1329.031151
 30
0.0
 11
-888.357482
 21
1329.031151
 31
0.0
  0
ARC
  5
348
330
287
100
AcDbEntity
  8
0
  6
Continuous
 62
     0
370
    30
100
AcDbCircle
 10
-881.857815
 20
1327.531023
 30
0.0
 40
1.500333455950356
100
AcDbArc
 50
0.012967
 51
41.810739
  0
LINE
  5
349
330
287
100
AcDbEntity
  8
0
  6
Continuous
 62
     0
370
    30
100
AcDbLine
 10
-971.957504
 20
1192.031158
 30
0.0
 11
-955.574249
 21
1379.292626
 31
0.0
  0
ARC
  5
34A
330
287
100
AcDbEntity
  8
0
  6
Continuous
 62
     0
370
    30
100
AcDbCircle
 10
-952.585419
 20
1379.03089
 30
0.0
 40
3.000268176079275
100
AcDbArc
 50
90.006602
 51
174.995307
  0
LINE
  5
34B
330
287
100
AcDbEntity
  8
0
  6
Continuous
 62
     0
370
    30
100
AcDbLine
 10
-871.070494
 20
1304.03138
 30
0.0
 11
-517.24726
 21
1304.03138
 31
0.0
  0
LINE
  5
34C
330
287
100
AcDbEntity
  8
0
  6
Continuous
 62
     0
370
    30
100
AcDbLine
 10
-871.070494
 20
1324.030921
 30
0.0
 11
-513.070713
 21
1324.030921
 31
0.0
  0
LINE
  5
34D
330
287
100
AcDbEntity
  8
0
  6
Continuous
 62
     0
370
    30
100
AcDbLine
 10
-402.070534
 20
1323.981151
 30
0.0
 11
-492.022125
 21
1323.981151
 31
0.0
  0
LINE
  5
34E
330
287
100
AcDbEntity
  8
0
  6
Continuous
 62
     0
370
    30
100
AcDbLine
 10
-402.070534
 20
1304.081151
 30
0.0
 11
-488.241974
 21
1304.081151
 31
0.0
  0
ARC
  5
34F
330
287
100
AcDbEntity
  8
0
  6
Continuous
 62
     0
370
    30
100
AcDbCircle
 10
-401.070508
 20
1348.465183
 30
0.0
 40
1.000026065755794
100
AcDbArc
 50
89.501505
 51
179.995605
  0
ARC
  5
350
330
287
100
AcDbEntity
  8
0
  6
Continuous
 62
     0
370
    30
100
AcDbCircle
 10
-401.070507
 20
1289.482745
 30
0.0
 40
1.000026876790203
100
AcDbArc
 50
180.0044
 51
270.498448
  0
ARC
  5
351
330
287
100
AcDbEntity
  8
0
  6
Continuous
 62
     0
370
    30
100
AcDbCircle
 10
-390.820541
 20
1348.625761
 30
0.0
 40
0.7500071020991625
100
AcDbArc
 50
0.005559
 51
89.499464
  0
ARC
  5
352
330
287
100
AcDbEntity
  8
0
  6
Continuous
 62
     0
370
    30
100
AcDbCircle
 10
-390.820541
 20
1289.322166
 30
0.0
 40
0.7500070357648805
100
AcDbArc
 50
270.500531
 51
359.999498
  0
LINE
  5
353
330
287
100
AcDbEntity
  8
0
  6
Continuous
 62
     0
370
    30
100
AcDbLine
 10
-390.813989
 20
1349.375736
 30
0.0
 11
-401.061808
 21
1349.465167
 31
0.0
  0
LINE
  5
354
330
287
100
AcDbEntity
  8
0
  6
Continuous
 62
     0
370
    30
100
AcDbLine
 10
-390.813989
 20
1288.572205
 30
0.0
 11
-401.061808
 21
1288.482773
 31
0.0
  0
LINE
  5
355
330
287
100
AcDbEntity
  8
0
  6
Continuous
 62
     0
370
    30
100
AcDbLine
 10
-390.070534
 20
1348.97397
 30
0.0
 11
-327.570534
 21
1348.97397
 31
0.0
  0
LINE
  5
356
330
287
100
AcDbEntity
  8
0
  6
Continuous
 62
     0
370
    30
100
AcDbLine
 10
-390.070534
 20
1288.97397
 30
0.0
 11
-327.570534
 21
1288.97397
 31
0.0
  0
ARC
  5
357
330
287
100
AcDbEntity
  8
0
  6
Continuous
 62
     0
370
    30
100
AcDbCircle
 10
-316.570558
 20
1348.465067
 30
0.0
 40
1.000024167201042
100
AcDbArc
 50
0.004798
 51
90.498604
  0
ARC
  5
358
330
287
100
AcDbEntity
  8
0
  6
Continuous
 62
     0
370
    30
100
AcDbCircle
 10
-316.570561
 20
1289.482755
 30
0.0
 40
1.000026523488491
100
AcDbArc
 50
269.501532
 51
359.997126
  0
ARC
  5
359
330
287
100
AcDbEntity
  8
0
  6
Continuous
 62
     0
370
    30
100
AcDbCircle
 10
-326.820528
 20
1348.625645
 30
0.0
 40
0.7500056940457992
100
AcDbArc
 50
90.50043
 51
179.992786
  0
ARC
  5
35A
330
287
100
AcDbEntity
  8
0
  6
Continuous
 62
     0
370
    30
100
AcDbCircle
 10
-326.820528
 20
1289.322176
 30
0.0
 40
0.7500065268670425
100
AcDbArc
 50
180.005476
 51
269.499507
  0
LINE
  5
35B
330
287
100
AcDbEntity
  8
0
  6
Continuous
 62
     0
370
    30
100
AcDbLine
 10
-326.827079
 20
1349.375736
 30
0.0
 11
-316.579261
 21
1349.465167
 31
0.0
  0
LINE
  5
35C
330
287
100
AcDbEntity
  8
0
  6
Continuous
 62
     0
370
    30
100
AcDbLine
 10
-326.827079
 20
1288.572205
 30
0.0
 11
-316.579261
 21
1288.482773
 31
0.0
  0
ENDBLK
  5
35E
330
287
100
AcDbEntity
  8
0
100
AcDbBlockEnd
  0
ENDSEC
  0
SECTION
  2
ENTITIES
  0
INSERT
  5
E1
330
1F
100
AcDbEntity
  8
0
  6
Continuous
 62
     7
420
 16250871
370
     0
100
AcDbBlockReference
  2
a
 10
18.380348
 20
99.914375
 30
0.0
  0
INSERT
  5
1B6
330
1F
100
AcDbEntity
  8
0
  6
Continuous
 62
     7
420
 16250871
370
     0
100
AcDbBlockReference
  2
b
 10
18.380348
 20
99.914375
 30
0.0
  0
INSERT
  5
286
330
1F
100
AcDbEntity
  8
0
  6
Continuous
 62
     7
420
 16250871
370
     0
100
AcDbBlockReference
  2
c
 10
50.684059
 20
99.914375
 30
0.0
  0
INSERT
  5
35F
330
1F
100
AcDbEntity
  8
0
  6
Continuous
 62
     7
420
 16250871
370
     0
100
AcDbBlockReference
  2
d
 10
-43.131775
 20
0.0
 30
0.0
  0
ENDSEC
  0
SECTION
  2
OBJECTS
  0
DICTIONARY
  5
C
330
0
100
AcDbDictionary
281
     1
  3
ACAD_DETAILVIEWSTYLE
350
397
  3
ACAD_GROUP
350
D
  3
ACAD_LAYOUT
350
1A
  3
ACAD_MATERIAL
350
43
  3
ACAD_MLEADERSTYLE
350
6B
  3
ACAD_MLINESTYLE
350
17
  3
ACAD_PLOTSETTINGS
350
19
  3
ACAD_PLOTSTYLENAME
350
E
  3
ACAD_SCALELIST
350
47
  3
ACAD_SECTIONVIEWSTYLE
350
398
  3
ACAD_TABLESTYLE
350
69
  3
ACAD_VISUALSTYLE
350
2A
  3
ACDB_RECOMPOSE_DATA
350
394
  3
AcDbVariableDictionary
350
360
  0
SUN
  5
6D
330
29
100
AcDbSun
 90
        1
290
     0
 63
     7
421
 16777215
 40
1.0
291
     1
 91
  2455826
 92
 54000000
292
     0
 70
     2
 71
   256
280
     1
  0
DICTIONARY
  5
397
102
{ACAD_REACTORS
330
C
102
}
330
C
100
AcDbDictionary
281
     1
  0
DICTIONARY
  5
D
102
{ACAD_REACTORS
330
C
102
}
330
C
100
AcDbDictionary
281
     1
  0
DICTIONARY
  5
1A
102
{ACAD_REACTORS
330
C
102
}
330
C
100
AcDbDictionary
281
     1
  3
Layout1
350
1E
  3
Layout2
350
26
  3
Model
350
22
  0
DICTIONARY
  5
43
102
{ACAD_REACTORS
330
C
102
}
330
C
100
AcDbDictionary
281
     1
  3
ByBlock
350
45
  3
ByLayer
350
44
  3
Global
350
46
  0
DICTIONARY
  5
6B
102
{ACAD_REACTORS
330
C
102
}
330
C
100
AcDbDictionary
281
     1
  3
Standard
350
6C
  0
DICTIONARY
  5
17
102
{ACAD_REACTORS
330
C
102
}
330
C
100
AcDbDictionary
281
     1
  3
Standard
350
18
  0
DICTIONARY
  5
19
102
{ACAD_REACTORS
330
C
102
}
330
C
100
AcDbDictionary
281
     1
  0
ACDBDICTIONARYWDFLT
  5
E
102
{ACAD_REACTORS
330
C
102
}
330
C
100
AcDbDictionary
281
     1
  3
Normal
350
F
100
AcDbDictionaryWithDefault
340
F
  0
DICTIONARY
  5
47
102
{ACAD_REACTORS
330
C
102
}
330
C
100
AcDbDictionary
281
     1
  3
A0
350
48
  3
A1
350
49
  3
A2
350
4A
  3
A3
350
4B
  3
A4
350
4C
  3
A5
350
4D
  3
A6
350
4E
  3
A7
350
4F
  3
A8
350
50
  3
A9
350
51
  3
B0
350
52
  3
B1
350
53
  3
B2
350
54
  3
B3
350
55
  3
B4
350
56
  3
B5
350
57
  3
B6
350
58
  3
B7
350
59
  3
B8
350
5A
  3
B9
350
5B
  3
C0
350
5C
  3
C1
350
5D
  3
C2
350
5E
  3
C3
350
5F
  3
C4
350
60
  3
C5
350
61
  3
C6
350
62
  3
C7
350
63
  3
C8
350
64
  3
C9
350
65
  3
D0
350
66
  3
D1
350
67
  3
D2
350
68
  0
DICTIONARY
  5
398
102
{ACAD_REACTORS
330
C
102
}
330
C
100
AcDbDictionary
281
     1
  0
DICTIONARY
  5
69
102
{ACAD_REACTORS
330
C
102
}
330
C
100
AcDbDictionary
281
     1
  3
Standard
350
6A
  0
DICTIONARY
  5
2A
102
{ACAD_REACTORS
330
C
102
}
330
C
100
AcDbDictionary
281
     1
  3
2dWireframe
350
2F
  3
Basic
350
32
  3
Brighten
350
36
  3
ColorChange
350
3A
  3
Conceptual
350
34
  3
Dim
350
35
  3
EdgeColorOff
350
3D
  3
Facepattern
350
39
  3
Flat
350
2B
  3
FlatWithEdges
350
2C
  3
Gouraud
350
2D
  3
GouraudWithEdges
350
2E
  3
Hidden
350
31
  3
JitterOff
350
3B
  3
Linepattern
350
38
  3
OverhangOff
350
3C
  3
Realistic
350
33
  3
Shaded
350
42
  3
Shaded with edges
350
41
  3
Shades of Gray
350
3E
  3
Sketchy
350
3F
  3
Thicken
350
37
  3
Wireframe
350
30
  3
X-Ray
350
40
  0
XRECORD
  5
394
102
{ACAD_REACTORS
330
C
102
}
330
C
100
AcDbXrecord
280
     1
 90
        1
330
6A
  0
DICTIONARY
  5
360
102
{ACAD_REACTORS
330
C
102
}
330
C
100
AcDbDictionary
281
     1
  3
CANNOSCALE
350
361
  3
CMLEADERSTYLE
350
396
  3
CTABLESTYLE
350
395
  0
LAYOUT
  5
1E
102
{ACAD_REACTORS
330
1A
102
}
330
1A
100
AcDbPlotSettings
  1

  2
none_device
  4

  6

 40
0.0
 41
0.0
 42
0.0
 43
0.0
 44
0.0
 45
0.0
 46
0.0
 47
0.0
 48
0.0
 49
0.0
140
0.0
141
0.0
142
1.0
143
1.0
 70
   688
 72
     1
 73
     0
 74
     5
  7

 75
    16
 76
     0
 77
     2
 78
   300
147
1.0
148
0.0
149
0.0
100
AcDbLayout
  1
Layout1
 70
     1
 71
     1
 10
0.0
 20
0.0
 11
420.0
 21
297.0
 12
0.0
 22
0.0
 32
0.0
 14
1.000000E+20
 24
1.000000E+20
 34
1.000000E+20
 15
-1.000000E+20
 25
-1.000000E+20
 35
-1.000000E+20
146
0.0
 13
0.0
 23
0.0
 33
0.0
 16
1.0
 26
0.0
 36
0.0
 17
0.0
 27
1.0
 37
0.0
 76
     0
330
1B
  0
LAYOUT
  5
26
102
{ACAD_REACTORS
330
1A
102
}
330
1A
100
AcDbPlotSettings
  1

  2
none_device
  4

  6

 40
0.0
 41
0.0
 42
0.0
 43
0.0
 44
0.0
 45
0.0
 46
0.0
 47
0.0
 48
0.0
 49
0.0
140
0.0
141
0.0
142
1.0
143
1.0
 70
   688
 72
     1
 73
     0
 74
     5
  7

 75
    16
 76
     0
 77
     2
 78
   300
147
1.0
148
0.0
149
0.0
100
AcDbLayout
  1
Layout2
 70
     1
 71
     2
 10
0.0
 20
0.0
 11
0.0
 21
0.0
 12
0.0
 22
0.0
 32
0.0
 14
0.0
 24
0.0
 34
0.0
 15
0.0
 25
0.0
 35
0.0
146
0.0
 13
0.0
 23
0.0
 33
0.0
 16
1.0
 26
0.0
 36
0.0
 17
0.0
 27
1.0
 37
0.0
 76
     0
330
23
  0
LAYOUT
  5
22
102
{ACAD_REACTORS
330
1A
102
}
330
1A
100
AcDbPlotSettings
  1

  2
none_device
  4
Letter_(8.50_x_11.00_Inches)
  6

 40
6.35
 41
6.35
 42
6.350005
 43
6.350005
 44
215.9
 45
279.4
 46
0.0
 47
0.0
 48
0.0
 49
0.0
140
0.0
141
0.0
142
1.0
143
1.0
 70
  1712
 72
     1
 73
     0
 74
     0
  7

 75
     0
 76
     0
 77
     2
 78
   300
147
1.0
148
0.0
149
0.0
100
AcDbLayout
  1
Model
 70
     1
 71
     0
 10
0.0
 20
0.0
 11
420.0
 21
297.0
 12
0.0
 22
0.0
 32
0.0
 14
1.000000E+20
 24
1.000000E+20
 34
1.000000E+20
 15
-1.000000E+20
 25
-1.000000E+20
 35
-1.000000E+20
146
0.0
 13
0.0
 23
0.0
 33
0.0
 16
1.0
 26
0.0
 36
0.0
 17
0.0
 27
1.0
 37
0.0
 76
     0
330
1F
331
29
  0
MATERIAL
  5
45
102
{ACAD_REACTORS
330
43
102
}
330
43
100
AcDbMaterial
  1
ByBlock
 72
     1
 94
      127
  0
MATERIAL
  5
44
102
{ACAD_REACTORS
330
43
102
}
330
43
100
AcDbMaterial
  1
ByLayer
 72
     1
 94
      127
  0
MATERIAL
  5
46
102
{ACAD_REACTORS
330
43
102
}
330
43
100
AcDbMaterial
  1
Global
 72
     1
 94
      127
  0
MLEADERSTYLE
  5
6C
102
{ACAD_REACTORS
330
6B
102
}
330
6B
100
AcDbMLeaderStyle
179
     2
170
     2
171
     1
172
     0
 90
        2
 40
0.0
 41
0.0
173
     1
 91
-1056964608
340
14
 92
       -2
290
     1
 42
2.0
291
     1
 43
8.0
  3
Standard
341
0
 44
4.0
300

342
11
174
     1
178
     6
175
     1
176
     0
 93
-1056964608
 45
4.0
292
     0
297
     0
 46
4.0
343
0
 94
-1056964608
 47
1.0
 49
1.0
140
1.0
293
     1
141
0.0
294
     1
177
     0
142
1.0
295
     0
296
     0
143
3.75
271
     0
272
     9
273
     9
  0
MLINESTYLE
  5
18
102
{ACAD_REACTORS
330
17
102
}
330
17
100
AcDbMlineStyle
  2
Standard
 70
     0
  3

 62
   256
 51
90.0
 52
90.0
 71
     2
 49
0.5
 62
   256
  6
BYLAYER
 49
-0.5
 62
   256
  6
BYLAYER
  0
ACDBPLACEHOLDER
  5
F
102
{ACAD_REACTORS
330
E
102
}
330
E
  0
SCALE
  5
48
102
{ACAD_REACTORS
330
47
102
}
330
47
100
AcDbScale
 70
     0
300
1:1
140
1.0
141
1.0
290
     1
  0
SCALE
  5
49
102
{ACAD_REACTORS
330
47
102
}
330
47
100
AcDbScale
 70
     0
300
1:2
140
1.0
141
2.0
290
     0
  0
SCALE
  5
4A
102
{ACAD_REACTORS
330
47
102
}
330
47
100
AcDbScale
 70
     0
300
1:4
140
1.0
141
4.0
290
     0
  0
SCALE
  5
4B
102
{ACAD_REACTORS
330
47
102
}
330
47
100
AcDbScale
 70
     0
300
1:5
140
1.0
141
5.0
290
     0
  0
SCALE
  5
4C
102
{ACAD_REACTORS
330
47
102
}
330
47
100
AcDbScale
 70
     0
300
1:8
140
1.0
141
8.0
290
     0
  0
SCALE
  5
4D
102
{ACAD_REACTORS
330
47
102
}
330
47
100
AcDbScale
 70
     0
300
1:10
140
1.0
141
10.0
290
     0
  0
SCALE
  5
4E
102
{ACAD_REACTORS
330
47
102
}
330
47
100
AcDbScale
 70
     0
300
1:16
140
1.0
141
16.0
290
     0
  0
SCALE
  5
4F
102
{ACAD_REACTORS
330
47
102
}
330
47
100
AcDbScale
 70
     0
300
1:20
140
1.0
141
20.0
290
     0
  0
SCALE
  5
50
102
{ACAD_REACTORS
330
47
102
}
330
47
100
AcDbScale
 70
     0
300
1:30
140
1.0
141
30.0
290
     0
  0
SCALE
  5
51
102
{ACAD_REACTORS
330
47
102
}
330
47
100
AcDbScale
 70
     0
300
1:40
140
1.0
141
40.0
290
     0
  0
SCALE
  5
52
102
{ACAD_REACTORS
330
47
102
}
330
47
100
AcDbScale
 70
     0
300
1:50
140
1.0
141
50.0
290
     0
  0
SCALE
  5
53
102
{ACAD_REACTORS
330
47
102
}
330
47
100
AcDbScale
 70
     0
300
1:100
140
1.0
141
100.0
290
     0
  0
SCALE
  5
54
102
{ACAD_REACTORS
330
47
102
}
330
47
100
AcDbScale
 70
     0
300
2:1
140
2.0
141
1.0
290
     0
  0
SCALE
  5
55
102
{ACAD_REACTORS
330
47
102
}
330
47
100
AcDbScale
 70
     0
300
4:1
140
4.0
141
1.0
290
     0
  0
SCALE
  5
56
102
{ACAD_REACTORS
330
47
102
}
330
47
100
AcDbScale
 70
     0
300
8:1
140
8.0
141
1.0
290
     0
  0
SCALE
  5
57
102
{ACAD_REACTORS
330
47
102
}
330
47
100
AcDbScale
 70
     0
300
10:1
140
10.0
141
1.0
290
     0
  0
SCALE
  5
58
102
{ACAD_REACTORS
330
47
102
}
330
47
100
AcDbScale
 70
     0
300
100:1
140
100.0
141
1.0
290
     0
  0
SCALE
  5
59
102
{ACAD_REACTORS
330
47
102
}
330
47
100
AcDbScale
 70
     0
300
1/128" = 1'-0"
140
0.007812
141
12.0
290
     0
  0
SCALE
  5
5A
102
{ACAD_REACTORS
330
47
102
}
330
47
100
AcDbScale
 70
     0
300
1/64" = 1'-0"
140
0.015625
141
12.0
290
     0
  0
SCALE
  5
5B
102
{ACAD_REACTORS
330
47
102
}
330
47
100
AcDbScale
 70
     0
300
1/32" = 1'-0"
140
0.03125
141
12.0
290
     0
  0
SCALE
  5
5C
102
{ACAD_REACTORS
330
47
102
}
330
47
100
AcDbScale
 70
     0
300
1/16" = 1'-0"
140
0.0625
141
12.0
290
     0
  0
SCALE
  5
5D
102
{ACAD_REACTORS
330
47
102
}
330
47
100
AcDbScale
 70
     0
300
3/32" = 1'-0"
140
0.09375
141
12.0
290
     0
  0
SCALE
  5
5E
102
{ACAD_REACTORS
330
47
102
}
330
47
100
AcDbScale
 70
     0
300
1/8" = 1'-0"
140
0.125
141
12.0
290
     0
  0
SCALE
  5
5F
102
{ACAD_REACTORS
330
47
102
}
330
47
100
AcDbScale
 70
     0
300
3/16" = 1'-0"
140
0.1875
141
12.0
290
     0
  0
SCALE
  5
60
102
{ACAD_REACTORS
330
47
102
}
330
47
100
AcDbScale
 70
     0
300
1/4" = 1'-0"
140
0.25
141
12.0
290
     0
  0
SCALE
  5
61
102
{ACAD_REACTORS
330
47
102
}
330
47
100
AcDbScale
 70
     0
300
3/8" = 1'-0"
140
0.375
141
12.0
290
     0
  0
SCALE
  5
62
102
{ACAD_REACTORS
330
47
102
}
330
47
100
AcDbScale
 70
     0
300
1/2" = 1'-0"
140
0.5
141
12.0
290
     0
  0
SCALE
  5
63
102
{ACAD_REACTORS
330
47
102
}
330
47
100
AcDbScale
 70
     0
300
3/4" = 1'-0"
140
0.75
141
12.0
290
     0
  0
SCALE
  5
64
102
{ACAD_REACTORS
330
47
102
}
330
47
100
AcDbScale
 70
     0
300
1" = 1'-0"
140
1.0
141
12.0
290
     0
  0
SCALE
  5
65
102
{ACAD_REACTORS
330
47
102
}
330
47
100
AcDbScale
 70
     0
300
1-1/2" = 1'-0"
140
1.5
141
12.0
290
     0
  0
SCALE
  5
66
102
{ACAD_REACTORS
330
47
102
}
330
47
100
AcDbScale
 70
     0
300
3" = 1'-0"
140
3.0
141
12.0
290
     0
  0
SCALE
  5
67
102
{ACAD_REACTORS
330
47
102
}
330
47
100
AcDbScale
 70
     0
300
6" = 1'-0"
140
6.0
141
12.0
290
     0
  0
SCALE
  5
68
102
{ACAD_REACTORS
330
47
102
}
330
47
100
AcDbScale
 70
     0
300
1'-0" = 1'-0"
140
12.0
141
12.0
290
     0
  0
TABLESTYLE
  5
6A
102
{ACAD_REACTORS
330
69
102
}
102
{ACAD_XDICTIONARY
360
392
102
}
330
69
100
AcDbTableStyle
  3
Standard
 70
     0
 71
     0
 40
0.06
 41
0.06
280
     0
281
     0
  7
Standard
140
4.5
170
     2
 62
     0
 63
   257
283
     0
 90
        4
 91
        0
  1

274
    -2
284
     1
 64
     0
275
    -2
285
     1
 65
     0
276
    -2
286
     1
 66
     0
277
    -2
287
     1
 67
     0
278
    -2
288
     1
 68
     0
279
    -2
289
     1
 69
     0
  7
Standard
140
6.0
170
     5
 62
     0
 63
   257
283
     0
 90
        4
 91
        0
  1

274
    -2
284
     1
 64
     0
275
    -2
285
     1
 65
     0
276
    -2
286
     1
 66
     0
277
    -2
287
     1
 67
     0
278
    -2
288
     1
 68
     0
279
    -2
289
     1
 69
     0
  7
Standard
140
4.5
170
     5
 62
     0
 63
   257
283
     0
 90
        4
 91
        0
  1

274
    -2
284
     1
 64
     0
275
    -2
285
     1
 65
     0
276
    -2
286
     1
 66
     0
277
    -2
287
     1
 67
     0
278
    -2
288
     1
 68
     0
279
    -2
289
     1
 69
     0
  0
VISUALSTYLE
  5
2F
102
{ACAD_REACTORS
330
2A
102
}
102
{ACAD_XDICTIONARY
360
36A
102
}
330
2A
100
AcDbVisualStyle
  2
2dWireframe
 70
     4
177
     2
291
     0
 71
     0
176
     1
 72
     2
176
     1
 73
     0
176
     1
 90
        0
176
     1
 40
0.6
176
     1
 41
30.0
176
     1
 62
     5
 63
     7
421
 16777215
176
     1
 74
     1
176
     1
 91
        4
176
     1
 64
     7
176
     1
 65
   257
176
     1
 75
     1
176
     1
175
     1
176
     1
 42
1.0
176
     1
 92
        0
176
     1
 66
   257
176
     1
 43
1.0
176
     1
 76
     1
176
     1
 77
     6
176
     1
 78
     2
176
     1
 67
     7
176
     1
 79
     5
176
     1
170
     0
176
     1
171
     0
176
     1
290
     0
176
     1
 93
        1
176
     1
 44
0.0
176
     1
173
     0
176
     1
  0
VISUALSTYLE
  5
32
102
{ACAD_REACTORS
330
2A
102
}
102
{ACAD_XDICTIONARY
360
370
102
}
330
2A
100
AcDbVisualStyle
  2
Basic
 70
     7
177
     2
291
     1
 71
     1
176
     1
 72
     0
176
     1
 73
     1
176
     1
 90
        0
176
     1
 40
0.6
176
     1
 41
30.0
176
     1
 62
     5
 63
     7
421
 16777215
176
     1
 74
     0
176
     1
 91
        4
176
     1
 64
     7
176
     1
 65
   257
176
     1
 75
     1
176
     1
175
     1
176
     1
 42
1.0
176
     1
 92
        8
176
     1
 66
     7
176
     1
 43
1.0
176
     1
 76
     1
176
     1
 77
     6
176
     1
 78
     2
176
     1
 67
     7
176
     1
 79
     5
176
     1
170
     0
176
     1
171
     0
176
     1
290
     0
176
     1
 93
        1
176
     1
 44
0.0
176
     1
173
     0
176
     1
  0
VISUALSTYLE
  5
36
102
{ACAD_REACTORS
330
2A
102
}
102
{ACAD_XDICTIONARY
360
378
102
}
330
2A
100
AcDbVisualStyle
  2
Brighten
 70
    12
177
     2
291
     1
 71
     2
176
     1
 72
     2
176
     1
 73
     0
176
     1
 90
        0
176
     1
 40
0.6
176
     1
 41
30.0
176
     1
 62
     5
 63
     7
421
 16777215
176
     1
 74
     1
176
     1
 91
        4
176
     1
 64
     7
176
     1
 65
   257
176
     1
 75
     1
176
     1
175
     1
176
     1
 42
1.0
176
     1
 92
        8
176
     1
 66
     7
176
     1
 43
1.0
176
     1
 76
     1
176
     1
 77
     6
176
     1
 78
     2
176
     1
 67
     7
176
     1
 79
     5
176
     1
170
     0
176
     1
171
     0
176
     1
290
     0
176
     1
 93
        1
176
     1
 44
50.0
176
     1
173
     0
176
     1
  0
VISUALSTYLE
  5
3A
102
{ACAD_REACTORS
330
2A
102
}
102
{ACAD_XDICTIONARY
360
380
102
}
330
2A
100
AcDbVisualStyle
  2
ColorChange
 70
    16
177
     2
291
     1
 71
     2
176
     1
 72
     2
176
     1
 73
     3
176
     1
 90
        0
176
     1
 40
0.6
176
     1
 41
30.0
176
     1
 62
     5
 63
     8
421
  8421504
176
     1
 74
     1
176
     1
 91
        4
176
     1
 64
     7
176
     1
 65
   257
176
     1
 75
     1
176
     1
175
     1
176
     1
 42
1.0
176
     1
 92
        8
176
     1
 66
     8
424
  8421504
176
     1
 43
1.0
176
     1
 76
     1
176
     1
 77
     6
176
     1
 78
     2
176
     1
 67
     7
176
     1
 79
     5
176
     1
170
     0
176
     1
171
     0
176
     1
290
     0
176
     1
 93
        1
176
     1
 44
0.0
176
     1
173
     0
176
     1
  0
VISUALSTYLE
  5
34
102
{ACAD_REACTORS
330
2A
102
}
102
{ACAD_XDICTIONARY
360
374
102
}
330
2A
100
AcDbVisualStyle
  2
Conceptual
 70
     9
177
     2
291
     0
 71
     3
176
     1
 72
     2
176
     1
 73
     0
176
     1
 90
        0
176
     1
 40
0.6
176
     1
 41
30.0
176
     1
 62
     5
 63
     7
421
 16777215
176
     1
 74
     2
176
     1
 91
        2
176
     1
 64
     7
176
     1
 65
   257
176
     1
 75
     1
176
     1
175
     1
176
     1
 42
179.0
176
     1
 92
        8
176
     1
 66
     7
176
     1
 43
1.0
176
     1
 76
     1
176
     1
 77
     6
176
     1
 78
     2
176
     1
 67
     7
176
     1
 79
     3
176
     1
170
     0
176
     1
171
     0
176
     1
290
     0
176
     1
 93
        1
176
     1
 44
0.0
176
     1
173
     0
176
     1
  0
VISUALSTYLE
  5
35
102
{ACAD_REACTORS
330
2A
102
}
102
{ACAD_XDICTIONARY
360
376
102
}
330
2A
100
AcDbVisualStyle
  2
Dim
 70
    11
177
     2
291
     1
 71
     2
176
     1
 72
     2
176
     1
 73
     0
176
     1
 90
        0
176
     1
 40
0.6
176
     1
 41
30.0
176
     1
 62
     5
 63
     7
421
 16777215
176
     1
 74
     1
176
     1
 91
        4
176
     1
 64
     7
176
     1
 65
   257
176
     1
 75
     1
176
     1
175
     1
176
     1
 42
1.0
176
     1
 92
        8
176
     1
 66
     7
176
     1
 43
1.0
176
     1
 76
     1
176
     1
 77
     6
176
     1
 78
     2
176
     1
 67
     7
176
     1
 79
     5
176
     1
170
     0
176
     1
171
     0
176
     1
290
     0
176
     1
 93
        1
176
     1
 44
-50.0
176
     1
173
     0
176
     1
  0
VISUALSTYLE
  5
3D
102
{ACAD_REACTORS
330
2A
102
}
102
{ACAD_XDICTIONARY
360
386
102
}
330
2A
100
AcDbVisualStyle
  2
EdgeColorOff
 70
    22
177
     2
291
     1
 71
     2
176
     0
 72
     2
176
     0
 73
     0
176
     0
 90
        0
176
     0
 40
0.6
176
     0
 41
30.0
176
     0
 62
     5
 63
     7
421
 16777215
176
     0
 74
     1
176
     0
 91
        4
176
     0
 64
     7
176
     0
 65
   257
176
     0
 75
     1
176
     0
175
     1
176
     0
 42
1.0
176
     0
 92
        8
176
     2
 66
     7
176
     0
 43
1.0
176
     0
 76
     1
176
     0
 77
     6
176
     0
 78
     2
176
     0
 67
     7
176
     0
 79
     5
176
     0
170
     0
176
     0
171
     0
176
     0
290
     0
176
     0
 93
        1
176
     0
 44
0.0
176
     0
173
     0
176
     0
  0
VISUALSTYLE
  5
39
102
{ACAD_REACTORS
330
2A
102
}
102
{ACAD_XDICTIONARY
360
37E
102
}
330
2A
100
AcDbVisualStyle
  2
Facepattern
 70
    15
177
     2
291
     1
 71
     2
176
     1
 72
     2
176
     1
 73
     0
176
     1
 90
        0
176
     1
 40
0.6
176
     1
 41
30.0
176
     1
 62
     5
 63
     7
421
 16777215
176
     1
 74
     1
176
     1
 91
        4
176
     1
 64
     7
176
     1
 65
   257
176
     1
 75
     1
176
     1
175
     1
176
     1
 42
1.0
176
     1
 92
        8
176
     1
 66
     7
176
     1
 43
1.0
176
     1
 76
     1
176
     1
 77
     6
176
     1
 78
     2
176
     1
 67
     7
176
     1
 79
     5
176
     1
170
     0
176
     1
171
     0
176
     1
290
     0
176
     1
 93
        1
176
     1
 44
0.0
176
     1
173
     0
176
     1
  0
VISUALSTYLE
  5
2B
102
{ACAD_REACTORS
330
2A
102
}
102
{ACAD_XDICTIONARY
360
362
102
}
330
2A
100
AcDbVisualStyle
  2
Flat
 70
     0
177
     2
291
     1
 71
     2
176
     1
 72
     1
176
     1
 73
     1
176
     1
 90
        2
176
     1
 40
0.6
176
     1
 41
30.0
176
     1
 62
     5
 63
     7
421
 16777215
176
     1
 74
     0
176
     1
 91
        0
176
     1
 64
     7
176
     1
 65
   257
176
     1
 75
     1
176
     1
175
     1
176
     1
 42
1.0
176
     1
 92
        8
176
     1
 66
     7
176
     1
 43
1.0
176
     1
 76
     1
176
     1
 77
     6
176
     1
 78
     2
176
     1
 67
     7
176
     1
 79
     5
176
     1
170
     0
176
     1
171
     0
176
     1
290
     0
176
     1
 93
       13
176
     1
 44
0.0
176
     1
173
     0
176
     1
  0
VISUALSTYLE
  5
2C
102
{ACAD_REACTORS
330
2A
102
}
102
{ACAD_XDICTIONARY
360
364
102
}
330
2A
100
AcDbVisualStyle
  2
FlatWithEdges
 70
     1
177
     2
291
     1
 71
     2
176
     1
 72
     1
176
     1
 73
     1
176
     1
 90
        2
176
     1
 40
0.6
176
     1
 41
30.0
176
     1
 62
     5
 63
     7
421
 16777215
176
     1
 74
     1
176
     1
 91
        0
176
     1
 64
     7
176
     1
 65
   257
176
     1
 75
     1
176
     1
175
     1
176
     1
 42
1.0
176
     1
 92
        0
176
     1
 66
   257
176
     1
 43
1.0
176
     1
 76
     1
176
     1
 77
     6
176
     1
 78
     2
176
     1
 67
     7
176
     1
 79
     5
176
     1
170
     0
176
     1
171
     0
176
     1
290
     0
176
     1
 93
       13
176
     1
 44
0.0
176
     1
173
     0
176
     1
  0
VISUALSTYLE
  5
2D
102
{ACAD_REACTORS
330
2A
102
}
102
{ACAD_XDICTIONARY
360
366
102
}
330
2A
100
AcDbVisualStyle
  2
Gouraud
 70
     2
177
     2
291
     1
 71
     2
176
     1
 72
     2
176
     1
 73
     1
176
     1
 90
        2
176
     1
 40
0.6
176
     1
 41
30.0
176
     1
 62
     5
 63
     7
421
 16777215
176
     1
 74
     0
176
     1
 91
        0
176
     1
 64
     7
176
     1
 65
   257
176
     1
 75
     1
176
     1
175
     1
176
     1
 42
1.0
176
     1
 92
        0
176
     1
 66
     7
176
     1
 43
1.0
176
     1
 76
     1
176
     1
 77
     6
176
     1
 78
     2
176
     1
 67
     7
176
     1
 79
     5
176
     1
170
     0
176
     1
171
     0
176
     1
290
     0
176
     1
 93
       13
176
     1
 44
0.0
176
     1
173
     0
176
     1
  0
VISUALSTYLE
  5
2E
102
{ACAD_REACTORS
330
2A
102
}
102
{ACAD_XDICTIONARY
360
368
102
}
330
2A
100
AcDbVisualStyle
  2
GouraudWithEdges
 70
     3
177
     2
291
     1
 71
     2
176
     1
 72
     2
176
     1
 73
     1
176
     1
 90
        2
176
     1
 40
0.6
176
     1
 41
30.0
176
     1
 62
     5
 63
     7
421
 16777215
176
     1
 74
     1
176
     1
 91
        0
176
     1
 64
     7
176
     1
 65
   257
176
     1
 75
     1
176
     1
175
     1
176
     1
 42
1.0
176
     1
 92
        0
176
     1
 66
   257
176
     1
 43
1.0
176
     1
 76
     1
176
     1
 77
     6
176
     1
 78
     2
176
     1
 67
     7
176
     1
 79
     5
176
     1
170
     0
176
     1
171
     0
176
     1
290
     0
176
     1
 93
       13
176
     1
 44
0.0
176
     1
173
     0
176
     1
  0
VISUALSTYLE
  5
31
102
{ACAD_REACTORS
330
2A
102
}
102
{ACAD_XDICTIONARY
360
36E
102
}
330
2A
100
AcDbVisualStyle
  2
Hidden
 70
     6
177
     2
291
     0
 71
     1
176
     1
 72
     2
176
     1
 73
     2
176
     1
 90
        0
176
     1
 40
0.6
176
     1
 41
30.0
176
     1
 62
     5
 63
     7
421
 16777215
176
     1
 74
     2
176
     1
 91
        2
176
     1
 64
     7
176
     1
 65
   257
176
     1
 75
     2
176
     1
175
     1
176
     1
 42
40.0
176
     1
 92
        0
176
     1
 66
   257
176
     1
 43
1.0
176
     1
 76
     1
176
     1
 77
     6
176
     1
 78
     2
176
     1
 67
     7
176
     1
 79
     3
176
     1
170
     0
176
     1
171
     0
176
     1
290
     0
176
     1
 93
        1
176
     1
 44
0.0
176
     1
173
     0
176
     1
  0
VISUALSTYLE
  5
3B
102
{ACAD_REACTORS
330
2A
102
}
102
{ACAD_XDICTIONARY
360
382
102
}
330
2A
100
AcDbVisualStyle
  2
JitterOff
 70
    20
177
     2
291
     1
 71
     2
176
     0
 72
     2
176
     0
 73
     0
176
     0
 90
        0
176
     0
 40
0.6
176
     0
 41
30.0
176
     0
 62
     5
 63
     7
421
 16777215
176
     0
 74
     1
176
     0
 91
        4
176
     0
 64
     7
176
     0
 65
   257
176
     0
 75
     1
176
     0
175
     1
176
     0
 42
1.0
176
     0
 92
       10
176
     2
 66
     7
176
     0
 43
1.0
176
     0
 76
     1
176
     0
 77
     6
176
     0
 78
     2
176
     0
 67
     7
176
     0
 79
     5
176
     0
170
     0
176
     0
171
     0
176
     0
290
     0
176
     0
 93
        1
176
     0
 44
0.0
176
     0
173
     0
176
     0
  0
VISUALSTYLE
  5
38
102
{ACAD_REACTORS
330
2A
102
}
102
{ACAD_XDICTIONARY
360
37C
102
}
330
2A
100
AcDbVisualStyle
  2
Linepattern
 70
    14
177
     2
291
     1
 71
     2
176
     1
 72
     2
176
     1
 73
     0
176
     1
 90
        0
176
     1
 40
0.6
176
     1
 41
30.0
176
     1
 62
     5
 63
     7
421
 16777215
176
     1
 74
     1
176
     1
 91
        4
176
     1
 64
     7
176
     1
 65
   257
176
     1
 75
     7
176
     1
175
     7
176
     1
 42
1.0
176
     1
 92
        8
176
     1
 66
     7
176
     1
 43
1.0
176
     1
 76
     1
176
     1
 77
     6
176
     1
 78
     2
176
     1
 67
     7
176
     1
 79
     5
176
     1
170
     0
176
     1
171
     0
176
     1
290
     0
176
     1
 93
        1
176
     1
 44
0.0
176
     1
173
     0
176
     1
  0
VISUALSTYLE
  5
3C
102
{ACAD_REACTORS
330
2A
102
}
102
{ACAD_XDICTIONARY
360
384
102
}
330
2A
100
AcDbVisualStyle
  2
OverhangOff
 70
    21
177
     2
291
     1
 71
     2
176
     0
 72
     2
176
     0
 73
     0
176
     0
 90
        0
176
     0
 40
0.6
176
     0
 41
30.0
176
     0
 62
     5
 63
     7
421
 16777215
176
     0
 74
     1
176
     0
 91
        4
176
     0
 64
     7
176
     0
 65
   257
176
     0
 75
     1
176
     0
175
     1
176
     0
 42
1.0
176
     0
 92
        9
176
     2
 66
     7
176
     0
 43
1.0
176
     0
 76
     1
176
     0
 77
     6
176
     0
 78
     2
176
     0
 67
     7
176
     0
 79
     5
176
     0
170
     0
176
     0
171
     0
176
     0
290
     0
176
     0
 93
        1
176
     0
 44
0.0
176
     0
173
     0
176
     0
  0
VISUALSTYLE
  5
33
102
{ACAD_REACTORS
330
2A
102
}
102
{ACAD_XDICTIONARY
360
372
102
}
330
2A
100
AcDbVisualStyle
  2
Realistic
 70
     8
177
     2
291
     0
 71
     2
176
     1
 72
     3
176
     1
 73
     0
176
     1
 90
        2
176
     1
 40
0.6
176
     1
 41
30.0
176
     1
 62
     5
 63
     7
421
 16777215
176
     1
 74
     0
176
     1
 91
        0
176
     1
 64
     7
176
     1
 65
   257
176
     1
 75
     1
176
     1
175
     1
176
     1
 42
1.0
176
     1
 92
        8
176
     1
 66
   257
176
     1
 43
1.0
176
     1
 76
     1
176
     1
 77
     6
176
     1
 78
     2
176
     1
 67
     7
176
     1
 79
     3
176
     1
170
     0
176
     1
171
     0
176
     1
290
     0
176
     1
 93
       13
176
     1
 44
0.0
176
     1
173
     0
176
     1
  0
VISUALSTYLE
  5
42
102
{ACAD_REACTORS
330
2A
102
}
102
{ACAD_XDICTIONARY
360
390
102
}
330
2A
100
AcDbVisualStyle
  2
Shaded
 70
    27
177
     2
291
     0
 71
     2
176
     1
 72
     2
176
     1
 73
     1
176
     1
 90
        2
176
     1
 40
0.6
176
     1
 41
30.0
176
     1
 62
     5
 63
     7
421
 16777215
176
     1
 74
     0
176
     1
 91
        4
176
     1
 64
     7
176
     1
 65
   257
176
     1
 75
     1
176
     1
175
     1
176
     1
 42
1.0
176
     1
 92
        8
176
     1
 66
   257
176
     1
 43
1.0
176
     1
 76
     1
176
     1
 77
     6
176
     1
 78
     2
176
     1
 67
     8
425
  7895160
176
     1
 79
     3
176
     1
170
     0
176
     1
171
     0
176
     1
290
     0
176
     1
 93
        5
176
     1
 44
0.0
176
     1
173
     0
176
     1
  0
VISUALSTYLE
  5
41
102
{ACAD_REACTORS
330
2A
102
}
102
{ACAD_XDICTIONARY
360
38E
102
}
330
2A
100
AcDbVisualStyle
  2
Shaded with edges
 70
    26
177
     2
291
     0
 71
     2
176
     1
 72
     2
176
     1
 73
     1
176
     1
 90
        2
176
     1
 40
0.6
176
     1
 41
30.0
176
     1
 62
     5
 63
     7
421
 16777215
176
     1
 74
     1
176
     1
 91
       10
176
     1
 64
     7
176
     1
 65
   257
176
     1
 75
     2
176
     1
175
     1
176
     1
 42
1.0
176
     1
 92
        8
176
     1
 66
   257
176
     1
 43
1.0
176
     1
 76
     1
176
     1
 77
     6
176
     1
 78
     2
176
     1
 67
     7
176
     1
 79
     3
176
     1
170
     0
176
     1
171
     0
176
     1
290
     0
176
     1
 93
        5
176
     1
 44
0.0
176
     1
173
     0
176
     1
  0
VISUALSTYLE
  5
3E
102
{ACAD_REACTORS
330
2A
102
}
102
{ACAD_XDICTIONARY
360
388
102
}
330
2A
100
AcDbVisualStyle
  2
Shades of Gray
 70
    23
177
     2
291
     0
 71
     2
176
     1
 72
     2
176
     1
 73
     3
176
     1
 90
        0
176
     1
 40
0.6
176
     1
 41
30.0
176
     1
 62
     5
 63
     7
421
 16777215
176
     1
 74
     2
176
     1
 91
        2
176
     1
 64
     7
176
     1
 65
     7
176
     1
 75
     1
176
     1
175
     1
176
     1
 42
40.0
176
     1
 92
        8
176
     1
 66
     7
176
     1
 43
1.0
176
     1
 76
     1
176
     1
 77
     6
176
     1
 78
     2
176
     1
 67
     7
176
     1
 79
     3
176
     1
170
     0
176
     1
171
     0
176
     1
290
     0
176
     1
 93
        1
176
     1
 44
0.0
176
     1
173
     0
176
     1
  0
VISUALSTYLE
  5
3F
102
{ACAD_REACTORS
330
2A
102
}
102
{ACAD_XDICTIONARY
360
38A
102
}
330
2A
100
AcDbVisualStyle
  2
Sketchy
 70
    24
177
     2
291
     0
 71
     1
176
     1
 72
     2
176
     1
 73
     2
176
     1
 90
        0
176
     1
 40
0.6
176
     1
 41
30.0
176
     1
 62
     5
 63
     7
421
 16777215
176
     1
 74
     2
176
     1
 91
        2
176
     1
 64
     7
176
     1
 65
     7
176
     1
 75
     1
176
     1
175
     1
176
     1
 42
40.0
176
     1
 92
       11
176
     1
 66
     7
176
     1
 43
1.0
176
     1
 76
     1
176
     1
 77
     6
176
     1
 78
     2
176
     1
 67
     7
176
     1
 79
     6
176
     1
170
     0
176
     1
171
     0
176
     1
290
     0
176
     1
 93
        1
176
     1
 44
0.0
176
     1
173
     0
176
     1
  0
VISUALSTYLE
  5
37
102
{ACAD_REACTORS
330
2A
102
}
102
{ACAD_XDICTIONARY
360
37A
102
}
330
2A
100
AcDbVisualStyle
  2
Thicken
 70
    13
177
     2
291
     1
 71
     2
176
     1
 72
     2
176
     1
 73
     0
176
     1
 90
        0
176
     1
 40
0.6
176
     1
 41
30.0
176
     1
 62
     5
 63
     7
421
 16777215
176
     1
 74
     1
176
     1
 91
        4
176
     1
 64
     7
176
     1
 65
   257
176
     1
 75
     1
176
     1
175
     1
176
     1
 42
1.0
176
     1
 92
       12
176
     1
 66
     7
176
     1
 43
1.0
176
     1
 76
     1
176
     1
 77
     6
176
     1
 78
     2
176
     1
 67
     7
176
     1
 79
     5
176
     1
170
     0
176
     1
171
     0
176
     1
290
     0
176
     1
 93
        1
176
     1
 44
0.0
176
     1
173
     0
176
     1
  0
VISUALSTYLE
  5
30
102
{ACAD_REACTORS
330
2A
102
}
102
{ACAD_XDICTIONARY
360
36C
102
}
330
2A
100
AcDbVisualStyle
  2
Wireframe
 70
     5
177
     2
291
     0
 71
     0
176
     1
 72
     2
176
     1
 73
     0
176
     1
 90
        0
176
     1
 40
0.6
176
     1
 41
30.0
176
     1
 62
     5
 63
     7
421
 16777215
176
     1
 74
     1
176
     1
 91
        4
176
     1
 64
     7
176
     1
 65
   257
176
     1
 75
     1
176
     1
175
     1
176
     1
 42
1.0
176
     1
 92
        0
176
     1
 66
   257
176
     1
 43
1.0
176
     1
 76
     1
176
     1
 77
     6
176
     1
 78
     2
176
     1
 67
     7
176
     1
 79
     3
176
     1
170
     0
176
     1
171
     0
176
     1
290
     0
176
     1
 93
        1
176
     1
 44
0.0
176
     1
173
     0
176
     1
  0
VISUALSTYLE
  5
40
102
{ACAD_REACTORS
330
2A
102
}
102
{ACAD_XDICTIONARY
360
38C
102
}
330
2A
100
AcDbVisualStyle
  2
X-Ray
 70
    25
177
     2
291
     0
 71
     2
176
     1
 72
     2
176
     1
 73
     1
176
     1
 90
        1
176
     1
 40
0.5
176
     1
 41
30.0
176
     1
 62
     5
 63
     7
421
 16777215
176
     1
 74
     1
176
     1
 91
        0
176
     1
 64
     7
176
     1
 65
   257
176
     1
 75
     1
176
     1
175
     1
176
     1
 42
1.0
176
     1
 92
        8
176
     1
 66
     7
176
     1
 43
1.0
176
     1
 76
     1
176
     1
 77
     6
176
     1
 78
     2
176
     1
 67
     7
176
     1
 79
     3
176
     1
170
     0
176
     1
171
     0
176
     1
290
     0
176
     1
 93
       13
176
     1
 44
0.0
176
     1
173
     0
176
     1
  0
DICTIONARYVAR
  5
361
102
{ACAD_REACTORS
330
360
102
}
330
360
100
DictionaryVariables
280
     0
  1
1:1
  0
DICTIONARYVAR
  5
396
102
{ACAD_REACTORS
330
360
102
}
330
360
100
DictionaryVariables
280
     0
  1
Standard
  0
DICTIONARYVAR
  5
395
102
{ACAD_REACTORS
330
360
102
}
330
360
100
DictionaryVariables
280
     0
  1
Standard
  0
DICTIONARY
  5
392
330
6A
100
AcDbDictionary
280
     1
281
     1
  3
ACAD_ROUNDTRIP_2008_TABLESTYLE_CELLSTYLEMAP
360
393
  0
DICTIONARY
  5
36A
330
2F
100
AcDbDictionary
280
     1
281
     1
  3
ACAD_XREC_ROUNDTRIP
360
36B
  0
DICTIONARY
  5
370
330
32
100
AcDbDictionary
280
     1
281
     1
  3
ACAD_XREC_ROUNDTRIP
360
371
  0
DICTIONARY
  5
378
330
36
100
AcDbDictionary
280
     1
281
     1
  3
ACAD_XREC_ROUNDTRIP
360
379
  0
DICTIONARY
  5
380
330
3A
100
AcDbDictionary
280
     1
281
     1
  3
ACAD_XREC_ROUNDTRIP
360
381
  0
DICTIONARY
  5
374
330
34
100
AcDbDictionary
280
     1
281
     1
  3
ACAD_XREC_ROUNDTRIP
360
375
  0
DICTIONARY
  5
376
330
35
100
AcDbDictionary
280
     1
281
     1
  3
ACAD_XREC_ROUNDTRIP
360
377
  0
DICTIONARY
  5
386
330
3D
100
AcDbDictionary
280
     1
281
     1
  3
ACAD_XREC_ROUNDTRIP
360
387
  0
DICTIONARY
  5
37E
330
39
100
AcDbDictionary
280
     1
281
     1
  3
ACAD_XREC_ROUNDTRIP
360
37F
  0
DICTIONARY
  5
362
330
2B
100
AcDbDictionary
280
     1
281
     1
  3
ACAD_XREC_ROUNDTRIP
360
363
  0
DICTIONARY
  5
364
330
2C
100
AcDbDictionary
280
     1
281
     1
  3
ACAD_XREC_ROUNDTRIP
360
365
  0
DICTIONARY
  5
366
330
2D
100
AcDbDictionary
280
     1
281
     1
  3
ACAD_XREC_ROUNDTRIP
360
367
  0
DICTIONARY
  5
368
330
2E
100
AcDbDictionary
280
     1
281
     1
  3
ACAD_XREC_ROUNDTRIP
360
369
  0
DICTIONARY
  5
36E
330
31
100
AcDbDictionary
280
     1
281
     1
  3
ACAD_XREC_ROUNDTRIP
360
36F
  0
DICTIONARY
  5
382
330
3B
100
AcDbDictionary
280
     1
281
     1
  3
ACAD_XREC_ROUNDTRIP
360
383
  0
DICTIONARY
  5
37C
330
38
100
AcDbDictionary
280
     1
281
     1
  3
ACAD_XREC_ROUNDTRIP
360
37D
  0
DICTIONARY
  5
384
330
3C
100
AcDbDictionary
280
     1
281
     1
  3
ACAD_XREC_ROUNDTRIP
360
385
  0
DICTIONARY
  5
372
330
33
100
AcDbDictionary
280
     1
281
     1
  3
ACAD_XREC_ROUNDTRIP
360
373
  0
DICTIONARY
  5
390
330
42
100
AcDbDictionary
280
     1
281
     1
  3
ACAD_XREC_ROUNDTRIP
360
391
  0
DICTIONARY
  5
38E
330
41
100
AcDbDictionary
280
     1
281
     1
  3
ACAD_XREC_ROUNDTRIP
360
38F
  0
DICTIONARY
  5
388
330
3E
100
AcDbDictionary
280
     1
281
     1
  3
ACAD_XREC_ROUNDTRIP
360
389
  0
DICTIONARY
  5
38A
330
3F
100
AcDbDictionary
280
     1
281
     1
  3
ACAD_XREC_ROUNDTRIP
360
38B
  0
DICTIONARY
  5
37A
330
37
100
AcDbDictionary
280
     1
281
     1
  3
ACAD_XREC_ROUNDTRIP
360
37B
  0
DICTIONARY
  5
36C
330
30
100
AcDbDictionary
280
     1
281
     1
  3
ACAD_XREC_ROUNDTRIP
360
36D
  0
DICTIONARY
  5
38C
330
40
100
AcDbDictionary
280
     1
281
     1
  3
ACAD_XREC_ROUNDTRIP
360
38D
  0
CELLSTYLEMAP
  5
393
102
{ACAD_REACTORS
330
392
102
}
330
392
100
AcDbCellStyleMap
 90
        3
300
CELLSTYLE
  1
TABLEFORMAT_BEGIN
 90
        5
170
     1
 91
        0
 92
    32768
 62
   257
 93
        1
300
CONTENTFORMAT
  1
CONTENTFORMAT_BEGIN
 90
        0
 91
        0
 92
        4
 93
        0
300

 40
0.0
140
1.0
 94
        5
 62
     0
340
11
144
6.0
309
CONTENTFORMAT_END
171
     1
301
MARGIN
  1
CELLMARGIN_BEGIN
 40
1.5
 40
1.5
 40
1.5
 40
1.5
 40
1.5
 40
1.5
309
CELLMARGIN_END
 94
        6
 95
        1
302
GRIDFORMAT
  1
GRIDFORMAT_BEGIN
 90
        0
 91
        1
 62
     0
 92
       -2
340
14
 93
        0
 40
0.045
309
GRIDFORMAT_END
 95
        2
302
GRIDFORMAT
  1
GRIDFORMAT_BEGIN
 90
        0
 91
        1
 62
     0
 92
       -2
340
14
 93
        0
 40
0.045
309
GRIDFORMAT_END
 95
        4
302
GRIDFORMAT
  1
GRIDFORMAT_BEGIN
 90
        0
 91
        1
 62
     0
 92
       -2
340
14
 93
        0
 40
0.045
309
GRIDFORMAT_END
 95
        8
302
GRIDFORMAT
  1
GRIDFORMAT_BEGIN
 90
        0
 91
        1
 62
     0
 92
       -2
340
14
 93
        0
 40
0.045
309
GRIDFORMAT_END
 95
       16
302
GRIDFORMAT
  1
GRIDFORMAT_BEGIN
 90
        0
 91
        1
 62
     0
 92
       -2
340
14
 93
        0
 40
0.045
309
GRIDFORMAT_END
 95
       32
302
GRIDFORMAT
  1
GRIDFORMAT_BEGIN
 90
        0
 91
        1
 62
     0
 92
       -2
340
14
 93
        0
 40
0.045
309
GRIDFORMAT_END
309
TABLEFORMAT_END
  1
CELLSTYLE_BEGIN
 90
        1
 91
        1
300
_TITLE
309
CELLSTYLE_END
300
CELLSTYLE
  1
TABLEFORMAT_BEGIN
 90
        5
170
     1
 91
        0
 92
        0
 62
   257
 93
        1
300
CONTENTFORMAT
  1
CONTENTFORMAT_BEGIN
 90
        0
 91
        0
 92
        4
 93
        0
300

 40
0.0
140
1.0
 94
        5
 62
     0
340
11
144
4.5
309
CONTENTFORMAT_END
171
     1
301
MARGIN
  1
CELLMARGIN_BEGIN
 40
1.5
 40
1.5
 40
1.5
 40
1.5
 40
1.5
 40
1.5
309
CELLMARGIN_END
 94
        6
 95
        1
302
GRIDFORMAT
  1
GRIDFORMAT_BEGIN
 90
        0
 91
        1
 62
     0
 92
       -2
340
14
 93
        0
 40
0.045
309
GRIDFORMAT_END
 95
        2
302
GRIDFORMAT
  1
GRIDFORMAT_BEGIN
 90
        0
 91
        1
 62
     0
 92
       -2
340
14
 93
        0
 40
0.045
309
GRIDFORMAT_END
 95
        4
302
GRIDFORMAT
  1
GRIDFORMAT_BEGIN
 90
        0
 91
        1
 62
     0
 92
       -2
340
14
 93
        0
 40
0.045
309
GRIDFORMAT_END
 95
        8
302
GRIDFORMAT
  1
GRIDFORMAT_BEGIN
 90
        0
 91
        1
 62
     0
 92
       -2
340
14
 93
        0
 40
0.045
309
GRIDFORMAT_END
 95
       16
302
GRIDFORMAT
  1
GRIDFORMAT_BEGIN
 90
        0
 91
        1
 62
     0
 92
       -2
340
14
 93
        0
 40
0.045
309
GRIDFORMAT_END
 95
       32
302
GRIDFORMAT
  1
GRIDFORMAT_BEGIN
 90
        0
 91
        1
 62
     0
 92
       -2
340
14
 93
        0
 40
0.045
309
GRIDFORMAT_END
309
TABLEFORMAT_END
  1
CELLSTYLE_BEGIN
 90
        2
 91
        1
300
_HEADER
309
CELLSTYLE_END
300
CELLSTYLE
  1
TABLEFORMAT_BEGIN
 90
        5
170
     1
 91
        0
 92
        0
 62
   257
 93
        1
300
CONTENTFORMAT
  1
CONTENTFORMAT_BEGIN
 90
        0
 91
        0
 92
        4
 93
        0
300

 40
0.0
140
1.0
 94
        2
 62
     0
340
11
144
4.5
309
CONTENTFORMAT_END
171
     1
301
MARGIN
  1
CELLMARGIN_BEGIN
 40
1.5
 40
1.5
 40
1.5
 40
1.5
 40
1.5
 40
1.5
309
CELLMARGIN_END
 94
        6
 95
        1
302
GRIDFORMAT
  1
GRIDFORMAT_BEGIN
 90
        0
 91
        1
 62
     0
 92
       -2
340
14
 93
        0
 40
0.045
309
GRIDFORMAT_END
 95
        2
302
GRIDFORMAT
  1
GRIDFORMAT_BEGIN
 90
        0
 91
        1
 62
     0
 92
       -2
340
14
 93
        0
 40
0.045
309
GRIDFORMAT_END
 95
        4
302
GRIDFORMAT
  1
GRIDFORMAT_BEGIN
 90
        0
 91
        1
 62
     0
 92
       -2
340
14
 93
        0
 40
0.045
309
GRIDFORMAT_END
 95
        8
302
GRIDFORMAT
  1
GRIDFORMAT_BEGIN
 90
        0
 91
        1
 62
     0
 92
       -2
340
14
 93
        0
 40
0.045
309
GRIDFORMAT_END
 95
       16
302
GRIDFORMAT
  1
GRIDFORMAT_BEGIN
 90
        0
 91
        1
 62
     0
 92
       -2
340
14
 93
        0
 40
0.045
309
GRIDFORMAT_END
 95
       32
302
GRIDFORMAT
  1
GRIDFORMAT_BEGIN
 90
        0
 91
        1
 62
     0
 92
       -2
340
14
 93
        0
 40
0.045
309
GRIDFORMAT_END
309
TABLEFORMAT_END
  1
CELLSTYLE_BEGIN
 90
        3
 91
        2
300
_DATA
309
CELLSTYLE_END
  0
XRECORD
  5
36B
102
{ACAD_REACTORS
330
36A
102
}
330
36A
100
AcDbXrecord
280
     1
102
RTVSPost2010Prop28
280
     1
102
RTVSPost2010PropOp28
 70
     1
102
RTVSPost2010Prop29
280
     1
102
RTVSPost2010PropOp29
 70
     1
102
RTVSPost2010Prop30
280
     0
102
RTVSPost2010PropOp30
 70
     1
102
RTVSPost2010Prop31
280
     0
102
RTVSPost2010PropOp31
 70
     1
102
RTVSPost2010Prop32
280
     0
102
RTVSPost2010PropOp32
 70
     1
102
RTVSPost2010Prop33
280
     0
102
RTVSPost2010PropOp33
 70
     1
102
RTVSPost2010Prop34
280
     0
102
RTVSPost2010PropOp34
 70
     1
102
RTVSPost2010Prop35
280
     0
102
RTVSPost2010PropOp35
 70
     1
102
RTVSPost2010Prop36
280
     0
102
RTVSPost2010PropOp36
 70
     1
102
RTVSPost2010Prop37
 90
       50
102
RTVSPost2010PropOp37
 70
     1
102
RTVSPost2010Prop38
140
0.0
102
RTVSPost2010PropOp38
 70
     1
102
RTVSPost2010Prop39
140
1.0
102
RTVSPost2010PropOp39
 70
     1
102
RTVSPost2010Prop40
 90
        0
102
RTVSPost2010PropOp40
 70
     1
102
RTVSPost2010Prop41ColorIndex
 90
       18
102
RTVSPost2010Prop41ColorRGB
 90
        0
102
RTVSPost2010PropOp41
 70
     1
102
RTVSPost2010Prop42
 90
       50
102
RTVSPost2010PropOp42
 70
     1
102
RTVSPost2010Prop43
 90
        3
102
RTVSPost2010PropOp43
 70
     1
102
RTVSPost2010Prop44ColorIndex
 90
        5
102
RTVSPost2010Prop44ColorRGB
 90
      255
102
RTVSPost2010PropOp44
 70
     1
102
RTVSPost2010Prop45
280
     0
102
RTVSPost2010PropOp45
 70
     1
102
RTVSPost2010Prop46
 90
       50
102
RTVSPost2010PropOp46
 70
     1
102
RTVSPost2010Prop47
 90
       50
102
RTVSPost2010PropOp47
 70
     1
102
RTVSPost2010Prop48
 90
       50
102
RTVSPost2010PropOp48
 70
     1
102
RTVSPost2010Prop49
280
     0
102
RTVSPost2010PropOp49
 70
     1
102
RTVSPost2010Prop50
 90
       50
102
RTVSPost2010PropOp50
 70
     1
102
RTVSPost2010Prop51ColorIndex
 90
      256
102
RTVSPost2010Prop51ColorRGB
 90
-16777216
102
RTVSPost2010PropOp51
 70
     0
102
RTVSPost2010Prop52
140
1.0
102
RTVSPost2010PropOp52
 70
     0
102
RTVSPost2010Prop53
 90
        2
102
RTVSPost2010PropOp53
 70
     1
102
RTVSPost2010Prop54
  1
strokes_ogs.tif
102
RTVSPost2010PropOp54
 70
     1
102
RTVSPost2010Prop55
280
     0
102
RTVSPost2010PropOp55
 70
     1
102
RTVSPost2010Prop56
140
1.0
102
RTVSPost2010PropOp56
 70
     1
102
RTVSPost2010Prop57
140
1.0
102
RTVSPost2010PropOp57
 70
     1
  0
XRECORD
  5
371
102
{ACAD_REACTORS
330
370
102
}
330
370
100
AcDbXrecord
280
     1
102
RTVSPost2010Prop28
280
     0
102
RTVSPost2010PropOp28
 70
     1
102
RTVSPost2010Prop29
280
     1
102
RTVSPost2010PropOp29
 70
     1
102
RTVSPost2010Prop30
280
     1
102
RTVSPost2010PropOp30
 70
     1
102
RTVSPost2010Prop31
280
     0
102
RTVSPost2010PropOp31
 70
     1
102
RTVSPost2010Prop32
280
     0
102
RTVSPost2010PropOp32
 70
     1
102
RTVSPost2010Prop33
280
     0
102
RTVSPost2010PropOp33
 70
     1
102
RTVSPost2010Prop34
280
     0
102
RTVSPost2010PropOp34
 70
     1
102
RTVSPost2010Prop35
280
     0
102
RTVSPost2010PropOp35
 70
     1
102
RTVSPost2010Prop36
280
     0
102
RTVSPost2010PropOp36
 70
     1
102
RTVSPost2010Prop37
 90
       50
102
RTVSPost2010PropOp37
 70
     1
102
RTVSPost2010Prop38
140
0.0
102
RTVSPost2010PropOp38
 70
     1
102
RTVSPost2010Prop39
140
1.0
102
RTVSPost2010PropOp39
 70
     1
102
RTVSPost2010Prop40
 90
        0
102
RTVSPost2010PropOp40
 70
     1
102
RTVSPost2010Prop41ColorIndex
 90
       18
102
RTVSPost2010Prop41ColorRGB
 90
        0
102
RTVSPost2010PropOp41
 70
     1
102
RTVSPost2010Prop42
 90
       50
102
RTVSPost2010PropOp42
 70
     1
102
RTVSPost2010Prop43
 90
        3
102
RTVSPost2010PropOp43
 70
     1
102
RTVSPost2010Prop44ColorIndex
 90
        5
102
RTVSPost2010Prop44ColorRGB
 90
      255
102
RTVSPost2010PropOp44
 70
     1
102
RTVSPost2010Prop45
280
     0
102
RTVSPost2010PropOp45
 70
     1
102
RTVSPost2010Prop46
 90
       50
102
RTVSPost2010PropOp46
 70
     1
102
RTVSPost2010Prop47
 90
       50
102
RTVSPost2010PropOp47
 70
     1
102
RTVSPost2010Prop48
 90
       50
102
RTVSPost2010PropOp48
 70
     1
102
RTVSPost2010Prop49
280
     0
102
RTVSPost2010PropOp49
 70
     1
102
RTVSPost2010Prop50
 90
       50
102
RTVSPost2010PropOp50
 70
     1
102
RTVSPost2010Prop51ColorIndex
 90
      256
102
RTVSPost2010Prop51ColorRGB
 90
-16777216
102
RTVSPost2010PropOp51
 70
     0
102
RTVSPost2010Prop52
140
1.0
102
RTVSPost2010PropOp52
 70
     0
102
RTVSPost2010Prop53
 90
        2
102
RTVSPost2010PropOp53
 70
     1
102
RTVSPost2010Prop54
  1
strokes_ogs.tif
102
RTVSPost2010PropOp54
 70
     1
102
RTVSPost2010Prop55
280
     0
102
RTVSPost2010PropOp55
 70
     1
102
RTVSPost2010Prop56
140
1.0
102
RTVSPost2010PropOp56
 70
     1
102
RTVSPost2010Prop57
140
1.0
102
RTVSPost2010PropOp57
 70
     1
  0
XRECORD
  5
379
102
{ACAD_REACTORS
330
378
102
}
330
378
100
AcDbXrecord
280
     1
102
RTVSPost2010Prop28
280
     0
102
RTVSPost2010PropOp28
 70
     1
102
RTVSPost2010Prop29
280
     1
102
RTVSPost2010PropOp29
 70
     1
102
RTVSPost2010Prop30
280
     1
102
RTVSPost2010PropOp30
 70
     1
102
RTVSPost2010Prop31
280
     0
102
RTVSPost2010PropOp31
 70
     1
102
RTVSPost2010Prop32
280
     0
102
RTVSPost2010PropOp32
 70
     1
102
RTVSPost2010Prop33
280
     0
102
RTVSPost2010PropOp33
 70
     1
102
RTVSPost2010Prop34
280
     0
102
RTVSPost2010PropOp34
 70
     1
102
RTVSPost2010Prop35
280
     0
102
RTVSPost2010PropOp35
 70
     1
102
RTVSPost2010Prop36
280
     0
102
RTVSPost2010PropOp36
 70
     1
102
RTVSPost2010Prop37
 90
       50
102
RTVSPost2010PropOp37
 70
     1
102
RTVSPost2010Prop38
140
0.0
102
RTVSPost2010PropOp38
 70
     1
102
RTVSPost2010Prop39
140
1.0
102
RTVSPost2010PropOp39
 70
     1
102
RTVSPost2010Prop40
 90
        0
102
RTVSPost2010PropOp40
 70
     1
102
RTVSPost2010Prop41ColorIndex
 90
       18
102
RTVSPost2010Prop41ColorRGB
 90
        0
102
RTVSPost2010PropOp41
 70
     1
102
RTVSPost2010Prop42
 90
       50
102
RTVSPost2010PropOp42
 70
     1
102
RTVSPost2010Prop43
 90
        3
102
RTVSPost2010PropOp43
 70
     1
102
RTVSPost2010Prop44ColorIndex
 90
        5
102
RTVSPost2010Prop44ColorRGB
 90
      255
102
RTVSPost2010PropOp44
 70
     1
102
RTVSPost2010Prop45
280
     0
102
RTVSPost2010PropOp45
 70
     1
102
RTVSPost2010Prop46
 90
       50
102
RTVSPost2010PropOp46
 70
     1
102
RTVSPost2010Prop47
 90
       50
102
RTVSPost2010PropOp47
 70
     1
102
RTVSPost2010Prop48
 90
       50
102
RTVSPost2010PropOp48
 70
     1
102
RTVSPost2010Prop49
280
     0
102
RTVSPost2010PropOp49
 70
     1
102
RTVSPost2010Prop50
 90
       50
102
RTVSPost2010PropOp50
 70
     1
102
RTVSPost2010Prop51ColorIndex
 90
      256
102
RTVSPost2010Prop51ColorRGB
 90
-16777216
102
RTVSPost2010PropOp51
 70
     0
102
RTVSPost2010Prop52
140
1.0
102
RTVSPost2010PropOp52
 70
     0
102
RTVSPost2010Prop53
 90
        2
102
RTVSPost2010PropOp53
 70
     1
102
RTVSPost2010Prop54
  1
strokes_ogs.tif
102
RTVSPost2010PropOp54
 70
     1
102
RTVSPost2010Prop55
280
     0
102
RTVSPost2010PropOp55
 70
     1
102
RTVSPost2010Prop56
140
1.0
102
RTVSPost2010PropOp56
 70
     1
102
RTVSPost2010Prop57
140
1.0
102
RTVSPost2010PropOp57
 70
     1
  0
XRECORD
  5
381
102
{ACAD_REACTORS
330
380
102
}
330
380
100
AcDbXrecord
280
     1
102
RTVSPost2010Prop28
280
     0
102
RTVSPost2010PropOp28
 70
     1
102
RTVSPost2010Prop29
280
     1
102
RTVSPost2010PropOp29
 70
     1
102
RTVSPost2010Prop30
280
     1
102
RTVSPost2010PropOp30
 70
     1
102
RTVSPost2010Prop31
280
     0
102
RTVSPost2010PropOp31
 70
     1
102
RTVSPost2010Prop32
280
     0
102
RTVSPost2010PropOp32
 70
     1
102
RTVSPost2010Prop33
280
     0
102
RTVSPost2010PropOp33
 70
     1
102
RTVSPost2010Prop34
280
     0
102
RTVSPost2010PropOp34
 70
     1
102
RTVSPost2010Prop35
280
     0
102
RTVSPost2010PropOp35
 70
     1
102
RTVSPost2010Prop36
280
     0
102
RTVSPost2010PropOp36
 70
     1
102
RTVSPost2010Prop37
 90
       50
102
RTVSPost2010PropOp37
 70
     1
102
RTVSPost2010Prop38
140
0.0
102
RTVSPost2010PropOp38
 70
     1
102
RTVSPost2010Prop39
140
1.0
102
RTVSPost2010PropOp39
 70
     1
102
RTVSPost2010Prop40
 90
        0
102
RTVSPost2010PropOp40
 70
     1
102
RTVSPost2010Prop41ColorIndex
 90
       18
102
RTVSPost2010Prop41ColorRGB
 90
        0
102
RTVSPost2010PropOp41
 70
     1
102
RTVSPost2010Prop42
 90
       50
102
RTVSPost2010PropOp42
 70
     1
102
RTVSPost2010Prop43
 90
        3
102
RTVSPost2010PropOp43
 70
     1
102
RTVSPost2010Prop44ColorIndex
 90
        5
102
RTVSPost2010Prop44ColorRGB
 90
      255
102
RTVSPost2010PropOp44
 70
     1
102
RTVSPost2010Prop45
280
     0
102
RTVSPost2010PropOp45
 70
     1
102
RTVSPost2010Prop46
 90
       50
102
RTVSPost2010PropOp46
 70
     1
102
RTVSPost2010Prop47
 90
       50
102
RTVSPost2010PropOp47
 70
     1
102
RTVSPost2010Prop48
 90
       50
102
RTVSPost2010PropOp48
 70
     1
102
RTVSPost2010Prop49
280
     0
102
RTVSPost2010PropOp49
 70
     1
102
RTVSPost2010Prop50
 90
       50
102
RTVSPost2010PropOp50
 70
     1
102
RTVSPost2010Prop51ColorIndex
 90
      256
102
RTVSPost2010Prop51ColorRGB
 90
-16777216
102
RTVSPost2010PropOp51
 70
     0
102
RTVSPost2010Prop52
140
1.0
102
RTVSPost2010PropOp52
 70
     0
102
RTVSPost2010Prop53
 90
        2
102
RTVSPost2010PropOp53
 70
     1
102
RTVSPost2010Prop54
  1
strokes_ogs.tif
102
RTVSPost2010PropOp54
 70
     1
102
RTVSPost2010Prop55
280
     0
102
RTVSPost2010PropOp55
 70
     1
102
RTVSPost2010Prop56
140
1.0
102
RTVSPost2010PropOp56
 70
     1
102
RTVSPost2010Prop57
140
1.0
102
RTVSPost2010PropOp57
 70
     1
  0
XRECORD
  5
375
102
{ACAD_REACTORS
330
374
102
}
330
374
100
AcDbXrecord
280
     1
102
RTVSPost2010Prop28
280
     0
102
RTVSPost2010PropOp28
 70
     1
102
RTVSPost2010Prop29
280
     1
102
RTVSPost2010PropOp29
 70
     1
102
RTVSPost2010Prop30
280
     1
102
RTVSPost2010PropOp30
 70
     1
102
RTVSPost2010Prop31
280
     0
102
RTVSPost2010PropOp31
 70
     1
102
RTVSPost2010Prop32
280
     0
102
RTVSPost2010PropOp32
 70
     1
102
RTVSPost2010Prop33
280
     0
102
RTVSPost2010PropOp33
 70
     1
102
RTVSPost2010Prop34
280
     0
102
RTVSPost2010PropOp34
 70
     1
102
RTVSPost2010Prop35
280
     0
102
RTVSPost2010PropOp35
 70
     1
102
RTVSPost2010Prop36
280
     0
102
RTVSPost2010PropOp36
 70
     1
102
RTVSPost2010Prop37
 90
       50
102
RTVSPost2010PropOp37
 70
     1
102
RTVSPost2010Prop38
140
0.0
102
RTVSPost2010PropOp38
 70
     1
102
RTVSPost2010Prop39
140
1.0
102
RTVSPost2010PropOp39
 70
     1
102
RTVSPost2010Prop40
 90
        0
102
RTVSPost2010PropOp40
 70
     1
102
RTVSPost2010Prop41ColorIndex
 90
       18
102
RTVSPost2010Prop41ColorRGB
 90
        0
102
RTVSPost2010PropOp41
 70
     1
102
RTVSPost2010Prop42
 90
       50
102
RTVSPost2010PropOp42
 70
     1
102
RTVSPost2010Prop43
 90
        3
102
RTVSPost2010PropOp43
 70
     1
102
RTVSPost2010Prop44ColorIndex
 90
        5
102
RTVSPost2010Prop44ColorRGB
 90
      255
102
RTVSPost2010PropOp44
 70
     1
102
RTVSPost2010Prop45
280
     0
102
RTVSPost2010PropOp45
 70
     1
102
RTVSPost2010Prop46
 90
       50
102
RTVSPost2010PropOp46
 70
     1
102
RTVSPost2010Prop47
 90
       50
102
RTVSPost2010PropOp47
 70
     1
102
RTVSPost2010Prop48
 90
       50
102
RTVSPost2010PropOp48
 70
     1
102
RTVSPost2010Prop49
280
     0
102
RTVSPost2010PropOp49
 70
     1
102
RTVSPost2010Prop50
 90
       50
102
RTVSPost2010PropOp50
 70
     1
102
RTVSPost2010Prop51ColorIndex
 90
      256
102
RTVSPost2010Prop51ColorRGB
 90
-16777216
102
RTVSPost2010PropOp51
 70
     0
102
RTVSPost2010Prop52
140
1.0
102
RTVSPost2010PropOp52
 70
     0
102
RTVSPost2010Prop53
 90
        2
102
RTVSPost2010PropOp53
 70
     1
102
RTVSPost2010Prop54
  1
strokes_ogs.tif
102
RTVSPost2010PropOp54
 70
     1
102
RTVSPost2010Prop55
280
     0
102
RTVSPost2010PropOp55
 70
     1
102
RTVSPost2010Prop56
140
1.0
102
RTVSPost2010PropOp56
 70
     1
102
RTVSPost2010Prop57
140
1.0
102
RTVSPost2010PropOp57
 70
     1
  0
XRECORD
  5
377
102
{ACAD_REACTORS
330
376
102
}
330
376
100
AcDbXrecord
280
     1
102
RTVSPost2010Prop28
280
     0
102
RTVSPost2010PropOp28
 70
     1
102
RTVSPost2010Prop29
280
     1
102
RTVSPost2010PropOp29
 70
     1
102
RTVSPost2010Prop30
280
     1
102
RTVSPost2010PropOp30
 70
     1
102
RTVSPost2010Prop31
280
     0
102
RTVSPost2010PropOp31
 70
     1
102
RTVSPost2010Prop32
280
     0
102
RTVSPost2010PropOp32
 70
     1
102
RTVSPost2010Prop33
280
     0
102
RTVSPost2010PropOp33
 70
     1
102
RTVSPost2010Prop34
280
     0
102
RTVSPost2010PropOp34
 70
     1
102
RTVSPost2010Prop35
280
     0
102
RTVSPost2010PropOp35
 70
     1
102
RTVSPost2010Prop36
280
     0
102
RTVSPost2010PropOp36
 70
     1
102
RTVSPost2010Prop37
 90
       50
102
RTVSPost2010PropOp37
 70
     1
102
RTVSPost2010Prop38
140
0.0
102
RTVSPost2010PropOp38
 70
     1
102
RTVSPost2010Prop39
140
1.0
102
RTVSPost2010PropOp39
 70
     1
102
RTVSPost2010Prop40
 90
        0
102
RTVSPost2010PropOp40
 70
     1
102
RTVSPost2010Prop41ColorIndex
 90
       18
102
RTVSPost2010Prop41ColorRGB
 90
        0
102
RTVSPost2010PropOp41
 70
     1
102
RTVSPost2010Prop42
 90
       50
102
RTVSPost2010PropOp42
 70
     1
102
RTVSPost2010Prop43
 90
        3
102
RTVSPost2010PropOp43
 70
     1
102
RTVSPost2010Prop44ColorIndex
 90
        5
102
RTVSPost2010Prop44ColorRGB
 90
      255
102
RTVSPost2010PropOp44
 70
     1
102
RTVSPost2010Prop45
280
     0
102
RTVSPost2010PropOp45
 70
     1
102
RTVSPost2010Prop46
 90
       50
102
RTVSPost2010PropOp46
 70
     1
102
RTVSPost2010Prop47
 90
       50
102
RTVSPost2010PropOp47
 70
     1
102
RTVSPost2010Prop48
 90
       50
102
RTVSPost2010PropOp48
 70
     1
102
RTVSPost2010Prop49
280
     0
102
RTVSPost2010PropOp49
 70
     1
102
RTVSPost2010Prop50
 90
       50
102
RTVSPost2010PropOp50
 70
     1
102
RTVSPost2010Prop51ColorIndex
 90
      256
102
RTVSPost2010Prop51ColorRGB
 90
-16777216
102
RTVSPost2010PropOp51
 70
     0
102
RTVSPost2010Prop52
140
1.0
102
RTVSPost2010PropOp52
 70
     0
102
RTVSPost2010Prop53
 90
        2
102
RTVSPost2010PropOp53
 70
     1
102
RTVSPost2010Prop54
  1
strokes_ogs.tif
102
RTVSPost2010PropOp54
 70
     1
102
RTVSPost2010Prop55
280
     0
102
RTVSPost2010PropOp55
 70
     1
102
RTVSPost2010Prop56
140
1.0
102
RTVSPost2010PropOp56
 70
     1
102
RTVSPost2010Prop57
140
1.0
102
RTVSPost2010PropOp57
 70
     1
  0
XRECORD
  5
387
102
{ACAD_REACTORS
330
386
102
}
330
386
100
AcDbXrecord
280
     1
102
RTVSPost2010Prop28
280
     0
102
RTVSPost2010PropOp28
 70
     0
102
RTVSPost2010Prop29
280
     1
102
RTVSPost2010PropOp29
 70
     0
102
RTVSPost2010Prop30
280
     1
102
RTVSPost2010PropOp30
 70
     0
102
RTVSPost2010Prop31
280
     0
102
RTVSPost2010PropOp31
 70
     0
102
RTVSPost2010Prop32
280
     0
102
RTVSPost2010PropOp32
 70
     0
102
RTVSPost2010Prop33
280
     0
102
RTVSPost2010PropOp33
 70
     0
102
RTVSPost2010Prop34
280
     0
102
RTVSPost2010PropOp34
 70
     0
102
RTVSPost2010Prop35
280
     0
102
RTVSPost2010PropOp35
 70
     0
102
RTVSPost2010Prop36
280
     0
102
RTVSPost2010PropOp36
 70
     0
102
RTVSPost2010Prop37
 90
       50
102
RTVSPost2010PropOp37
 70
     0
102
RTVSPost2010Prop38
140
0.0
102
RTVSPost2010PropOp38
 70
     0
102
RTVSPost2010Prop39
140
1.0
102
RTVSPost2010PropOp39
 70
     0
102
RTVSPost2010Prop40
 90
        0
102
RTVSPost2010PropOp40
 70
     0
102
RTVSPost2010Prop41ColorIndex
 90
       18
102
RTVSPost2010Prop41ColorRGB
 90
        0
102
RTVSPost2010PropOp41
 70
     0
102
RTVSPost2010Prop42
 90
       50
102
RTVSPost2010PropOp42
 70
     0
102
RTVSPost2010Prop43
 90
        3
102
RTVSPost2010PropOp43
 70
     0
102
RTVSPost2010Prop44ColorIndex
 90
        5
102
RTVSPost2010Prop44ColorRGB
 90
      255
102
RTVSPost2010PropOp44
 70
     0
102
RTVSPost2010Prop45
280
     0
102
RTVSPost2010PropOp45
 70
     0
102
RTVSPost2010Prop46
 90
       50
102
RTVSPost2010PropOp46
 70
     0
102
RTVSPost2010Prop47
 90
       50
102
RTVSPost2010PropOp47
 70
     0
102
RTVSPost2010Prop48
 90
       50
102
RTVSPost2010PropOp48
 70
     0
102
RTVSPost2010Prop49
280
     0
102
RTVSPost2010PropOp49
 70
     0
102
RTVSPost2010Prop50
 90
       50
102
RTVSPost2010PropOp50
 70
     0
102
RTVSPost2010Prop51ColorIndex
 90
      256
102
RTVSPost2010Prop51ColorRGB
 90
-16777216
102
RTVSPost2010PropOp51
 70
     0
102
RTVSPost2010Prop52
140
1.0
102
RTVSPost2010PropOp52
 70
     0
102
RTVSPost2010Prop53
 90
        2
102
RTVSPost2010PropOp53
 70
     0
102
RTVSPost2010Prop54
  1
strokes_ogs.tif
102
RTVSPost2010PropOp54
 70
     0
102
RTVSPost2010Prop55
280
     0
102
RTVSPost2010PropOp55
 70
     0
102
RTVSPost2010Prop56
140
1.0
102
RTVSPost2010PropOp56
 70
     0
102
RTVSPost2010Prop57
140
1.0
102
RTVSPost2010PropOp57
 70
     0
  0
XRECORD
  5
37F
102
{ACAD_REACTORS
330
37E
102
}
330
37E
100
AcDbXrecord
280
     1
102
RTVSPost2010Prop28
280
     0
102
RTVSPost2010PropOp28
 70
     1
102
RTVSPost2010Prop29
280
     1
102
RTVSPost2010PropOp29
 70
     1
102
RTVSPost2010Prop30
280
     1
102
RTVSPost2010PropOp30
 70
     1
102
RTVSPost2010Prop31
280
     0
102
RTVSPost2010PropOp31
 70
     1
102
RTVSPost2010Prop32
280
     0
102
RTVSPost2010PropOp32
 70
     1
102
RTVSPost2010Prop33
280
     0
102
RTVSPost2010PropOp33
 70
     1
102
RTVSPost2010Prop34
280
     0
102
RTVSPost2010PropOp34
 70
     1
102
RTVSPost2010Prop35
280
     0
102
RTVSPost2010PropOp35
 70
     1
102
RTVSPost2010Prop36
280
     0
102
RTVSPost2010PropOp36
 70
     1
102
RTVSPost2010Prop37
 90
       50
102
RTVSPost2010PropOp37
 70
     1
102
RTVSPost2010Prop38
140
0.0
102
RTVSPost2010PropOp38
 70
     1
102
RTVSPost2010Prop39
140
1.0
102
RTVSPost2010PropOp39
 70
     1
102
RTVSPost2010Prop40
 90
        0
102
RTVSPost2010PropOp40
 70
     1
102
RTVSPost2010Prop41ColorIndex
 90
       18
102
RTVSPost2010Prop41ColorRGB
 90
        0
102
RTVSPost2010PropOp41
 70
     1
102
RTVSPost2010Prop42
 90
       50
102
RTVSPost2010PropOp42
 70
     1
102
RTVSPost2010Prop43
 90
        3
102
RTVSPost2010PropOp43
 70
     1
102
RTVSPost2010Prop44ColorIndex
 90
        5
102
RTVSPost2010Prop44ColorRGB
 90
      255
102
RTVSPost2010PropOp44
 70
     1
102
RTVSPost2010Prop45
280
     0
102
RTVSPost2010PropOp45
 70
     1
102
RTVSPost2010Prop46
 90
       50
102
RTVSPost2010PropOp46
 70
     1
102
RTVSPost2010Prop47
 90
       50
102
RTVSPost2010PropOp47
 70
     1
102
RTVSPost2010Prop48
 90
       50
102
RTVSPost2010PropOp48
 70
     1
102
RTVSPost2010Prop49
280
     0
102
RTVSPost2010PropOp49
 70
     1
102
RTVSPost2010Prop50
 90
       50
102
RTVSPost2010PropOp50
 70
     1
102
RTVSPost2010Prop51ColorIndex
 90
      256
102
RTVSPost2010Prop51ColorRGB
 90
-16777216
102
RTVSPost2010PropOp51
 70
     0
102
RTVSPost2010Prop52
140
1.0
102
RTVSPost2010PropOp52
 70
     0
102
RTVSPost2010Prop53
 90
        2
102
RTVSPost2010PropOp53
 70
     1
102
RTVSPost2010Prop54
  1
strokes_ogs.tif
102
RTVSPost2010PropOp54
 70
     1
102
RTVSPost2010Prop55
280
     0
102
RTVSPost2010PropOp55
 70
     1
102
RTVSPost2010Prop56
140
1.0
102
RTVSPost2010PropOp56
 70
     1
102
RTVSPost2010Prop57
140
1.0
102
RTVSPost2010PropOp57
 70
     1
  0
XRECORD
  5
363
102
{ACAD_REACTORS
330
362
102
}
330
362
100
AcDbXrecord
280
     1
102
RTVSPost2010Prop28
280
     0
102
RTVSPost2010PropOp28
 70
     1
102
RTVSPost2010Prop29
280
     1
102
RTVSPost2010PropOp29
 70
     1
102
RTVSPost2010Prop30
280
     1
102
RTVSPost2010PropOp30
 70
     1
102
RTVSPost2010Prop31
280
     0
102
RTVSPost2010PropOp31
 70
     1
102
RTVSPost2010Prop32
280
     0
102
RTVSPost2010PropOp32
 70
     1
102
RTVSPost2010Prop33
280
     0
102
RTVSPost2010PropOp33
 70
     1
102
RTVSPost2010Prop34
280
     0
102
RTVSPost2010PropOp34
 70
     1
102
RTVSPost2010Prop35
280
     0
102
RTVSPost2010PropOp35
 70
     1
102
RTVSPost2010Prop36
280
     0
102
RTVSPost2010PropOp36
 70
     1
102
RTVSPost2010Prop37
 90
       50
102
RTVSPost2010PropOp37
 70
     1
102
RTVSPost2010Prop38
140
0.0
102
RTVSPost2010PropOp38
 70
     1
102
RTVSPost2010Prop39
140
1.0
102
RTVSPost2010PropOp39
 70
     1
102
RTVSPost2010Prop40
 90
        0
102
RTVSPost2010PropOp40
 70
     1
102
RTVSPost2010Prop41ColorIndex
 90
       18
102
RTVSPost2010Prop41ColorRGB
 90
        0
102
RTVSPost2010PropOp41
 70
     1
102
RTVSPost2010Prop42
 90
       50
102
RTVSPost2010PropOp42
 70
     1
102
RTVSPost2010Prop43
 90
        3
102
RTVSPost2010PropOp43
 70
     1
102
RTVSPost2010Prop44ColorIndex
 90
        5
102
RTVSPost2010Prop44ColorRGB
 90
      255
102
RTVSPost2010PropOp44
 70
     1
102
RTVSPost2010Prop45
280
     0
102
RTVSPost2010PropOp45
 70
     1
102
RTVSPost2010Prop46
 90
       50
102
RTVSPost2010PropOp46
 70
     1
102
RTVSPost2010Prop47
 90
       50
102
RTVSPost2010PropOp47
 70
     1
102
RTVSPost2010Prop48
 90
       50
102
RTVSPost2010PropOp48
 70
     1
102
RTVSPost2010Prop49
280
     0
102
RTVSPost2010PropOp49
 70
     1
102
RTVSPost2010Prop50
 90
       50
102
RTVSPost2010PropOp50
 70
     1
102
RTVSPost2010Prop51ColorIndex
 90
      256
102
RTVSPost2010Prop51ColorRGB
 90
-16777216
102
RTVSPost2010PropOp51
 70
     0
102
RTVSPost2010Prop52
140
1.0
102
RTVSPost2010PropOp52
 70
     0
102
RTVSPost2010Prop53
 90
        2
102
RTVSPost2010PropOp53
 70
     1
102
RTVSPost2010Prop54
  1
strokes_ogs.tif
102
RTVSPost2010PropOp54
 70
     1
102
RTVSPost2010Prop55
280
     0
102
RTVSPost2010PropOp55
 70
     1
102
RTVSPost2010Prop56
140
1.0
102
RTVSPost2010PropOp56
 70
     1
102
RTVSPost2010Prop57
140
1.0
102
RTVSPost2010PropOp57
 70
     1
  0
XRECORD
  5
365
102
{ACAD_REACTORS
330
364
102
}
330
364
100
AcDbXrecord
280
     1
102
RTVSPost2010Prop28
280
     0
102
RTVSPost2010PropOp28
 70
     1
102
RTVSPost2010Prop29
280
     1
102
RTVSPost2010PropOp29
 70
     1
102
RTVSPost2010Prop30
280
     1
102
RTVSPost2010PropOp30
 70
     1
102
RTVSPost2010Prop31
280
     0
102
RTVSPost2010PropOp31
 70
     1
102
RTVSPost2010Prop32
280
     0
102
RTVSPost2010PropOp32
 70
     1
102
RTVSPost2010Prop33
280
     0
102
RTVSPost2010PropOp33
 70
     1
102
RTVSPost2010Prop34
280
     0
102
RTVSPost2010PropOp34
 70
     1
102
RTVSPost2010Prop35
280
     0
102
RTVSPost2010PropOp35
 70
     1
102
RTVSPost2010Prop36
280
     0
102
RTVSPost2010PropOp36
 70
     1
102
RTVSPost2010Prop37
 90
       50
102
RTVSPost2010PropOp37
 70
     1
102
RTVSPost2010Prop38
140
0.0
102
RTVSPost2010PropOp38
 70
     1
102
RTVSPost2010Prop39
140
1.0
102
RTVSPost2010PropOp39
 70
     1
102
RTVSPost2010Prop40
 90
        0
102
RTVSPost2010PropOp40
 70
     1
102
RTVSPost2010Prop41ColorIndex
 90
       18
102
RTVSPost2010Prop41ColorRGB
 90
        0
102
RTVSPost2010PropOp41
 70
     1
102
RTVSPost2010Prop42
 90
       50
102
RTVSPost2010PropOp42
 70
     1
102
RTVSPost2010Prop43
 90
        3
102
RTVSPost2010PropOp43
 70
     1
102
RTVSPost2010Prop44ColorIndex
 90
        5
102
RTVSPost2010Prop44ColorRGB
 90
      255
102
RTVSPost2010PropOp44
 70
     1
102
RTVSPost2010Prop45
280
     0
102
RTVSPost2010PropOp45
 70
     1
102
RTVSPost2010Prop46
 90
       50
102
RTVSPost2010PropOp46
 70
     1
102
RTVSPost2010Prop47
 90
       50
102
RTVSPost2010PropOp47
 70
     1
102
RTVSPost2010Prop48
 90
       50
102
RTVSPost2010PropOp48
 70
     1
102
RTVSPost2010Prop49
280
     0
102
RTVSPost2010PropOp49
 70
     1
102
RTVSPost2010Prop50
 90
       50
102
RTVSPost2010PropOp50
 70
     1
102
RTVSPost2010Prop51ColorIndex
 90
      256
102
RTVSPost2010Prop51ColorRGB
 90
-16777216
102
RTVSPost2010PropOp51
 70
     0
102
RTVSPost2010Prop52
140
1.0
102
RTVSPost2010PropOp52
 70
     0
102
RTVSPost2010Prop53
 90
        2
102
RTVSPost2010PropOp53
 70
     1
102
RTVSPost2010Prop54
  1
strokes_ogs.tif
102
RTVSPost2010PropOp54
 70
     1
102
RTVSPost2010Prop55
280
     0
102
RTVSPost2010PropOp55
 70
     1
102
RTVSPost2010Prop56
140
1.0
102
RTVSPost2010PropOp56
 70
     1
102
RTVSPost2010Prop57
140
1.0
102
RTVSPost2010PropOp57
 70
     1
  0
XRECORD
  5
367
102
{ACAD_REACTORS
330
366
102
}
330
366
100
AcDbXrecord
280
     1
102
RTVSPost2010Prop28
280
     0
102
RTVSPost2010PropOp28
 70
     1
102
RTVSPost2010Prop29
280
     1
102
RTVSPost2010PropOp29
 70
     1
102
RTVSPost2010Prop30
280
     1
102
RTVSPost2010PropOp30
 70
     1
102
RTVSPost2010Prop31
280
     0
102
RTVSPost2010PropOp31
 70
     1
102
RTVSPost2010Prop32
280
     0
102
RTVSPost2010PropOp32
 70
     1
102
RTVSPost2010Prop33
280
     0
102
RTVSPost2010PropOp33
 70
     1
102
RTVSPost2010Prop34
280
     0
102
RTVSPost2010PropOp34
 70
     1
102
RTVSPost2010Prop35
280
     0
102
RTVSPost2010PropOp35
 70
     1
102
RTVSPost2010Prop36
280
     0
102
RTVSPost2010PropOp36
 70
     1
102
RTVSPost2010Prop37
 90
       50
102
RTVSPost2010PropOp37
 70
     1
102
RTVSPost2010Prop38
140
0.0
102
RTVSPost2010PropOp38
 70
     1
102
RTVSPost2010Prop39
140
1.0
102
RTVSPost2010PropOp39
 70
     1
102
RTVSPost2010Prop40
 90
        0
102
RTVSPost2010PropOp40
 70
     1
102
RTVSPost2010Prop41ColorIndex
 90
       18
102
RTVSPost2010Prop41ColorRGB
 90
        0
102
RTVSPost2010PropOp41
 70
     1
102
RTVSPost2010Prop42
 90
       50
102
RTVSPost2010PropOp42
 70
     1
102
RTVSPost2010Prop43
 90
        3
102
RTVSPost2010PropOp43
 70
     1
102
RTVSPost2010Prop44ColorIndex
 90
        5
102
RTVSPost2010Prop44ColorRGB
 90
      255
102
RTVSPost2010PropOp44
 70
     1
102
RTVSPost2010Prop45
280
     0
102
RTVSPost2010PropOp45
 70
     1
102
RTVSPost2010Prop46
 90
       50
102
RTVSPost2010PropOp46
 70
     1
102
RTVSPost2010Prop47
 90
       50
102
RTVSPost2010PropOp47
 70
     1
102
RTVSPost2010Prop48
 90
       50
102
RTVSPost2010PropOp48
 70
     1
102
RTVSPost2010Prop49
280
     0
102
RTVSPost2010PropOp49
 70
     1
102
RTVSPost2010Prop50
 90
       50
102
RTVSPost2010PropOp50
 70
     1
102
RTVSPost2010Prop51ColorIndex
 90
      256
102
RTVSPost2010Prop51ColorRGB
 90
-16777216
102
RTVSPost2010PropOp51
 70
     0
102
RTVSPost2010Prop52
140
1.0
102
RTVSPost2010PropOp52
 70
     0
102
RTVSPost2010Prop53
 90
        2
102
RTVSPost2010PropOp53
 70
     1
102
RTVSPost2010Prop54
  1
strokes_ogs.tif
102
RTVSPost2010PropOp54
 70
     1
102
RTVSPost2010Prop55
280
     0
102
RTVSPost2010PropOp55
 70
     1
102
RTVSPost2010Prop56
140
1.0
102
RTVSPost2010PropOp56
 70
     1
102
RTVSPost2010Prop57
140
1.0
102
RTVSPost2010PropOp57
 70
     1
  0
XRECORD
  5
369
102
{ACAD_REACTORS
330
368
102
}
330
368
100
AcDbXrecord
280
     1
102
RTVSPost2010Prop28
280
     0
102
RTVSPost2010PropOp28
 70
     1
102
RTVSPost2010Prop29
280
     1
102
RTVSPost2010PropOp29
 70
     1
102
RTVSPost2010Prop30
280
     1
102
RTVSPost2010PropOp30
 70
     1
102
RTVSPost2010Prop31
280
     0
102
RTVSPost2010PropOp31
 70
     1
102
RTVSPost2010Prop32
280
     0
102
RTVSPost2010PropOp32
 70
     1
102
RTVSPost2010Prop33
280
     0
102
RTVSPost2010PropOp33
 70
     1
102
RTVSPost2010Prop34
280
     0
102
RTVSPost2010PropOp34
 70
     1
102
RTVSPost2010Prop35
280
     0
102
RTVSPost2010PropOp35
 70
     1
102
RTVSPost2010Prop36
280
     0
102
RTVSPost2010PropOp36
 70
     1
102
RTVSPost2010Prop37
 90
       50
102
RTVSPost2010PropOp37
 70
     1
102
RTVSPost2010Prop38
140
0.0
102
RTVSPost2010PropOp38
 70
     1
102
RTVSPost2010Prop39
140
1.0
102
RTVSPost2010PropOp39
 70
     1
102
RTVSPost2010Prop40
 90
        0
102
RTVSPost2010PropOp40
 70
     1
102
RTVSPost2010Prop41ColorIndex
 90
       18
102
RTVSPost2010Prop41ColorRGB
 90
        0
102
RTVSPost2010PropOp41
 70
     1
102
RTVSPost2010Prop42
 90
       50
102
RTVSPost2010PropOp42
 70
     1
102
RTVSPost2010Prop43
 90
        3
102
RTVSPost2010PropOp43
 70
     1
102
RTVSPost2010Prop44ColorIndex
 90
        5
102
RTVSPost2010Prop44ColorRGB
 90
      255
102
RTVSPost2010PropOp44
 70
     1
102
RTVSPost2010Prop45
280
     0
102
RTVSPost2010PropOp45
 70
     1
102
RTVSPost2010Prop46
 90
       50
102
RTVSPost2010PropOp46
 70
     1
102
RTVSPost2010Prop47
 90
       50
102
RTVSPost2010PropOp47
 70
     1
102
RTVSPost2010Prop48
 90
       50
102
RTVSPost2010PropOp48
 70
     1
102
RTVSPost2010Prop49
280
     0
102
RTVSPost2010PropOp49
 70
     1
102
RTVSPost2010Prop50
 90
       50
102
RTVSPost2010PropOp50
 70
     1
102
RTVSPost2010Prop51ColorIndex
 90
      256
102
RTVSPost2010Prop51ColorRGB
 90
-16777216
102
RTVSPost2010PropOp51
 70
     0
102
RTVSPost2010Prop52
140
1.0
102
RTVSPost2010PropOp52
 70
     0
102
RTVSPost2010Prop53
 90
        2
102
RTVSPost2010PropOp53
 70
     1
102
RTVSPost2010Prop54
  1
strokes_ogs.tif
102
RTVSPost2010PropOp54
 70
     1
102
RTVSPost2010Prop55
280
     0
102
RTVSPost2010PropOp55
 70
     1
102
RTVSPost2010Prop56
140
1.0
102
RTVSPost2010PropOp56
 70
     1
102
RTVSPost2010Prop57
140
1.0
102
RTVSPost2010PropOp57
 70
     1
  0
XRECORD
  5
36F
102
{ACAD_REACTORS
330
36E
102
}
330
36E
100
AcDbXrecord
280
     1
102
RTVSPost2010Prop28
280
     0
102
RTVSPost2010PropOp28
 70
     1
102
RTVSPost2010Prop29
280
     1
102
RTVSPost2010PropOp29
 70
     1
102
RTVSPost2010Prop30
280
     1
102
RTVSPost2010PropOp30
 70
     1
102
RTVSPost2010Prop31
280
     0
102
RTVSPost2010PropOp31
 70
     1
102
RTVSPost2010Prop32
280
     0
102
RTVSPost2010PropOp32
 70
     1
102
RTVSPost2010Prop33
280
     0
102
RTVSPost2010PropOp33
 70
     1
102
RTVSPost2010Prop34
280
     0
102
RTVSPost2010PropOp34
 70
     1
102
RTVSPost2010Prop35
280
     0
102
RTVSPost2010PropOp35
 70
     1
102
RTVSPost2010Prop36
280
     0
102
RTVSPost2010PropOp36
 70
     1
102
RTVSPost2010Prop37
 90
       50
102
RTVSPost2010PropOp37
 70
     1
102
RTVSPost2010Prop38
140
0.0
102
RTVSPost2010PropOp38
 70
     1
102
RTVSPost2010Prop39
140
1.0
102
RTVSPost2010PropOp39
 70
     1
102
RTVSPost2010Prop40
 90
        0
102
RTVSPost2010PropOp40
 70
     1
102
RTVSPost2010Prop41ColorIndex
 90
       18
102
RTVSPost2010Prop41ColorRGB
 90
        0
102
RTVSPost2010PropOp41
 70
     1
102
RTVSPost2010Prop42
 90
       50
102
RTVSPost2010PropOp42
 70
     1
102
RTVSPost2010Prop43
 90
        3
102
RTVSPost2010PropOp43
 70
     1
102
RTVSPost2010Prop44ColorIndex
 90
        5
102
RTVSPost2010Prop44ColorRGB
 90
      255
102
RTVSPost2010PropOp44
 70
     1
102
RTVSPost2010Prop45
280
     0
102
RTVSPost2010PropOp45
 70
     1
102
RTVSPost2010Prop46
 90
       50
102
RTVSPost2010PropOp46
 70
     1
102
RTVSPost2010Prop47
 90
       50
102
RTVSPost2010PropOp47
 70
     1
102
RTVSPost2010Prop48
 90
       50
102
RTVSPost2010PropOp48
 70
     1
102
RTVSPost2010Prop49
280
     0
102
RTVSPost2010PropOp49
 70
     1
102
RTVSPost2010Prop50
 90
       50
102
RTVSPost2010PropOp50
 70
     1
102
RTVSPost2010Prop51ColorIndex
 90
      256
102
RTVSPost2010Prop51ColorRGB
 90
-16777216
102
RTVSPost2010PropOp51
 70
     0
102
RTVSPost2010Prop52
140
1.0
102
RTVSPost2010PropOp52
 70
     0
102
RTVSPost2010Prop53
 90
        2
102
RTVSPost2010PropOp53
 70
     1
102
RTVSPost2010Prop54
  1
strokes_ogs.tif
102
RTVSPost2010PropOp54
 70
     1
102
RTVSPost2010Prop55
280
     0
102
RTVSPost2010PropOp55
 70
     1
102
RTVSPost2010Prop56
140
1.0
102
RTVSPost2010PropOp56
 70
     1
102
RTVSPost2010Prop57
140
1.0
102
RTVSPost2010PropOp57
 70
     1
  0
XRECORD
  5
383
102
{ACAD_REACTORS
330
382
102
}
330
382
100
AcDbXrecord
280
     1
102
RTVSPost2010Prop28
280
     0
102
RTVSPost2010PropOp28
 70
     0
102
RTVSPost2010Prop29
280
     1
102
RTVSPost2010PropOp29
 70
     0
102
RTVSPost2010Prop30
280
     1
102
RTVSPost2010PropOp30
 70
     0
102
RTVSPost2010Prop31
280
     0
102
RTVSPost2010PropOp31
 70
     0
102
RTVSPost2010Prop32
280
     0
102
RTVSPost2010PropOp32
 70
     0
102
RTVSPost2010Prop33
280
     0
102
RTVSPost2010PropOp33
 70
     0
102
RTVSPost2010Prop34
280
     0
102
RTVSPost2010PropOp34
 70
     0
102
RTVSPost2010Prop35
280
     0
102
RTVSPost2010PropOp35
 70
     0
102
RTVSPost2010Prop36
280
     0
102
RTVSPost2010PropOp36
 70
     0
102
RTVSPost2010Prop37
 90
       50
102
RTVSPost2010PropOp37
 70
     0
102
RTVSPost2010Prop38
140
0.0
102
RTVSPost2010PropOp38
 70
     0
102
RTVSPost2010Prop39
140
1.0
102
RTVSPost2010PropOp39
 70
     0
102
RTVSPost2010Prop40
 90
        0
102
RTVSPost2010PropOp40
 70
     0
102
RTVSPost2010Prop41ColorIndex
 90
       18
102
RTVSPost2010Prop41ColorRGB
 90
        0
102
RTVSPost2010PropOp41
 70
     0
102
RTVSPost2010Prop42
 90
       50
102
RTVSPost2010PropOp42
 70
     0
102
RTVSPost2010Prop43
 90
        3
102
RTVSPost2010PropOp43
 70
     0
102
RTVSPost2010Prop44ColorIndex
 90
        5
102
RTVSPost2010Prop44ColorRGB
 90
      255
102
RTVSPost2010PropOp44
 70
     0
102
RTVSPost2010Prop45
280
     0
102
RTVSPost2010PropOp45
 70
     0
102
RTVSPost2010Prop46
 90
       50
102
RTVSPost2010PropOp46
 70
     0
102
RTVSPost2010Prop47
 90
       50
102
RTVSPost2010PropOp47
 70
     0
102
RTVSPost2010Prop48
 90
       50
102
RTVSPost2010PropOp48
 70
     0
102
RTVSPost2010Prop49
280
     0
102
RTVSPost2010PropOp49
 70
     0
102
RTVSPost2010Prop50
 90
       50
102
RTVSPost2010PropOp50
 70
     0
102
RTVSPost2010Prop51ColorIndex
 90
      256
102
RTVSPost2010Prop51ColorRGB
 90
-16777216
102
RTVSPost2010PropOp51
 70
     0
102
RTVSPost2010Prop52
140
1.0
102
RTVSPost2010PropOp52
 70
     0
102
RTVSPost2010Prop53
 90
        2
102
RTVSPost2010PropOp53
 70
     0
102
RTVSPost2010Prop54
  1
strokes_ogs.tif
102
RTVSPost2010PropOp54
 70
     0
102
RTVSPost2010Prop55
280
     0
102
RTVSPost2010PropOp55
 70
     0
102
RTVSPost2010Prop56
140
1.0
102
RTVSPost2010PropOp56
 70
     0
102
RTVSPost2010Prop57
140
1.0
102
RTVSPost2010PropOp57
 70
     0
  0
XRECORD
  5
37D
102
{ACAD_REACTORS
330
37C
102
}
330
37C
100
AcDbXrecord
280
     1
102
RTVSPost2010Prop28
280
     0
102
RTVSPost2010PropOp28
 70
     1
102
RTVSPost2010Prop29
280
     1
102
RTVSPost2010PropOp29
 70
     1
102
RTVSPost2010Prop30
280
     1
102
RTVSPost2010PropOp30
 70
     1
102
RTVSPost2010Prop31
280
     0
102
RTVSPost2010PropOp31
 70
     1
102
RTVSPost2010Prop32
280
     0
102
RTVSPost2010PropOp32
 70
     1
102
RTVSPost2010Prop33
280
     0
102
RTVSPost2010PropOp33
 70
     1
102
RTVSPost2010Prop34
280
     0
102
RTVSPost2010PropOp34
 70
     1
102
RTVSPost2010Prop35
280
     0
102
RTVSPost2010PropOp35
 70
     1
102
RTVSPost2010Prop36
280
     0
102
RTVSPost2010PropOp36
 70
     1
102
RTVSPost2010Prop37
 90
       50
102
RTVSPost2010PropOp37
 70
     1
102
RTVSPost2010Prop38
140
0.0
102
RTVSPost2010PropOp38
 70
     1
102
RTVSPost2010Prop39
140
1.0
102
RTVSPost2010PropOp39
 70
     1
102
RTVSPost2010Prop40
 90
        0
102
RTVSPost2010PropOp40
 70
     1
102
RTVSPost2010Prop41ColorIndex
 90
       18
102
RTVSPost2010Prop41ColorRGB
 90
        0
102
RTVSPost2010PropOp41
 70
     1
102
RTVSPost2010Prop42
 90
       50
102
RTVSPost2010PropOp42
 70
     1
102
RTVSPost2010Prop43
 90
        3
102
RTVSPost2010PropOp43
 70
     1
102
RTVSPost2010Prop44ColorIndex
 90
        5
102
RTVSPost2010Prop44ColorRGB
 90
      255
102
RTVSPost2010PropOp44
 70
     1
102
RTVSPost2010Prop45
280
     0
102
RTVSPost2010PropOp45
 70
     1
102
RTVSPost2010Prop46
 90
       50
102
RTVSPost2010PropOp46
 70
     1
102
RTVSPost2010Prop47
 90
       50
102
RTVSPost2010PropOp47
 70
     1
102
RTVSPost2010Prop48
 90
       50
102
RTVSPost2010PropOp48
 70
     1
102
RTVSPost2010Prop49
280
     0
102
RTVSPost2010PropOp49
 70
     1
102
RTVSPost2010Prop50
 90
       50
102
RTVSPost2010PropOp50
 70
     1
102
RTVSPost2010Prop51ColorIndex
 90
      256
102
RTVSPost2010Prop51ColorRGB
 90
-16777216
102
RTVSPost2010PropOp51
 70
     0
102
RTVSPost2010Prop52
140
1.0
102
RTVSPost2010PropOp52
 70
     0
102
RTVSPost2010Prop53
 90
        2
102
RTVSPost2010PropOp53
 70
     1
102
RTVSPost2010Prop54
  1
strokes_ogs.tif
102
RTVSPost2010PropOp54
 70
     1
102
RTVSPost2010Prop55
280
     0
102
RTVSPost2010PropOp55
 70
     1
102
RTVSPost2010Prop56
140
1.0
102
RTVSPost2010PropOp56
 70
     1
102
RTVSPost2010Prop57
140
1.0
102
RTVSPost2010PropOp57
 70
     1
  0
XRECORD
  5
385
102
{ACAD_REACTORS
330
384
102
}
330
384
100
AcDbXrecord
280
     1
102
RTVSPost2010Prop28
280
     0
102
RTVSPost2010PropOp28
 70
     0
102
RTVSPost2010Prop29
280
     1
102
RTVSPost2010PropOp29
 70
     0
102
RTVSPost2010Prop30
280
     1
102
RTVSPost2010PropOp30
 70
     0
102
RTVSPost2010Prop31
280
     0
102
RTVSPost2010PropOp31
 70
     0
102
RTVSPost2010Prop32
280
     0
102
RTVSPost2010PropOp32
 70
     0
102
RTVSPost2010Prop33
280
     0
102
RTVSPost2010PropOp33
 70
     0
102
RTVSPost2010Prop34
280
     0
102
RTVSPost2010PropOp34
 70
     0
102
RTVSPost2010Prop35
280
     0
102
RTVSPost2010PropOp35
 70
     0
102
RTVSPost2010Prop36
280
     0
102
RTVSPost2010PropOp36
 70
     0
102
RTVSPost2010Prop37
 90
       50
102
RTVSPost2010PropOp37
 70
     0
102
RTVSPost2010Prop38
140
0.0
102
RTVSPost2010PropOp38
 70
     0
102
RTVSPost2010Prop39
140
1.0
102
RTVSPost2010PropOp39
 70
     0
102
RTVSPost2010Prop40
 90
        0
102
RTVSPost2010PropOp40
 70
     0
102
RTVSPost2010Prop41ColorIndex
 90
       18
102
RTVSPost2010Prop41ColorRGB
 90
        0
102
RTVSPost2010PropOp41
 70
     0
102
RTVSPost2010Prop42
 90
       50
102
RTVSPost2010PropOp42
 70
     0
102
RTVSPost2010Prop43
 90
        3
102
RTVSPost2010PropOp43
 70
     0
102
RTVSPost2010Prop44ColorIndex
 90
        5
102
RTVSPost2010Prop44ColorRGB
 90
      255
102
RTVSPost2010PropOp44
 70
     0
102
RTVSPost2010Prop45
280
     0
102
RTVSPost2010PropOp45
 70
     0
102
RTVSPost2010Prop46
 90
       50
102
RTVSPost2010PropOp46
 70
     0
102
RTVSPost2010Prop47
 90
       50
102
RTVSPost2010PropOp47
 70
     0
102
RTVSPost2010Prop48
 90
       50
102
RTVSPost2010PropOp48
 70
     0
102
RTVSPost2010Prop49
280
     0
102
RTVSPost2010PropOp49
 70
     0
102
RTVSPost2010Prop50
 90
       50
102
RTVSPost2010PropOp50
 70
     0
102
RTVSPost2010Prop51ColorIndex
 90
      256
102
RTVSPost2010Prop51ColorRGB
 90
-16777216
102
RTVSPost2010PropOp51
 70
     0
102
RTVSPost2010Prop52
140
1.0
102
RTVSPost2010PropOp52
 70
     0
102
RTVSPost2010Prop53
 90
        2
102
RTVSPost2010PropOp53
 70
     0
102
RTVSPost2010Prop54
  1
strokes_ogs.tif
102
RTVSPost2010PropOp54
 70
     0
102
RTVSPost2010Prop55
280
     0
102
RTVSPost2010PropOp55
 70
     0
102
RTVSPost2010Prop56
140
1.0
102
RTVSPost2010PropOp56
 70
     0
102
RTVSPost2010Prop57
140
1.0
102
RTVSPost2010PropOp57
 70
     0
  0
XRECORD
  5
373
102
{ACAD_REACTORS
330
372
102
}
330
372
100
AcDbXrecord
280
     1
102
RTVSPost2010Prop28
280
     0
102
RTVSPost2010PropOp28
 70
     1
102
RTVSPost2010Prop29
280
     1
102
RTVSPost2010PropOp29
 70
     1
102
RTVSPost2010Prop30
280
     1
102
RTVSPost2010PropOp30
 70
     1
102
RTVSPost2010Prop31
280
     0
102
RTVSPost2010PropOp31
 70
     1
102
RTVSPost2010Prop32
280
     0
102
RTVSPost2010PropOp32
 70
     1
102
RTVSPost2010Prop33
280
     0
102
RTVSPost2010PropOp33
 70
     1
102
RTVSPost2010Prop34
280
     0
102
RTVSPost2010PropOp34
 70
     1
102
RTVSPost2010Prop35
280
     0
102
RTVSPost2010PropOp35
 70
     1
102
RTVSPost2010Prop36
280
     0
102
RTVSPost2010PropOp36
 70
     1
102
RTVSPost2010Prop37
 90
       50
102
RTVSPost2010PropOp37
 70
     1
102
RTVSPost2010Prop38
140
0.0
102
RTVSPost2010PropOp38
 70
     1
102
RTVSPost2010Prop39
140
1.0
102
RTVSPost2010PropOp39
 70
     1
102
RTVSPost2010Prop40
 90
        0
102
RTVSPost2010PropOp40
 70
     1
102
RTVSPost2010Prop41ColorIndex
 90
       18
102
RTVSPost2010Prop41ColorRGB
 90
        0
102
RTVSPost2010PropOp41
 70
     1
102
RTVSPost2010Prop42
 90
       50
102
RTVSPost2010PropOp42
 70
     1
102
RTVSPost2010Prop43
 90
        3
102
RTVSPost2010PropOp43
 70
     1
102
RTVSPost2010Prop44ColorIndex
 90
        5
102
RTVSPost2010Prop44ColorRGB
 90
      255
102
RTVSPost2010PropOp44
 70
     1
102
RTVSPost2010Prop45
280
     0
102
RTVSPost2010PropOp45
 70
     1
102
RTVSPost2010Prop46
 90
       50
102
RTVSPost2010PropOp46
 70
     1
102
RTVSPost2010Prop47
 90
       50
102
RTVSPost2010PropOp47
 70
     1
102
RTVSPost2010Prop48
 90
       50
102
RTVSPost2010PropOp48
 70
     1
102
RTVSPost2010Prop49
280
     0
102
RTVSPost2010PropOp49
 70
     1
102
RTVSPost2010Prop50
 90
       50
102
RTVSPost2010PropOp50
 70
     1
102
RTVSPost2010Prop51ColorIndex
 90
      256
102
RTVSPost2010Prop51ColorRGB
 90
-16777216
102
RTVSPost2010PropOp51
 70
     0
102
RTVSPost2010Prop52
140
1.0
102
RTVSPost2010PropOp52
 70
     0
102
RTVSPost2010Prop53
 90
        2
102
RTVSPost2010PropOp53
 70
     1
102
RTVSPost2010Prop54
  1
strokes_ogs.tif
102
RTVSPost2010PropOp54
 70
     1
102
RTVSPost2010Prop55
280
     0
102
RTVSPost2010PropOp55
 70
     1
102
RTVSPost2010Prop56
140
1.0
102
RTVSPost2010PropOp56
 70
     1
102
RTVSPost2010Prop57
140
1.0
102
RTVSPost2010PropOp57
 70
     1
  0
XRECORD
  5
391
102
{ACAD_REACTORS
330
390
102
}
330
390
100
AcDbXrecord
280
     1
102
RTVSPost2010Prop28
280
     0
102
RTVSPost2010PropOp28
 70
     1
102
RTVSPost2010Prop29
280
     1
102
RTVSPost2010PropOp29
 70
     1
102
RTVSPost2010Prop30
280
     1
102
RTVSPost2010PropOp30
 70
     1
102
RTVSPost2010Prop31
280
     0
102
RTVSPost2010PropOp31
 70
     1
102
RTVSPost2010Prop32
280
     0
102
RTVSPost2010PropOp32
 70
     1
102
RTVSPost2010Prop33
280
     0
102
RTVSPost2010PropOp33
 70
     1
102
RTVSPost2010Prop34
280
     0
102
RTVSPost2010PropOp34
 70
     1
102
RTVSPost2010Prop35
280
     0
102
RTVSPost2010PropOp35
 70
     1
102
RTVSPost2010Prop36
280
     0
102
RTVSPost2010PropOp36
 70
     1
102
RTVSPost2010Prop37
 90
       50
102
RTVSPost2010PropOp37
 70
     1
102
RTVSPost2010Prop38
140
0.0
102
RTVSPost2010PropOp38
 70
     1
102
RTVSPost2010Prop39
140
1.0
102
RTVSPost2010PropOp39
 70
     1
102
RTVSPost2010Prop40
 90
        0
102
RTVSPost2010PropOp40
 70
     1
102
RTVSPost2010Prop41ColorIndex
 90
       18
102
RTVSPost2010Prop41ColorRGB
 90
        0
102
RTVSPost2010PropOp41
 70
     1
102
RTVSPost2010Prop42
 90
       50
102
RTVSPost2010PropOp42
 70
     1
102
RTVSPost2010Prop43
 90
        3
102
RTVSPost2010PropOp43
 70
     1
102
RTVSPost2010Prop44ColorIndex
 90
        5
102
RTVSPost2010Prop44ColorRGB
 90
      255
102
RTVSPost2010PropOp44
 70
     1
102
RTVSPost2010Prop45
280
     0
102
RTVSPost2010PropOp45
 70
     1
102
RTVSPost2010Prop46
 90
       50
102
RTVSPost2010PropOp46
 70
     1
102
RTVSPost2010Prop47
 90
       50
102
RTVSPost2010PropOp47
 70
     1
102
RTVSPost2010Prop48
 90
       50
102
RTVSPost2010PropOp48
 70
     1
102
RTVSPost2010Prop49
280
     0
102
RTVSPost2010PropOp49
 70
     1
102
RTVSPost2010Prop50
 90
       50
102
RTVSPost2010PropOp50
 70
     1
102
RTVSPost2010Prop51ColorIndex
 90
      256
102
RTVSPost2010Prop51ColorRGB
 90
-16777216
102
RTVSPost2010PropOp51
 70
     0
102
RTVSPost2010Prop52
140
1.0
102
RTVSPost2010PropOp52
 70
     0
102
RTVSPost2010Prop53
 90
        2
102
RTVSPost2010PropOp53
 70
     1
102
RTVSPost2010Prop54
  1
strokes_ogs.tif
102
RTVSPost2010PropOp54
 70
     1
102
RTVSPost2010Prop55
280
     0
102
RTVSPost2010PropOp55
 70
     1
102
RTVSPost2010Prop56
140
1.0
102
RTVSPost2010PropOp56
 70
     1
102
RTVSPost2010Prop57
140
1.0
102
RTVSPost2010PropOp57
 70
     1
  0
XRECORD
  5
38F
102
{ACAD_REACTORS
330
38E
102
}
330
38E
100
AcDbXrecord
280
     1
102
RTVSPost2010Prop28
280
     0
102
RTVSPost2010PropOp28
 70
     1
102
RTVSPost2010Prop29
280
     1
102
RTVSPost2010PropOp29
 70
     1
102
RTVSPost2010Prop30
280
     1
102
RTVSPost2010PropOp30
 70
     1
102
RTVSPost2010Prop31
280
     0
102
RTVSPost2010PropOp31
 70
     1
102
RTVSPost2010Prop32
280
     0
102
RTVSPost2010PropOp32
 70
     1
102
RTVSPost2010Prop33
280
     0
102
RTVSPost2010PropOp33
 70
     1
102
RTVSPost2010Prop34
280
     0
102
RTVSPost2010PropOp34
 70
     1
102
RTVSPost2010Prop35
280
     0
102
RTVSPost2010PropOp35
 70
     1
102
RTVSPost2010Prop36
280
     0
102
RTVSPost2010PropOp36
 70
     1
102
RTVSPost2010Prop37
 90
       50
102
RTVSPost2010PropOp37
 70
     1
102
RTVSPost2010Prop38
140
0.0
102
RTVSPost2010PropOp38
 70
     1
102
RTVSPost2010Prop39
140
1.0
102
RTVSPost2010PropOp39
 70
     1
102
RTVSPost2010Prop40
 90
        0
102
RTVSPost2010PropOp40
 70
     1
102
RTVSPost2010Prop41ColorIndex
 90
       18
102
RTVSPost2010Prop41ColorRGB
 90
        0
102
RTVSPost2010PropOp41
 70
     1
102
RTVSPost2010Prop42
 90
       50
102
RTVSPost2010PropOp42
 70
     1
102
RTVSPost2010Prop43
 90
        3
102
RTVSPost2010PropOp43
 70
     1
102
RTVSPost2010Prop44ColorIndex
 90
        5
102
RTVSPost2010Prop44ColorRGB
 90
      255
102
RTVSPost2010PropOp44
 70
     1
102
RTVSPost2010Prop45
280
     0
102
RTVSPost2010PropOp45
 70
     1
102
RTVSPost2010Prop46
 90
       50
102
RTVSPost2010PropOp46
 70
     1
102
RTVSPost2010Prop47
 90
       50
102
RTVSPost2010PropOp47
 70
     1
102
RTVSPost2010Prop48
 90
       50
102
RTVSPost2010PropOp48
 70
     1
102
RTVSPost2010Prop49
280
     0
102
RTVSPost2010PropOp49
 70
     1
102
RTVSPost2010Prop50
 90
       50
102
RTVSPost2010PropOp50
 70
     1
102
RTVSPost2010Prop51ColorIndex
 90
      256
102
RTVSPost2010Prop51ColorRGB
 90
-16777216
102
RTVSPost2010PropOp51
 70
     0
102
RTVSPost2010Prop52
140
1.0
102
RTVSPost2010PropOp52
 70
     0
102
RTVSPost2010Prop53
 90
        2
102
RTVSPost2010PropOp53
 70
     1
102
RTVSPost2010Prop54
  1
strokes_ogs.tif
102
RTVSPost2010PropOp54
 70
     1
102
RTVSPost2010Prop55
280
     0
102
RTVSPost2010PropOp55
 70
     1
102
RTVSPost2010Prop56
140
1.0
102
RTVSPost2010PropOp56
 70
     1
102
RTVSPost2010Prop57
140
1.0
102
RTVSPost2010PropOp57
 70
     1
  0
XRECORD
  5
389
102
{ACAD_REACTORS
330
388
102
}
330
388
100
AcDbXrecord
280
     1
102
RTVSPost2010Prop28
280
     0
102
RTVSPost2010PropOp28
 70
     1
102
RTVSPost2010Prop29
280
     1
102
RTVSPost2010PropOp29
 70
     1
102
RTVSPost2010Prop30
280
     1
102
RTVSPost2010PropOp30
 70
     1
102
RTVSPost2010Prop31
280
     0
102
RTVSPost2010PropOp31
 70
     1
102
RTVSPost2010Prop32
280
     0
102
RTVSPost2010PropOp32
 70
     1
102
RTVSPost2010Prop33
280
     0
102
RTVSPost2010PropOp33
 70
     1
102
RTVSPost2010Prop34
280
     0
102
RTVSPost2010PropOp34
 70
     1
102
RTVSPost2010Prop35
280
     0
102
RTVSPost2010PropOp35
 70
     1
102
RTVSPost2010Prop36
280
     0
102
RTVSPost2010PropOp36
 70
     1
102
RTVSPost2010Prop37
 90
       50
102
RTVSPost2010PropOp37
 70
     1
102
RTVSPost2010Prop38
140
0.0
102
RTVSPost2010PropOp38
 70
     1
102
RTVSPost2010Prop39
140
1.0
102
RTVSPost2010PropOp39
 70
     1
102
RTVSPost2010Prop40
 90
        0
102
RTVSPost2010PropOp40
 70
     1
102
RTVSPost2010Prop41ColorIndex
 90
       18
102
RTVSPost2010Prop41ColorRGB
 90
        0
102
RTVSPost2010PropOp41
 70
     1
102
RTVSPost2010Prop42
 90
       50
102
RTVSPost2010PropOp42
 70
     1
102
RTVSPost2010Prop43
 90
        3
102
RTVSPost2010PropOp43
 70
     1
102
RTVSPost2010Prop44ColorIndex
 90
        5
102
RTVSPost2010Prop44ColorRGB
 90
      255
102
RTVSPost2010PropOp44
 70
     1
102
RTVSPost2010Prop45
280
     0
102
RTVSPost2010PropOp45
 70
     1
102
RTVSPost2010Prop46
 90
       50
102
RTVSPost2010PropOp46
 70
     1
102
RTVSPost2010Prop47
 90
       50
102
RTVSPost2010PropOp47
 70
     1
102
RTVSPost2010Prop48
 90
       50
102
RTVSPost2010PropOp48
 70
     1
102
RTVSPost2010Prop49
280
     0
102
RTVSPost2010PropOp49
 70
     1
102
RTVSPost2010Prop50
 90
       50
102
RTVSPost2010PropOp50
 70
     1
102
RTVSPost2010Prop51ColorIndex
 90
      256
102
RTVSPost2010Prop51ColorRGB
 90
-16777216
102
RTVSPost2010PropOp51
 70
     0
102
RTVSPost2010Prop52
140
1.0
102
RTVSPost2010PropOp52
 70
     0
102
RTVSPost2010Prop53
 90
        2
102
RTVSPost2010PropOp53
 70
     1
102
RTVSPost2010Prop54
  1
strokes_ogs.tif
102
RTVSPost2010PropOp54
 70
     1
102
RTVSPost2010Prop55
280
     0
102
RTVSPost2010PropOp55
 70
     1
102
RTVSPost2010Prop56
140
1.0
102
RTVSPost2010PropOp56
 70
     1
102
RTVSPost2010Prop57
140
1.0
102
RTVSPost2010PropOp57
 70
     1
  0
XRECORD
  5
38B
102
{ACAD_REACTORS
330
38A
102
}
330
38A
100
AcDbXrecord
280
     1
102
RTVSPost2010Prop28
280
     0
102
RTVSPost2010PropOp28
 70
     1
102
RTVSPost2010Prop29
280
     1
102
RTVSPost2010PropOp29
 70
     1
102
RTVSPost2010Prop30
280
     1
102
RTVSPost2010PropOp30
 70
     1
102
RTVSPost2010Prop31
280
     0
102
RTVSPost2010PropOp31
 70
     1
102
RTVSPost2010Prop32
280
     0
102
RTVSPost2010PropOp32
 70
     1
102
RTVSPost2010Prop33
280
     0
102
RTVSPost2010PropOp33
 70
     1
102
RTVSPost2010Prop34
280
     0
102
RTVSPost2010PropOp34
 70
     1
102
RTVSPost2010Prop35
280
     0
102
RTVSPost2010PropOp35
 70
     1
102
RTVSPost2010Prop36
280
     0
102
RTVSPost2010PropOp36
 70
     1
102
RTVSPost2010Prop37
 90
       50
102
RTVSPost2010PropOp37
 70
     1
102
RTVSPost2010Prop38
140
0.0
102
RTVSPost2010PropOp38
 70
     1
102
RTVSPost2010Prop39
140
1.0
102
RTVSPost2010PropOp39
 70
     1
102
RTVSPost2010Prop40
 90
        0
102
RTVSPost2010PropOp40
 70
     1
102
RTVSPost2010Prop41ColorIndex
 90
       18
102
RTVSPost2010Prop41ColorRGB
 90
        0
102
RTVSPost2010PropOp41
 70
     1
102
RTVSPost2010Prop42
 90
       50
102
RTVSPost2010PropOp42
 70
     1
102
RTVSPost2010Prop43
 90
        3
102
RTVSPost2010PropOp43
 70
     1
102
RTVSPost2010Prop44ColorIndex
 90
        5
102
RTVSPost2010Prop44ColorRGB
 90
      255
102
RTVSPost2010PropOp44
 70
     1
102
RTVSPost2010Prop45
280
     0
102
RTVSPost2010PropOp45
 70
     1
102
RTVSPost2010Prop46
 90
       50
102
RTVSPost2010PropOp46
 70
     1
102
RTVSPost2010Prop47
 90
       50
102
RTVSPost2010PropOp47
 70
     1
102
RTVSPost2010Prop48
 90
       50
102
RTVSPost2010PropOp48
 70
     1
102
RTVSPost2010Prop49
280
     0
102
RTVSPost2010PropOp49
 70
     1
102
RTVSPost2010Prop50
 90
       50
102
RTVSPost2010PropOp50
 70
     1
102
RTVSPost2010Prop51ColorIndex
 90
      256
102
RTVSPost2010Prop51ColorRGB
 90
-16777216
102
RTVSPost2010PropOp51
 70
     0
102
RTVSPost2010Prop52
140
1.0
102
RTVSPost2010PropOp52
 70
     0
102
RTVSPost2010Prop53
 90
        2
102
RTVSPost2010PropOp53
 70
     1
102
RTVSPost2010Prop54
  1
strokes_ogs.tif
102
RTVSPost2010PropOp54
 70
     1
102
RTVSPost2010Prop55
280
     0
102
RTVSPost2010PropOp55
 70
     1
102
RTVSPost2010Prop56
140
1.0
102
RTVSPost2010PropOp56
 70
     1
102
RTVSPost2010Prop57
140
1.0
102
RTVSPost2010PropOp57
 70
     1
  0
XRECORD
  5
37B
102
{ACAD_REACTORS
330
37A
102
}
330
37A
100
AcDbXrecord
280
     1
102
RTVSPost2010Prop28
280
     0
102
RTVSPost2010PropOp28
 70
     1
102
RTVSPost2010Prop29
280
     1
102
RTVSPost2010PropOp29
 70
     1
102
RTVSPost2010Prop30
280
     1
102
RTVSPost2010PropOp30
 70
     1
102
RTVSPost2010Prop31
280
     0
102
RTVSPost2010PropOp31
 70
     1
102
RTVSPost2010Prop32
280
     0
102
RTVSPost2010PropOp32
 70
     1
102
RTVSPost2010Prop33
280
     0
102
RTVSPost2010PropOp33
 70
     1
102
RTVSPost2010Prop34
280
     0
102
RTVSPost2010PropOp34
 70
     1
102
RTVSPost2010Prop35
280
     0
102
RTVSPost2010PropOp35
 70
     1
102
RTVSPost2010Prop36
280
     0
102
RTVSPost2010PropOp36
 70
     1
102
RTVSPost2010Prop37
 90
       50
102
RTVSPost2010PropOp37
 70
     1
102
RTVSPost2010Prop38
140
0.0
102
RTVSPost2010PropOp38
 70
     1
102
RTVSPost2010Prop39
140
1.0
102
RTVSPost2010PropOp39
 70
     1
102
RTVSPost2010Prop40
 90
        0
102
RTVSPost2010PropOp40
 70
     1
102
RTVSPost2010Prop41ColorIndex
 90
       18
102
RTVSPost2010Prop41ColorRGB
 90
        0
102
RTVSPost2010PropOp41
 70
     1
102
RTVSPost2010Prop42
 90
       50
102
RTVSPost2010PropOp42
 70
     1
102
RTVSPost2010Prop43
 90
        3
102
RTVSPost2010PropOp43
 70
     1
102
RTVSPost2010Prop44ColorIndex
 90
        5
102
RTVSPost2010Prop44ColorRGB
 90
      255
102
RTVSPost2010PropOp44
 70
     1
102
RTVSPost2010Prop45
280
     0
102
RTVSPost2010PropOp45
 70
     1
102
RTVSPost2010Prop46
 90
       50
102
RTVSPost2010PropOp46
 70
     1
102
RTVSPost2010Prop47
 90
       50
102
RTVSPost2010PropOp47
 70
     1
102
RTVSPost2010Prop48
 90
       50
102
RTVSPost2010PropOp48
 70
     1
102
RTVSPost2010Prop49
280
     0
102
RTVSPost2010PropOp49
 70
     1
102
RTVSPost2010Prop50
 90
       50
102
RTVSPost2010PropOp50
 70
     1
102
RTVSPost2010Prop51ColorIndex
 90
      256
102
RTVSPost2010Prop51ColorRGB
 90
-16777216
102
RTVSPost2010PropOp51
 70
     0
102
RTVSPost2010Prop52
140
1.0
102
RTVSPost2010PropOp52
 70
     0
102
RTVSPost2010Prop53
 90
        2
102
RTVSPost2010PropOp53
 70
     1
102
RTVSPost2010Prop54
  1
strokes_ogs.tif
102
RTVSPost2010PropOp54
 70
     1
102
RTVSPost2010Prop55
280
     0
102
RTVSPost2010PropOp55
 70
     1
102
RTVSPost2010Prop56
140
1.0
102
RTVSPost2010PropOp56
 70
     1
102
RTVSPost2010Prop57
140
1.0
102
RTVSPost2010PropOp57
 70
     1
  0
XRECORD
  5
36D
102
{ACAD_REACTORS
330
36C
102
}
330
36C
100
AcDbXrecord
280
     1
102
RTVSPost2010Prop28
280
     0
102
RTVSPost2010PropOp28
 70
     1
102
RTVSPost2010Prop29
280
     1
102
RTVSPost2010PropOp29
 70
     1
102
RTVSPost2010Prop30
280
     1
102
RTVSPost2010PropOp30
 70
     1
102
RTVSPost2010Prop31
280
     0
102
RTVSPost2010PropOp31
 70
     1
102
RTVSPost2010Prop32
280
     0
102
RTVSPost2010PropOp32
 70
     1
102
RTVSPost2010Prop33
280
     0
102
RTVSPost2010PropOp33
 70
     1
102
RTVSPost2010Prop34
280
     0
102
RTVSPost2010PropOp34
 70
     1
102
RTVSPost2010Prop35
280
     0
102
RTVSPost2010PropOp35
 70
     1
102
RTVSPost2010Prop36
280
     0
102
RTVSPost2010PropOp36
 70
     1
102
RTVSPost2010Prop37
 90
       50
102
RTVSPost2010PropOp37
 70
     1
102
RTVSPost2010Prop38
140
0.0
102
RTVSPost2010PropOp38
 70
     1
102
RTVSPost2010Prop39
140
1.0
102
RTVSPost2010PropOp39
 70
     1
102
RTVSPost2010Prop40
 90
        0
102
RTVSPost2010PropOp40
 70
     1
102
RTVSPost2010Prop41ColorIndex
 90
       18
102
RTVSPost2010Prop41ColorRGB
 90
        0
102
RTVSPost2010PropOp41
 70
     1
102
RTVSPost2010Prop42
 90
       50
102
RTVSPost2010PropOp42
 70
     1
102
RTVSPost2010Prop43
 90
        3
102
RTVSPost2010PropOp43
 70
     1
102
RTVSPost2010Prop44ColorIndex
 90
        5
102
RTVSPost2010Prop44ColorRGB
 90
      255
102
RTVSPost2010PropOp44
 70
     1
102
RTVSPost2010Prop45
280
     0
102
RTVSPost2010PropOp45
 70
     1
102
RTVSPost2010Prop46
 90
       50
102
RTVSPost2010PropOp46
 70
     1
102
RTVSPost2010Prop47
 90
       50
102
RTVSPost2010PropOp47
 70
     1
102
RTVSPost2010Prop48
 90
       50
102
RTVSPost2010PropOp48
 70
     1
102
RTVSPost2010Prop49
280
     0
102
RTVSPost2010PropOp49
 70
     1
102
RTVSPost2010Prop50
 90
       50
102
RTVSPost2010PropOp50
 70
     1
102
RTVSPost2010Prop51ColorIndex
 90
      256
102
RTVSPost2010Prop51ColorRGB
 90
-16777216
102
RTVSPost2010PropOp51
 70
     0
102
RTVSPost2010Prop52
140
1.0
102
RTVSPost2010PropOp52
 70
     0
102
RTVSPost2010Prop53
 90
        2
102
RTVSPost2010PropOp53
 70
     1
102
RTVSPost2010Prop54
  1
strokes_ogs.tif
102
RTVSPost2010PropOp54
 70
     1
102
RTVSPost2010Prop55
280
     0
102
RTVSPost2010PropOp55
 70
     1
102
RTVSPost2010Prop56
140
1.0
102
RTVSPost2010PropOp56
 70
     1
102
RTVSPost2010Prop57
140
1.0
102
RTVSPost2010PropOp57
 70
     1
  0
XRECORD
  5
38D
102
{ACAD_REACTORS
330
38C
102
}
330
38C
100
AcDbXrecord
280
     1
102
RTVSPost2010Prop28
280
     0
102
RTVSPost2010PropOp28
 70
     1
102
RTVSPost2010Prop29
280
     1
102
RTVSPost2010PropOp29
 70
     1
102
RTVSPost2010Prop30
280
     1
102
RTVSPost2010PropOp30
 70
     1
102
RTVSPost2010Prop31
280
     0
102
RTVSPost2010PropOp31
 70
     1
102
RTVSPost2010Prop32
280
     0
102
RTVSPost2010PropOp32
 70
     1
102
RTVSPost2010Prop33
280
     0
102
RTVSPost2010PropOp33
 70
     1
102
RTVSPost2010Prop34
280
     0
102
RTVSPost2010PropOp34
 70
     1
102
RTVSPost2010Prop35
280
     0
102
RTVSPost2010PropOp35
 70
     1
102
RTVSPost2010Prop36
280
     0
102
RTVSPost2010PropOp36
 70
     1
102
RTVSPost2010Prop37
 90
       50
102
RTVSPost2010PropOp37
 70
     1
102
RTVSPost2010Prop38
140
0.0
102
RTVSPost2010PropOp38
 70
     1
102
RTVSPost2010Prop39
140
1.0
102
RTVSPost2010PropOp39
 70
     1
102
RTVSPost2010Prop40
 90
        0
102
RTVSPost2010PropOp40
 70
     1
102
RTVSPost2010Prop41ColorIndex
 90
       18
102
RTVSPost2010Prop41ColorRGB
 90
        0
102
RTVSPost2010PropOp41
 70
     1
102
RTVSPost2010Prop42
 90
       50
102
RTVSPost2010PropOp42
 70
     1
102
RTVSPost2010Prop43
 90
        3
102
RTVSPost2010PropOp43
 70
     1
102
RTVSPost2010Prop44ColorIndex
 90
        5
102
RTVSPost2010Prop44ColorRGB
 90
      255
102
RTVSPost2010PropOp44
 70
     1
102
RTVSPost2010Prop45
280
     0
102
RTVSPost2010PropOp45
 70
     1
102
RTVSPost2010Prop46
 90
       50
102
RTVSPost2010PropOp46
 70
     1
102
RTVSPost2010Prop47
 90
       50
102
RTVSPost2010PropOp47
 70
     1
102
RTVSPost2010Prop48
 90
       50
102
RTVSPost2010PropOp48
 70
     1
102
RTVSPost2010Prop49
280
     0
102
RTVSPost2010PropOp49
 70
     1
102
RTVSPost2010Prop50
 90
       50
102
RTVSPost2010PropOp50
 70
     1
102
RTVSPost2010Prop51ColorIndex
 90
      256
102
RTVSPost2010Prop51ColorRGB
 90
-16777216
102
RTVSPost2010PropOp51
 70
     0
102
RTVSPost2010Prop52
140
1.0
102
RTVSPost2010PropOp52
 70
     0
102
RTVSPost2010Prop53
 90
        2
102
RTVSPost2010PropOp53
 70
     1
102
RTVSPost2010Prop54
  1
strokes_ogs.tif
102
RTVSPost2010PropOp54
 70
     1
102
RTVSPost2010Prop55
280
     0
102
RTVSPost2010PropOp55
 70
     1
102
RTVSPost2010Prop56
140
1.0
102
RTVSPost2010PropOp56
 70
     1
102
RTVSPost2010Prop57
140
1.0
102
RTVSPost2010PropOp57
 70
     1
  0
ENDSEC
  0
EOF
