  0
SECTION
  2
HEADER
  9
$ACADVER
  1
AC1015
  9
$ACADMAINTVER
 70
     6
  9
$DWGCODEPAGE
  3
ANSI_1252
  9
$INSBASE
 10
0.0
 20
0.0
 30
0.0
  9
$EXTMIN
 10
319.665405
 20
263.292847
 30
0.0
  9
$EXTMAX
 10
342.665405
 20
536.60144
 30
0.0
  9
$LIMMIN
 10
319.665405
 20
263.292847
  9
$LIMMAX
 10
342.665405
 20
536.60144
  9
$ORTHOMODE
 70
     0
  9
$REGENMODE
 70
     1
  9
$FILLMODE
 70
     1
  9
$QTEXTMODE
 70
     0
  9
$MIRRTEXT
 70
     1
  9
$LTSCALE
 40
1.0
  9
$ATTMODE
 70
     1
  9
$TEXTSIZE
 40
2.5
  9
$TRACEWID
 40
1.0
  9
$TEXTSTYLE
  7
Standard
  9
$CLAYER
  8
0
  9
$CELTYPE
  6
ByLayer
  9
$CECOLOR
 62
   256
  9
$CELTSCALE
 40
1.0
  9
$DISPSILH
 70
     0
  9
$DIMSCALE
 40
1.0
  9
$DIMASZ
 40
2.5
  9
$DIMEXO
 40
0.625
  9
$DIMDLI
 40
3.75
  9
$DIMRND
 40
0.0
  9
$DIMDLE
 40
0.0
  9
$DIMEXE
 40
1.25
  9
$DIMTP
 40
0.0
  9
$DIMTM
 40
0.0
  9
$DIMTXT
 40
2.5
  9
$DIMCEN
 40
2.5
  9
$DIMTSZ
 40
0.0
  9
$DIMTOL
 70
     0
  9
$DIMLIM
 70
     0
  9
$DIMTIH
 70
     0
  9
$DIMTOH
 70
     0
  9
$DIMSE1
 70
     0
  9
$DIMSE2
 70
     0
  9
$DIMTAD
 70
     1
  9
$DIMZIN
 70
     8
  9
$DIMBLK
  1

  9
$DIMASO
 70
     1
  9
$DIMSHO
 70
     1
  9
$DIMPOST
  1

  9
$DIMAPOST
  1

  9
$DIMALT
 70
     0
  9
$DIMALTD
 70
     3
  9
$DIMALTF
 40
0.03937
  9
$DIMLFAC
 40
1.0
  9
$DIMTOFL
 70
     1
  9
$DIMTVP
 40
0.0
  9
$DIMTIX
 70
     0
  9
$DIMSOXD
 70
     0
  9
$DIMSAH
 70
     0
  9
$DIMBLK1
  1

  9
$DIMBLK2
  1

  9
$DIMSTYLE
  2
ISO-25
  9
$DIMCLRD
 70
     0
  9
$DIMCLRE
 70
     0
  9
$DIMCLRT
 70
     0
  9
$DIMTFAC
 40
1.0
  9
$DIMGAP
 40
0.625
  9
$DIMJUST
 70
     0
  9
$DIMSD1
 70
     0
  9
$DIMSD2
 70
     0
  9
$DIMTOLJ
 70
     0
  9
$DIMTZIN
 70
     8
  9
$DIMALTZ
 70
     0
  9
$DIMALTTZ
 70
     0
  9
$DIMUPT
 70
     0
  9
$DIMDEC
 70
     2
  9
$DIMTDEC
 70
     2
  9
$DIMALTU
 70
     2
  9
$DIMALTTD
 70
     3
  9
$DIMTXSTY
  7
Standard
  9
$DIMAUNIT
 70
     0
  9
$DIMADEC
 70
     0
  9
$DIMALTRND
 40
0.0
  9
$DIMAZIN
 70
     0
  9
$DIMDSEP
 70
    44
  9
$DIMATFIT
 70
     3
  9
$DIMFRAC
 70
     0
  9
$DIMLDRBLK
  1

  9
$DIMLUNIT
 70
     2
  9
$DIMLWD
 70
    -2
  9
$DIMLWE
 70
    -2
  9
$DIMTMOVE
 70
     0
  9
$LUNITS
 70
     2
  9
$LUPREC
 70
     4
  9
$SKETCHINC
 40
1.0
  9
$FILLETRAD
 40
10.0
  9
$AUNITS
 70
     0
  9
$AUPREC
 70
     0
  9
$MENU
  1
.
  9
$ELEVATION
 40
0.0
  9
$PELEVATION
 40
0.0
  9
$THICKNESS
 40
0.0
  9
$LIMCHECK
 70
     0
  9
$CHAMFERA
 40
0.0
  9
$CHAMFERB
 40
0.0
  9
$CHAMFERC
 40
0.0
  9
$CHAMFERD
 40
0.0
  9
$SKPOLY
 70
     0
  9
$TDCREATE
 40
2459102.450776308
  9
$TDUCREATE
 40
2459102.367442974
  9
$TDUPDATE
 40
2459102.450776921
  9
$TDUUPDATE
 40
2459102.367443588
  9
$TDINDWG
 40
0.0000000116
  9
$TDUSRTIMER
 40
0.0000000116
  9
$USRTIMER
 70
     1
  9
$ANGBASE
 50
0.0
  9
$ANGDIR
 70
     0
  9
$PDMODE
 70
     0
  9
$PDSIZE
 40
0.0
  9
$PLINEWID
 40
0.0
  9
$SPLFRAME
 70
     0
  9
$SPLINETYPE
 70
     6
  9
$SPLINESEGS
 70
     8
  9
$HANDSEED
  5
21B
  9
$SURFTAB1
 70
     6
  9
$SURFTAB2
 70
     6
  9
$SURFTYPE
 70
     6
  9
$SURFU
 70
     6
  9
$SURFV
 70
     6
  9
$UCSBASE
  2

  9
$UCSNAME
  2

  9
$UCSORG
 10
0.0
 20
0.0
 30
0.0
  9
$UCSXDIR
 10
1.0
 20
0.0
 30
0.0
  9
$UCSYDIR
 10
0.0
 20
1.0
 30
0.0
  9
$UCSORTHOREF
  2

  9
$UCSORTHOVIEW
 70
     0
  9
$UCSORGTOP
 10
0.0
 20
0.0
 30
0.0
  9
$UCSORGBOTTOM
 10
0.0
 20
0.0
 30
0.0
  9
$UCSORGLEFT
 10
0.0
 20
0.0
 30
0.0
  9
$UCSORGRIGHT
 10
0.0
 20
0.0
 30
0.0
  9
$UCSORGFRONT
 10
0.0
 20
0.0
 30
0.0
  9
$UCSORGBACK
 10
0.0
 20
0.0
 30
0.0
  9
$PUCSBASE
  2

  9
$PUCSNAME
  2

  9
$PUCSORG
 10
0.0
 20
0.0
 30
0.0
  9
$PUCSXDIR
 10
1.0
 20
0.0
 30
0.0
  9
$PUCSYDIR
 10
0.0
 20
1.0
 30
0.0
  9
$PUCSORTHOREF
  2

  9
$PUCSORTHOVIEW
 70
     0
  9
$PUCSORGTOP
 10
0.0
 20
0.0
 30
0.0
  9
$PUCSORGBOTTOM
 10
0.0
 20
0.0
 30
0.0
  9
$PUCSORGLEFT
 10
0.0
 20
0.0
 30
0.0
  9
$PUCSORGRIGHT
 10
0.0
 20
0.0
 30
0.0
  9
$PUCSORGFRONT
 10
0.0
 20
0.0
 30
0.0
  9
$PUCSORGBACK
 10
0.0
 20
0.0
 30
0.0
  9
$USERI1
 70
     0
  9
$USERI2
 70
     0
  9
$USERI3
 70
     0
  9
$USERI4
 70
     0
  9
$USERI5
 70
     0
  9
$USERR1
 40
0.0
  9
$USERR2
 40
0.0
  9
$USERR3
 40
0.0
  9
$USERR4
 40
0.0
  9
$USERR5
 40
0.0
  9
$WORLDVIEW
 70
     1
  9
$SHADEDGE
 70
     3
  9
$SHADEDIF
 70
    70
  9
$TILEMODE
 70
     1
  9
$MAXACTVP
 70
    64
  9
$PINSBASE
 10
0.0
 20
0.0
 30
0.0
  9
$PLIMCHECK
 70
     0
  9
$PEXTMIN
 10
1.000000E+20
 20
1.000000E+20
 30
1.000000E+20
  9
$PEXTMAX
 10
-1.000000E+20
 20
-1.000000E+20
 30
-1.000000E+20
  9
$PLIMMIN
 10
0.0
 20
0.0
  9
$PLIMMAX
 10
420.0
 20
297.0
  9
$UNITMODE
 70
     0
  9
$VISRETAIN
 70
     1
  9
$PLINEGEN
 70
     0
  9
$PSLTSCALE
 70
     1
  9
$TREEDEPTH
 70
  3020
  9
$CMLSTYLE
  2
Standard
  9
$CMLJUST
 70
     0
  9
$CMLSCALE
 40
20.0
  9
$PROXYGRAPHICS
 70
     1
  9
$MEASUREMENT
 70
     1
  9
$CELWEIGHT
370
    -1
  9
$ENDCAPS
280
     0
  9
$JOINSTYLE
280
     0
  9
$LWDISPLAY
290
     0
  9
$INSUNITS
 70
     4
  9
$HYPERLINKBASE
  1

  9
$STYLESHEET
  1

  9
$XEDIT
290
     1
  9
$CEPSNTYPE
380
     0
  9
$PSTYLEMODE
290
     1
  9
$FINGERPRINTGUID
  2
{343d83dc-7b50-491e-95dc-e59731ab22c2}
  9
$VERSIONGUID
  2
{FAEB1C32-E019-11D5-929B-00C0DF256EC4}
  9
$EXTNAMES
290
     1
  9
$PSVPSCALE
 40
0.0
  9
$OLESTARTUP
290
     0
  0
ENDSEC
  0
SECTION
  2
CLASSES
  0
CLASS
  1
ACDBDICTIONARYWDFLT
  2
AcDbDictionaryWithDefault
  3
ObjectDBX Classes
 90
        0
280
     0
281
     0
  0
CLASS
  1
VISUALSTYLE
  2
AcDbVisualStyle
  3
ObjectDBX Classes
 90
     4095
280
     0
281
     0
  0
CLASS
  1
MATERIAL
  2
AcDbMaterial
  3
ObjectDBX Classes
 90
     1153
280
     0
281
     0
  0
CLASS
  1
SCALE
  2
AcDbScale
  3
ObjectDBX Classes
 90
     1153
280
     0
281
     0
  0
CLASS
  1
TABLESTYLE
  2
AcDbTableStyle
  3
ObjectDBX Classes
 90
     4095
280
     0
281
     0
  0
CLASS
  1
MLEADERSTYLE
  2
AcDbMLeaderStyle
  3
ACDB_MLEADERSTYLE_CLASS
 90
     4095
280
     0
281
     0
  0
CLASS
  1
SUN
  2
AcDbSun
  3
SCENEOE
 90
     1153
280
     0
281
     0
  0
CLASS
  1
DICTIONARYVAR
  2
AcDbDictionaryVar
  3
ObjectDBX Classes
 90
        0
280
     0
281
     0
  0
CLASS
  1
ACDBPLACEHOLDER
  2
AcDbPlaceHolder
  3
ObjectDBX Classes
 90
        0
280
     0
281
     0
  0
CLASS
  1
LAYOUT
  2
AcDbLayout
  3
ObjectDBX Classes
 90
        0
280
     0
281
     0
  0
ENDSEC
  0
SECTION
  2
TABLES
  0
TABLE
  2
VPORT
  5
8
102
{ACAD_XDICTIONARY
360
1DE
102
}
330
0
100
AcDbSymbolTable
 70
     1
  0
VPORT
  5
29
330
8
100
AcDbSymbolTableRecord
100
AcDbViewportTableRecord
  2
*Active
 70
     0
 10
0.0
 20
0.0
 11
1.0
 21
1.0
 12
344.186916
 22
148.5
 13
0.0
 23
0.0
 14
10.0
 24
10.0
 15
10.0
 25
10.0
 16
0.0
 26
0.0
 36
1.0
 17
0.0
 27
0.0
 37
0.0
 40
297.0
 41
1.972973
 42
50.0
 43
0.0
 44
0.0
 50
0.0
 51
0.0
 71
     0
 72
   100
 73
     1
 74
     3
 75
     0
 76
     0
 77
     0
 78
     0
281
     0
 65
     1
110
0.0
120
0.0
130
0.0
111
1.0
121
0.0
131
0.0
112
0.0
122
1.0
132
0.0
 79
     0
146
0.0
  0
ENDTAB
  0
TABLE
  2
LTYPE
  5
5
330
0
100
AcDbSymbolTable
 70
     1
  0
LTYPE
  5
14
330
5
100
AcDbSymbolTableRecord
100
AcDbLinetypeTableRecord
  2
ByBlock
 70
     0
  3

 72
    65
 73
     0
 40
0.0
  0
LTYPE
  5
15
330
5
100
AcDbSymbolTableRecord
100
AcDbLinetypeTableRecord
  2
ByLayer
 70
     0
  3

 72
    65
 73
     0
 40
0.0
  0
LTYPE
  5
16
330
5
100
AcDbSymbolTableRecord
100
AcDbLinetypeTableRecord
  2
Continuous
 70
     0
  3
Solid line
 72
    65
 73
     0
 40
0.0
  0
ENDTAB
  0
TABLE
  2
LAYER
  5
2
330
0
100
AcDbSymbolTable
 70
     1
  0
LAYER
  5
10
330
2
100
AcDbSymbolTableRecord
100
AcDbLayerTableRecord
  2
0
 70
     0
 62
   106
  6
Continuous
370
     0
390
F
  0
ENDTAB
  0
TABLE
  2
STYLE
  5
3
330
0
100
AcDbSymbolTable
 70
     4
  0
STYLE
  5
11
330
3
100
AcDbSymbolTableRecord
100
AcDbTextStyleTableRecord
  2
Standard
 70
     0
 40
0.0
 41
1.0
 50
0.0
 71
     0
 42
2.5
  3
txt
  4

  0
STYLE
  5
6E
330
3
100
AcDbSymbolTableRecord
100
AcDbTextStyleTableRecord
  2
Default
 70
     0
 40
0.0
 41
1.0
 50
0.0
 71
     0
 42
2.5
  3

  4

1001
ACAD
1000
txt
1071
        0
  0
STYLE
  5
6F
330
3
100
AcDbSymbolTableRecord
100
AcDbTextStyleTableRecord
  2
ISO
 70
     0
 40
0.0
 41
1.0
 50
0.0
 71
     0
 42
2.5
  3

  4

1001
ACAD
1000
txt
1071
        0
  0
STYLE
  5
70
330
3
100
AcDbSymbolTableRecord
100
AcDbTextStyleTableRecord
  2
zucchetti
 70
     0
 40
0.0
 41
1.0
 50
0.0
 71
     0
 42
2.5
  3

  4

1001
ACAD
1000
Arial
1071
        0
  0
ENDTAB
  0
TABLE
  2
VIEW
  5
6
330
0
100
AcDbSymbolTable
 70
     0
  0
ENDTAB
  0
TABLE
  2
UCS
  5
7
330
0
100
AcDbSymbolTable
 70
     0
  0
ENDTAB
  0
TABLE
  2
APPID
  5
9
330
0
100
AcDbSymbolTable
 70
     2
  0
APPID
  5
12
330
9
100
AcDbSymbolTableRecord
100
AcDbRegAppTableRecord
  2
ACAD
 70
     0
  0
APPID
  5
218
330
9
100
AcDbSymbolTableRecord
100
AcDbRegAppTableRecord
  2
ACAD_MLEADERVER
 70
     0
  0
ENDTAB
  0
TABLE
  2
DIMSTYLE
  5
A
330
0
100
AcDbSymbolTable
 70
     4
100
AcDbDimStyleTable
  0
DIMSTYLE
105
27
330
A
100
AcDbSymbolTableRecord
100
AcDbDimStyleTableRecord
  2
ISO-25
 70
     0
 41
2.5
 42
0.625
 43
3.75
 44
1.25
 73
     0
 74
     0
 77
     1
 78
     8
140
2.5
141
2.5
143
0.03937
147
0.625
171
     3
172
     1
178
     0
271
     2
272
     2
274
     3
278
    44
283
     0
284
     8
340
11
  0
DIMSTYLE
105
71
330
A
100
AcDbSymbolTableRecord
100
AcDbDimStyleTableRecord
  2
Default
 70
     0
  3
<>
 41
4.375
 42
1.05
 44
2.1
 73
     0
 74
     0
 77
     1
 78
     8
140
3.5
146
0.4
147
1.75
172
     1
271
     2
178
     3
271
     2
272
     3
284
     8
340
6E
341
72
342
72
  0
DIMSTYLE
105
79
330
A
100
AcDbSymbolTableRecord
100
AcDbDimStyleTableRecord
  2
ISO
 70
     0
  3
<>
 41
4.375
 42
1.05
 44
2.1
 73
     0
 74
     0
 77
     1
 78
     8
140
3.5
146
0.4
147
1.75
172
     1
271
     2
178
     3
271
     2
272
     3
284
     8
340
6F
341
72
342
72
  0
DIMSTYLE
105
7A
330
A
100
AcDbSymbolTableRecord
100
AcDbDimStyleTableRecord
  2
zucchetti
 70
     0
  3
<>
 41
3.0
 42
0.9
 44
1.8
 73
     0
 74
     0
 77
     1
 78
     8
140
3.0
146
0.6
147
1.5
172
     1
176
     3
177
     3
271
     2
178
     3
271
     2
272
     2
284
     8
340
70
  0
ENDTAB
  0
TABLE
  2
BLOCK_RECORD
  5
1
330
0
100
AcDbSymbolTable
 70
     4
  0
BLOCK_RECORD
  5
1F
330
1
100
AcDbSymbolTableRecord
100
AcDbBlockTableRecord
  2
*Model_Space
340
22
  0
BLOCK_RECORD
  5
1B
330
1
100
AcDbSymbolTableRecord
100
AcDbBlockTableRecord
  2
*Paper_Space
340
1E
  0
BLOCK_RECORD
  5
23
330
1
100
AcDbSymbolTableRecord
100
AcDbBlockTableRecord
  2
*Paper_Space0
340
26
  0
BLOCK_RECORD
  5
72
330
1
100
AcDbSymbolTableRecord
100
AcDbBlockTableRecord
  2
_Closed
340
0
  0
BLOCK_RECORD
  5
7B
330
1
100
AcDbSymbolTableRecord
100
AcDbBlockTableRecord
  2
a
340
0
102
{BLKREFS
331
1C1
102
}
  0
BLOCK_RECORD
  5
1C2
330
1
100
AcDbSymbolTableRecord
100
AcDbBlockTableRecord
  2
b
340
0
102
{BLKREFS
331
1D2
102
}
  0
ENDTAB
  0
ENDSEC
  0
SECTION
  2
BLOCKS
  0
BLOCK
  5
20
330
1F
100
AcDbEntity
  8
0
100
AcDbBlockBegin
  2
*Model_Space
 70
     0
 10
0.0
 20
0.0
 30
0.0
  3
*Model_Space
  1

  0
ENDBLK
  5
21
330
1F
100
AcDbEntity
  8
0
100
AcDbBlockEnd
  0
BLOCK
  5
1C
330
1B
100
AcDbEntity
 67
     1
  8
0
100
AcDbBlockBegin
  2
*Paper_Space
 70
     0
 10
0.0
 20
0.0
 30
0.0
  3
*Paper_Space
  1

  0
ENDBLK
  5
1D
330
1B
100
AcDbEntity
 67
     1
  8
0
100
AcDbBlockEnd
  0
BLOCK
  5
24
330
23
100
AcDbEntity
  8
0
100
AcDbBlockBegin
  2
*Paper_Space0
 70
     0
 10
0.0
 20
0.0
 30
0.0
  3
*Paper_Space0
  1

  0
ENDBLK
  5
25
330
23
100
AcDbEntity
  8
0
100
AcDbBlockEnd
  0
BLOCK
  5
73
330
72
100
AcDbEntity
  8
0
100
AcDbBlockBegin
  2
_Closed
 70
     0
 10
0.0
 20
0.0
 30
0.0
  3
_Closed
  1

  0
LINE
  5
75
330
72
100
AcDbEntity
  8
0
  6
ByBlock
 62
     0
370
    -2
100
AcDbLine
 10
-1.0
 20
0.166667
 30
0.0
 11
0.0
 21
0.0
 31
0.0
  0
LINE
  5
76
330
72
100
AcDbEntity
  8
0
  6
ByBlock
 62
     0
370
    -2
100
AcDbLine
 10
0.0
 20
0.0
 30
0.0
 11
-1.0
 21
-0.166667
 31
0.0
  0
LINE
  5
77
330
72
100
AcDbEntity
  8
0
  6
ByBlock
 62
     0
370
    -2
100
AcDbLine
 10
-1.0
 20
0.166667
 30
0.0
 11
-1.0
 21
-0.166667
 31
0.0
  0
LINE
  5
78
330
72
100
AcDbEntity
  8
0
  6
ByBlock
 62
     0
370
    -2
100
AcDbLine
 10
0.0
 20
0.0
 30
0.0
 11
-1.0
 21
0.0
 31
0.0
  0
ENDBLK
  5
74
330
72
100
AcDbEntity
  8
0
100
AcDbBlockEnd
  0
BLOCK
  5
1BF
330
7B
100
AcDbEntity
  8
0
100
AcDbBlockBegin
  2
a
 70
     0
 10
293.224152
 20
110.430603
 30
0.0
  3
a
  1

  0
LINE
  5
7C
330
7B
100
AcDbEntity
  8
0
  6
Continuous
 62
     0
370
    30
100
AcDbLine
 10
319.665399
 20
349.601412
 30
0.0
 11
342.665399
 21
349.601412
 31
0.0
  0
LINE
  5
7D
330
7B
100
AcDbEntity
  8
0
  6
Continuous
 62
     0
370
    30
100
AcDbLine
 10
319.665399
 20
536.601412
 30
0.0
 11
342.665399
 21
536.601412
 31
0.0
  0
LINE
  5
7E
330
7B
100
AcDbEntity
  8
0
  6
Continuous
 62
     0
370
    30
100
AcDbLine
 10
340.142899
 20
339.601412
 30
0.0
 11
322.187899
 21
339.601412
 31
0.0
  0
LINE
  5
7F
330
7B
100
AcDbEntity
  8
0
  6
Continuous
 62
     0
370
    30
100
AcDbLine
 10
341.642899
 20
341.101412
 30
0.0
 11
320.687899
 21
341.101412
 31
0.0
  0
ARC
  5
80
330
7B
100
AcDbEntity
  8
0
  6
Continuous
 62
     0
370
    30
100
AcDbCircle
 10
337.246735
 20
467.609257
 30
0.0
 40
1.156650457303108
100
AcDbArc
 50
39.113115
 51
93.735863
  0
SPLINE
  5
81
330
7B
100
AcDbEntity
  8
0
  6
Continuous
 62
     0
370
    30
100
AcDbSpline
210
0.0
220
0.0
230
1.0
 70
     8
 71
     3
 72
    20
 73
    16
 74
     0
 42
0.000000001
 43
0.0
 40
0.0
 40
0.0
 40
0.0
 40
0.0
 40
0.4393885543043114
 40
1.128173154382827
 40
1.805743206496848
 40
2.205598715330413
 40
2.205598715330413
 40
2.205598715330413
 40
2.479747055950463
 40
2.92039804489959
 40
3.380107679412863
 40
3.799245416865936
 40
4.530755341439667
 40
5.356057884730272
 40
5.686351962718629
 40
5.686351962718629
 40
5.686351962718629
 40
5.686351962718629
 10
337.171370999282
 20
468.7634498433893
 30
0.0
 10
337.0471477796463
 20
468.7541426630235
 30
0.0
 10
336.7254655736921
 20
468.6764977217454
 30
0.0
 10
336.2656283485511
 20
468.3397143772972
 30
0.0
 10
335.9903312418872
 20
467.817243265238
 30
0.0
 10
335.9363115538886
 20
467.4589676223463
 30
0.0
 10
335.9330252982955
 20
467.3261344689253
 30
0.0
 10
335.9307831079939
 20
467.2349106029844
 30
0.0
 10
335.9455274868965
 20
466.9959114609342
 30
0.0
 10
336.0547770534861
 20
466.6187840301824
 30
0.0
 10
336.286362672909
 20
466.2550175222353
 30
0.0
 10
336.6684755641274
 20
465.9239572660565
 30
0.0
 10
337.2356348333167
 20
465.740312739134
 30
0.0
 10
337.7618170359681
 20
465.8885712068142
 30
0.0
 10
338.0211483610362
 20
466.1033590911804
 30
0.0
 10
338.0887158898809
 20
466.1737506820073
 30
0.0
  0
ARC
  5
82
330
7B
100
AcDbEntity
  8
0
  6
Continuous
 62
     0
370
    30
100
AcDbCircle
 10
325.08668
 20
521.58328
 30
0.0
 40
1.166898291250476
100
AcDbArc
 50
86.425784
 51
144.981252
  0
SPLINE
  5
83
330
7B
100
AcDbEntity
  8
0
  6
Continuous
 62
     0
370
    30
100
AcDbSpline
210
0.0
220
0.0
230
1.0
 70
     8
 71
     3
 72
    20
 73
    16
 74
     0
 42
0.000000001
 43
0.0
 40
0.0
 40
0.0
 40
0.0
 40
0.0
 40
0.4393885544515396
 40
1.12817315454477
 40
1.805743206660923
 40
2.20559871533046
 40
2.20559871533046
 40
2.20559871533046
 40
2.479747055965291
 40
2.920398044929304
 40
3.380107679442109
 40
3.799245416896446
 40
4.530755341473519
 40
5.356057884767724
 40
5.554181565556235
 40
5.554181565556235
 40
5.554181565556235
 40
5.554181565556235
 10
325.1594261961526
 20
522.7479082751995
 30
0.0
 10
325.2836494158296
 20
522.7386010948305
 30
0.0
 10
325.605331621831
 20
522.6609561535231
 30
0.0
 10
326.065168846986
 20
522.3241728089902
 30
0.0
 10
326.3404659535755
 20
521.80170169694
 30
0.0
 10
326.3944856415473
 20
521.4434260541022
 30
0.0
 10
326.397771897139
 20
521.3105929007354
 30
0.0
 10
326.4000140874408
 20
521.2193690347896
 30
0.0
 10
326.3852697085364
 20
520.9803698927294
 30
0.0
 10
326.276020141939
 20
520.6032424619698
 30
0.0
 10
326.0444345225069
 20
520.2394759540236
 30
0.0
 10
325.6623216312819
 20
519.9084156978523
 30
0.0
 10
325.0951623620879
 20
519.7247711709435
 30
0.0
 10
324.6058332512129
 20
519.8626458155262
 30
0.0
 10
324.3697930532184
 20
520.0403072494342
 30
0.0
 10
324.3262527384163
 20
520.0781015968323
 30
0.0
  0
ARC
  5
84
330
7B
100
AcDbEntity
  8
0
  6
Continuous
 62
     0
370
    30
100
AcDbCircle
 10
325.082152
 20
515.661546
 30
0.0
 40
1.14844629923246
100
AcDbArc
 50
86.141872
 51
137.11466
  0
SPLINE
  5
85
330
7B
100
AcDbEntity
  8
0
  6
Continuous
 62
     0
370
    30
100
AcDbSpline
210
0.0
220
0.0
230
1.0
 70
     8
 71
     3
 72
    20
 73
    16
 74
     0
 42
0.000000001
 43
0.0
 40
0.0
 40
0.0
 40
0.0
 40
0.0
 40
0.4393885544515396
 40
1.12817315454477
 40
1.805743206660923
 40
2.205598715330489
 40
2.205598715330489
 40
2.205598715330489
 40
2.479747055965291
 40
2.920398044929304
 40
3.380107679442084
 40
3.799245416896391
 40
4.530755341473494
 40
5.356057884767583
 40
5.747930293389419
 40
5.747930293389419
 40
5.747930293389419
 40
5.747930293389419
 10
325.1594261961526
 20
516.8073894459587
 30
0.0
 10
325.2836494158296
 20
516.7980822655898
 30
0.0
 10
325.605331621831
 20
516.7204373242823
 30
0.0
 10
326.065168846986
 20
516.3836539797493
 30
0.0
 10
326.3404659535755
 20
515.8611828676992
 30
0.0
 10
326.3944856415473
 20
515.5029072248615
 30
0.0
 10
326.397771897139
 20
515.3700740714946
 30
0.0
 10
326.4000140874408
 20
515.2788502055488
 30
0.0
 10
326.3852697085364
 20
515.0398510634886
 30
0.0
 10
326.2760201419391
 20
514.662723632729
 30
0.0
 10
326.0444345225069
 20
514.2989571247829
 30
0.0
 10
325.6623216312819
 20
513.9678968686117
 30
0.0
 10
325.095162362088
 20
513.7842523417027
 30
0.0
 10
324.5518102642249
 20
513.9373486437848
 30
0.0
 10
324.2821893930271
 20
514.1705416159311
 30
0.0
 10
324.2049831657933
 20
514.2579918380986
 30
0.0
  0
ARC
  5
86
330
7B
100
AcDbEntity
  8
0
  6
Continuous
 62
     0
370
    30
100
AcDbCircle
 10
325.081142
 20
509.621054
 30
0.0
 40
1.14371473213659
100
AcDbArc
 50
86.075167
 51
134.746202
  0
SPLINE
  5
87
330
7B
100
AcDbEntity
  8
0
  6
Continuous
 62
     0
370
    30
100
AcDbSpline
210
0.0
220
0.0
230
1.0
 70
     8
 71
     3
 72
    20
 73
    16
 74
     0
 42
0.000000001
 43
0.0
 40
0.0
 40
0.0
 40
0.0
 40
0.0
 40
0.4393885544520248
 40
1.128173154545516
 40
1.805743206661633
 40
2.205598715330456
 40
2.205598715330456
 40
2.205598715330456
 40
2.479747055965288
 40
2.9203980449293
 40
3.380107679442084
 40
3.799245416896442
 40
4.530755341473657
 40
5.356057884767733
 40
5.803880218625183
 40
5.803880218625183
 40
5.803880218625183
 40
5.803880218625183
 10
325.1594261961526
 20
510.7620860089184
 30
0.0
 10
325.2836494158298
 20
510.7527788285495
 30
0.0
 10
325.6053316218313
 20
510.675133887242
 30
0.0
 10
326.0651688469865
 20
510.3383505427084
 30
0.0
 10
326.3404659535756
 20
509.8158794306586
 30
0.0
 10
326.3944856415473
 20
509.4576037878209
 30
0.0
 10
326.397771897139
 20
509.3247706344544
 30
0.0
 10
326.4000140874408
 20
509.2335467685085
 30
0.0
 10
326.3852697085364
 20
508.9945476264484
 30
0.0
 10
326.2760201419391
 20
508.6174201956887
 30
0.0
 10
326.0444345225068
 20
508.2536536877426
 30
0.0
 10
325.6623216312819
 20
507.9225934315712
 30
0.0
 10
325.0951623620878
 20
507.7389489046625
 30
0.0
 10
324.5362097381372
 20
507.8964408516016
 30
0.0
 10
324.257549457824
 20
508.1469672331574
 30
0.0
 10
324.1725075140315
 20
508.2508969372004
 30
0.0
  0
ARC
  5
88
330
7B
100
AcDbEntity
  8
0
  6
Continuous
 62
     0
370
    30
100
AcDbCircle
 10
325.081327
 20
503.579123
 30
0.0
 40
1.144611910240831
100
AcDbArc
 50
86.087577
 51
135.206726
  0
SPLINE
  5
89
330
7B
100
AcDbEntity
  8
0
  6
Continuous
 62
     0
370
    30
100
AcDbSpline
210
0.0
220
0.0
230
1.0
 70
     8
 71
     3
 72
    20
 73
    16
 74
     0
 42
0.000000001
 43
0.0
 40
0.0
 40
0.0
 40
0.0
 40
0.0
 40
0.4393885544515396
 40
1.12817315454477
 40
1.805743206660923
 40
2.20559871533046
 40
2.20559871533046
 40
2.20559871533046
 40
2.479747055965291
 40
2.920398044929331
 40
3.380107679442154
 40
3.799245416896512
 40
4.5307553414735
 40
5.356057884767907
 40
5.793079594267438
 40
5.793079594267438
 40
5.793079594267438
 40
5.793079594267438
 10
325.1594261961526
 20
504.721067542219
 30
0.0
 10
325.2836494158296
 20
504.7117603618501
 30
0.0
 10
325.605331621831
 20
504.6341154205427
 30
0.0
 10
326.065168846986
 20
504.2973320760096
 30
0.0
 10
326.3404659535755
 20
503.7748609639596
 30
0.0
 10
326.3944856415473
 20
503.4165853211218
 30
0.0
 10
326.397771897139
 20
503.283752167755
 30
0.0
 10
326.4000140874408
 20
503.1925283018091
 30
0.0
 10
326.3852697085364
 20
502.953529159749
 30
0.0
 10
326.2760201419391
 20
502.5764017289893
 30
0.0
 10
326.0444345225068
 20
502.2126352210432
 30
0.0
 10
325.6623216312819
 20
501.8815749648719
 30
0.0
 10
325.0951623620878
 20
501.6979304379631
 30
0.0
 10
324.5392212778551
 20
501.8545738456288
 30
0.0
 10
324.2622830103946
 20
502.1017088899339
 30
0.0
 10
324.178683260489
 20
502.2023863324778
 30
0.0
  0
ARC
  5
8A
330
7B
100
AcDbEntity
  8
0
  6
Continuous
 62
     0
370
    30
100
AcDbCircle
 10
325.082904
 20
497.56866
 30
0.0
 40
1.151771834341039
100
AcDbArc
 50
86.190522
 51
138.697147
  0
SPLINE
  5
8B
330
7B
100
AcDbEntity
  8
0
  6
Continuous
 62
     0
370
    30
100
AcDbSpline
210
0.0
220
0.0
230
1.0
 70
     8
 71
     3
 72
    20
 73
    16
 74
     0
 42
0.000000001
 43
0.0
 40
0.0
 40
0.0
 40
0.0
 40
0.0
 40
0.4393885544515396
 40
1.12817315454477
 40
1.805743206660923
 40
2.20559871533046
 40
2.20559871533046
 40
2.20559871533046
 40
2.479747055965263
 40
2.920398044929302
 40
3.380107679442094
 40
3.799245416896424
 40
4.530755341473596
 40
5.35605788476751
 40
5.709974725250975
 40
5.709974725250975
 40
5.709974725250975
 40
5.709974725250975
 10
325.1594261961526
 20
498.7178869210686
 30
0.0
 10
325.2836494158296
 20
498.7085797406996
 30
0.0
 10
325.605331621831
 20
498.6309347993922
 30
0.0
 10
326.065168846986
 20
498.2941514548592
 30
0.0
 10
326.3404659535755
 20
497.7716803428091
 30
0.0
 10
326.3944856415473
 20
497.4134046999714
 30
0.0
 10
326.397771897139
 20
497.2805715466045
 30
0.0
 10
326.4000140874408
 20
497.1893476806587
 30
0.0
 10
326.3852697085364
 20
496.9503485385985
 30
0.0
 10
326.2760201419391
 20
496.5732211078388
 30
0.0
 10
326.0444345225068
 20
496.2094545998928
 30
0.0
 10
325.6623216312819
 20
495.8783943437214
 30
0.0
 10
325.0951623620879
 20
495.6947498168126
 30
0.0
 10
324.5623934210104
 20
495.8448641810784
 30
0.0
 10
324.2990725849225
 20
496.0666293943647
 30
0.0
 10
324.2276850432262
 20
496.1434287688601
 30
0.0
  0
ARC
  5
8C
330
7B
100
AcDbEntity
  8
0
  6
Continuous
 62
     0
370
    30
100
AcDbCircle
 10
325.082361
 20
491.572327
 30
0.0
 40
1.149388793536494
100
AcDbArc
 50
86.155519
 51
137.569919
  0
SPLINE
  5
8D
330
7B
100
AcDbEntity
  8
0
  6
Continuous
 62
     0
370
    30
100
AcDbSpline
210
0.0
220
0.0
230
1.0
 70
     8
 71
     3
 72
    20
 73
    16
 74
     0
 42
0.000000001
 43
0.0
 40
0.0
 40
0.0
 40
0.0
 40
0.0
 40
0.4393885544520588
 40
1.128173154545696
 40
1.805743206661748
 40
2.205598715330453
 40
2.205598715330453
 40
2.205598715330453
 40
2.479747055965284
 40
2.920398044929323
 40
3.380107679442116
 40
3.799245416896462
 40
4.530755341473566
 40
5.356057884767712
 40
5.737059260014
 40
5.737059260014
 40
5.737059260014
 40
5.737059260014
 10
325.1594261961526
 20
492.7191289175032
 30
0.0
 10
325.2836494158298
 20
492.7098217371342
 30
0.0
 10
325.6053316218314
 20
492.6321767958266
 30
0.0
 10
326.0651688469865
 20
492.2953934512931
 30
0.0
 10
326.3404659535757
 20
491.7729223392432
 30
0.0
 10
326.3944856415473
 20
491.4146466964056
 30
0.0
 10
326.397771897139
 20
491.2818135430391
 30
0.0
 10
326.4000140874408
 20
491.1905896770933
 30
0.0
 10
326.3852697085364
 20
490.9515905350331
 30
0.0
 10
326.2760201419391
 20
490.5744631042734
 30
0.0
 10
326.0444345225068
 20
490.2106965963274
 30
0.0
 10
325.6623216312819
 20
489.8796363401561
 30
0.0
 10
325.0951623620878
 20
489.6959918132468
 30
0.0
 10
324.5548414361
 20
489.8482340444493
 30
0.0
 10
324.287011122719
 20
490.07812659814
 30
0.0
 10
324.2114306699279
 20
490.1624819788915
 30
0.0
  0
ARC
  5
8E
330
7B
100
AcDbEntity
  8
0
  6
Continuous
 62
     0
370
    30
100
AcDbCircle
 10
325.083188
 20
485.608824
 30
0.0
 40
1.15299270274592
100
AcDbArc
 50
86.20871
 51
139.260367
  0
SPLINE
  5
8F
330
7B
100
AcDbEntity
  8
0
  6
Continuous
 62
     0
370
    30
100
AcDbSpline
210
0.0
220
0.0
230
1.0
 70
     8
 71
     3
 72
    20
 73
    16
 74
     0
 42
0.000000001
 43
0.0
 40
0.0
 40
0.0
 40
0.0
 40
0.0
 40
0.4393885544515452
 40
1.1281731545448
 40
1.805743206660889
 40
2.205598715330458
 40
2.205598715330458
 40
2.205598715330458
 40
2.479747055965289
 40
2.920398044929301
 40
3.380107679442085
 40
3.799245416896453
 40
4.530755341473456
 40
5.35605788476774
 40
5.696349540364789
 40
5.696349540364789
 40
5.696349540364789
 40
5.696349540364789
 10
325.1594261961526
 20
486.7592938657845
 30
0.0
 10
325.2836494158296
 20
486.7499866854156
 30
0.0
 10
325.605331621831
 20
486.6723417441083
 30
0.0
 10
326.065168846986
 20
486.335558399575
 30
0.0
 10
326.3404659535755
 20
485.8130872875251
 30
0.0
 10
326.3944856415473
 20
485.4548116446873
 30
0.0
 10
326.397771897139
 20
485.3219784913205
 30
0.0
 10
326.4000140874408
 20
485.2307546253746
 30
0.0
 10
326.3852697085364
 20
484.9917554833145
 30
0.0
 10
326.2760201419391
 20
484.6146280525548
 30
0.0
 10
326.0444345225069
 20
484.2508615446087
 30
0.0
 10
325.6623216312819
 20
483.9198012884375
 30
0.0
 10
325.0951623620878
 20
483.7361567615282
 30
0.0
 10
324.5661925333664
 20
483.8852006780045
 30
0.0
 10
324.3051663610269
 20
484.1029288446798
 30
0.0
 10
324.23596381448
 20
484.17601140135
 30
0.0
  0
ARC
  5
90
330
7B
100
AcDbEntity
  8
0
  6
Continuous
 62
     0
370
    30
100
AcDbCircle
 10
325.082369
 20
479.623094
 30
0.0
 40
1.149422724825951
100
AcDbArc
 50
86.156013
 51
137.586214
  0
SPLINE
  5
91
330
7B
100
AcDbEntity
  8
0
  6
Continuous
 62
     0
370
    30
100
AcDbSpline
210
0.0
220
0.0
230
1.0
 70
     8
 71
     3
 72
    20
 73
    16
 74
     0
 42
0.000000001
 43
0.0
 40
0.0
 40
0.0
 40
0.0
 40
0.0
 40
0.4393885544520712
 40
1.12817315454601
 40
1.805743206661923
 40
2.205598715330422
 40
2.205598715330422
 40
2.205598715330422
 40
2.479747055965281
 40
2.920398044929294
 40
3.380107679442099
 40
3.799245416896412
 40
4.530755341473608
 40
5.356057884767819
 40
5.736669447799189
 40
5.736669447799189
 40
5.736669447799189
 40
5.736669447799189
 10
325.1594261961526
 20
480.7699311312646
 30
0.0
 10
325.2836494158298
 20
480.7606239508957
 30
0.0
 10
325.6053316218315
 20
480.6829790095882
 30
0.0
 10
326.0651688469867
 20
480.3461956650544
 30
0.0
 10
326.3404659535757
 20
479.8237245530045
 30
0.0
 10
326.3944856415473
 20
479.4654489101671
 30
0.0
 10
326.397771897139
 20
479.3326157568006
 30
0.0
 10
326.4000140874408
 20
479.2413918908548
 30
0.0
 10
326.3852697085364
 20
479.0023927487946
 30
0.0
 10
326.276020141939
 20
478.6252653180349
 30
0.0
 10
326.0444345225069
 20
478.2614988100888
 30
0.0
 10
325.6623216312819
 20
477.9304385539176
 30
0.0
 10
325.0951623620877
 20
477.7467940270083
 30
0.0
 10
324.5549501274986
 20
477.8990056330393
 30
0.0
 10
324.2871842264316
 20
478.1287802483201
 30
0.0
 10
324.2116626830863
 20
478.2130253111223
 30
0.0
  0
ARC
  5
92
330
7B
100
AcDbEntity
  8
0
  6
Continuous
 62
     0
370
    30
100
AcDbCircle
 10
325.082948
 20
473.574686
 30
0.0
 40
1.151963598108927
100
AcDbArc
 50
86.193367
 51
138.786273
  0
SPLINE
  5
93
330
7B
100
AcDbEntity
  8
0
  6
Continuous
 62
     0
370
    30
100
AcDbSpline
210
0.0
220
0.0
230
1.0
 70
     8
 71
     3
 72
    20
 73
    16
 74
     0
 42
0.000000001
 43
0.0
 40
0.0
 40
0.0
 40
0.0
 40
0.0
 40
0.4393885544518018
 40
1.128173154545311
 40
1.805743206661334
 40
2.205598715330427
 40
2.205598715330427
 40
2.205598715330427
 40
2.479747055965286
 40
2.920398044929311
 40
3.380107679442135
 40
3.79924541689645
 40
4.530755341473422
 40
5.356057884767714
 40
5.707822800220168
 40
5.707822800220168
 40
5.707822800220168
 40
5.707822800220168
 10
325.1594261961526
 20
474.724108159856
 30
0.0
 10
325.2836494158298
 20
474.7148009794871
 30
0.0
 10
325.6053316218312
 20
474.6371560381796
 30
0.0
 10
326.0651688469863
 20
474.3003726936462
 30
0.0
 10
326.3404659535756
 20
473.7779015815963
 30
0.0
 10
326.3944856415473
 20
473.4196259387587
 30
0.0
 10
326.397771897139
 20
473.286792785392
 30
0.0
 10
326.4000140874408
 20
473.1955689194462
 30
0.0
 10
326.3852697085364
 20
472.956569777386
 30
0.0
 10
326.2760201419391
 20
472.5794423466263
 30
0.0
 10
326.0444345225068
 20
472.2156758386802
 30
0.0
 10
325.6623216312819
 20
471.8846155825091
 30
0.0
 10
325.0951623620878
 20
471.7009710555997
 30
0.0
 10
324.5629934425916
 20
471.8509163562238
 30
0.0
 10
324.3000338568921
 20
472.0720416766645
 30
0.0
 10
324.2289880661724
 20
472.1482502512227
 30
0.0
  0
ARC
  5
94
330
7B
100
AcDbEntity
  8
0
  6
Continuous
 62
     0
370
    30
100
AcDbCircle
 10
325.08366
 20
467.610952
 30
0.0
 40
1.154985811514454
100
AcDbArc
 50
86.238745
 51
140.158052
  0
SPLINE
  5
95
330
7B
100
AcDbEntity
  8
0
  6
Continuous
 62
     0
370
    30
100
AcDbSpline
210
0.0
220
0.0
230
1.0
 70
     8
 71
     3
 72
    20
 73
    16
 74
     0
 42
0.000000001
 43
0.0
 40
0.0
 40
0.0
 40
0.0
 40
0.0
 40
0.4393885544518021
 40
1.128173154545229
 40
1.805743206661274
 40
2.205598715330428
 40
2.205598715330428
 40
2.205598715330428
 40
2.479747055965287
 40
2.920398044929299
 40
3.380107679442119
 40
3.79924541689644
 40
4.530755341473422
 40
5.356057884767708
 40
5.674501612110217
 40
5.674501612110217
 40
5.674501612110217
 40
5.674501612110217
 10
325.1594261961526
 20
468.7634498433893
 30
0.0
 10
325.2836494158298
 20
468.7541426630204
 30
0.0
 10
325.6053316218312
 20
468.6764977217129
 30
0.0
 10
326.0651688469863
 20
468.3397143771796
 30
0.0
 10
326.3404659535756
 20
467.8172432651297
 30
0.0
 10
326.3944856415473
 20
467.458967622292
 30
0.0
 10
326.397771897139
 20
467.3261344689253
 30
0.0
 10
326.4000140874408
 20
467.2349106029795
 30
0.0
 10
326.3852697085364
 20
466.9959114609193
 30
0.0
 10
326.276020141939
 20
466.6187840301595
 30
0.0
 10
326.0444345225068
 20
466.2550175222136
 30
0.0
 10
325.6623216312819
 20
465.9239572660423
 30
0.0
 10
325.0951623620878
 20
465.740312739133
 30
0.0
 10
324.5722843944952
 20
465.8876401969533
 30
0.0
 10
324.3149742013325
 20
466.0989669402897
 30
0.0
 10
324.2493791532777
 20
466.1662089256089
 30
0.0
  0
CIRCLE
  5
96
330
7B
100
AcDbEntity
  8
0
  6
Continuous
 62
     0
370
    30
100
AcDbCircle
 10
329.140505
 20
521.270922
 30
0.0
 40
1.444087854687591
  0
CIRCLE
  5
97
330
7B
100
AcDbEntity
  8
0
  6
Continuous
 62
     0
370
    30
100
AcDbCircle
 10
329.140505
 20
515.330403
 30
0.0
 40
1.444087854687592
  0
CIRCLE
  5
98
330
7B
100
AcDbEntity
  8
0
  6
Continuous
 62
     0
370
    30
100
AcDbCircle
 10
329.140505
 20
509.2851
 30
0.0
 40
1.444087854687595
  0
CIRCLE
  5
99
330
7B
100
AcDbEntity
  8
0
  6
Continuous
 62
     0
370
    30
100
AcDbCircle
 10
329.140505
 20
503.244081
 30
0.0
 40
1.444087854687587
  0
CIRCLE
  5
9A
330
7B
100
AcDbEntity
  8
0
  6
Continuous
 62
     0
370
    30
100
AcDbCircle
 10
329.140505
 20
497.240901
 30
0.0
 40
1.444087854687598
  0
CIRCLE
  5
9B
330
7B
100
AcDbEntity
  8
0
  6
Continuous
 62
     0
370
    30
100
AcDbCircle
 10
329.140505
 20
491.242143
 30
0.0
 40
1.444087854687602
  0
CIRCLE
  5
9C
330
7B
100
AcDbEntity
  8
0
  6
Continuous
 62
     0
370
    30
100
AcDbCircle
 10
329.140505
 20
485.282308
 30
0.0
 40
1.444087854687591
  0
CIRCLE
  5
9D
330
7B
100
AcDbEntity
  8
0
  6
Continuous
 62
     0
370
    30
100
AcDbCircle
 10
329.140505
 20
479.292945
 30
0.0
 40
1.444087854687583
  0
CIRCLE
  5
9E
330
7B
100
AcDbEntity
  8
0
  6
Continuous
 62
     0
370
    30
100
AcDbCircle
 10
329.140505
 20
473.247122
 30
0.0
 40
1.444087854687584
  0
CIRCLE
  5
9F
330
7B
100
AcDbEntity
  8
0
  6
Continuous
 62
     0
370
    30
100
AcDbCircle
 10
329.140505
 20
467.286464
 30
0.0
 40
1.444087854687584
  0
CIRCLE
  5
A0
330
7B
100
AcDbEntity
  8
0
  6
Continuous
 62
     0
370
    30
100
AcDbCircle
 10
333.190292
 20
521.270922
 30
0.0
 40
1.444087854687589
  0
CIRCLE
  5
A1
330
7B
100
AcDbEntity
  8
0
  6
Continuous
 62
     0
370
    30
100
AcDbCircle
 10
333.190292
 20
515.330403
 30
0.0
 40
1.444087854687591
  0
CIRCLE
  5
A2
330
7B
100
AcDbEntity
  8
0
  6
Continuous
 62
     0
370
    30
100
AcDbCircle
 10
333.190292
 20
509.2851
 30
0.0
 40
1.444087854687577
  0
CIRCLE
  5
A3
330
7B
100
AcDbEntity
  8
0
  6
Continuous
 62
     0
370
    30
100
AcDbCircle
 10
333.190292
 20
503.244081
 30
0.0
 40
1.444087854687591
  0
CIRCLE
  5
A4
330
7B
100
AcDbEntity
  8
0
  6
Continuous
 62
     0
370
    30
100
AcDbCircle
 10
333.190292
 20
497.240901
 30
0.0
 40
1.444087854687591
  0
CIRCLE
  5
A5
330
7B
100
AcDbEntity
  8
0
  6
Continuous
 62
     0
370
    30
100
AcDbCircle
 10
333.190292
 20
491.242143
 30
0.0
 40
1.444087854687596
  0
CIRCLE
  5
A6
330
7B
100
AcDbEntity
  8
0
  6
Continuous
 62
     0
370
    30
100
AcDbCircle
 10
333.190292
 20
485.282308
 30
0.0
 40
1.444087854687581
  0
CIRCLE
  5
A7
330
7B
100
AcDbEntity
  8
0
  6
Continuous
 62
     0
370
    30
100
AcDbCircle
 10
333.190292
 20
479.292945
 30
0.0
 40
1.444087854687576
  0
CIRCLE
  5
A8
330
7B
100
AcDbEntity
  8
0
  6
Continuous
 62
     0
370
    30
100
AcDbCircle
 10
333.190292
 20
473.247122
 30
0.0
 40
1.444087854687586
  0
CIRCLE
  5
A9
330
7B
100
AcDbEntity
  8
0
  6
Continuous
 62
     0
370
    30
100
AcDbCircle
 10
333.190292
 20
467.286464
 30
0.0
 40
1.444087854687586
  0
ARC
  5
AA
330
7B
100
AcDbEntity
  8
0
  6
Continuous
 62
     0
370
    30
100
AcDbCircle
 10
337.243376
 20
521.580476
 30
0.0
 40
1.16965077723647
100
AcDbArc
 50
34.020444
 51
93.529399
  0
SPLINE
  5
AB
330
7B
100
AcDbEntity
  8
0
  6
Continuous
 62
     0
370
    30
100
AcDbSpline
210
0.0
220
0.0
230
1.0
 70
     8
 71
     3
 72
    20
 73
    16
 74
     0
 42
0.000000001
 43
0.0
 40
0.0
 40
0.0
 40
0.0
 40
0.0
 40
0.4393885543043194
 40
1.128173154382926
 40
1.805743206496953
 40
2.205598715330447
 40
2.205598715330447
 40
2.205598715330447
 40
2.479747055950454
 40
2.920398044899609
 40
3.38010767941287
 40
3.799245416865945
 40
4.53075534143983
 40
5.356057884730544
 40
5.557340427887627
 40
5.557340427887627
 40
5.557340427887627
 40
5.557340427887627
 10
337.171370999282
 20
522.7479082751995
 30
0.0
 10
337.0471477796463
 20
522.7386010948336
 30
0.0
 10
336.7254655736921
 20
522.6609561535556
 30
0.0
 10
336.265628348551
 20
522.3241728091073
 30
0.0
 10
335.9903312418872
 20
521.8017016970481
 30
0.0
 10
335.9363115538886
 20
521.4434260541564
 30
0.0
 10
335.9330252982955
 20
521.3105929007354
 30
0.0
 10
335.9307831079939
 20
521.2193690347945
 30
0.0
 10
335.9455274868965
 20
520.9803698927443
 30
0.0
 10
336.0547770534861
 20
520.6032424619925
 30
0.0
 10
336.2863626729089
 20
520.2394759540455
 30
0.0
 10
336.6684755641275
 20
519.9084156978665
 30
0.0
 10
337.2356348333167
 20
519.7247711709445
 30
0.0
 10
337.7258447302638
 20
519.8628939880905
 30
0.0
 10
337.9624607748958
 20
520.0414048999007
 30
0.0
 10
338.0066254188694
 20
520.0799119564551
 30
0.0
  0
ARC
  5
AC
330
7B
100
AcDbEntity
  8
0
  6
Continuous
 62
     0
370
    30
100
AcDbCircle
 10
337.248399
 20
515.660421
 30
0.0
 40
1.149552025180926
100
AcDbArc
 50
42.351754
 51
93.842106
  0
SPLINE
  5
AD
330
7B
100
AcDbEntity
  8
0
  6
Continuous
 62
     0
370
    30
100
AcDbSpline
210
0.0
220
0.0
230
1.0
 70
     8
 71
     3
 72
    20
 73
    16
 74
     0
 42
0.000000001
 43
0.0
 40
0.0
 40
0.0
 40
0.0
 40
0.0
 40
0.4393885543043194
 40
1.128173154382926
 40
1.805743206496953
 40
2.205598715330475
 40
2.205598715330475
 40
2.205598715330475
 40
2.479747055950454
 40
2.920398044899607
 40
3.380107679412885
 40
3.799245416865979
 40
4.530755341439719
 40
5.35605788473011
 40
5.764678460752318
 40
5.764678460752318
 40
5.764678460752318
 40
5.764678460752318
 10
337.171370999282
 20
516.8073894459587
 30
0.0
 10
337.0471477796463
 20
516.7980822655928
 30
0.0
 10
336.7254655736921
 20
516.7204373243148
 30
0.0
 10
336.265628348551
 20
516.3836539798665
 30
0.0
 10
335.9903312418872
 20
515.8611828678073
 30
0.0
 10
335.9363115538886
 20
515.5029072249156
 30
0.0
 10
335.9330252982955
 20
515.3700740714946
 30
0.0
 10
335.9307831079939
 20
515.2788502055537
 30
0.0
 10
335.9455274868966
 20
515.0398510635036
 30
0.0
 10
336.054777053486
 20
514.6627236327517
 30
0.0
 10
336.286362672909
 20
514.2989571248047
 30
0.0
 10
336.6684755641274
 20
513.9678968686258
 30
0.0
 10
337.2356348333165
 20
513.7842523417038
 30
0.0
 10
337.7836568252225
 20
513.9386644452769
 30
0.0
 10
338.0560144891673
 20
514.1769850713166
 30
0.0
 10
338.1356603556911
 20
514.2692720536387
 30
0.0
  0
ARC
  5
AE
330
7B
100
AcDbEntity
  8
0
  6
Continuous
 62
     0
370
    30
100
AcDbCircle
 10
337.249507
 20
509.620322
 30
0.0
 40
1.144434804438307
100
AcDbArc
 50
44.883732
 51
93.914882
  0
SPLINE
  5
AF
330
7B
100
AcDbEntity
  8
0
  6
Continuous
 62
     0
370
    30
100
AcDbSpline
210
0.0
220
0.0
230
1.0
 70
     8
 71
     3
 72
    21
 73
    17
 74
     0
 42
0.000000001
 43
0.0
 40
0.0
 40
0.0
 40
0.0
 40
0.0
 40
0.4393885543042938
 40
1.1281731543831
 40
1.805743206497002
 40
2.205598715330434
 40
2.205598715330434
 40
2.205598715330434
 40
2.479747055950441
 40
2.920398044899596
 40
3.380107679412884
 40
3.799245416865925
 40
4.530755341439784
 40
5.356057884730338
 40
5.808067884658601
 40
5.824102627333291
 40
5.824102627333291
 40
5.824102627333291
 40
5.824102627333291
 10
337.171370999282
 20
510.7620860089184
 30
0.0
 10
337.0471477796463
 20
510.7527788285526
 30
0.0
 10
336.725465573692
 20
510.6751338872745
 30
0.0
 10
336.265628348551
 20
510.3383505428262
 30
0.0
 10
335.9903312418872
 20
509.815879430767
 30
0.0
 10
335.9363115538886
 20
509.4576037878753
 30
0.0
 10
335.9330252982955
 20
509.3247706344544
 30
0.0
 10
335.9307831079939
 20
509.2335467685135
 30
0.0
 10
335.9455274868965
 20
508.9945476264633
 30
0.0
 10
336.0547770534861
 20
508.6174201957114
 30
0.0
 10
336.2863626729089
 20
508.2536536877644
 30
0.0
 10
336.6684755641275
 20
507.9225934315855
 30
0.0
 10
337.2356348333166
 20
507.7389489046635
 30
0.0
 10
337.7957551048311
 20
507.8967698510049
 30
0.0
 10
338.0785866021923
 20
508.1517785277512
 30
0.0
 10
338.1667279488287
 20
508.2613006830002
 30
0.0
 10
338.1697307608364
 20
508.2650728174067
 30
0.0
  0
ARC
  5
B0
330
7B
100
AcDbEntity
  8
0
  6
Continuous
 62
     0
370
    30
100
AcDbCircle
 10
337.249303
 20
503.578317
 30
0.0
 40
1.145405247899212
100
AcDbArc
 50
44.390723
 51
93.901355
  0
SPLINE
  5
B1
330
7B
100
AcDbEntity
  8
0
  6
Continuous
 62
     0
370
    30
100
AcDbSpline
210
0.0
220
0.0
230
1.0
 70
     8
 71
     3
 72
    21
 73
    17
 74
     0
 42
0.000000001
 43
0.0
 40
0.0
 40
0.0
 40
0.0
 40
0.0
 40
0.4393885543043194
 40
1.128173154382926
 40
1.805743206496953
 40
2.205598715330447
 40
2.205598715330447
 40
2.205598715330447
 40
2.479747055950483
 40
2.920398044899611
 40
3.380107679412886
 40
3.799245416866006
 40
4.530755341439848
 40
5.356057884730557
 40
5.80806788465897
 40
5.812649914532447
 40
5.812649914532447
 40
5.812649914532447
 40
5.812649914532447
 10
337.171370999282
 20
504.721067542219
 30
0.0
 10
337.0471477796463
 20
504.7117603618532
 30
0.0
 10
336.7254655736921
 20
504.6341154205751
 30
0.0
 10
336.265628348551
 20
504.2973320761269
 30
0.0
 10
335.9903312418872
 20
503.7748609640677
 30
0.0
 10
335.9363115538886
 20
503.4165853211759
 30
0.0
 10
335.9330252982955
 20
503.283752167755
 30
0.0
 10
335.9307831079939
 20
503.1925283018141
 30
0.0
 10
335.9455274868965
 20
502.9535291597639
 30
0.0
 10
336.0547770534861
 20
502.576401729012
 30
0.0
 10
336.286362672909
 20
502.2126352210651
 30
0.0
 10
336.6684755641275
 20
501.8815749648861
 30
0.0
 10
337.2356348333167
 20
501.697930437964
 30
0.0
 10
337.7957551048313
 20
501.8557513843056
 30
0.0
 10
338.0760821024763
 20
502.1085019350494
 30
0.0
 10
338.1624059310778
 20
502.214932683267
 30
0.0
 10
338.1632708497269
 20
502.2160023928774
 30
0.0
  0
ARC
  5
B2
330
7B
100
AcDbEntity
  8
0
  6
Continuous
 62
     0
370
    30
100
AcDbCircle
 10
337.247571
 20
497.567252
 30
0.0
 40
1.153155143857337
100
AcDbArc
 50
40.665452
 51
93.788858
  0
SPLINE
  5
B3
330
7B
100
AcDbEntity
  8
0
  6
Continuous
 62
     0
370
    30
100
AcDbSpline
210
0.0
220
0.0
230
1.0
 70
     8
 71
     3
 72
    20
 73
    16
 74
     0
 42
0.000000001
 43
0.0
 40
0.0
 40
0.0
 40
0.0
 40
0.0
 40
0.4393885543043194
 40
1.128173154382926
 40
1.805743206496953
 40
2.205598715330447
 40
2.205598715330447
 40
2.205598715330447
 40
2.479747055950454
 40
2.920398044899581
 40
3.380107679412875
 40
3.799245416865936
 40
4.530755341439905
 40
5.356057884730233
 40
5.724236103047685
 40
5.724236103047685
 40
5.724236103047685
 40
5.724236103047685
 10
337.171370999282
 20
498.7178869210686
 30
0.0
 10
337.0471477796463
 20
498.7085797407027
 30
0.0
 10
336.7254655736921
 20
498.6309347994246
 30
0.0
 10
336.265628348551
 20
498.2941514549764
 30
0.0
 10
335.9903312418872
 20
497.7716803429171
 30
0.0
 10
335.9363115538886
 20
497.4134047000255
 30
0.0
 10
335.9330252982955
 20
497.2805715466045
 30
0.0
 10
335.9307831079939
 20
497.1893476806636
 30
0.0
 10
335.9455274868965
 20
496.9503485386134
 30
0.0
 10
336.0547770534861
 20
496.5732211078616
 30
0.0
 10
336.2863626729089
 20
496.2094545999146
 30
0.0
 10
336.6684755641275
 20
495.8783943437356
 30
0.0
 10
337.2356348333166
 20
495.6947498168136
 30
0.0
 10
337.7723802765273
 20
495.8459846106605
 30
0.0
 10
338.0380841921452
 20
496.0720122987971
 30
0.0
 10
338.1117046735055
 20
496.1527626534102
 30
0.0
  0
ARC
  5
B4
330
7B
100
AcDbEntity
  8
0
  6
Continuous
 62
     0
370
    30
100
AcDbCircle
 10
337.248169
 20
491.571123
 30
0.0
 40
1.150571593456386
100
AcDbArc
 50
41.866138
 51
93.827194
  0
SPLINE
  5
B5
330
7B
100
AcDbEntity
  8
0
  6
Continuous
 62
     0
370
    30
100
AcDbSpline
210
0.0
220
0.0
230
1.0
 70
     8
 71
     3
 72
    20
 73
    16
 74
     0
 42
0.000000001
 43
0.0
 40
0.0
 40
0.0
 40
0.0
 40
0.0
 40
0.439388554304285
 40
1.128173154383072
 40
1.805743206496943
 40
2.205598715330437
 40
2.205598715330437
 40
2.205598715330437
 40
2.479747055950473
 40
2.920398044899601
 40
3.38010767941288
 40
3.799245416866008
 40
4.530755341440009
 40
5.356057884730299
 40
5.753105454223904
 40
5.753105454223904
 40
5.753105454223904
 40
5.753105454223904
 10
337.171370999282
 20
492.7191289175032
 30
0.0
 10
337.0471477796463
 20
492.7098217371373
 30
0.0
 10
336.725465573692
 20
492.6321767958592
 30
0.0
 10
336.265628348551
 20
492.295393451411
 30
0.0
 10
335.9903312418872
 20
491.7729223393517
 30
0.0
 10
335.9363115538886
 20
491.4146466964601
 30
0.0
 10
335.9330252982955
 20
491.2818135430391
 30
0.0
 10
335.9307831079939
 20
491.1905896770982
 30
0.0
 10
335.9455274868965
 20
490.951590535048
 30
0.0
 10
336.0547770534861
 20
490.5744631042962
 30
0.0
 10
336.286362672909
 20
490.2106965963492
 30
0.0
 10
336.6684755641276
 20
489.8796363401702
 30
0.0
 10
337.2356348333168
 20
489.6959918132478
 30
0.0
 10
337.7804299220674
 20
489.8494946961863
 30
0.0
 10
338.0508992788018
 20
490.0842665450566
 30
0.0
 10
338.1288678136821
 20
490.1732024448277
 30
0.0
  0
ARC
  5
B6
330
7B
100
AcDbEntity
  8
0
  6
Continuous
 62
     0
370
    30
100
AcDbCircle
 10
337.247258
 20
485.607309
 30
0.0
 40
1.154481589878426
100
AcDbArc
 50
40.066468
 51
93.768892
  0
SPLINE
  5
B7
330
7B
100
AcDbEntity
  8
0
  6
Continuous
 62
     0
370
    30
100
AcDbSpline
210
0.0
220
0.0
230
1.0
 70
     8
 71
     3
 72
    20
 73
    16
 74
     0
 42
0.000000001
 43
0.0
 40
0.0
 40
0.0
 40
0.0
 40
0.0
 40
0.4393885543043091
 40
1.128173154382823
 40
1.805743206496777
 40
2.205598715330447
 40
2.205598715330447
 40
2.205598715330447
 40
2.479747055950455
 40
2.920398044899609
 40
3.380107679412898
 40
3.799245416865972
 40
4.53075534143977
 40
5.356057884730436
 40
5.709694385856491
 40
5.709694385856491
 40
5.709694385856491
 40
5.709694385856491
 10
337.171370999282
 20
486.7592938657845
 30
0.0
 10
337.0471477796463
 20
486.7499866854187
 30
0.0
 10
336.7254655736921
 20
486.6723417441406
 30
0.0
 10
336.2656283485511
 20
486.3355583996924
 30
0.0
 10
335.9903312418872
 20
485.8130872876332
 30
0.0
 10
335.9363115538886
 20
485.4548116447415
 30
0.0
 10
335.9330252982955
 20
485.3219784913205
 30
0.0
 10
335.9307831079939
 20
485.2307546253796
 30
0.0
 10
335.9455274868965
 20
484.9917554833294
 30
0.0
 10
336.0547770534861
 20
484.6146280525775
 30
0.0
 10
336.2863626729089
 20
484.2508615446305
 30
0.0
 10
336.6684755641275
 20
483.9198012884517
 30
0.0
 10
337.2356348333167
 20
483.7361567615292
 30
0.0
 10
337.7683256073304
 20
483.8862491012259
 30
0.0
 10
338.0315994066848
 20
484.1079309045379
 30
0.0
 10
338.1029424984802
 20
484.1846532332855
 30
0.0
  0
ARC
  5
B8
330
7B
100
AcDbEntity
  8
0
  6
Continuous
 62
     0
370
    30
100
AcDbCircle
 10
337.24816
 20
479.621888
 30
0.0
 40
1.150608322594853
100
AcDbArc
 50
41.848763
 51
93.826654
  0
SPLINE
  5
B9
330
7B
100
AcDbEntity
  8
0
  6
Continuous
 62
     0
370
    30
100
AcDbSpline
210
0.0
220
0.0
230
1.0
 70
     8
 71
     3
 72
    20
 73
    16
 74
     0
 42
0.000000001
 43
0.0
 40
0.0
 40
0.0
 40
0.0
 40
0.0
 40
0.4393885543043085
 40
1.128173154382987
 40
1.805743206496884
 40
2.205598715330407
 40
2.205598715330407
 40
2.205598715330407
 40
2.479747055950443
 40
2.920398044899597
 40
3.38010767941287
 40
3.799245416865965
 40
4.530755341439712
 40
5.356057884730409
 40
5.752690314639767
 40
5.752690314639767
 40
5.752690314639767
 40
5.752690314639767
 10
337.171370999282
 20
480.7699311312646
 30
0.0
 10
337.0471477796463
 20
480.7606239508988
 30
0.0
 10
336.7254655736921
 20
480.6829790096207
 30
0.0
 10
336.265628348551
 20
480.3461956651725
 30
0.0
 10
335.9903312418872
 20
479.8237245531133
 30
0.0
 10
335.9363115538886
 20
479.4654489102215
 30
0.0
 10
335.9330252982955
 20
479.3326157568006
 30
0.0
 10
335.9307831079939
 20
479.2413918908597
 30
0.0
 10
335.9455274868965
 20
479.0023927488095
 30
0.0
 10
336.0547770534861
 20
478.6252653180577
 30
0.0
 10
336.286362672909
 20
478.2614988101107
 30
0.0
 10
336.6684755641274
 20
477.9304385539318
 30
0.0
 10
337.2356348333167
 20
477.7467940270093
 30
0.0
 10
337.7803141686345
 20
477.9002642949591
 30
0.0
 10
338.0507155548505
 20
478.1349093064548
 30
0.0
 10
338.128623217429
 20
478.2237257350094
 30
0.0
  0
ARC
  5
BA
330
7B
100
AcDbEntity
  8
0
  6
Continuous
 62
     0
370
    30
100
AcDbCircle
 10
337.247522
 20
473.573261
 30
0.0
 40
1.153363373193372
100
AcDbArc
 50
40.570625
 51
93.785736
  0
SPLINE
  5
BB
330
7B
100
AcDbEntity
  8
0
  6
Continuous
 62
     0
370
    30
100
AcDbSpline
210
0.0
220
0.0
230
1.0
 70
     8
 71
     3
 72
    20
 73
    16
 74
     0
 42
0.000000001
 43
0.0
 40
0.0
 40
0.0
 40
0.0
 40
0.0
 40
0.4393885543043164
 40
1.128173154382899
 40
1.805743206496863
 40
2.205598715330414
 40
2.205598715330414
 40
2.205598715330414
 40
2.479747055950478
 40
2.920398044899592
 40
3.380107679412886
 40
3.79924541686596
 40
4.530755341439771
 40
5.356057884730247
 40
5.721940235839257
 40
5.721940235839257
 40
5.721940235839257
 40
5.721940235839257
 10
337.171370999282
 20
474.724108159856
 30
0.0
 10
337.0471477796463
 20
474.7148009794902
 30
0.0
 10
336.7254655736921
 20
474.6371560382121
 30
0.0
 10
336.265628348551
 20
474.3003726937638
 30
0.0
 10
335.9903312418872
 20
473.7779015817047
 30
0.0
 10
335.9363115538886
 20
473.4196259388129
 30
0.0
 10
335.9330252982955
 20
473.286792785392
 30
0.0
 10
335.9307831079939
 20
473.1955689194511
 30
0.0
 10
335.9455274868965
 20
472.9565697774009
 30
0.0
 10
336.0547770534861
 20
472.5794423466491
 30
0.0
 10
336.286362672909
 20
472.2156758387021
 30
0.0
 10
336.6684755641275
 20
471.8846155825232
 30
0.0
 10
337.2356348333167
 20
471.7009710556007
 30
0.0
 10
337.7717401195271
 20
471.8520254771459
 30
0.0
 10
338.0370616888194
 20
472.0773644201181
 30
0.0
 10
338.1103264636144
 20
472.1574745614347
 30
0.0
  0
ELLIPSE
  5
BC
330
7B
100
AcDbEntity
  8
0
  6
Continuous
 62
     0
370
    30
100
AcDbEllipse
 10
333.460402
 20
521.178102
 30
0.0
 11
0.0
 21
1.099999999999994
 31
0.0
210
0.0
220
0.0
230
1.0
 40
0.984135
 41
0.0
 42
6.283185307179586
  0
ELLIPSE
  5
BD
330
7B
100
AcDbEntity
  8
0
  6
Continuous
 62
     0
370
    30
100
AcDbEllipse
 10
333.460402
 20
521.178102
 30
0.0
 11
0.0
 21
0.5
 31
0.0
210
0.0
220
0.0
230
1.0
 40
0.984135
 41
0.0
 42
6.283185307179586
  0
ELLIPSE
  5
BE
330
7B
100
AcDbEntity
  8
0
  6
Continuous
 62
     0
370
    30
100
AcDbEllipse
 10
337.952924
 20
521.178102
 30
0.0
 11
0.0
 21
1.099999999999994
 31
0.0
210
0.0
220
0.0
230
1.0
 40
0.851271
 41
0.0
 42
6.283185307179586
  0
ELLIPSE
  5
BF
330
7B
100
AcDbEntity
  8
0
  6
Continuous
 62
     0
370
    30
100
AcDbEllipse
 10
337.952924
 20
521.178102
 30
0.0
 11
0.0
 21
0.5
 31
0.0
210
0.0
220
0.0
230
1.0
 40
0.851271
 41
0.0
 42
6.283185307179586
  0
ELLIPSE
  5
C0
330
7B
100
AcDbEntity
  8
0
  6
Continuous
 62
     0
370
    30
100
AcDbEllipse
 10
328.819303
 20
521.178102
 30
0.0
 11
0.0
 21
-1.099999999999994
 31
0.0
210
0.0
220
0.0
230
1.0
 40
0.983415
 41
0.0
 42
6.283185307179586
  0
ELLIPSE
  5
C1
330
7B
100
AcDbEntity
  8
0
  6
Continuous
 62
     0
370
    30
100
AcDbEllipse
 10
328.819303
 20
521.178102
 30
0.0
 11
0.0
 21
-0.5
 31
0.0
210
0.0
220
0.0
230
1.0
 40
0.983415
 41
0.0
 42
6.283185307179586
  0
ELLIPSE
  5
C2
330
7B
100
AcDbEntity
  8
0
  6
Continuous
 62
     0
370
    30
100
AcDbEllipse
 10
324.329794
 20
521.178102
 30
0.0
 11
0.0
 21
-1.099999999999994
 31
0.0
210
0.0
220
0.0
230
1.0
 40
0.848969
 41
0.0
 42
6.283185307179586
  0
ELLIPSE
  5
C3
330
7B
100
AcDbEntity
  8
0
  6
Continuous
 62
     0
370
    30
100
AcDbEllipse
 10
324.329794
 20
521.178102
 30
0.0
 11
0.0
 21
-0.5
 31
0.0
210
0.0
220
0.0
230
1.0
 40
0.848969
 41
0.0
 42
6.283185307179586
  0
ELLIPSE
  5
C4
330
7B
100
AcDbEntity
  8
0
  6
Continuous
 62
     0
370
    30
100
AcDbEllipse
 10
324.329794
 20
515.348123
 30
0.0
 11
0.0
 21
-1.099999999999994
 31
0.0
210
0.0
220
0.0
230
1.0
 40
0.848969
 41
0.0
 42
6.283185307179586
  0
ELLIPSE
  5
C5
330
7B
100
AcDbEntity
  8
0
  6
Continuous
 62
     0
370
    30
100
AcDbEllipse
 10
324.329794
 20
515.348123
 30
0.0
 11
0.0
 21
-0.5
 31
0.0
210
0.0
220
0.0
230
1.0
 40
0.848969
 41
0.0
 42
6.283185307179586
  0
ELLIPSE
  5
C6
330
7B
100
AcDbEntity
  8
0
  6
Continuous
 62
     0
370
    30
100
AcDbEllipse
 10
328.819303
 20
515.348123
 30
0.0
 11
0.0
 21
-1.099999999999994
 31
0.0
210
0.0
220
0.0
230
1.0
 40
0.983415
 41
0.0
 42
6.283185307179586
  0
ELLIPSE
  5
C7
330
7B
100
AcDbEntity
  8
0
  6
Continuous
 62
     0
370
    30
100
AcDbEllipse
 10
328.819303
 20
515.348123
 30
0.0
 11
0.0
 21
-0.5
 31
0.0
210
0.0
220
0.0
230
1.0
 40
0.983415
 41
0.0
 42
6.283185307179586
  0
ELLIPSE
  5
C8
330
7B
100
AcDbEntity
  8
0
  6
Continuous
 62
     0
370
    30
100
AcDbEllipse
 10
337.952924
 20
515.348123
 30
0.0
 11
0.0
 21
1.099999999999994
 31
0.0
210
0.0
220
0.0
230
1.0
 40
0.851271
 41
0.0
 42
6.283185307179586
  0
ELLIPSE
  5
C9
330
7B
100
AcDbEntity
  8
0
  6
Continuous
 62
     0
370
    30
100
AcDbEllipse
 10
337.952924
 20
515.348123
 30
0.0
 11
0.0
 21
0.5
 31
0.0
210
0.0
220
0.0
230
1.0
 40
0.851271
 41
0.0
 42
6.283185307179586
  0
ELLIPSE
  5
CA
330
7B
100
AcDbEntity
  8
0
  6
Continuous
 62
     0
370
    30
100
AcDbEllipse
 10
333.460402
 20
515.348123
 30
0.0
 11
0.0
 21
1.099999999999994
 31
0.0
210
0.0
220
0.0
230
1.0
 40
0.984135
 41
0.0
 42
6.283185307179586
  0
ELLIPSE
  5
CB
330
7B
100
AcDbEntity
  8
0
  6
Continuous
 62
     0
370
    30
100
AcDbEllipse
 10
333.460402
 20
515.348123
 30
0.0
 11
0.0
 21
0.5
 31
0.0
210
0.0
220
0.0
230
1.0
 40
0.984135
 41
0.0
 42
6.283185307179586
  0
ELLIPSE
  5
CC
330
7B
100
AcDbEntity
  8
0
  6
Continuous
 62
     0
370
    30
100
AcDbEllipse
 10
324.329794
 20
509.335183
 30
0.0
 11
0.0
 21
-1.099999999999994
 31
0.0
210
0.0
220
0.0
230
1.0
 40
0.848969
 41
0.0
 42
6.283185307179586
  0
ELLIPSE
  5
CD
330
7B
100
AcDbEntity
  8
0
  6
Continuous
 62
     0
370
    30
100
AcDbEllipse
 10
324.329794
 20
509.335183
 30
0.0
 11
0.0
 21
-0.5
 31
0.0
210
0.0
220
0.0
230
1.0
 40
0.848969
 41
0.0
 42
6.283185307179586
  0
ELLIPSE
  5
CE
330
7B
100
AcDbEntity
  8
0
  6
Continuous
 62
     0
370
    30
100
AcDbEllipse
 10
328.819303
 20
509.335183
 30
0.0
 11
0.0
 21
-1.099999999999994
 31
0.0
210
0.0
220
0.0
230
1.0
 40
0.983415
 41
0.0
 42
6.283185307179586
  0
ELLIPSE
  5
CF
330
7B
100
AcDbEntity
  8
0
  6
Continuous
 62
     0
370
    30
100
AcDbEllipse
 10
328.819303
 20
509.335183
 30
0.0
 11
0.0
 21
-0.5
 31
0.0
210
0.0
220
0.0
230
1.0
 40
0.983415
 41
0.0
 42
6.283185307179586
  0
ELLIPSE
  5
D0
330
7B
100
AcDbEntity
  8
0
  6
Continuous
 62
     0
370
    30
100
AcDbEllipse
 10
337.952924
 20
509.335183
 30
0.0
 11
0.0
 21
1.099999999999994
 31
0.0
210
0.0
220
0.0
230
1.0
 40
0.851271
 41
0.0
 42
6.283185307179586
  0
ELLIPSE
  5
D1
330
7B
100
AcDbEntity
  8
0
  6
Continuous
 62
     0
370
    30
100
AcDbEllipse
 10
337.952924
 20
509.335183
 30
0.0
 11
0.0
 21
0.5
 31
0.0
210
0.0
220
0.0
230
1.0
 40
0.851271
 41
0.0
 42
6.283185307179586
  0
ELLIPSE
  5
D2
330
7B
100
AcDbEntity
  8
0
  6
Continuous
 62
     0
370
    30
100
AcDbEllipse
 10
333.460402
 20
509.335183
 30
0.0
 11
0.0
 21
1.099999999999994
 31
0.0
210
0.0
220
0.0
230
1.0
 40
0.984135
 41
0.0
 42
6.283185307179586
  0
ELLIPSE
  5
D3
330
7B
100
AcDbEntity
  8
0
  6
Continuous
 62
     0
370
    30
100
AcDbEllipse
 10
333.460402
 20
509.335183
 30
0.0
 11
0.0
 21
0.5
 31
0.0
210
0.0
220
0.0
230
1.0
 40
0.984135
 41
0.0
 42
6.283185307179586
  0
ELLIPSE
  5
D4
330
7B
100
AcDbEntity
  8
0
  6
Continuous
 62
     0
370
    30
100
AcDbEllipse
 10
324.329794
 20
503.28789
 30
0.0
 11
0.0
 21
-1.099999999999994
 31
0.0
210
0.0
220
0.0
230
1.0
 40
0.848969
 41
0.0
 42
6.283185307179586
  0
ELLIPSE
  5
D5
330
7B
100
AcDbEntity
  8
0
  6
Continuous
 62
     0
370
    30
100
AcDbEllipse
 10
324.329794
 20
503.28789
 30
0.0
 11
0.0
 21
-0.5
 31
0.0
210
0.0
220
0.0
230
1.0
 40
0.848969
 41
0.0
 42
6.283185307179586
  0
ELLIPSE
  5
D6
330
7B
100
AcDbEntity
  8
0
  6
Continuous
 62
     0
370
    30
100
AcDbEllipse
 10
328.819303
 20
503.28789
 30
0.0
 11
0.0
 21
-1.099999999999994
 31
0.0
210
0.0
220
0.0
230
1.0
 40
0.983415
 41
0.0
 42
6.283185307179586
  0
ELLIPSE
  5
D7
330
7B
100
AcDbEntity
  8
0
  6
Continuous
 62
     0
370
    30
100
AcDbEllipse
 10
328.819303
 20
503.28789
 30
0.0
 11
0.0
 21
-0.5
 31
0.0
210
0.0
220
0.0
230
1.0
 40
0.983415
 41
0.0
 42
6.283185307179586
  0
ELLIPSE
  5
D8
330
7B
100
AcDbEntity
  8
0
  6
Continuous
 62
     0
370
    30
100
AcDbEllipse
 10
337.952924
 20
503.28789
 30
0.0
 11
0.0
 21
1.099999999999994
 31
0.0
210
0.0
220
0.0
230
1.0
 40
0.851271
 41
0.0
 42
6.283185307179586
  0
ELLIPSE
  5
D9
330
7B
100
AcDbEntity
  8
0
  6
Continuous
 62
     0
370
    30
100
AcDbEllipse
 10
337.952924
 20
503.28789
 30
0.0
 11
0.0
 21
0.5
 31
0.0
210
0.0
220
0.0
230
1.0
 40
0.851271
 41
0.0
 42
6.283185307179586
  0
ELLIPSE
  5
DA
330
7B
100
AcDbEntity
  8
0
  6
Continuous
 62
     0
370
    30
100
AcDbEllipse
 10
333.460402
 20
503.28789
 30
0.0
 11
0.0
 21
1.099999999999994
 31
0.0
210
0.0
220
0.0
230
1.0
 40
0.984135
 41
0.0
 42
6.283185307179586
  0
ELLIPSE
  5
DB
330
7B
100
AcDbEntity
  8
0
  6
Continuous
 62
     0
370
    30
100
AcDbEllipse
 10
333.460402
 20
503.28789
 30
0.0
 11
0.0
 21
0.5
 31
0.0
210
0.0
220
0.0
230
1.0
 40
0.984135
 41
0.0
 42
6.283185307179586
  0
ELLIPSE
  5
DC
330
7B
100
AcDbEntity
  8
0
  6
Continuous
 62
     0
370
    30
100
AcDbEllipse
 10
324.329794
 20
497.236834
 30
0.0
 11
0.0
 21
-1.099999999999994
 31
0.0
210
0.0
220
0.0
230
1.0
 40
0.848969
 41
0.0
 42
6.283185307179586
  0
ELLIPSE
  5
DD
330
7B
100
AcDbEntity
  8
0
  6
Continuous
 62
     0
370
    30
100
AcDbEllipse
 10
324.329794
 20
497.236834
 30
0.0
 11
0.0
 21
-0.5
 31
0.0
210
0.0
220
0.0
230
1.0
 40
0.848969
 41
0.0
 42
6.283185307179586
  0
ELLIPSE
  5
DE
330
7B
100
AcDbEntity
  8
0
  6
Continuous
 62
     0
370
    30
100
AcDbEllipse
 10
328.819303
 20
497.236834
 30
0.0
 11
0.0
 21
-1.099999999999994
 31
0.0
210
0.0
220
0.0
230
1.0
 40
0.983415
 41
0.0
 42
6.283185307179586
  0
ELLIPSE
  5
DF
330
7B
100
AcDbEntity
  8
0
  6
Continuous
 62
     0
370
    30
100
AcDbEllipse
 10
328.819303
 20
497.236834
 30
0.0
 11
0.0
 21
-0.5
 31
0.0
210
0.0
220
0.0
230
1.0
 40
0.983415
 41
0.0
 42
6.283185307179586
  0
ELLIPSE
  5
E0
330
7B
100
AcDbEntity
  8
0
  6
Continuous
 62
     0
370
    30
100
AcDbEllipse
 10
337.952924
 20
497.236834
 30
0.0
 11
0.0
 21
1.099999999999994
 31
0.0
210
0.0
220
0.0
230
1.0
 40
0.851271
 41
0.0
 42
6.283185307179586
  0
ELLIPSE
  5
E1
330
7B
100
AcDbEntity
  8
0
  6
Continuous
 62
     0
370
    30
100
AcDbEllipse
 10
337.952924
 20
497.236834
 30
0.0
 11
0.0
 21
0.5
 31
0.0
210
0.0
220
0.0
230
1.0
 40
0.851271
 41
0.0
 42
6.283185307179586
  0
ELLIPSE
  5
E2
330
7B
100
AcDbEntity
  8
0
  6
Continuous
 62
     0
370
    30
100
AcDbEllipse
 10
333.460402
 20
497.236834
 30
0.0
 11
0.0
 21
1.099999999999994
 31
0.0
210
0.0
220
0.0
230
1.0
 40
0.984135
 41
0.0
 42
6.283185307179586
  0
ELLIPSE
  5
E3
330
7B
100
AcDbEntity
  8
0
  6
Continuous
 62
     0
370
    30
100
AcDbEllipse
 10
333.460402
 20
497.236834
 30
0.0
 11
0.0
 21
0.5
 31
0.0
210
0.0
220
0.0
230
1.0
 40
0.984135
 41
0.0
 42
6.283185307179586
  0
ELLIPSE
  5
E4
330
7B
100
AcDbEntity
  8
0
  6
Continuous
 62
     0
370
    30
100
AcDbEllipse
 10
324.329794
 20
491.253611
 30
0.0
 11
0.0
 21
-1.099999999999994
 31
0.0
210
0.0
220
0.0
230
1.0
 40
0.848969
 41
0.0
 42
6.283185307179586
  0
ELLIPSE
  5
E5
330
7B
100
AcDbEntity
  8
0
  6
Continuous
 62
     0
370
    30
100
AcDbEllipse
 10
324.329794
 20
491.253611
 30
0.0
 11
0.0
 21
-0.5
 31
0.0
210
0.0
220
0.0
230
1.0
 40
0.848969
 41
0.0
 42
6.283185307179586
  0
ELLIPSE
  5
E6
330
7B
100
AcDbEntity
  8
0
  6
Continuous
 62
     0
370
    30
100
AcDbEllipse
 10
328.819303
 20
491.253611
 30
0.0
 11
0.0
 21
-1.099999999999994
 31
0.0
210
0.0
220
0.0
230
1.0
 40
0.983415
 41
0.0
 42
6.283185307179586
  0
ELLIPSE
  5
E7
330
7B
100
AcDbEntity
  8
0
  6
Continuous
 62
     0
370
    30
100
AcDbEllipse
 10
328.819303
 20
491.253611
 30
0.0
 11
0.0
 21
-0.5
 31
0.0
210
0.0
220
0.0
230
1.0
 40
0.983415
 41
0.0
 42
6.283185307179586
  0
ELLIPSE
  5
E8
330
7B
100
AcDbEntity
  8
0
  6
Continuous
 62
     0
370
    30
100
AcDbEllipse
 10
337.952924
 20
491.253611
 30
0.0
 11
0.0
 21
1.099999999999994
 31
0.0
210
0.0
220
0.0
230
1.0
 40
0.851271
 41
0.0
 42
6.283185307179586
  0
ELLIPSE
  5
E9
330
7B
100
AcDbEntity
  8
0
  6
Continuous
 62
     0
370
    30
100
AcDbEllipse
 10
337.952924
 20
491.253611
 30
0.0
 11
0.0
 21
0.5
 31
0.0
210
0.0
220
0.0
230
1.0
 40
0.851271
 41
0.0
 42
6.283185307179586
  0
ELLIPSE
  5
EA
330
7B
100
AcDbEntity
  8
0
  6
Continuous
 62
     0
370
    30
100
AcDbEllipse
 10
333.460402
 20
491.253611
 30
0.0
 11
0.0
 21
1.099999999999994
 31
0.0
210
0.0
220
0.0
230
1.0
 40
0.984135
 41
0.0
 42
6.283185307179586
  0
ELLIPSE
  5
EB
330
7B
100
AcDbEntity
  8
0
  6
Continuous
 62
     0
370
    30
100
AcDbEllipse
 10
333.460402
 20
491.253611
 30
0.0
 11
0.0
 21
0.5
 31
0.0
210
0.0
220
0.0
230
1.0
 40
0.984135
 41
0.0
 42
6.283185307179586
  0
ELLIPSE
  5
EC
330
7B
100
AcDbEntity
  8
0
  6
Continuous
 62
     0
370
    30
100
AcDbEllipse
 10
324.329794
 20
485.270445
 30
0.0
 11
0.0
 21
-1.099999999999994
 31
0.0
210
0.0
220
0.0
230
1.0
 40
0.848969
 41
0.0
 42
6.283185307179586
  0
ELLIPSE
  5
ED
330
7B
100
AcDbEntity
  8
0
  6
Continuous
 62
     0
370
    30
100
AcDbEllipse
 10
324.329794
 20
485.270445
 30
0.0
 11
0.0
 21
-0.5
 31
0.0
210
0.0
220
0.0
230
1.0
 40
0.848969
 41
0.0
 42
6.283185307179586
  0
ELLIPSE
  5
EE
330
7B
100
AcDbEntity
  8
0
  6
Continuous
 62
     0
370
    30
100
AcDbEllipse
 10
328.819303
 20
485.270445
 30
0.0
 11
0.0
 21
-1.099999999999994
 31
0.0
210
0.0
220
0.0
230
1.0
 40
0.983415
 41
0.0
 42
6.283185307179586
  0
ELLIPSE
  5
EF
330
7B
100
AcDbEntity
  8
0
  6
Continuous
 62
     0
370
    30
100
AcDbEllipse
 10
328.819303
 20
485.270445
 30
0.0
 11
0.0
 21
-0.5
 31
0.0
210
0.0
220
0.0
230
1.0
 40
0.983415
 41
0.0
 42
6.283185307179586
  0
ELLIPSE
  5
F0
330
7B
100
AcDbEntity
  8
0
  6
Continuous
 62
     0
370
    30
100
AcDbEllipse
 10
337.952924
 20
485.270445
 30
0.0
 11
0.0
 21
1.099999999999994
 31
0.0
210
0.0
220
0.0
230
1.0
 40
0.851271
 41
0.0
 42
6.283185307179586
  0
ELLIPSE
  5
F1
330
7B
100
AcDbEntity
  8
0
  6
Continuous
 62
     0
370
    30
100
AcDbEllipse
 10
337.952924
 20
485.270445
 30
0.0
 11
0.0
 21
0.5
 31
0.0
210
0.0
220
0.0
230
1.0
 40
0.851271
 41
0.0
 42
6.283185307179586
  0
ELLIPSE
  5
F2
330
7B
100
AcDbEntity
  8
0
  6
Continuous
 62
     0
370
    30
100
AcDbEllipse
 10
333.460402
 20
485.270445
 30
0.0
 11
0.0
 21
1.099999999999994
 31
0.0
210
0.0
220
0.0
230
1.0
 40
0.984135
 41
0.0
 42
6.283185307179586
  0
ELLIPSE
  5
F3
330
7B
100
AcDbEntity
  8
0
  6
Continuous
 62
     0
370
    30
100
AcDbEllipse
 10
333.460402
 20
485.270445
 30
0.0
 11
0.0
 21
0.5
 31
0.0
210
0.0
220
0.0
230
1.0
 40
0.984135
 41
0.0
 42
6.283185307179586
  0
ELLIPSE
  5
F4
330
7B
100
AcDbEntity
  8
0
  6
Continuous
 62
     0
370
    30
100
AcDbEllipse
 10
324.329794
 20
479.304189
 30
0.0
 11
0.0
 21
-1.099999999999994
 31
0.0
210
0.0
220
0.0
230
1.0
 40
0.848969
 41
0.0
 42
6.283185307179586
  0
ELLIPSE
  5
F5
330
7B
100
AcDbEntity
  8
0
  6
Continuous
 62
     0
370
    30
100
AcDbEllipse
 10
324.329794
 20
479.304189
 30
0.0
 11
0.0
 21
-0.5
 31
0.0
210
0.0
220
0.0
230
1.0
 40
0.848969
 41
0.0
 42
6.283185307179586
  0
ELLIPSE
  5
F6
330
7B
100
AcDbEntity
  8
0
  6
Continuous
 62
     0
370
    30
100
AcDbEllipse
 10
328.819303
 20
479.304189
 30
0.0
 11
0.0
 21
-1.099999999999994
 31
0.0
210
0.0
220
0.0
230
1.0
 40
0.983415
 41
0.0
 42
6.283185307179586
  0
ELLIPSE
  5
F7
330
7B
100
AcDbEntity
  8
0
  6
Continuous
 62
     0
370
    30
100
AcDbEllipse
 10
328.819303
 20
479.304189
 30
0.0
 11
0.0
 21
-0.5
 31
0.0
210
0.0
220
0.0
230
1.0
 40
0.983415
 41
0.0
 42
6.283185307179586
  0
ELLIPSE
  5
F8
330
7B
100
AcDbEntity
  8
0
  6
Continuous
 62
     0
370
    30
100
AcDbEllipse
 10
337.952924
 20
479.304189
 30
0.0
 11
0.0
 21
1.099999999999994
 31
0.0
210
0.0
220
0.0
230
1.0
 40
0.851271
 41
0.0
 42
6.283185307179586
  0
ELLIPSE
  5
F9
330
7B
100
AcDbEntity
  8
0
  6
Continuous
 62
     0
370
    30
100
AcDbEllipse
 10
337.952924
 20
479.304189
 30
0.0
 11
0.0
 21
0.5
 31
0.0
210
0.0
220
0.0
230
1.0
 40
0.851271
 41
0.0
 42
6.283185307179586
  0
ELLIPSE
  5
FA
330
7B
100
AcDbEntity
  8
0
  6
Continuous
 62
     0
370
    30
100
AcDbEllipse
 10
333.460402
 20
479.304189
 30
0.0
 11
0.0
 21
1.099999999999994
 31
0.0
210
0.0
220
0.0
230
1.0
 40
0.984135
 41
0.0
 42
6.283185307179586
  0
ELLIPSE
  5
FB
330
7B
100
AcDbEntity
  8
0
  6
Continuous
 62
     0
370
    30
100
AcDbEllipse
 10
333.460402
 20
479.304189
 30
0.0
 11
0.0
 21
0.5
 31
0.0
210
0.0
220
0.0
230
1.0
 40
0.984135
 41
0.0
 42
6.283185307179586
  0
ELLIPSE
  5
FC
330
7B
100
AcDbEntity
  8
0
  6
Continuous
 62
     0
370
    30
100
AcDbEllipse
 10
324.329794
 20
473.241823
 30
0.0
 11
0.0
 21
-1.099999999999994
 31
0.0
210
0.0
220
0.0
230
1.0
 40
0.848969
 41
0.0
 42
6.283185307179586
  0
ELLIPSE
  5
FD
330
7B
100
AcDbEntity
  8
0
  6
Continuous
 62
     0
370
    30
100
AcDbEllipse
 10
324.329794
 20
473.241823
 30
0.0
 11
0.0
 21
-0.5
 31
0.0
210
0.0
220
0.0
230
1.0
 40
0.848969
 41
0.0
 42
6.283185307179586
  0
ELLIPSE
  5
FE
330
7B
100
AcDbEntity
  8
0
  6
Continuous
 62
     0
370
    30
100
AcDbEllipse
 10
328.819303
 20
473.241823
 30
0.0
 11
0.0
 21
-1.099999999999994
 31
0.0
210
0.0
220
0.0
230
1.0
 40
0.983415
 41
0.0
 42
6.283185307179586
  0
ELLIPSE
  5
FF
330
7B
100
AcDbEntity
  8
0
  6
Continuous
 62
     0
370
    30
100
AcDbEllipse
 10
328.819303
 20
473.241823
 30
0.0
 11
0.0
 21
-0.5
 31
0.0
210
0.0
220
0.0
230
1.0
 40
0.983415
 41
0.0
 42
6.283185307179586
  0
ELLIPSE
  5
100
330
7B
100
AcDbEntity
  8
0
  6
Continuous
 62
     0
370
    30
100
AcDbEllipse
 10
337.952924
 20
473.241823
 30
0.0
 11
0.0
 21
1.099999999999994
 31
0.0
210
0.0
220
0.0
230
1.0
 40
0.851271
 41
0.0
 42
6.283185307179586
  0
ELLIPSE
  5
101
330
7B
100
AcDbEntity
  8
0
  6
Continuous
 62
     0
370
    30
100
AcDbEllipse
 10
337.952924
 20
473.241823
 30
0.0
 11
0.0
 21
0.5
 31
0.0
210
0.0
220
0.0
230
1.0
 40
0.851271
 41
0.0
 42
6.283185307179586
  0
ELLIPSE
  5
102
330
7B
100
AcDbEntity
  8
0
  6
Continuous
 62
     0
370
    30
100
AcDbEllipse
 10
333.460402
 20
473.241823
 30
0.0
 11
0.0
 21
1.099999999999994
 31
0.0
210
0.0
220
0.0
230
1.0
 40
0.984135
 41
0.0
 42
6.283185307179586
  0
ELLIPSE
  5
103
330
7B
100
AcDbEntity
  8
0
  6
Continuous
 62
     0
370
    30
100
AcDbEllipse
 10
333.460402
 20
473.241823
 30
0.0
 11
0.0
 21
0.5
 31
0.0
210
0.0
220
0.0
230
1.0
 40
0.984135
 41
0.0
 42
6.283185307179586
  0
ELLIPSE
  5
104
330
7B
100
AcDbEntity
  8
0
  6
Continuous
 62
     0
370
    30
100
AcDbEllipse
 10
324.329794
 20
467.262123
 30
0.0
 11
0.0
 21
-1.099999999999994
 31
0.0
210
0.0
220
0.0
230
1.0
 40
0.848969
 41
0.0
 42
6.283185307179586
  0
ELLIPSE
  5
105
330
7B
100
AcDbEntity
  8
0
  6
Continuous
 62
     0
370
    30
100
AcDbEllipse
 10
324.329794
 20
467.262123
 30
0.0
 11
0.0
 21
-0.5
 31
0.0
210
0.0
220
0.0
230
1.0
 40
0.848969
 41
0.0
 42
6.283185307179586
  0
ELLIPSE
  5
106
330
7B
100
AcDbEntity
  8
0
  6
Continuous
 62
     0
370
    30
100
AcDbEllipse
 10
328.819303
 20
467.262123
 30
0.0
 11
0.0
 21
-1.099999999999994
 31
0.0
210
0.0
220
0.0
230
1.0
 40
0.983415
 41
0.0
 42
6.283185307179586
  0
ELLIPSE
  5
107
330
7B
100
AcDbEntity
  8
0
  6
Continuous
 62
     0
370
    30
100
AcDbEllipse
 10
328.819303
 20
467.262123
 30
0.0
 11
0.0
 21
-0.5
 31
0.0
210
0.0
220
0.0
230
1.0
 40
0.983415
 41
0.0
 42
6.283185307179586
  0
ELLIPSE
  5
108
330
7B
100
AcDbEntity
  8
0
  6
Continuous
 62
     0
370
    30
100
AcDbEllipse
 10
337.952924
 20
467.262123
 30
0.0
 11
0.0
 21
1.099999999999994
 31
0.0
210
0.0
220
0.0
230
1.0
 40
0.851271
 41
0.0
 42
6.283185307179586
  0
ELLIPSE
  5
109
330
7B
100
AcDbEntity
  8
0
  6
Continuous
 62
     0
370
    30
100
AcDbEllipse
 10
337.952924
 20
467.262123
 30
0.0
 11
0.0
 21
0.5
 31
0.0
210
0.0
220
0.0
230
1.0
 40
0.851271
 41
0.0
 42
6.283185307179586
  0
ELLIPSE
  5
10A
330
7B
100
AcDbEntity
  8
0
  6
Continuous
 62
     0
370
    30
100
AcDbEllipse
 10
333.460402
 20
467.262123
 30
0.0
 11
0.0
 21
1.099999999999994
 31
0.0
210
0.0
220
0.0
230
1.0
 40
0.984135
 41
0.0
 42
6.283185307179586
  0
ELLIPSE
  5
10B
330
7B
100
AcDbEntity
  8
0
  6
Continuous
 62
     0
370
    30
100
AcDbEllipse
 10
333.460402
 20
467.262123
 30
0.0
 11
0.0
 21
0.5
 31
0.0
210
0.0
220
0.0
230
1.0
 40
0.984135
 41
0.0
 42
6.283185307179586
  0
SPLINE
  5
10C
330
7B
100
AcDbEntity
  8
0
  6
Continuous
 62
     0
370
    30
100
AcDbSpline
210
0.0
220
0.0
230
1.0
 70
     8
 71
     3
 72
    15
 73
    11
 74
     0
 42
0.000000001
 43
0.0
 40
1.728069975107133
 40
1.728069975107133
 40
1.728069975107133
 40
1.728069975107133
 40
1.974972922359087
 40
2.476319206956774
 40
2.975076503666511
 40
3.459432967141108
 40
3.948521185457163
 40
4.455762508976157
 40
4.951479608907659
 40
5.192547229962213
 40
5.192547229962213
 40
5.192547229962213
 40
5.192547229962213
 10
337.0786276210878
 20
474.3417561860883
 30
0.0
 10
337.0061075004537
 20
474.3417561860847
 30
0.0
 10
336.7851917443698
 20
474.3140359822647
 30
0.0
 10
336.4394925706964
 20
474.1289614345934
 30
0.0
 10
336.1507265427846
 20
473.7316671373612
 30
0.0
 10
336.0478867363002
 20
473.2411724954303
 30
0.0
 10
336.1515983150106
 20
472.7476648553089
 30
0.0
 10
336.4444459351199
 20
472.350094152308
 30
0.0
 10
336.7902841595538
 20
472.1685364218265
 30
0.0
 10
337.0077898069885
 20
472.1418974807229
 30
0.0
 10
337.0785957918798
 20
472.1418974807762
 30
0.0
  0
SPLINE
  5
10D
330
7B
100
AcDbEntity
  8
0
  6
Continuous
 62
     0
370
    30
100
AcDbSpline
210
0.0
220
0.0
230
1.0
 70
     8
 71
     3
 72
    15
 73
    11
 74
     0
 42
0.000000001
 43
0.0
 40
1.728069973584178
 40
1.728069973584178
 40
1.728069973584178
 40
1.728069973584178
 40
1.974972922358978
 40
2.476319206956744
 40
2.975076503666465
 40
3.459432967141068
 40
3.948521185457135
 40
4.455762508976092
 40
4.951479608907661
 40
5.192547229962219
 40
5.192547229962219
 40
5.192547229962219
 40
5.192547229962219
 10
337.0786276224297
 20
468.3620565197119
 30
0.0
 10
337.006107501353
 20
468.3620565198211
 30
0.0
 10
336.785191744792
 20
468.3343363161142
 30
0.0
 10
336.4394925706965
 20
468.1492617682169
 30
0.0
 10
336.1507265427846
 20
467.7519674709848
 30
0.0
 10
336.0478867363002
 20
467.2614728290539
 30
0.0
 10
336.1515983150106
 20
466.7679651889325
 30
0.0
 10
336.4444459351199
 20
466.3703944859316
 30
0.0
 10
336.7902841595537
 20
466.18883675545
 30
0.0
 10
337.0077898069885
 20
466.1621978143465
 30
0.0
 10
337.0785957918797
 20
466.1621978143997
 30
0.0
  0
SPLINE
  5
10E
330
7B
100
AcDbEntity
  8
0
  6
Continuous
 62
     0
370
    30
100
AcDbSpline
210
0.0
220
0.0
230
1.0
 70
     8
 71
     3
 72
    12
 73
     8
 74
     0
 42
0.000000001
 43
0.0
 40
5.188630201227429
 40
5.188630201227429
 40
5.188630201227429
 40
5.188630201227429
 40
5.40114051251867
 40
5.890207176471006
 40
6.479220303257885
 40
6.771230775089871
 40
6.920748710764808
 40
6.920748710764808
 40
6.920748710764808
 40
6.920748710764808
 10
325.2088565382893
 20
466.1622018011329
 30
0.0
 10
325.2711408978374
 20
466.162200230443
 30
0.0
 10
325.4777022747792
 20
466.1845494624391
 30
0.0
 10
325.8399386334665
 20
466.3611957642259
 30
0.0
 10
326.1091708956259
 20
466.7310391040182
 30
0.0
 10
326.1942604158229
 20
467.0650645302279
 30
0.0
 10
326.2035630933777
 20
467.2123186678018
 30
0.0
 10
326.2035630933777
 20
467.2621231316546
 30
0.0
  0
SPLINE
  5
10F
330
7B
100
AcDbEntity
  8
0
  6
Continuous
 62
     0
370
    30
100
AcDbSpline
210
0.0
220
0.0
230
1.0
 70
     8
 71
     3
 72
    12
 73
     8
 74
     0
 42
0.000000001
 43
0.0
 40
0.0
 40
0.0
 40
0.0
 40
0.0
 40
0.1586814038138217
 40
0.4482716988407021
 40
1.036797247495066
 40
1.527332140943428
 40
1.732115549211329
 40
1.732115549211329
 40
1.732115549211329
 40
1.732115549211329
 10
326.2035630933777
 20
467.2621231316546
 30
0.0
 10
326.2035630933777
 20
467.3149757262054
 30
0.0
 10
326.1935351286416
 20
467.4644925405995
 30
0.0
 10
326.1057032194826
 20
467.7997924069948
 30
0.0
 10
325.8348416879133
 20
468.1674981475904
 30
0.0
 10
325.4735609273245
 20
468.3407110263375
 30
0.0
 10
325.2688761176582
 20
468.3620542170635
 30
0.0
 10
325.2088563798039
 20
468.3620505020519
 30
0.0
  0
SPLINE
  5
110
330
7B
100
AcDbEntity
  8
0
  6
Continuous
 62
     0
370
    30
100
AcDbSpline
210
0.0
220
0.0
230
1.0
 70
     8
 71
     3
 72
    12
 73
     8
 74
     0
 42
0.000000001
 43
0.0
 40
5.188630201227433
 40
5.188630201227433
 40
5.188630201227433
 40
5.188630201227433
 40
5.401140512518684
 40
5.890207176471012
 40
6.479220303257891
 40
6.771230775089876
 40
6.920748710764814
 40
6.920748710764814
 40
6.920748710764814
 40
6.920748710764814
 10
325.2088565382893
 20
472.1419014675095
 30
0.0
 10
325.2711408978374
 20
472.1418998968195
 30
0.0
 10
325.4777022747793
 20
472.1642491288155
 30
0.0
 10
325.8399386334665
 20
472.3408954306024
 30
0.0
 10
326.1091708956259
 20
472.7107387703947
 30
0.0
 10
326.1942604158229
 20
473.0447641966044
 30
0.0
 10
326.2035630933777
 20
473.1920183341782
 30
0.0
 10
326.2035630933777
 20
473.2418227980311
 30
0.0
  0
SPLINE
  5
111
330
7B
100
AcDbEntity
  8
0
  6
Continuous
 62
     0
370
    30
100
AcDbSpline
210
0.0
220
0.0
230
1.0
 70
     8
 71
     3
 72
    12
 73
     8
 74
     0
 42
0.000000001
 43
0.0
 40
0.0
 40
0.0
 40
0.0
 40
0.0
 40
0.1586814038138218
 40
0.4482716988407487
 40
1.036797247495065
 40
1.527332140943445
 40
1.73211554921133
 40
1.73211554921133
 40
1.73211554921133
 40
1.73211554921133
 10
326.2035630933777
 20
473.2418227980311
 30
0.0
 10
326.2035630933777
 20
473.2946753925819
 30
0.0
 10
326.1935351286416
 20
473.444192206976
 30
0.0
 10
326.1057032194826
 20
473.7794920733713
 30
0.0
 10
325.8348416879133
 20
474.147197813967
 30
0.0
 10
325.4735609273245
 20
474.3204106927139
 30
0.0
 10
325.2688761176582
 20
474.3417538834399
 30
0.0
 10
325.2088563798039
 20
474.3417501684283
 30
0.0
  0
SPLINE
  5
112
330
7B
100
AcDbEntity
  8
0
  6
Continuous
 62
     0
370
    30
100
AcDbSpline
210
0.0
220
0.0
230
1.0
 70
     8
 71
     3
 72
    12
 73
     8
 74
     0
 42
0.000000001
 43
0.0
 40
5.188630201227426
 40
5.188630201227426
 40
5.188630201227426
 40
5.188630201227426
 40
5.401140512518494
 40
5.89020717647105
 40
6.479220303257948
 40
6.771230775089871
 40
6.920748710764809
 40
6.920748710764809
 40
6.920748710764809
 40
6.920748710764809
 10
325.2088565382894
 20
478.2042676155398
 30
0.0
 10
325.2711408978374
 20
478.2042660448498
 30
0.0
 10
325.4777022747792
 20
478.2266152768458
 30
0.0
 10
325.8399386334665
 20
478.4032615786327
 30
0.0
 10
326.1091708956259
 20
478.773104918425
 30
0.0
 10
326.1942604158229
 20
479.1071303446348
 30
0.0
 10
326.2035630933777
 20
479.2543844822086
 30
0.0
 10
326.2035630933777
 20
479.3041889460614
 30
0.0
  0
SPLINE
  5
113
330
7B
100
AcDbEntity
  8
0
  6
Continuous
 62
     0
370
    30
100
AcDbSpline
210
0.0
220
0.0
230
1.0
 70
     8
 71
     3
 72
    12
 73
     8
 74
     0
 42
0.000000001
 43
0.0
 40
0.0
 40
0.0
 40
0.0
 40
0.0
 40
0.1586814038138218
 40
0.4482716988407023
 40
1.03679724749507
 40
1.527332140943363
 40
1.732115549211327
 40
1.732115549211327
 40
1.732115549211327
 40
1.732115549211327
 10
326.2035630933777
 20
479.3041889460614
 30
0.0
 10
326.2035630933777
 20
479.3570415406122
 30
0.0
 10
326.1935351286416
 20
479.5065583550063
 30
0.0
 10
326.1057032194826
 20
479.8418582214016
 30
0.0
 10
325.8348416879134
 20
480.2095639619972
 30
0.0
 10
325.4735609273245
 20
480.3827768407443
 30
0.0
 10
325.2688761176581
 20
480.4041200314703
 30
0.0
 10
325.2088563798038
 20
480.4041163164587
 30
0.0
  0
SPLINE
  5
114
330
7B
100
AcDbEntity
  8
0
  6
Continuous
 62
     0
370
    30
100
AcDbSpline
210
0.0
220
0.0
230
1.0
 70
     8
 71
     3
 72
    12
 73
     8
 74
     0
 42
0.000000001
 43
0.0
 40
5.188630201227425
 40
5.188630201227425
 40
5.188630201227425
 40
5.188630201227425
 40
5.401140512518755
 40
5.890207176471052
 40
6.47922030325779
 40
6.771230775089775
 40
6.920748710764684
 40
6.920748710764684
 40
6.920748710764684
 40
6.920748710764684
 10
325.2088565382894
 20
484.1705235782169
 30
0.0
 10
325.2711408978375
 20
484.170522007527
 30
0.0
 10
325.4777022747793
 20
484.1928712395231
 30
0.0
 10
325.8399386334665
 20
484.36951754131
 30
0.0
 10
326.1091708956259
 20
484.7393608811024
 30
0.0
 10
326.1942604158229
 20
485.073386307312
 30
0.0
 10
326.2035630933777
 20
485.2206404448858
 30
0.0
 10
326.2035630933777
 20
485.2704449087387
 30
0.0
  0
SPLINE
  5
115
330
7B
100
AcDbEntity
  8
0
  6
Continuous
 62
     0
370
    30
100
AcDbSpline
210
0.0
220
0.0
230
1.0
 70
     8
 71
     3
 72
    12
 73
     8
 74
     0
 42
0.000000001
 43
0.0
 40
0.0
 40
0.0
 40
0.0
 40
0.0
 40
0.1586814038138789
 40
0.4482716988407927
 40
1.036797247495121
 40
1.527332140943282
 40
1.732115549211332
 40
1.732115549211332
 40
1.732115549211332
 40
1.732115549211332
 10
326.2035630933777
 20
485.2704449087387
 30
0.0
 10
326.2035630933777
 20
485.3232975032895
 30
0.0
 10
326.1935351286416
 20
485.4728143176836
 30
0.0
 10
326.1057032194826
 20
485.8081141840789
 30
0.0
 10
325.8348416879133
 20
486.1758199246744
 30
0.0
 10
325.4735609273246
 20
486.3490328034216
 30
0.0
 10
325.2688761176582
 20
486.3703759941475
 30
0.0
 10
325.2088563798039
 20
486.3703722791359
 30
0.0
  0
SPLINE
  5
116
330
7B
100
AcDbEntity
  8
0
  6
Continuous
 62
     0
370
    30
100
AcDbSpline
210
0.0
220
0.0
230
1.0
 70
     8
 71
     3
 72
    12
 73
     8
 74
     0
 42
0.000000001
 43
0.0
 40
5.188630201227435
 40
5.188630201227435
 40
5.188630201227435
 40
5.188630201227435
 40
5.40114051251868
 40
5.890207176470982
 40
6.479220303257798
 40
6.771230775089755
 40
6.920748710764693
 40
6.920748710764693
 40
6.920748710764693
 40
6.920748710764693
 10
325.2088565382893
 20
490.153689398342
 30
0.0
 10
325.2711408978374
 20
490.153687827652
 30
0.0
 10
325.4777022747792
 20
490.176037059648
 30
0.0
 10
325.8399386334665
 20
490.3526833614349
 30
0.0
 10
326.1091708956259
 20
490.7225267012273
 30
0.0
 10
326.1942604158229
 20
491.0565521274369
 30
0.0
 10
326.2035630933777
 20
491.2038062650108
 30
0.0
 10
326.2035630933777
 20
491.2536107288636
 30
0.0
  0
SPLINE
  5
117
330
7B
100
AcDbEntity
  8
0
  6
Continuous
 62
     0
370
    30
100
AcDbSpline
210
0.0
220
0.0
230
1.0
 70
     8
 71
     3
 72
    12
 73
     8
 74
     0
 42
0.000000001
 43
0.0
 40
0.0
 40
0.0
 40
0.0
 40
0.0
 40
0.1586814038138509
 40
0.4482716988407029
 40
1.036797247495008
 40
1.527332140943433
 40
1.732115549211329
 40
1.732115549211329
 40
1.732115549211329
 40
1.732115549211329
 10
326.2035630933777
 20
491.2536107288636
 30
0.0
 10
326.2035630933777
 20
491.3064633234144
 30
0.0
 10
326.1935351286416
 20
491.4559801378086
 30
0.0
 10
326.1057032194826
 20
491.7912800042038
 30
0.0
 10
325.8348416879134
 20
492.1589857447995
 30
0.0
 10
325.4735609273246
 20
492.3321986235465
 30
0.0
 10
325.2688761176582
 20
492.3535418142725
 30
0.0
 10
325.2088563798039
 20
492.353538099261
 30
0.0
  0
SPLINE
  5
118
330
7B
100
AcDbEntity
  8
0
  6
Continuous
 62
     0
370
    30
100
AcDbSpline
210
0.0
220
0.0
230
1.0
 70
     8
 71
     3
 72
    12
 73
     8
 74
     0
 42
0.000000001
 43
0.0
 40
5.188630201227427
 40
5.188630201227427
 40
5.188630201227427
 40
5.188630201227427
 40
5.401140512518605
 40
5.890207176471067
 40
6.479220303257852
 40
6.771230775089777
 40
6.920748710764687
 40
6.920748710764687
 40
6.920748710764687
 40
6.920748710764687
 10
325.2088565382893
 20
496.1369122441606
 30
0.0
 10
325.2711408978374
 20
496.1369106734707
 30
0.0
 10
325.4777022747792
 20
496.1592599054667
 30
0.0
 10
325.8399386334665
 20
496.3359062072535
 30
0.0
 10
326.1091708956259
 20
496.7057495470459
 30
0.0
 10
326.1942604158229
 20
497.0397749732556
 30
0.0
 10
326.2035630933777
 20
497.1870291108295
 30
0.0
 10
326.2035630933777
 20
497.2368335746823
 30
0.0
  0
SPLINE
  5
119
330
7B
100
AcDbEntity
  8
0
  6
Continuous
 62
     0
370
    30
100
AcDbSpline
210
0.0
220
0.0
230
1.0
 70
     8
 71
     3
 72
    12
 73
     8
 74
     0
 42
0.000000001
 43
0.0
 40
0.0
 40
0.0
 40
0.0
 40
0.0
 40
0.1586814038139942
 40
0.4482716988408232
 40
1.036797247495199
 40
1.527332140943594
 40
1.732115549211329
 40
1.732115549211329
 40
1.732115549211329
 40
1.732115549211329
 10
326.2035630933777
 20
497.2368335746823
 30
0.0
 10
326.2035630933777
 20
497.2896861692332
 30
0.0
 10
326.1935351286416
 20
497.4392029836273
 30
0.0
 10
326.1057032194825
 20
497.7745028500226
 30
0.0
 10
325.8348416879132
 20
498.1422085906182
 30
0.0
 10
325.4735609273244
 20
498.3154214693652
 30
0.0
 10
325.2688761176582
 20
498.3367646600911
 30
0.0
 10
325.2088563798039
 20
498.3367609450795
 30
0.0
  0
SPLINE
  5
11A
330
7B
100
AcDbEntity
  8
0
  6
Continuous
 62
     0
370
    30
100
AcDbSpline
210
0.0
220
0.0
230
1.0
 70
     8
 71
     3
 72
    12
 73
     8
 74
     0
 42
0.000000001
 43
0.0
 40
5.188630201227429
 40
5.188630201227429
 40
5.188630201227429
 40
5.188630201227429
 40
5.401140512518747
 40
5.890207176471078
 40
6.479220303257832
 40
6.77123077508981
 40
6.920748710764691
 40
6.920748710764691
 40
6.920748710764691
 40
6.920748710764691
 10
325.2088565382894
 20
502.1879687066217
 30
0.0
 10
325.2711408978375
 20
502.1879671359318
 30
0.0
 10
325.4777022747793
 20
502.2103163679279
 30
0.0
 10
325.8399386334665
 20
502.3869626697147
 30
0.0
 10
326.1091708956259
 20
502.756806009507
 30
0.0
 10
326.1942604158229
 20
503.0908314357168
 30
0.0
 10
326.2035630933777
 20
503.2380855732906
 30
0.0
 10
326.2035630933777
 20
503.2878900371434
 30
0.0
  0
SPLINE
  5
11B
330
7B
100
AcDbEntity
  8
0
  6
Continuous
 62
     0
370
    30
100
AcDbSpline
210
0.0
220
0.0
230
1.0
 70
     8
 71
     3
 72
    12
 73
     8
 74
     0
 42
0.000000001
 43
0.0
 40
0.0
 40
0.0
 40
0.0
 40
0.0
 40
0.158681403813994
 40
0.4482716988408544
 40
1.036797247495199
 40
1.527332140943588
 40
1.732115549211329
 40
1.732115549211329
 40
1.732115549211329
 40
1.732115549211329
 10
326.2035630933777
 20
503.2878900371434
 30
0.0
 10
326.2035630933777
 20
503.3407426316943
 30
0.0
 10
326.1935351286416
 20
503.4902594460884
 30
0.0
 10
326.1057032194825
 20
503.8255593124838
 30
0.0
 10
325.8348416879132
 20
504.1932650530794
 30
0.0
 10
325.4735609273245
 20
504.3664779318264
 30
0.0
 10
325.2688761176582
 20
504.3878211225523
 30
0.0
 10
325.2088563798039
 20
504.3878174075407
 30
0.0
  0
SPLINE
  5
11C
330
7B
100
AcDbEntity
  8
0
  6
Continuous
 62
     0
370
    30
100
AcDbSpline
210
0.0
220
0.0
230
1.0
 70
     8
 71
     3
 72
    12
 73
     8
 74
     0
 42
0.000000001
 43
0.0
 40
5.188630201227427
 40
5.188630201227427
 40
5.188630201227427
 40
5.188630201227427
 40
5.401140512518745
 40
5.890207176471076
 40
6.47922030325783
 40
6.771230775089808
 40
6.920748710764689
 40
6.920748710764689
 40
6.920748710764689
 40
6.920748710764689
 10
325.2088565382894
 20
508.2352614456796
 30
0.0
 10
325.2711408978375
 20
508.2352598749897
 30
0.0
 10
325.4777022747793
 20
508.2576091069858
 30
0.0
 10
325.8399386334665
 20
508.4342554087726
 30
0.0
 10
326.1091708956259
 20
508.804098748565
 30
0.0
 10
326.1942604158229
 20
509.1381241747746
 30
0.0
 10
326.2035630933777
 20
509.2853783123485
 30
0.0
 10
326.2035630933777
 20
509.3351827762013
 30
0.0
  0
SPLINE
  5
11D
330
7B
100
AcDbEntity
  8
0
  6
Continuous
 62
     0
370
    30
100
AcDbSpline
210
0.0
220
0.0
230
1.0
 70
     8
 71
     3
 72
    12
 73
     8
 74
     0
 42
0.000000001
 43
0.0
 40
0.0
 40
0.0
 40
0.0
 40
0.0
 40
0.1586814038138218
 40
0.4482716988406376
 40
1.036797247495004
 40
1.527332140943423
 40
1.732115549211327
 40
1.732115549211327
 40
1.732115549211327
 40
1.732115549211327
 10
326.2035630933777
 20
509.3351827762013
 30
0.0
 10
326.2035630933777
 20
509.3880353707521
 30
0.0
 10
326.1935351286416
 20
509.5375521851462
 30
0.0
 10
326.1057032194826
 20
509.8728520515414
 30
0.0
 10
325.8348416879134
 20
510.2405577921371
 30
0.0
 10
325.4735609273246
 20
510.4137706708843
 30
0.0
 10
325.2688761176582
 20
510.4351138616102
 30
0.0
 10
325.2088563798039
 20
510.4351101465986
 30
0.0
  0
SPLINE
  5
11E
330
7B
100
AcDbEntity
  8
0
  6
Continuous
 62
     0
370
    30
100
AcDbSpline
210
0.0
220
0.0
230
1.0
 70
     8
 71
     3
 72
    12
 73
     8
 74
     0
 42
0.000000001
 43
0.0
 40
5.18863020122743
 40
5.18863020122743
 40
5.18863020122743
 40
5.18863020122743
 40
5.401140512518816
 40
5.890207176471052
 40
6.479220303257829
 40
6.771230775089778
 40
6.920748710764688
 40
6.920748710764688
 40
6.920748710764688
 40
6.920748710764688
 10
325.2088565382893
 20
514.2482019734913
 30
0.0
 10
325.2711408978375
 20
514.2482004028013
 30
0.0
 10
325.4777022747793
 20
514.2705496347975
 30
0.0
 10
325.8399386334665
 20
514.4471959365842
 30
0.0
 10
326.1091708956259
 20
514.8170392763766
 30
0.0
 10
326.1942604158229
 20
515.1510647025864
 30
0.0
 10
326.2035630933777
 20
515.2983188401602
 30
0.0
 10
326.2035630933777
 20
515.3481233040129
 30
0.0
  0
SPLINE
  5
11F
330
7B
100
AcDbEntity
  8
0
  6
Continuous
 62
     0
370
    30
100
AcDbSpline
210
0.0
220
0.0
230
1.0
 70
     8
 71
     3
 72
    12
 73
     8
 74
     0
 42
0.000000001
 43
0.0
 40
0.0
 40
0.0
 40
0.0
 40
0.0
 40
0.1586814038138793
 40
0.4482716988407022
 40
1.036797247495105
 40
1.527332140943538
 40
1.732115549211332
 40
1.732115549211332
 40
1.732115549211332
 40
1.732115549211332
 10
326.2035630933777
 20
515.3481233040129
 30
0.0
 10
326.2035630933777
 20
515.4009758985638
 30
0.0
 10
326.1935351286416
 20
515.5504927129577
 30
0.0
 10
326.1057032194826
 20
515.8857925793533
 30
0.0
 10
325.8348416879133
 20
516.2534983199489
 30
0.0
 10
325.4735609273245
 20
516.426711198696
 30
0.0
 10
325.2688761176582
 20
516.4480543894219
 30
0.0
 10
325.2088563798039
 20
516.4480506744104
 30
0.0
  0
SPLINE
  5
120
330
7B
100
AcDbEntity
  8
0
  6
Continuous
 62
     0
370
    30
100
AcDbSpline
210
0.0
220
0.0
230
1.0
 70
     8
 71
     3
 72
    12
 73
     8
 74
     0
 42
0.000000001
 43
0.0
 40
5.188630201226797
 40
5.188630201226797
 40
5.188630201226797
 40
5.188630201226797
 40
5.401140512518673
 40
5.890207176199289
 40
6.479220303257861
 40
6.771230775089784
 40
6.920748710764693
 40
6.920748710764693
 40
6.920748710764693
 40
6.920748710764693
 10
325.2088565382874
 20
520.0781802663109
 30
0.0
 10
325.2711408978356
 20
520.0781786956209
 30
0.0
 10
325.4777022746983
 20
520.1005279276081
 30
0.0
 10
325.8399386334148
 20
520.2771742293381
 30
0.0
 10
326.1091708956009
 20
520.6470175691079
 30
0.0
 10
326.1942604158231
 20
520.9810429954057
 30
0.0
 10
326.2035630933777
 20
521.1282971329795
 30
0.0
 10
326.2035630933777
 20
521.1781015968322
 30
0.0
  0
SPLINE
  5
121
330
7B
100
AcDbEntity
  8
0
  6
Continuous
 62
     0
370
    30
100
AcDbSpline
210
0.0
220
0.0
230
1.0
 70
     8
 71
     3
 72
    12
 73
     8
 74
     0
 42
0.000000001
 43
0.0
 40
0.0
 40
0.0
 40
0.0
 40
0.0
 40
0.1586814038139365
 40
0.4482716988408554
 40
1.036797247495104
 40
1.527332140943499
 40
1.732115549211325
 40
1.732115549211325
 40
1.732115549211325
 40
1.732115549211325
 10
326.2035630933777
 20
521.1781015968322
 30
0.0
 10
326.2035630933777
 20
521.2309541913831
 30
0.0
 10
326.1935351286416
 20
521.3804710057773
 30
0.0
 10
326.1057032194825
 20
521.7157708721725
 30
0.0
 10
325.8348416879132
 20
522.0834766127682
 30
0.0
 10
325.4735609273245
 20
522.2566894915152
 30
0.0
 10
325.2688761176581
 20
522.2780326822411
 30
0.0
 10
325.2088563798038
 20
522.2780289672296
 30
0.0
  0
SPLINE
  5
122
330
7B
100
AcDbEntity
  8
0
  6
Continuous
 62
     0
370
    30
100
AcDbSpline
210
0.0
220
0.0
230
1.0
 70
     8
 71
     3
 72
    12
 73
     8
 74
     0
 42
0.000000001
 43
0.0
 40
5.185728434725813
 40
5.185728434725813
 40
5.185728434725813
 40
5.185728434725813
 40
5.395898472563272
 40
5.88296969033087
 40
6.472590506568136
 40
6.765667448370106
 40
6.915180733350494
 40
6.915180733350494
 40
6.915180733350494
 40
6.915180733350494
 10
329.1520262687767
 20
520.0781796259066
 30
0.0
 10
329.221177092582
 20
520.0781754669428
 30
0.0
 10
329.4509013436482
 20
520.1002036416053
 30
0.0
 10
329.8508359965203
 20
520.2759482024256
 30
0.0
 10
330.1442883370226
 20
520.6460522541427
 30
0.0
 10
330.2366281247986
 20
520.9806907601792
 30
0.0
 10
330.2467082131569
 20
521.1282983311233
 30
0.0
 10
330.2467082131569
 20
521.1781015968322
 30
0.0
  0
SPLINE
  5
123
330
7B
100
AcDbEntity
  8
0
  6
Continuous
 62
     0
370
    30
100
AcDbSpline
210
0.0
220
0.0
230
1.0
 70
     8
 71
     3
 72
    12
 73
     8
 74
     0
 42
0.000000001
 43
0.0
 40
0.0
 40
0.0
 40
0.0
 40
0.0
 40
0.1600739048454702
 40
0.4499522951738449
 40
1.036130073884283
 40
1.524511898758956
 40
1.729449172832924
 40
1.729449172832924
 40
1.729449172832924
 40
1.729449172832924
 10
330.2467082131569
 20
521.1781015968322
 30
0.0
 10
330.2467082131569
 20
521.2314177075195
 30
0.0
 10
330.2357318992784
 20
521.3814965035415
 30
0.0
 10
330.1403188598699
 20
521.7165503537684
 30
0.0
 10
329.8462689385261
 20
522.0835761319754
 30
0.0
 10
329.4478806758968
 20
522.2566751953814
 30
0.0
 10
329.2194560585541
 20
522.2780338319179
 30
0.0
 10
329.1520266017794
 20
522.2780282976531
 30
0.0
  0
SPLINE
  5
124
330
7B
100
AcDbEntity
  8
0
  6
Continuous
 62
     0
370
    30
100
AcDbSpline
210
0.0
220
0.0
230
1.0
 70
     8
 71
     3
 72
    13
 73
     9
 74
     0
 42
0.000000001
 43
0.0
 40
0.9578955379792008
 40
0.9578955379792008
 40
0.9578955379792008
 40
0.9578955379792008
 40
0.9872873203035784
 40
1.287073356738777
 40
1.54950920146791
 40
1.811910941611751
 40
2.111832573423171
 40
2.183640337851286
 40
2.183640337851286
 40
2.183640337851286
 40
2.183640337851286
 10
328.9854003964391
 20
521.6487111151922
 30
0.0
 10
328.9763217623462
 20
521.6453925020019
 30
0.0
 10
328.8757628973138
 20
521.605156992769
 30
0.0
 10
328.7213474056574
 20
521.4719345349919
 30
0.0
 10
328.637750428974
 20
521.2003794118186
 30
0.0
 10
328.698428683297
 20
520.9225026028887
 30
0.0
 10
328.8513582580637
 20
520.7659045337696
 30
0.0
 10
328.9631857027974
 20
520.7155802978407
 30
0.0
 10
328.985375700994
 20
520.7074830667341
 30
0.0
  0
SPLINE
  5
125
330
7B
100
AcDbEntity
  8
0
  6
Continuous
 62
     0
370
    30
100
AcDbSpline
210
0.0
220
0.0
230
1.0
 70
     8
 71
     3
 72
    12
 73
     8
 74
     0
 42
0.000000001
 43
0.0
 40
5.185728434725813
 40
5.185728434725813
 40
5.185728434725813
 40
5.185728434725813
 40
5.395898472563329
 40
5.882969690330885
 40
6.47259050656814
 40
6.765667448370109
 40
6.915180733350497
 40
6.915180733350497
 40
6.915180733350497
 40
6.915180733350497
 10
329.1520262687767
 20
514.2482013330872
 30
0.0
 10
329.221177092582
 20
514.2481971741234
 30
0.0
 10
329.4509013436482
 20
514.270225348786
 30
0.0
 10
329.8508359965203
 20
514.4459699096063
 30
0.0
 10
330.1442883370226
 20
514.8160739613234
 30
0.0
 10
330.2366281247986
 20
515.1507124673599
 30
0.0
 10
330.2467082131569
 20
515.298320038304
 30
0.0
 10
330.2467082131569
 20
515.3481233040129
 30
0.0
  0
SPLINE
  5
126
330
7B
100
AcDbEntity
  8
0
  6
Continuous
 62
     0
370
    30
100
AcDbSpline
210
0.0
220
0.0
230
1.0
 70
     8
 71
     3
 72
    12
 73
     8
 74
     0
 42
0.000000001
 43
0.0
 40
0.0
 40
0.0
 40
0.0
 40
0.0
 40
0.1600739048454988
 40
0.4499522951737798
 40
1.036130073884278
 40
1.524511898758776
 40
1.729449172832926
 40
1.729449172832926
 40
1.729449172832926
 40
1.729449172832926
 10
330.2467082131569
 20
515.3481233040129
 30
0.0
 10
330.2467082131569
 20
515.4014394147002
 30
0.0
 10
330.2357318992784
 20
515.5515182107222
 30
0.0
 10
330.1403188598699
 20
515.8865720609492
 30
0.0
 10
329.8462689385262
 20
516.2535978391561
 30
0.0
 10
329.4478806758969
 20
516.426696902562
 30
0.0
 10
329.2194560585542
 20
516.4480555390986
 30
0.0
 10
329.1520266017795
 20
516.4480500048339
 30
0.0
  0
SPLINE
  5
127
330
7B
100
AcDbEntity
  8
0
  6
Continuous
 62
     0
370
    30
100
AcDbSpline
210
0.0
220
0.0
230
1.0
 70
     8
 71
     3
 72
    13
 73
     9
 74
     0
 42
0.000000001
 43
0.0
 40
0.9578955379791266
 40
0.9578955379791266
 40
0.9578955379791266
 40
0.9578955379791266
 40
0.9872873203035019
 40
1.287073356738675
 40
1.549509201467852
 40
1.811910941611655
 40
2.111832573423162
 40
2.183640337851224
 40
2.183640337851224
 40
2.183640337851224
 40
2.183640337851224
 10
328.9854003964392
 20
515.8187328223729
 30
0.0
 10
328.9763217623463
 20
515.8154142091826
 30
0.0
 10
328.8757628973138
 20
515.7751786999497
 30
0.0
 10
328.7213474056574
 20
515.6419562421727
 30
0.0
 10
328.637750428974
 20
515.3704011189994
 30
0.0
 10
328.698428683297
 20
515.0925243100695
 30
0.0
 10
328.8513582580636
 20
514.9359262409502
 30
0.0
 10
328.9631857027974
 20
514.8856020050214
 30
0.0
 10
328.9853757009939
 20
514.8775047739148
 30
0.0
  0
SPLINE
  5
128
330
7B
100
AcDbEntity
  8
0
  6
Continuous
 62
     0
370
    30
100
AcDbSpline
210
0.0
220
0.0
230
1.0
 70
     8
 71
     3
 72
    12
 73
     8
 74
     0
 42
0.000000001
 43
0.0
 40
5.185728434725941
 40
5.185728434725941
 40
5.185728434725941
 40
5.185728434725941
 40
5.395898472563272
 40
5.882969690597901
 40
6.472590506568149
 40
6.765667448370118
 40
6.915180733350507
 40
6.915180733350507
 40
6.915180733350507
 40
6.915180733350507
 10
329.1520262687771
 20
508.2352608052753
 30
0.0
 10
329.2211770925825
 20
508.2352566463115
 30
0.0
 10
329.4509013437363
 20
508.2572848209826
 30
0.0
 10
329.8508359965941
 20
508.4330293818577
 30
0.0
 10
330.1442883370467
 20
508.8031334335984
 30
0.0
 10
330.2366281247985
 20
509.1377719395481
 30
0.0
 10
330.2467082131569
 20
509.2853795104924
 30
0.0
 10
330.2467082131569
 20
509.3351827762013
 30
0.0
  0
SPLINE
  5
129
330
7B
100
AcDbEntity
  8
0
  6
Continuous
 62
     0
370
    30
100
AcDbSpline
210
0.0
220
0.0
230
1.0
 70
     8
 71
     3
 72
    12
 73
     8
 74
     0
 42
0.000000001
 43
0.0
 40
0.0
 40
0.0
 40
0.0
 40
0.0
 40
0.1600739048454702
 40
0.4499522951738449
 40
1.036130073884283
 40
1.524511898758956
 40
1.729449172832924
 40
1.729449172832924
 40
1.729449172832924
 40
1.729449172832924
 10
330.2467082131569
 20
509.3351827762013
 30
0.0
 10
330.2467082131569
 20
509.3884988868886
 30
0.0
 10
330.2357318992784
 20
509.5385776829106
 30
0.0
 10
330.1403188598699
 20
509.8736315331375
 30
0.0
 10
329.8462689385261
 20
510.2406573113444
 30
0.0
 10
329.4478806758968
 20
510.4137563747504
 30
0.0
 10
329.2194560585541
 20
510.4351150112869
 30
0.0
 10
329.1520266017794
 20
510.4351094770222
 30
0.0
  0
SPLINE
  5
12A
330
7B
100
AcDbEntity
  8
0
  6
Continuous
 62
     0
370
    30
100
AcDbSpline
210
0.0
220
0.0
230
1.0
 70
     8
 71
     3
 72
    13
 73
     9
 74
     0
 42
0.000000001
 43
0.0
 40
0.9578955379791577
 40
0.9578955379791577
 40
0.9578955379791577
 40
0.9578955379791577
 40
0.9872873203035798
 40
1.287073356738744
 40
1.549509201467884
 40
1.81191094161169
 40
2.111832573423118
 40
2.183640337851297
 40
2.183640337851297
 40
2.183640337851297
 40
2.183640337851297
 10
328.9854003964392
 20
509.8057922945611
 30
0.0
 10
328.9763217623462
 20
509.8024736813708
 30
0.0
 10
328.8757628973138
 20
509.762238172138
 30
0.0
 10
328.7213474056574
 20
509.6290157143609
 30
0.0
 10
328.637750428974
 20
509.3574605911878
 30
0.0
 10
328.698428683297
 20
509.0795837822577
 30
0.0
 10
328.8513582580637
 20
508.9229857131385
 30
0.0
 10
328.9631857027974
 20
508.8726614772097
 30
0.0
 10
328.985375700994
 20
508.8645642461031
 30
0.0
  0
SPLINE
  5
12B
330
7B
100
AcDbEntity
  8
0
  6
Continuous
 62
     0
370
    30
100
AcDbSpline
210
0.0
220
0.0
230
1.0
 70
     8
 71
     3
 72
    12
 73
     8
 74
     0
 42
0.000000001
 43
0.0
 40
5.185728434725934
 40
5.185728434725934
 40
5.185728434725934
 40
5.185728434725934
 40
5.395898472563335
 40
5.882969690597927
 40
6.472590506568143
 40
6.765667448370112
 40
6.915180733350501
 40
6.915180733350501
 40
6.915180733350501
 40
6.915180733350501
 10
329.1520262687771
 20
502.1879680662175
 30
0.0
 10
329.2211770925824
 20
502.1879639072538
 30
0.0
 10
329.4509013437363
 20
502.2099920819248
 30
0.0
 10
329.8508359965941
 20
502.3857366427999
 30
0.0
 10
330.1442883370467
 20
502.7558406945406
 30
0.0
 10
330.2366281247985
 20
503.0904792004902
 30
0.0
 10
330.2467082131569
 20
503.2380867714345
 30
0.0
 10
330.2467082131569
 20
503.2878900371434
 30
0.0
  0
SPLINE
  5
12C
330
7B
100
AcDbEntity
  8
0
  6
Continuous
 62
     0
370
    30
100
AcDbSpline
210
0.0
220
0.0
230
1.0
 70
     8
 71
     3
 72
    12
 73
     8
 74
     0
 42
0.000000001
 43
0.0
 40
0.0
 40
0.0
 40
0.0
 40
0.0
 40
0.1600739048454124
 40
0.4499522951736876
 40
1.036130073884137
 40
1.524511898758736
 40
1.729449172832924
 40
1.729449172832924
 40
1.729449172832924
 40
1.729449172832924
 10
330.2467082131569
 20
503.2878900371434
 30
0.0
 10
330.2467082131569
 20
503.3412061478306
 30
0.0
 10
330.2357318992784
 20
503.4912849438525
 30
0.0
 10
330.14031885987
 20
503.8263387940796
 30
0.0
 10
329.8462689385263
 20
504.1933645722864
 30
0.0
 10
329.447880675897
 20
504.3664636356925
 30
0.0
 10
329.2194560585542
 20
504.3878222722291
 30
0.0
 10
329.1520266017795
 20
504.3878167379643
 30
0.0
  0
SPLINE
  5
12D
330
7B
100
AcDbEntity
  8
0
  6
Continuous
 62
     0
370
    30
100
AcDbSpline
210
0.0
220
0.0
230
1.0
 70
     8
 71
     3
 72
    13
 73
     9
 74
     0
 42
0.000000001
 43
0.0
 40
0.9578955379791618
 40
0.9578955379791618
 40
0.9578955379791618
 40
0.9578955379791618
 40
0.9872873203033613
 40
1.287073356738703
 40
1.549509201467903
 40
1.81191094161168
 40
2.111832573423133
 40
2.183640337851307
 40
2.183640337851307
 40
2.183640337851307
 40
2.183640337851307
 10
328.9854003964392
 20
503.7584995555034
 30
0.0
 10
328.9763217623463
 20
503.755180942313
 30
0.0
 10
328.8757628973138
 20
503.7149454330802
 30
0.0
 10
328.7213474056574
 20
503.5817229753031
 30
0.0
 10
328.637750428974
 20
503.3101678521299
 30
0.0
 10
328.698428683297
 20
503.0322910431999
 30
0.0
 10
328.8513582580637
 20
502.8756929740807
 30
0.0
 10
328.9631857027974
 20
502.8253687381518
 30
0.0
 10
328.985375700994
 20
502.8172715070452
 30
0.0
  0
SPLINE
  5
12E
330
7B
100
AcDbEntity
  8
0
  6
Continuous
 62
     0
370
    30
100
AcDbSpline
210
0.0
220
0.0
230
1.0
 70
     8
 71
     3
 72
    12
 73
     8
 74
     0
 42
0.000000001
 43
0.0
 40
5.185728434725934
 40
5.185728434725934
 40
5.185728434725934
 40
5.185728434725934
 40
5.395898472563265
 40
5.882969690597894
 40
6.472590506568141
 40
6.765667448370111
 40
6.9151807333505
 40
6.9151807333505
 40
6.9151807333505
 40
6.9151807333505
 10
329.1520262687771
 20
496.1369116037563
 30
0.0
 10
329.2211770925825
 20
496.1369074447926
 30
0.0
 10
329.4509013437363
 20
496.1589356194637
 30
0.0
 10
329.8508359965941
 20
496.3346801803387
 30
0.0
 10
330.1442883370467
 20
496.7047842320794
 30
0.0
 10
330.2366281247985
 20
497.0394227380292
 30
0.0
 10
330.2467082131569
 20
497.1870303089734
 30
0.0
 10
330.2467082131569
 20
497.2368335746823
 30
0.0
  0
SPLINE
  5
12F
330
7B
100
AcDbEntity
  8
0
  6
Continuous
 62
     0
370
    30
100
AcDbSpline
210
0.0
220
0.0
230
1.0
 70
     8
 71
     3
 72
    12
 73
     8
 74
     0
 42
0.000000001
 43
0.0
 40
0.0
 40
0.0
 40
0.0
 40
0.0
 40
0.1600739048455273
 40
0.4499522951738101
 40
1.036130073884278
 40
1.524511898758771
 40
1.729449172832926
 40
1.729449172832926
 40
1.729449172832926
 40
1.729449172832926
 10
330.2467082131569
 20
497.2368335746823
 30
0.0
 10
330.2467082131569
 20
497.2901496853696
 30
0.0
 10
330.2357318992784
 20
497.4402284813915
 30
0.0
 10
330.1403188598699
 20
497.7752823316185
 30
0.0
 10
329.8462689385262
 20
498.1423081098254
 30
0.0
 10
329.4478806758969
 20
498.3154071732313
 30
0.0
 10
329.2194560585542
 20
498.3367658097679
 30
0.0
 10
329.1520266017794
 20
498.3367602755031
 30
0.0
  0
SPLINE
  5
130
330
7B
100
AcDbEntity
  8
0
  6
Continuous
 62
     0
370
    30
100
AcDbSpline
210
0.0
220
0.0
230
1.0
 70
     8
 71
     3
 72
    13
 73
     9
 74
     0
 42
0.000000001
 43
0.0
 40
0.9578955379792109
 40
0.9578955379792109
 40
0.9578955379792109
 40
0.9578955379792109
 40
0.9872873203035772
 40
1.287073356738909
 40
1.549509201467991
 40
1.811910941611751
 40
2.111832573423276
 40
2.183640337851235
 40
2.183640337851235
 40
2.183640337851235
 40
2.183640337851235
 10
328.9854003964391
 20
497.7074430930421
 30
0.0
 10
328.9763217623462
 20
497.7041244798518
 30
0.0
 10
328.8757628973137
 20
497.663888970619
 30
0.0
 10
328.7213474056573
 20
497.5306665128419
 30
0.0
 10
328.637750428974
 20
497.2591113896685
 30
0.0
 10
328.6984286832971
 20
496.9812345807387
 30
0.0
 10
328.8513582580637
 20
496.8246365116195
 30
0.0
 10
328.9631857027974
 20
496.7743122756906
 30
0.0
 10
328.985375700994
 20
496.766215044584
 30
0.0
  0
SPLINE
  5
131
330
7B
100
AcDbEntity
  8
0
  6
Continuous
 62
     0
370
    30
100
AcDbSpline
210
0.0
220
0.0
230
1.0
 70
     8
 71
     3
 72
    12
 73
     8
 74
     0
 42
0.000000001
 43
0.0
 40
5.185728385400178
 40
5.185728385400178
 40
5.185728385400178
 40
5.185728385400178
 40
5.396133087746628
 40
5.883200485687841
 40
6.472821503885427
 40
6.765840878163033
 40
6.91518070611143
 40
6.91518070611143
 40
6.91518070611143
 40
6.91518070611143
 10
329.1520262529145
 20
490.1536887755416
 30
0.0
 10
329.221254287369
 20
490.1536847183401
 30
0.0
 10
329.4510550239449
 20
490.1757451084845
 30
0.0
 10
329.8510254433073
 20
490.3516060424794
 30
0.0
 10
330.1443879376529
 20
490.7217550871094
 30
0.0
 10
330.2366451182458
 20
491.0563348516564
 30
0.0
 10
330.2467082131569
 20
491.2038651622719
 30
0.0
 10
330.2467082131569
 20
491.2536107288636
 30
0.0
  0
SPLINE
  5
132
330
7B
100
AcDbEntity
  8
0
  6
Continuous
 62
     0
370
    30
100
AcDbSpline
210
0.0
220
0.0
230
1.0
 70
     8
 71
     3
 72
    12
 73
     8
 74
     0
 42
0.000000001
 43
0.0
 40
0.0
 40
0.0
 40
0.0
 40
0.0
 40
0.1603065586549136
 40
0.4501870751515076
 40
1.036361582431962
 40
1.524743505623059
 40
1.729449123281372
 40
1.729449123281372
 40
1.729449123281372
 40
1.729449123281372
 10
330.2467082131569
 20
491.2536107288636
 30
0.0
 10
330.2467082131569
 20
491.3070042122357
 30
0.0
 10
330.2357101182474
 20
491.4571616542895
 30
0.0
 10
330.1402044189911
 20
491.792269698982
 30
0.0
 10
329.8460780345139
 20
492.1592328354066
 30
0.0
 10
329.4477277570726
 20
492.3322160045683
 30
0.0
 10
329.2193798518167
 20
492.3535430744678
 30
0.0
 10
329.1520266173205
 20
492.3535374469031
 30
0.0
  0
SPLINE
  5
133
330
7B
100
AcDbEntity
  8
0
  6
Continuous
 62
     0
370
    30
100
AcDbSpline
210
0.0
220
0.0
230
1.0
 70
     8
 71
     3
 72
    13
 73
     9
 74
     0
 42
0.000000001
 43
0.0
 40
0.9578953698160914
 40
0.9578953698160914
 40
0.9578953698160914
 40
0.9578953698160914
 40
0.9870542237657824
 40
1.286840144433431
 40
1.549275952337248
 40
1.811677695258884
 40
2.111599345169866
 40
2.183640257944923
 40
2.183640257944923
 40
2.183640257944923
 40
2.183640257944923
 10
328.985400651641
 20
491.7242201540887
 30
0.0
 10
328.9763939969272
 20
491.7209277997131
 30
0.0
 10
328.8758979153944
 20
491.6807444261732
 30
0.0
 10
328.7214818105861
 20
491.5476477870155
 30
0.0
 10
328.6377606586083
 20
491.2761325521201
 30
0.0
 10
328.6983118967653
 20
490.9982268544505
 30
0.0
 10
328.8512255164625
 20
490.8414985115119
 30
0.0
 10
328.9631135676409
 20
490.7911156705096
 30
0.0
 10
328.9853756440846
 20
490.7829921780001
 30
0.0
  0
SPLINE
  5
134
330
7B
100
AcDbEntity
  8
0
  6
Continuous
 62
     0
370
    30
100
AcDbSpline
210
0.0
220
0.0
230
1.0
 70
     8
 71
     3
 72
    12
 73
     8
 74
     0
 42
0.000000001
 43
0.0
 40
5.18572843472594
 40
5.18572843472594
 40
5.18572843472594
 40
5.18572843472594
 40
5.395898472563353
 40
5.882969690597927
 40
6.472590506568207
 40
6.765667448370178
 40
6.915180733350595
 40
6.915180733350595
 40
6.915180733350595
 40
6.915180733350595
 10
329.1520262687771
 20
484.1705229378127
 30
0.0
 10
329.2211770925825
 20
484.1705187788489
 30
0.0
 10
329.4509013437363
 20
484.19254695352
 30
0.0
 10
329.8508359965942
 20
484.3682915143951
 30
0.0
 10
330.1442883370467
 20
484.7383955661358
 30
0.0
 10
330.2366281247986
 20
485.0730340720855
 30
0.0
 10
330.2467082131569
 20
485.2206416430297
 30
0.0
 10
330.2467082131569
 20
485.2704449087387
 30
0.0
  0
SPLINE
  5
135
330
7B
100
AcDbEntity
  8
0
  6
Continuous
 62
     0
370
    30
100
AcDbSpline
210
0.0
220
0.0
230
1.0
 70
     8
 71
     3
 72
    12
 73
     8
 74
     0
 42
0.000000001
 43
0.0
 40
0.0
 40
0.0
 40
0.0
 40
0.0
 40
0.1600739048454121
 40
0.449952295173719
 40
1.036130073884235
 40
1.524511898758795
 40
1.729449172832926
 40
1.729449172832926
 40
1.729449172832926
 40
1.729449172832926
 10
330.2467082131569
 20
485.2704449087387
 30
0.0
 10
330.2467082131569
 20
485.3237610194259
 30
0.0
 10
330.2357318992784
 20
485.4738398154478
 30
0.0
 10
330.14031885987
 20
485.8088936656748
 30
0.0
 10
329.8462689385262
 20
486.1759194438818
 30
0.0
 10
329.447880675897
 20
486.3490185072877
 30
0.0
 10
329.2194560585542
 20
486.3703771438243
 30
0.0
 10
329.1520266017795
 20
486.3703716095595
 30
0.0
  0
SPLINE
  5
136
330
7B
100
AcDbEntity
  8
0
  6
Continuous
 62
     0
370
    30
100
AcDbSpline
210
0.0
220
0.0
230
1.0
 70
     8
 71
     3
 72
    13
 73
     9
 74
     0
 42
0.000000001
 43
0.0
 40
0.9578955379791352
 40
0.9578955379791352
 40
0.9578955379791352
 40
0.9578955379791352
 40
0.9872873203034982
 40
1.287073356738448
 40
1.549509201467856
 40
1.811910941611631
 40
2.111832573423131
 40
2.18364033785128
 40
2.18364033785128
 40
2.18364033785128
 40
2.18364033785128
 10
328.9854003964392
 20
485.7410544270985
 30
0.0
 10
328.9763217623463
 20
485.7377358139082
 30
0.0
 10
328.875762897314
 20
485.6975003046754
 30
0.0
 10
328.7213474056575
 20
485.5642778468983
 30
0.0
 10
328.6377504289739
 20
485.2927227237252
 30
0.0
 10
328.698428683297
 20
485.0148459147952
 30
0.0
 10
328.8513582580636
 20
484.8582478456759
 30
0.0
 10
328.9631857027974
 20
484.807923609747
 30
0.0
 10
328.985375700994
 20
484.7998263786404
 30
0.0
  0
SPLINE
  5
137
330
7B
100
AcDbEntity
  8
0
  6
Continuous
 62
     0
370
    30
100
AcDbSpline
210
0.0
220
0.0
230
1.0
 70
     8
 71
     3
 72
    12
 73
     8
 74
     0
 42
0.000000001
 43
0.0
 40
5.185728434725943
 40
5.185728434725943
 40
5.185728434725943
 40
5.185728434725943
 40
5.395898472563368
 40
5.882969690597843
 40
6.472590506568208
 40
6.765667448370178
 40
6.915180733350595
 40
6.915180733350595
 40
6.915180733350595
 40
6.915180733350595
 10
329.1520262687771
 20
478.2042669751355
 30
0.0
 10
329.2211770925825
 20
478.2042628161717
 30
0.0
 10
329.4509013437363
 20
478.2262909908428
 30
0.0
 10
329.8508359965942
 20
478.4020355517178
 30
0.0
 10
330.1442883370467
 20
478.7721396034584
 30
0.0
 10
330.2366281247985
 20
479.1067781094083
 30
0.0
 10
330.2467082131569
 20
479.2543856803525
 30
0.0
 10
330.2467082131569
 20
479.3041889460614
 30
0.0
  0
SPLINE
  5
138
330
7B
100
AcDbEntity
  8
0
  6
Continuous
 62
     0
370
    30
100
AcDbSpline
210
0.0
220
0.0
230
1.0
 70
     8
 71
     3
 72
    12
 73
     8
 74
     0
 42
0.000000001
 43
0.0
 40
0.0
 40
0.0
 40
0.0
 40
0.0
 40
0.1600739048453554
 40
0.4499522951737221
 40
1.036130073884158
 40
1.524511898758723
 40
1.729449172832926
 40
1.729449172832926
 40
1.729449172832926
 40
1.729449172832926
 10
330.2467082131569
 20
479.3041889460614
 30
0.0
 10
330.2467082131569
 20
479.3575050567486
 30
0.0
 10
330.2357318992784
 20
479.5075838527706
 30
0.0
 10
330.14031885987
 20
479.8426377029975
 30
0.0
 10
329.8462689385263
 20
480.2096634812045
 30
0.0
 10
329.447880675897
 20
480.3827625446104
 30
0.0
 10
329.2194560585542
 20
480.404121181147
 30
0.0
 10
329.1520266017794
 20
480.4041156468823
 30
0.0
  0
SPLINE
  5
139
330
7B
100
AcDbEntity
  8
0
  6
Continuous
 62
     0
370
    30
100
AcDbSpline
210
0.0
220
0.0
230
1.0
 70
     8
 71
     3
 72
    13
 73
     9
 74
     0
 42
0.000000001
 43
0.0
 40
0.9578955379791655
 40
0.9578955379791655
 40
0.9578955379791655
 40
0.9578955379791655
 40
0.9872873203034835
 40
1.287073356738634
 40
1.549509201467899
 40
1.811910941611713
 40
2.111832573423183
 40
2.183640337851246
 40
2.183640337851246
 40
2.183640337851246
 40
2.183640337851246
 10
328.9854003964392
 20
479.7747984644213
 30
0.0
 10
328.9763217623463
 20
479.771479851231
 30
0.0
 10
328.8757628973138
 20
479.7312443419981
 30
0.0
 10
328.7213474056574
 20
479.5980218842211
 30
0.0
 10
328.6377504289739
 20
479.3264667610479
 30
0.0
 10
328.698428683297
 20
479.0485899521178
 30
0.0
 10
328.8513582580637
 20
478.8919918829987
 30
0.0
 10
328.9631857027974
 20
478.8416676470698
 30
0.0
 10
328.985375700994
 20
478.8335704159632
 30
0.0
  0
SPLINE
  5
13A
330
7B
100
AcDbEntity
  8
0
  6
Continuous
 62
     0
370
    30
100
AcDbSpline
210
0.0
220
0.0
230
1.0
 70
     8
 71
     3
 72
    12
 73
     8
 74
     0
 42
0.000000001
 43
0.0
 40
5.18572843472594
 40
5.18572843472594
 40
5.18572843472594
 40
5.18572843472594
 40
5.395898472563272
 40
5.882969690597871
 40
6.472590506568207
 40
6.765667448370179
 40
6.915180733350596
 40
6.915180733350596
 40
6.915180733350596
 40
6.915180733350596
 10
329.1520262687771
 20
472.1419008271051
 30
0.0
 10
329.2211770925824
 20
472.1418966681413
 30
0.0
 10
329.4509013437363
 20
472.1639248428124
 30
0.0
 10
329.8508359965942
 20
472.3396694036875
 30
0.0
 10
330.1442883370467
 20
472.7097734554281
 30
0.0
 10
330.2366281247985
 20
473.044411961378
 30
0.0
 10
330.2467082131569
 20
473.1920195323221
 30
0.0
 10
330.2467082131569
 20
473.2418227980311
 30
0.0
  0
SPLINE
  5
13B
330
7B
100
AcDbEntity
  8
0
  6
Continuous
 62
     0
370
    30
100
AcDbSpline
210
0.0
220
0.0
230
1.0
 70
     8
 71
     3
 72
    12
 73
     8
 74
     0
 42
0.000000001
 43
0.0
 40
0.0
 40
0.0
 40
0.0
 40
0.0
 40
0.1600739048454271
 40
0.4499522951737833
 40
1.036130073884226
 40
1.524511898758727
 40
1.729449172832927
 40
1.729449172832927
 40
1.729449172832927
 40
1.729449172832927
 10
330.2467082131569
 20
473.2418227980311
 30
0.0
 10
330.2467082131569
 20
473.2951389087183
 30
0.0
 10
330.2357318992784
 20
473.4452177047402
 30
0.0
 10
330.1403188598699
 20
473.7802715549672
 30
0.0
 10
329.8462689385262
 20
474.1472973331742
 30
0.0
 10
329.447880675897
 20
474.3203963965801
 30
0.0
 10
329.2194560585542
 20
474.3417550331168
 30
0.0
 10
329.1520266017795
 20
474.341749498852
 30
0.0
  0
SPLINE
  5
13C
330
7B
100
AcDbEntity
  8
0
  6
Continuous
 62
     0
370
    30
100
AcDbSpline
210
0.0
220
0.0
230
1.0
 70
     8
 71
     3
 72
    13
 73
     9
 74
     0
 42
0.000000001
 43
0.0
 40
0.9578955379791938
 40
0.9578955379791938
 40
0.9578955379791938
 40
0.9578955379791938
 40
0.9872873203035846
 40
1.287073356738741
 40
1.549509201467968
 40
1.811910941611739
 40
2.111832573423186
 40
2.183640337851231
 40
2.183640337851231
 40
2.183640337851231
 40
2.183640337851231
 10
328.9854003964391
 20
473.712432316391
 30
0.0
 10
328.9763217623462
 20
473.7091137032006
 30
0.0
 10
328.8757628973138
 20
473.6688781939678
 30
0.0
 10
328.7213474056574
 20
473.5356557361907
 30
0.0
 10
328.6377504289739
 20
473.2641006130175
 30
0.0
 10
328.6984286832971
 20
472.9862238040876
 30
0.0
 10
328.8513582580637
 20
472.8296257349683
 30
0.0
 10
328.9631857027974
 20
472.7793014990395
 30
0.0
 10
328.9853757009939
 20
472.7712042679329
 30
0.0
  0
SPLINE
  5
13D
330
7B
100
AcDbEntity
  8
0
  6
Continuous
 62
     0
370
    30
100
AcDbSpline
210
0.0
220
0.0
230
1.0
 70
     8
 71
     3
 72
    12
 73
     8
 74
     0
 42
0.000000001
 43
0.0
 40
5.18572843472594
 40
5.18572843472594
 40
5.18572843472594
 40
5.18572843472594
 40
5.395898472563272
 40
5.882969690597871
 40
6.472590506568207
 40
6.765667448370179
 40
6.915180733350596
 40
6.915180733350596
 40
6.915180733350596
 40
6.915180733350596
 10
329.1520262687771
 20
466.1622011607287
 30
0.0
 10
329.2211770925824
 20
466.1621970017649
 30
0.0
 10
329.4509013437363
 20
466.184225176436
 30
0.0
 10
329.8508359965942
 20
466.359969737311
 30
0.0
 10
330.1442883370467
 20
466.7300737890516
 30
0.0
 10
330.2366281247985
 20
467.0647122950015
 30
0.0
 10
330.2467082131569
 20
467.2123198659457
 30
0.0
 10
330.2467082131569
 20
467.2621231316546
 30
0.0
  0
SPLINE
  5
13E
330
7B
100
AcDbEntity
  8
0
  6
Continuous
 62
     0
370
    30
100
AcDbSpline
210
0.0
220
0.0
230
1.0
 70
     8
 71
     3
 72
    12
 73
     8
 74
     0
 42
0.000000001
 43
0.0
 40
0.0
 40
0.0
 40
0.0
 40
0.0
 40
0.1600739048454271
 40
0.4499522951737833
 40
1.036130073884226
 40
1.524511898758727
 40
1.729449172832926
 40
1.729449172832926
 40
1.729449172832926
 40
1.729449172832926
 10
330.2467082131569
 20
467.2621231316546
 30
0.0
 10
330.2467082131569
 20
467.3154392423418
 30
0.0
 10
330.2357318992784
 20
467.4655180383638
 30
0.0
 10
330.1403188598699
 20
467.8005718885908
 30
0.0
 10
329.8462689385262
 20
468.1675976667977
 30
0.0
 10
329.447880675897
 20
468.3406967302037
 30
0.0
 10
329.2194560585542
 20
468.3620553667403
 30
0.0
 10
329.1520266017794
 20
468.3620498324755
 30
0.0
  0
SPLINE
  5
13F
330
7B
100
AcDbEntity
  8
0
  6
Continuous
 62
     0
370
    30
100
AcDbSpline
210
0.0
220
0.0
230
1.0
 70
     8
 71
     3
 72
    13
 73
     9
 74
     0
 42
0.000000001
 43
0.0
 40
0.9578955379791624
 40
0.9578955379791624
 40
0.9578955379791624
 40
0.9578955379791624
 40
0.9872873203035846
 40
1.287073356738741
 40
1.549509201467968
 40
1.811910941611739
 40
2.111832573423186
 40
2.183640337851257
 40
2.183640337851257
 40
2.183640337851257
 40
2.183640337851257
 10
328.9854003964392
 20
467.7327326500146
 30
0.0
 10
328.9763217623462
 20
467.7294140368242
 30
0.0
 10
328.8757628973137
 20
467.6891785275913
 30
0.0
 10
328.7213474056574
 20
467.5559560698142
 30
0.0
 10
328.6377504289739
 20
467.284400946641
 30
0.0
 10
328.6984286832971
 20
467.006524137711
 30
0.0
 10
328.8513582580636
 20
466.8499260685919
 30
0.0
 10
328.9631857027974
 20
466.799601832663
 30
0.0
 10
328.9853757009939
 20
466.7915046015564
 30
0.0
  0
SPLINE
  5
140
330
7B
100
AcDbEntity
  8
0
  6
Continuous
 62
     0
370
    30
100
AcDbSpline
210
0.0
220
0.0
230
1.0
 70
     8
 71
     3
 72
    15
 73
    11
 74
     0
 42
0.000000001
 43
0.0
 40
1.728002226569824
 40
1.728002226569824
 40
1.728002226569824
 40
1.728002226569824
 40
1.972830449965994
 40
2.472192953081279
 40
2.971604805294397
 40
3.458029728956348
 40
3.947725661876984
 40
4.453076264775773
 40
4.946529306800465
 40
5.18711161771947
 40
5.18711161771947
 40
5.18711161771947
 40
5.18711161771947
 10
333.1348763896231
 20
468.3620554169331
 30
0.0
 10
333.054275450627
 20
468.3620554169266
 30
0.0
 10
332.8089081177886
 20
468.3346343831086
 30
0.0
 10
332.4282694678797
 20
468.1502469695303
 30
0.0
 10
332.1136670705095
 20
467.7523292769058
 30
0.0
 10
332.0027928736631
 20
467.2605615276793
 30
0.0
 10
332.1152853534975
 20
466.7669049304469
 30
0.0
 10
332.4333538574497
 20
466.3699418352001
 30
0.0
 10
332.8136297242231
 20
466.1887655890476
 30
0.0
 10
333.0556455294824
 20
466.1621997564246
 30
0.0
 10
333.1348486329876
 20
466.1621997561448
 30
0.0
  0
SPLINE
  5
141
330
7B
100
AcDbEntity
  8
0
  6
Continuous
 62
     0
370
    30
100
AcDbSpline
210
0.0
220
0.0
230
1.0
 70
     8
 71
     3
 72
    10
 73
     6
 74
     0
 42
0.000000001
 43
0.0
 40
2.524499758327843
 40
2.524499758327843
 40
2.524499758327843
 40
2.524499758327843
 40
2.599117460708486
 40
2.89892747410505
 40
3.141529912882203
 40
3.141529912882203
 40
3.141529912882203
 40
3.141529912882203
 10
333.29765409667
 20
466.7902625584774
 30
0.0
 10
333.3207965821068
 20
466.7984430914008
 30
0.0
 10
333.4338108696271
 20
466.8482210068011
 30
0.0
 10
333.5831025084056
 20
466.999941309016
 30
0.0
 10
333.6268473925732
 20
467.1820326697474
 30
0.0
 10
333.6268473925732
 20
467.2621231316546
 30
0.0
  0
SPLINE
  5
142
330
7B
100
AcDbEntity
  8
0
  6
Continuous
 62
     0
370
    30
100
AcDbSpline
210
0.0
220
0.0
230
1.0
 70
     8
 71
     3
 72
    10
 73
     6
 74
     0
 42
0.000000001
 43
0.0
 40
0.0
 40
0.0
 40
0.0
 40
0.0
 40
0.1998261531188672
 40
0.4997492971246692
 40
0.6170831000753649
 40
0.6170831000753649
 40
0.6170831000753649
 40
0.6170831000753649
 10
333.6268473925732
 20
467.2621231316546
 30
0.0
 10
333.6268473925732
 20
467.3282961305165
 30
0.0
 10
333.5939306825754
 20
467.4957211672939
 30
0.0
 10
333.458039685162
 20
467.6600006698924
 30
0.0
 10
333.3339988128938
 20
467.7210680768602
 30
0.0
 10
333.2976015559853
 20
467.7339649908749
 30
0.0
  0
SPLINE
  5
143
330
7B
100
AcDbEntity
  8
0
  6
Continuous
 62
     0
370
    30
100
AcDbSpline
210
0.0
220
0.0
230
1.0
 70
     8
 71
     3
 72
    15
 73
    11
 74
     0
 42
0.000000001
 43
0.0
 40
1.728002226569827
 40
1.728002226569827
 40
1.728002226569827
 40
1.728002226569827
 40
1.972830449965994
 40
2.472192953081279
 40
2.971604805294397
 40
3.458029728956348
 40
3.947725661876984
 40
4.453076264775773
 40
4.946529306800465
 40
5.187111621501801
 40
5.187111621501801
 40
5.187111621501801
 40
5.187111621501801
 10
333.1348763896231
 20
474.3417550833096
 30
0.0
 10
333.054275450627
 20
474.341755083303
 30
0.0
 10
332.8089081177886
 20
474.314334049485
 30
0.0
 10
332.4282694678797
 20
474.1299466359067
 30
0.0
 10
332.1136670705095
 20
473.7320289432822
 30
0.0
 10
332.0027928736631
 20
473.2402611940557
 30
0.0
 10
332.1152853534975
 20
472.7466045968234
 30
0.0
 10
332.4333538574497
 20
472.3496415015765
 30
0.0
 10
332.8136297253835
 20
472.1684652548712
 30
0.0
 10
333.0556455319764
 20
472.1418994225273
 30
0.0
 10
333.1348486367232
 20
472.1418994225214
 30
0.0
  0
SPLINE
  5
144
330
7B
100
AcDbEntity
  8
0
  6
Continuous
 62
     0
370
    30
100
AcDbSpline
210
0.0
220
0.0
230
1.0
 70
     8
 71
     3
 72
    10
 73
     6
 74
     0
 42
0.000000001
 43
0.0
 40
2.524499758327873
 40
2.524499758327873
 40
2.524499758327873
 40
2.524499758327873
 40
2.599117460708486
 40
2.898927474105049
 40
3.141529912882203
 40
3.141529912882203
 40
3.141529912882203
 40
3.141529912882203
 10
333.2976540966701
 20
472.7699622248539
 30
0.0
 10
333.3207965821068
 20
472.7781427577772
 30
0.0
 10
333.4338108696271
 20
472.8279206731776
 30
0.0
 10
333.5831025084056
 20
472.9796409753924
 30
0.0
 10
333.6268473925732
 20
473.1617323361239
 30
0.0
 10
333.6268473925732
 20
473.2418227980311
 30
0.0
  0
SPLINE
  5
145
330
7B
100
AcDbEntity
  8
0
  6
Continuous
 62
     0
370
    30
100
AcDbSpline
210
0.0
220
0.0
230
1.0
 70
     8
 71
     3
 72
    10
 73
     6
 74
     0
 42
0.000000001
 43
0.0
 40
0.0
 40
0.0
 40
0.0
 40
0.0
 40
0.1998261531188673
 40
0.4997492971246693
 40
0.6170831000753363
 40
0.6170831000753363
 40
0.6170831000753363
 40
0.6170831000753363
 10
333.6268473925732
 20
473.2418227980311
 30
0.0
 10
333.6268473925732
 20
473.307995796893
 30
0.0
 10
333.5939306825754
 20
473.4754208336703
 30
0.0
 10
333.458039685162
 20
473.6397003362688
 30
0.0
 10
333.3339988128938
 20
473.7007677432366
 30
0.0
 10
333.2976015559853
 20
473.7136646572513
 30
0.0
  0
SPLINE
  5
146
330
7B
100
AcDbEntity
  8
0
  6
Continuous
 62
     0
370
    30
100
AcDbSpline
210
0.0
220
0.0
230
1.0
 70
     8
 71
     3
 72
    15
 73
    11
 74
     0
 42
0.000000001
 43
0.0
 40
1.72800221823833
 40
1.72800221823833
 40
1.72800221823833
 40
1.72800221823833
 40
1.972830449965989
 40
2.472192953081353
 40
2.971604805294451
 40
3.45802972895637
 40
3.947725661876995
 40
4.453076264775674
 40
4.946529306800349
 40
5.187111621904894
 40
5.187111621904894
 40
5.187111621904894
 40
5.187111621904894
 10
333.1348763978516
 20
480.4041212313399
 30
0.0
 10
333.0542754561209
 20
480.4041212319473
 30
0.0
 10
332.8089081203387
 20
480.3767001987505
 30
0.0
 10
332.4282694678797
 20
480.1923127839369
 30
0.0
 10
332.1136670705095
 20
479.7943950913125
 30
0.0
 10
332.0027928736631
 20
479.3026273420861
 30
0.0
 10
332.1152853534975
 20
478.8089707448537
 30
0.0
 10
332.4333538574496
 20
478.4120076496068
 30
0.0
 10
332.8136297255072
 20
478.2308314028426
 30
0.0
 10
333.0556455322422
 20
478.2042655705285
 30
0.0
 10
333.1348486371213
 20
478.2042655705517
 30
0.0
  0
SPLINE
  5
147
330
7B
100
AcDbEntity
  8
0
  6
Continuous
 62
     0
370
    30
100
AcDbSpline
210
0.0
220
0.0
230
1.0
 70
     8
 71
     3
 72
    10
 73
     6
 74
     0
 42
0.000000001
 43
0.0
 40
2.524499758327859
 40
2.524499758327859
 40
2.524499758327859
 40
2.524499758327859
 40
2.599117460708273
 40
2.898927474105048
 40
3.1415299128822
 40
3.1415299128822
 40
3.1415299128822
 40
3.1415299128822
 10
333.2976540966701
 20
478.8323283728841
 30
0.0
 10
333.3207965821067
 20
478.8405089058075
 30
0.0
 10
333.4338108696271
 20
478.8902868212078
 30
0.0
 10
333.5831025084055
 20
479.0420071234226
 30
0.0
 10
333.6268473925732
 20
479.2240984841542
 30
0.0
 10
333.6268473925732
 20
479.3041889460614
 30
0.0
  0
SPLINE
  5
148
330
7B
100
AcDbEntity
  8
0
  6
Continuous
 62
     0
370
    30
100
AcDbSpline
210
0.0
220
0.0
230
1.0
 70
     8
 71
     3
 72
    10
 73
     6
 74
     0
 42
0.000000001
 43
0.0
 40
0.0
 40
0.0
 40
0.0
 40
0.0
 40
0.1998261531188672
 40
0.4997492971247006
 40
0.6170831000753718
 40
0.6170831000753718
 40
0.6170831000753718
 40
0.6170831000753718
 10
333.6268473925732
 20
479.3041889460614
 30
0.0
 10
333.6268473925732
 20
479.3703619449233
 30
0.0
 10
333.5939306825754
 20
479.5377869817008
 30
0.0
 10
333.458039685162
 20
479.7020664842993
 30
0.0
 10
333.3339988128937
 20
479.763133891267
 30
0.0
 10
333.2976015559852
 20
479.7760308052817
 30
0.0
  0
SPLINE
  5
149
330
7B
100
AcDbEntity
  8
0
  6
Continuous
 62
     0
370
    30
100
AcDbSpline
210
0.0
220
0.0
230
1.0
 70
     8
 71
     3
 72
    15
 73
    11
 74
     0
 42
0.000000001
 43
0.0
 40
1.728002218238334
 40
1.728002218238334
 40
1.728002218238334
 40
1.728002218238334
 40
1.972830449965991
 40
2.472192953081329
 40
2.971604805294399
 40
3.45802972895635
 40
3.947725661876907
 40
4.453076264776048
 40
4.946529306800477
 40
5.187111609071875
 40
5.187111609071875
 40
5.187111609071875
 40
5.187111609071875
 10
333.1348763978516
 20
486.3703771940171
 30
0.0
 10
333.0542754561209
 20
486.3703771946246
 30
0.0
 10
332.8089081203387
 20
486.3429561614279
 30
0.0
 10
332.4282694678797
 20
486.1585687466143
 30
0.0
 10
332.1136670705095
 20
485.7606510539898
 30
0.0
 10
332.0027928736631
 20
485.2688833047633
 30
0.0
 10
332.1152853534975
 20
484.7752267075309
 30
0.0
 10
332.4333538574497
 20
484.3782636122839
 30
0.0
 10
332.8136297215698
 20
484.1970873673957
 30
0.0
 10
333.05564552378
 20
484.1705215341347
 30
0.0
 10
333.1348486244468
 20
484.170521533229
 30
0.0
  0
SPLINE
  5
14A
330
7B
100
AcDbEntity
  8
0
  6
Continuous
 62
     0
370
    30
100
AcDbSpline
210
0.0
220
0.0
230
1.0
 70
     8
 71
     3
 72
    10
 73
     6
 74
     0
 42
0.000000001
 43
0.0
 40
2.524499758327849
 40
2.524499758327849
 40
2.524499758327849
 40
2.524499758327849
 40
2.599117460708325
 40
2.898927474104918
 40
3.141529912882202
 40
3.141529912882202
 40
3.141529912882202
 40
3.141529912882202
 10
333.29765409667
 20
484.7985843355615
 30
0.0
 10
333.3207965821067
 20
484.8067648684848
 30
0.0
 10
333.433810869627
 20
484.8565427838851
 30
0.0
 10
333.5831025084055
 20
485.0082630861
 30
0.0
 10
333.6268473925732
 20
485.1903544468314
 30
0.0
 10
333.6268473925732
 20
485.2704449087387
 30
0.0
  0
SPLINE
  5
14B
330
7B
100
AcDbEntity
  8
0
  6
Continuous
 62
     0
370
    30
100
AcDbSpline
210
0.0
220
0.0
230
1.0
 70
     8
 71
     3
 72
    10
 73
     6
 74
     0
 42
0.000000001
 43
0.0
 40
0.0
 40
0.0
 40
0.0
 40
0.0
 40
0.1998261531188681
 40
0.4997492971247032
 40
0.6170831000753407
 40
0.6170831000753407
 40
0.6170831000753407
 40
0.6170831000753407
 10
333.6268473925732
 20
485.2704449087387
 30
0.0
 10
333.6268473925732
 20
485.3366179076005
 30
0.0
 10
333.5939306825754
 20
485.5040429443781
 30
0.0
 10
333.458039685162
 20
485.6683224469765
 30
0.0
 10
333.3339988128938
 20
485.7293898539443
 30
0.0
 10
333.2976015559854
 20
485.7422867679589
 30
0.0
  0
SPLINE
  5
14C
330
7B
100
AcDbEntity
  8
0
  6
Continuous
 62
     0
370
    30
100
AcDbSpline
210
0.0
220
0.0
230
1.0
 70
     8
 71
     3
 72
    15
 73
    11
 74
     0
 42
0.000000001
 43
0.0
 40
1.728002226230124
 40
1.728002226230124
 40
1.728002226230124
 40
1.728002226230124
 40
1.972830449965981
 40
2.472192953081291
 40
2.9716048052944
 40
3.458029728956321
 40
3.947725661877002
 40
4.453076264775831
 40
4.94652930680053
 40
5.187111621098301
 40
5.187111621098301
 40
5.187111621098301
 40
5.187111621098301
 10
333.1348763899585
 20
492.3535430141421
 30
0.0
 10
333.054275450851
 20
492.3535430141607
 30
0.0
 10
332.8089081178927
 20
492.3261219803679
 30
0.0
 10
332.4282694678797
 20
492.1417345667392
 30
0.0
 10
332.1136670705095
 20
491.7438168741148
 30
0.0
 10
332.0027928736631
 20
491.2520491248883
 30
0.0
 10
332.1152853534975
 20
490.7583925276559
 30
0.0
 10
332.4333538574497
 20
490.361429432409
 30
0.0
 10
332.8136297252598
 20
490.1802531857628
 30
0.0
 10
333.0556455317104
 20
490.153687353389
 30
0.0
 10
333.1348486363247
 20
490.1536873533539
 30
0.0
  0
SPLINE
  5
14D
330
7B
100
AcDbEntity
  8
0
  6
Continuous
 62
     0
370
    30
100
AcDbSpline
210
0.0
220
0.0
230
1.0
 70
     8
 71
     3
 72
    10
 73
     6
 74
     0
 42
0.000000001
 43
0.0
 40
2.524499758327818
 40
2.524499758327818
 40
2.524499758327818
 40
2.524499758327818
 40
2.599117460708375
 40
2.898927474105019
 40
3.141529912882207
 40
3.141529912882207
 40
3.141529912882207
 40
3.141529912882207
 10
333.29765409667
 20
490.7817501556864
 30
0.0
 10
333.3207965821067
 20
490.7899306886097
 30
0.0
 10
333.4338108696271
 20
490.8397086040101
 30
0.0
 10
333.5831025084055
 20
490.9914289062249
 30
0.0
 10
333.6268473925732
 20
491.1735202669564
 30
0.0
 10
333.6268473925732
 20
491.2536107288636
 30
0.0
  0
SPLINE
  5
14E
330
7B
100
AcDbEntity
  8
0
  6
Continuous
 62
     0
370
    30
100
AcDbSpline
210
0.0
220
0.0
230
1.0
 70
     8
 71
     3
 72
    10
 73
     6
 74
     0
 42
0.000000001
 43
0.0
 40
0.0
 40
0.0
 40
0.0
 40
0.0
 40
0.1998261531188671
 40
0.4997492971247006
 40
0.617083100075418
 40
0.617083100075418
 40
0.617083100075418
 40
0.617083100075418
 10
333.6268473925732
 20
491.2536107288636
 30
0.0
 10
333.6268473925732
 20
491.3197837277255
 30
0.0
 10
333.5939306825754
 20
491.487208764503
 30
0.0
 10
333.458039685162
 20
491.6514882671014
 30
0.0
 10
333.3339988128938
 20
491.7125556740692
 30
0.0
 10
333.2976015559852
 20
491.725452588084
 30
0.0
  0
SPLINE
  5
14F
330
7B
100
AcDbEntity
  8
0
  6
Continuous
 62
     0
370
    30
100
AcDbSpline
210
0.0
220
0.0
230
1.0
 70
     8
 71
     3
 72
    15
 73
    11
 74
     0
 42
0.000000001
 43
0.0
 40
1.728002218238337
 40
1.728002218238337
 40
1.728002218238337
 40
1.728002218238337
 40
1.972830449966175
 40
2.472192953081504
 40
2.971604805294584
 40
3.458029728956602
 40
3.947725661877279
 40
4.453076264775917
 40
4.946529306800566
 40
5.187111621098307
 40
5.187111621098307
 40
5.187111621098307
 40
5.187111621098307
 10
333.1348763978516
 20
498.3367658599607
 30
0.0
 10
333.0542754561209
 20
498.3367658605682
 30
0.0
 10
332.8089081203386
 20
498.3093448273714
 30
0.0
 10
332.4282694678795
 20
498.1249574125578
 30
0.0
 10
332.1136670705094
 20
497.7270397199333
 30
0.0
 10
332.0027928736631
 20
497.2352719707067
 30
0.0
 10
332.1152853534976
 20
496.7416153734744
 30
0.0
 10
332.4333538574498
 20
496.3446522782276
 30
0.0
 10
332.8136297252598
 20
496.1634760315814
 30
0.0
 10
333.0556455317104
 20
496.1369101992077
 30
0.0
 10
333.1348486363247
 20
496.1369101991726
 30
0.0
  0
SPLINE
  5
150
330
7B
100
AcDbEntity
  8
0
  6
Continuous
 62
     0
370
    30
100
AcDbSpline
210
0.0
220
0.0
230
1.0
 70
     8
 71
     3
 72
    10
 73
     6
 74
     0
 42
0.000000001
 43
0.0
 40
2.524499758327818
 40
2.524499758327818
 40
2.524499758327818
 40
2.524499758327818
 40
2.599117460708371
 40
2.89892747410492
 40
3.141529912882205
 40
3.141529912882205
 40
3.141529912882205
 40
3.141529912882205
 10
333.29765409667
 20
496.7649730015052
 30
0.0
 10
333.3207965821067
 20
496.7731535344285
 30
0.0
 10
333.433810869627
 20
496.8229314498288
 30
0.0
 10
333.5831025084055
 20
496.9746517520436
 30
0.0
 10
333.6268473925732
 20
497.156743112775
 30
0.0
 10
333.6268473925732
 20
497.2368335746823
 30
0.0
  0
SPLINE
  5
151
330
7B
100
AcDbEntity
  8
0
  6
Continuous
 62
     0
370
    30
100
AcDbSpline
210
0.0
220
0.0
230
1.0
 70
     8
 71
     3
 72
    10
 73
     6
 74
     0
 42
0.000000001
 43
0.0
 40
0.0
 40
0.0
 40
0.0
 40
0.0
 40
0.1998261531188071
 40
0.4997492971245837
 40
0.6170831000753154
 40
0.6170831000753154
 40
0.6170831000753154
 40
0.6170831000753154
 10
333.6268473925732
 20
497.2368335746823
 30
0.0
 10
333.6268473925732
 20
497.3030065735442
 30
0.0
 10
333.5939306825754
 20
497.4704316103216
 30
0.0
 10
333.458039685162
 20
497.6347111129201
 30
0.0
 10
333.3339988128938
 20
497.6957785198879
 30
0.0
 10
333.2976015559854
 20
497.7086754339027
 30
0.0
  0
SPLINE
  5
152
330
7B
100
AcDbEntity
  8
0
  6
Continuous
 62
     0
370
    30
100
AcDbSpline
210
0.0
220
0.0
230
1.0
 70
     8
 71
     3
 72
    15
 73
    11
 74
     0
 42
0.000000001
 43
0.0
 40
1.728002226230124
 40
1.728002226230124
 40
1.728002226230124
 40
1.728002226230124
 40
1.972830449965969
 40
2.472192953081283
 40
2.971604805294393
 40
3.458029728956345
 40
3.947725661877123
 40
4.453076264775832
 40
4.946529306800437
 40
5.18711160907187
 40
5.18711160907187
 40
5.18711160907187
 40
5.18711160907187
 10
333.1348763899586
 20
504.3878223224219
 30
0.0
 10
333.054275450851
 20
504.3878223224405
 30
0.0
 10
332.8089081178927
 20
504.3604012886477
 30
0.0
 10
332.4282694678797
 20
504.1760138750191
 30
0.0
 10
332.1136670705095
 20
503.7780961823946
 30
0.0
 10
332.0027928736631
 20
503.286328433168
 30
0.0
 10
332.1152853534975
 20
502.7926718359357
 30
0.0
 10
332.4333538574497
 20
502.3957087406888
 30
0.0
 10
332.8136297215697
 20
502.2145324958005
 30
0.0
 10
333.05564552378
 20
502.1879666625394
 30
0.0
 10
333.1348486244469
 20
502.1879666616337
 30
0.0
  0
SPLINE
  5
153
330
7B
100
AcDbEntity
  8
0
  6
Continuous
 62
     0
370
    30
100
AcDbSpline
210
0.0
220
0.0
230
1.0
 70
     8
 71
     3
 72
    10
 73
     6
 74
     0
 42
0.000000001
 43
0.0
 40
2.524499758327859
 40
2.524499758327859
 40
2.524499758327859
 40
2.524499758327859
 40
2.599117460708339
 40
2.898927474104957
 40
3.141529912882209
 40
3.141529912882209
 40
3.141529912882209
 40
3.141529912882209
 10
333.29765409667
 20
502.8160294639662
 30
0.0
 10
333.3207965821067
 20
502.8242099968895
 30
0.0
 10
333.433810869627
 20
502.8739879122899
 30
0.0
 10
333.5831025084055
 20
503.0257082145048
 30
0.0
 10
333.6268473925732
 20
503.2077995752362
 30
0.0
 10
333.6268473925732
 20
503.2878900371434
 30
0.0
  0
SPLINE
  5
154
330
7B
100
AcDbEntity
  8
0
  6
Continuous
 62
     0
370
    30
100
AcDbSpline
210
0.0
220
0.0
230
1.0
 70
     8
 71
     3
 72
    10
 73
     6
 74
     0
 42
0.000000001
 43
0.0
 40
0.0
 40
0.0
 40
0.0
 40
0.0
 40
0.1998261531188337
 40
0.4997492971247524
 40
0.6170831000753291
 40
0.6170831000753291
 40
0.6170831000753291
 40
0.6170831000753291
 10
333.6268473925732
 20
503.2878900371434
 30
0.0
 10
333.6268473925732
 20
503.3540630360053
 30
0.0
 10
333.5939306825754
 20
503.5214880727827
 30
0.0
 10
333.458039685162
 20
503.6857675753813
 30
0.0
 10
333.3339988128937
 20
503.746834982349
 30
0.0
 10
333.2976015559853
 20
503.7597318963637
 30
0.0
  0
SPLINE
  5
155
330
7B
100
AcDbEntity
  8
0
  6
Continuous
 62
     0
370
    30
100
AcDbSpline
210
0.0
220
0.0
230
1.0
 70
     8
 71
     3
 72
    15
 73
    11
 74
     0
 42
0.000000001
 43
0.0
 40
1.728002218239685
 40
1.728002218239685
 40
1.728002218239685
 40
1.728002218239685
 40
1.972830449966035
 40
2.472192953081363
 40
2.971604805294459
 40
3.458029728956463
 40
3.947725661877064
 40
4.453076264775818
 40
4.946529306800533
 40
5.187111621904894
 40
5.187111621904894
 40
5.187111621904894
 40
5.187111621904894
 10
333.1348763978502
 20
510.4351150614798
 30
0.0
 10
333.05427545612
 20
510.4351150620871
 30
0.0
 10
332.8089081203383
 20
510.4076940288903
 30
0.0
 10
332.4282694678796
 20
510.2233066140768
 30
0.0
 10
332.1136670705095
 20
509.8253889214524
 30
0.0
 10
332.0027928736631
 20
509.3336211722259
 30
0.0
 10
332.1152853534975
 20
508.8399645749935
 30
0.0
 10
332.4333538574497
 20
508.4430014797466
 30
0.0
 10
332.8136297255073
 20
508.2618252329825
 30
0.0
 10
333.0556455322423
 20
508.2352594006684
 30
0.0
 10
333.1348486371213
 20
508.2352594006916
 30
0.0
  0
SPLINE
  5
156
330
7B
100
AcDbEntity
  8
0
  6
Continuous
 62
     0
370
    30
100
AcDbSpline
210
0.0
220
0.0
230
1.0
 70
     8
 71
     3
 72
    10
 73
     6
 74
     0
 42
0.000000001
 43
0.0
 40
2.524499758327923
 40
2.524499758327923
 40
2.524499758327923
 40
2.524499758327923
 40
2.599117460708315
 40
2.89892747410485
 40
3.141529912882197
 40
3.141529912882197
 40
3.141529912882197
 40
3.141529912882197
 10
333.2976540966702
 20
508.863322203024
 30
0.0
 10
333.3207965821068
 20
508.8715027359474
 30
0.0
 10
333.433810869627
 20
508.9212806513477
 30
0.0
 10
333.5831025084055
 20
509.0730009535626
 30
0.0
 10
333.6268473925732
 20
509.255092314294
 30
0.0
 10
333.6268473925732
 20
509.3351827762013
 30
0.0
  0
SPLINE
  5
157
330
7B
100
AcDbEntity
  8
0
  6
Continuous
 62
     0
370
    30
100
AcDbSpline
210
0.0
220
0.0
230
1.0
 70
     8
 71
     3
 72
    10
 73
     6
 74
     0
 42
0.000000001
 43
0.0
 40
0.0
 40
0.0
 40
0.0
 40
0.0
 40
0.1998261531188057
 40
0.4997492971245872
 40
0.6170831000753445
 40
0.6170831000753445
 40
0.6170831000753445
 40
0.6170831000753445
 10
333.6268473925732
 20
509.3351827762013
 30
0.0
 10
333.6268473925732
 20
509.4013557750632
 30
0.0
 10
333.5939306825754
 20
509.5687808118406
 30
0.0
 10
333.458039685162
 20
509.7330603144391
 30
0.0
 10
333.3339988128938
 20
509.7941277214069
 30
0.0
 10
333.2976015559852
 20
509.8070246354216
 30
0.0
  0
SPLINE
  5
158
330
7B
100
AcDbEntity
  8
0
  6
Continuous
 62
     0
370
    30
100
AcDbSpline
210
0.0
220
0.0
230
1.0
 70
     8
 71
     3
 72
    15
 73
    11
 74
     0
 42
0.000000001
 43
0.0
 40
1.728002226230124
 40
1.728002226230124
 40
1.728002226230124
 40
1.728002226230124
 40
1.972830449965924
 40
2.472192953081311
 40
2.971604805294364
 40
3.458029728956319
 40
3.947725661876934
 40
4.453076264775742
 40
4.94652930680045
 40
5.187111621905012
 40
5.187111621905012
 40
5.187111621905012
 40
5.187111621905012
 10
333.1348763899587
 20
516.4480555892915
 30
0.0
 10
333.054275450851
 20
516.44805558931
 30
0.0
 10
332.8089081178927
 20
516.4206345555172
 30
0.0
 10
332.4282694678797
 20
516.2362471418885
 30
0.0
 10
332.1136670705095
 20
515.8383294492642
 30
0.0
 10
332.0027928736631
 20
515.3465617000377
 30
0.0
 10
332.1152853534975
 20
514.8529051028053
 30
0.0
 10
332.4333538574497
 20
514.4559420075584
 30
0.0
 10
332.8136297255072
 20
514.274765760794
 30
0.0
 10
333.0556455322424
 20
514.2481999284802
 30
0.0
 10
333.1348486371214
 20
514.2481999285035
 30
0.0
  0
SPLINE
  5
159
330
7B
100
AcDbEntity
  8
0
  6
Continuous
 62
     0
370
    30
100
AcDbSpline
210
0.0
220
0.0
230
1.0
 70
     8
 71
     3
 72
    10
 73
     6
 74
     0
 42
0.000000001
 43
0.0
 40
2.524499758327771
 40
2.524499758327771
 40
2.524499758327771
 40
2.524499758327771
 40
2.599117460708332
 40
2.898927474104832
 40
3.14152991288221
 40
3.14152991288221
 40
3.14152991288221
 40
3.14152991288221
 10
333.29765409667
 20
514.8762627308357
 30
0.0
 10
333.3207965821067
 20
514.8844432637591
 30
0.0
 10
333.4338108696269
 20
514.9342211791593
 30
0.0
 10
333.5831025084055
 20
515.0859414813742
 30
0.0
 10
333.6268473925732
 20
515.2680328421056
 30
0.0
 10
333.6268473925732
 20
515.3481233040129
 30
0.0
  0
SPLINE
  5
15A
330
7B
100
AcDbEntity
  8
0
  6
Continuous
 62
     0
370
    30
100
AcDbSpline
210
0.0
220
0.0
230
1.0
 70
     8
 71
     3
 72
    10
 73
     6
 74
     0
 42
0.000000001
 43
0.0
 40
0.0
 40
0.0
 40
0.0
 40
0.0
 40
0.1998261531188073
 40
0.499749297124599
 40
0.617083100075315
 40
0.617083100075315
 40
0.617083100075315
 40
0.617083100075315
 10
333.6268473925732
 20
515.3481233040129
 30
0.0
 10
333.6268473925732
 20
515.4142963028748
 30
0.0
 10
333.5939306825754
 20
515.5817213396523
 30
0.0
 10
333.458039685162
 20
515.7460008422507
 30
0.0
 10
333.3339988128939
 20
515.8070682492184
 30
0.0
 10
333.2976015559854
 20
515.8199651632333
 30
0.0
  0
SPLINE
  5
15B
330
7B
100
AcDbEntity
  8
0
  6
Continuous
 62
     0
370
    30
100
AcDbSpline
210
0.0
220
0.0
230
1.0
 70
     8
 71
     3
 72
    15
 73
    11
 74
     0
 42
0.000000001
 43
0.0
 40
1.728002226230128
 40
1.728002226230128
 40
1.728002226230128
 40
1.728002226230128
 40
1.972830449966035
 40
2.472192953081363
 40
2.971604805294459
 40
3.458029728956463
 40
3.947725661877064
 40
4.453076264775818
 40
4.946529306800533
 40
5.187111621098414
 40
5.187111621098414
 40
5.187111621098414
 40
5.187111621098414
 10
333.1348763899586
 20
522.2780338821109
 30
0.0
 10
333.054275450851
 20
522.2780338821294
 30
0.0
 10
332.8089081178926
 20
522.2506128483365
 30
0.0
 10
332.4282694678796
 20
522.0662254347078
 30
0.0
 10
332.1136670705095
 20
521.6683077420834
 30
0.0
 10
332.0027928736631
 20
521.1765399928569
 30
0.0
 10
332.1152853534975
 20
520.6828833956245
 30
0.0
 10
332.4333538574497
 20
520.2859203003776
 30
0.0
 10
332.8136297252598
 20
520.1047440537313
 30
0.0
 10
333.0556455317106
 20
520.0781782213579
 30
0.0
 10
333.1348486363249
 20
520.0781782213227
 30
0.0
  0
SPLINE
  5
15C
330
7B
100
AcDbEntity
  8
0
  6
Continuous
 62
     0
370
    30
100
AcDbSpline
210
0.0
220
0.0
230
1.0
 70
     8
 71
     3
 72
    10
 73
     6
 74
     0
 42
0.000000001
 43
0.0
 40
2.524446812806873
 40
2.524446812806873
 40
2.524446812806873
 40
2.524446812806873
 40
2.641780615757605
 40
2.941703759763387
 40
3.141529912882193
 40
3.141529912882193
 40
3.141529912882193
 40
3.141529912882193
 10
333.2976015559854
 20
520.706259737612
 30
0.0
 10
333.3339988128938
 20
520.7191566516267
 30
0.0
 10
333.4580396851621
 20
520.7802240585944
 30
0.0
 10
333.5939306825754
 20
520.944503561193
 30
0.0
 10
333.6268473925732
 20
521.1119285979704
 30
0.0
 10
333.6268473925732
 20
521.1781015968322
 30
0.0
  0
SPLINE
  5
15D
330
7B
100
AcDbEntity
  8
0
  6
Continuous
 62
     0
370
    30
100
AcDbSpline
210
0.0
220
0.0
230
1.0
 70
     8
 71
     3
 72
    10
 73
     6
 74
     0
 42
0.000000001
 43
0.0
 40
0.0
 40
0.0
 40
0.0
 40
0.0
 40
0.2426024387772842
 40
0.5424124521737665
 40
0.6170301545543548
 40
0.6170301545543548
 40
0.6170301545543548
 40
0.6170301545543548
 10
333.6268473925732
 20
521.1781015968322
 30
0.0
 10
333.6268473925732
 20
521.2581920587395
 30
0.0
 10
333.5831025084055
 20
521.4402834194709
 30
0.0
 10
333.433810869627
 20
521.5920037216858
 30
0.0
 10
333.3207965821067
 20
521.6417816370862
 30
0.0
 10
333.29765409667
 20
521.6499621700095
 30
0.0
  0
SPLINE
  5
15E
330
7B
100
AcDbEntity
  8
0
  6
Continuous
 62
     0
370
    30
100
AcDbSpline
210
0.0
220
0.0
230
1.0
 70
     8
 71
     3
 72
    15
 73
    11
 74
     0
 42
0.000000001
 43
0.0
 40
1.728069973582816
 40
1.728069973582816
 40
1.728069973582816
 40
1.728069973582816
 40
1.97497292235912
 40
2.476319206956834
 40
2.975076503666573
 40
3.459432967141168
 40
3.948521185457214
 40
4.455762508976162
 40
4.951479608907716
 40
5.192547229921936
 40
5.192547229921936
 40
5.192547229921936
 40
5.192547229921936
 10
337.078627622431
 20
522.2780349848895
 30
0.0
 10
337.0061075013538
 20
522.2780349849988
 30
0.0
 10
336.7851917447923
 20
522.250314781292
 30
0.0
 10
336.4394925706964
 20
522.0652402333945
 30
0.0
 10
336.1507265427846
 20
521.6679459361624
 30
0.0
 10
336.0478867363002
 20
521.1774512942316
 30
0.0
 10
336.1515983150107
 20
520.6839436541101
 30
0.0
 10
336.4444459351199
 20
520.2863729511092
 30
0.0
 10
336.7902841595427
 20
520.1048152206334
 30
0.0
 10
337.0077898069645
 20
520.0781762795272
 30
0.0
 10
337.078595791844
 20
520.0781762795774
 30
0.0
  0
SPLINE
  5
15F
330
7B
100
AcDbEntity
  8
0
  6
Continuous
 62
     0
370
    30
100
AcDbSpline
210
0.0
220
0.0
230
1.0
 70
     8
 71
     3
 72
    15
 73
    11
 74
     0
 42
0.000000001
 43
0.0
 40
1.728069973582815
 40
1.728069973582815
 40
1.728069973582815
 40
1.728069973582815
 40
1.974972922359046
 40
2.476319206956826
 40
2.975076503666572
 40
3.459432967141194
 40
3.948521185457275
 40
4.455762508976195
 40
4.95147960890772
 40
5.192547227696793
 40
5.192547227696793
 40
5.192547227696793
 40
5.192547227696793
 10
337.078627622431
 20
516.4480566920702
 30
0.0
 10
337.0061075013538
 20
516.4480566921795
 30
0.0
 10
336.7851917447923
 20
516.4203364884728
 30
0.0
 10
336.4394925706964
 20
516.2352619405752
 30
0.0
 10
336.1507265427845
 20
515.8379676433431
 30
0.0
 10
336.0478867363002
 20
515.3474730014121
 30
0.0
 10
336.1515983150107
 20
514.8539653612908
 30
0.0
 10
336.4444459351199
 20
514.4563946582898
 30
0.0
 10
336.7902841589242
 20
514.2748369281389
 30
0.0
 10
337.0077898056508
 20
514.2481979868687
 30
0.0
 10
337.0785957898834
 20
514.2481979867581
 30
0.0
  0
SPLINE
  5
160
330
7B
100
AcDbEntity
  8
0
  6
Continuous
 62
     0
370
    30
100
AcDbSpline
210
0.0
220
0.0
230
1.0
 70
     8
 71
     3
 72
    15
 73
    11
 74
     0
 42
0.000000001
 43
0.0
 40
1.728069973582817
 40
1.728069973582817
 40
1.728069973582817
 40
1.728069973582817
 40
1.97497292235912
 40
2.476319206956834
 40
2.975076503666573
 40
3.459432967141168
 40
3.948521185457214
 40
4.455762508976162
 40
4.951479608907716
 40
5.192547227696761
 40
5.192547227696761
 40
5.192547227696761
 40
5.192547227696761
 10
337.078627622431
 20
510.4351161642586
 30
0.0
 10
337.0061075013538
 20
510.435116164368
 30
0.0
 10
336.7851917447923
 20
510.4073959606611
 30
0.0
 10
336.4394925706964
 20
510.2223214127636
 30
0.0
 10
336.1507265427846
 20
509.8250271155314
 30
0.0
 10
336.0478867363002
 20
509.3345324736005
 30
0.0
 10
336.1515983150107
 20
508.8410248334791
 30
0.0
 10
336.4444459351199
 20
508.4434541304782
 30
0.0
 10
336.790284158924
 20
508.2618964003274
 30
0.0
 10
337.0077898056509
 20
508.235257459057
 30
0.0
 10
337.0785957898835
 20
508.2352574589463
 30
0.0
  0
SPLINE
  5
161
330
7B
100
AcDbEntity
  8
0
  6
Continuous
 62
     0
370
    30
100
AcDbSpline
210
0.0
220
0.0
230
1.0
 70
     8
 71
     3
 72
    15
 73
    11
 74
     0
 42
0.000000001
 43
0.0
 40
1.728069973582817
 40
1.728069973582817
 40
1.728069973582817
 40
1.728069973582817
 40
1.97497292235901
 40
2.476319206956711
 40
2.975076503666485
 40
3.459432967141085
 40
3.948521185457153
 40
4.455762508976068
 40
4.951479608907691
 40
5.192547229921903
 40
5.192547229921903
 40
5.192547229921903
 40
5.192547229921903
 10
337.078627622431
 20
504.3878234252007
 30
0.0
 10
337.0061075013538
 20
504.38782342531
 30
0.0
 10
336.7851917447924
 20
504.3601032216032
 30
0.0
 10
336.4394925706965
 20
504.1750286737058
 30
0.0
 10
336.1507265427846
 20
503.7777343764736
 30
0.0
 10
336.0478867363002
 20
503.2872397345427
 30
0.0
 10
336.1515983150106
 20
502.7937320944213
 30
0.0
 10
336.4444459351199
 20
502.3961613914204
 30
0.0
 10
336.7902841595426
 20
502.2146036609448
 30
0.0
 10
337.0077898069646
 20
502.1879647198382
 30
0.0
 10
337.0785957918442
 20
502.1879647198886
 30
0.0
  0
SPLINE
  5
162
330
7B
100
AcDbEntity
  8
0
  6
Continuous
 62
     0
370
    30
100
AcDbSpline
210
0.0
220
0.0
230
1.0
 70
     8
 71
     3
 72
    15
 73
    11
 74
     0
 42
0.000000001
 43
0.0
 40
1.728069974954784
 40
1.728069974954784
 40
1.728069974954784
 40
1.728069974954784
 40
1.974972922359119
 40
2.476319206956878
 40
2.975076503666578
 40
3.459432967141255
 40
3.948521185457314
 40
4.455762508976271
 40
4.951479608907799
 40
5.192547229921905
 40
5.192547229921905
 40
5.192547229921905
 40
5.192547229921905
 10
337.078627621222
 20
498.3367669627396
 30
0.0
 10
337.0061075005436
 20
498.3367669627472
 30
0.0
 10
336.7851917444119
 20
498.3090467589385
 30
0.0
 10
336.4394925706964
 20
498.1239722112446
 30
0.0
 10
336.1507265427845
 20
497.7266779140123
 30
0.0
 10
336.0478867363002
 20
497.2361832720815
 30
0.0
 10
336.1515983150107
 20
496.7426756319601
 30
0.0
 10
336.44444593512
 20
496.3451049289591
 30
0.0
 10
336.7902841595426
 20
496.1635471984836
 30
0.0
 10
337.0077898069646
 20
496.1369082573772
 30
0.0
 10
337.0785957918442
 20
496.1369082574274
 30
0.0
  0
SPLINE
  5
163
330
7B
100
AcDbEntity
  8
0
  6
Continuous
 62
     0
370
    30
100
AcDbSpline
210
0.0
220
0.0
230
1.0
 70
     8
 71
     3
 72
    15
 73
    11
 74
     0
 42
0.000000001
 43
0.0
 40
1.728069973585066
 40
1.728069973585066
 40
1.728069973585066
 40
1.728069973585066
 40
1.974972922359012
 40
2.476319206956751
 40
2.975076503666478
 40
3.459432967141053
 40
3.948521185457148
 40
4.455762508976308
 40
4.951479608907687
 40
5.192547229921896
 40
5.192547229921896
 40
5.192547229921896
 40
5.192547229921896
 10
337.0786276224291
 20
492.3535441169209
 30
0.0
 10
337.0061075013525
 20
492.35354411703
 30
0.0
 10
336.7851917447917
 20
492.3258239133231
 30
0.0
 10
336.4394925706965
 20
492.140749365426
 30
0.0
 10
336.1507265427846
 20
491.7434550681937
 30
0.0
 10
336.0478867363002
 20
491.252960426263
 30
0.0
 10
336.1515983150106
 20
490.7594527861414
 30
0.0
 10
336.4444459351199
 20
490.3618820831405
 30
0.0
 10
336.7902841595426
 20
490.180324352665
 30
0.0
 10
337.0077898069647
 20
490.1536854115585
 30
0.0
 10
337.0785957918442
 20
490.1536854116088
 30
0.0
  0
SPLINE
  5
164
330
7B
100
AcDbEntity
  8
0
  6
Continuous
 62
     0
370
    30
100
AcDbSpline
210
0.0
220
0.0
230
1.0
 70
     8
 71
     3
 72
    15
 73
    11
 74
     0
 42
0.000000001
 43
0.0
 40
1.728069973585065
 40
1.728069973585065
 40
1.728069973585065
 40
1.728069973585065
 40
1.97497292235902
 40
2.476319206956743
 40
2.975076503666479
 40
3.459432967141137
 40
3.948521185457184
 40
4.45576250897616
 40
4.951479608907699
 40
5.192547229921895
 40
5.192547229921895
 40
5.192547229921895
 40
5.192547229921895
 10
337.0786276224291
 20
486.3703782967959
 30
0.0
 10
337.0061075013525
 20
486.3703782969051
 30
0.0
 10
336.7851917447917
 20
486.3426580931981
 30
0.0
 10
336.4394925706965
 20
486.157583545301
 30
0.0
 10
336.1507265427846
 20
485.7602892480687
 30
0.0
 10
336.0478867363002
 20
485.2697946061379
 30
0.0
 10
336.1515983150107
 20
484.7762869660165
 30
0.0
 10
336.4444459351199
 20
484.3787162630155
 30
0.0
 10
336.7902841595426
 20
484.1971585325399
 30
0.0
 10
337.0077898069646
 20
484.1705195914334
 30
0.0
 10
337.0785957918441
 20
484.1705195914837
 30
0.0
  0
SPLINE
  5
165
330
7B
100
AcDbEntity
  8
0
  6
Continuous
 62
     0
370
    30
100
AcDbSpline
210
0.0
220
0.0
230
1.0
 70
     8
 71
     3
 72
    15
 73
    11
 74
     0
 42
0.000000001
 43
0.0
 40
1.728069973585059
 40
1.728069973585059
 40
1.728069973585059
 40
1.728069973585059
 40
1.974972922359081
 40
2.476319206956755
 40
2.975076503666446
 40
3.45943296714108
 40
3.948521185457147
 40
4.455762508976168
 40
4.951479608907791
 40
5.192547230000844
 40
5.192547230000844
 40
5.192547230000844
 40
5.192547230000844
 10
337.0786276224291
 20
480.4041223341187
 30
0.0
 10
337.0061075013525
 20
480.4041223342278
 30
0.0
 10
336.7851917447917
 20
480.3764021305209
 30
0.0
 10
336.4394925706965
 20
480.1913275826238
 30
0.0
 10
336.1507265427846
 20
479.7940332853915
 30
0.0
 10
336.0478867363002
 20
479.3035386434607
 30
0.0
 10
336.1515983150106
 20
478.8100310033392
 30
0.0
 10
336.4444459351199
 20
478.4124603003383
 30
0.0
 10
336.7902841595645
 20
478.2309025698512
 30
0.0
 10
337.0077898070112
 20
478.2042636287505
 30
0.0
 10
337.0785957919137
 20
478.2042636288064
 30
0.0
  0
LINE
  5
166
330
7B
100
AcDbEntity
  8
0
  6
Continuous
 62
     0
370
    30
100
AcDbLine
 10
333.460402
 20
522.278102
 30
0.0
 11
333.134761
 21
522.278102
 31
0.0
  0
LINE
  5
167
330
7B
100
AcDbEntity
  8
0
  6
Continuous
 62
     0
370
    30
100
AcDbLine
 10
333.460402
 20
520.078102
 30
0.0
 11
333.134762
 21
520.078102
 31
0.0
  0
LINE
  5
168
330
7B
100
AcDbEntity
  8
0
  6
Continuous
 62
     0
370
    30
100
AcDbLine
 10
337.952924
 20
522.278102
 30
0.0
 11
337.078498
 21
522.278102
 31
0.0
  0
LINE
  5
169
330
7B
100
AcDbEntity
  8
0
  6
Continuous
 62
     0
370
    30
100
AcDbLine
 10
337.952924
 20
520.078102
 30
0.0
 11
337.0785
 21
520.078102
 31
0.0
  0
LINE
  5
16A
330
7B
100
AcDbEntity
  8
0
  6
Continuous
 62
     0
370
    30
100
AcDbLine
 10
328.819303
 20
522.278102
 30
0.0
 11
329.152027
 21
522.278102
 31
0.0
  0
LINE
  5
16B
330
7B
100
AcDbEntity
  8
0
  6
Continuous
 62
     0
370
    30
100
AcDbLine
 10
328.819303
 20
520.078102
 30
0.0
 11
329.152026
 21
520.078102
 31
0.0
  0
LINE
  5
16C
330
7B
100
AcDbEntity
  8
0
  6
Continuous
 62
     0
370
    30
100
AcDbLine
 10
324.329794
 20
522.278102
 30
0.0
 11
325.208856
 21
522.278102
 31
0.0
  0
LINE
  5
16D
330
7B
100
AcDbEntity
  8
0
  6
Continuous
 62
     0
370
    30
100
AcDbLine
 10
324.329794
 20
520.078102
 30
0.0
 11
325.208857
 21
520.078102
 31
0.0
  0
LINE
  5
16E
330
7B
100
AcDbEntity
  8
0
  6
Continuous
 62
     0
370
    30
100
AcDbLine
 10
324.329794
 20
516.448123
 30
0.0
 11
325.208856
 21
516.448123
 31
0.0
  0
LINE
  5
16F
330
7B
100
AcDbEntity
  8
0
  6
Continuous
 62
     0
370
    30
100
AcDbLine
 10
324.329794
 20
514.248123
 30
0.0
 11
325.208857
 21
514.248123
 31
0.0
  0
LINE
  5
170
330
7B
100
AcDbEntity
  8
0
  6
Continuous
 62
     0
370
    30
100
AcDbLine
 10
328.819303
 20
516.448123
 30
0.0
 11
329.152027
 21
516.448123
 31
0.0
  0
LINE
  5
171
330
7B
100
AcDbEntity
  8
0
  6
Continuous
 62
     0
370
    30
100
AcDbLine
 10
328.819303
 20
514.248123
 30
0.0
 11
329.152026
 21
514.248123
 31
0.0
  0
LINE
  5
172
330
7B
100
AcDbEntity
  8
0
  6
Continuous
 62
     0
370
    30
100
AcDbLine
 10
337.952924
 20
516.448123
 30
0.0
 11
337.078498
 21
516.448123
 31
0.0
  0
LINE
  5
173
330
7B
100
AcDbEntity
  8
0
  6
Continuous
 62
     0
370
    30
100
AcDbLine
 10
337.952924
 20
514.248123
 30
0.0
 11
337.0785
 21
514.248123
 31
0.0
  0
LINE
  5
174
330
7B
100
AcDbEntity
  8
0
  6
Continuous
 62
     0
370
    30
100
AcDbLine
 10
333.460402
 20
516.448123
 30
0.0
 11
333.134761
 21
516.448123
 31
0.0
  0
LINE
  5
175
330
7B
100
AcDbEntity
  8
0
  6
Continuous
 62
     0
370
    30
100
AcDbLine
 10
333.460402
 20
514.248123
 30
0.0
 11
333.134762
 21
514.248123
 31
0.0
  0
LINE
  5
176
330
7B
100
AcDbEntity
  8
0
  6
Continuous
 62
     0
370
    30
100
AcDbLine
 10
324.329794
 20
510.435183
 30
0.0
 11
325.208856
 21
510.435183
 31
0.0
  0
LINE
  5
177
330
7B
100
AcDbEntity
  8
0
  6
Continuous
 62
     0
370
    30
100
AcDbLine
 10
324.329794
 20
508.235183
 30
0.0
 11
325.208857
 21
508.235183
 31
0.0
  0
LINE
  5
178
330
7B
100
AcDbEntity
  8
0
  6
Continuous
 62
     0
370
    30
100
AcDbLine
 10
328.819303
 20
510.435183
 30
0.0
 11
329.152027
 21
510.435183
 31
0.0
  0
LINE
  5
179
330
7B
100
AcDbEntity
  8
0
  6
Continuous
 62
     0
370
    30
100
AcDbLine
 10
328.819303
 20
508.235183
 30
0.0
 11
329.152026
 21
508.235183
 31
0.0
  0
LINE
  5
17A
330
7B
100
AcDbEntity
  8
0
  6
Continuous
 62
     0
370
    30
100
AcDbLine
 10
337.952924
 20
510.435183
 30
0.0
 11
337.078498
 21
510.435183
 31
0.0
  0
LINE
  5
17B
330
7B
100
AcDbEntity
  8
0
  6
Continuous
 62
     0
370
    30
100
AcDbLine
 10
337.952924
 20
508.235183
 30
0.0
 11
337.0785
 21
508.235183
 31
0.0
  0
LINE
  5
17C
330
7B
100
AcDbEntity
  8
0
  6
Continuous
 62
     0
370
    30
100
AcDbLine
 10
333.460402
 20
510.435183
 30
0.0
 11
333.134761
 21
510.435183
 31
0.0
  0
LINE
  5
17D
330
7B
100
AcDbEntity
  8
0
  6
Continuous
 62
     0
370
    30
100
AcDbLine
 10
333.460402
 20
508.235183
 30
0.0
 11
333.134762
 21
508.235183
 31
0.0
  0
LINE
  5
17E
330
7B
100
AcDbEntity
  8
0
  6
Continuous
 62
     0
370
    30
100
AcDbLine
 10
324.329794
 20
504.38789
 30
0.0
 11
325.208856
 21
504.38789
 31
0.0
  0
LINE
  5
17F
330
7B
100
AcDbEntity
  8
0
  6
Continuous
 62
     0
370
    30
100
AcDbLine
 10
324.329794
 20
502.18789
 30
0.0
 11
325.208857
 21
502.18789
 31
0.0
  0
LINE
  5
180
330
7B
100
AcDbEntity
  8
0
  6
Continuous
 62
     0
370
    30
100
AcDbLine
 10
328.819303
 20
504.38789
 30
0.0
 11
329.152027
 21
504.38789
 31
0.0
  0
LINE
  5
181
330
7B
100
AcDbEntity
  8
0
  6
Continuous
 62
     0
370
    30
100
AcDbLine
 10
328.819303
 20
502.18789
 30
0.0
 11
329.152026
 21
502.18789
 31
0.0
  0
LINE
  5
182
330
7B
100
AcDbEntity
  8
0
  6
Continuous
 62
     0
370
    30
100
AcDbLine
 10
337.952924
 20
504.38789
 30
0.0
 11
337.078498
 21
504.38789
 31
0.0
  0
LINE
  5
183
330
7B
100
AcDbEntity
  8
0
  6
Continuous
 62
     0
370
    30
100
AcDbLine
 10
337.952924
 20
502.18789
 30
0.0
 11
337.0785
 21
502.18789
 31
0.0
  0
LINE
  5
184
330
7B
100
AcDbEntity
  8
0
  6
Continuous
 62
     0
370
    30
100
AcDbLine
 10
333.460402
 20
504.38789
 30
0.0
 11
333.134761
 21
504.38789
 31
0.0
  0
LINE
  5
185
330
7B
100
AcDbEntity
  8
0
  6
Continuous
 62
     0
370
    30
100
AcDbLine
 10
333.460402
 20
502.18789
 30
0.0
 11
333.134762
 21
502.18789
 31
0.0
  0
LINE
  5
186
330
7B
100
AcDbEntity
  8
0
  6
Continuous
 62
     0
370
    30
100
AcDbLine
 10
324.329794
 20
498.336834
 30
0.0
 11
325.208856
 21
498.336834
 31
0.0
  0
LINE
  5
187
330
7B
100
AcDbEntity
  8
0
  6
Continuous
 62
     0
370
    30
100
AcDbLine
 10
324.329794
 20
496.136834
 30
0.0
 11
325.208857
 21
496.136834
 31
0.0
  0
LINE
  5
188
330
7B
100
AcDbEntity
  8
0
  6
Continuous
 62
     0
370
    30
100
AcDbLine
 10
328.819303
 20
498.336834
 30
0.0
 11
329.152027
 21
498.336834
 31
0.0
  0
LINE
  5
189
330
7B
100
AcDbEntity
  8
0
  6
Continuous
 62
     0
370
    30
100
AcDbLine
 10
328.819303
 20
496.136834
 30
0.0
 11
329.152026
 21
496.136834
 31
0.0
  0
LINE
  5
18A
330
7B
100
AcDbEntity
  8
0
  6
Continuous
 62
     0
370
    30
100
AcDbLine
 10
337.952924
 20
498.336834
 30
0.0
 11
337.078498
 21
498.336834
 31
0.0
  0
LINE
  5
18B
330
7B
100
AcDbEntity
  8
0
  6
Continuous
 62
     0
370
    30
100
AcDbLine
 10
337.952924
 20
496.136834
 30
0.0
 11
337.0785
 21
496.136834
 31
0.0
  0
LINE
  5
18C
330
7B
100
AcDbEntity
  8
0
  6
Continuous
 62
     0
370
    30
100
AcDbLine
 10
333.460402
 20
498.336834
 30
0.0
 11
333.134761
 21
498.336834
 31
0.0
  0
LINE
  5
18D
330
7B
100
AcDbEntity
  8
0
  6
Continuous
 62
     0
370
    30
100
AcDbLine
 10
333.460402
 20
496.136834
 30
0.0
 11
333.134762
 21
496.136834
 31
0.0
  0
LINE
  5
18E
330
7B
100
AcDbEntity
  8
0
  6
Continuous
 62
     0
370
    30
100
AcDbLine
 10
324.329794
 20
492.353611
 30
0.0
 11
325.208856
 21
492.353611
 31
0.0
  0
LINE
  5
18F
330
7B
100
AcDbEntity
  8
0
  6
Continuous
 62
     0
370
    30
100
AcDbLine
 10
324.329794
 20
490.153611
 30
0.0
 11
325.208857
 21
490.153611
 31
0.0
  0
LINE
  5
190
330
7B
100
AcDbEntity
  8
0
  6
Continuous
 62
     0
370
    30
100
AcDbLine
 10
328.819303
 20
492.353611
 30
0.0
 11
329.152027
 21
492.353611
 31
0.0
  0
LINE
  5
191
330
7B
100
AcDbEntity
  8
0
  6
Continuous
 62
     0
370
    30
100
AcDbLine
 10
328.819303
 20
490.153611
 30
0.0
 11
329.152026
 21
490.153611
 31
0.0
  0
LINE
  5
192
330
7B
100
AcDbEntity
  8
0
  6
Continuous
 62
     0
370
    30
100
AcDbLine
 10
337.952924
 20
492.353611
 30
0.0
 11
337.078498
 21
492.353611
 31
0.0
  0
LINE
  5
193
330
7B
100
AcDbEntity
  8
0
  6
Continuous
 62
     0
370
    30
100
AcDbLine
 10
337.952924
 20
490.153611
 30
0.0
 11
337.0785
 21
490.153611
 31
0.0
  0
LINE
  5
194
330
7B
100
AcDbEntity
  8
0
  6
Continuous
 62
     0
370
    30
100
AcDbLine
 10
333.460402
 20
492.353611
 30
0.0
 11
333.134761
 21
492.353611
 31
0.0
  0
LINE
  5
195
330
7B
100
AcDbEntity
  8
0
  6
Continuous
 62
     0
370
    30
100
AcDbLine
 10
333.460402
 20
490.153611
 30
0.0
 11
333.134762
 21
490.153611
 31
0.0
  0
LINE
  5
196
330
7B
100
AcDbEntity
  8
0
  6
Continuous
 62
     0
370
    30
100
AcDbLine
 10
324.329794
 20
486.370445
 30
0.0
 11
325.208856
 21
486.370445
 31
0.0
  0
LINE
  5
197
330
7B
100
AcDbEntity
  8
0
  6
Continuous
 62
     0
370
    30
100
AcDbLine
 10
324.329794
 20
484.170445
 30
0.0
 11
325.208857
 21
484.170445
 31
0.0
  0
LINE
  5
198
330
7B
100
AcDbEntity
  8
0
  6
Continuous
 62
     0
370
    30
100
AcDbLine
 10
328.819303
 20
486.370445
 30
0.0
 11
329.152027
 21
486.370445
 31
0.0
  0
LINE
  5
199
330
7B
100
AcDbEntity
  8
0
  6
Continuous
 62
     0
370
    30
100
AcDbLine
 10
328.819303
 20
484.170445
 30
0.0
 11
329.152026
 21
484.170445
 31
0.0
  0
LINE
  5
19A
330
7B
100
AcDbEntity
  8
0
  6
Continuous
 62
     0
370
    30
100
AcDbLine
 10
337.952924
 20
486.370445
 30
0.0
 11
337.078498
 21
486.370445
 31
0.0
  0
LINE
  5
19B
330
7B
100
AcDbEntity
  8
0
  6
Continuous
 62
     0
370
    30
100
AcDbLine
 10
337.952924
 20
484.170445
 30
0.0
 11
337.0785
 21
484.170445
 31
0.0
  0
LINE
  5
19C
330
7B
100
AcDbEntity
  8
0
  6
Continuous
 62
     0
370
    30
100
AcDbLine
 10
333.460402
 20
486.370445
 30
0.0
 11
333.134761
 21
486.370445
 31
0.0
  0
LINE
  5
19D
330
7B
100
AcDbEntity
  8
0
  6
Continuous
 62
     0
370
    30
100
AcDbLine
 10
333.460402
 20
484.170445
 30
0.0
 11
333.134762
 21
484.170445
 31
0.0
  0
LINE
  5
19E
330
7B
100
AcDbEntity
  8
0
  6
Continuous
 62
     0
370
    30
100
AcDbLine
 10
324.329794
 20
480.404189
 30
0.0
 11
325.208856
 21
480.404189
 31
0.0
  0
LINE
  5
19F
330
7B
100
AcDbEntity
  8
0
  6
Continuous
 62
     0
370
    30
100
AcDbLine
 10
324.329794
 20
478.204189
 30
0.0
 11
325.208857
 21
478.204189
 31
0.0
  0
LINE
  5
1A0
330
7B
100
AcDbEntity
  8
0
  6
Continuous
 62
     0
370
    30
100
AcDbLine
 10
328.819303
 20
480.404189
 30
0.0
 11
329.152027
 21
480.404189
 31
0.0
  0
LINE
  5
1A1
330
7B
100
AcDbEntity
  8
0
  6
Continuous
 62
     0
370
    30
100
AcDbLine
 10
328.819303
 20
478.204189
 30
0.0
 11
329.152026
 21
478.204189
 31
0.0
  0
LINE
  5
1A2
330
7B
100
AcDbEntity
  8
0
  6
Continuous
 62
     0
370
    30
100
AcDbLine
 10
337.952924
 20
480.404189
 30
0.0
 11
337.078498
 21
480.404189
 31
0.0
  0
LINE
  5
1A3
330
7B
100
AcDbEntity
  8
0
  6
Continuous
 62
     0
370
    30
100
AcDbLine
 10
337.952924
 20
478.204189
 30
0.0
 11
337.0785
 21
478.204189
 31
0.0
  0
LINE
  5
1A4
330
7B
100
AcDbEntity
  8
0
  6
Continuous
 62
     0
370
    30
100
AcDbLine
 10
333.460402
 20
480.404189
 30
0.0
 11
333.134761
 21
480.404189
 31
0.0
  0
LINE
  5
1A5
330
7B
100
AcDbEntity
  8
0
  6
Continuous
 62
     0
370
    30
100
AcDbLine
 10
333.460402
 20
478.204189
 30
0.0
 11
333.134762
 21
478.204189
 31
0.0
  0
LINE
  5
1A6
330
7B
100
AcDbEntity
  8
0
  6
Continuous
 62
     0
370
    30
100
AcDbLine
 10
324.329794
 20
474.341823
 30
0.0
 11
325.208856
 21
474.341823
 31
0.0
  0
LINE
  5
1A7
330
7B
100
AcDbEntity
  8
0
  6
Continuous
 62
     0
370
    30
100
AcDbLine
 10
324.329794
 20
472.141823
 30
0.0
 11
325.208857
 21
472.141823
 31
0.0
  0
LINE
  5
1A8
330
7B
100
AcDbEntity
  8
0
  6
Continuous
 62
     0
370
    30
100
AcDbLine
 10
328.819303
 20
474.341823
 30
0.0
 11
329.152027
 21
474.341823
 31
0.0
  0
LINE
  5
1A9
330
7B
100
AcDbEntity
  8
0
  6
Continuous
 62
     0
370
    30
100
AcDbLine
 10
328.819303
 20
472.141823
 30
0.0
 11
329.152026
 21
472.141823
 31
0.0
  0
LINE
  5
1AA
330
7B
100
AcDbEntity
  8
0
  6
Continuous
 62
     0
370
    30
100
AcDbLine
 10
337.952924
 20
474.341823
 30
0.0
 11
337.078498
 21
474.341823
 31
0.0
  0
LINE
  5
1AB
330
7B
100
AcDbEntity
  8
0
  6
Continuous
 62
     0
370
    30
100
AcDbLine
 10
337.952924
 20
472.141823
 30
0.0
 11
337.0785
 21
472.141823
 31
0.0
  0
LINE
  5
1AC
330
7B
100
AcDbEntity
  8
0
  6
Continuous
 62
     0
370
    30
100
AcDbLine
 10
333.460402
 20
474.341823
 30
0.0
 11
333.134761
 21
474.341823
 31
0.0
  0
LINE
  5
1AD
330
7B
100
AcDbEntity
  8
0
  6
Continuous
 62
     0
370
    30
100
AcDbLine
 10
333.460402
 20
472.141823
 30
0.0
 11
333.134762
 21
472.141823
 31
0.0
  0
LINE
  5
1AE
330
7B
100
AcDbEntity
  8
0
  6
Continuous
 62
     0
370
    30
100
AcDbLine
 10
324.329794
 20
468.362123
 30
0.0
 11
325.208856
 21
468.362123
 31
0.0
  0
LINE
  5
1AF
330
7B
100
AcDbEntity
  8
0
  6
Continuous
 62
     0
370
    30
100
AcDbLine
 10
324.329794
 20
466.162123
 30
0.0
 11
325.208857
 21
466.162123
 31
0.0
  0
LINE
  5
1B0
330
7B
100
AcDbEntity
  8
0
  6
Continuous
 62
     0
370
    30
100
AcDbLine
 10
328.819303
 20
468.362123
 30
0.0
 11
329.152027
 21
468.362123
 31
0.0
  0
LINE
  5
1B1
330
7B
100
AcDbEntity
  8
0
  6
Continuous
 62
     0
370
    30
100
AcDbLine
 10
328.819303
 20
466.162123
 30
0.0
 11
329.152026
 21
466.162123
 31
0.0
  0
LINE
  5
1B2
330
7B
100
AcDbEntity
  8
0
  6
Continuous
 62
     0
370
    30
100
AcDbLine
 10
337.952924
 20
468.362123
 30
0.0
 11
337.078498
 21
468.362123
 31
0.0
  0
LINE
  5
1B3
330
7B
100
AcDbEntity
  8
0
  6
Continuous
 62
     0
370
    30
100
AcDbLine
 10
337.952924
 20
466.162123
 30
0.0
 11
337.0785
 21
466.162123
 31
0.0
  0
LINE
  5
1B4
330
7B
100
AcDbEntity
  8
0
  6
Continuous
 62
     0
370
    30
100
AcDbLine
 10
333.460402
 20
468.362123
 30
0.0
 11
333.134761
 21
468.362123
 31
0.0
  0
LINE
  5
1B5
330
7B
100
AcDbEntity
  8
0
  6
Continuous
 62
     0
370
    30
100
AcDbLine
 10
333.460402
 20
466.162123
 30
0.0
 11
333.134762
 21
466.162123
 31
0.0
  0
LINE
  5
1B6
330
7B
100
AcDbEntity
  8
0
  6
Continuous
 62
     0
370
    30
100
AcDbLine
 10
340.142899
 20
339.601412
 30
0.0
 11
341.642899
 21
341.101412
 31
0.0
  0
LINE
  5
1B7
330
7B
100
AcDbEntity
  8
0
  6
Continuous
 62
     0
370
    30
100
AcDbLine
 10
322.187899
 20
339.601412
 30
0.0
 11
320.687899
 21
341.101412
 31
0.0
  0
LINE
  5
1B8
330
7B
100
AcDbEntity
  8
0
  6
Continuous
 62
     0
370
    30
100
AcDbLine
 10
341.642899
 20
349.601412
 30
0.0
 11
341.642899
 21
341.101412
 31
0.0
  0
LINE
  5
1B9
330
7B
100
AcDbEntity
  8
0
  6
Continuous
 62
     0
370
    30
100
AcDbLine
 10
320.687899
 20
349.601412
 30
0.0
 11
320.687899
 21
341.101412
 31
0.0
  0
LINE
  5
1BA
330
7B
100
AcDbEntity
  8
0
  6
Continuous
 62
     0
370
    30
100
AcDbLine
 10
319.665399
 20
349.601412
 30
0.0
 11
319.665399
 21
536.601412
 31
0.0
  0
LINE
  5
1BB
330
7B
100
AcDbEntity
  8
0
  6
Continuous
 62
     0
370
    30
100
AcDbLine
 10
342.665399
 20
349.601412
 30
0.0
 11
342.665399
 21
536.601412
 31
0.0
  0
LINE
  5
1BC
330
7B
100
AcDbEntity
  8
0
  6
Continuous
 62
     0
370
     0
100
AcDbLine
 10
340.480899
 20
339.939412
 30
0.0
 11
340.480899
 21
348.601412
 31
0.0
  0
LINE
  5
1BD
330
7B
100
AcDbEntity
  8
0
  6
Continuous
 62
     0
370
     0
100
AcDbLine
 10
321.849899
 20
339.939412
 30
0.0
 11
321.849899
 21
348.601412
 31
0.0
  0
LINE
  5
1BE
330
7B
100
AcDbEntity
  8
0
  6
Continuous
 62
     0
370
    30
100
AcDbLine
 10
341.642899
 20
348.601412
 30
0.0
 11
320.687899
 21
348.601412
 31
0.0
  0
ENDBLK
  5
1C0
330
7B
100
AcDbEntity
  8
0
100
AcDbBlockEnd
  0
BLOCK
  5
1D0
330
1C2
100
AcDbEntity
  8
0
100
AcDbBlockBegin
  2
b
 70
     0
 10
293.224152
 20
270.743408
 30
0.0
  3
b
  1

  0
CIRCLE
  5
1C3
330
1C2
100
AcDbEntity
  8
0
  6
Continuous
 62
     0
370
    30
100
AcDbCircle
 10
331.165399
 20
283.636718
 30
0.0
 40
11.5
  0
LINE
  5
1C4
330
1C2
100
AcDbEntity
  8
0
  6
Continuous
 62
     0
370
    30
100
AcDbLine
 10
334.54295
 20
271.101722
 30
0.0
 11
332.377853
 21
270.711396
 31
0.0
  0
LINE
  5
1C5
330
1C2
100
AcDbEntity
  8
0
  6
Continuous
 62
     0
370
    30
100
AcDbLine
 10
338.889323
 20
273.2024
 30
0.0
 11
337.016526
 21
272.048004
 31
0.0
  0
LINE
  5
1C6
330
1C2
100
AcDbEntity
  8
0
  6
Continuous
 62
     0
370
    30
100
AcDbLine
 10
329.901059
 20
270.716369
 30
0.0
 11
327.737547
 21
271.115384
 31
0.0
  0
LINE
  5
1C7
330
1C2
100
AcDbEntity
  8
0
  6
Continuous
 62
     0
370
    30
100
AcDbLine
 10
325.26366
 20
272.073696
 30
0.0
 11
323.395928
 21
273.23627
 31
0.0
  0
LINE
  5
1C8
330
1C2
100
AcDbEntity
  8
0
  6
Continuous
 62
     0
370
    30
100
AcDbLine
 10
325.26366
 20
272.073696
 30
0.0
 11
326.05004
 21
273.337054
 31
0.0
  0
LINE
  5
1C9
330
1C2
100
AcDbEntity
  8
0
  6
Continuous
 62
     0
370
    30
100
AcDbLine
 10
329.901059
 20
270.716369
 30
0.0
 11
330.170958
 21
272.179796
 31
0.0
  0
LINE
  5
1CA
330
1C2
100
AcDbEntity
  8
0
  6
Continuous
 62
     0
370
    30
100
AcDbLine
 10
338.889323
 20
273.2024
 30
0.0
 11
338.108474
 21
274.469184
 31
0.0
  0
LINE
  5
1CB
330
1C2
100
AcDbEntity
  8
0
  6
Continuous
 62
     0
370
    30
100
AcDbLine
 10
334.54295
 20
271.101722
 30
0.0
 11
334.278929
 21
272.566221
 31
0.0
  0
LINE
  5
1CC
330
1C2
100
AcDbEntity
  8
0
  6
Continuous
 62
     0
370
    30
100
AcDbLine
 10
332.377853
 20
270.711396
 30
0.0
 11
332.113832
 21
272.175895
 31
0.0
  0
LINE
  5
1CD
330
1C2
100
AcDbEntity
  8
0
  6
Continuous
 62
     0
370
    30
100
AcDbLine
 10
337.016526
 20
272.048004
 30
0.0
 11
336.235677
 21
273.314787
 31
0.0
  0
LINE
  5
1CE
330
1C2
100
AcDbEntity
  8
0
  6
Continuous
 62
     0
370
    30
100
AcDbLine
 10
327.737547
 20
271.115384
 30
0.0
 11
328.007446
 21
272.578811
 31
0.0
  0
LINE
  5
1CF
330
1C2
100
AcDbEntity
  8
0
  6
Continuous
 62
     0
370
    30
100
AcDbLine
 10
323.395928
 20
273.23627
 30
0.0
 11
324.182308
 21
274.499627
 31
0.0
  0
ENDBLK
  5
1D1
330
1C2
100
AcDbEntity
  8
0
100
AcDbBlockEnd
  0
ENDSEC
  0
SECTION
  2
ENTITIES
  0
INSERT
  5
1C1
330
1F
100
AcDbEntity
  8
0
  6
Continuous
 62
     7
370
     0
100
AcDbBlockReference
  2
a
 10
293.224152
 20
110.430603
 30
0.0
  0
INSERT
  5
1D2
330
1F
100
AcDbEntity
  8
0
  6
Continuous
 62
     7
370
     0
100
AcDbBlockReference
  2
b
 10
293.224152
 20
270.743408
 30
0.0
  0
ENDSEC
  0
SECTION
  2
OBJECTS
  0
DICTIONARY
  5
C
330
0
100
AcDbDictionary
281
     1
  3
ACAD_GROUP
350
D
  3
ACAD_LAYOUT
350
1A
  3
ACAD_MATERIAL
350
43
  3
ACAD_MLEADERSTYLE
350
6B
  3
ACAD_MLINESTYLE
350
17
  3
ACAD_PLOTSETTINGS
350
19
  3
ACAD_PLOTSTYLENAME
350
E
  3
ACAD_SCALELIST
350
47
  3
ACAD_TABLESTYLE
350
69
  3
ACAD_VISUALSTYLE
350
2A
  3
AcDbVariableDictionary
350
1D3
  0
DICTIONARY
  5
1DE
330
8
100
AcDbDictionary
280
     1
281
     1
  3
ACAD_XREC_ROUNDTRIP
360
1DF
  0
DICTIONARY
  5
D
102
{ACAD_REACTORS
330
C
102
}
330
C
100
AcDbDictionary
281
     1
  0
DICTIONARY
  5
1A
102
{ACAD_REACTORS
330
C
102
}
330
C
100
AcDbDictionary
281
     1
  3
Layout1
350
1E
  3
Layout2
350
26
  3
Model
350
22
  0
DICTIONARY
  5
43
102
{ACAD_REACTORS
330
C
102
}
330
C
100
AcDbDictionary
281
     1
  3
ByBlock
350
45
  3
ByLayer
350
44
  3
Global
350
46
  0
DICTIONARY
  5
6B
102
{ACAD_REACTORS
330
C
102
}
330
C
100
AcDbDictionary
281
     1
  3
Standard
350
6C
  0
DICTIONARY
  5
17
102
{ACAD_REACTORS
330
C
102
}
330
C
100
AcDbDictionary
281
     1
  3
Standard
350
18
  0
DICTIONARY
  5
19
102
{ACAD_REACTORS
330
C
102
}
330
C
100
AcDbDictionary
281
     1
  0
ACDBDICTIONARYWDFLT
  5
E
102
{ACAD_REACTORS
330
C
102
}
330
C
100
AcDbDictionary
281
     1
  3
Normal
350
F
100
AcDbDictionaryWithDefault
340
F
  0
DICTIONARY
  5
47
102
{ACAD_REACTORS
330
C
102
}
330
C
100
AcDbDictionary
281
     1
  3
A0
350
48
  3
A1
350
49
  3
A2
350
4A
  3
A3
350
4B
  3
A4
350
4C
  3
A5
350
4D
  3
A6
350
4E
  3
A7
350
4F
  3
A8
350
50
  3
A9
350
51
  3
B0
350
52
  3
B1
350
53
  3
B2
350
54
  3
B3
350
55
  3
B4
350
56
  3
B5
350
57
  3
B6
350
58
  3
B7
350
59
  3
B8
350
5A
  3
B9
350
5B
  3
C0
350
5C
  3
C1
350
5D
  3
C2
350
5E
  3
C3
350
5F
  3
C4
350
60
  3
C5
350
61
  3
C6
350
62
  3
C7
350
63
  3
C8
350
64
  3
C9
350
65
  3
D0
350
66
  3
D1
350
67
  3
D2
350
68
  0
DICTIONARY
  5
69
102
{ACAD_REACTORS
330
C
102
}
330
C
100
AcDbDictionary
281
     1
  3
Standard
350
6A
  0
DICTIONARY
  5
2A
102
{ACAD_REACTORS
330
C
102
}
330
C
100
AcDbDictionary
281
     1
  3
2dWireframe
350
2F
  3
Basic
350
32
  3
Brighten
350
36
  3
ColorChange
350
3A
  3
Conceptual
350
34
  3
Dim
350
35
  3
EdgeColorOff
350
3D
  3
Facepattern
350
39
  3
Flat
350
2B
  3
FlatWithEdges
350
2C
  3
Gouraud
350
2D
  3
GouraudWithEdges
350
2E
  3
Hidden
350
31
  3
JitterOff
350
3B
  3
Linepattern
350
38
  3
OverhangOff
350
3C
  3
Realistic
350
33
  3
Shaded
350
42
  3
Shaded with edges
350
41
  3
Shades of Gray
350
3E
  3
Sketchy
350
3F
  3
Thicken
350
37
  3
Wireframe
350
30
  3
X-Ray
350
40
  0
DICTIONARY
  5
1D3
102
{ACAD_REACTORS
330
C
102
}
330
C
100
AcDbDictionary
281
     1
  3
CANNOSCALE
350
1E0
  3
CENTEREXE
350
1DA
  3
CENTERLTYPEFILE
350
1DB
  3
CMLEADERSTYLE
350
1D5
  3
CTABLESTYLE
350
1D4
  3
DIMASSOC
350
1DC
  3
HIDETEXT
350
1DD
  3
MSLTSCALE
350
1E1
  3
PSOLHEIGHT
350
1D7
  3
PSOLWIDTH
350
1D6
  0
XRECORD
  5
1DF
102
{ACAD_REACTORS
330
1DE
102
}
330
1DE
100
AcDbXrecord
280
     1
102
VTR_0.000_0.000_1.000_1.000_VISUALSTYLE
340
2F
102
VTR_0.000_0.000_1.000_1.000_GRIDDISPLAY
 70
     3
102
VTR_0.000_0.000_1.000_1.000_GRIDMAJOR
 70
     5
102
VTR_0.000_0.000_1.000_1.000_DEFAULTLIGHTING
280
     1
102
VTR_0.000_0.000_1.000_1.000_DEFAULTLIGHTINGTYPE
 70
     1
102
VTR_0.000_0.000_1.000_1.000_BRIGHTNESS
141
0.0
102
VTR_0.000_0.000_1.000_1.000_CONTRAST
142
0.0
  0
LAYOUT
  5
1E
102
{ACAD_REACTORS
330
1A
102
}
330
1A
100
AcDbPlotSettings
  1

  2
none_device
  4

  6

 40
0.0
 41
0.0
 42
0.0
 43
0.0
 44
0.0
 45
0.0
 46
0.0
 47
0.0
 48
0.0
 49
0.0
140
0.0
141
0.0
142
1.0
143
1.0
 70
   688
 72
     1
 73
     0
 74
     5
  7

 75
    16
147
1.0
148
0.0
149
0.0
100
AcDbLayout
  1
Layout1
 70
     1
 71
     1
 10
0.0
 20
0.0
 11
420.0
 21
297.0
 12
0.0
 22
0.0
 32
0.0
 14
1.000000E+20
 24
1.000000E+20
 34
1.000000E+20
 15
-1.000000E+20
 25
-1.000000E+20
 35
-1.000000E+20
146
0.0
 13
0.0
 23
0.0
 33
0.0
 16
1.0
 26
0.0
 36
0.0
 17
0.0
 27
1.0
 37
0.0
 76
     0
330
1B
  0
LAYOUT
  5
26
102
{ACAD_REACTORS
330
1A
102
}
330
1A
100
AcDbPlotSettings
  1

  2
none_device
  4

  6

 40
0.0
 41
0.0
 42
0.0
 43
0.0
 44
0.0
 45
0.0
 46
0.0
 47
0.0
 48
0.0
 49
0.0
140
0.0
141
0.0
142
1.0
143
1.0
 70
   688
 72
     1
 73
     0
 74
     5
  7

 75
    16
147
1.0
148
0.0
149
0.0
100
AcDbLayout
  1
Layout2
 70
     1
 71
     2
 10
0.0
 20
0.0
 11
0.0
 21
0.0
 12
0.0
 22
0.0
 32
0.0
 14
0.0
 24
0.0
 34
0.0
 15
0.0
 25
0.0
 35
0.0
146
0.0
 13
0.0
 23
0.0
 33
0.0
 16
1.0
 26
0.0
 36
0.0
 17
0.0
 27
1.0
 37
0.0
 76
     0
330
23
  0
LAYOUT
  5
22
102
{ACAD_REACTORS
330
1A
102
}
330
1A
100
AcDbPlotSettings
  1

  2
none_device
  4
Letter_(8.50_x_11.00_Inches)
  6

 40
6.35
 41
6.35
 42
6.350005
 43
6.350005
 44
215.9
 45
279.4
 46
0.0
 47
0.0
 48
0.0
 49
0.0
140
0.0
141
0.0
142
1.0
143
1.0
 70
  1712
 72
     1
 73
     0
 74
     0
  7

 75
     0
147
1.0
148
0.0
149
0.0
100
AcDbLayout
  1
Model
 70
     1
 71
     0
 10
319.665405
 20
263.292847
 11
342.665405
 21
536.60144
 12
0.0
 22
0.0
 32
0.0
 14
319.665405
 24
263.292847
 34
0.0
 15
342.665405
 25
536.60144
 35
0.0
146
0.0
 13
0.0
 23
0.0
 33
0.0
 16
1.0
 26
0.0
 36
0.0
 17
0.0
 27
1.0
 37
0.0
 76
     0
330
1F
331
29
  0
MATERIAL
  5
45
102
{ACAD_REACTORS
330
43
102
}
102
{ACAD_XDICTIONARY
360
214
102
}
330
43
100
AcDbMaterial
  1
ByBlock
  0
MATERIAL
  5
44
102
{ACAD_REACTORS
330
43
102
}
102
{ACAD_XDICTIONARY
360
212
102
}
330
43
100
AcDbMaterial
  1
ByLayer
  0
MATERIAL
  5
46
102
{ACAD_REACTORS
330
43
102
}
102
{ACAD_XDICTIONARY
360
216
102
}
330
43
100
AcDbMaterial
  1
Global
  0
MLEADERSTYLE
  5
6C
102
{ACAD_REACTORS
330
6B
102
}
102
{ACAD_XDICTIONARY
360
219
102
}
330
6B
100
AcDbMLeaderStyle
170
     2
171
     1
172
     0
 90
        2
 40
0.0
 41
0.0
173
     1
 91
-1056964608
340
14
 92
       -2
290
     1
 42
2.0
291
     1
 43
8.0
  3
Standard
341
0
 44
4.0
300

342
11
174
     1
178
     6
175
     1
176
     0
 93
-1056964608
 45
4.0
292
     0
297
     0
 46
4.0
343
0
 94
-1056964608
 47
1.0
 49
1.0
140
1.0
293
     1
141
0.0
294
     1
177
     0
142
1.0
295
     0
296
     0
143
3.75
1001
ACAD_MLEADERVER
1070
     2
  0
MLINESTYLE
  5
18
102
{ACAD_REACTORS
330
17
102
}
330
17
100
AcDbMlineStyle
  2
Standard
 70
     0
  3

 62
   256
 51
90.0
 52
90.0
 71
     2
 49
0.5
 62
   256
  6
BYLAYER
 49
-0.5
 62
   256
  6
BYLAYER
  0
ACDBPLACEHOLDER
  5
F
102
{ACAD_REACTORS
330
E
102
}
330
E
  0
SCALE
  5
48
102
{ACAD_REACTORS
330
47
102
}
330
47
100
AcDbScale
 70
     0
300
1:1
140
1.0
141
1.0
290
     1
  0
SCALE
  5
49
102
{ACAD_REACTORS
330
47
102
}
330
47
100
AcDbScale
 70
     0
300
1:2
140
1.0
141
2.0
290
     0
  0
SCALE
  5
4A
102
{ACAD_REACTORS
330
47
102
}
330
47
100
AcDbScale
 70
     0
300
1:4
140
1.0
141
4.0
290
     0
  0
SCALE
  5
4B
102
{ACAD_REACTORS
330
47
102
}
330
47
100
AcDbScale
 70
     0
300
1:5
140
1.0
141
5.0
290
     0
  0
SCALE
  5
4C
102
{ACAD_REACTORS
330
47
102
}
330
47
100
AcDbScale
 70
     0
300
1:8
140
1.0
141
8.0
290
     0
  0
SCALE
  5
4D
102
{ACAD_REACTORS
330
47
102
}
330
47
100
AcDbScale
 70
     0
300
1:10
140
1.0
141
10.0
290
     0
  0
SCALE
  5
4E
102
{ACAD_REACTORS
330
47
102
}
330
47
100
AcDbScale
 70
     0
300
1:16
140
1.0
141
16.0
290
     0
  0
SCALE
  5
4F
102
{ACAD_REACTORS
330
47
102
}
330
47
100
AcDbScale
 70
     0
300
1:20
140
1.0
141
20.0
290
     0
  0
SCALE
  5
50
102
{ACAD_REACTORS
330
47
102
}
330
47
100
AcDbScale
 70
     0
300
1:30
140
1.0
141
30.0
290
     0
  0
SCALE
  5
51
102
{ACAD_REACTORS
330
47
102
}
330
47
100
AcDbScale
 70
     0
300
1:40
140
1.0
141
40.0
290
     0
  0
SCALE
  5
52
102
{ACAD_REACTORS
330
47
102
}
330
47
100
AcDbScale
 70
     0
300
1:50
140
1.0
141
50.0
290
     0
  0
SCALE
  5
53
102
{ACAD_REACTORS
330
47
102
}
330
47
100
AcDbScale
 70
     0
300
1:100
140
1.0
141
100.0
290
     0
  0
SCALE
  5
54
102
{ACAD_REACTORS
330
47
102
}
330
47
100
AcDbScale
 70
     0
300
2:1
140
2.0
141
1.0
290
     0
  0
SCALE
  5
55
102
{ACAD_REACTORS
330
47
102
}
330
47
100
AcDbScale
 70
     0
300
4:1
140
4.0
141
1.0
290
     0
  0
SCALE
  5
56
102
{ACAD_REACTORS
330
47
102
}
330
47
100
AcDbScale
 70
     0
300
8:1
140
8.0
141
1.0
290
     0
  0
SCALE
  5
57
102
{ACAD_REACTORS
330
47
102
}
330
47
100
AcDbScale
 70
     0
300
10:1
140
10.0
141
1.0
290
     0
  0
SCALE
  5
58
102
{ACAD_REACTORS
330
47
102
}
330
47
100
AcDbScale
 70
     0
300
100:1
140
100.0
141
1.0
290
     0
  0
SCALE
  5
59
102
{ACAD_REACTORS
330
47
102
}
330
47
100
AcDbScale
 70
     0
300
1/128" = 1'-0"
140
0.007812
141
12.0
290
     0
  0
SCALE
  5
5A
102
{ACAD_REACTORS
330
47
102
}
330
47
100
AcDbScale
 70
     0
300
1/64" = 1'-0"
140
0.015625
141
12.0
290
     0
  0
SCALE
  5
5B
102
{ACAD_REACTORS
330
47
102
}
330
47
100
AcDbScale
 70
     0
300
1/32" = 1'-0"
140
0.03125
141
12.0
290
     0
  0
SCALE
  5
5C
102
{ACAD_REACTORS
330
47
102
}
330
47
100
AcDbScale
 70
     0
300
1/16" = 1'-0"
140
0.0625
141
12.0
290
     0
  0
SCALE
  5
5D
102
{ACAD_REACTORS
330
47
102
}
330
47
100
AcDbScale
 70
     0
300
3/32" = 1'-0"
140
0.09375
141
12.0
290
     0
  0
SCALE
  5
5E
102
{ACAD_REACTORS
330
47
102
}
330
47
100
AcDbScale
 70
     0
300
1/8" = 1'-0"
140
0.125
141
12.0
290
     0
  0
SCALE
  5
5F
102
{ACAD_REACTORS
330
47
102
}
330
47
100
AcDbScale
 70
     0
300
3/16" = 1'-0"
140
0.1875
141
12.0
290
     0
  0
SCALE
  5
60
102
{ACAD_REACTORS
330
47
102
}
330
47
100
AcDbScale
 70
     0
300
1/4" = 1'-0"
140
0.25
141
12.0
290
     0
  0
SCALE
  5
61
102
{ACAD_REACTORS
330
47
102
}
330
47
100
AcDbScale
 70
     0
300
3/8" = 1'-0"
140
0.375
141
12.0
290
     0
  0
SCALE
  5
62
102
{ACAD_REACTORS
330
47
102
}
330
47
100
AcDbScale
 70
     0
300
1/2" = 1'-0"
140
0.5
141
12.0
290
     0
  0
SCALE
  5
63
102
{ACAD_REACTORS
330
47
102
}
330
47
100
AcDbScale
 70
     0
300
3/4" = 1'-0"
140
0.75
141
12.0
290
     0
  0
SCALE
  5
64
102
{ACAD_REACTORS
330
47
102
}
330
47
100
AcDbScale
 70
     0
300
1" = 1'-0"
140
1.0
141
12.0
290
     0
  0
SCALE
  5
65
102
{ACAD_REACTORS
330
47
102
}
330
47
100
AcDbScale
 70
     0
300
1-1/2" = 1'-0"
140
1.5
141
12.0
290
     0
  0
SCALE
  5
66
102
{ACAD_REACTORS
330
47
102
}
330
47
100
AcDbScale
 70
     0
300
3" = 1'-0"
140
3.0
141
12.0
290
     0
  0
SCALE
  5
67
102
{ACAD_REACTORS
330
47
102
}
330
47
100
AcDbScale
 70
     0
300
6" = 1'-0"
140
6.0
141
12.0
290
     0
  0
SCALE
  5
68
102
{ACAD_REACTORS
330
47
102
}
330
47
100
AcDbScale
 70
     0
300
1'-0" = 1'-0"
140
12.0
141
12.0
290
     0
  0
TABLESTYLE
  5
6A
102
{ACAD_REACTORS
330
69
102
}
330
69
100
AcDbTableStyle
  3
Standard
 70
     0
 71
     0
 40
1.5
 41
1.5
280
     0
281
     0
  7
Standard
140
4.5
170
     2
 62
     0
 63
   257
283
     0
274
    -2
284
     1
 64
     0
275
    -2
285
     1
 65
     0
276
    -2
286
     1
 66
     0
277
    -2
287
     1
 67
     0
278
    -2
288
     1
 68
     0
279
    -2
289
     1
 69
     0
  7
Standard
140
6.0
170
     5
 62
     0
 63
   257
283
     0
274
    -2
284
     1
 64
     0
275
    -2
285
     1
 65
     0
276
    -2
286
     1
 66
     0
277
    -2
287
     1
 67
     0
278
    -2
288
     1
 68
     0
279
    -2
289
     1
 69
     0
  7
Standard
140
4.5
170
     5
 62
     0
 63
   257
283
     0
274
    -2
284
     1
 64
     0
275
    -2
285
     1
 65
     0
276
    -2
286
     1
 66
     0
277
    -2
287
     1
 67
     0
278
    -2
288
     1
 68
     0
279
    -2
289
     1
 69
     0
  0
VISUALSTYLE
  5
2F
102
{ACAD_REACTORS
330
2A
102
}
102
{ACAD_XDICTIONARY
360
1EA
102
}
330
2A
100
AcDbVisualStyle
  2
2dWireframe
 70
     4
 71
     0
 72
     2
 73
     0
 90
        0
 40
0.6
 41
30.0
 62
     5
 63
     7
 74
     1
 91
        4
 64
     7
 65
   257
 75
     1
175
     1
 42
1.0
 92
        0
 66
   257
 43
1.0
 76
     1
 77
     6
 78
     2
 67
     7
 79
     5
170
     0
171
     0
290
     0
174
     0
 93
        1
 44
0.0
173
     0
291
     0
 45
0.0
1001
ACAD
1000
AcDbSavedByObjectVersion
1070
     0
  0
VISUALSTYLE
  5
32
102
{ACAD_REACTORS
330
2A
102
}
102
{ACAD_XDICTIONARY
360
1F0
102
}
330
2A
100
AcDbVisualStyle
  2
Basic
 70
     7
 71
     1
 72
     0
 73
     1
 90
        0
 40
0.6
 41
30.0
 62
     5
 63
     7
 74
     0
 91
        4
 64
     7
 65
   257
 75
     1
175
     1
 42
1.0
 92
        8
 66
     7
 43
1.0
 76
     1
 77
     6
 78
     2
 67
     7
 79
     5
170
     0
171
     0
290
     0
174
     0
 93
        1
 44
0.0
173
     0
291
     1
 45
0.0
1001
ACAD
1000
AcDbSavedByObjectVersion
1070
     0
  0
VISUALSTYLE
  5
36
102
{ACAD_REACTORS
330
2A
102
}
102
{ACAD_XDICTIONARY
360
1F8
102
}
330
2A
100
AcDbVisualStyle
  2
Brighten
 70
    12
 71
     2
 72
     2
 73
     0
 90
        0
 40
0.6
 41
30.0
 62
     5
 63
     7
 74
     1
 91
        4
 64
     7
 65
   257
 75
     1
175
     1
 42
1.0
 92
        8
 66
     7
 43
1.0
 76
     1
 77
     6
 78
     2
 67
     7
 79
     5
170
     0
171
     0
290
     0
174
     0
 93
        1
 44
50.0
173
     0
291
     1
 45
0.0
1001
ACAD
1000
AcDbSavedByObjectVersion
1070
     0
  0
VISUALSTYLE
  5
3A
102
{ACAD_REACTORS
330
2A
102
}
102
{ACAD_XDICTIONARY
360
200
102
}
330
2A
100
AcDbVisualStyle
  2
ColorChange
 70
    16
 71
     2
 72
     2
 73
     3
 90
        0
 40
0.6
 41
30.0
 62
     5
 63
     8
 74
     1
 91
        4
 64
     7
 65
   257
 75
     1
175
     1
 42
1.0
 92
        8
 66
     8
 43
1.0
 76
     1
 77
     6
 78
     2
 67
     7
 79
     5
170
     0
171
     0
290
     0
174
     0
 93
        1
 44
0.0
173
     0
291
     1
 45
0.0
1001
ACAD
1000
AcDbSavedByObjectVersion
1070
     0
  0
VISUALSTYLE
  5
34
102
{ACAD_REACTORS
330
2A
102
}
102
{ACAD_XDICTIONARY
360
1F4
102
}
330
2A
100
AcDbVisualStyle
  2
Conceptual
 70
     9
 71
     3
 72
     2
 73
     0
 90
        0
 40
0.6
 41
30.0
 62
     5
 63
     7
 74
     2
 91
        2
 64
     7
 65
   257
 75
     1
175
     1
 42
179.0
 92
        8
 66
     7
 43
1.0
 76
     1
 77
     6
 78
     2
 67
     7
 79
     3
170
     0
171
     0
290
     0
174
     0
 93
        1
 44
0.0
173
     0
291
     0
 45
0.0
1001
ACAD
1000
AcDbSavedByObjectVersion
1070
     0
  0
VISUALSTYLE
  5
35
102
{ACAD_REACTORS
330
2A
102
}
102
{ACAD_XDICTIONARY
360
1F6
102
}
330
2A
100
AcDbVisualStyle
  2
Dim
 70
    11
 71
     2
 72
     2
 73
     0
 90
        0
 40
0.6
 41
30.0
 62
     5
 63
     7
 74
     1
 91
        4
 64
     7
 65
   257
 75
     1
175
     1
 42
1.0
 92
        8
 66
     7
 43
1.0
 76
     1
 77
     6
 78
     2
 67
     7
 79
     5
170
     0
171
     0
290
     0
174
     0
 93
        1
 44
-50.0
173
     0
291
     1
 45
0.0
1001
ACAD
1000
AcDbSavedByObjectVersion
1070
     0
  0
VISUALSTYLE
  5
3D
102
{ACAD_REACTORS
330
2A
102
}
102
{ACAD_XDICTIONARY
360
206
102
}
330
2A
100
AcDbVisualStyle
  2
EdgeColorOff
 70
    22
 71
     2
 72
     2
 73
     0
 90
        0
 40
0.6
 41
30.0
 62
     5
 63
     7
 74
     1
 91
        4
 64
     7
 65
   257
 75
     1
175
     1
 42
1.0
 92
        8
 66
     7
 43
1.0
 76
     1
 77
     6
 78
     2
 67
     7
 79
     5
170
     0
171
     0
290
     0
174
     0
 93
        1
 44
0.0
173
     0
291
     1
 45
0.0
1001
ACAD
1000
AcDbSavedByObjectVersion
1070
     0
  0
VISUALSTYLE
  5
39
102
{ACAD_REACTORS
330
2A
102
}
102
{ACAD_XDICTIONARY
360
1FE
102
}
330
2A
100
AcDbVisualStyle
  2
Facepattern
 70
    15
 71
     2
 72
     2
 73
     0
 90
        0
 40
0.6
 41
30.0
 62
     5
 63
     7
 74
     1
 91
        4
 64
     7
 65
   257
 75
     1
175
     1
 42
1.0
 92
        8
 66
     7
 43
1.0
 76
     1
 77
     6
 78
     2
 67
     7
 79
     5
170
     0
171
     0
290
     0
174
     0
 93
        1
 44
0.0
173
     0
291
     1
 45
0.0
1001
ACAD
1000
AcDbSavedByObjectVersion
1070
     0
  0
VISUALSTYLE
  5
2B
102
{ACAD_REACTORS
330
2A
102
}
102
{ACAD_XDICTIONARY
360
1E2
102
}
330
2A
100
AcDbVisualStyle
  2
Flat
 70
     0
 71
     2
 72
     1
 73
     1
 90
        2
 40
0.6
 41
30.0
 62
     5
 63
     7
 74
     0
 91
        0
 64
     7
 65
   257
 75
     1
175
     1
 42
1.0
 92
        8
 66
     7
 43
1.0
 76
     1
 77
     6
 78
     2
 67
     7
 79
     5
170
     0
171
     0
290
     0
174
     0
 93
       13
 44
0.0
173
     0
291
     1
 45
0.0
1001
ACAD
1000
AcDbSavedByObjectVersion
1070
     0
  0
VISUALSTYLE
  5
2C
102
{ACAD_REACTORS
330
2A
102
}
102
{ACAD_XDICTIONARY
360
1E4
102
}
330
2A
100
AcDbVisualStyle
  2
FlatWithEdges
 70
     1
 71
     2
 72
     1
 73
     1
 90
        2
 40
0.6
 41
30.0
 62
     5
 63
     7
 74
     1
 91
        0
 64
     7
 65
   257
 75
     1
175
     1
 42
1.0
 92
        0
 66
   257
 43
1.0
 76
     1
 77
     6
 78
     2
 67
     7
 79
     5
170
     0
171
     0
290
     0
174
     0
 93
       13
 44
0.0
173
     0
291
     1
 45
0.0
1001
ACAD
1000
AcDbSavedByObjectVersion
1070
     0
  0
VISUALSTYLE
  5
2D
102
{ACAD_REACTORS
330
2A
102
}
102
{ACAD_XDICTIONARY
360
1E6
102
}
330
2A
100
AcDbVisualStyle
  2
Gouraud
 70
     2
 71
     2
 72
     2
 73
     1
 90
        2
 40
0.6
 41
30.0
 62
     5
 63
     7
 74
     0
 91
        0
 64
     7
 65
   257
 75
     1
175
     1
 42
1.0
 92
        0
 66
     7
 43
1.0
 76
     1
 77
     6
 78
     2
 67
     7
 79
     5
170
     0
171
     0
290
     0
174
     0
 93
       13
 44
0.0
173
     0
291
     1
 45
0.0
1001
ACAD
1000
AcDbSavedByObjectVersion
1070
     0
  0
VISUALSTYLE
  5
2E
102
{ACAD_REACTORS
330
2A
102
}
102
{ACAD_XDICTIONARY
360
1E8
102
}
330
2A
100
AcDbVisualStyle
  2
GouraudWithEdges
 70
     3
 71
     2
 72
     2
 73
     1
 90
        2
 40
0.6
 41
30.0
 62
     5
 63
     7
 74
     1
 91
        0
 64
     7
 65
   257
 75
     1
175
     1
 42
1.0
 92
        0
 66
   257
 43
1.0
 76
     1
 77
     6
 78
     2
 67
     7
 79
     5
170
     0
171
     0
290
     0
174
     0
 93
       13
 44
0.0
173
     0
291
     1
 45
0.0
1001
ACAD
1000
AcDbSavedByObjectVersion
1070
     0
  0
VISUALSTYLE
  5
31
102
{ACAD_REACTORS
330
2A
102
}
102
{ACAD_XDICTIONARY
360
1EE
102
}
330
2A
100
AcDbVisualStyle
  2
Hidden
 70
     6
 71
     1
 72
     2
 73
     2
 90
        0
 40
0.6
 41
30.0
 62
     5
 63
     7
 74
     2
 91
        2
 64
     7
 65
   257
 75
     2
175
     1
 42
40.0
 92
        0
 66
   257
 43
1.0
 76
     1
 77
     6
 78
     2
 67
     7
 79
     3
170
     0
171
     0
290
     0
174
     0
 93
        1
 44
0.0
173
     0
291
     0
 45
0.0
1001
ACAD
1000
AcDbSavedByObjectVersion
1070
     0
  0
VISUALSTYLE
  5
3B
102
{ACAD_REACTORS
330
2A
102
}
102
{ACAD_XDICTIONARY
360
202
102
}
330
2A
100
AcDbVisualStyle
  2
JitterOff
 70
    20
 71
     2
 72
     2
 73
     0
 90
        0
 40
0.6
 41
30.0
 62
     5
 63
     7
 74
     1
 91
        4
 64
     7
 65
   257
 75
     1
175
     1
 42
1.0
 92
       10
 66
     7
 43
1.0
 76
     1
 77
     6
 78
     2
 67
     7
 79
     5
170
     0
171
     0
290
     0
174
     0
 93
        1
 44
0.0
173
     0
291
     1
 45
0.0
1001
ACAD
1000
AcDbSavedByObjectVersion
1070
     0
  0
VISUALSTYLE
  5
38
102
{ACAD_REACTORS
330
2A
102
}
102
{ACAD_XDICTIONARY
360
1FC
102
}
330
2A
100
AcDbVisualStyle
  2
Linepattern
 70
    14
 71
     2
 72
     2
 73
     0
 90
        0
 40
0.6
 41
30.0
 62
     5
 63
     7
 74
     1
 91
        4
 64
     7
 65
   257
 75
     7
175
     7
 42
1.0
 92
        8
 66
     7
 43
1.0
 76
     1
 77
     6
 78
     2
 67
     7
 79
     5
170
     0
171
     0
290
     0
174
     0
 93
        1
 44
0.0
173
     0
291
     1
 45
0.0
1001
ACAD
1000
AcDbSavedByObjectVersion
1070
     0
  0
VISUALSTYLE
  5
3C
102
{ACAD_REACTORS
330
2A
102
}
102
{ACAD_XDICTIONARY
360
204
102
}
330
2A
100
AcDbVisualStyle
  2
OverhangOff
 70
    21
 71
     2
 72
     2
 73
     0
 90
        0
 40
0.6
 41
30.0
 62
     5
 63
     7
 74
     1
 91
        4
 64
     7
 65
   257
 75
     1
175
     1
 42
1.0
 92
        9
 66
     7
 43
1.0
 76
     1
 77
     6
 78
     2
 67
     7
 79
     5
170
     0
171
     0
290
     0
174
     0
 93
        1
 44
0.0
173
     0
291
     1
 45
0.0
1001
ACAD
1000
AcDbSavedByObjectVersion
1070
     0
  0
VISUALSTYLE
  5
33
102
{ACAD_REACTORS
330
2A
102
}
102
{ACAD_XDICTIONARY
360
1F2
102
}
330
2A
100
AcDbVisualStyle
  2
Realistic
 70
     8
 71
     2
 72
     3
 73
     0
 90
        2
 40
0.6
 41
30.0
 62
     5
 63
     7
 74
     0
 91
        0
 64
     7
 65
   257
 75
     1
175
     1
 42
1.0
 92
        8
 66
   257
 43
1.0
 76
     1
 77
     6
 78
     2
 67
     7
 79
     3
170
     0
171
     0
290
     0
174
     0
 93
       13
 44
0.0
173
     0
291
     0
 45
0.0
1001
ACAD
1000
AcDbSavedByObjectVersion
1070
     0
  0
VISUALSTYLE
  5
42
102
{ACAD_REACTORS
330
2A
102
}
102
{ACAD_XDICTIONARY
360
210
102
}
330
2A
100
AcDbVisualStyle
  2
Shaded
 70
    27
 71
     2
 72
     2
 73
     1
 90
        2
 40
0.6
 41
30.0
 62
     5
 63
     7
 74
     0
 91
        4
 64
     7
 65
   257
 75
     1
175
     1
 42
1.0
 92
        8
 66
   257
 43
1.0
 76
     1
 77
     6
 78
     2
 67
     8
 79
     3
170
     0
171
     0
290
     0
174
     0
 93
        5
 44
0.0
173
     0
291
     0
 45
0.0
1001
ACAD
1000
AcDbSavedByObjectVersion
1070
     0
  0
VISUALSTYLE
  5
41
102
{ACAD_REACTORS
330
2A
102
}
102
{ACAD_XDICTIONARY
360
20E
102
}
330
2A
100
AcDbVisualStyle
  2
Shaded with edges
 70
    26
 71
     2
 72
     2
 73
     1
 90
        2
 40
0.6
 41
30.0
 62
     5
 63
     7
 74
     1
 91
       10
 64
     7
 65
   257
 75
     2
175
     1
 42
1.0
 92
        8
 66
   257
 43
1.0
 76
     1
 77
     6
 78
     2
 67
     7
 79
     3
170
     0
171
     0
290
     0
174
     0
 93
        5
 44
0.0
173
     0
291
     0
 45
0.0
1001
ACAD
1000
AcDbSavedByObjectVersion
1070
     0
  0
VISUALSTYLE
  5
3E
102
{ACAD_REACTORS
330
2A
102
}
102
{ACAD_XDICTIONARY
360
208
102
}
330
2A
100
AcDbVisualStyle
  2
Shades of Gray
 70
    23
 71
     2
 72
     2
 73
     3
 90
        0
 40
0.6
 41
30.0
 62
     5
 63
     7
 74
     2
 91
        2
 64
     7
 65
     7
 75
     1
175
     1
 42
40.0
 92
        8
 66
     7
 43
1.0
 76
     1
 77
     6
 78
     2
 67
     7
 79
     3
170
     0
171
     0
290
     0
174
     0
 93
        1
 44
0.0
173
     0
291
     0
 45
0.0
1001
ACAD
1000
AcDbSavedByObjectVersion
1070
     0
  0
VISUALSTYLE
  5
3F
102
{ACAD_REACTORS
330
2A
102
}
102
{ACAD_XDICTIONARY
360
20A
102
}
330
2A
100
AcDbVisualStyle
  2
Sketchy
 70
    24
 71
     1
 72
     2
 73
     2
 90
        0
 40
0.6
 41
30.0
 62
     5
 63
     7
 74
     2
 91
        2
 64
     7
 65
     7
 75
     1
175
     1
 42
40.0
 92
       11
 66
     7
 43
1.0
 76
     1
 77
     6
 78
     2
 67
     7
 79
     6
170
     0
171
     0
290
     0
174
     0
 93
        1
 44
0.0
173
     0
291
     0
 45
0.0
1001
ACAD
1000
AcDbSavedByObjectVersion
1070
     0
  0
VISUALSTYLE
  5
37
102
{ACAD_REACTORS
330
2A
102
}
102
{ACAD_XDICTIONARY
360
1FA
102
}
330
2A
100
AcDbVisualStyle
  2
Thicken
 70
    13
 71
     2
 72
     2
 73
     0
 90
        0
 40
0.6
 41
30.0
 62
     5
 63
     7
 74
     1
 91
        4
 64
     7
 65
   257
 75
     1
175
     1
 42
1.0
 92
       12
 66
     7
 43
1.0
 76
     1
 77
     6
 78
     2
 67
     7
 79
     5
170
     0
171
     0
290
     0
174
     0
 93
        1
 44
0.0
173
     0
291
     1
 45
0.0
1001
ACAD
1000
AcDbSavedByObjectVersion
1070
     0
  0
VISUALSTYLE
  5
30
102
{ACAD_REACTORS
330
2A
102
}
102
{ACAD_XDICTIONARY
360
1EC
102
}
330
2A
100
AcDbVisualStyle
  2
Wireframe
 70
     5
 71
     0
 72
     2
 73
     0
 90
        0
 40
0.6
 41
30.0
 62
     5
 63
     7
 74
     1
 91
        4
 64
     7
 65
   257
 75
     1
175
     1
 42
1.0
 92
        0
 66
   257
 43
1.0
 76
     1
 77
     6
 78
     2
 67
     7
 79
     3
170
     0
171
     0
290
     0
174
     0
 93
        1
 44
0.0
173
     0
291
     0
 45
0.0
1001
ACAD
1000
AcDbSavedByObjectVersion
1070
     0
  0
VISUALSTYLE
  5
40
102
{ACAD_REACTORS
330
2A
102
}
102
{ACAD_XDICTIONARY
360
20C
102
}
330
2A
100
AcDbVisualStyle
  2
X-Ray
 70
    25
 71
     2
 72
     2
 73
     1
 90
        1
 40
0.5
 41
30.0
 62
     5
 63
     7
 74
     1
 91
        0
 64
     7
 65
   257
 75
     1
175
     1
 42
1.0
 92
        8
 66
     7
 43
1.0
 76
     1
 77
     6
 78
     2
 67
     7
 79
     3
170
     0
171
     0
290
     0
174
     0
 93
       13
 44
0.0
173
     0
291
     0
 45
0.0
1001
ACAD
1000
AcDbSavedByObjectVersion
1070
     0
  0
DICTIONARYVAR
  5
1E0
102
{ACAD_REACTORS
330
1D3
102
}
330
1D3
100
DictionaryVariables
280
     0
  1
1:1
  0
DICTIONARYVAR
  5
1DA
102
{ACAD_REACTORS
330
1D3
102
}
330
1D3
100
DictionaryVariables
280
     0
  1
3.500000
  0
DICTIONARYVAR
  5
1DB
102
{ACAD_REACTORS
330
1D3
102
}
330
1D3
100
DictionaryVariables
280
     0
  1
acadiso.lin
  0
DICTIONARYVAR
  5
1D5
102
{ACAD_REACTORS
330
1D3
102
}
330
1D3
100
DictionaryVariables
280
     0
  1
Standard
  0
DICTIONARYVAR
  5
1D4
102
{ACAD_REACTORS
330
1D3
102
}
330
1D3
100
DictionaryVariables
280
     0
  1
Standard
  0
DICTIONARYVAR
  5
1DC
102
{ACAD_REACTORS
330
1D3
102
}
330
1D3
100
DictionaryVariables
280
     0
  1
2
  0
DICTIONARYVAR
  5
1DD
102
{ACAD_REACTORS
330
1D3
102
}
330
1D3
100
DictionaryVariables
280
     0
  1
1
  0
DICTIONARYVAR
  5
1E1
102
{ACAD_REACTORS
330
1D3
102
}
330
1D3
100
DictionaryVariables
280
     0
  1
1
  0
DICTIONARYVAR
  5
1D7
102
{ACAD_REACTORS
330
1D3
102
}
330
1D3
100
DictionaryVariables
280
     0
  1
80.000000
  0
DICTIONARYVAR
  5
1D6
102
{ACAD_REACTORS
330
1D3
102
}
330
1D3
100
DictionaryVariables
280
     0
  1
5.000000
  0
DICTIONARY
  5
214
330
45
100
AcDbDictionary
280
     1
281
     1
  3
ACAD_XREC_ROUNDTRIP
360
215
  0
DICTIONARY
  5
212
330
44
100
AcDbDictionary
280
     1
281
     1
  3
ACAD_XREC_ROUNDTRIP
360
213
  0
DICTIONARY
  5
216
330
46
100
AcDbDictionary
280
     1
281
     1
  3
ACAD_XREC_ROUNDTRIP
360
217
  0
DICTIONARY
  5
219
330
6C
100
AcDbDictionary
280
     1
281
     1
  3
ACAD_XREC_ROUNDTRIP
360
21A
  0
DICTIONARY
  5
1EA
330
2F
100
AcDbDictionary
280
     1
281
     1
  3
ACAD_XREC_ROUNDTRIP
360
1EB
  0
DICTIONARY
  5
1F0
330
32
100
AcDbDictionary
280
     1
281
     1
  3
ACAD_XREC_ROUNDTRIP
360
1F1
  0
DICTIONARY
  5
1F8
330
36
100
AcDbDictionary
280
     1
281
     1
  3
ACAD_XREC_ROUNDTRIP
360
1F9
  0
DICTIONARY
  5
200
330
3A
100
AcDbDictionary
280
     1
281
     1
  3
ACAD_XREC_ROUNDTRIP
360
201
  0
DICTIONARY
  5
1F4
330
34
100
AcDbDictionary
280
     1
281
     1
  3
ACAD_XREC_ROUNDTRIP
360
1F5
  0
DICTIONARY
  5
1F6
330
35
100
AcDbDictionary
280
     1
281
     1
  3
ACAD_XREC_ROUNDTRIP
360
1F7
  0
DICTIONARY
  5
206
330
3D
100
AcDbDictionary
280
     1
281
     1
  3
ACAD_XREC_ROUNDTRIP
360
207
  0
DICTIONARY
  5
1FE
330
39
100
AcDbDictionary
280
     1
281
     1
  3
ACAD_XREC_ROUNDTRIP
360
1FF
  0
DICTIONARY
  5
1E2
330
2B
100
AcDbDictionary
280
     1
281
     1
  3
ACAD_XREC_ROUNDTRIP
360
1E3
  0
DICTIONARY
  5
1E4
330
2C
100
AcDbDictionary
280
     1
281
     1
  3
ACAD_XREC_ROUNDTRIP
360
1E5
  0
DICTIONARY
  5
1E6
330
2D
100
AcDbDictionary
280
     1
281
     1
  3
ACAD_XREC_ROUNDTRIP
360
1E7
  0
DICTIONARY
  5
1E8
330
2E
100
AcDbDictionary
280
     1
281
     1
  3
ACAD_XREC_ROUNDTRIP
360
1E9
  0
DICTIONARY
  5
1EE
330
31
100
AcDbDictionary
280
     1
281
     1
  3
ACAD_XREC_ROUNDTRIP
360
1EF
  0
DICTIONARY
  5
202
330
3B
100
AcDbDictionary
280
     1
281
     1
  3
ACAD_XREC_ROUNDTRIP
360
203
  0
DICTIONARY
  5
1FC
330
38
100
AcDbDictionary
280
     1
281
     1
  3
ACAD_XREC_ROUNDTRIP
360
1FD
  0
DICTIONARY
  5
204
330
3C
100
AcDbDictionary
280
     1
281
     1
  3
ACAD_XREC_ROUNDTRIP
360
205
  0
DICTIONARY
  5
1F2
330
33
100
AcDbDictionary
280
     1
281
     1
  3
ACAD_XREC_ROUNDTRIP
360
1F3
  0
DICTIONARY
  5
210
330
42
100
AcDbDictionary
280
     1
281
     1
  3
ACAD_XREC_ROUNDTRIP
360
211
  0
DICTIONARY
  5
20E
330
41
100
AcDbDictionary
280
     1
281
     1
  3
ACAD_XREC_ROUNDTRIP
360
20F
  0
DICTIONARY
  5
208
330
3E
100
AcDbDictionary
280
     1
281
     1
  3
ACAD_XREC_ROUNDTRIP
360
209
  0
DICTIONARY
  5
20A
330
3F
100
AcDbDictionary
280
     1
281
     1
  3
ACAD_XREC_ROUNDTRIP
360
20B
  0
DICTIONARY
  5
1FA
330
37
100
AcDbDictionary
280
     1
281
     1
  3
ACAD_XREC_ROUNDTRIP
360
1FB
  0
DICTIONARY
  5
1EC
330
30
100
AcDbDictionary
280
     1
281
     1
  3
ACAD_XREC_ROUNDTRIP
360
1ED
  0
DICTIONARY
  5
20C
330
40
100
AcDbDictionary
280
     1
281
     1
  3
ACAD_XREC_ROUNDTRIP
360
20D
  0
XRECORD
  5
215
102
{ACAD_REACTORS
330
214
102
}
330
214
100
AcDbXrecord
280
     1
102
MATERIAL
148
0.0
149
0.0
149
0.0
 93
        0
 94
      127
282
     0
 72
     1
 77
     1
171
     1
175
     1
179
     1
273
     0
  0
XRECORD
  5
213
102
{ACAD_REACTORS
330
212
102
}
330
212
100
AcDbXrecord
280
     1
102
MATERIAL
148
0.0
149
0.0
149
0.0
 93
        0
 94
      127
282
     0
 72
     1
 77
     1
171
     1
175
     1
179
     1
273
     0
  0
XRECORD
  5
217
102
{ACAD_REACTORS
330
216
102
}
330
216
100
AcDbXrecord
280
     1
102
MATERIAL
148
0.0
149
0.0
149
0.0
 93
        0
 94
      127
282
     0
 72
     1
 77
     1
171
     1
175
     1
179
     1
273
     0
  0
XRECORD
  5
21A
102
{ACAD_REACTORS
330
219
102
}
330
219
100
AcDbXrecord
280
     1
102
ACAD_ROUNDTRIP_2010_MLEADER_STYLE
  0
XRECORD
  5
1EB
102
{ACAD_REACTORS
330
1EA
102
}
330
1EA
100
AcDbXrecord
280
     1
102
RTVSPropertyOp0
 70
     1
102
RTVSPropertyOp1
 70
     1
102
RTVSPropertyOp2
 70
     1
102
RTVSPropertyOp3
 70
     1
102
RTVSPropertyOp4
 70
     1
102
RTVSPropertyOp5
 70
     1
102
RTVSPropertyOp6
 70
     1
102
RTVSPropertyOp7
 70
     1
102
RTVSPropertyOp8
 70
     1
102
RTVSPropertyOp9
 70
     1
102
RTVSPropertyOp10
 70
     1
102
RTVSPropertyOp11
 70
     1
102
RTVSPropertyOp12
 70
     1
102
RTVSPropertyOp13
 70
     1
102
RTVSPropertyOp14
 70
     1
102
RTVSPropertyOp15
 70
     1
102
RTVSPropertyOp16
 70
     1
102
RTVSPropertyOp17
 70
     1
102
RTVSPropertyOp18
 70
     1
102
RTVSPropertyOp19
 70
     1
102
RTVSPropertyOp20
 70
     1
102
RTVSPropertyOp21
 70
     1
102
RTVSPropertyOp22
 70
     1
102
RTVSPropertyOp23
 70
     1
102
RTVSPropertyOp24
 70
     1
102
RTVSPropertyOp25
 70
     1
102
RTVSPropertyOp26
 70
     1
102
RTVSPropertyOp27
 70
     1
102
RTVSPropertyOp28
 70
     1
102
RTVSPropertyOp29
 70
     1
102
RTVSPropertyOp30
 70
     1
102
RTVSPropertyOp31
 70
     1
102
RTVSPropertyOp32
 70
     1
102
RTVSPropertyOp33
 70
     1
102
RTVSPropertyOp34
 70
     1
102
RTVSPropertyOp35
 70
     1
102
RTVSPropertyOp36
 70
     1
102
RTVSPropertyOp37
 70
     1
102
RTVSPropertyOp38
 70
     1
102
RTVSPropertyOp39
 70
     1
102
RTVSPropertyOp40
 70
     1
102
RTVSPropertyOp41
 70
     1
102
RTVSPropertyOp42
 70
     1
102
RTVSPropertyOp43
 70
     1
102
RTVSPropertyOp44
 70
     1
102
RTVSPropertyOp45
 70
     1
102
RTVSPropertyOp46
 70
     1
102
RTVSPropertyOp47
 70
     1
102
RTVSPropertyOp48
 70
     1
102
RTVSPropertyOp49
 70
     1
102
RTVSPropertyOp50
 70
     1
102
RTVSPropertyOp51
 70
     0
102
RTVSPropertyOp52
 70
     0
102
RTVSPropertyOp53
 70
     1
102
RTVSPropertyOp54
 70
     1
102
RTVSPropertyOp55
 70
     1
102
RTVSPropertyOp56
 70
     1
102
RTVSPropertyOp57
 70
     1
102
RTVSPost2010Prop28
280
     1
102
RTVSPost2010PropOp28
 70
     1
102
RTVSPost2010Prop29
280
     1
102
RTVSPost2010PropOp29
 70
     1
102
RTVSPost2010Prop30
280
     0
102
RTVSPost2010PropOp30
 70
     1
102
RTVSPost2010Prop31
280
     0
102
RTVSPost2010PropOp31
 70
     1
102
RTVSPost2010Prop32
280
     0
102
RTVSPost2010PropOp32
 70
     1
102
RTVSPost2010Prop33
280
     0
102
RTVSPost2010PropOp33
 70
     1
102
RTVSPost2010Prop34
280
     0
102
RTVSPost2010PropOp34
 70
     1
102
RTVSPost2010Prop35
280
     0
102
RTVSPost2010PropOp35
 70
     1
102
RTVSPost2010Prop36
280
     0
102
RTVSPost2010PropOp36
 70
     1
102
RTVSPost2010Prop37
 90
       50
102
RTVSPost2010PropOp37
 70
     1
102
RTVSPost2010Prop38
140
0.0
102
RTVSPost2010PropOp38
 70
     1
102
RTVSPost2010Prop39
140
1.0
102
RTVSPost2010PropOp39
 70
     1
102
RTVSPost2010Prop40
 90
        0
102
RTVSPost2010PropOp40
 70
     1
102
RTVSPost2010Prop41ColorIndex
 90
       18
102
RTVSPost2010Prop41ColorRGB
 90
        0
102
RTVSPost2010PropOp41
 70
     1
102
RTVSPost2010Prop42
 90
       50
102
RTVSPost2010PropOp42
 70
     1
102
RTVSPost2010Prop43
 90
        3
102
RTVSPost2010PropOp43
 70
     1
102
RTVSPost2010Prop44ColorIndex
 90
        5
102
RTVSPost2010Prop44ColorRGB
 90
      255
102
RTVSPost2010PropOp44
 70
     1
102
RTVSPost2010Prop45
280
     0
102
RTVSPost2010PropOp45
 70
     1
102
RTVSPost2010Prop46
 90
       50
102
RTVSPost2010PropOp46
 70
     1
102
RTVSPost2010Prop47
 90
       50
102
RTVSPost2010PropOp47
 70
     1
102
RTVSPost2010Prop48
 90
       50
102
RTVSPost2010PropOp48
 70
     1
102
RTVSPost2010Prop49
280
     0
102
RTVSPost2010PropOp49
 70
     1
102
RTVSPost2010Prop50
 90
       50
102
RTVSPost2010PropOp50
 70
     1
102
RTVSPost2010Prop51ColorIndex
 90
      256
102
RTVSPost2010Prop51ColorRGB
 90
-16777216
102
RTVSPost2010PropOp51
 70
     0
102
RTVSPost2010Prop52
140
1.0
102
RTVSPost2010PropOp52
 70
     0
102
RTVSPost2010Prop53
 90
        2
102
RTVSPost2010PropOp53
 70
     1
102
RTVSPost2010Prop54
  1
strokes_ogs.tif
102
RTVSPost2010PropOp54
 70
     1
102
RTVSPost2010Prop55
280
     0
102
RTVSPost2010PropOp55
 70
     1
102
RTVSPost2010Prop56
140
1.0
102
RTVSPost2010PropOp56
 70
     1
102
RTVSPost2010Prop57
140
1.0
102
RTVSPost2010PropOp57
 70
     1
  0
XRECORD
  5
1F1
102
{ACAD_REACTORS
330
1F0
102
}
330
1F0
100
AcDbXrecord
280
     1
102
RTVSPropertyOp0
 70
     1
102
RTVSPropertyOp1
 70
     1
102
RTVSPropertyOp2
 70
     1
102
RTVSPropertyOp3
 70
     1
102
RTVSPropertyOp4
 70
     1
102
RTVSPropertyOp5
 70
     1
102
RTVSPropertyOp6
 70
     1
102
RTVSPropertyOp7
 70
     1
102
RTVSPropertyOp8
 70
     1
102
RTVSPropertyOp9
 70
     1
102
RTVSPropertyOp10
 70
     1
102
RTVSPropertyOp11
 70
     1
102
RTVSPropertyOp12
 70
     1
102
RTVSPropertyOp13
 70
     1
102
RTVSPropertyOp14
 70
     1
102
RTVSPropertyOp15
 70
     1
102
RTVSPropertyOp16
 70
     1
102
RTVSPropertyOp17
 70
     1
102
RTVSPropertyOp18
 70
     1
102
RTVSPropertyOp19
 70
     1
102
RTVSPropertyOp20
 70
     1
102
RTVSPropertyOp21
 70
     1
102
RTVSPropertyOp22
 70
     1
102
RTVSPropertyOp23
 70
     1
102
RTVSPropertyOp24
 70
     1
102
RTVSPropertyOp25
 70
     1
102
RTVSPropertyOp26
 70
     1
102
RTVSPropertyOp27
 70
     1
102
RTVSPropertyOp28
 70
     1
102
RTVSPropertyOp29
 70
     1
102
RTVSPropertyOp30
 70
     1
102
RTVSPropertyOp31
 70
     1
102
RTVSPropertyOp32
 70
     1
102
RTVSPropertyOp33
 70
     1
102
RTVSPropertyOp34
 70
     1
102
RTVSPropertyOp35
 70
     1
102
RTVSPropertyOp36
 70
     1
102
RTVSPropertyOp37
 70
     1
102
RTVSPropertyOp38
 70
     1
102
RTVSPropertyOp39
 70
     1
102
RTVSPropertyOp40
 70
     1
102
RTVSPropertyOp41
 70
     1
102
RTVSPropertyOp42
 70
     1
102
RTVSPropertyOp43
 70
     1
102
RTVSPropertyOp44
 70
     1
102
RTVSPropertyOp45
 70
     1
102
RTVSPropertyOp46
 70
     1
102
RTVSPropertyOp47
 70
     1
102
RTVSPropertyOp48
 70
     1
102
RTVSPropertyOp49
 70
     1
102
RTVSPropertyOp50
 70
     1
102
RTVSPropertyOp51
 70
     0
102
RTVSPropertyOp52
 70
     0
102
RTVSPropertyOp53
 70
     1
102
RTVSPropertyOp54
 70
     1
102
RTVSPropertyOp55
 70
     1
102
RTVSPropertyOp56
 70
     1
102
RTVSPropertyOp57
 70
     1
102
RTVSPost2010Prop28
280
     0
102
RTVSPost2010PropOp28
 70
     1
102
RTVSPost2010Prop29
280
     1
102
RTVSPost2010PropOp29
 70
     1
102
RTVSPost2010Prop30
280
     1
102
RTVSPost2010PropOp30
 70
     1
102
RTVSPost2010Prop31
280
     0
102
RTVSPost2010PropOp31
 70
     1
102
RTVSPost2010Prop32
280
     0
102
RTVSPost2010PropOp32
 70
     1
102
RTVSPost2010Prop33
280
     0
102
RTVSPost2010PropOp33
 70
     1
102
RTVSPost2010Prop34
280
     0
102
RTVSPost2010PropOp34
 70
     1
102
RTVSPost2010Prop35
280
     0
102
RTVSPost2010PropOp35
 70
     1
102
RTVSPost2010Prop36
280
     0
102
RTVSPost2010PropOp36
 70
     1
102
RTVSPost2010Prop37
 90
       50
102
RTVSPost2010PropOp37
 70
     1
102
RTVSPost2010Prop38
140
0.0
102
RTVSPost2010PropOp38
 70
     1
102
RTVSPost2010Prop39
140
1.0
102
RTVSPost2010PropOp39
 70
     1
102
RTVSPost2010Prop40
 90
        0
102
RTVSPost2010PropOp40
 70
     1
102
RTVSPost2010Prop41ColorIndex
 90
       18
102
RTVSPost2010Prop41ColorRGB
 90
        0
102
RTVSPost2010PropOp41
 70
     1
102
RTVSPost2010Prop42
 90
       50
102
RTVSPost2010PropOp42
 70
     1
102
RTVSPost2010Prop43
 90
        3
102
RTVSPost2010PropOp43
 70
     1
102
RTVSPost2010Prop44ColorIndex
 90
        5
102
RTVSPost2010Prop44ColorRGB
 90
      255
102
RTVSPost2010PropOp44
 70
     1
102
RTVSPost2010Prop45
280
     0
102
RTVSPost2010PropOp45
 70
     1
102
RTVSPost2010Prop46
 90
       50
102
RTVSPost2010PropOp46
 70
     1
102
RTVSPost2010Prop47
 90
       50
102
RTVSPost2010PropOp47
 70
     1
102
RTVSPost2010Prop48
 90
       50
102
RTVSPost2010PropOp48
 70
     1
102
RTVSPost2010Prop49
280
     0
102
RTVSPost2010PropOp49
 70
     1
102
RTVSPost2010Prop50
 90
       50
102
RTVSPost2010PropOp50
 70
     1
102
RTVSPost2010Prop51ColorIndex
 90
      256
102
RTVSPost2010Prop51ColorRGB
 90
-16777216
102
RTVSPost2010PropOp51
 70
     0
102
RTVSPost2010Prop52
140
1.0
102
RTVSPost2010PropOp52
 70
     0
102
RTVSPost2010Prop53
 90
        2
102
RTVSPost2010PropOp53
 70
     1
102
RTVSPost2010Prop54
  1
strokes_ogs.tif
102
RTVSPost2010PropOp54
 70
     1
102
RTVSPost2010Prop55
280
     0
102
RTVSPost2010PropOp55
 70
     1
102
RTVSPost2010Prop56
140
1.0
102
RTVSPost2010PropOp56
 70
     1
102
RTVSPost2010Prop57
140
1.0
102
RTVSPost2010PropOp57
 70
     1
  0
XRECORD
  5
1F9
102
{ACAD_REACTORS
330
1F8
102
}
330
1F8
100
AcDbXrecord
280
     1
102
RTVSPropertyOp0
 70
     1
102
RTVSPropertyOp1
 70
     1
102
RTVSPropertyOp2
 70
     1
102
RTVSPropertyOp3
 70
     1
102
RTVSPropertyOp4
 70
     1
102
RTVSPropertyOp5
 70
     1
102
RTVSPropertyOp6
 70
     1
102
RTVSPropertyOp7
 70
     1
102
RTVSPropertyOp8
 70
     1
102
RTVSPropertyOp9
 70
     1
102
RTVSPropertyOp10
 70
     1
102
RTVSPropertyOp11
 70
     1
102
RTVSPropertyOp12
 70
     1
102
RTVSPropertyOp13
 70
     1
102
RTVSPropertyOp14
 70
     1
102
RTVSPropertyOp15
 70
     1
102
RTVSPropertyOp16
 70
     1
102
RTVSPropertyOp17
 70
     1
102
RTVSPropertyOp18
 70
     1
102
RTVSPropertyOp19
 70
     1
102
RTVSPropertyOp20
 70
     1
102
RTVSPropertyOp21
 70
     1
102
RTVSPropertyOp22
 70
     1
102
RTVSPropertyOp23
 70
     1
102
RTVSPropertyOp24
 70
     1
102
RTVSPropertyOp25
 70
     1
102
RTVSPropertyOp26
 70
     1
102
RTVSPropertyOp27
 70
     1
102
RTVSPropertyOp28
 70
     1
102
RTVSPropertyOp29
 70
     1
102
RTVSPropertyOp30
 70
     1
102
RTVSPropertyOp31
 70
     1
102
RTVSPropertyOp32
 70
     1
102
RTVSPropertyOp33
 70
     1
102
RTVSPropertyOp34
 70
     1
102
RTVSPropertyOp35
 70
     1
102
RTVSPropertyOp36
 70
     1
102
RTVSPropertyOp37
 70
     1
102
RTVSPropertyOp38
 70
     1
102
RTVSPropertyOp39
 70
     1
102
RTVSPropertyOp40
 70
     1
102
RTVSPropertyOp41
 70
     1
102
RTVSPropertyOp42
 70
     1
102
RTVSPropertyOp43
 70
     1
102
RTVSPropertyOp44
 70
     1
102
RTVSPropertyOp45
 70
     1
102
RTVSPropertyOp46
 70
     1
102
RTVSPropertyOp47
 70
     1
102
RTVSPropertyOp48
 70
     1
102
RTVSPropertyOp49
 70
     1
102
RTVSPropertyOp50
 70
     1
102
RTVSPropertyOp51
 70
     0
102
RTVSPropertyOp52
 70
     0
102
RTVSPropertyOp53
 70
     1
102
RTVSPropertyOp54
 70
     1
102
RTVSPropertyOp55
 70
     1
102
RTVSPropertyOp56
 70
     1
102
RTVSPropertyOp57
 70
     1
102
RTVSPost2010Prop28
280
     0
102
RTVSPost2010PropOp28
 70
     1
102
RTVSPost2010Prop29
280
     1
102
RTVSPost2010PropOp29
 70
     1
102
RTVSPost2010Prop30
280
     1
102
RTVSPost2010PropOp30
 70
     1
102
RTVSPost2010Prop31
280
     0
102
RTVSPost2010PropOp31
 70
     1
102
RTVSPost2010Prop32
280
     0
102
RTVSPost2010PropOp32
 70
     1
102
RTVSPost2010Prop33
280
     0
102
RTVSPost2010PropOp33
 70
     1
102
RTVSPost2010Prop34
280
     0
102
RTVSPost2010PropOp34
 70
     1
102
RTVSPost2010Prop35
280
     0
102
RTVSPost2010PropOp35
 70
     1
102
RTVSPost2010Prop36
280
     0
102
RTVSPost2010PropOp36
 70
     1
102
RTVSPost2010Prop37
 90
       50
102
RTVSPost2010PropOp37
 70
     1
102
RTVSPost2010Prop38
140
0.0
102
RTVSPost2010PropOp38
 70
     1
102
RTVSPost2010Prop39
140
1.0
102
RTVSPost2010PropOp39
 70
     1
102
RTVSPost2010Prop40
 90
        0
102
RTVSPost2010PropOp40
 70
     1
102
RTVSPost2010Prop41ColorIndex
 90
       18
102
RTVSPost2010Prop41ColorRGB
 90
        0
102
RTVSPost2010PropOp41
 70
     1
102
RTVSPost2010Prop42
 90
       50
102
RTVSPost2010PropOp42
 70
     1
102
RTVSPost2010Prop43
 90
        3
102
RTVSPost2010PropOp43
 70
     1
102
RTVSPost2010Prop44ColorIndex
 90
        5
102
RTVSPost2010Prop44ColorRGB
 90
      255
102
RTVSPost2010PropOp44
 70
     1
102
RTVSPost2010Prop45
280
     0
102
RTVSPost2010PropOp45
 70
     1
102
RTVSPost2010Prop46
 90
       50
102
RTVSPost2010PropOp46
 70
     1
102
RTVSPost2010Prop47
 90
       50
102
RTVSPost2010PropOp47
 70
     1
102
RTVSPost2010Prop48
 90
       50
102
RTVSPost2010PropOp48
 70
     1
102
RTVSPost2010Prop49
280
     0
102
RTVSPost2010PropOp49
 70
     1
102
RTVSPost2010Prop50
 90
       50
102
RTVSPost2010PropOp50
 70
     1
102
RTVSPost2010Prop51ColorIndex
 90
      256
102
RTVSPost2010Prop51ColorRGB
 90
-16777216
102
RTVSPost2010PropOp51
 70
     0
102
RTVSPost2010Prop52
140
1.0
102
RTVSPost2010PropOp52
 70
     0
102
RTVSPost2010Prop53
 90
        2
102
RTVSPost2010PropOp53
 70
     1
102
RTVSPost2010Prop54
  1
strokes_ogs.tif
102
RTVSPost2010PropOp54
 70
     1
102
RTVSPost2010Prop55
280
     0
102
RTVSPost2010PropOp55
 70
     1
102
RTVSPost2010Prop56
140
1.0
102
RTVSPost2010PropOp56
 70
     1
102
RTVSPost2010Prop57
140
1.0
102
RTVSPost2010PropOp57
 70
     1
  0
XRECORD
  5
201
102
{ACAD_REACTORS
330
200
102
}
330
200
100
AcDbXrecord
280
     1
102
RTVSPropertyOp0
 70
     1
102
RTVSPropertyOp1
 70
     1
102
RTVSPropertyOp2
 70
     1
102
RTVSPropertyOp3
 70
     1
102
RTVSPropertyOp4
 70
     1
102
RTVSPropertyOp5
 70
     1
102
RTVSPropertyOp6
 70
     1
102
RTVSPropertyOp7
 70
     1
102
RTVSPropertyOp8
 70
     1
102
RTVSPropertyOp9
 70
     1
102
RTVSPropertyOp10
 70
     1
102
RTVSPropertyOp11
 70
     1
102
RTVSPropertyOp12
 70
     1
102
RTVSPropertyOp13
 70
     1
102
RTVSPropertyOp14
 70
     1
102
RTVSPropertyOp15
 70
     1
102
RTVSPropertyOp16
 70
     1
102
RTVSPropertyOp17
 70
     1
102
RTVSPropertyOp18
 70
     1
102
RTVSPropertyOp19
 70
     1
102
RTVSPropertyOp20
 70
     1
102
RTVSPropertyOp21
 70
     1
102
RTVSPropertyOp22
 70
     1
102
RTVSPropertyOp23
 70
     1
102
RTVSPropertyOp24
 70
     1
102
RTVSPropertyOp25
 70
     1
102
RTVSPropertyOp26
 70
     1
102
RTVSPropertyOp27
 70
     1
102
RTVSPropertyOp28
 70
     1
102
RTVSPropertyOp29
 70
     1
102
RTVSPropertyOp30
 70
     1
102
RTVSPropertyOp31
 70
     1
102
RTVSPropertyOp32
 70
     1
102
RTVSPropertyOp33
 70
     1
102
RTVSPropertyOp34
 70
     1
102
RTVSPropertyOp35
 70
     1
102
RTVSPropertyOp36
 70
     1
102
RTVSPropertyOp37
 70
     1
102
RTVSPropertyOp38
 70
     1
102
RTVSPropertyOp39
 70
     1
102
RTVSPropertyOp40
 70
     1
102
RTVSPropertyOp41
 70
     1
102
RTVSPropertyOp42
 70
     1
102
RTVSPropertyOp43
 70
     1
102
RTVSPropertyOp44
 70
     1
102
RTVSPropertyOp45
 70
     1
102
RTVSPropertyOp46
 70
     1
102
RTVSPropertyOp47
 70
     1
102
RTVSPropertyOp48
 70
     1
102
RTVSPropertyOp49
 70
     1
102
RTVSPropertyOp50
 70
     1
102
RTVSPropertyOp51
 70
     0
102
RTVSPropertyOp52
 70
     0
102
RTVSPropertyOp53
 70
     1
102
RTVSPropertyOp54
 70
     1
102
RTVSPropertyOp55
 70
     1
102
RTVSPropertyOp56
 70
     1
102
RTVSPropertyOp57
 70
     1
102
RTVSPost2010Prop28
280
     0
102
RTVSPost2010PropOp28
 70
     1
102
RTVSPost2010Prop29
280
     1
102
RTVSPost2010PropOp29
 70
     1
102
RTVSPost2010Prop30
280
     1
102
RTVSPost2010PropOp30
 70
     1
102
RTVSPost2010Prop31
280
     0
102
RTVSPost2010PropOp31
 70
     1
102
RTVSPost2010Prop32
280
     0
102
RTVSPost2010PropOp32
 70
     1
102
RTVSPost2010Prop33
280
     0
102
RTVSPost2010PropOp33
 70
     1
102
RTVSPost2010Prop34
280
     0
102
RTVSPost2010PropOp34
 70
     1
102
RTVSPost2010Prop35
280
     0
102
RTVSPost2010PropOp35
 70
     1
102
RTVSPost2010Prop36
280
     0
102
RTVSPost2010PropOp36
 70
     1
102
RTVSPost2010Prop37
 90
       50
102
RTVSPost2010PropOp37
 70
     1
102
RTVSPost2010Prop38
140
0.0
102
RTVSPost2010PropOp38
 70
     1
102
RTVSPost2010Prop39
140
1.0
102
RTVSPost2010PropOp39
 70
     1
102
RTVSPost2010Prop40
 90
        0
102
RTVSPost2010PropOp40
 70
     1
102
RTVSPost2010Prop41ColorIndex
 90
       18
102
RTVSPost2010Prop41ColorRGB
 90
        0
102
RTVSPost2010PropOp41
 70
     1
102
RTVSPost2010Prop42
 90
       50
102
RTVSPost2010PropOp42
 70
     1
102
RTVSPost2010Prop43
 90
        3
102
RTVSPost2010PropOp43
 70
     1
102
RTVSPost2010Prop44ColorIndex
 90
        5
102
RTVSPost2010Prop44ColorRGB
 90
      255
102
RTVSPost2010PropOp44
 70
     1
102
RTVSPost2010Prop45
280
     0
102
RTVSPost2010PropOp45
 70
     1
102
RTVSPost2010Prop46
 90
       50
102
RTVSPost2010PropOp46
 70
     1
102
RTVSPost2010Prop47
 90
       50
102
RTVSPost2010PropOp47
 70
     1
102
RTVSPost2010Prop48
 90
       50
102
RTVSPost2010PropOp48
 70
     1
102
RTVSPost2010Prop49
280
     0
102
RTVSPost2010PropOp49
 70
     1
102
RTVSPost2010Prop50
 90
       50
102
RTVSPost2010PropOp50
 70
     1
102
RTVSPost2010Prop51ColorIndex
 90
      256
102
RTVSPost2010Prop51ColorRGB
 90
-16777216
102
RTVSPost2010PropOp51
 70
     0
102
RTVSPost2010Prop52
140
1.0
102
RTVSPost2010PropOp52
 70
     0
102
RTVSPost2010Prop53
 90
        2
102
RTVSPost2010PropOp53
 70
     1
102
RTVSPost2010Prop54
  1
strokes_ogs.tif
102
RTVSPost2010PropOp54
 70
     1
102
RTVSPost2010Prop55
280
     0
102
RTVSPost2010PropOp55
 70
     1
102
RTVSPost2010Prop56
140
1.0
102
RTVSPost2010PropOp56
 70
     1
102
RTVSPost2010Prop57
140
1.0
102
RTVSPost2010PropOp57
 70
     1
  0
XRECORD
  5
1F5
102
{ACAD_REACTORS
330
1F4
102
}
330
1F4
100
AcDbXrecord
280
     1
102
RTVSPropertyOp0
 70
     1
102
RTVSPropertyOp1
 70
     1
102
RTVSPropertyOp2
 70
     1
102
RTVSPropertyOp3
 70
     1
102
RTVSPropertyOp4
 70
     1
102
RTVSPropertyOp5
 70
     1
102
RTVSPropertyOp6
 70
     1
102
RTVSPropertyOp7
 70
     1
102
RTVSPropertyOp8
 70
     1
102
RTVSPropertyOp9
 70
     1
102
RTVSPropertyOp10
 70
     1
102
RTVSPropertyOp11
 70
     1
102
RTVSPropertyOp12
 70
     1
102
RTVSPropertyOp13
 70
     1
102
RTVSPropertyOp14
 70
     1
102
RTVSPropertyOp15
 70
     1
102
RTVSPropertyOp16
 70
     1
102
RTVSPropertyOp17
 70
     1
102
RTVSPropertyOp18
 70
     1
102
RTVSPropertyOp19
 70
     1
102
RTVSPropertyOp20
 70
     1
102
RTVSPropertyOp21
 70
     1
102
RTVSPropertyOp22
 70
     1
102
RTVSPropertyOp23
 70
     1
102
RTVSPropertyOp24
 70
     1
102
RTVSPropertyOp25
 70
     1
102
RTVSPropertyOp26
 70
     1
102
RTVSPropertyOp27
 70
     1
102
RTVSPropertyOp28
 70
     1
102
RTVSPropertyOp29
 70
     1
102
RTVSPropertyOp30
 70
     1
102
RTVSPropertyOp31
 70
     1
102
RTVSPropertyOp32
 70
     1
102
RTVSPropertyOp33
 70
     1
102
RTVSPropertyOp34
 70
     1
102
RTVSPropertyOp35
 70
     1
102
RTVSPropertyOp36
 70
     1
102
RTVSPropertyOp37
 70
     1
102
RTVSPropertyOp38
 70
     1
102
RTVSPropertyOp39
 70
     1
102
RTVSPropertyOp40
 70
     1
102
RTVSPropertyOp41
 70
     1
102
RTVSPropertyOp42
 70
     1
102
RTVSPropertyOp43
 70
     1
102
RTVSPropertyOp44
 70
     1
102
RTVSPropertyOp45
 70
     1
102
RTVSPropertyOp46
 70
     1
102
RTVSPropertyOp47
 70
     1
102
RTVSPropertyOp48
 70
     1
102
RTVSPropertyOp49
 70
     1
102
RTVSPropertyOp50
 70
     1
102
RTVSPropertyOp51
 70
     0
102
RTVSPropertyOp52
 70
     0
102
RTVSPropertyOp53
 70
     1
102
RTVSPropertyOp54
 70
     1
102
RTVSPropertyOp55
 70
     1
102
RTVSPropertyOp56
 70
     1
102
RTVSPropertyOp57
 70
     1
102
RTVSPost2010Prop28
280
     0
102
RTVSPost2010PropOp28
 70
     1
102
RTVSPost2010Prop29
280
     1
102
RTVSPost2010PropOp29
 70
     1
102
RTVSPost2010Prop30
280
     1
102
RTVSPost2010PropOp30
 70
     1
102
RTVSPost2010Prop31
280
     0
102
RTVSPost2010PropOp31
 70
     1
102
RTVSPost2010Prop32
280
     0
102
RTVSPost2010PropOp32
 70
     1
102
RTVSPost2010Prop33
280
     0
102
RTVSPost2010PropOp33
 70
     1
102
RTVSPost2010Prop34
280
     0
102
RTVSPost2010PropOp34
 70
     1
102
RTVSPost2010Prop35
280
     0
102
RTVSPost2010PropOp35
 70
     1
102
RTVSPost2010Prop36
280
     0
102
RTVSPost2010PropOp36
 70
     1
102
RTVSPost2010Prop37
 90
       50
102
RTVSPost2010PropOp37
 70
     1
102
RTVSPost2010Prop38
140
0.0
102
RTVSPost2010PropOp38
 70
     1
102
RTVSPost2010Prop39
140
1.0
102
RTVSPost2010PropOp39
 70
     1
102
RTVSPost2010Prop40
 90
        0
102
RTVSPost2010PropOp40
 70
     1
102
RTVSPost2010Prop41ColorIndex
 90
       18
102
RTVSPost2010Prop41ColorRGB
 90
        0
102
RTVSPost2010PropOp41
 70
     1
102
RTVSPost2010Prop42
 90
       50
102
RTVSPost2010PropOp42
 70
     1
102
RTVSPost2010Prop43
 90
        3
102
RTVSPost2010PropOp43
 70
     1
102
RTVSPost2010Prop44ColorIndex
 90
        5
102
RTVSPost2010Prop44ColorRGB
 90
      255
102
RTVSPost2010PropOp44
 70
     1
102
RTVSPost2010Prop45
280
     0
102
RTVSPost2010PropOp45
 70
     1
102
RTVSPost2010Prop46
 90
       50
102
RTVSPost2010PropOp46
 70
     1
102
RTVSPost2010Prop47
 90
       50
102
RTVSPost2010PropOp47
 70
     1
102
RTVSPost2010Prop48
 90
       50
102
RTVSPost2010PropOp48
 70
     1
102
RTVSPost2010Prop49
280
     0
102
RTVSPost2010PropOp49
 70
     1
102
RTVSPost2010Prop50
 90
       50
102
RTVSPost2010PropOp50
 70
     1
102
RTVSPost2010Prop51ColorIndex
 90
      256
102
RTVSPost2010Prop51ColorRGB
 90
-16777216
102
RTVSPost2010PropOp51
 70
     0
102
RTVSPost2010Prop52
140
1.0
102
RTVSPost2010PropOp52
 70
     0
102
RTVSPost2010Prop53
 90
        2
102
RTVSPost2010PropOp53
 70
     1
102
RTVSPost2010Prop54
  1
strokes_ogs.tif
102
RTVSPost2010PropOp54
 70
     1
102
RTVSPost2010Prop55
280
     0
102
RTVSPost2010PropOp55
 70
     1
102
RTVSPost2010Prop56
140
1.0
102
RTVSPost2010PropOp56
 70
     1
102
RTVSPost2010Prop57
140
1.0
102
RTVSPost2010PropOp57
 70
     1
  0
XRECORD
  5
1F7
102
{ACAD_REACTORS
330
1F6
102
}
330
1F6
100
AcDbXrecord
280
     1
102
RTVSPropertyOp0
 70
     1
102
RTVSPropertyOp1
 70
     1
102
RTVSPropertyOp2
 70
     1
102
RTVSPropertyOp3
 70
     1
102
RTVSPropertyOp4
 70
     1
102
RTVSPropertyOp5
 70
     1
102
RTVSPropertyOp6
 70
     1
102
RTVSPropertyOp7
 70
     1
102
RTVSPropertyOp8
 70
     1
102
RTVSPropertyOp9
 70
     1
102
RTVSPropertyOp10
 70
     1
102
RTVSPropertyOp11
 70
     1
102
RTVSPropertyOp12
 70
     1
102
RTVSPropertyOp13
 70
     1
102
RTVSPropertyOp14
 70
     1
102
RTVSPropertyOp15
 70
     1
102
RTVSPropertyOp16
 70
     1
102
RTVSPropertyOp17
 70
     1
102
RTVSPropertyOp18
 70
     1
102
RTVSPropertyOp19
 70
     1
102
RTVSPropertyOp20
 70
     1
102
RTVSPropertyOp21
 70
     1
102
RTVSPropertyOp22
 70
     1
102
RTVSPropertyOp23
 70
     1
102
RTVSPropertyOp24
 70
     1
102
RTVSPropertyOp25
 70
     1
102
RTVSPropertyOp26
 70
     1
102
RTVSPropertyOp27
 70
     1
102
RTVSPropertyOp28
 70
     1
102
RTVSPropertyOp29
 70
     1
102
RTVSPropertyOp30
 70
     1
102
RTVSPropertyOp31
 70
     1
102
RTVSPropertyOp32
 70
     1
102
RTVSPropertyOp33
 70
     1
102
RTVSPropertyOp34
 70
     1
102
RTVSPropertyOp35
 70
     1
102
RTVSPropertyOp36
 70
     1
102
RTVSPropertyOp37
 70
     1
102
RTVSPropertyOp38
 70
     1
102
RTVSPropertyOp39
 70
     1
102
RTVSPropertyOp40
 70
     1
102
RTVSPropertyOp41
 70
     1
102
RTVSPropertyOp42
 70
     1
102
RTVSPropertyOp43
 70
     1
102
RTVSPropertyOp44
 70
     1
102
RTVSPropertyOp45
 70
     1
102
RTVSPropertyOp46
 70
     1
102
RTVSPropertyOp47
 70
     1
102
RTVSPropertyOp48
 70
     1
102
RTVSPropertyOp49
 70
     1
102
RTVSPropertyOp50
 70
     1
102
RTVSPropertyOp51
 70
     0
102
RTVSPropertyOp52
 70
     0
102
RTVSPropertyOp53
 70
     1
102
RTVSPropertyOp54
 70
     1
102
RTVSPropertyOp55
 70
     1
102
RTVSPropertyOp56
 70
     1
102
RTVSPropertyOp57
 70
     1
102
RTVSPost2010Prop28
280
     0
102
RTVSPost2010PropOp28
 70
     1
102
RTVSPost2010Prop29
280
     1
102
RTVSPost2010PropOp29
 70
     1
102
RTVSPost2010Prop30
280
     1
102
RTVSPost2010PropOp30
 70
     1
102
RTVSPost2010Prop31
280
     0
102
RTVSPost2010PropOp31
 70
     1
102
RTVSPost2010Prop32
280
     0
102
RTVSPost2010PropOp32
 70
     1
102
RTVSPost2010Prop33
280
     0
102
RTVSPost2010PropOp33
 70
     1
102
RTVSPost2010Prop34
280
     0
102
RTVSPost2010PropOp34
 70
     1
102
RTVSPost2010Prop35
280
     0
102
RTVSPost2010PropOp35
 70
     1
102
RTVSPost2010Prop36
280
     0
102
RTVSPost2010PropOp36
 70
     1
102
RTVSPost2010Prop37
 90
       50
102
RTVSPost2010PropOp37
 70
     1
102
RTVSPost2010Prop38
140
0.0
102
RTVSPost2010PropOp38
 70
     1
102
RTVSPost2010Prop39
140
1.0
102
RTVSPost2010PropOp39
 70
     1
102
RTVSPost2010Prop40
 90
        0
102
RTVSPost2010PropOp40
 70
     1
102
RTVSPost2010Prop41ColorIndex
 90
       18
102
RTVSPost2010Prop41ColorRGB
 90
        0
102
RTVSPost2010PropOp41
 70
     1
102
RTVSPost2010Prop42
 90
       50
102
RTVSPost2010PropOp42
 70
     1
102
RTVSPost2010Prop43
 90
        3
102
RTVSPost2010PropOp43
 70
     1
102
RTVSPost2010Prop44ColorIndex
 90
        5
102
RTVSPost2010Prop44ColorRGB
 90
      255
102
RTVSPost2010PropOp44
 70
     1
102
RTVSPost2010Prop45
280
     0
102
RTVSPost2010PropOp45
 70
     1
102
RTVSPost2010Prop46
 90
       50
102
RTVSPost2010PropOp46
 70
     1
102
RTVSPost2010Prop47
 90
       50
102
RTVSPost2010PropOp47
 70
     1
102
RTVSPost2010Prop48
 90
       50
102
RTVSPost2010PropOp48
 70
     1
102
RTVSPost2010Prop49
280
     0
102
RTVSPost2010PropOp49
 70
     1
102
RTVSPost2010Prop50
 90
       50
102
RTVSPost2010PropOp50
 70
     1
102
RTVSPost2010Prop51ColorIndex
 90
      256
102
RTVSPost2010Prop51ColorRGB
 90
-16777216
102
RTVSPost2010PropOp51
 70
     0
102
RTVSPost2010Prop52
140
1.0
102
RTVSPost2010PropOp52
 70
     0
102
RTVSPost2010Prop53
 90
        2
102
RTVSPost2010PropOp53
 70
     1
102
RTVSPost2010Prop54
  1
strokes_ogs.tif
102
RTVSPost2010PropOp54
 70
     1
102
RTVSPost2010Prop55
280
     0
102
RTVSPost2010PropOp55
 70
     1
102
RTVSPost2010Prop56
140
1.0
102
RTVSPost2010PropOp56
 70
     1
102
RTVSPost2010Prop57
140
1.0
102
RTVSPost2010PropOp57
 70
     1
  0
XRECORD
  5
207
102
{ACAD_REACTORS
330
206
102
}
330
206
100
AcDbXrecord
280
     1
102
RTVSPropertyOp0
 70
     0
102
RTVSPropertyOp1
 70
     0
102
RTVSPropertyOp2
 70
     0
102
RTVSPropertyOp3
 70
     0
102
RTVSPropertyOp4
 70
     0
102
RTVSPropertyOp5
 70
     0
102
RTVSPropertyOp6
 70
     0
102
RTVSPropertyOp7
 70
     0
102
RTVSPropertyOp8
 70
     0
102
RTVSPropertyOp9
 70
     0
102
RTVSPropertyOp10
 70
     0
102
RTVSPropertyOp11
 70
     0
102
RTVSPropertyOp12
 70
     0
102
RTVSPropertyOp13
 70
     0
102
RTVSPropertyOp14
 70
     2
102
RTVSPropertyOp15
 70
     0
102
RTVSPropertyOp16
 70
     0
102
RTVSPropertyOp17
 70
     0
102
RTVSPropertyOp18
 70
     0
102
RTVSPropertyOp19
 70
     0
102
RTVSPropertyOp20
 70
     0
102
RTVSPropertyOp21
 70
     0
102
RTVSPropertyOp22
 70
     0
102
RTVSPropertyOp23
 70
     0
102
RTVSPropertyOp24
 70
     0
102
RTVSPropertyOp25
 70
     0
102
RTVSPropertyOp26
 70
     0
102
RTVSPropertyOp27
 70
     0
102
RTVSPropertyOp28
 70
     0
102
RTVSPropertyOp29
 70
     0
102
RTVSPropertyOp30
 70
     0
102
RTVSPropertyOp31
 70
     0
102
RTVSPropertyOp32
 70
     0
102
RTVSPropertyOp33
 70
     0
102
RTVSPropertyOp34
 70
     0
102
RTVSPropertyOp35
 70
     0
102
RTVSPropertyOp36
 70
     0
102
RTVSPropertyOp37
 70
     0
102
RTVSPropertyOp38
 70
     0
102
RTVSPropertyOp39
 70
     0
102
RTVSPropertyOp40
 70
     0
102
RTVSPropertyOp41
 70
     0
102
RTVSPropertyOp42
 70
     0
102
RTVSPropertyOp43
 70
     0
102
RTVSPropertyOp44
 70
     0
102
RTVSPropertyOp45
 70
     0
102
RTVSPropertyOp46
 70
     0
102
RTVSPropertyOp47
 70
     0
102
RTVSPropertyOp48
 70
     0
102
RTVSPropertyOp49
 70
     0
102
RTVSPropertyOp50
 70
     0
102
RTVSPropertyOp51
 70
     0
102
RTVSPropertyOp52
 70
     0
102
RTVSPropertyOp53
 70
     0
102
RTVSPropertyOp54
 70
     0
102
RTVSPropertyOp55
 70
     0
102
RTVSPropertyOp56
 70
     0
102
RTVSPropertyOp57
 70
     0
102
RTVSPost2010Prop28
280
     0
102
RTVSPost2010PropOp28
 70
     0
102
RTVSPost2010Prop29
280
     1
102
RTVSPost2010PropOp29
 70
     0
102
RTVSPost2010Prop30
280
     1
102
RTVSPost2010PropOp30
 70
     0
102
RTVSPost2010Prop31
280
     0
102
RTVSPost2010PropOp31
 70
     0
102
RTVSPost2010Prop32
280
     0
102
RTVSPost2010PropOp32
 70
     0
102
RTVSPost2010Prop33
280
     0
102
RTVSPost2010PropOp33
 70
     0
102
RTVSPost2010Prop34
280
     0
102
RTVSPost2010PropOp34
 70
     0
102
RTVSPost2010Prop35
280
     0
102
RTVSPost2010PropOp35
 70
     0
102
RTVSPost2010Prop36
280
     0
102
RTVSPost2010PropOp36
 70
     0
102
RTVSPost2010Prop37
 90
       50
102
RTVSPost2010PropOp37
 70
     0
102
RTVSPost2010Prop38
140
0.0
102
RTVSPost2010PropOp38
 70
     0
102
RTVSPost2010Prop39
140
1.0
102
RTVSPost2010PropOp39
 70
     0
102
RTVSPost2010Prop40
 90
        0
102
RTVSPost2010PropOp40
 70
     0
102
RTVSPost2010Prop41ColorIndex
 90
       18
102
RTVSPost2010Prop41ColorRGB
 90
        0
102
RTVSPost2010PropOp41
 70
     0
102
RTVSPost2010Prop42
 90
       50
102
RTVSPost2010PropOp42
 70
     0
102
RTVSPost2010Prop43
 90
        3
102
RTVSPost2010PropOp43
 70
     0
102
RTVSPost2010Prop44ColorIndex
 90
        5
102
RTVSPost2010Prop44ColorRGB
 90
      255
102
RTVSPost2010PropOp44
 70
     0
102
RTVSPost2010Prop45
280
     0
102
RTVSPost2010PropOp45
 70
     0
102
RTVSPost2010Prop46
 90
       50
102
RTVSPost2010PropOp46
 70
     0
102
RTVSPost2010Prop47
 90
       50
102
RTVSPost2010PropOp47
 70
     0
102
RTVSPost2010Prop48
 90
       50
102
RTVSPost2010PropOp48
 70
     0
102
RTVSPost2010Prop49
280
     0
102
RTVSPost2010PropOp49
 70
     0
102
RTVSPost2010Prop50
 90
       50
102
RTVSPost2010PropOp50
 70
     0
102
RTVSPost2010Prop51ColorIndex
 90
      256
102
RTVSPost2010Prop51ColorRGB
 90
-16777216
102
RTVSPost2010PropOp51
 70
     0
102
RTVSPost2010Prop52
140
1.0
102
RTVSPost2010PropOp52
 70
     0
102
RTVSPost2010Prop53
 90
        2
102
RTVSPost2010PropOp53
 70
     0
102
RTVSPost2010Prop54
  1
strokes_ogs.tif
102
RTVSPost2010PropOp54
 70
     0
102
RTVSPost2010Prop55
280
     0
102
RTVSPost2010PropOp55
 70
     0
102
RTVSPost2010Prop56
140
1.0
102
RTVSPost2010PropOp56
 70
     0
102
RTVSPost2010Prop57
140
1.0
102
RTVSPost2010PropOp57
 70
     0
  0
XRECORD
  5
1FF
102
{ACAD_REACTORS
330
1FE
102
}
330
1FE
100
AcDbXrecord
280
     1
102
RTVSPropertyOp0
 70
     1
102
RTVSPropertyOp1
 70
     1
102
RTVSPropertyOp2
 70
     1
102
RTVSPropertyOp3
 70
     1
102
RTVSPropertyOp4
 70
     1
102
RTVSPropertyOp5
 70
     1
102
RTVSPropertyOp6
 70
     1
102
RTVSPropertyOp7
 70
     1
102
RTVSPropertyOp8
 70
     1
102
RTVSPropertyOp9
 70
     1
102
RTVSPropertyOp10
 70
     1
102
RTVSPropertyOp11
 70
     1
102
RTVSPropertyOp12
 70
     1
102
RTVSPropertyOp13
 70
     1
102
RTVSPropertyOp14
 70
     1
102
RTVSPropertyOp15
 70
     1
102
RTVSPropertyOp16
 70
     1
102
RTVSPropertyOp17
 70
     1
102
RTVSPropertyOp18
 70
     1
102
RTVSPropertyOp19
 70
     1
102
RTVSPropertyOp20
 70
     1
102
RTVSPropertyOp21
 70
     1
102
RTVSPropertyOp22
 70
     1
102
RTVSPropertyOp23
 70
     1
102
RTVSPropertyOp24
 70
     1
102
RTVSPropertyOp25
 70
     1
102
RTVSPropertyOp26
 70
     1
102
RTVSPropertyOp27
 70
     1
102
RTVSPropertyOp28
 70
     1
102
RTVSPropertyOp29
 70
     1
102
RTVSPropertyOp30
 70
     1
102
RTVSPropertyOp31
 70
     1
102
RTVSPropertyOp32
 70
     1
102
RTVSPropertyOp33
 70
     1
102
RTVSPropertyOp34
 70
     1
102
RTVSPropertyOp35
 70
     1
102
RTVSPropertyOp36
 70
     1
102
RTVSPropertyOp37
 70
     1
102
RTVSPropertyOp38
 70
     1
102
RTVSPropertyOp39
 70
     1
102
RTVSPropertyOp40
 70
     1
102
RTVSPropertyOp41
 70
     1
102
RTVSPropertyOp42
 70
     1
102
RTVSPropertyOp43
 70
     1
102
RTVSPropertyOp44
 70
     1
102
RTVSPropertyOp45
 70
     1
102
RTVSPropertyOp46
 70
     1
102
RTVSPropertyOp47
 70
     1
102
RTVSPropertyOp48
 70
     1
102
RTVSPropertyOp49
 70
     1
102
RTVSPropertyOp50
 70
     1
102
RTVSPropertyOp51
 70
     0
102
RTVSPropertyOp52
 70
     0
102
RTVSPropertyOp53
 70
     1
102
RTVSPropertyOp54
 70
     1
102
RTVSPropertyOp55
 70
     1
102
RTVSPropertyOp56
 70
     1
102
RTVSPropertyOp57
 70
     1
102
RTVSPost2010Prop28
280
     0
102
RTVSPost2010PropOp28
 70
     1
102
RTVSPost2010Prop29
280
     1
102
RTVSPost2010PropOp29
 70
     1
102
RTVSPost2010Prop30
280
     1
102
RTVSPost2010PropOp30
 70
     1
102
RTVSPost2010Prop31
280
     0
102
RTVSPost2010PropOp31
 70
     1
102
RTVSPost2010Prop32
280
     0
102
RTVSPost2010PropOp32
 70
     1
102
RTVSPost2010Prop33
280
     0
102
RTVSPost2010PropOp33
 70
     1
102
RTVSPost2010Prop34
280
     0
102
RTVSPost2010PropOp34
 70
     1
102
RTVSPost2010Prop35
280
     0
102
RTVSPost2010PropOp35
 70
     1
102
RTVSPost2010Prop36
280
     0
102
RTVSPost2010PropOp36
 70
     1
102
RTVSPost2010Prop37
 90
       50
102
RTVSPost2010PropOp37
 70
     1
102
RTVSPost2010Prop38
140
0.0
102
RTVSPost2010PropOp38
 70
     1
102
RTVSPost2010Prop39
140
1.0
102
RTVSPost2010PropOp39
 70
     1
102
RTVSPost2010Prop40
 90
        0
102
RTVSPost2010PropOp40
 70
     1
102
RTVSPost2010Prop41ColorIndex
 90
       18
102
RTVSPost2010Prop41ColorRGB
 90
        0
102
RTVSPost2010PropOp41
 70
     1
102
RTVSPost2010Prop42
 90
       50
102
RTVSPost2010PropOp42
 70
     1
102
RTVSPost2010Prop43
 90
        3
102
RTVSPost2010PropOp43
 70
     1
102
RTVSPost2010Prop44ColorIndex
 90
        5
102
RTVSPost2010Prop44ColorRGB
 90
      255
102
RTVSPost2010PropOp44
 70
     1
102
RTVSPost2010Prop45
280
     0
102
RTVSPost2010PropOp45
 70
     1
102
RTVSPost2010Prop46
 90
       50
102
RTVSPost2010PropOp46
 70
     1
102
RTVSPost2010Prop47
 90
       50
102
RTVSPost2010PropOp47
 70
     1
102
RTVSPost2010Prop48
 90
       50
102
RTVSPost2010PropOp48
 70
     1
102
RTVSPost2010Prop49
280
     0
102
RTVSPost2010PropOp49
 70
     1
102
RTVSPost2010Prop50
 90
       50
102
RTVSPost2010PropOp50
 70
     1
102
RTVSPost2010Prop51ColorIndex
 90
      256
102
RTVSPost2010Prop51ColorRGB
 90
-16777216
102
RTVSPost2010PropOp51
 70
     0
102
RTVSPost2010Prop52
140
1.0
102
RTVSPost2010PropOp52
 70
     0
102
RTVSPost2010Prop53
 90
        2
102
RTVSPost2010PropOp53
 70
     1
102
RTVSPost2010Prop54
  1
strokes_ogs.tif
102
RTVSPost2010PropOp54
 70
     1
102
RTVSPost2010Prop55
280
     0
102
RTVSPost2010PropOp55
 70
     1
102
RTVSPost2010Prop56
140
1.0
102
RTVSPost2010PropOp56
 70
     1
102
RTVSPost2010Prop57
140
1.0
102
RTVSPost2010PropOp57
 70
     1
  0
XRECORD
  5
1E3
102
{ACAD_REACTORS
330
1E2
102
}
330
1E2
100
AcDbXrecord
280
     1
102
RTVSPropertyOp0
 70
     1
102
RTVSPropertyOp1
 70
     1
102
RTVSPropertyOp2
 70
     1
102
RTVSPropertyOp3
 70
     1
102
RTVSPropertyOp4
 70
     1
102
RTVSPropertyOp5
 70
     1
102
RTVSPropertyOp6
 70
     1
102
RTVSPropertyOp7
 70
     1
102
RTVSPropertyOp8
 70
     1
102
RTVSPropertyOp9
 70
     1
102
RTVSPropertyOp10
 70
     1
102
RTVSPropertyOp11
 70
     1
102
RTVSPropertyOp12
 70
     1
102
RTVSPropertyOp13
 70
     1
102
RTVSPropertyOp14
 70
     1
102
RTVSPropertyOp15
 70
     1
102
RTVSPropertyOp16
 70
     1
102
RTVSPropertyOp17
 70
     1
102
RTVSPropertyOp18
 70
     1
102
RTVSPropertyOp19
 70
     1
102
RTVSPropertyOp20
 70
     1
102
RTVSPropertyOp21
 70
     1
102
RTVSPropertyOp22
 70
     1
102
RTVSPropertyOp23
 70
     1
102
RTVSPropertyOp24
 70
     1
102
RTVSPropertyOp25
 70
     1
102
RTVSPropertyOp26
 70
     1
102
RTVSPropertyOp27
 70
     1
102
RTVSPropertyOp28
 70
     1
102
RTVSPropertyOp29
 70
     1
102
RTVSPropertyOp30
 70
     1
102
RTVSPropertyOp31
 70
     1
102
RTVSPropertyOp32
 70
     1
102
RTVSPropertyOp33
 70
     1
102
RTVSPropertyOp34
 70
     1
102
RTVSPropertyOp35
 70
     1
102
RTVSPropertyOp36
 70
     1
102
RTVSPropertyOp37
 70
     1
102
RTVSPropertyOp38
 70
     1
102
RTVSPropertyOp39
 70
     1
102
RTVSPropertyOp40
 70
     1
102
RTVSPropertyOp41
 70
     1
102
RTVSPropertyOp42
 70
     1
102
RTVSPropertyOp43
 70
     1
102
RTVSPropertyOp44
 70
     1
102
RTVSPropertyOp45
 70
     1
102
RTVSPropertyOp46
 70
     1
102
RTVSPropertyOp47
 70
     1
102
RTVSPropertyOp48
 70
     1
102
RTVSPropertyOp49
 70
     1
102
RTVSPropertyOp50
 70
     1
102
RTVSPropertyOp51
 70
     0
102
RTVSPropertyOp52
 70
     0
102
RTVSPropertyOp53
 70
     1
102
RTVSPropertyOp54
 70
     1
102
RTVSPropertyOp55
 70
     1
102
RTVSPropertyOp56
 70
     1
102
RTVSPropertyOp57
 70
     1
102
RTVSPost2010Prop28
280
     0
102
RTVSPost2010PropOp28
 70
     1
102
RTVSPost2010Prop29
280
     1
102
RTVSPost2010PropOp29
 70
     1
102
RTVSPost2010Prop30
280
     1
102
RTVSPost2010PropOp30
 70
     1
102
RTVSPost2010Prop31
280
     0
102
RTVSPost2010PropOp31
 70
     1
102
RTVSPost2010Prop32
280
     0
102
RTVSPost2010PropOp32
 70
     1
102
RTVSPost2010Prop33
280
     0
102
RTVSPost2010PropOp33
 70
     1
102
RTVSPost2010Prop34
280
     0
102
RTVSPost2010PropOp34
 70
     1
102
RTVSPost2010Prop35
280
     0
102
RTVSPost2010PropOp35
 70
     1
102
RTVSPost2010Prop36
280
     0
102
RTVSPost2010PropOp36
 70
     1
102
RTVSPost2010Prop37
 90
       50
102
RTVSPost2010PropOp37
 70
     1
102
RTVSPost2010Prop38
140
0.0
102
RTVSPost2010PropOp38
 70
     1
102
RTVSPost2010Prop39
140
1.0
102
RTVSPost2010PropOp39
 70
     1
102
RTVSPost2010Prop40
 90
        0
102
RTVSPost2010PropOp40
 70
     1
102
RTVSPost2010Prop41ColorIndex
 90
       18
102
RTVSPost2010Prop41ColorRGB
 90
        0
102
RTVSPost2010PropOp41
 70
     1
102
RTVSPost2010Prop42
 90
       50
102
RTVSPost2010PropOp42
 70
     1
102
RTVSPost2010Prop43
 90
        3
102
RTVSPost2010PropOp43
 70
     1
102
RTVSPost2010Prop44ColorIndex
 90
        5
102
RTVSPost2010Prop44ColorRGB
 90
      255
102
RTVSPost2010PropOp44
 70
     1
102
RTVSPost2010Prop45
280
     0
102
RTVSPost2010PropOp45
 70
     1
102
RTVSPost2010Prop46
 90
       50
102
RTVSPost2010PropOp46
 70
     1
102
RTVSPost2010Prop47
 90
       50
102
RTVSPost2010PropOp47
 70
     1
102
RTVSPost2010Prop48
 90
       50
102
RTVSPost2010PropOp48
 70
     1
102
RTVSPost2010Prop49
280
     0
102
RTVSPost2010PropOp49
 70
     1
102
RTVSPost2010Prop50
 90
       50
102
RTVSPost2010PropOp50
 70
     1
102
RTVSPost2010Prop51ColorIndex
 90
      256
102
RTVSPost2010Prop51ColorRGB
 90
-16777216
102
RTVSPost2010PropOp51
 70
     0
102
RTVSPost2010Prop52
140
1.0
102
RTVSPost2010PropOp52
 70
     0
102
RTVSPost2010Prop53
 90
        2
102
RTVSPost2010PropOp53
 70
     1
102
RTVSPost2010Prop54
  1
strokes_ogs.tif
102
RTVSPost2010PropOp54
 70
     1
102
RTVSPost2010Prop55
280
     0
102
RTVSPost2010PropOp55
 70
     1
102
RTVSPost2010Prop56
140
1.0
102
RTVSPost2010PropOp56
 70
     1
102
RTVSPost2010Prop57
140
1.0
102
RTVSPost2010PropOp57
 70
     1
  0
XRECORD
  5
1E5
102
{ACAD_REACTORS
330
1E4
102
}
330
1E4
100
AcDbXrecord
280
     1
102
RTVSPropertyOp0
 70
     1
102
RTVSPropertyOp1
 70
     1
102
RTVSPropertyOp2
 70
     1
102
RTVSPropertyOp3
 70
     1
102
RTVSPropertyOp4
 70
     1
102
RTVSPropertyOp5
 70
     1
102
RTVSPropertyOp6
 70
     1
102
RTVSPropertyOp7
 70
     1
102
RTVSPropertyOp8
 70
     1
102
RTVSPropertyOp9
 70
     1
102
RTVSPropertyOp10
 70
     1
102
RTVSPropertyOp11
 70
     1
102
RTVSPropertyOp12
 70
     1
102
RTVSPropertyOp13
 70
     1
102
RTVSPropertyOp14
 70
     1
102
RTVSPropertyOp15
 70
     1
102
RTVSPropertyOp16
 70
     1
102
RTVSPropertyOp17
 70
     1
102
RTVSPropertyOp18
 70
     1
102
RTVSPropertyOp19
 70
     1
102
RTVSPropertyOp20
 70
     1
102
RTVSPropertyOp21
 70
     1
102
RTVSPropertyOp22
 70
     1
102
RTVSPropertyOp23
 70
     1
102
RTVSPropertyOp24
 70
     1
102
RTVSPropertyOp25
 70
     1
102
RTVSPropertyOp26
 70
     1
102
RTVSPropertyOp27
 70
     1
102
RTVSPropertyOp28
 70
     1
102
RTVSPropertyOp29
 70
     1
102
RTVSPropertyOp30
 70
     1
102
RTVSPropertyOp31
 70
     1
102
RTVSPropertyOp32
 70
     1
102
RTVSPropertyOp33
 70
     1
102
RTVSPropertyOp34
 70
     1
102
RTVSPropertyOp35
 70
     1
102
RTVSPropertyOp36
 70
     1
102
RTVSPropertyOp37
 70
     1
102
RTVSPropertyOp38
 70
     1
102
RTVSPropertyOp39
 70
     1
102
RTVSPropertyOp40
 70
     1
102
RTVSPropertyOp41
 70
     1
102
RTVSPropertyOp42
 70
     1
102
RTVSPropertyOp43
 70
     1
102
RTVSPropertyOp44
 70
     1
102
RTVSPropertyOp45
 70
     1
102
RTVSPropertyOp46
 70
     1
102
RTVSPropertyOp47
 70
     1
102
RTVSPropertyOp48
 70
     1
102
RTVSPropertyOp49
 70
     1
102
RTVSPropertyOp50
 70
     1
102
RTVSPropertyOp51
 70
     0
102
RTVSPropertyOp52
 70
     0
102
RTVSPropertyOp53
 70
     1
102
RTVSPropertyOp54
 70
     1
102
RTVSPropertyOp55
 70
     1
102
RTVSPropertyOp56
 70
     1
102
RTVSPropertyOp57
 70
     1
102
RTVSPost2010Prop28
280
     0
102
RTVSPost2010PropOp28
 70
     1
102
RTVSPost2010Prop29
280
     1
102
RTVSPost2010PropOp29
 70
     1
102
RTVSPost2010Prop30
280
     1
102
RTVSPost2010PropOp30
 70
     1
102
RTVSPost2010Prop31
280
     0
102
RTVSPost2010PropOp31
 70
     1
102
RTVSPost2010Prop32
280
     0
102
RTVSPost2010PropOp32
 70
     1
102
RTVSPost2010Prop33
280
     0
102
RTVSPost2010PropOp33
 70
     1
102
RTVSPost2010Prop34
280
     0
102
RTVSPost2010PropOp34
 70
     1
102
RTVSPost2010Prop35
280
     0
102
RTVSPost2010PropOp35
 70
     1
102
RTVSPost2010Prop36
280
     0
102
RTVSPost2010PropOp36
 70
     1
102
RTVSPost2010Prop37
 90
       50
102
RTVSPost2010PropOp37
 70
     1
102
RTVSPost2010Prop38
140
0.0
102
RTVSPost2010PropOp38
 70
     1
102
RTVSPost2010Prop39
140
1.0
102
RTVSPost2010PropOp39
 70
     1
102
RTVSPost2010Prop40
 90
        0
102
RTVSPost2010PropOp40
 70
     1
102
RTVSPost2010Prop41ColorIndex
 90
       18
102
RTVSPost2010Prop41ColorRGB
 90
        0
102
RTVSPost2010PropOp41
 70
     1
102
RTVSPost2010Prop42
 90
       50
102
RTVSPost2010PropOp42
 70
     1
102
RTVSPost2010Prop43
 90
        3
102
RTVSPost2010PropOp43
 70
     1
102
RTVSPost2010Prop44ColorIndex
 90
        5
102
RTVSPost2010Prop44ColorRGB
 90
      255
102
RTVSPost2010PropOp44
 70
     1
102
RTVSPost2010Prop45
280
     0
102
RTVSPost2010PropOp45
 70
     1
102
RTVSPost2010Prop46
 90
       50
102
RTVSPost2010PropOp46
 70
     1
102
RTVSPost2010Prop47
 90
       50
102
RTVSPost2010PropOp47
 70
     1
102
RTVSPost2010Prop48
 90
       50
102
RTVSPost2010PropOp48
 70
     1
102
RTVSPost2010Prop49
280
     0
102
RTVSPost2010PropOp49
 70
     1
102
RTVSPost2010Prop50
 90
       50
102
RTVSPost2010PropOp50
 70
     1
102
RTVSPost2010Prop51ColorIndex
 90
      256
102
RTVSPost2010Prop51ColorRGB
 90
-16777216
102
RTVSPost2010PropOp51
 70
     0
102
RTVSPost2010Prop52
140
1.0
102
RTVSPost2010PropOp52
 70
     0
102
RTVSPost2010Prop53
 90
        2
102
RTVSPost2010PropOp53
 70
     1
102
RTVSPost2010Prop54
  1
strokes_ogs.tif
102
RTVSPost2010PropOp54
 70
     1
102
RTVSPost2010Prop55
280
     0
102
RTVSPost2010PropOp55
 70
     1
102
RTVSPost2010Prop56
140
1.0
102
RTVSPost2010PropOp56
 70
     1
102
RTVSPost2010Prop57
140
1.0
102
RTVSPost2010PropOp57
 70
     1
  0
XRECORD
  5
1E7
102
{ACAD_REACTORS
330
1E6
102
}
330
1E6
100
AcDbXrecord
280
     1
102
RTVSPropertyOp0
 70
     1
102
RTVSPropertyOp1
 70
     1
102
RTVSPropertyOp2
 70
     1
102
RTVSPropertyOp3
 70
     1
102
RTVSPropertyOp4
 70
     1
102
RTVSPropertyOp5
 70
     1
102
RTVSPropertyOp6
 70
     1
102
RTVSPropertyOp7
 70
     1
102
RTVSPropertyOp8
 70
     1
102
RTVSPropertyOp9
 70
     1
102
RTVSPropertyOp10
 70
     1
102
RTVSPropertyOp11
 70
     1
102
RTVSPropertyOp12
 70
     1
102
RTVSPropertyOp13
 70
     1
102
RTVSPropertyOp14
 70
     1
102
RTVSPropertyOp15
 70
     1
102
RTVSPropertyOp16
 70
     1
102
RTVSPropertyOp17
 70
     1
102
RTVSPropertyOp18
 70
     1
102
RTVSPropertyOp19
 70
     1
102
RTVSPropertyOp20
 70
     1
102
RTVSPropertyOp21
 70
     1
102
RTVSPropertyOp22
 70
     1
102
RTVSPropertyOp23
 70
     1
102
RTVSPropertyOp24
 70
     1
102
RTVSPropertyOp25
 70
     1
102
RTVSPropertyOp26
 70
     1
102
RTVSPropertyOp27
 70
     1
102
RTVSPropertyOp28
 70
     1
102
RTVSPropertyOp29
 70
     1
102
RTVSPropertyOp30
 70
     1
102
RTVSPropertyOp31
 70
     1
102
RTVSPropertyOp32
 70
     1
102
RTVSPropertyOp33
 70
     1
102
RTVSPropertyOp34
 70
     1
102
RTVSPropertyOp35
 70
     1
102
RTVSPropertyOp36
 70
     1
102
RTVSPropertyOp37
 70
     1
102
RTVSPropertyOp38
 70
     1
102
RTVSPropertyOp39
 70
     1
102
RTVSPropertyOp40
 70
     1
102
RTVSPropertyOp41
 70
     1
102
RTVSPropertyOp42
 70
     1
102
RTVSPropertyOp43
 70
     1
102
RTVSPropertyOp44
 70
     1
102
RTVSPropertyOp45
 70
     1
102
RTVSPropertyOp46
 70
     1
102
RTVSPropertyOp47
 70
     1
102
RTVSPropertyOp48
 70
     1
102
RTVSPropertyOp49
 70
     1
102
RTVSPropertyOp50
 70
     1
102
RTVSPropertyOp51
 70
     0
102
RTVSPropertyOp52
 70
     0
102
RTVSPropertyOp53
 70
     1
102
RTVSPropertyOp54
 70
     1
102
RTVSPropertyOp55
 70
     1
102
RTVSPropertyOp56
 70
     1
102
RTVSPropertyOp57
 70
     1
102
RTVSPost2010Prop28
280
     0
102
RTVSPost2010PropOp28
 70
     1
102
RTVSPost2010Prop29
280
     1
102
RTVSPost2010PropOp29
 70
     1
102
RTVSPost2010Prop30
280
     1
102
RTVSPost2010PropOp30
 70
     1
102
RTVSPost2010Prop31
280
     0
102
RTVSPost2010PropOp31
 70
     1
102
RTVSPost2010Prop32
280
     0
102
RTVSPost2010PropOp32
 70
     1
102
RTVSPost2010Prop33
280
     0
102
RTVSPost2010PropOp33
 70
     1
102
RTVSPost2010Prop34
280
     0
102
RTVSPost2010PropOp34
 70
     1
102
RTVSPost2010Prop35
280
     0
102
RTVSPost2010PropOp35
 70
     1
102
RTVSPost2010Prop36
280
     0
102
RTVSPost2010PropOp36
 70
     1
102
RTVSPost2010Prop37
 90
       50
102
RTVSPost2010PropOp37
 70
     1
102
RTVSPost2010Prop38
140
0.0
102
RTVSPost2010PropOp38
 70
     1
102
RTVSPost2010Prop39
140
1.0
102
RTVSPost2010PropOp39
 70
     1
102
RTVSPost2010Prop40
 90
        0
102
RTVSPost2010PropOp40
 70
     1
102
RTVSPost2010Prop41ColorIndex
 90
       18
102
RTVSPost2010Prop41ColorRGB
 90
        0
102
RTVSPost2010PropOp41
 70
     1
102
RTVSPost2010Prop42
 90
       50
102
RTVSPost2010PropOp42
 70
     1
102
RTVSPost2010Prop43
 90
        3
102
RTVSPost2010PropOp43
 70
     1
102
RTVSPost2010Prop44ColorIndex
 90
        5
102
RTVSPost2010Prop44ColorRGB
 90
      255
102
RTVSPost2010PropOp44
 70
     1
102
RTVSPost2010Prop45
280
     0
102
RTVSPost2010PropOp45
 70
     1
102
RTVSPost2010Prop46
 90
       50
102
RTVSPost2010PropOp46
 70
     1
102
RTVSPost2010Prop47
 90
       50
102
RTVSPost2010PropOp47
 70
     1
102
RTVSPost2010Prop48
 90
       50
102
RTVSPost2010PropOp48
 70
     1
102
RTVSPost2010Prop49
280
     0
102
RTVSPost2010PropOp49
 70
     1
102
RTVSPost2010Prop50
 90
       50
102
RTVSPost2010PropOp50
 70
     1
102
RTVSPost2010Prop51ColorIndex
 90
      256
102
RTVSPost2010Prop51ColorRGB
 90
-16777216
102
RTVSPost2010PropOp51
 70
     0
102
RTVSPost2010Prop52
140
1.0
102
RTVSPost2010PropOp52
 70
     0
102
RTVSPost2010Prop53
 90
        2
102
RTVSPost2010PropOp53
 70
     1
102
RTVSPost2010Prop54
  1
strokes_ogs.tif
102
RTVSPost2010PropOp54
 70
     1
102
RTVSPost2010Prop55
280
     0
102
RTVSPost2010PropOp55
 70
     1
102
RTVSPost2010Prop56
140
1.0
102
RTVSPost2010PropOp56
 70
     1
102
RTVSPost2010Prop57
140
1.0
102
RTVSPost2010PropOp57
 70
     1
  0
XRECORD
  5
1E9
102
{ACAD_REACTORS
330
1E8
102
}
330
1E8
100
AcDbXrecord
280
     1
102
RTVSPropertyOp0
 70
     1
102
RTVSPropertyOp1
 70
     1
102
RTVSPropertyOp2
 70
     1
102
RTVSPropertyOp3
 70
     1
102
RTVSPropertyOp4
 70
     1
102
RTVSPropertyOp5
 70
     1
102
RTVSPropertyOp6
 70
     1
102
RTVSPropertyOp7
 70
     1
102
RTVSPropertyOp8
 70
     1
102
RTVSPropertyOp9
 70
     1
102
RTVSPropertyOp10
 70
     1
102
RTVSPropertyOp11
 70
     1
102
RTVSPropertyOp12
 70
     1
102
RTVSPropertyOp13
 70
     1
102
RTVSPropertyOp14
 70
     1
102
RTVSPropertyOp15
 70
     1
102
RTVSPropertyOp16
 70
     1
102
RTVSPropertyOp17
 70
     1
102
RTVSPropertyOp18
 70
     1
102
RTVSPropertyOp19
 70
     1
102
RTVSPropertyOp20
 70
     1
102
RTVSPropertyOp21
 70
     1
102
RTVSPropertyOp22
 70
     1
102
RTVSPropertyOp23
 70
     1
102
RTVSPropertyOp24
 70
     1
102
RTVSPropertyOp25
 70
     1
102
RTVSPropertyOp26
 70
     1
102
RTVSPropertyOp27
 70
     1
102
RTVSPropertyOp28
 70
     1
102
RTVSPropertyOp29
 70
     1
102
RTVSPropertyOp30
 70
     1
102
RTVSPropertyOp31
 70
     1
102
RTVSPropertyOp32
 70
     1
102
RTVSPropertyOp33
 70
     1
102
RTVSPropertyOp34
 70
     1
102
RTVSPropertyOp35
 70
     1
102
RTVSPropertyOp36
 70
     1
102
RTVSPropertyOp37
 70
     1
102
RTVSPropertyOp38
 70
     1
102
RTVSPropertyOp39
 70
     1
102
RTVSPropertyOp40
 70
     1
102
RTVSPropertyOp41
 70
     1
102
RTVSPropertyOp42
 70
     1
102
RTVSPropertyOp43
 70
     1
102
RTVSPropertyOp44
 70
     1
102
RTVSPropertyOp45
 70
     1
102
RTVSPropertyOp46
 70
     1
102
RTVSPropertyOp47
 70
     1
102
RTVSPropertyOp48
 70
     1
102
RTVSPropertyOp49
 70
     1
102
RTVSPropertyOp50
 70
     1
102
RTVSPropertyOp51
 70
     0
102
RTVSPropertyOp52
 70
     0
102
RTVSPropertyOp53
 70
     1
102
RTVSPropertyOp54
 70
     1
102
RTVSPropertyOp55
 70
     1
102
RTVSPropertyOp56
 70
     1
102
RTVSPropertyOp57
 70
     1
102
RTVSPost2010Prop28
280
     0
102
RTVSPost2010PropOp28
 70
     1
102
RTVSPost2010Prop29
280
     1
102
RTVSPost2010PropOp29
 70
     1
102
RTVSPost2010Prop30
280
     1
102
RTVSPost2010PropOp30
 70
     1
102
RTVSPost2010Prop31
280
     0
102
RTVSPost2010PropOp31
 70
     1
102
RTVSPost2010Prop32
280
     0
102
RTVSPost2010PropOp32
 70
     1
102
RTVSPost2010Prop33
280
     0
102
RTVSPost2010PropOp33
 70
     1
102
RTVSPost2010Prop34
280
     0
102
RTVSPost2010PropOp34
 70
     1
102
RTVSPost2010Prop35
280
     0
102
RTVSPost2010PropOp35
 70
     1
102
RTVSPost2010Prop36
280
     0
102
RTVSPost2010PropOp36
 70
     1
102
RTVSPost2010Prop37
 90
       50
102
RTVSPost2010PropOp37
 70
     1
102
RTVSPost2010Prop38
140
0.0
102
RTVSPost2010PropOp38
 70
     1
102
RTVSPost2010Prop39
140
1.0
102
RTVSPost2010PropOp39
 70
     1
102
RTVSPost2010Prop40
 90
        0
102
RTVSPost2010PropOp40
 70
     1
102
RTVSPost2010Prop41ColorIndex
 90
       18
102
RTVSPost2010Prop41ColorRGB
 90
        0
102
RTVSPost2010PropOp41
 70
     1
102
RTVSPost2010Prop42
 90
       50
102
RTVSPost2010PropOp42
 70
     1
102
RTVSPost2010Prop43
 90
        3
102
RTVSPost2010PropOp43
 70
     1
102
RTVSPost2010Prop44ColorIndex
 90
        5
102
RTVSPost2010Prop44ColorRGB
 90
      255
102
RTVSPost2010PropOp44
 70
     1
102
RTVSPost2010Prop45
280
     0
102
RTVSPost2010PropOp45
 70
     1
102
RTVSPost2010Prop46
 90
       50
102
RTVSPost2010PropOp46
 70
     1
102
RTVSPost2010Prop47
 90
       50
102
RTVSPost2010PropOp47
 70
     1
102
RTVSPost2010Prop48
 90
       50
102
RTVSPost2010PropOp48
 70
     1
102
RTVSPost2010Prop49
280
     0
102
RTVSPost2010PropOp49
 70
     1
102
RTVSPost2010Prop50
 90
       50
102
RTVSPost2010PropOp50
 70
     1
102
RTVSPost2010Prop51ColorIndex
 90
      256
102
RTVSPost2010Prop51ColorRGB
 90
-16777216
102
RTVSPost2010PropOp51
 70
     0
102
RTVSPost2010Prop52
140
1.0
102
RTVSPost2010PropOp52
 70
     0
102
RTVSPost2010Prop53
 90
        2
102
RTVSPost2010PropOp53
 70
     1
102
RTVSPost2010Prop54
  1
strokes_ogs.tif
102
RTVSPost2010PropOp54
 70
     1
102
RTVSPost2010Prop55
280
     0
102
RTVSPost2010PropOp55
 70
     1
102
RTVSPost2010Prop56
140
1.0
102
RTVSPost2010PropOp56
 70
     1
102
RTVSPost2010Prop57
140
1.0
102
RTVSPost2010PropOp57
 70
     1
  0
XRECORD
  5
1EF
102
{ACAD_REACTORS
330
1EE
102
}
330
1EE
100
AcDbXrecord
280
     1
102
RTVSPropertyOp0
 70
     1
102
RTVSPropertyOp1
 70
     1
102
RTVSPropertyOp2
 70
     1
102
RTVSPropertyOp3
 70
     1
102
RTVSPropertyOp4
 70
     1
102
RTVSPropertyOp5
 70
     1
102
RTVSPropertyOp6
 70
     1
102
RTVSPropertyOp7
 70
     1
102
RTVSPropertyOp8
 70
     1
102
RTVSPropertyOp9
 70
     1
102
RTVSPropertyOp10
 70
     1
102
RTVSPropertyOp11
 70
     1
102
RTVSPropertyOp12
 70
     1
102
RTVSPropertyOp13
 70
     1
102
RTVSPropertyOp14
 70
     1
102
RTVSPropertyOp15
 70
     1
102
RTVSPropertyOp16
 70
     1
102
RTVSPropertyOp17
 70
     1
102
RTVSPropertyOp18
 70
     1
102
RTVSPropertyOp19
 70
     1
102
RTVSPropertyOp20
 70
     1
102
RTVSPropertyOp21
 70
     1
102
RTVSPropertyOp22
 70
     1
102
RTVSPropertyOp23
 70
     1
102
RTVSPropertyOp24
 70
     1
102
RTVSPropertyOp25
 70
     1
102
RTVSPropertyOp26
 70
     1
102
RTVSPropertyOp27
 70
     1
102
RTVSPropertyOp28
 70
     1
102
RTVSPropertyOp29
 70
     1
102
RTVSPropertyOp30
 70
     1
102
RTVSPropertyOp31
 70
     1
102
RTVSPropertyOp32
 70
     1
102
RTVSPropertyOp33
 70
     1
102
RTVSPropertyOp34
 70
     1
102
RTVSPropertyOp35
 70
     1
102
RTVSPropertyOp36
 70
     1
102
RTVSPropertyOp37
 70
     1
102
RTVSPropertyOp38
 70
     1
102
RTVSPropertyOp39
 70
     1
102
RTVSPropertyOp40
 70
     1
102
RTVSPropertyOp41
 70
     1
102
RTVSPropertyOp42
 70
     1
102
RTVSPropertyOp43
 70
     1
102
RTVSPropertyOp44
 70
     1
102
RTVSPropertyOp45
 70
     1
102
RTVSPropertyOp46
 70
     1
102
RTVSPropertyOp47
 70
     1
102
RTVSPropertyOp48
 70
     1
102
RTVSPropertyOp49
 70
     1
102
RTVSPropertyOp50
 70
     1
102
RTVSPropertyOp51
 70
     0
102
RTVSPropertyOp52
 70
     0
102
RTVSPropertyOp53
 70
     1
102
RTVSPropertyOp54
 70
     1
102
RTVSPropertyOp55
 70
     1
102
RTVSPropertyOp56
 70
     1
102
RTVSPropertyOp57
 70
     1
102
RTVSPost2010Prop28
280
     0
102
RTVSPost2010PropOp28
 70
     1
102
RTVSPost2010Prop29
280
     1
102
RTVSPost2010PropOp29
 70
     1
102
RTVSPost2010Prop30
280
     1
102
RTVSPost2010PropOp30
 70
     1
102
RTVSPost2010Prop31
280
     0
102
RTVSPost2010PropOp31
 70
     1
102
RTVSPost2010Prop32
280
     0
102
RTVSPost2010PropOp32
 70
     1
102
RTVSPost2010Prop33
280
     0
102
RTVSPost2010PropOp33
 70
     1
102
RTVSPost2010Prop34
280
     0
102
RTVSPost2010PropOp34
 70
     1
102
RTVSPost2010Prop35
280
     0
102
RTVSPost2010PropOp35
 70
     1
102
RTVSPost2010Prop36
280
     0
102
RTVSPost2010PropOp36
 70
     1
102
RTVSPost2010Prop37
 90
       50
102
RTVSPost2010PropOp37
 70
     1
102
RTVSPost2010Prop38
140
0.0
102
RTVSPost2010PropOp38
 70
     1
102
RTVSPost2010Prop39
140
1.0
102
RTVSPost2010PropOp39
 70
     1
102
RTVSPost2010Prop40
 90
        0
102
RTVSPost2010PropOp40
 70
     1
102
RTVSPost2010Prop41ColorIndex
 90
       18
102
RTVSPost2010Prop41ColorRGB
 90
        0
102
RTVSPost2010PropOp41
 70
     1
102
RTVSPost2010Prop42
 90
       50
102
RTVSPost2010PropOp42
 70
     1
102
RTVSPost2010Prop43
 90
        3
102
RTVSPost2010PropOp43
 70
     1
102
RTVSPost2010Prop44ColorIndex
 90
        5
102
RTVSPost2010Prop44ColorRGB
 90
      255
102
RTVSPost2010PropOp44
 70
     1
102
RTVSPost2010Prop45
280
     0
102
RTVSPost2010PropOp45
 70
     1
102
RTVSPost2010Prop46
 90
       50
102
RTVSPost2010PropOp46
 70
     1
102
RTVSPost2010Prop47
 90
       50
102
RTVSPost2010PropOp47
 70
     1
102
RTVSPost2010Prop48
 90
       50
102
RTVSPost2010PropOp48
 70
     1
102
RTVSPost2010Prop49
280
     0
102
RTVSPost2010PropOp49
 70
     1
102
RTVSPost2010Prop50
 90
       50
102
RTVSPost2010PropOp50
 70
     1
102
RTVSPost2010Prop51ColorIndex
 90
      256
102
RTVSPost2010Prop51ColorRGB
 90
-16777216
102
RTVSPost2010PropOp51
 70
     0
102
RTVSPost2010Prop52
140
1.0
102
RTVSPost2010PropOp52
 70
     0
102
RTVSPost2010Prop53
 90
        2
102
RTVSPost2010PropOp53
 70
     1
102
RTVSPost2010Prop54
  1
strokes_ogs.tif
102
RTVSPost2010PropOp54
 70
     1
102
RTVSPost2010Prop55
280
     0
102
RTVSPost2010PropOp55
 70
     1
102
RTVSPost2010Prop56
140
1.0
102
RTVSPost2010PropOp56
 70
     1
102
RTVSPost2010Prop57
140
1.0
102
RTVSPost2010PropOp57
 70
     1
  0
XRECORD
  5
203
102
{ACAD_REACTORS
330
202
102
}
330
202
100
AcDbXrecord
280
     1
102
RTVSPropertyOp0
 70
     0
102
RTVSPropertyOp1
 70
     0
102
RTVSPropertyOp2
 70
     0
102
RTVSPropertyOp3
 70
     0
102
RTVSPropertyOp4
 70
     0
102
RTVSPropertyOp5
 70
     0
102
RTVSPropertyOp6
 70
     0
102
RTVSPropertyOp7
 70
     0
102
RTVSPropertyOp8
 70
     0
102
RTVSPropertyOp9
 70
     0
102
RTVSPropertyOp10
 70
     0
102
RTVSPropertyOp11
 70
     0
102
RTVSPropertyOp12
 70
     0
102
RTVSPropertyOp13
 70
     0
102
RTVSPropertyOp14
 70
     2
102
RTVSPropertyOp15
 70
     0
102
RTVSPropertyOp16
 70
     0
102
RTVSPropertyOp17
 70
     0
102
RTVSPropertyOp18
 70
     0
102
RTVSPropertyOp19
 70
     0
102
RTVSPropertyOp20
 70
     0
102
RTVSPropertyOp21
 70
     0
102
RTVSPropertyOp22
 70
     0
102
RTVSPropertyOp23
 70
     0
102
RTVSPropertyOp24
 70
     0
102
RTVSPropertyOp25
 70
     0
102
RTVSPropertyOp26
 70
     0
102
RTVSPropertyOp27
 70
     0
102
RTVSPropertyOp28
 70
     0
102
RTVSPropertyOp29
 70
     0
102
RTVSPropertyOp30
 70
     0
102
RTVSPropertyOp31
 70
     0
102
RTVSPropertyOp32
 70
     0
102
RTVSPropertyOp33
 70
     0
102
RTVSPropertyOp34
 70
     0
102
RTVSPropertyOp35
 70
     0
102
RTVSPropertyOp36
 70
     0
102
RTVSPropertyOp37
 70
     0
102
RTVSPropertyOp38
 70
     0
102
RTVSPropertyOp39
 70
     0
102
RTVSPropertyOp40
 70
     0
102
RTVSPropertyOp41
 70
     0
102
RTVSPropertyOp42
 70
     0
102
RTVSPropertyOp43
 70
     0
102
RTVSPropertyOp44
 70
     0
102
RTVSPropertyOp45
 70
     0
102
RTVSPropertyOp46
 70
     0
102
RTVSPropertyOp47
 70
     0
102
RTVSPropertyOp48
 70
     0
102
RTVSPropertyOp49
 70
     0
102
RTVSPropertyOp50
 70
     0
102
RTVSPropertyOp51
 70
     0
102
RTVSPropertyOp52
 70
     0
102
RTVSPropertyOp53
 70
     0
102
RTVSPropertyOp54
 70
     0
102
RTVSPropertyOp55
 70
     0
102
RTVSPropertyOp56
 70
     0
102
RTVSPropertyOp57
 70
     0
102
RTVSPost2010Prop28
280
     0
102
RTVSPost2010PropOp28
 70
     0
102
RTVSPost2010Prop29
280
     1
102
RTVSPost2010PropOp29
 70
     0
102
RTVSPost2010Prop30
280
     1
102
RTVSPost2010PropOp30
 70
     0
102
RTVSPost2010Prop31
280
     0
102
RTVSPost2010PropOp31
 70
     0
102
RTVSPost2010Prop32
280
     0
102
RTVSPost2010PropOp32
 70
     0
102
RTVSPost2010Prop33
280
     0
102
RTVSPost2010PropOp33
 70
     0
102
RTVSPost2010Prop34
280
     0
102
RTVSPost2010PropOp34
 70
     0
102
RTVSPost2010Prop35
280
     0
102
RTVSPost2010PropOp35
 70
     0
102
RTVSPost2010Prop36
280
     0
102
RTVSPost2010PropOp36
 70
     0
102
RTVSPost2010Prop37
 90
       50
102
RTVSPost2010PropOp37
 70
     0
102
RTVSPost2010Prop38
140
0.0
102
RTVSPost2010PropOp38
 70
     0
102
RTVSPost2010Prop39
140
1.0
102
RTVSPost2010PropOp39
 70
     0
102
RTVSPost2010Prop40
 90
        0
102
RTVSPost2010PropOp40
 70
     0
102
RTVSPost2010Prop41ColorIndex
 90
       18
102
RTVSPost2010Prop41ColorRGB
 90
        0
102
RTVSPost2010PropOp41
 70
     0
102
RTVSPost2010Prop42
 90
       50
102
RTVSPost2010PropOp42
 70
     0
102
RTVSPost2010Prop43
 90
        3
102
RTVSPost2010PropOp43
 70
     0
102
RTVSPost2010Prop44ColorIndex
 90
        5
102
RTVSPost2010Prop44ColorRGB
 90
      255
102
RTVSPost2010PropOp44
 70
     0
102
RTVSPost2010Prop45
280
     0
102
RTVSPost2010PropOp45
 70
     0
102
RTVSPost2010Prop46
 90
       50
102
RTVSPost2010PropOp46
 70
     0
102
RTVSPost2010Prop47
 90
       50
102
RTVSPost2010PropOp47
 70
     0
102
RTVSPost2010Prop48
 90
       50
102
RTVSPost2010PropOp48
 70
     0
102
RTVSPost2010Prop49
280
     0
102
RTVSPost2010PropOp49
 70
     0
102
RTVSPost2010Prop50
 90
       50
102
RTVSPost2010PropOp50
 70
     0
102
RTVSPost2010Prop51ColorIndex
 90
      256
102
RTVSPost2010Prop51ColorRGB
 90
-16777216
102
RTVSPost2010PropOp51
 70
     0
102
RTVSPost2010Prop52
140
1.0
102
RTVSPost2010PropOp52
 70
     0
102
RTVSPost2010Prop53
 90
        2
102
RTVSPost2010PropOp53
 70
     0
102
RTVSPost2010Prop54
  1
strokes_ogs.tif
102
RTVSPost2010PropOp54
 70
     0
102
RTVSPost2010Prop55
280
     0
102
RTVSPost2010PropOp55
 70
     0
102
RTVSPost2010Prop56
140
1.0
102
RTVSPost2010PropOp56
 70
     0
102
RTVSPost2010Prop57
140
1.0
102
RTVSPost2010PropOp57
 70
     0
  0
XRECORD
  5
1FD
102
{ACAD_REACTORS
330
1FC
102
}
330
1FC
100
AcDbXrecord
280
     1
102
RTVSPropertyOp0
 70
     1
102
RTVSPropertyOp1
 70
     1
102
RTVSPropertyOp2
 70
     1
102
RTVSPropertyOp3
 70
     1
102
RTVSPropertyOp4
 70
     1
102
RTVSPropertyOp5
 70
     1
102
RTVSPropertyOp6
 70
     1
102
RTVSPropertyOp7
 70
     1
102
RTVSPropertyOp8
 70
     1
102
RTVSPropertyOp9
 70
     1
102
RTVSPropertyOp10
 70
     1
102
RTVSPropertyOp11
 70
     1
102
RTVSPropertyOp12
 70
     1
102
RTVSPropertyOp13
 70
     1
102
RTVSPropertyOp14
 70
     1
102
RTVSPropertyOp15
 70
     1
102
RTVSPropertyOp16
 70
     1
102
RTVSPropertyOp17
 70
     1
102
RTVSPropertyOp18
 70
     1
102
RTVSPropertyOp19
 70
     1
102
RTVSPropertyOp20
 70
     1
102
RTVSPropertyOp21
 70
     1
102
RTVSPropertyOp22
 70
     1
102
RTVSPropertyOp23
 70
     1
102
RTVSPropertyOp24
 70
     1
102
RTVSPropertyOp25
 70
     1
102
RTVSPropertyOp26
 70
     1
102
RTVSPropertyOp27
 70
     1
102
RTVSPropertyOp28
 70
     1
102
RTVSPropertyOp29
 70
     1
102
RTVSPropertyOp30
 70
     1
102
RTVSPropertyOp31
 70
     1
102
RTVSPropertyOp32
 70
     1
102
RTVSPropertyOp33
 70
     1
102
RTVSPropertyOp34
 70
     1
102
RTVSPropertyOp35
 70
     1
102
RTVSPropertyOp36
 70
     1
102
RTVSPropertyOp37
 70
     1
102
RTVSPropertyOp38
 70
     1
102
RTVSPropertyOp39
 70
     1
102
RTVSPropertyOp40
 70
     1
102
RTVSPropertyOp41
 70
     1
102
RTVSPropertyOp42
 70
     1
102
RTVSPropertyOp43
 70
     1
102
RTVSPropertyOp44
 70
     1
102
RTVSPropertyOp45
 70
     1
102
RTVSPropertyOp46
 70
     1
102
RTVSPropertyOp47
 70
     1
102
RTVSPropertyOp48
 70
     1
102
RTVSPropertyOp49
 70
     1
102
RTVSPropertyOp50
 70
     1
102
RTVSPropertyOp51
 70
     0
102
RTVSPropertyOp52
 70
     0
102
RTVSPropertyOp53
 70
     1
102
RTVSPropertyOp54
 70
     1
102
RTVSPropertyOp55
 70
     1
102
RTVSPropertyOp56
 70
     1
102
RTVSPropertyOp57
 70
     1
102
RTVSPost2010Prop28
280
     0
102
RTVSPost2010PropOp28
 70
     1
102
RTVSPost2010Prop29
280
     1
102
RTVSPost2010PropOp29
 70
     1
102
RTVSPost2010Prop30
280
     1
102
RTVSPost2010PropOp30
 70
     1
102
RTVSPost2010Prop31
280
     0
102
RTVSPost2010PropOp31
 70
     1
102
RTVSPost2010Prop32
280
     0
102
RTVSPost2010PropOp32
 70
     1
102
RTVSPost2010Prop33
280
     0
102
RTVSPost2010PropOp33
 70
     1
102
RTVSPost2010Prop34
280
     0
102
RTVSPost2010PropOp34
 70
     1
102
RTVSPost2010Prop35
280
     0
102
RTVSPost2010PropOp35
 70
     1
102
RTVSPost2010Prop36
280
     0
102
RTVSPost2010PropOp36
 70
     1
102
RTVSPost2010Prop37
 90
       50
102
RTVSPost2010PropOp37
 70
     1
102
RTVSPost2010Prop38
140
0.0
102
RTVSPost2010PropOp38
 70
     1
102
RTVSPost2010Prop39
140
1.0
102
RTVSPost2010PropOp39
 70
     1
102
RTVSPost2010Prop40
 90
        0
102
RTVSPost2010PropOp40
 70
     1
102
RTVSPost2010Prop41ColorIndex
 90
       18
102
RTVSPost2010Prop41ColorRGB
 90
        0
102
RTVSPost2010PropOp41
 70
     1
102
RTVSPost2010Prop42
 90
       50
102
RTVSPost2010PropOp42
 70
     1
102
RTVSPost2010Prop43
 90
        3
102
RTVSPost2010PropOp43
 70
     1
102
RTVSPost2010Prop44ColorIndex
 90
        5
102
RTVSPost2010Prop44ColorRGB
 90
      255
102
RTVSPost2010PropOp44
 70
     1
102
RTVSPost2010Prop45
280
     0
102
RTVSPost2010PropOp45
 70
     1
102
RTVSPost2010Prop46
 90
       50
102
RTVSPost2010PropOp46
 70
     1
102
RTVSPost2010Prop47
 90
       50
102
RTVSPost2010PropOp47
 70
     1
102
RTVSPost2010Prop48
 90
       50
102
RTVSPost2010PropOp48
 70
     1
102
RTVSPost2010Prop49
280
     0
102
RTVSPost2010PropOp49
 70
     1
102
RTVSPost2010Prop50
 90
       50
102
RTVSPost2010PropOp50
 70
     1
102
RTVSPost2010Prop51ColorIndex
 90
      256
102
RTVSPost2010Prop51ColorRGB
 90
-16777216
102
RTVSPost2010PropOp51
 70
     0
102
RTVSPost2010Prop52
140
1.0
102
RTVSPost2010PropOp52
 70
     0
102
RTVSPost2010Prop53
 90
        2
102
RTVSPost2010PropOp53
 70
     1
102
RTVSPost2010Prop54
  1
strokes_ogs.tif
102
RTVSPost2010PropOp54
 70
     1
102
RTVSPost2010Prop55
280
     0
102
RTVSPost2010PropOp55
 70
     1
102
RTVSPost2010Prop56
140
1.0
102
RTVSPost2010PropOp56
 70
     1
102
RTVSPost2010Prop57
140
1.0
102
RTVSPost2010PropOp57
 70
     1
  0
XRECORD
  5
205
102
{ACAD_REACTORS
330
204
102
}
330
204
100
AcDbXrecord
280
     1
102
RTVSPropertyOp0
 70
     0
102
RTVSPropertyOp1
 70
     0
102
RTVSPropertyOp2
 70
     0
102
RTVSPropertyOp3
 70
     0
102
RTVSPropertyOp4
 70
     0
102
RTVSPropertyOp5
 70
     0
102
RTVSPropertyOp6
 70
     0
102
RTVSPropertyOp7
 70
     0
102
RTVSPropertyOp8
 70
     0
102
RTVSPropertyOp9
 70
     0
102
RTVSPropertyOp10
 70
     0
102
RTVSPropertyOp11
 70
     0
102
RTVSPropertyOp12
 70
     0
102
RTVSPropertyOp13
 70
     0
102
RTVSPropertyOp14
 70
     2
102
RTVSPropertyOp15
 70
     0
102
RTVSPropertyOp16
 70
     0
102
RTVSPropertyOp17
 70
     0
102
RTVSPropertyOp18
 70
     0
102
RTVSPropertyOp19
 70
     0
102
RTVSPropertyOp20
 70
     0
102
RTVSPropertyOp21
 70
     0
102
RTVSPropertyOp22
 70
     0
102
RTVSPropertyOp23
 70
     0
102
RTVSPropertyOp24
 70
     0
102
RTVSPropertyOp25
 70
     0
102
RTVSPropertyOp26
 70
     0
102
RTVSPropertyOp27
 70
     0
102
RTVSPropertyOp28
 70
     0
102
RTVSPropertyOp29
 70
     0
102
RTVSPropertyOp30
 70
     0
102
RTVSPropertyOp31
 70
     0
102
RTVSPropertyOp32
 70
     0
102
RTVSPropertyOp33
 70
     0
102
RTVSPropertyOp34
 70
     0
102
RTVSPropertyOp35
 70
     0
102
RTVSPropertyOp36
 70
     0
102
RTVSPropertyOp37
 70
     0
102
RTVSPropertyOp38
 70
     0
102
RTVSPropertyOp39
 70
     0
102
RTVSPropertyOp40
 70
     0
102
RTVSPropertyOp41
 70
     0
102
RTVSPropertyOp42
 70
     0
102
RTVSPropertyOp43
 70
     0
102
RTVSPropertyOp44
 70
     0
102
RTVSPropertyOp45
 70
     0
102
RTVSPropertyOp46
 70
     0
102
RTVSPropertyOp47
 70
     0
102
RTVSPropertyOp48
 70
     0
102
RTVSPropertyOp49
 70
     0
102
RTVSPropertyOp50
 70
     0
102
RTVSPropertyOp51
 70
     0
102
RTVSPropertyOp52
 70
     0
102
RTVSPropertyOp53
 70
     0
102
RTVSPropertyOp54
 70
     0
102
RTVSPropertyOp55
 70
     0
102
RTVSPropertyOp56
 70
     0
102
RTVSPropertyOp57
 70
     0
102
RTVSPost2010Prop28
280
     0
102
RTVSPost2010PropOp28
 70
     0
102
RTVSPost2010Prop29
280
     1
102
RTVSPost2010PropOp29
 70
     0
102
RTVSPost2010Prop30
280
     1
102
RTVSPost2010PropOp30
 70
     0
102
RTVSPost2010Prop31
280
     0
102
RTVSPost2010PropOp31
 70
     0
102
RTVSPost2010Prop32
280
     0
102
RTVSPost2010PropOp32
 70
     0
102
RTVSPost2010Prop33
280
     0
102
RTVSPost2010PropOp33
 70
     0
102
RTVSPost2010Prop34
280
     0
102
RTVSPost2010PropOp34
 70
     0
102
RTVSPost2010Prop35
280
     0
102
RTVSPost2010PropOp35
 70
     0
102
RTVSPost2010Prop36
280
     0
102
RTVSPost2010PropOp36
 70
     0
102
RTVSPost2010Prop37
 90
       50
102
RTVSPost2010PropOp37
 70
     0
102
RTVSPost2010Prop38
140
0.0
102
RTVSPost2010PropOp38
 70
     0
102
RTVSPost2010Prop39
140
1.0
102
RTVSPost2010PropOp39
 70
     0
102
RTVSPost2010Prop40
 90
        0
102
RTVSPost2010PropOp40
 70
     0
102
RTVSPost2010Prop41ColorIndex
 90
       18
102
RTVSPost2010Prop41ColorRGB
 90
        0
102
RTVSPost2010PropOp41
 70
     0
102
RTVSPost2010Prop42
 90
       50
102
RTVSPost2010PropOp42
 70
     0
102
RTVSPost2010Prop43
 90
        3
102
RTVSPost2010PropOp43
 70
     0
102
RTVSPost2010Prop44ColorIndex
 90
        5
102
RTVSPost2010Prop44ColorRGB
 90
      255
102
RTVSPost2010PropOp44
 70
     0
102
RTVSPost2010Prop45
280
     0
102
RTVSPost2010PropOp45
 70
     0
102
RTVSPost2010Prop46
 90
       50
102
RTVSPost2010PropOp46
 70
     0
102
RTVSPost2010Prop47
 90
       50
102
RTVSPost2010PropOp47
 70
     0
102
RTVSPost2010Prop48
 90
       50
102
RTVSPost2010PropOp48
 70
     0
102
RTVSPost2010Prop49
280
     0
102
RTVSPost2010PropOp49
 70
     0
102
RTVSPost2010Prop50
 90
       50
102
RTVSPost2010PropOp50
 70
     0
102
RTVSPost2010Prop51ColorIndex
 90
      256
102
RTVSPost2010Prop51ColorRGB
 90
-16777216
102
RTVSPost2010PropOp51
 70
     0
102
RTVSPost2010Prop52
140
1.0
102
RTVSPost2010PropOp52
 70
     0
102
RTVSPost2010Prop53
 90
        2
102
RTVSPost2010PropOp53
 70
     0
102
RTVSPost2010Prop54
  1
strokes_ogs.tif
102
RTVSPost2010PropOp54
 70
     0
102
RTVSPost2010Prop55
280
     0
102
RTVSPost2010PropOp55
 70
     0
102
RTVSPost2010Prop56
140
1.0
102
RTVSPost2010PropOp56
 70
     0
102
RTVSPost2010Prop57
140
1.0
102
RTVSPost2010PropOp57
 70
     0
  0
XRECORD
  5
1F3
102
{ACAD_REACTORS
330
1F2
102
}
330
1F2
100
AcDbXrecord
280
     1
102
RTVSPropertyOp0
 70
     1
102
RTVSPropertyOp1
 70
     1
102
RTVSPropertyOp2
 70
     1
102
RTVSPropertyOp3
 70
     1
102
RTVSPropertyOp4
 70
     1
102
RTVSPropertyOp5
 70
     1
102
RTVSPropertyOp6
 70
     1
102
RTVSPropertyOp7
 70
     1
102
RTVSPropertyOp8
 70
     1
102
RTVSPropertyOp9
 70
     1
102
RTVSPropertyOp10
 70
     1
102
RTVSPropertyOp11
 70
     1
102
RTVSPropertyOp12
 70
     1
102
RTVSPropertyOp13
 70
     1
102
RTVSPropertyOp14
 70
     1
102
RTVSPropertyOp15
 70
     1
102
RTVSPropertyOp16
 70
     1
102
RTVSPropertyOp17
 70
     1
102
RTVSPropertyOp18
 70
     1
102
RTVSPropertyOp19
 70
     1
102
RTVSPropertyOp20
 70
     1
102
RTVSPropertyOp21
 70
     1
102
RTVSPropertyOp22
 70
     1
102
RTVSPropertyOp23
 70
     1
102
RTVSPropertyOp24
 70
     1
102
RTVSPropertyOp25
 70
     1
102
RTVSPropertyOp26
 70
     1
102
RTVSPropertyOp27
 70
     1
102
RTVSPropertyOp28
 70
     1
102
RTVSPropertyOp29
 70
     1
102
RTVSPropertyOp30
 70
     1
102
RTVSPropertyOp31
 70
     1
102
RTVSPropertyOp32
 70
     1
102
RTVSPropertyOp33
 70
     1
102
RTVSPropertyOp34
 70
     1
102
RTVSPropertyOp35
 70
     1
102
RTVSPropertyOp36
 70
     1
102
RTVSPropertyOp37
 70
     1
102
RTVSPropertyOp38
 70
     1
102
RTVSPropertyOp39
 70
     1
102
RTVSPropertyOp40
 70
     1
102
RTVSPropertyOp41
 70
     1
102
RTVSPropertyOp42
 70
     1
102
RTVSPropertyOp43
 70
     1
102
RTVSPropertyOp44
 70
     1
102
RTVSPropertyOp45
 70
     1
102
RTVSPropertyOp46
 70
     1
102
RTVSPropertyOp47
 70
     1
102
RTVSPropertyOp48
 70
     1
102
RTVSPropertyOp49
 70
     1
102
RTVSPropertyOp50
 70
     1
102
RTVSPropertyOp51
 70
     0
102
RTVSPropertyOp52
 70
     0
102
RTVSPropertyOp53
 70
     1
102
RTVSPropertyOp54
 70
     1
102
RTVSPropertyOp55
 70
     1
102
RTVSPropertyOp56
 70
     1
102
RTVSPropertyOp57
 70
     1
102
RTVSPost2010Prop28
280
     0
102
RTVSPost2010PropOp28
 70
     1
102
RTVSPost2010Prop29
280
     1
102
RTVSPost2010PropOp29
 70
     1
102
RTVSPost2010Prop30
280
     1
102
RTVSPost2010PropOp30
 70
     1
102
RTVSPost2010Prop31
280
     0
102
RTVSPost2010PropOp31
 70
     1
102
RTVSPost2010Prop32
280
     0
102
RTVSPost2010PropOp32
 70
     1
102
RTVSPost2010Prop33
280
     0
102
RTVSPost2010PropOp33
 70
     1
102
RTVSPost2010Prop34
280
     0
102
RTVSPost2010PropOp34
 70
     1
102
RTVSPost2010Prop35
280
     0
102
RTVSPost2010PropOp35
 70
     1
102
RTVSPost2010Prop36
280
     0
102
RTVSPost2010PropOp36
 70
     1
102
RTVSPost2010Prop37
 90
       50
102
RTVSPost2010PropOp37
 70
     1
102
RTVSPost2010Prop38
140
0.0
102
RTVSPost2010PropOp38
 70
     1
102
RTVSPost2010Prop39
140
1.0
102
RTVSPost2010PropOp39
 70
     1
102
RTVSPost2010Prop40
 90
        0
102
RTVSPost2010PropOp40
 70
     1
102
RTVSPost2010Prop41ColorIndex
 90
       18
102
RTVSPost2010Prop41ColorRGB
 90
        0
102
RTVSPost2010PropOp41
 70
     1
102
RTVSPost2010Prop42
 90
       50
102
RTVSPost2010PropOp42
 70
     1
102
RTVSPost2010Prop43
 90
        3
102
RTVSPost2010PropOp43
 70
     1
102
RTVSPost2010Prop44ColorIndex
 90
        5
102
RTVSPost2010Prop44ColorRGB
 90
      255
102
RTVSPost2010PropOp44
 70
     1
102
RTVSPost2010Prop45
280
     0
102
RTVSPost2010PropOp45
 70
     1
102
RTVSPost2010Prop46
 90
       50
102
RTVSPost2010PropOp46
 70
     1
102
RTVSPost2010Prop47
 90
       50
102
RTVSPost2010PropOp47
 70
     1
102
RTVSPost2010Prop48
 90
       50
102
RTVSPost2010PropOp48
 70
     1
102
RTVSPost2010Prop49
280
     0
102
RTVSPost2010PropOp49
 70
     1
102
RTVSPost2010Prop50
 90
       50
102
RTVSPost2010PropOp50
 70
     1
102
RTVSPost2010Prop51ColorIndex
 90
      256
102
RTVSPost2010Prop51ColorRGB
 90
-16777216
102
RTVSPost2010PropOp51
 70
     0
102
RTVSPost2010Prop52
140
1.0
102
RTVSPost2010PropOp52
 70
     0
102
RTVSPost2010Prop53
 90
        2
102
RTVSPost2010PropOp53
 70
     1
102
RTVSPost2010Prop54
  1
strokes_ogs.tif
102
RTVSPost2010PropOp54
 70
     1
102
RTVSPost2010Prop55
280
     0
102
RTVSPost2010PropOp55
 70
     1
102
RTVSPost2010Prop56
140
1.0
102
RTVSPost2010PropOp56
 70
     1
102
RTVSPost2010Prop57
140
1.0
102
RTVSPost2010PropOp57
 70
     1
  0
XRECORD
  5
211
102
{ACAD_REACTORS
330
210
102
}
330
210
100
AcDbXrecord
280
     1
102
RTVSPropertyOp0
 70
     1
102
RTVSPropertyOp1
 70
     1
102
RTVSPropertyOp2
 70
     1
102
RTVSPropertyOp3
 70
     1
102
RTVSPropertyOp4
 70
     1
102
RTVSPropertyOp5
 70
     1
102
RTVSPropertyOp6
 70
     1
102
RTVSPropertyOp7
 70
     1
102
RTVSPropertyOp8
 70
     1
102
RTVSPropertyOp9
 70
     1
102
RTVSPropertyOp10
 70
     1
102
RTVSPropertyOp11
 70
     1
102
RTVSPropertyOp12
 70
     1
102
RTVSPropertyOp13
 70
     1
102
RTVSPropertyOp14
 70
     1
102
RTVSPropertyOp15
 70
     1
102
RTVSPropertyOp16
 70
     1
102
RTVSPropertyOp17
 70
     1
102
RTVSPropertyOp18
 70
     1
102
RTVSPropertyOp19
 70
     1
102
RTVSPropertyOp20
 70
     1
102
RTVSPropertyOp21
 70
     1
102
RTVSPropertyOp22
 70
     1
102
RTVSPropertyOp23
 70
     1
102
RTVSPropertyOp24
 70
     1
102
RTVSPropertyOp25
 70
     1
102
RTVSPropertyOp26
 70
     1
102
RTVSPropertyOp27
 70
     1
102
RTVSPropertyOp28
 70
     1
102
RTVSPropertyOp29
 70
     1
102
RTVSPropertyOp30
 70
     1
102
RTVSPropertyOp31
 70
     1
102
RTVSPropertyOp32
 70
     1
102
RTVSPropertyOp33
 70
     1
102
RTVSPropertyOp34
 70
     1
102
RTVSPropertyOp35
 70
     1
102
RTVSPropertyOp36
 70
     1
102
RTVSPropertyOp37
 70
     1
102
RTVSPropertyOp38
 70
     1
102
RTVSPropertyOp39
 70
     1
102
RTVSPropertyOp40
 70
     1
102
RTVSPropertyOp41
 70
     1
102
RTVSPropertyOp42
 70
     1
102
RTVSPropertyOp43
 70
     1
102
RTVSPropertyOp44
 70
     1
102
RTVSPropertyOp45
 70
     1
102
RTVSPropertyOp46
 70
     1
102
RTVSPropertyOp47
 70
     1
102
RTVSPropertyOp48
 70
     1
102
RTVSPropertyOp49
 70
     1
102
RTVSPropertyOp50
 70
     1
102
RTVSPropertyOp51
 70
     0
102
RTVSPropertyOp52
 70
     0
102
RTVSPropertyOp53
 70
     1
102
RTVSPropertyOp54
 70
     1
102
RTVSPropertyOp55
 70
     1
102
RTVSPropertyOp56
 70
     1
102
RTVSPropertyOp57
 70
     1
102
RTVSPost2010Prop28
280
     0
102
RTVSPost2010PropOp28
 70
     1
102
RTVSPost2010Prop29
280
     1
102
RTVSPost2010PropOp29
 70
     1
102
RTVSPost2010Prop30
280
     1
102
RTVSPost2010PropOp30
 70
     1
102
RTVSPost2010Prop31
280
     0
102
RTVSPost2010PropOp31
 70
     1
102
RTVSPost2010Prop32
280
     0
102
RTVSPost2010PropOp32
 70
     1
102
RTVSPost2010Prop33
280
     0
102
RTVSPost2010PropOp33
 70
     1
102
RTVSPost2010Prop34
280
     0
102
RTVSPost2010PropOp34
 70
     1
102
RTVSPost2010Prop35
280
     0
102
RTVSPost2010PropOp35
 70
     1
102
RTVSPost2010Prop36
280
     0
102
RTVSPost2010PropOp36
 70
     1
102
RTVSPost2010Prop37
 90
       50
102
RTVSPost2010PropOp37
 70
     1
102
RTVSPost2010Prop38
140
0.0
102
RTVSPost2010PropOp38
 70
     1
102
RTVSPost2010Prop39
140
1.0
102
RTVSPost2010PropOp39
 70
     1
102
RTVSPost2010Prop40
 90
        0
102
RTVSPost2010PropOp40
 70
     1
102
RTVSPost2010Prop41ColorIndex
 90
       18
102
RTVSPost2010Prop41ColorRGB
 90
        0
102
RTVSPost2010PropOp41
 70
     1
102
RTVSPost2010Prop42
 90
       50
102
RTVSPost2010PropOp42
 70
     1
102
RTVSPost2010Prop43
 90
        3
102
RTVSPost2010PropOp43
 70
     1
102
RTVSPost2010Prop44ColorIndex
 90
        5
102
RTVSPost2010Prop44ColorRGB
 90
      255
102
RTVSPost2010PropOp44
 70
     1
102
RTVSPost2010Prop45
280
     0
102
RTVSPost2010PropOp45
 70
     1
102
RTVSPost2010Prop46
 90
       50
102
RTVSPost2010PropOp46
 70
     1
102
RTVSPost2010Prop47
 90
       50
102
RTVSPost2010PropOp47
 70
     1
102
RTVSPost2010Prop48
 90
       50
102
RTVSPost2010PropOp48
 70
     1
102
RTVSPost2010Prop49
280
     0
102
RTVSPost2010PropOp49
 70
     1
102
RTVSPost2010Prop50
 90
       50
102
RTVSPost2010PropOp50
 70
     1
102
RTVSPost2010Prop51ColorIndex
 90
      256
102
RTVSPost2010Prop51ColorRGB
 90
-16777216
102
RTVSPost2010PropOp51
 70
     0
102
RTVSPost2010Prop52
140
1.0
102
RTVSPost2010PropOp52
 70
     0
102
RTVSPost2010Prop53
 90
        2
102
RTVSPost2010PropOp53
 70
     1
102
RTVSPost2010Prop54
  1
strokes_ogs.tif
102
RTVSPost2010PropOp54
 70
     1
102
RTVSPost2010Prop55
280
     0
102
RTVSPost2010PropOp55
 70
     1
102
RTVSPost2010Prop56
140
1.0
102
RTVSPost2010PropOp56
 70
     1
102
RTVSPost2010Prop57
140
1.0
102
RTVSPost2010PropOp57
 70
     1
  0
XRECORD
  5
20F
102
{ACAD_REACTORS
330
20E
102
}
330
20E
100
AcDbXrecord
280
     1
102
RTVSPropertyOp0
 70
     1
102
RTVSPropertyOp1
 70
     1
102
RTVSPropertyOp2
 70
     1
102
RTVSPropertyOp3
 70
     1
102
RTVSPropertyOp4
 70
     1
102
RTVSPropertyOp5
 70
     1
102
RTVSPropertyOp6
 70
     1
102
RTVSPropertyOp7
 70
     1
102
RTVSPropertyOp8
 70
     1
102
RTVSPropertyOp9
 70
     1
102
RTVSPropertyOp10
 70
     1
102
RTVSPropertyOp11
 70
     1
102
RTVSPropertyOp12
 70
     1
102
RTVSPropertyOp13
 70
     1
102
RTVSPropertyOp14
 70
     1
102
RTVSPropertyOp15
 70
     1
102
RTVSPropertyOp16
 70
     1
102
RTVSPropertyOp17
 70
     1
102
RTVSPropertyOp18
 70
     1
102
RTVSPropertyOp19
 70
     1
102
RTVSPropertyOp20
 70
     1
102
RTVSPropertyOp21
 70
     1
102
RTVSPropertyOp22
 70
     1
102
RTVSPropertyOp23
 70
     1
102
RTVSPropertyOp24
 70
     1
102
RTVSPropertyOp25
 70
     1
102
RTVSPropertyOp26
 70
     1
102
RTVSPropertyOp27
 70
     1
102
RTVSPropertyOp28
 70
     1
102
RTVSPropertyOp29
 70
     1
102
RTVSPropertyOp30
 70
     1
102
RTVSPropertyOp31
 70
     1
102
RTVSPropertyOp32
 70
     1
102
RTVSPropertyOp33
 70
     1
102
RTVSPropertyOp34
 70
     1
102
RTVSPropertyOp35
 70
     1
102
RTVSPropertyOp36
 70
     1
102
RTVSPropertyOp37
 70
     1
102
RTVSPropertyOp38
 70
     1
102
RTVSPropertyOp39
 70
     1
102
RTVSPropertyOp40
 70
     1
102
RTVSPropertyOp41
 70
     1
102
RTVSPropertyOp42
 70
     1
102
RTVSPropertyOp43
 70
     1
102
RTVSPropertyOp44
 70
     1
102
RTVSPropertyOp45
 70
     1
102
RTVSPropertyOp46
 70
     1
102
RTVSPropertyOp47
 70
     1
102
RTVSPropertyOp48
 70
     1
102
RTVSPropertyOp49
 70
     1
102
RTVSPropertyOp50
 70
     1
102
RTVSPropertyOp51
 70
     0
102
RTVSPropertyOp52
 70
     0
102
RTVSPropertyOp53
 70
     1
102
RTVSPropertyOp54
 70
     1
102
RTVSPropertyOp55
 70
     1
102
RTVSPropertyOp56
 70
     1
102
RTVSPropertyOp57
 70
     1
102
RTVSPost2010Prop28
280
     0
102
RTVSPost2010PropOp28
 70
     1
102
RTVSPost2010Prop29
280
     1
102
RTVSPost2010PropOp29
 70
     1
102
RTVSPost2010Prop30
280
     1
102
RTVSPost2010PropOp30
 70
     1
102
RTVSPost2010Prop31
280
     0
102
RTVSPost2010PropOp31
 70
     1
102
RTVSPost2010Prop32
280
     0
102
RTVSPost2010PropOp32
 70
     1
102
RTVSPost2010Prop33
280
     0
102
RTVSPost2010PropOp33
 70
     1
102
RTVSPost2010Prop34
280
     0
102
RTVSPost2010PropOp34
 70
     1
102
RTVSPost2010Prop35
280
     0
102
RTVSPost2010PropOp35
 70
     1
102
RTVSPost2010Prop36
280
     0
102
RTVSPost2010PropOp36
 70
     1
102
RTVSPost2010Prop37
 90
       50
102
RTVSPost2010PropOp37
 70
     1
102
RTVSPost2010Prop38
140
0.0
102
RTVSPost2010PropOp38
 70
     1
102
RTVSPost2010Prop39
140
1.0
102
RTVSPost2010PropOp39
 70
     1
102
RTVSPost2010Prop40
 90
        0
102
RTVSPost2010PropOp40
 70
     1
102
RTVSPost2010Prop41ColorIndex
 90
       18
102
RTVSPost2010Prop41ColorRGB
 90
        0
102
RTVSPost2010PropOp41
 70
     1
102
RTVSPost2010Prop42
 90
       50
102
RTVSPost2010PropOp42
 70
     1
102
RTVSPost2010Prop43
 90
        3
102
RTVSPost2010PropOp43
 70
     1
102
RTVSPost2010Prop44ColorIndex
 90
        5
102
RTVSPost2010Prop44ColorRGB
 90
      255
102
RTVSPost2010PropOp44
 70
     1
102
RTVSPost2010Prop45
280
     0
102
RTVSPost2010PropOp45
 70
     1
102
RTVSPost2010Prop46
 90
       50
102
RTVSPost2010PropOp46
 70
     1
102
RTVSPost2010Prop47
 90
       50
102
RTVSPost2010PropOp47
 70
     1
102
RTVSPost2010Prop48
 90
       50
102
RTVSPost2010PropOp48
 70
     1
102
RTVSPost2010Prop49
280
     0
102
RTVSPost2010PropOp49
 70
     1
102
RTVSPost2010Prop50
 90
       50
102
RTVSPost2010PropOp50
 70
     1
102
RTVSPost2010Prop51ColorIndex
 90
      256
102
RTVSPost2010Prop51ColorRGB
 90
-16777216
102
RTVSPost2010PropOp51
 70
     0
102
RTVSPost2010Prop52
140
1.0
102
RTVSPost2010PropOp52
 70
     0
102
RTVSPost2010Prop53
 90
        2
102
RTVSPost2010PropOp53
 70
     1
102
RTVSPost2010Prop54
  1
strokes_ogs.tif
102
RTVSPost2010PropOp54
 70
     1
102
RTVSPost2010Prop55
280
     0
102
RTVSPost2010PropOp55
 70
     1
102
RTVSPost2010Prop56
140
1.0
102
RTVSPost2010PropOp56
 70
     1
102
RTVSPost2010Prop57
140
1.0
102
RTVSPost2010PropOp57
 70
     1
  0
XRECORD
  5
209
102
{ACAD_REACTORS
330
208
102
}
330
208
100
AcDbXrecord
280
     1
102
RTVSPropertyOp0
 70
     1
102
RTVSPropertyOp1
 70
     1
102
RTVSPropertyOp2
 70
     1
102
RTVSPropertyOp3
 70
     1
102
RTVSPropertyOp4
 70
     1
102
RTVSPropertyOp5
 70
     1
102
RTVSPropertyOp6
 70
     1
102
RTVSPropertyOp7
 70
     1
102
RTVSPropertyOp8
 70
     1
102
RTVSPropertyOp9
 70
     1
102
RTVSPropertyOp10
 70
     1
102
RTVSPropertyOp11
 70
     1
102
RTVSPropertyOp12
 70
     1
102
RTVSPropertyOp13
 70
     1
102
RTVSPropertyOp14
 70
     1
102
RTVSPropertyOp15
 70
     1
102
RTVSPropertyOp16
 70
     1
102
RTVSPropertyOp17
 70
     1
102
RTVSPropertyOp18
 70
     1
102
RTVSPropertyOp19
 70
     1
102
RTVSPropertyOp20
 70
     1
102
RTVSPropertyOp21
 70
     1
102
RTVSPropertyOp22
 70
     1
102
RTVSPropertyOp23
 70
     1
102
RTVSPropertyOp24
 70
     1
102
RTVSPropertyOp25
 70
     1
102
RTVSPropertyOp26
 70
     1
102
RTVSPropertyOp27
 70
     1
102
RTVSPropertyOp28
 70
     1
102
RTVSPropertyOp29
 70
     1
102
RTVSPropertyOp30
 70
     1
102
RTVSPropertyOp31
 70
     1
102
RTVSPropertyOp32
 70
     1
102
RTVSPropertyOp33
 70
     1
102
RTVSPropertyOp34
 70
     1
102
RTVSPropertyOp35
 70
     1
102
RTVSPropertyOp36
 70
     1
102
RTVSPropertyOp37
 70
     1
102
RTVSPropertyOp38
 70
     1
102
RTVSPropertyOp39
 70
     1
102
RTVSPropertyOp40
 70
     1
102
RTVSPropertyOp41
 70
     1
102
RTVSPropertyOp42
 70
     1
102
RTVSPropertyOp43
 70
     1
102
RTVSPropertyOp44
 70
     1
102
RTVSPropertyOp45
 70
     1
102
RTVSPropertyOp46
 70
     1
102
RTVSPropertyOp47
 70
     1
102
RTVSPropertyOp48
 70
     1
102
RTVSPropertyOp49
 70
     1
102
RTVSPropertyOp50
 70
     1
102
RTVSPropertyOp51
 70
     0
102
RTVSPropertyOp52
 70
     0
102
RTVSPropertyOp53
 70
     1
102
RTVSPropertyOp54
 70
     1
102
RTVSPropertyOp55
 70
     1
102
RTVSPropertyOp56
 70
     1
102
RTVSPropertyOp57
 70
     1
102
RTVSPost2010Prop28
280
     0
102
RTVSPost2010PropOp28
 70
     1
102
RTVSPost2010Prop29
280
     1
102
RTVSPost2010PropOp29
 70
     1
102
RTVSPost2010Prop30
280
     1
102
RTVSPost2010PropOp30
 70
     1
102
RTVSPost2010Prop31
280
     0
102
RTVSPost2010PropOp31
 70
     1
102
RTVSPost2010Prop32
280
     0
102
RTVSPost2010PropOp32
 70
     1
102
RTVSPost2010Prop33
280
     0
102
RTVSPost2010PropOp33
 70
     1
102
RTVSPost2010Prop34
280
     0
102
RTVSPost2010PropOp34
 70
     1
102
RTVSPost2010Prop35
280
     0
102
RTVSPost2010PropOp35
 70
     1
102
RTVSPost2010Prop36
280
     0
102
RTVSPost2010PropOp36
 70
     1
102
RTVSPost2010Prop37
 90
       50
102
RTVSPost2010PropOp37
 70
     1
102
RTVSPost2010Prop38
140
0.0
102
RTVSPost2010PropOp38
 70
     1
102
RTVSPost2010Prop39
140
1.0
102
RTVSPost2010PropOp39
 70
     1
102
RTVSPost2010Prop40
 90
        0
102
RTVSPost2010PropOp40
 70
     1
102
RTVSPost2010Prop41ColorIndex
 90
       18
102
RTVSPost2010Prop41ColorRGB
 90
        0
102
RTVSPost2010PropOp41
 70
     1
102
RTVSPost2010Prop42
 90
       50
102
RTVSPost2010PropOp42
 70
     1
102
RTVSPost2010Prop43
 90
        3
102
RTVSPost2010PropOp43
 70
     1
102
RTVSPost2010Prop44ColorIndex
 90
        5
102
RTVSPost2010Prop44ColorRGB
 90
      255
102
RTVSPost2010PropOp44
 70
     1
102
RTVSPost2010Prop45
280
     0
102
RTVSPost2010PropOp45
 70
     1
102
RTVSPost2010Prop46
 90
       50
102
RTVSPost2010PropOp46
 70
     1
102
RTVSPost2010Prop47
 90
       50
102
RTVSPost2010PropOp47
 70
     1
102
RTVSPost2010Prop48
 90
       50
102
RTVSPost2010PropOp48
 70
     1
102
RTVSPost2010Prop49
280
     0
102
RTVSPost2010PropOp49
 70
     1
102
RTVSPost2010Prop50
 90
       50
102
RTVSPost2010PropOp50
 70
     1
102
RTVSPost2010Prop51ColorIndex
 90
      256
102
RTVSPost2010Prop51ColorRGB
 90
-16777216
102
RTVSPost2010PropOp51
 70
     0
102
RTVSPost2010Prop52
140
1.0
102
RTVSPost2010PropOp52
 70
     0
102
RTVSPost2010Prop53
 90
        2
102
RTVSPost2010PropOp53
 70
     1
102
RTVSPost2010Prop54
  1
strokes_ogs.tif
102
RTVSPost2010PropOp54
 70
     1
102
RTVSPost2010Prop55
280
     0
102
RTVSPost2010PropOp55
 70
     1
102
RTVSPost2010Prop56
140
1.0
102
RTVSPost2010PropOp56
 70
     1
102
RTVSPost2010Prop57
140
1.0
102
RTVSPost2010PropOp57
 70
     1
  0
XRECORD
  5
20B
102
{ACAD_REACTORS
330
20A
102
}
330
20A
100
AcDbXrecord
280
     1
102
RTVSPropertyOp0
 70
     1
102
RTVSPropertyOp1
 70
     1
102
RTVSPropertyOp2
 70
     1
102
RTVSPropertyOp3
 70
     1
102
RTVSPropertyOp4
 70
     1
102
RTVSPropertyOp5
 70
     1
102
RTVSPropertyOp6
 70
     1
102
RTVSPropertyOp7
 70
     1
102
RTVSPropertyOp8
 70
     1
102
RTVSPropertyOp9
 70
     1
102
RTVSPropertyOp10
 70
     1
102
RTVSPropertyOp11
 70
     1
102
RTVSPropertyOp12
 70
     1
102
RTVSPropertyOp13
 70
     1
102
RTVSPropertyOp14
 70
     1
102
RTVSPropertyOp15
 70
     1
102
RTVSPropertyOp16
 70
     1
102
RTVSPropertyOp17
 70
     1
102
RTVSPropertyOp18
 70
     1
102
RTVSPropertyOp19
 70
     1
102
RTVSPropertyOp20
 70
     1
102
RTVSPropertyOp21
 70
     1
102
RTVSPropertyOp22
 70
     1
102
RTVSPropertyOp23
 70
     1
102
RTVSPropertyOp24
 70
     1
102
RTVSPropertyOp25
 70
     1
102
RTVSPropertyOp26
 70
     1
102
RTVSPropertyOp27
 70
     1
102
RTVSPropertyOp28
 70
     1
102
RTVSPropertyOp29
 70
     1
102
RTVSPropertyOp30
 70
     1
102
RTVSPropertyOp31
 70
     1
102
RTVSPropertyOp32
 70
     1
102
RTVSPropertyOp33
 70
     1
102
RTVSPropertyOp34
 70
     1
102
RTVSPropertyOp35
 70
     1
102
RTVSPropertyOp36
 70
     1
102
RTVSPropertyOp37
 70
     1
102
RTVSPropertyOp38
 70
     1
102
RTVSPropertyOp39
 70
     1
102
RTVSPropertyOp40
 70
     1
102
RTVSPropertyOp41
 70
     1
102
RTVSPropertyOp42
 70
     1
102
RTVSPropertyOp43
 70
     1
102
RTVSPropertyOp44
 70
     1
102
RTVSPropertyOp45
 70
     1
102
RTVSPropertyOp46
 70
     1
102
RTVSPropertyOp47
 70
     1
102
RTVSPropertyOp48
 70
     1
102
RTVSPropertyOp49
 70
     1
102
RTVSPropertyOp50
 70
     1
102
RTVSPropertyOp51
 70
     0
102
RTVSPropertyOp52
 70
     0
102
RTVSPropertyOp53
 70
     1
102
RTVSPropertyOp54
 70
     1
102
RTVSPropertyOp55
 70
     1
102
RTVSPropertyOp56
 70
     1
102
RTVSPropertyOp57
 70
     1
102
RTVSPost2010Prop28
280
     0
102
RTVSPost2010PropOp28
 70
     1
102
RTVSPost2010Prop29
280
     1
102
RTVSPost2010PropOp29
 70
     1
102
RTVSPost2010Prop30
280
     1
102
RTVSPost2010PropOp30
 70
     1
102
RTVSPost2010Prop31
280
     0
102
RTVSPost2010PropOp31
 70
     1
102
RTVSPost2010Prop32
280
     0
102
RTVSPost2010PropOp32
 70
     1
102
RTVSPost2010Prop33
280
     0
102
RTVSPost2010PropOp33
 70
     1
102
RTVSPost2010Prop34
280
     0
102
RTVSPost2010PropOp34
 70
     1
102
RTVSPost2010Prop35
280
     0
102
RTVSPost2010PropOp35
 70
     1
102
RTVSPost2010Prop36
280
     0
102
RTVSPost2010PropOp36
 70
     1
102
RTVSPost2010Prop37
 90
       50
102
RTVSPost2010PropOp37
 70
     1
102
RTVSPost2010Prop38
140
0.0
102
RTVSPost2010PropOp38
 70
     1
102
RTVSPost2010Prop39
140
1.0
102
RTVSPost2010PropOp39
 70
     1
102
RTVSPost2010Prop40
 90
        0
102
RTVSPost2010PropOp40
 70
     1
102
RTVSPost2010Prop41ColorIndex
 90
       18
102
RTVSPost2010Prop41ColorRGB
 90
        0
102
RTVSPost2010PropOp41
 70
     1
102
RTVSPost2010Prop42
 90
       50
102
RTVSPost2010PropOp42
 70
     1
102
RTVSPost2010Prop43
 90
        3
102
RTVSPost2010PropOp43
 70
     1
102
RTVSPost2010Prop44ColorIndex
 90
        5
102
RTVSPost2010Prop44ColorRGB
 90
      255
102
RTVSPost2010PropOp44
 70
     1
102
RTVSPost2010Prop45
280
     0
102
RTVSPost2010PropOp45
 70
     1
102
RTVSPost2010Prop46
 90
       50
102
RTVSPost2010PropOp46
 70
     1
102
RTVSPost2010Prop47
 90
       50
102
RTVSPost2010PropOp47
 70
     1
102
RTVSPost2010Prop48
 90
       50
102
RTVSPost2010PropOp48
 70
     1
102
RTVSPost2010Prop49
280
     0
102
RTVSPost2010PropOp49
 70
     1
102
RTVSPost2010Prop50
 90
       50
102
RTVSPost2010PropOp50
 70
     1
102
RTVSPost2010Prop51ColorIndex
 90
      256
102
RTVSPost2010Prop51ColorRGB
 90
-16777216
102
RTVSPost2010PropOp51
 70
     0
102
RTVSPost2010Prop52
140
1.0
102
RTVSPost2010PropOp52
 70
     0
102
RTVSPost2010Prop53
 90
        2
102
RTVSPost2010PropOp53
 70
     1
102
RTVSPost2010Prop54
  1
strokes_ogs.tif
102
RTVSPost2010PropOp54
 70
     1
102
RTVSPost2010Prop55
280
     0
102
RTVSPost2010PropOp55
 70
     1
102
RTVSPost2010Prop56
140
1.0
102
RTVSPost2010PropOp56
 70
     1
102
RTVSPost2010Prop57
140
1.0
102
RTVSPost2010PropOp57
 70
     1
  0
XRECORD
  5
1FB
102
{ACAD_REACTORS
330
1FA
102
}
330
1FA
100
AcDbXrecord
280
     1
102
RTVSPropertyOp0
 70
     1
102
RTVSPropertyOp1
 70
     1
102
RTVSPropertyOp2
 70
     1
102
RTVSPropertyOp3
 70
     1
102
RTVSPropertyOp4
 70
     1
102
RTVSPropertyOp5
 70
     1
102
RTVSPropertyOp6
 70
     1
102
RTVSPropertyOp7
 70
     1
102
RTVSPropertyOp8
 70
     1
102
RTVSPropertyOp9
 70
     1
102
RTVSPropertyOp10
 70
     1
102
RTVSPropertyOp11
 70
     1
102
RTVSPropertyOp12
 70
     1
102
RTVSPropertyOp13
 70
     1
102
RTVSPropertyOp14
 70
     1
102
RTVSPropertyOp15
 70
     1
102
RTVSPropertyOp16
 70
     1
102
RTVSPropertyOp17
 70
     1
102
RTVSPropertyOp18
 70
     1
102
RTVSPropertyOp19
 70
     1
102
RTVSPropertyOp20
 70
     1
102
RTVSPropertyOp21
 70
     1
102
RTVSPropertyOp22
 70
     1
102
RTVSPropertyOp23
 70
     1
102
RTVSPropertyOp24
 70
     1
102
RTVSPropertyOp25
 70
     1
102
RTVSPropertyOp26
 70
     1
102
RTVSPropertyOp27
 70
     1
102
RTVSPropertyOp28
 70
     1
102
RTVSPropertyOp29
 70
     1
102
RTVSPropertyOp30
 70
     1
102
RTVSPropertyOp31
 70
     1
102
RTVSPropertyOp32
 70
     1
102
RTVSPropertyOp33
 70
     1
102
RTVSPropertyOp34
 70
     1
102
RTVSPropertyOp35
 70
     1
102
RTVSPropertyOp36
 70
     1
102
RTVSPropertyOp37
 70
     1
102
RTVSPropertyOp38
 70
     1
102
RTVSPropertyOp39
 70
     1
102
RTVSPropertyOp40
 70
     1
102
RTVSPropertyOp41
 70
     1
102
RTVSPropertyOp42
 70
     1
102
RTVSPropertyOp43
 70
     1
102
RTVSPropertyOp44
 70
     1
102
RTVSPropertyOp45
 70
     1
102
RTVSPropertyOp46
 70
     1
102
RTVSPropertyOp47
 70
     1
102
RTVSPropertyOp48
 70
     1
102
RTVSPropertyOp49
 70
     1
102
RTVSPropertyOp50
 70
     1
102
RTVSPropertyOp51
 70
     0
102
RTVSPropertyOp52
 70
     0
102
RTVSPropertyOp53
 70
     1
102
RTVSPropertyOp54
 70
     1
102
RTVSPropertyOp55
 70
     1
102
RTVSPropertyOp56
 70
     1
102
RTVSPropertyOp57
 70
     1
102
RTVSPost2010Prop28
280
     0
102
RTVSPost2010PropOp28
 70
     1
102
RTVSPost2010Prop29
280
     1
102
RTVSPost2010PropOp29
 70
     1
102
RTVSPost2010Prop30
280
     1
102
RTVSPost2010PropOp30
 70
     1
102
RTVSPost2010Prop31
280
     0
102
RTVSPost2010PropOp31
 70
     1
102
RTVSPost2010Prop32
280
     0
102
RTVSPost2010PropOp32
 70
     1
102
RTVSPost2010Prop33
280
     0
102
RTVSPost2010PropOp33
 70
     1
102
RTVSPost2010Prop34
280
     0
102
RTVSPost2010PropOp34
 70
     1
102
RTVSPost2010Prop35
280
     0
102
RTVSPost2010PropOp35
 70
     1
102
RTVSPost2010Prop36
280
     0
102
RTVSPost2010PropOp36
 70
     1
102
RTVSPost2010Prop37
 90
       50
102
RTVSPost2010PropOp37
 70
     1
102
RTVSPost2010Prop38
140
0.0
102
RTVSPost2010PropOp38
 70
     1
102
RTVSPost2010Prop39
140
1.0
102
RTVSPost2010PropOp39
 70
     1
102
RTVSPost2010Prop40
 90
        0
102
RTVSPost2010PropOp40
 70
     1
102
RTVSPost2010Prop41ColorIndex
 90
       18
102
RTVSPost2010Prop41ColorRGB
 90
        0
102
RTVSPost2010PropOp41
 70
     1
102
RTVSPost2010Prop42
 90
       50
102
RTVSPost2010PropOp42
 70
     1
102
RTVSPost2010Prop43
 90
        3
102
RTVSPost2010PropOp43
 70
     1
102
RTVSPost2010Prop44ColorIndex
 90
        5
102
RTVSPost2010Prop44ColorRGB
 90
      255
102
RTVSPost2010PropOp44
 70
     1
102
RTVSPost2010Prop45
280
     0
102
RTVSPost2010PropOp45
 70
     1
102
RTVSPost2010Prop46
 90
       50
102
RTVSPost2010PropOp46
 70
     1
102
RTVSPost2010Prop47
 90
       50
102
RTVSPost2010PropOp47
 70
     1
102
RTVSPost2010Prop48
 90
       50
102
RTVSPost2010PropOp48
 70
     1
102
RTVSPost2010Prop49
280
     0
102
RTVSPost2010PropOp49
 70
     1
102
RTVSPost2010Prop50
 90
       50
102
RTVSPost2010PropOp50
 70
     1
102
RTVSPost2010Prop51ColorIndex
 90
      256
102
RTVSPost2010Prop51ColorRGB
 90
-16777216
102
RTVSPost2010PropOp51
 70
     0
102
RTVSPost2010Prop52
140
1.0
102
RTVSPost2010PropOp52
 70
     0
102
RTVSPost2010Prop53
 90
        2
102
RTVSPost2010PropOp53
 70
     1
102
RTVSPost2010Prop54
  1
strokes_ogs.tif
102
RTVSPost2010PropOp54
 70
     1
102
RTVSPost2010Prop55
280
     0
102
RTVSPost2010PropOp55
 70
     1
102
RTVSPost2010Prop56
140
1.0
102
RTVSPost2010PropOp56
 70
     1
102
RTVSPost2010Prop57
140
1.0
102
RTVSPost2010PropOp57
 70
     1
  0
XRECORD
  5
1ED
102
{ACAD_REACTORS
330
1EC
102
}
330
1EC
100
AcDbXrecord
280
     1
102
RTVSPropertyOp0
 70
     1
102
RTVSPropertyOp1
 70
     1
102
RTVSPropertyOp2
 70
     1
102
RTVSPropertyOp3
 70
     1
102
RTVSPropertyOp4
 70
     1
102
RTVSPropertyOp5
 70
     1
102
RTVSPropertyOp6
 70
     1
102
RTVSPropertyOp7
 70
     1
102
RTVSPropertyOp8
 70
     1
102
RTVSPropertyOp9
 70
     1
102
RTVSPropertyOp10
 70
     1
102
RTVSPropertyOp11
 70
     1
102
RTVSPropertyOp12
 70
     1
102
RTVSPropertyOp13
 70
     1
102
RTVSPropertyOp14
 70
     1
102
RTVSPropertyOp15
 70
     1
102
RTVSPropertyOp16
 70
     1
102
RTVSPropertyOp17
 70
     1
102
RTVSPropertyOp18
 70
     1
102
RTVSPropertyOp19
 70
     1
102
RTVSPropertyOp20
 70
     1
102
RTVSPropertyOp21
 70
     1
102
RTVSPropertyOp22
 70
     1
102
RTVSPropertyOp23
 70
     1
102
RTVSPropertyOp24
 70
     1
102
RTVSPropertyOp25
 70
     1
102
RTVSPropertyOp26
 70
     1
102
RTVSPropertyOp27
 70
     1
102
RTVSPropertyOp28
 70
     1
102
RTVSPropertyOp29
 70
     1
102
RTVSPropertyOp30
 70
     1
102
RTVSPropertyOp31
 70
     1
102
RTVSPropertyOp32
 70
     1
102
RTVSPropertyOp33
 70
     1
102
RTVSPropertyOp34
 70
     1
102
RTVSPropertyOp35
 70
     1
102
RTVSPropertyOp36
 70
     1
102
RTVSPropertyOp37
 70
     1
102
RTVSPropertyOp38
 70
     1
102
RTVSPropertyOp39
 70
     1
102
RTVSPropertyOp40
 70
     1
102
RTVSPropertyOp41
 70
     1
102
RTVSPropertyOp42
 70
     1
102
RTVSPropertyOp43
 70
     1
102
RTVSPropertyOp44
 70
     1
102
RTVSPropertyOp45
 70
     1
102
RTVSPropertyOp46
 70
     1
102
RTVSPropertyOp47
 70
     1
102
RTVSPropertyOp48
 70
     1
102
RTVSPropertyOp49
 70
     1
102
RTVSPropertyOp50
 70
     1
102
RTVSPropertyOp51
 70
     0
102
RTVSPropertyOp52
 70
     0
102
RTVSPropertyOp53
 70
     1
102
RTVSPropertyOp54
 70
     1
102
RTVSPropertyOp55
 70
     1
102
RTVSPropertyOp56
 70
     1
102
RTVSPropertyOp57
 70
     1
102
RTVSPost2010Prop28
280
     0
102
RTVSPost2010PropOp28
 70
     1
102
RTVSPost2010Prop29
280
     1
102
RTVSPost2010PropOp29
 70
     1
102
RTVSPost2010Prop30
280
     1
102
RTVSPost2010PropOp30
 70
     1
102
RTVSPost2010Prop31
280
     0
102
RTVSPost2010PropOp31
 70
     1
102
RTVSPost2010Prop32
280
     0
102
RTVSPost2010PropOp32
 70
     1
102
RTVSPost2010Prop33
280
     0
102
RTVSPost2010PropOp33
 70
     1
102
RTVSPost2010Prop34
280
     0
102
RTVSPost2010PropOp34
 70
     1
102
RTVSPost2010Prop35
280
     0
102
RTVSPost2010PropOp35
 70
     1
102
RTVSPost2010Prop36
280
     0
102
RTVSPost2010PropOp36
 70
     1
102
RTVSPost2010Prop37
 90
       50
102
RTVSPost2010PropOp37
 70
     1
102
RTVSPost2010Prop38
140
0.0
102
RTVSPost2010PropOp38
 70
     1
102
RTVSPost2010Prop39
140
1.0
102
RTVSPost2010PropOp39
 70
     1
102
RTVSPost2010Prop40
 90
        0
102
RTVSPost2010PropOp40
 70
     1
102
RTVSPost2010Prop41ColorIndex
 90
       18
102
RTVSPost2010Prop41ColorRGB
 90
        0
102
RTVSPost2010PropOp41
 70
     1
102
RTVSPost2010Prop42
 90
       50
102
RTVSPost2010PropOp42
 70
     1
102
RTVSPost2010Prop43
 90
        3
102
RTVSPost2010PropOp43
 70
     1
102
RTVSPost2010Prop44ColorIndex
 90
        5
102
RTVSPost2010Prop44ColorRGB
 90
      255
102
RTVSPost2010PropOp44
 70
     1
102
RTVSPost2010Prop45
280
     0
102
RTVSPost2010PropOp45
 70
     1
102
RTVSPost2010Prop46
 90
       50
102
RTVSPost2010PropOp46
 70
     1
102
RTVSPost2010Prop47
 90
       50
102
RTVSPost2010PropOp47
 70
     1
102
RTVSPost2010Prop48
 90
       50
102
RTVSPost2010PropOp48
 70
     1
102
RTVSPost2010Prop49
280
     0
102
RTVSPost2010PropOp49
 70
     1
102
RTVSPost2010Prop50
 90
       50
102
RTVSPost2010PropOp50
 70
     1
102
RTVSPost2010Prop51ColorIndex
 90
      256
102
RTVSPost2010Prop51ColorRGB
 90
-16777216
102
RTVSPost2010PropOp51
 70
     0
102
RTVSPost2010Prop52
140
1.0
102
RTVSPost2010PropOp52
 70
     0
102
RTVSPost2010Prop53
 90
        2
102
RTVSPost2010PropOp53
 70
     1
102
RTVSPost2010Prop54
  1
strokes_ogs.tif
102
RTVSPost2010PropOp54
 70
     1
102
RTVSPost2010Prop55
280
     0
102
RTVSPost2010PropOp55
 70
     1
102
RTVSPost2010Prop56
140
1.0
102
RTVSPost2010PropOp56
 70
     1
102
RTVSPost2010Prop57
140
1.0
102
RTVSPost2010PropOp57
 70
     1
  0
XRECORD
  5
20D
102
{ACAD_REACTORS
330
20C
102
}
330
20C
100
AcDbXrecord
280
     1
102
RTVSPropertyOp0
 70
     1
102
RTVSPropertyOp1
 70
     1
102
RTVSPropertyOp2
 70
     1
102
RTVSPropertyOp3
 70
     1
102
RTVSPropertyOp4
 70
     1
102
RTVSPropertyOp5
 70
     1
102
RTVSPropertyOp6
 70
     1
102
RTVSPropertyOp7
 70
     1
102
RTVSPropertyOp8
 70
     1
102
RTVSPropertyOp9
 70
     1
102
RTVSPropertyOp10
 70
     1
102
RTVSPropertyOp11
 70
     1
102
RTVSPropertyOp12
 70
     1
102
RTVSPropertyOp13
 70
     1
102
RTVSPropertyOp14
 70
     1
102
RTVSPropertyOp15
 70
     1
102
RTVSPropertyOp16
 70
     1
102
RTVSPropertyOp17
 70
     1
102
RTVSPropertyOp18
 70
     1
102
RTVSPropertyOp19
 70
     1
102
RTVSPropertyOp20
 70
     1
102
RTVSPropertyOp21
 70
     1
102
RTVSPropertyOp22
 70
     1
102
RTVSPropertyOp23
 70
     1
102
RTVSPropertyOp24
 70
     1
102
RTVSPropertyOp25
 70
     1
102
RTVSPropertyOp26
 70
     1
102
RTVSPropertyOp27
 70
     1
102
RTVSPropertyOp28
 70
     1
102
RTVSPropertyOp29
 70
     1
102
RTVSPropertyOp30
 70
     1
102
RTVSPropertyOp31
 70
     1
102
RTVSPropertyOp32
 70
     1
102
RTVSPropertyOp33
 70
     1
102
RTVSPropertyOp34
 70
     1
102
RTVSPropertyOp35
 70
     1
102
RTVSPropertyOp36
 70
     1
102
RTVSPropertyOp37
 70
     1
102
RTVSPropertyOp38
 70
     1
102
RTVSPropertyOp39
 70
     1
102
RTVSPropertyOp40
 70
     1
102
RTVSPropertyOp41
 70
     1
102
RTVSPropertyOp42
 70
     1
102
RTVSPropertyOp43
 70
     1
102
RTVSPropertyOp44
 70
     1
102
RTVSPropertyOp45
 70
     1
102
RTVSPropertyOp46
 70
     1
102
RTVSPropertyOp47
 70
     1
102
RTVSPropertyOp48
 70
     1
102
RTVSPropertyOp49
 70
     1
102
RTVSPropertyOp50
 70
     1
102
RTVSPropertyOp51
 70
     0
102
RTVSPropertyOp52
 70
     0
102
RTVSPropertyOp53
 70
     1
102
RTVSPropertyOp54
 70
     1
102
RTVSPropertyOp55
 70
     1
102
RTVSPropertyOp56
 70
     1
102
RTVSPropertyOp57
 70
     1
102
RTVSPost2010Prop28
280
     0
102
RTVSPost2010PropOp28
 70
     1
102
RTVSPost2010Prop29
280
     1
102
RTVSPost2010PropOp29
 70
     1
102
RTVSPost2010Prop30
280
     1
102
RTVSPost2010PropOp30
 70
     1
102
RTVSPost2010Prop31
280
     0
102
RTVSPost2010PropOp31
 70
     1
102
RTVSPost2010Prop32
280
     0
102
RTVSPost2010PropOp32
 70
     1
102
RTVSPost2010Prop33
280
     0
102
RTVSPost2010PropOp33
 70
     1
102
RTVSPost2010Prop34
280
     0
102
RTVSPost2010PropOp34
 70
     1
102
RTVSPost2010Prop35
280
     0
102
RTVSPost2010PropOp35
 70
     1
102
RTVSPost2010Prop36
280
     0
102
RTVSPost2010PropOp36
 70
     1
102
RTVSPost2010Prop37
 90
       50
102
RTVSPost2010PropOp37
 70
     1
102
RTVSPost2010Prop38
140
0.0
102
RTVSPost2010PropOp38
 70
     1
102
RTVSPost2010Prop39
140
1.0
102
RTVSPost2010PropOp39
 70
     1
102
RTVSPost2010Prop40
 90
        0
102
RTVSPost2010PropOp40
 70
     1
102
RTVSPost2010Prop41ColorIndex
 90
       18
102
RTVSPost2010Prop41ColorRGB
 90
        0
102
RTVSPost2010PropOp41
 70
     1
102
RTVSPost2010Prop42
 90
       50
102
RTVSPost2010PropOp42
 70
     1
102
RTVSPost2010Prop43
 90
        3
102
RTVSPost2010PropOp43
 70
     1
102
RTVSPost2010Prop44ColorIndex
 90
        5
102
RTVSPost2010Prop44ColorRGB
 90
      255
102
RTVSPost2010PropOp44
 70
     1
102
RTVSPost2010Prop45
280
     0
102
RTVSPost2010PropOp45
 70
     1
102
RTVSPost2010Prop46
 90
       50
102
RTVSPost2010PropOp46
 70
     1
102
RTVSPost2010Prop47
 90
       50
102
RTVSPost2010PropOp47
 70
     1
102
RTVSPost2010Prop48
 90
       50
102
RTVSPost2010PropOp48
 70
     1
102
RTVSPost2010Prop49
280
     0
102
RTVSPost2010PropOp49
 70
     1
102
RTVSPost2010Prop50
 90
       50
102
RTVSPost2010PropOp50
 70
     1
102
RTVSPost2010Prop51ColorIndex
 90
      256
102
RTVSPost2010Prop51ColorRGB
 90
-16777216
102
RTVSPost2010PropOp51
 70
     0
102
RTVSPost2010Prop52
140
1.0
102
RTVSPost2010PropOp52
 70
     0
102
RTVSPost2010Prop53
 90
        2
102
RTVSPost2010PropOp53
 70
     1
102
RTVSPost2010Prop54
  1
strokes_ogs.tif
102
RTVSPost2010PropOp54
 70
     1
102
RTVSPost2010Prop55
280
     0
102
RTVSPost2010PropOp55
 70
     1
102
RTVSPost2010Prop56
140
1.0
102
RTVSPost2010PropOp56
 70
     1
102
RTVSPost2010Prop57
140
1.0
102
RTVSPost2010PropOp57
 70
     1
  0
ENDSEC
  0
EOF
