  0
SECTION
  2
HEADER
  9
$ACADVER
  1
AC1015
  9
$ACADMAINTVER
 70
     6
  9
$DWGCODEPAGE
  3
ANSI_1252
  9
$INSBASE
 10
0.0
 20
0.0
 30
0.0
  9
$EXTMIN
 10
149.791199
 20
111.031151
 30
0.0
  9
$EXTMAX
 10
520.824707
 20
527.598389
 30
0.0
  9
$LIMMIN
 10
149.791199
 20
111.031151
  9
$LIMMAX
 10
520.824707
 20
527.598389
  9
$ORTHOMODE
 70
     0
  9
$REGENMODE
 70
     1
  9
$FILLMODE
 70
     1
  9
$QTEXTMODE
 70
     0
  9
$MIRRTEXT
 70
     1
  9
$LTSCALE
 40
1.0
  9
$ATTMODE
 70
     1
  9
$TEXTSIZE
 40
2.5
  9
$TRACEWID
 40
1.0
  9
$TEXTSTYLE
  7
Standard
  9
$CLAYER
  8
0
  9
$CELTYPE
  6
ByLayer
  9
$CECOLOR
 62
   256
  9
$CELTSCALE
 40
1.0
  9
$DISPSILH
 70
     0
  9
$DIMSCALE
 40
1.0
  9
$DIMASZ
 40
2.5
  9
$DIMEXO
 40
0.625
  9
$DIMDLI
 40
3.75
  9
$DIMRND
 40
0.0
  9
$DIMDLE
 40
0.0
  9
$DIMEXE
 40
1.25
  9
$DIMTP
 40
0.0
  9
$DIMTM
 40
0.0
  9
$DIMTXT
 40
2.5
  9
$DIMCEN
 40
2.5
  9
$DIMTSZ
 40
0.0
  9
$DIMTOL
 70
     0
  9
$DIMLIM
 70
     0
  9
$DIMTIH
 70
     0
  9
$DIMTOH
 70
     0
  9
$DIMSE1
 70
     0
  9
$DIMSE2
 70
     0
  9
$DIMTAD
 70
     1
  9
$DIMZIN
 70
     8
  9
$DIMBLK
  1

  9
$DIMASO
 70
     1
  9
$DIMSHO
 70
     1
  9
$DIMPOST
  1

  9
$DIMAPOST
  1

  9
$DIMALT
 70
     0
  9
$DIMALTD
 70
     3
  9
$DIMALTF
 40
0.03937
  9
$DIMLFAC
 40
1.0
  9
$DIMTOFL
 70
     1
  9
$DIMTVP
 40
0.0
  9
$DIMTIX
 70
     0
  9
$DIMSOXD
 70
     0
  9
$DIMSAH
 70
     0
  9
$DIMBLK1
  1

  9
$DIMBLK2
  1

  9
$DIMSTYLE
  2
ISO-25
  9
$DIMCLRD
 70
     0
  9
$DIMCLRE
 70
     0
  9
$DIMCLRT
 70
     0
  9
$DIMTFAC
 40
1.0
  9
$DIMGAP
 40
0.625
  9
$DIMJUST
 70
     0
  9
$DIMSD1
 70
     0
  9
$DIMSD2
 70
     0
  9
$DIMTOLJ
 70
     0
  9
$DIMTZIN
 70
     8
  9
$DIMALTZ
 70
     0
  9
$DIMALTTZ
 70
     0
  9
$DIMUPT
 70
     0
  9
$DIMDEC
 70
     2
  9
$DIMTDEC
 70
     2
  9
$DIMALTU
 70
     2
  9
$DIMALTTD
 70
     3
  9
$DIMTXSTY
  7
Standard
  9
$DIMAUNIT
 70
     0
  9
$DIMADEC
 70
     0
  9
$DIMALTRND
 40
0.0
  9
$DIMAZIN
 70
     0
  9
$DIMDSEP
 70
    44
  9
$DIMATFIT
 70
     3
  9
$DIMFRAC
 70
     0
  9
$DIMLDRBLK
  1

  9
$DIMLUNIT
 70
     2
  9
$DIMLWD
 70
    -2
  9
$DIMLWE
 70
    -2
  9
$DIMTMOVE
 70
     0
  9
$LUNITS
 70
     2
  9
$LUPREC
 70
     4
  9
$SKETCHINC
 40
1.0
  9
$FILLETRAD
 40
10.0
  9
$AUNITS
 70
     0
  9
$AUPREC
 70
     0
  9
$MENU
  1
.
  9
$ELEVATION
 40
0.0
  9
$PELEVATION
 40
0.0
  9
$THICKNESS
 40
0.0
  9
$LIMCHECK
 70
     0
  9
$CHAMFERA
 40
10.0
  9
$CHAMFERB
 40
10.0
  9
$CHAMFERC
 40
20.0
  9
$CHAMFERD
 40
0.0
  9
$SKPOLY
 70
     0
  9
$TDCREATE
 40
2455554.626234213
  9
$TDUCREATE
 40
2455554.584567546
  9
$TDUPDATE
 40
2455554.626234225
  9
$TDUUPDATE
 40
2455554.584567558
  9
$TDINDWG
 40
0.0000000116
  9
$TDUSRTIMER
 40
0.0000000116
  9
$USRTIMER
 70
     1
  9
$ANGBASE
 50
0.0
  9
$ANGDIR
 70
     0
  9
$PDMODE
 70
     0
  9
$PDSIZE
 40
0.0
  9
$PLINEWID
 40
0.0
  9
$SPLFRAME
 70
     0
  9
$SPLINETYPE
 70
     6
  9
$SPLINESEGS
 70
     8
  9
$HANDSEED
  5
2F4
  9
$SURFTAB1
 70
     6
  9
$SURFTAB2
 70
     6
  9
$SURFTYPE
 70
     6
  9
$SURFU
 70
     6
  9
$SURFV
 70
     6
  9
$UCSBASE
  2

  9
$UCSNAME
  2

  9
$UCSORG
 10
0.0
 20
0.0
 30
0.0
  9
$UCSXDIR
 10
1.0
 20
0.0
 30
0.0
  9
$UCSYDIR
 10
0.0
 20
1.0
 30
0.0
  9
$UCSORTHOREF
  2

  9
$UCSORTHOVIEW
 70
     0
  9
$UCSORGTOP
 10
0.0
 20
0.0
 30
0.0
  9
$UCSORGBOTTOM
 10
0.0
 20
0.0
 30
0.0
  9
$UCSORGLEFT
 10
0.0
 20
0.0
 30
0.0
  9
$UCSORGRIGHT
 10
0.0
 20
0.0
 30
0.0
  9
$UCSORGFRONT
 10
0.0
 20
0.0
 30
0.0
  9
$UCSORGBACK
 10
0.0
 20
0.0
 30
0.0
  9
$PUCSBASE
  2

  9
$PUCSNAME
  2

  9
$PUCSORG
 10
0.0
 20
0.0
 30
0.0
  9
$PUCSXDIR
 10
1.0
 20
0.0
 30
0.0
  9
$PUCSYDIR
 10
0.0
 20
1.0
 30
0.0
  9
$PUCSORTHOREF
  2

  9
$PUCSORTHOVIEW
 70
     0
  9
$PUCSORGTOP
 10
0.0
 20
0.0
 30
0.0
  9
$PUCSORGBOTTOM
 10
0.0
 20
0.0
 30
0.0
  9
$PUCSORGLEFT
 10
0.0
 20
0.0
 30
0.0
  9
$PUCSORGRIGHT
 10
0.0
 20
0.0
 30
0.0
  9
$PUCSORGFRONT
 10
0.0
 20
0.0
 30
0.0
  9
$PUCSORGBACK
 10
0.0
 20
0.0
 30
0.0
  9
$USERI1
 70
     0
  9
$USERI2
 70
     0
  9
$USERI3
 70
     0
  9
$USERI4
 70
     0
  9
$USERI5
 70
     0
  9
$USERR1
 40
0.0
  9
$USERR2
 40
0.0
  9
$USERR3
 40
0.0
  9
$USERR4
 40
0.0
  9
$USERR5
 40
0.0
  9
$WORLDVIEW
 70
     1
  9
$SHADEDGE
 70
     3
  9
$SHADEDIF
 70
    70
  9
$TILEMODE
 70
     1
  9
$MAXACTVP
 70
    64
  9
$PINSBASE
 10
0.0
 20
0.0
 30
0.0
  9
$PLIMCHECK
 70
     0
  9
$PEXTMIN
 10
1.000000E+20
 20
1.000000E+20
 30
1.000000E+20
  9
$PEXTMAX
 10
-1.000000E+20
 20
-1.000000E+20
 30
-1.000000E+20
  9
$PLIMMIN
 10
0.0
 20
0.0
  9
$PLIMMAX
 10
420.0
 20
297.0
  9
$UNITMODE
 70
     0
  9
$VISRETAIN
 70
     1
  9
$PLINEGEN
 70
     0
  9
$PSLTSCALE
 70
     1
  9
$TREEDEPTH
 70
  3020
  9
$CMLSTYLE
  2
Standard
  9
$CMLJUST
 70
     0
  9
$CMLSCALE
 40
20.0
  9
$PROXYGRAPHICS
 70
     1
  9
$MEASUREMENT
 70
     1
  9
$CELWEIGHT
370
    -1
  9
$ENDCAPS
280
     0
  9
$JOINSTYLE
280
     0
  9
$LWDISPLAY
290
     0
  9
$INSUNITS
 70
     4
  9
$HYPERLINKBASE
  1

  9
$STYLESHEET
  1

  9
$XEDIT
290
     1
  9
$CEPSNTYPE
380
     0
  9
$PSTYLEMODE
290
     1
  9
$FINGERPRINTGUID
  2
{5ACCE3C9-45D1-4064-992C-12698210FA75}
  9
$VERSIONGUID
  2
{FAEB1C32-E019-11D5-929B-00C0DF256EC4}
  9
$EXTNAMES
290
     1
  9
$PSVPSCALE
 40
0.0
  9
$OLESTARTUP
290
     0
  0
ENDSEC
  0
SECTION
  2
CLASSES
  0
CLASS
  1
ACDBDICTIONARYWDFLT
  2
AcDbDictionaryWithDefault
  3
ObjectDBX Classes
 90
        0
280
     0
281
     0
  0
CLASS
  1
VISUALSTYLE
  2
AcDbVisualStyle
  3
ObjectDBX Classes
 90
     4095
280
     0
281
     0
  0
CLASS
  1
DICTIONARYVAR
  2
AcDbDictionaryVar
  3
ObjectDBX Classes
 90
        0
280
     0
281
     0
  0
CLASS
  1
ACDBPLACEHOLDER
  2
AcDbPlaceHolder
  3
ObjectDBX Classes
 90
        0
280
     0
281
     0
  0
CLASS
  1
LAYOUT
  2
AcDbLayout
  3
ObjectDBX Classes
 90
        0
280
     0
281
     0
  0
ENDSEC
  0
SECTION
  2
TABLES
  0
TABLE
  2
VPORT
  5
8
330
0
100
AcDbSymbolTable
 70
     1
  0
VPORT
  5
29
330
8
100
AcDbSymbolTableRecord
100
AcDbViewportTableRecord
  2
*Active
 70
     0
 10
0.0
 20
0.0
 11
1.0
 21
1.0
 12
344.186916
 22
148.5
 13
0.0
 23
0.0
 14
10.0
 24
10.0
 15
10.0
 25
10.0
 16
0.0
 26
0.0
 36
1.0
 17
0.0
 27
0.0
 37
0.0
 40
297.0
 41
1.972973
 42
50.0
 43
0.0
 44
0.0
 50
0.0
 51
0.0
 71
     0
 72
   100
 73
     1
 74
     3
 75
     0
 76
     0
 77
     0
 78
     0
281
     0
 65
     1
110
0.0
120
0.0
130
0.0
111
1.0
121
0.0
131
0.0
112
0.0
122
1.0
132
0.0
 79
     0
146
0.0
  0
ENDTAB
  0
TABLE
  2
LTYPE
  5
5
330
0
100
AcDbSymbolTable
 70
     1
  0
LTYPE
  5
14
330
5
100
AcDbSymbolTableRecord
100
AcDbLinetypeTableRecord
  2
ByBlock
 70
     0
  3

 72
    65
 73
     0
 40
0.0
  0
LTYPE
  5
15
330
5
100
AcDbSymbolTableRecord
100
AcDbLinetypeTableRecord
  2
ByLayer
 70
     0
  3

 72
    65
 73
     0
 40
0.0
  0
LTYPE
  5
16
330
5
100
AcDbSymbolTableRecord
100
AcDbLinetypeTableRecord
  2
Continuous
 70
     0
  3
Solid line
 72
    65
 73
     0
 40
0.0
  0
ENDTAB
  0
TABLE
  2
LAYER
  5
2
330
0
100
AcDbSymbolTable
 70
     1
  0
LAYER
  5
10
330
2
100
AcDbSymbolTableRecord
100
AcDbLayerTableRecord
  2
0
 70
     0
 62
   106
  6
Continuous
370
     0
390
F
  0
ENDTAB
  0
TABLE
  2
STYLE
  5
3
330
0
100
AcDbSymbolTable
 70
     4
  0
STYLE
  5
11
330
3
100
AcDbSymbolTableRecord
100
AcDbTextStyleTableRecord
  2
Standard
 70
     0
 40
0.0
 41
1.0
 50
0.0
 71
     0
 42
2.5
  3
txt
  4

  0
STYLE
  5
3B
330
3
100
AcDbSymbolTableRecord
100
AcDbTextStyleTableRecord
  2
Default
 70
     0
 40
0.0
 41
1.0
 50
0.0
 71
     0
 42
0.2
  3

  4

1001
ACAD
1000
txt
1071
        0
  0
STYLE
  5
3C
330
3
100
AcDbSymbolTableRecord
100
AcDbTextStyleTableRecord
  2
ISO
 70
     0
 40
0.0
 41
1.0
 50
0.0
 71
     0
 42
0.2
  3

  4

1001
ACAD
1000
txt
1071
        0
  0
STYLE
  5
3D
330
3
100
AcDbSymbolTableRecord
100
AcDbTextStyleTableRecord
  2
GIANLU
 70
     0
 40
0.0
 41
1.0
 50
0.0
 71
     0
 42
0.2
  3

  4

1001
ACAD
1000
Arial
1071
        0
  0
ENDTAB
  0
TABLE
  2
VIEW
  5
6
330
0
100
AcDbSymbolTable
 70
     0
  0
ENDTAB
  0
TABLE
  2
UCS
  5
7
330
0
100
AcDbSymbolTable
 70
     0
  0
ENDTAB
  0
TABLE
  2
APPID
  5
9
330
0
100
AcDbSymbolTable
 70
     1
  0
APPID
  5
12
330
9
100
AcDbSymbolTableRecord
100
AcDbRegAppTableRecord
  2
ACAD
 70
     0
  0
ENDTAB
  0
TABLE
  2
DIMSTYLE
  5
A
330
0
100
AcDbSymbolTable
 70
     4
100
AcDbDimStyleTable
  0
DIMSTYLE
105
27
330
A
100
AcDbSymbolTableRecord
100
AcDbDimStyleTableRecord
  2
ISO-25
 70
     0
 41
2.5
 42
0.625
 43
3.75
 44
1.25
 73
     0
 74
     0
 77
     1
 78
     8
140
2.5
141
2.5
143
0.03937
147
0.625
171
     3
172
     1
271
     2
272
     2
274
     3
278
    44
283
     0
284
     8
340
11
  0
DIMSTYLE
105
3E
330
A
100
AcDbSymbolTableRecord
100
AcDbDimStyleTableRecord
  2
Default
 70
     0
  3
<>
 41
4.375
 42
1.05
 44
2.1
 73
     0
 74
     0
 77
     1
 78
     8
140
3.5
146
0.4
147
1.75
178
     3
271
     2
272
     3
284
     8
340
3B
341
3F
342
3F
  0
DIMSTYLE
105
46
330
A
100
AcDbSymbolTableRecord
100
AcDbDimStyleTableRecord
  2
ISO
 70
     0
  3
<>
 41
4.375
 42
1.05
 44
2.1
 73
     0
 74
     0
 77
     1
 78
     8
140
3.5
146
0.4
147
1.75
178
     3
271
     2
272
     3
284
     8
340
3C
341
3F
342
3F
  0
DIMSTYLE
105
47
330
A
100
AcDbSymbolTableRecord
100
AcDbDimStyleTableRecord
  2
zucchetti_unico
 70
     0
  3
<>
 41
3.0
 42
0.9
 44
1.8
 73
     0
 74
     0
 77
     1
 78
     8
140
3.0
146
0.6
147
1.5
176
   104
177
     3
178
     3
271
     2
272
     2
284
     8
340
3D
  0
ENDTAB
  0
TABLE
  2
BLOCK_RECORD
  5
1
330
0
100
AcDbSymbolTable
 70
     7
  0
BLOCK_RECORD
  5
1F
330
1
100
AcDbSymbolTableRecord
100
AcDbBlockTableRecord
  2
*Model_Space
340
22
  0
BLOCK_RECORD
  5
1B
330
1
100
AcDbSymbolTableRecord
100
AcDbBlockTableRecord
  2
*Paper_Space
340
1E
  0
BLOCK_RECORD
  5
23
330
1
100
AcDbSymbolTableRecord
100
AcDbBlockTableRecord
  2
*Paper_Space0
340
26
  0
BLOCK_RECORD
  5
3F
330
1
100
AcDbSymbolTableRecord
100
AcDbBlockTableRecord
  2
_CLOSED
340
0
  0
BLOCK_RECORD
  5
48
330
1
100
AcDbSymbolTableRecord
100
AcDbBlockTableRecord
  2
a
340
0
102
{BLKREFS
331
12D
102
}
  0
BLOCK_RECORD
  5
12E
330
1
100
AcDbSymbolTableRecord
100
AcDbBlockTableRecord
  2
b
340
0
102
{BLKREFS
331
133
102
}
  0
BLOCK_RECORD
  5
134
330
1
100
AcDbSymbolTableRecord
100
AcDbBlockTableRecord
  2
c
340
0
102
{BLKREFS
331
1C2
102
}
  0
BLOCK_RECORD
  5
1C3
330
1
100
AcDbSymbolTableRecord
100
AcDbBlockTableRecord
  2
d
340
0
102
{BLKREFS
331
260
102
}
  0
BLOCK_RECORD
  5
261
330
1
100
AcDbSymbolTableRecord
100
AcDbBlockTableRecord
  2
e
340
0
102
{BLKREFS
331
2EE
102
}
  0
ENDTAB
  0
ENDSEC
  0
SECTION
  2
BLOCKS
  0
BLOCK
  5
20
330
1F
100
AcDbEntity
  8
0
100
AcDbBlockBegin
  2
*Model_Space
 70
     0
 10
0.0
 20
0.0
 30
0.0
  3
*Model_Space
  1

  0
ENDBLK
  5
21
330
1F
100
AcDbEntity
  8
0
100
AcDbBlockEnd
  0
BLOCK
  5
1C
330
1B
100
AcDbEntity
 67
     1
  8
0
100
AcDbBlockBegin
  2
*Paper_Space
 70
     0
 10
0.0
 20
0.0
 30
0.0
  3
*Paper_Space
  1

  0
ENDBLK
  5
1D
330
1B
100
AcDbEntity
 67
     1
  8
0
100
AcDbBlockEnd
  0
BLOCK
  5
24
330
23
100
AcDbEntity
  8
0
100
AcDbBlockBegin
  2
*Paper_Space0
 70
     0
 10
0.0
 20
0.0
 30
0.0
  3
*Paper_Space0
  1

  0
ENDBLK
  5
25
330
23
100
AcDbEntity
  8
0
100
AcDbBlockEnd
  0
BLOCK
  5
40
330
3F
100
AcDbEntity
  8
0
100
AcDbBlockBegin
  2
_CLOSED
 70
     0
 10
0.0
 20
0.0
 30
0.0
  3
_CLOSED
  1

  0
LINE
  5
42
330
3F
100
AcDbEntity
  8
0
  6
ByBlock
 62
     0
370
    -2
100
AcDbLine
 10
-1.0
 20
0.166667
 30
0.0
 11
0.0
 21
0.0
 31
0.0
  0
LINE
  5
43
330
3F
100
AcDbEntity
  8
0
  6
ByBlock
 62
     0
370
    -2
100
AcDbLine
 10
0.0
 20
0.0
 30
0.0
 11
-1.0
 21
-0.166667
 31
0.0
  0
LINE
  5
44
330
3F
100
AcDbEntity
  8
0
  6
ByBlock
 62
     0
370
    -2
100
AcDbLine
 10
-1.0
 20
0.166667
 30
0.0
 11
-1.0
 21
-0.166667
 31
0.0
  0
LINE
  5
45
330
3F
100
AcDbEntity
  8
0
  6
ByBlock
 62
     0
370
    -2
100
AcDbLine
 10
0.0
 20
0.0
 30
0.0
 11
-1.0
 21
0.0
 31
0.0
  0
ENDBLK
  5
41
330
3F
100
AcDbEntity
  8
0
100
AcDbBlockEnd
  0
BLOCK
  5
12B
330
48
100
AcDbEntity
  8
0
100
AcDbBlockBegin
  2
a
 70
     0
 10
292.425201
 20
118.046913
 30
0.0
  3
a
  1

  0
LINE
  5
49
330
48
100
AcDbEntity
  8
0
  6
Continuous
 62
     0
370
     0
100
AcDbLine
 10
343.175288
 20
525.898407
 30
0.0
 11
343.172781
 21
525.898407
 31
0.0
  0
LINE
  5
4A
330
48
100
AcDbEntity
  8
0
  6
Continuous
 62
     0
370
     0
100
AcDbLine
 10
343.172781
 20
525.898407
 30
0.0
 11
319.175288
 21
525.898407
 31
0.0
  0
LINE
  5
4B
330
48
100
AcDbEntity
  8
0
  6
Continuous
 62
     0
370
    30
100
AcDbLine
 10
319.175288
 20
347.898407
 30
0.0
 11
343.175288
 21
347.898407
 31
0.0
  0
LWPOLYLINE
  5
4C
330
48
100
AcDbEntity
  8
0
  6
Continuous
 62
     0
370
    30
100
AcDbPolyline
 90
       18
 70
     0
 43
0.0
 10
329.68161
 20
459.398407
 10
329.702789
 20
459.627869
 10
329.765991
 20
459.850128
 10
329.868896
 20
460.056519
 10
330.007355
 20
460.240173
 10
330.176758
 20
460.395081
 10
330.371918
 20
460.515594
 10
330.585754
 20
460.598328
 10
330.811035
 20
460.641663
 10
331.040741
 20
460.642273
 10
331.266785
 20
460.601532
 10
331.481079
 20
460.519043
 10
331.677643
 20
460.400146
 10
331.848755
 20
460.246552
 10
331.98877
 20
460.063782
 10
332.093231
 20
459.858002
 10
332.158081
 20
459.636139
 10
332.181091
 20
459.398376
  0
LWPOLYLINE
  5
4D
330
48
100
AcDbEntity
  8
0
  6
Continuous
 62
     0
370
    30
100
AcDbPolyline
 90
       18
 70
     0
 43
0.0
 10
332.181091
 20
459.398376
 10
332.159698
 20
459.168976
 10
332.096283
 20
458.946686
 10
331.993286
 20
458.740204
 10
331.854462
 20
458.556549
 10
331.684448
 20
458.401794
 10
331.488861
 20
458.281311
 10
331.27478
 20
458.198425
 10
331.049347
 20
458.155212
 10
330.819672
 20
458.15451
 10
330.593842
 20
458.195221
 10
330.379913
 20
458.27771
 10
330.183685
 20
458.396454
 10
330.013092
 20
458.549957
 10
329.873474
 20
458.732666
 10
329.769287
 20
458.938354
 10
329.704559
 20
459.160126
 10
329.68161
 20
459.398407
  0
LWPOLYLINE
  5
4E
330
48
100
AcDbEntity
  8
0
  6
Continuous
 62
     0
370
    30
100
AcDbPolyline
 90
       18
 70
     0
 43
0.0
 10
329.68161
 20
464.698395
 10
329.702789
 20
464.927856
 10
329.765991
 20
465.150146
 10
329.868896
 20
465.356506
 10
330.007355
 20
465.540192
 10
330.176758
 20
465.695099
 10
330.371918
 20
465.815613
 10
330.585754
 20
465.898315
 10
330.811035
 20
465.941681
 10
331.040741
 20
465.942261
 10
331.266785
 20
465.90152
 10
331.481079
 20
465.819061
 10
331.677643
 20
465.700134
 10
331.848755
 20
465.54657
 10
331.98877
 20
465.36377
 10
332.093231
 20
465.15799
 10
332.158081
 20
464.936157
 10
332.181091
 20
464.698395
  0
LWPOLYLINE
  5
4F
330
48
100
AcDbEntity
  8
0
  6
Continuous
 62
     0
370
    30
100
AcDbPolyline
 90
       18
 70
     0
 43
0.0
 10
332.181091
 20
464.698395
 10
332.159698
 20
464.468964
 10
332.096283
 20
464.246704
 10
331.993286
 20
464.040192
 10
331.854462
 20
463.856537
 10
331.684448
 20
463.701813
 10
331.488861
 20
463.581299
 10
331.27478
 20
463.498413
 10
331.049347
 20
463.4552
 10
330.819672
 20
463.454498
 10
330.593842
 20
463.495239
 10
330.379913
 20
463.577728
 10
330.183685
 20
463.696442
 10
330.013092
 20
463.849945
 10
329.873474
 20
464.032684
 10
329.769287
 20
464.238342
 10
329.704559
 20
464.460144
 10
329.68161
 20
464.698395
  0
LWPOLYLINE
  5
50
330
48
100
AcDbEntity
  8
0
  6
Continuous
 62
     0
370
    30
100
AcDbPolyline
 90
       18
 70
     0
 43
0.0
 10
329.68161
 20
469.998413
 10
329.702789
 20
470.227875
 10
329.765991
 20
470.450134
 10
329.868896
 20
470.656525
 10
330.007355
 20
470.840179
 10
330.176758
 20
470.995087
 10
330.371918
 20
471.115601
 10
330.585754
 20
471.198334
 10
330.811035
 20
471.241669
 10
331.040741
 20
471.242279
 10
331.266785
 20
471.201538
 10
331.481079
 20
471.119049
 10
331.677643
 20
471.000122
 10
331.848755
 20
470.846558
 10
331.98877
 20
470.663788
 10
332.093231
 20
470.458008
 10
332.158081
 20
470.236145
 10
332.181091
 20
469.998383
  0
LWPOLYLINE
  5
51
330
48
100
AcDbEntity
  8
0
  6
Continuous
 62
     0
370
    30
100
AcDbPolyline
 90
       18
 70
     0
 43
0.0
 10
332.181091
 20
469.998383
 10
332.159698
 20
469.768982
 10
332.096283
 20
469.546692
 10
331.993286
 20
469.34021
 10
331.854462
 20
469.156525
 10
331.684448
 20
469.001801
 10
331.488861
 20
468.881287
 10
331.27478
 20
468.798431
 10
331.049347
 20
468.755188
 10
330.819672
 20
468.754517
 10
330.593842
 20
468.795227
 10
330.379913
 20
468.877716
 10
330.183685
 20
468.99646
 10
330.013092
 20
469.149963
 10
329.873474
 20
469.332672
 10
329.769287
 20
469.538361
 10
329.704559
 20
469.760132
 10
329.68161
 20
469.998413
  0
LWPOLYLINE
  5
52
330
48
100
AcDbEntity
  8
0
  6
Continuous
 62
     0
370
    30
100
AcDbPolyline
 90
       18
 70
     0
 43
0.0
 10
329.68161
 20
475.298401
 10
329.702789
 20
475.527863
 10
329.765991
 20
475.750122
 10
329.868896
 20
475.956512
 10
330.007355
 20
476.140167
 10
330.176758
 20
476.295105
 10
330.371918
 20
476.415619
 10
330.585754
 20
476.498322
 10
330.811035
 20
476.541656
 10
331.040741
 20
476.542267
 10
331.266785
 20
476.501526
 10
331.481079
 20
476.419067
 10
331.677643
 20
476.30014
 10
331.848755
 20
476.146576
 10
331.98877
 20
475.963776
 10
332.093231
 20
475.757996
 10
332.158081
 20
475.536133
 10
332.181091
 20
475.29837
  0
LWPOLYLINE
  5
53
330
48
100
AcDbEntity
  8
0
  6
Continuous
 62
     0
370
    30
100
AcDbPolyline
 90
       18
 70
     0
 43
0.0
 10
332.181091
 20
475.29837
 10
332.159698
 20
475.06897
 10
332.096283
 20
474.84671
 10
331.993286
 20
474.640198
 10
331.854462
 20
474.456543
 10
331.684448
 20
474.301819
 10
331.488861
 20
474.181305
 10
331.27478
 20
474.098419
 10
331.049347
 20
474.055206
 10
330.819672
 20
474.054504
 10
330.593842
 20
474.095245
 10
330.379913
 20
474.177734
 10
330.183685
 20
474.296448
 10
330.013092
 20
474.449951
 10
329.873474
 20
474.63269
 10
329.769287
 20
474.838348
 10
329.704559
 20
475.06012
 10
329.68161
 20
475.298401
  0
LWPOLYLINE
  5
54
330
48
100
AcDbEntity
  8
0
  6
Continuous
 62
     0
370
    30
100
AcDbPolyline
 90
       18
 70
     0
 43
0.0
 10
329.68161
 20
480.598419
 10
329.702789
 20
480.827881
 10
329.765991
 20
481.05014
 10
329.868896
 20
481.2565
 10
330.007355
 20
481.440186
 10
330.176758
 20
481.595093
 10
330.371918
 20
481.715607
 10
330.585754
 20
481.798309
 10
330.811035
 20
481.841675
 10
331.040741
 20
481.842255
 10
331.266785
 20
481.801544
 10
331.481079
 20
481.719055
 10
331.677643
 20
481.600128
 10
331.848755
 20
481.446564
 10
331.98877
 20
481.263794
 10
332.093231
 20
481.058014
 10
332.158081
 20
480.836151
 10
332.181091
 20
480.598389
  0
LWPOLYLINE
  5
55
330
48
100
AcDbEntity
  8
0
  6
Continuous
 62
     0
370
    30
100
AcDbPolyline
 90
       18
 70
     0
 43
0.0
 10
332.181091
 20
480.598389
 10
332.159698
 20
480.368988
 10
332.096283
 20
480.146698
 10
331.993286
 20
479.940186
 10
331.854462
 20
479.756531
 10
331.684448
 20
479.601807
 10
331.488861
 20
479.481293
 10
331.27478
 20
479.398438
 10
331.049347
 20
479.355194
 10
330.819672
 20
479.354492
 10
330.593842
 20
479.395233
 10
330.379913
 20
479.477722
 10
330.183685
 20
479.596466
 10
330.013092
 20
479.749969
 10
329.873474
 20
479.932678
 10
329.769287
 20
480.138367
 10
329.704559
 20
480.360138
 10
329.68161
 20
480.598419
  0
LWPOLYLINE
  5
56
330
48
100
AcDbEntity
  8
0
  6
Continuous
 62
     0
370
    30
100
AcDbPolyline
 90
       18
 70
     0
 43
0.0
 10
329.68161
 20
485.898407
 10
329.702789
 20
486.127869
 10
329.765991
 20
486.350128
 10
329.868896
 20
486.556519
 10
330.007355
 20
486.740173
 10
330.176758
 20
486.895081
 10
330.371918
 20
487.015594
 10
330.585754
 20
487.098328
 10
330.811035
 20
487.141663
 10
331.040741
 20
487.142273
 10
331.266785
 20
487.101532
 10
331.481079
 20
487.019043
 10
331.677643
 20
486.900146
 10
331.848755
 20
486.746552
 10
331.98877
 20
486.563782
 10
332.093231
 20
486.358002
 10
332.158081
 20
486.136139
 10
332.181091
 20
485.898376
  0
LWPOLYLINE
  5
57
330
48
100
AcDbEntity
  8
0
  6
Continuous
 62
     0
370
    30
100
AcDbPolyline
 90
       18
 70
     0
 43
0.0
 10
332.181091
 20
485.898376
 10
332.159698
 20
485.668976
 10
332.096283
 20
485.446686
 10
331.993286
 20
485.240204
 10
331.854462
 20
485.056549
 10
331.684448
 20
484.901794
 10
331.488861
 20
484.781311
 10
331.27478
 20
484.698425
 10
331.049347
 20
484.655212
 10
330.819672
 20
484.65451
 10
330.593842
 20
484.695221
 10
330.379913
 20
484.77771
 10
330.183685
 20
484.896454
 10
330.013092
 20
485.049957
 10
329.873474
 20
485.232666
 10
329.769287
 20
485.438354
 10
329.704559
 20
485.660126
 10
329.68161
 20
485.898407
  0
LWPOLYLINE
  5
58
330
48
100
AcDbEntity
  8
0
  6
Continuous
 62
     0
370
    30
100
AcDbPolyline
 90
       18
 70
     0
 43
0.0
 10
329.68161
 20
491.198395
 10
329.702789
 20
491.427856
 10
329.765991
 20
491.650146
 10
329.868896
 20
491.856506
 10
330.007355
 20
492.040192
 10
330.176758
 20
492.195099
 10
330.371918
 20
492.315613
 10
330.585754
 20
492.398315
 10
330.811035
 20
492.441681
 10
331.040741
 20
492.442261
 10
331.266785
 20
492.40152
 10
331.481079
 20
492.319061
 10
331.677643
 20
492.200134
 10
331.848755
 20
492.04657
 10
331.98877
 20
491.86377
 10
332.093231
 20
491.65799
 10
332.158081
 20
491.436157
 10
332.181091
 20
491.198395
  0
LWPOLYLINE
  5
59
330
48
100
AcDbEntity
  8
0
  6
Continuous
 62
     0
370
    30
100
AcDbPolyline
 90
       18
 70
     0
 43
0.0
 10
332.181091
 20
491.198395
 10
332.159698
 20
490.968964
 10
332.096283
 20
490.746704
 10
331.993286
 20
490.540192
 10
331.854462
 20
490.356537
 10
331.684448
 20
490.201813
 10
331.488861
 20
490.081299
 10
331.27478
 20
489.998413
 10
331.049347
 20
489.9552
 10
330.819672
 20
489.954498
 10
330.593842
 20
489.995239
 10
330.379913
 20
490.077728
 10
330.183685
 20
490.196442
 10
330.013092
 20
490.349945
 10
329.873474
 20
490.532684
 10
329.769287
 20
490.738342
 10
329.704559
 20
490.960144
 10
329.68161
 20
491.198395
  0
LWPOLYLINE
  5
5A
330
48
100
AcDbEntity
  8
0
  6
Continuous
 62
     0
370
    30
100
AcDbPolyline
 90
       18
 70
     0
 43
0.0
 10
329.68161
 20
496.498413
 10
329.702789
 20
496.727875
 10
329.765991
 20
496.950134
 10
329.868896
 20
497.156525
 10
330.007355
 20
497.340179
 10
330.176758
 20
497.495087
 10
330.371918
 20
497.615601
 10
330.585754
 20
497.698334
 10
330.811035
 20
497.741669
 10
331.040741
 20
497.742279
 10
331.266785
 20
497.701538
 10
331.481079
 20
497.619049
 10
331.677643
 20
497.500122
 10
331.848755
 20
497.346558
 10
331.98877
 20
497.163788
 10
332.093231
 20
496.958008
 10
332.158081
 20
496.736145
 10
332.181091
 20
496.498383
  0
LWPOLYLINE
  5
5B
330
48
100
AcDbEntity
  8
0
  6
Continuous
 62
     0
370
    30
100
AcDbPolyline
 90
       18
 70
     0
 43
0.0
 10
332.181091
 20
496.498383
 10
332.159698
 20
496.268982
 10
332.096283
 20
496.046692
 10
331.993286
 20
495.84021
 10
331.854462
 20
495.656525
 10
331.684448
 20
495.501801
 10
331.488861
 20
495.381287
 10
331.27478
 20
495.298431
 10
331.049347
 20
495.255188
 10
330.819672
 20
495.254517
 10
330.593842
 20
495.295227
 10
330.379913
 20
495.377716
 10
330.183685
 20
495.49646
 10
330.013092
 20
495.649963
 10
329.873474
 20
495.832672
 10
329.769287
 20
496.038361
 10
329.704559
 20
496.260132
 10
329.68161
 20
496.498413
  0
LWPOLYLINE
  5
5C
330
48
100
AcDbEntity
  8
0
  6
Continuous
 62
     0
370
    30
100
AcDbPolyline
 90
       18
 70
     0
 43
0.0
 10
329.68161
 20
501.798401
 10
329.702789
 20
502.027863
 10
329.765991
 20
502.250122
 10
329.868896
 20
502.456512
 10
330.007355
 20
502.640167
 10
330.176758
 20
502.795105
 10
330.371918
 20
502.915619
 10
330.585754
 20
502.998322
 10
330.811035
 20
503.041656
 10
331.040741
 20
503.042267
 10
331.266785
 20
503.001526
 10
331.481079
 20
502.919067
 10
331.677643
 20
502.80014
 10
331.848755
 20
502.646576
 10
331.98877
 20
502.463776
 10
332.093231
 20
502.257996
 10
332.158081
 20
502.036133
 10
332.181091
 20
501.79837
  0
LWPOLYLINE
  5
5D
330
48
100
AcDbEntity
  8
0
  6
Continuous
 62
     0
370
    30
100
AcDbPolyline
 90
       18
 70
     0
 43
0.0
 10
332.181091
 20
501.79837
 10
332.159698
 20
501.56897
 10
332.096283
 20
501.34671
 10
331.993286
 20
501.140198
 10
331.854462
 20
500.956543
 10
331.684448
 20
500.801819
 10
331.488861
 20
500.681305
 10
331.27478
 20
500.598419
 10
331.049347
 20
500.555206
 10
330.819672
 20
500.554504
 10
330.593842
 20
500.595245
 10
330.379913
 20
500.677734
 10
330.183685
 20
500.796448
 10
330.013092
 20
500.949951
 10
329.873474
 20
501.13269
 10
329.769287
 20
501.338348
 10
329.704559
 20
501.56012
 10
329.68161
 20
501.798401
  0
LWPOLYLINE
  5
5E
330
48
100
AcDbEntity
  8
0
  6
Continuous
 62
     0
370
    30
100
AcDbPolyline
 90
       18
 70
     0
 43
0.0
 10
329.68161
 20
507.098419
 10
329.702789
 20
507.327881
 10
329.765991
 20
507.55014
 10
329.868896
 20
507.7565
 10
330.007355
 20
507.940186
 10
330.176758
 20
508.095093
 10
330.371918
 20
508.215607
 10
330.585754
 20
508.298309
 10
330.811035
 20
508.341675
 10
331.040741
 20
508.342255
 10
331.266785
 20
508.301544
 10
331.481079
 20
508.219055
 10
331.677643
 20
508.100128
 10
331.848755
 20
507.946564
 10
331.98877
 20
507.763794
 10
332.093231
 20
507.558014
 10
332.158081
 20
507.336151
 10
332.181091
 20
507.098389
  0
LWPOLYLINE
  5
5F
330
48
100
AcDbEntity
  8
0
  6
Continuous
 62
     0
370
    30
100
AcDbPolyline
 90
       18
 70
     0
 43
0.0
 10
332.181091
 20
507.098389
 10
332.159698
 20
506.868988
 10
332.096283
 20
506.646698
 10
331.993286
 20
506.440186
 10
331.854462
 20
506.256531
 10
331.684448
 20
506.101807
 10
331.488861
 20
505.981293
 10
331.27478
 20
505.898438
 10
331.049347
 20
505.855194
 10
330.819672
 20
505.854492
 10
330.593842
 20
505.895233
 10
330.379913
 20
505.977722
 10
330.183685
 20
506.096466
 10
330.013092
 20
506.249969
 10
329.873474
 20
506.432678
 10
329.769287
 20
506.638367
 10
329.704559
 20
506.860138
 10
329.68161
 20
507.098419
  0
LWPOLYLINE
  5
60
330
48
100
AcDbEntity
  8
0
  6
Continuous
 62
     0
370
    30
100
AcDbPolyline
 90
       18
 70
     0
 43
0.0
 10
329.68161
 20
512.398438
 10
329.702789
 20
512.627869
 10
329.765991
 20
512.850159
 10
329.868896
 20
513.056519
 10
330.007355
 20
513.240173
 10
330.176758
 20
513.395081
 10
330.371918
 20
513.515625
 10
330.585754
 20
513.598328
 10
330.811035
 20
513.641663
 10
331.040741
 20
513.642273
 10
331.266785
 20
513.601501
 10
331.481079
 20
513.519043
 10
331.677643
 20
513.400146
 10
331.848755
 20
513.246582
 10
331.98877
 20
513.063782
 10
332.093231
 20
512.857971
 10
332.158081
 20
512.636169
 10
332.181091
 20
512.398376
  0
LWPOLYLINE
  5
61
330
48
100
AcDbEntity
  8
0
  6
Continuous
 62
     0
370
    30
100
AcDbPolyline
 90
       18
 70
     0
 43
0.0
 10
332.181091
 20
512.398376
 10
332.159698
 20
512.168945
 10
332.096283
 20
511.946686
 10
331.993286
 20
511.740204
 10
331.854462
 20
511.556549
 10
331.684448
 20
511.401794
 10
331.488861
 20
511.281311
 10
331.27478
 20
511.198425
 10
331.049347
 20
511.155212
 10
330.819672
 20
511.15451
 10
330.593842
 20
511.195221
 10
330.379913
 20
511.27771
 10
330.183685
 20
511.396454
 10
330.013092
 20
511.549957
 10
329.873474
 20
511.732666
 10
329.769287
 20
511.938354
 10
329.704559
 20
512.160156
 10
329.68161
 20
512.398438
  0
LWPOLYLINE
  5
62
330
48
100
AcDbEntity
  8
0
  6
Continuous
 62
     0
370
    30
100
AcDbPolyline
 90
       18
 70
     0
 43
0.0
 10
323.928406
 20
459.398407
 10
323.945404
 20
459.627747
 10
323.996246
 20
459.849884
 10
324.079437
 20
460.056183
 10
324.192017
 20
460.239807
 10
324.330933
 20
460.394714
 10
324.492432
 20
460.515289
 10
324.671295
 20
460.597992
 10
324.861725
 20
460.641602
 10
325.058136
 20
460.642365
 10
325.253662
 20
460.60199
 10
325.440918
 20
460.519653
 10
325.614502
 20
460.401062
 10
325.766968
 20
460.247772
 10
325.892731
 20
460.065308
 10
325.987183
 20
459.859802
 10
326.046234
 20
459.638153
 10
326.067444
 20
459.398376
  0
LWPOLYLINE
  5
63
330
48
100
AcDbEntity
  8
0
  6
Continuous
 62
     0
370
    30
100
AcDbPolyline
 90
       18
 70
     0
 43
0.0
 10
326.067444
 20
459.398376
 10
326.048065
 20
459.169098
 10
325.990662
 20
458.94693
 10
325.897858
 20
458.74054
 10
325.773407
 20
458.556915
 10
325.622101
 20
458.402191
 10
325.449524
 20
458.281616
 10
325.26239
 20
458.198761
 10
325.067413
 20
458.155273
 10
324.870941
 20
458.154419
 10
324.679779
 20
458.194763
 10
324.500732
 20
458.27713
 10
324.338074
 20
458.395538
 10
324.197906
 20
458.548737
 10
324.084076
 20
458.73114
 10
323.999573
 20
458.936554
 10
323.947174
 20
459.158112
 10
323.928406
 20
459.398407
  0
LWPOLYLINE
  5
64
330
48
100
AcDbEntity
  8
0
  6
Continuous
 62
     0
370
    30
100
AcDbPolyline
 90
       18
 70
     0
 43
0.0
 10
323.928406
 20
464.698395
 10
323.945404
 20
464.927734
 10
323.996246
 20
465.149902
 10
324.079437
 20
465.356201
 10
324.192017
 20
465.539795
 10
324.330933
 20
465.694702
 10
324.492432
 20
465.815277
 10
324.671295
 20
465.89801
 10
324.861725
 20
465.941589
 10
325.058136
 20
465.942352
 10
325.253662
 20
465.902008
 10
325.440918
 20
465.819641
 10
325.614502
 20
465.70105
 10
325.766968
 20
465.547791
 10
325.892731
 20
465.365295
 10
325.987183
 20
465.15979
 10
326.046234
 20
464.938171
 10
326.067444
 20
464.698395
  0
LWPOLYLINE
  5
65
330
48
100
AcDbEntity
  8
0
  6
Continuous
 62
     0
370
    30
100
AcDbPolyline
 90
       18
 70
     0
 43
0.0
 10
326.067444
 20
464.698395
 10
326.048065
 20
464.469116
 10
325.990662
 20
464.246948
 10
325.897858
 20
464.040527
 10
325.773407
 20
463.856903
 10
325.622101
 20
463.702179
 10
325.449524
 20
463.581604
 10
325.26239
 20
463.498749
 10
325.067413
 20
463.455292
 10
324.870941
 20
463.454407
 10
324.679779
 20
463.494751
 10
324.500732
 20
463.577118
 10
324.338074
 20
463.695526
 10
324.197906
 20
463.848724
 10
324.084076
 20
464.031158
 10
323.999573
 20
464.236542
 10
323.947174
 20
464.458099
 10
323.928406
 20
464.698395
  0
LWPOLYLINE
  5
66
330
48
100
AcDbEntity
  8
0
  6
Continuous
 62
     0
370
    30
100
AcDbPolyline
 90
       18
 70
     0
 43
0.0
 10
323.928406
 20
469.998413
 10
323.945404
 20
470.227753
 10
323.996246
 20
470.44989
 10
324.079437
 20
470.656189
 10
324.192017
 20
470.839813
 10
324.330933
 20
470.99472
 10
324.492432
 20
471.115295
 10
324.671295
 20
471.197998
 10
324.861725
 20
471.241577
 10
325.058136
 20
471.24234
 10
325.253662
 20
471.201996
 10
325.440918
 20
471.119629
 10
325.614502
 20
471.001038
 10
325.766968
 20
470.847778
 10
325.892731
 20
470.665314
 10
325.987183
 20
470.459778
 10
326.046234
 20
470.238159
 10
326.067444
 20
469.998383
  0
LWPOLYLINE
  5
67
330
48
100
AcDbEntity
  8
0
  6
Continuous
 62
     0
370
    30
100
AcDbPolyline
 90
       18
 70
     0
 43
0.0
 10
326.067444
 20
469.998383
 10
326.048065
 20
469.769104
 10
325.990662
 20
469.546936
 10
325.897858
 20
469.340515
 10
325.773407
 20
469.156921
 10
325.622101
 20
469.002197
 10
325.449524
 20
468.881622
 10
325.26239
 20
468.798737
 10
325.067413
 20
468.75528
 10
324.870941
 20
468.754425
 10
324.679779
 20
468.794769
 10
324.500732
 20
468.877136
 10
324.338074
 20
468.995514
 10
324.197906
 20
469.148712
 10
324.084076
 20
469.331146
 10
323.999573
 20
469.53656
 10
323.947174
 20
469.758087
 10
323.928406
 20
469.998413
  0
LWPOLYLINE
  5
68
330
48
100
AcDbEntity
  8
0
  6
Continuous
 62
     0
370
    30
100
AcDbPolyline
 90
       18
 70
     0
 43
0.0
 10
323.928406
 20
475.298401
 10
323.945404
 20
475.52774
 10
323.996246
 20
475.749908
 10
324.079437
 20
475.956177
 10
324.192017
 20
476.139801
 10
324.330933
 20
476.294708
 10
324.492432
 20
476.415283
 10
324.671295
 20
476.497986
 10
324.861725
 20
476.541595
 10
325.058136
 20
476.542358
 10
325.253662
 20
476.501984
 10
325.440918
 20
476.419647
 10
325.614502
 20
476.301056
 10
325.766968
 20
476.147797
 10
325.892731
 20
475.965302
 10
325.987183
 20
475.759796
 10
326.046234
 20
475.538177
 10
326.067444
 20
475.29837
  0
LWPOLYLINE
  5
69
330
48
100
AcDbEntity
  8
0
  6
Continuous
 62
     0
370
    30
100
AcDbPolyline
 90
       18
 70
     0
 43
0.0
 10
326.067444
 20
475.29837
 10
326.048065
 20
475.069092
 10
325.990662
 20
474.846954
 10
325.897858
 20
474.640533
 10
325.773407
 20
474.456909
 10
325.622101
 20
474.302185
 10
325.449524
 20
474.18161
 10
325.26239
 20
474.098755
 10
325.067413
 20
474.055267
 10
324.870941
 20
474.054413
 10
324.679779
 20
474.094757
 10
324.500732
 20
474.177124
 10
324.338074
 20
474.295532
 10
324.197906
 20
474.44873
 10
324.084076
 20
474.631134
 10
323.999573
 20
474.836548
 10
323.947174
 20
475.058105
 10
323.928406
 20
475.298401
  0
LWPOLYLINE
  5
6A
330
48
100
AcDbEntity
  8
0
  6
Continuous
 62
     0
370
    30
100
AcDbPolyline
 90
       18
 70
     0
 43
0.0
 10
323.928406
 20
480.598419
 10
323.945404
 20
480.827728
 10
323.996246
 20
481.049896
 10
324.079437
 20
481.256195
 10
324.192017
 20
481.439789
 10
324.330933
 20
481.594696
 10
324.492432
 20
481.715302
 10
324.671295
 20
481.798004
 10
324.861725
 20
481.841583
 10
325.058136
 20
481.842346
 10
325.253662
 20
481.802002
 10
325.440918
 20
481.719635
 10
325.614502
 20
481.601044
 10
325.766968
 20
481.447784
 10
325.892731
 20
481.265289
 10
325.987183
 20
481.059784
 10
326.046234
 20
480.838165
 10
326.067444
 20
480.598389
  0
LWPOLYLINE
  5
6B
330
48
100
AcDbEntity
  8
0
  6
Continuous
 62
     0
370
    30
100
AcDbPolyline
 90
       18
 70
     0
 43
0.0
 10
326.067444
 20
480.598389
 10
326.048065
 20
480.36911
 10
325.990662
 20
480.146942
 10
325.897858
 20
479.940521
 10
325.773407
 20
479.756927
 10
325.622101
 20
479.602203
 10
325.449524
 20
479.481628
 10
325.26239
 20
479.398743
 10
325.067413
 20
479.355286
 10
324.870941
 20
479.354431
 10
324.679779
 20
479.394745
 10
324.500732
 20
479.477142
 10
324.338074
 20
479.59552
 10
324.197906
 20
479.748718
 10
324.084076
 20
479.931152
 10
323.999573
 20
480.136536
 10
323.947174
 20
480.358093
 10
323.928406
 20
480.598419
  0
LWPOLYLINE
  5
6C
330
48
100
AcDbEntity
  8
0
  6
Continuous
 62
     0
370
    30
100
AcDbPolyline
 90
       18
 70
     0
 43
0.0
 10
323.928406
 20
485.898407
 10
323.945404
 20
486.127747
 10
323.996246
 20
486.349884
 10
324.079437
 20
486.556183
 10
324.192017
 20
486.739807
 10
324.330933
 20
486.894714
 10
324.492432
 20
487.015289
 10
324.671295
 20
487.097992
 10
324.861725
 20
487.141602
 10
325.058136
 20
487.142365
 10
325.253662
 20
487.10199
 10
325.440918
 20
487.019653
 10
325.614502
 20
486.901062
 10
325.766968
 20
486.747772
 10
325.892731
 20
486.565308
 10
325.987183
 20
486.359802
 10
326.046234
 20
486.138153
 10
326.067444
 20
485.898376
  0
LWPOLYLINE
  5
6D
330
48
100
AcDbEntity
  8
0
  6
Continuous
 62
     0
370
    30
100
AcDbPolyline
 90
       18
 70
     0
 43
0.0
 10
326.067444
 20
485.898376
 10
326.048065
 20
485.669098
 10
325.990662
 20
485.44693
 10
325.897858
 20
485.24054
 10
325.773407
 20
485.056915
 10
325.622101
 20
484.902191
 10
325.449524
 20
484.781616
 10
325.26239
 20
484.698761
 10
325.067413
 20
484.655273
 10
324.870941
 20
484.654419
 10
324.679779
 20
484.694763
 10
324.500732
 20
484.77713
 10
324.338074
 20
484.895538
 10
324.197906
 20
485.048737
 10
324.084076
 20
485.23114
 10
323.999573
 20
485.436554
 10
323.947174
 20
485.658112
 10
323.928406
 20
485.898407
  0
LWPOLYLINE
  5
6E
330
48
100
AcDbEntity
  8
0
  6
Continuous
 62
     0
370
    30
100
AcDbPolyline
 90
       18
 70
     0
 43
0.0
 10
323.928406
 20
491.198395
 10
323.945404
 20
491.427734
 10
323.996246
 20
491.649902
 10
324.079437
 20
491.856201
 10
324.192017
 20
492.039795
 10
324.330933
 20
492.194702
 10
324.492432
 20
492.315277
 10
324.671295
 20
492.39801
 10
324.861725
 20
492.441589
 10
325.058136
 20
492.442352
 10
325.253662
 20
492.402008
 10
325.440918
 20
492.319641
 10
325.614502
 20
492.20105
 10
325.766968
 20
492.047791
 10
325.892731
 20
491.865295
 10
325.987183
 20
491.65979
 10
326.046234
 20
491.438171
 10
326.067444
 20
491.198395
  0
LWPOLYLINE
  5
6F
330
48
100
AcDbEntity
  8
0
  6
Continuous
 62
     0
370
    30
100
AcDbPolyline
 90
       18
 70
     0
 43
0.0
 10
326.067444
 20
491.198395
 10
326.048065
 20
490.969116
 10
325.990662
 20
490.746948
 10
325.897858
 20
490.540527
 10
325.773407
 20
490.356903
 10
325.622101
 20
490.202179
 10
325.449524
 20
490.081604
 10
325.26239
 20
489.998749
 10
325.067413
 20
489.955292
 10
324.870941
 20
489.954407
 10
324.679779
 20
489.994751
 10
324.500732
 20
490.077118
 10
324.338074
 20
490.195526
 10
324.197906
 20
490.348724
 10
324.084076
 20
490.531158
 10
323.999573
 20
490.736542
 10
323.947174
 20
490.958099
 10
323.928406
 20
491.198395
  0
LWPOLYLINE
  5
70
330
48
100
AcDbEntity
  8
0
  6
Continuous
 62
     0
370
    30
100
AcDbPolyline
 90
       18
 70
     0
 43
0.0
 10
323.928406
 20
496.498413
 10
323.945404
 20
496.727753
 10
323.996246
 20
496.94989
 10
324.079437
 20
497.156189
 10
324.192017
 20
497.339813
 10
324.330933
 20
497.49472
 10
324.492432
 20
497.615295
 10
324.671295
 20
497.697998
 10
324.861725
 20
497.741577
 10
325.058136
 20
497.74234
 10
325.253662
 20
497.701996
 10
325.440918
 20
497.619629
 10
325.614502
 20
497.501038
 10
325.766968
 20
497.347778
 10
325.892731
 20
497.165314
 10
325.987183
 20
496.959778
 10
326.046234
 20
496.738159
 10
326.067444
 20
496.498383
  0
LWPOLYLINE
  5
71
330
48
100
AcDbEntity
  8
0
  6
Continuous
 62
     0
370
    30
100
AcDbPolyline
 90
       18
 70
     0
 43
0.0
 10
326.067444
 20
496.498383
 10
326.048065
 20
496.269104
 10
325.990662
 20
496.046936
 10
325.897858
 20
495.840515
 10
325.773407
 20
495.656921
 10
325.622101
 20
495.502197
 10
325.449524
 20
495.381622
 10
325.26239
 20
495.298737
 10
325.067413
 20
495.25528
 10
324.870941
 20
495.254425
 10
324.679779
 20
495.294769
 10
324.500732
 20
495.377136
 10
324.338074
 20
495.495514
 10
324.197906
 20
495.648712
 10
324.084076
 20
495.831146
 10
323.999573
 20
496.03656
 10
323.947174
 20
496.258087
 10
323.928406
 20
496.498413
  0
LWPOLYLINE
  5
72
330
48
100
AcDbEntity
  8
0
  6
Continuous
 62
     0
370
    30
100
AcDbPolyline
 90
       18
 70
     0
 43
0.0
 10
323.928406
 20
501.798401
 10
323.945404
 20
502.02774
 10
323.996246
 20
502.249908
 10
324.079437
 20
502.456177
 10
324.192017
 20
502.639801
 10
324.330933
 20
502.794708
 10
324.492432
 20
502.915283
 10
324.671295
 20
502.997986
 10
324.861725
 20
503.041595
 10
325.058136
 20
503.042358
 10
325.253662
 20
503.001984
 10
325.440918
 20
502.919647
 10
325.614502
 20
502.801056
 10
325.766968
 20
502.647797
 10
325.892731
 20
502.465302
 10
325.987183
 20
502.259796
 10
326.046234
 20
502.038177
 10
326.067444
 20
501.79837
  0
LWPOLYLINE
  5
73
330
48
100
AcDbEntity
  8
0
  6
Continuous
 62
     0
370
    30
100
AcDbPolyline
 90
       18
 70
     0
 43
0.0
 10
326.067444
 20
501.79837
 10
326.048065
 20
501.569092
 10
325.990662
 20
501.346954
 10
325.897858
 20
501.140533
 10
325.773407
 20
500.956909
 10
325.622101
 20
500.802185
 10
325.449524
 20
500.68161
 10
325.26239
 20
500.598755
 10
325.067413
 20
500.555267
 10
324.870941
 20
500.554413
 10
324.679779
 20
500.594757
 10
324.500732
 20
500.677124
 10
324.338074
 20
500.795532
 10
324.197906
 20
500.94873
 10
324.084076
 20
501.131134
 10
323.999573
 20
501.336548
 10
323.947174
 20
501.558105
 10
323.928406
 20
501.798401
  0
LWPOLYLINE
  5
74
330
48
100
AcDbEntity
  8
0
  6
Continuous
 62
     0
370
    30
100
AcDbPolyline
 90
       18
 70
     0
 43
0.0
 10
323.928406
 20
507.098419
 10
323.945404
 20
507.327728
 10
323.996246
 20
507.549896
 10
324.079437
 20
507.756195
 10
324.192017
 20
507.939789
 10
324.330933
 20
508.094696
 10
324.492432
 20
508.215302
 10
324.671295
 20
508.298004
 10
324.861725
 20
508.341583
 10
325.058136
 20
508.342346
 10
325.253662
 20
508.302002
 10
325.440918
 20
508.219635
 10
325.614502
 20
508.101044
 10
325.766968
 20
507.947784
 10
325.892731
 20
507.765289
 10
325.987183
 20
507.559784
 10
326.046234
 20
507.338165
 10
326.067444
 20
507.098389
  0
LWPOLYLINE
  5
75
330
48
100
AcDbEntity
  8
0
  6
Continuous
 62
     0
370
    30
100
AcDbPolyline
 90
       18
 70
     0
 43
0.0
 10
326.067444
 20
507.098389
 10
326.048065
 20
506.86911
 10
325.990662
 20
506.646942
 10
325.897858
 20
506.440521
 10
325.773407
 20
506.256927
 10
325.622101
 20
506.102203
 10
325.449524
 20
505.981628
 10
325.26239
 20
505.898743
 10
325.067413
 20
505.855286
 10
324.870941
 20
505.854431
 10
324.679779
 20
505.894745
 10
324.500732
 20
505.977142
 10
324.338074
 20
506.09552
 10
324.197906
 20
506.248718
 10
324.084076
 20
506.431152
 10
323.999573
 20
506.636536
 10
323.947174
 20
506.858093
 10
323.928406
 20
507.098419
  0
LWPOLYLINE
  5
76
330
48
100
AcDbEntity
  8
0
  6
Continuous
 62
     0
370
    30
100
AcDbPolyline
 90
       18
 70
     0
 43
0.0
 10
323.928406
 20
512.398438
 10
323.945404
 20
512.627747
 10
323.996246
 20
512.849915
 10
324.079437
 20
513.056213
 10
324.192017
 20
513.239807
 10
324.330933
 20
513.394714
 10
324.492432
 20
513.51532
 10
324.671295
 20
513.598022
 10
324.861725
 20
513.641602
 10
325.058136
 20
513.642334
 10
325.253662
 20
513.60199
 10
325.440918
 20
513.519653
 10
325.614502
 20
513.401062
 10
325.766968
 20
513.247803
 10
325.892731
 20
513.065308
 10
325.987183
 20
512.859802
 10
326.046234
 20
512.638184
 10
326.067444
 20
512.398376
  0
LWPOLYLINE
  5
77
330
48
100
AcDbEntity
  8
0
  6
Continuous
 62
     0
370
    30
100
AcDbPolyline
 90
       18
 70
     0
 43
0.0
 10
326.067444
 20
512.398376
 10
326.048065
 20
512.169128
 10
325.990662
 20
511.94693
 10
325.897858
 20
511.74054
 10
325.773407
 20
511.556915
 10
325.622101
 20
511.402191
 10
325.449524
 20
511.281616
 10
325.26239
 20
511.198761
 10
325.067413
 20
511.155273
 10
324.870941
 20
511.154419
 10
324.679779
 20
511.194763
 10
324.500732
 20
511.27713
 10
324.338074
 20
511.395538
 10
324.197906
 20
511.548737
 10
324.084076
 20
511.73114
 10
323.999573
 20
511.936554
 10
323.947174
 20
512.158081
 10
323.928406
 20
512.398438
  0
LWPOLYLINE
  5
78
330
48
100
AcDbEntity
  8
0
  6
Continuous
 62
     0
370
    30
100
AcDbPolyline
 90
       18
 70
     0
 43
0.0
 10
335.835083
 20
459.398407
 10
335.854736
 20
459.627838
 10
335.913239
 20
459.850067
 10
336.008209
 20
460.056396
 10
336.135223
 20
460.240051
 10
336.289581
 20
460.394958
 10
336.465881
 20
460.515503
 10
336.657257
 20
460.598206
 10
336.856781
 20
460.641632
 10
337.058044
 20
460.642303
 10
337.253998
 20
460.601685
 10
337.437775
 20
460.519257
 10
337.604736
 20
460.400452
 10
337.748749
 20
460.246979
 10
337.865723
 20
460.064301
 10
337.952484
 20
459.858612
 10
338.006165
 20
459.636841
 10
338.025208
 20
459.398376
  0
LWPOLYLINE
  5
79
330
48
100
AcDbEntity
  8
0
  6
Continuous
 62
     0
370
    30
100
AcDbPolyline
 90
       18
 70
     0
 43
0.0
 10
338.025208
 20
459.398376
 10
338.007599
 20
459.169006
 10
337.955231
 20
458.946777
 10
337.869812
 20
458.740295
 10
337.753967
 20
458.556671
 10
337.610992
 20
458.401947
 10
337.445007
 20
458.281403
 10
337.261505
 20
458.198547
 10
337.066193
 20
458.155243
 10
336.865021
 20
458.15448
 10
336.665039
 20
458.195068
 10
336.473663
 20
458.277527
 10
336.296417
 20
458.396149
 10
336.14093
 20
458.54953
 10
336.012787
 20
458.732178
 10
335.916565
 20
458.937744
 10
335.856506
 20
459.159454
 10
335.835083
 20
459.398407
  0
LWPOLYLINE
  5
7A
330
48
100
AcDbEntity
  8
0
  6
Continuous
 62
     0
370
    30
100
AcDbPolyline
 90
       18
 70
     0
 43
0.0
 10
335.835083
 20
464.698395
 10
335.854736
 20
464.927826
 10
335.913239
 20
465.150055
 10
336.008209
 20
465.356415
 10
336.135223
 20
465.540039
 10
336.289581
 20
465.694977
 10
336.465881
 20
465.815491
 10
336.657257
 20
465.898224
 10
336.856781
 20
465.94165
 10
337.058044
 20
465.942291
 10
337.253998
 20
465.901703
 10
337.437775
 20
465.819244
 10
337.604736
 20
465.700439
 10
337.748749
 20
465.546967
 10
337.865723
 20
465.364288
 10
337.952484
 20
465.1586
 10
338.006165
 20
464.936829
 10
338.025208
 20
464.698395
  0
LWPOLYLINE
  5
7B
330
48
100
AcDbEntity
  8
0
  6
Continuous
 62
     0
370
    30
100
AcDbPolyline
 90
       18
 70
     0
 43
0.0
 10
338.025208
 20
464.698395
 10
338.007599
 20
464.469025
 10
337.955231
 20
464.246796
 10
337.869812
 20
464.040314
 10
337.753967
 20
463.856659
 10
337.610992
 20
463.701935
 10
337.445007
 20
463.58139
 10
337.261505
 20
463.498535
 10
337.066193
 20
463.455231
 10
336.865021
 20
463.454468
 10
336.665039
 20
463.495087
 10
336.473663
 20
463.577515
 10
336.296417
 20
463.696136
 10
336.14093
 20
463.849548
 10
336.012787
 20
464.032166
 10
335.916565
 20
464.237732
 10
335.856506
 20
464.459442
 10
335.835083
 20
464.698395
  0
LWPOLYLINE
  5
7C
330
48
100
AcDbEntity
  8
0
  6
Continuous
 62
     0
370
    30
100
AcDbPolyline
 90
       18
 70
     0
 43
0.0
 10
335.835083
 20
469.998413
 10
335.854736
 20
470.227814
 10
335.913239
 20
470.450043
 10
336.008209
 20
470.656403
 10
336.135223
 20
470.840057
 10
336.289581
 20
470.994965
 10
336.465881
 20
471.115509
 10
336.657257
 20
471.198212
 10
336.856781
 20
471.241638
 10
337.058044
 20
471.24231
 10
337.253998
 20
471.201691
 10
337.437775
 20
471.119263
 10
337.604736
 20
471.000427
 10
337.748749
 20
470.846985
 10
337.865723
 20
470.664307
 10
337.952484
 20
470.458618
 10
338.006165
 20
470.236816
 10
338.025208
 20
469.998383
  0
LWPOLYLINE
  5
7D
330
48
100
AcDbEntity
  8
0
  6
Continuous
 62
     0
370
    30
100
AcDbPolyline
 90
       18
 70
     0
 43
0.0
 10
338.025208
 20
469.998383
 10
338.007599
 20
469.769012
 10
337.955231
 20
469.546783
 10
337.869812
 20
469.340302
 10
337.753967
 20
469.156677
 10
337.610992
 20
469.001923
 10
337.445007
 20
468.881409
 10
337.261505
 20
468.798523
 10
337.066193
 20
468.755219
 10
336.865021
 20
468.754486
 10
336.665039
 20
468.795074
 10
336.473663
 20
468.877533
 10
336.296417
 20
468.996155
 10
336.14093
 20
469.149536
 10
336.012787
 20
469.332153
 10
335.916565
 20
469.53775
 10
335.856506
 20
469.75946
 10
335.835083
 20
469.998413
  0
LWPOLYLINE
  5
7E
330
48
100
AcDbEntity
  8
0
  6
Continuous
 62
     0
370
    30
100
AcDbPolyline
 90
       18
 70
     0
 43
0.0
 10
335.835083
 20
475.298401
 10
335.854736
 20
475.527832
 10
335.913239
 20
475.750061
 10
336.008209
 20
475.95639
 10
336.135223
 20
476.140045
 10
336.289581
 20
476.294952
 10
336.465881
 20
476.415497
 10
336.657257
 20
476.498199
 10
336.856781
 20
476.541626
 10
337.058044
 20
476.542297
 10
337.253998
 20
476.501678
 10
337.437775
 20
476.41925
 10
337.604736
 20
476.300446
 10
337.748749
 20
476.146973
 10
337.865723
 20
475.964294
 10
337.952484
 20
475.758606
 10
338.006165
 20
475.536835
 10
338.025208
 20
475.29837
  0
LWPOLYLINE
  5
7F
330
48
100
AcDbEntity
  8
0
  6
Continuous
 62
     0
370
    30
100
AcDbPolyline
 90
       18
 70
     0
 43
0.0
 10
338.025208
 20
475.29837
 10
338.007599
 20
475.069031
 10
337.955231
 20
474.846771
 10
337.869812
 20
474.64032
 10
337.753967
 20
474.456665
 10
337.610992
 20
474.301941
 10
337.445007
 20
474.181396
 10
337.261505
 20
474.098541
 10
337.066193
 20
474.055237
 10
336.865021
 20
474.054474
 10
336.665039
 20
474.095062
 10
336.473663
 20
474.177521
 10
336.296417
 20
474.296143
 10
336.14093
 20
474.449554
 10
336.012787
 20
474.632172
 10
335.916565
 20
474.837738
 10
335.856506
 20
475.059448
 10
335.835083
 20
475.298401
  0
LWPOLYLINE
  5
80
330
48
100
AcDbEntity
  8
0
  6
Continuous
 62
     0
370
    30
100
AcDbPolyline
 90
       18
 70
     0
 43
0.0
 10
335.835083
 20
480.598419
 10
335.854736
 20
480.82782
 10
335.913239
 20
481.050049
 10
336.008209
 20
481.256409
 10
336.135223
 20
481.440063
 10
336.289581
 20
481.594971
 10
336.465881
 20
481.715485
 10
336.657257
 20
481.798218
 10
336.856781
 20
481.841644
 10
337.058044
 20
481.842285
 10
337.253998
 20
481.801697
 10
337.437775
 20
481.719269
 10
337.604736
 20
481.600433
 10
337.748749
 20
481.446991
 10
337.865723
 20
481.264282
 10
337.952484
 20
481.058594
 10
338.006165
 20
480.836823
 10
338.025208
 20
480.598389
  0
LWPOLYLINE
  5
81
330
48
100
AcDbEntity
  8
0
  6
Continuous
 62
     0
370
    30
100
AcDbPolyline
 90
       18
 70
     0
 43
0.0
 10
338.025208
 20
480.598389
 10
338.007599
 20
480.369019
 10
337.955231
 20
480.14679
 10
337.869812
 20
479.940308
 10
337.753967
 20
479.756653
 10
337.610992
 20
479.601929
 10
337.445007
 20
479.481415
 10
337.261505
 20
479.398529
 10
337.066193
 20
479.355225
 10
336.865021
 20
479.354462
 10
336.665039
 20
479.395081
 10
336.473663
 20
479.477509
 10
336.296417
 20
479.59613
 10
336.14093
 20
479.749542
 10
336.012787
 20
479.932159
 10
335.916565
 20
480.137756
 10
335.856506
 20
480.359436
 10
335.835083
 20
480.598419
  0
LWPOLYLINE
  5
82
330
48
100
AcDbEntity
  8
0
  6
Continuous
 62
     0
370
    30
100
AcDbPolyline
 90
       18
 70
     0
 43
0.0
 10
335.835083
 20
485.898407
 10
335.854736
 20
486.127838
 10
335.913239
 20
486.350067
 10
336.008209
 20
486.556396
 10
336.135223
 20
486.740051
 10
336.289581
 20
486.894958
 10
336.465881
 20
487.015503
 10
336.657257
 20
487.098206
 10
336.856781
 20
487.141632
 10
337.058044
 20
487.142303
 10
337.253998
 20
487.101685
 10
337.437775
 20
487.019257
 10
337.604736
 20
486.900452
 10
337.748749
 20
486.746979
 10
337.865723
 20
486.564301
 10
337.952484
 20
486.358612
 10
338.006165
 20
486.136841
 10
338.025208
 20
485.898376
  0
LWPOLYLINE
  5
83
330
48
100
AcDbEntity
  8
0
  6
Continuous
 62
     0
370
    30
100
AcDbPolyline
 90
       18
 70
     0
 43
0.0
 10
338.025208
 20
485.898376
 10
338.007599
 20
485.669006
 10
337.955231
 20
485.446777
 10
337.869812
 20
485.240295
 10
337.753967
 20
485.056671
 10
337.610992
 20
484.901947
 10
337.445007
 20
484.781403
 10
337.261505
 20
484.698547
 10
337.066193
 20
484.655243
 10
336.865021
 20
484.65448
 10
336.665039
 20
484.695068
 10
336.473663
 20
484.777527
 10
336.296417
 20
484.896149
 10
336.14093
 20
485.04953
 10
336.012787
 20
485.232178
 10
335.916565
 20
485.437744
 10
335.856506
 20
485.659454
 10
335.835083
 20
485.898407
  0
LWPOLYLINE
  5
84
330
48
100
AcDbEntity
  8
0
  6
Continuous
 62
     0
370
    30
100
AcDbPolyline
 90
       18
 70
     0
 43
0.0
 10
335.835083
 20
491.198395
 10
335.854736
 20
491.427826
 10
335.913239
 20
491.650055
 10
336.008209
 20
491.856415
 10
336.135223
 20
492.040039
 10
336.289581
 20
492.194977
 10
336.465881
 20
492.315491
 10
336.657257
 20
492.398224
 10
336.856781
 20
492.44165
 10
337.058044
 20
492.442291
 10
337.253998
 20
492.401703
 10
337.437775
 20
492.319244
 10
337.604736
 20
492.200439
 10
337.748749
 20
492.046967
 10
337.865723
 20
491.864288
 10
337.952484
 20
491.6586
 10
338.006165
 20
491.436829
 10
338.025208
 20
491.198395
  0
LWPOLYLINE
  5
85
330
48
100
AcDbEntity
  8
0
  6
Continuous
 62
     0
370
    30
100
AcDbPolyline
 90
       18
 70
     0
 43
0.0
 10
338.025208
 20
491.198395
 10
338.007599
 20
490.969025
 10
337.955231
 20
490.746796
 10
337.869812
 20
490.540314
 10
337.753967
 20
490.356659
 10
337.610992
 20
490.201935
 10
337.445007
 20
490.08139
 10
337.261505
 20
489.998535
 10
337.066193
 20
489.955231
 10
336.865021
 20
489.954468
 10
336.665039
 20
489.995087
 10
336.473663
 20
490.077515
 10
336.296417
 20
490.196136
 10
336.14093
 20
490.349548
 10
336.012787
 20
490.532166
 10
335.916565
 20
490.737732
 10
335.856506
 20
490.959442
 10
335.835083
 20
491.198395
  0
LWPOLYLINE
  5
86
330
48
100
AcDbEntity
  8
0
  6
Continuous
 62
     0
370
    30
100
AcDbPolyline
 90
       18
 70
     0
 43
0.0
 10
335.835083
 20
496.498413
 10
335.854736
 20
496.727814
 10
335.913239
 20
496.950043
 10
336.008209
 20
497.156403
 10
336.135223
 20
497.340057
 10
336.289581
 20
497.494965
 10
336.465881
 20
497.615509
 10
336.657257
 20
497.698212
 10
336.856781
 20
497.741638
 10
337.058044
 20
497.74231
 10
337.253998
 20
497.701691
 10
337.437775
 20
497.619263
 10
337.604736
 20
497.500427
 10
337.748749
 20
497.346985
 10
337.865723
 20
497.164307
 10
337.952484
 20
496.958618
 10
338.006165
 20
496.736816
 10
338.025208
 20
496.498383
  0
LWPOLYLINE
  5
87
330
48
100
AcDbEntity
  8
0
  6
Continuous
 62
     0
370
    30
100
AcDbPolyline
 90
       18
 70
     0
 43
0.0
 10
338.025208
 20
496.498383
 10
338.007599
 20
496.269012
 10
337.955231
 20
496.046783
 10
337.869812
 20
495.840302
 10
337.753967
 20
495.656677
 10
337.610992
 20
495.501923
 10
337.445007
 20
495.381409
 10
337.261505
 20
495.298523
 10
337.066193
 20
495.255219
 10
336.865021
 20
495.254486
 10
336.665039
 20
495.295074
 10
336.473663
 20
495.377533
 10
336.296417
 20
495.496155
 10
336.14093
 20
495.649536
 10
336.012787
 20
495.832153
 10
335.916565
 20
496.03775
 10
335.856506
 20
496.25946
 10
335.835083
 20
496.498413
  0
LWPOLYLINE
  5
88
330
48
100
AcDbEntity
  8
0
  6
Continuous
 62
     0
370
    30
100
AcDbPolyline
 90
       18
 70
     0
 43
0.0
 10
335.835083
 20
501.798401
 10
335.854736
 20
502.027832
 10
335.913239
 20
502.250061
 10
336.008209
 20
502.45639
 10
336.135223
 20
502.640045
 10
336.289581
 20
502.794952
 10
336.465881
 20
502.915497
 10
336.657257
 20
502.998199
 10
336.856781
 20
503.041626
 10
337.058044
 20
503.042297
 10
337.253998
 20
503.001678
 10
337.437775
 20
502.91925
 10
337.604736
 20
502.800446
 10
337.748749
 20
502.646973
 10
337.865723
 20
502.464294
 10
337.952484
 20
502.258606
 10
338.006165
 20
502.036835
 10
338.025208
 20
501.79837
  0
LWPOLYLINE
  5
89
330
48
100
AcDbEntity
  8
0
  6
Continuous
 62
     0
370
    30
100
AcDbPolyline
 90
       18
 70
     0
 43
0.0
 10
338.025208
 20
501.79837
 10
338.007599
 20
501.569031
 10
337.955231
 20
501.346771
 10
337.869812
 20
501.14032
 10
337.753967
 20
500.956665
 10
337.610992
 20
500.801941
 10
337.445007
 20
500.681396
 10
337.261505
 20
500.598541
 10
337.066193
 20
500.555237
 10
336.865021
 20
500.554474
 10
336.665039
 20
500.595062
 10
336.473663
 20
500.677521
 10
336.296417
 20
500.796143
 10
336.14093
 20
500.949554
 10
336.012787
 20
501.132172
 10
335.916565
 20
501.337738
 10
335.856506
 20
501.559448
 10
335.835083
 20
501.798401
  0
LWPOLYLINE
  5
8A
330
48
100
AcDbEntity
  8
0
  6
Continuous
 62
     0
370
    30
100
AcDbPolyline
 90
       18
 70
     0
 43
0.0
 10
335.835083
 20
507.098419
 10
335.854736
 20
507.32782
 10
335.913239
 20
507.550049
 10
336.008209
 20
507.756409
 10
336.135223
 20
507.940063
 10
336.289581
 20
508.094971
 10
336.465881
 20
508.215485
 10
336.657257
 20
508.298218
 10
336.856781
 20
508.341644
 10
337.058044
 20
508.342285
 10
337.253998
 20
508.301697
 10
337.437775
 20
508.219269
 10
337.604736
 20
508.100433
 10
337.748749
 20
507.946991
 10
337.865723
 20
507.764282
 10
337.952484
 20
507.558594
 10
338.006165
 20
507.336823
 10
338.025208
 20
507.098389
  0
LWPOLYLINE
  5
8B
330
48
100
AcDbEntity
  8
0
  6
Continuous
 62
     0
370
    30
100
AcDbPolyline
 90
       18
 70
     0
 43
0.0
 10
338.025208
 20
507.098389
 10
338.007599
 20
506.869019
 10
337.955231
 20
506.64679
 10
337.869812
 20
506.440308
 10
337.753967
 20
506.256653
 10
337.610992
 20
506.101929
 10
337.445007
 20
505.981415
 10
337.261505
 20
505.898529
 10
337.066193
 20
505.855225
 10
336.865021
 20
505.854462
 10
336.665039
 20
505.895081
 10
336.473663
 20
505.977509
 10
336.296417
 20
506.09613
 10
336.14093
 20
506.249542
 10
336.012787
 20
506.432159
 10
335.916565
 20
506.637756
 10
335.856506
 20
506.859436
 10
335.835083
 20
507.098419
  0
LWPOLYLINE
  5
8C
330
48
100
AcDbEntity
  8
0
  6
Continuous
 62
     0
370
    30
100
AcDbPolyline
 90
       18
 70
     0
 43
0.0
 10
335.835083
 20
512.398438
 10
335.854736
 20
512.627808
 10
335.913239
 20
512.850037
 10
336.008209
 20
513.056396
 10
336.135223
 20
513.240051
 10
336.289581
 20
513.394958
 10
336.465881
 20
513.515503
 10
336.657257
 20
513.598206
 10
336.856781
 20
513.641663
 10
337.058044
 20
513.642273
 10
337.253998
 20
513.601685
 10
337.437775
 20
513.519226
 10
337.604736
 20
513.400452
 10
337.748749
 20
513.246948
 10
337.865723
 20
513.06427
 10
337.952484
 20
512.858582
 10
338.006165
 20
512.636841
 10
338.025208
 20
512.398376
  0
LWPOLYLINE
  5
8D
330
48
100
AcDbEntity
  8
0
  6
Continuous
 62
     0
370
    30
100
AcDbPolyline
 90
       18
 70
     0
 43
0.0
 10
338.025208
 20
512.398376
 10
338.007599
 20
512.169006
 10
337.955231
 20
511.946777
 10
337.869812
 20
511.740295
 10
337.753967
 20
511.556671
 10
337.610992
 20
511.401947
 10
337.445007
 20
511.281403
 10
337.261505
 20
511.198547
 10
337.066193
 20
511.155243
 10
336.865021
 20
511.15448
 10
336.665039
 20
511.195068
 10
336.473663
 20
511.277527
 10
336.296417
 20
511.396149
 10
336.14093
 20
511.54953
 10
336.012787
 20
511.732178
 10
335.916565
 20
511.937744
 10
335.856506
 20
512.159424
 10
335.835083
 20
512.398376
  0
LWPOLYLINE
  5
8E
330
48
100
AcDbEntity
  8
0
  6
Continuous
 62
     0
370
    30
100
AcDbPolyline
 90
       18
 70
     0
 43
0.0
 10
326.650848
 20
461.898407
 10
326.670685
 20
462.127777
 10
326.729645
 20
462.349976
 10
326.825836
 20
462.556396
 10
326.955658
 20
462.740112
 10
327.115356
 20
462.894836
 10
327.300049
 20
463.015289
 10
327.503235
 20
463.098175
 10
327.718414
 20
463.141602
 10
327.938934
 20
463.142334
 10
328.157166
 20
463.101837
 10
328.365021
 20
463.01944
 10
328.556641
 20
462.900726
 10
328.724121
 20
462.747314
 10
328.861786
 20
462.564789
 10
328.964722
 20
462.359161
 10
329.028992
 20
462.137421
 10
329.05191
 20
461.898438
  0
LWPOLYLINE
  5
8F
330
48
100
AcDbEntity
  8
0
  6
Continuous
 62
     0
370
    30
100
AcDbPolyline
 90
       18
 70
     0
 43
0.0
 10
329.05191
 20
461.898438
 10
329.030792
 20
461.669037
 10
328.968292
 20
461.446777
 10
328.866852
 20
461.240326
 10
328.73056
 20
461.05658
 10
328.564178
 20
460.901886
 10
328.373535
 20
460.781342
 10
328.165833
 20
460.698456
 10
327.94812
 20
460.655212
 10
327.727509
 20
460.65448
 10
327.511658
 20
460.695251
 10
327.308167
 20
460.777527
 10
327.122467
 20
460.896332
 10
326.961792
 20
461.049988
 10
326.830566
 20
461.232574
 10
326.732788
 20
461.438141
 10
326.672211
 20
461.659882
 10
326.650848
 20
461.898407
  0
LWPOLYLINE
  5
90
330
48
100
AcDbEntity
  8
0
  6
Continuous
 62
     0
370
    30
100
AcDbPolyline
 90
       18
 70
     0
 43
0.0
 10
326.650848
 20
467.214722
 10
326.670685
 20
467.444092
 10
326.729645
 20
467.66629
 10
326.825836
 20
467.872711
 10
326.955658
 20
468.056427
 10
327.115356
 20
468.211151
 10
327.300049
 20
468.331604
 10
327.503235
 20
468.41449
 10
327.718414
 20
468.457916
 10
327.938934
 20
468.458618
 10
328.157166
 20
468.418121
 10
328.365021
 20
468.335724
 10
328.556641
 20
468.217041
 10
328.724121
 20
468.063629
 10
328.861786
 20
467.881104
 10
328.964722
 20
467.675476
 10
329.028992
 20
467.453735
 10
329.05191
 20
467.214752
  0
LWPOLYLINE
  5
91
330
48
100
AcDbEntity
  8
0
  6
Continuous
 62
     0
370
    30
100
AcDbPolyline
 90
       18
 70
     0
 43
0.0
 10
329.05191
 20
467.214752
 10
329.030792
 20
466.985352
 10
328.968292
 20
466.763092
 10
328.866852
 20
466.55661
 10
328.73056
 20
466.372894
 10
328.564178
 20
466.21817
 10
328.373535
 20
466.097656
 10
328.165833
 20
466.014771
 10
327.94812
 20
465.971527
 10
327.727509
 20
465.970795
 10
327.511658
 20
466.011566
 10
327.308167
 20
466.093842
 10
327.122467
 20
466.212616
 10
326.961792
 20
466.366302
 10
326.830566
 20
466.548889
 10
326.732788
 20
466.754456
 10
326.672211
 20
466.976196
 10
326.650848
 20
467.214722
  0
LWPOLYLINE
  5
92
330
48
100
AcDbEntity
  8
0
  6
Continuous
 62
     0
370
    30
100
AcDbPolyline
 90
       18
 70
     0
 43
0.0
 10
326.650848
 20
472.531006
 10
326.670685
 20
472.760406
 10
326.729645
 20
472.982605
 10
326.825836
 20
473.188995
 10
326.955658
 20
473.372711
 10
327.115356
 20
473.527466
 10
327.300049
 20
473.647888
 10
327.503235
 20
473.730804
 10
327.718414
 20
473.774231
 10
327.938934
 20
473.774933
 10
328.157166
 20
473.734436
 10
328.365021
 20
473.652039
 10
328.556641
 20
473.533356
 10
328.724121
 20
473.379944
 10
328.861786
 20
473.197418
 10
328.964722
 20
472.99176
 10
329.028992
 20
472.77005
 10
329.05191
 20
472.531036
  0
LWPOLYLINE
  5
93
330
48
100
AcDbEntity
  8
0
  6
Continuous
 62
     0
370
    30
100
AcDbPolyline
 90
       18
 70
     0
 43
0.0
 10
329.05191
 20
472.531036
 10
329.030792
 20
472.301636
 10
328.968292
 20
472.079407
 10
328.866852
 20
471.872925
 10
328.73056
 20
471.689209
 10
328.564178
 20
471.534485
 10
328.373535
 20
471.413971
 10
328.165833
 20
471.331085
 10
327.94812
 20
471.287842
 10
327.727509
 20
471.287079
 10
327.511658
 20
471.32785
 10
327.308167
 20
471.410156
 10
327.122467
 20
471.528931
 10
326.961792
 20
471.682587
 10
326.830566
 20
471.865204
 10
326.732788
 20
472.07077
 10
326.672211
 20
472.292511
 10
326.650848
 20
472.531006
  0
LWPOLYLINE
  5
94
330
48
100
AcDbEntity
  8
0
  6
Continuous
 62
     0
370
    30
100
AcDbPolyline
 90
       18
 70
     0
 43
0.0
 10
326.650848
 20
477.847321
 10
326.670685
 20
478.076691
 10
326.729645
 20
478.29892
 10
326.825836
 20
478.50531
 10
326.955658
 20
478.689026
 10
327.115356
 20
478.84375
 10
327.300049
 20
478.964203
 10
327.503235
 20
479.047089
 10
327.718414
 20
479.090515
 10
327.938934
 20
479.091248
 10
328.157166
 20
479.050751
 10
328.365021
 20
478.968353
 10
328.556641
 20
478.84964
 10
328.724121
 20
478.696259
 10
328.861786
 20
478.513733
 10
328.964722
 20
478.308075
 10
329.028992
 20
478.086365
 10
329.05191
 20
477.847351
  0
LWPOLYLINE
  5
95
330
48
100
AcDbEntity
  8
0
  6
Continuous
 62
     0
370
    30
100
AcDbPolyline
 90
       18
 70
     0
 43
0.0
 10
329.05191
 20
477.847351
 10
329.030792
 20
477.61795
 10
328.968292
 20
477.395691
 10
328.866852
 20
477.18924
 10
328.73056
 20
477.005524
 10
328.564178
 20
476.8508
 10
328.373535
 20
476.730286
 10
328.165833
 20
476.647369
 10
327.94812
 20
476.604126
 10
327.727509
 20
476.603394
 10
327.511658
 20
476.644165
 10
327.308167
 20
476.72644
 10
327.122467
 20
476.845245
 10
326.961792
 20
476.998901
 10
326.830566
 20
477.181519
 10
326.732788
 20
477.387085
 10
326.672211
 20
477.608826
 10
326.650848
 20
477.847321
  0
LWPOLYLINE
  5
96
330
48
100
AcDbEntity
  8
0
  6
Continuous
 62
     0
370
    30
100
AcDbPolyline
 90
       18
 70
     0
 43
0.0
 10
326.650848
 20
483.163635
 10
326.670685
 20
483.393005
 10
326.729645
 20
483.615204
 10
326.825836
 20
483.821625
 10
326.955658
 20
484.005341
 10
327.115356
 20
484.160065
 10
327.300049
 20
484.280518
 10
327.503235
 20
484.363403
 10
327.718414
 20
484.40683
 10
327.938934
 20
484.407562
 10
328.157166
 20
484.367065
 10
328.365021
 20
484.284668
 10
328.556641
 20
484.165955
 10
328.724121
 20
484.012543
 10
328.861786
 20
483.830017
 10
328.964722
 20
483.62439
 10
329.028992
 20
483.402649
 10
329.05191
 20
483.163666
  0
LWPOLYLINE
  5
97
330
48
100
AcDbEntity
  8
0
  6
Continuous
 62
     0
370
    30
100
AcDbPolyline
 90
       18
 70
     0
 43
0.0
 10
329.05191
 20
483.163666
 10
329.030792
 20
482.934265
 10
328.968292
 20
482.712006
 10
328.866852
 20
482.505554
 10
328.73056
 20
482.321808
 10
328.564178
 20
482.167114
 10
328.373535
 20
482.04657
 10
328.165833
 20
481.963684
 10
327.94812
 20
481.920441
 10
327.727509
 20
481.919708
 10
327.511658
 20
481.96048
 10
327.308167
 20
482.042755
 10
327.122467
 20
482.16156
 10
326.961792
 20
482.315216
 10
326.830566
 20
482.497803
 10
326.732788
 20
482.703369
 10
326.672211
 20
482.92511
 10
326.650848
 20
483.163635
  0
LWPOLYLINE
  5
98
330
48
100
AcDbEntity
  8
0
  6
Continuous
 62
     0
370
    30
100
AcDbPolyline
 90
       18
 70
     0
 43
0.0
 10
326.650848
 20
488.47995
 10
326.670685
 20
488.70932
 10
326.729645
 20
488.931519
 10
326.825836
 20
489.137939
 10
326.955658
 20
489.321655
 10
327.115356
 20
489.476379
 10
327.300049
 20
489.596832
 10
327.503235
 20
489.679718
 10
327.718414
 20
489.723145
 10
327.938934
 20
489.723846
 10
328.157166
 20
489.68335
 10
328.365021
 20
489.600952
 10
328.556641
 20
489.482269
 10
328.724121
 20
489.328857
 10
328.861786
 20
489.146332
 10
328.964722
 20
488.940704
 10
329.028992
 20
488.718964
 10
329.05191
 20
488.47995
  0
LWPOLYLINE
  5
99
330
48
100
AcDbEntity
  8
0
  6
Continuous
 62
     0
370
    30
100
AcDbPolyline
 90
       18
 70
     0
 43
0.0
 10
329.05191
 20
488.47995
 10
329.030792
 20
488.25058
 10
328.968292
 20
488.02832
 10
328.866852
 20
487.821838
 10
328.73056
 20
487.638123
 10
328.564178
 20
487.483398
 10
328.373535
 20
487.362885
 10
328.165833
 20
487.279999
 10
327.94812
 20
487.236755
 10
327.727509
 20
487.236023
 10
327.511658
 20
487.276764
 10
327.308167
 20
487.35907
 10
327.122467
 20
487.477844
 10
326.961792
 20
487.631531
 10
326.830566
 20
487.814117
 10
326.732788
 20
488.019684
 10
326.672211
 20
488.241425
 10
326.650848
 20
488.47995
  0
LWPOLYLINE
  5
9A
330
48
100
AcDbEntity
  8
0
  6
Continuous
 62
     0
370
    30
100
AcDbPolyline
 90
       18
 70
     0
 43
0.0
 10
326.650848
 20
493.796234
 10
326.670685
 20
494.025635
 10
326.729645
 20
494.247833
 10
326.825836
 20
494.454224
 10
326.955658
 20
494.637939
 10
327.115356
 20
494.792694
 10
327.300049
 20
494.913116
 10
327.503235
 20
494.996033
 10
327.718414
 20
495.039459
 10
327.938934
 20
495.040161
 10
328.157166
 20
494.999664
 10
328.365021
 20
494.917267
 10
328.556641
 20
494.798584
 10
328.724121
 20
494.645172
 10
328.861786
 20
494.462646
 10
328.964722
 20
494.256989
 10
329.028992
 20
494.035278
 10
329.05191
 20
493.796265
  0
LWPOLYLINE
  5
9B
330
48
100
AcDbEntity
  8
0
  6
Continuous
 62
     0
370
    30
100
AcDbPolyline
 90
       18
 70
     0
 43
0.0
 10
329.05191
 20
493.796265
 10
329.030792
 20
493.566864
 10
328.968292
 20
493.344604
 10
328.866852
 20
493.138153
 10
328.73056
 20
492.954437
 10
328.564178
 20
492.799713
 10
328.373535
 20
492.679199
 10
328.165833
 20
492.596283
 10
327.94812
 20
492.55307
 10
327.727509
 20
492.552307
 10
327.511658
 20
492.593079
 10
327.308167
 20
492.675354
 10
327.122467
 20
492.794159
 10
326.961792
 20
492.947815
 10
326.830566
 20
493.130432
 10
326.732788
 20
493.335999
 10
326.672211
 20
493.557739
 10
326.650848
 20
493.796234
  0
LWPOLYLINE
  5
9C
330
48
100
AcDbEntity
  8
0
  6
Continuous
 62
     0
370
    30
100
AcDbPolyline
 90
       18
 70
     0
 43
0.0
 10
326.650848
 20
499.112549
 10
326.670685
 20
499.341919
 10
326.729645
 20
499.564148
 10
326.825836
 20
499.770538
 10
326.955658
 20
499.954254
 10
327.115356
 20
500.108978
 10
327.300049
 20
500.229431
 10
327.503235
 20
500.312317
 10
327.718414
 20
500.355743
 10
327.938934
 20
500.356476
 10
328.157166
 20
500.315979
 10
328.365021
 20
500.233582
 10
328.556641
 20
500.114868
 10
328.724121
 20
499.961487
 10
328.861786
 20
499.778961
 10
328.964722
 20
499.573303
 10
329.028992
 20
499.351593
 10
329.05191
 20
499.112579
  0
LWPOLYLINE
  5
9D
330
48
100
AcDbEntity
  8
0
  6
Continuous
 62
     0
370
    30
100
AcDbPolyline
 90
       18
 70
     0
 43
0.0
 10
329.05191
 20
499.112579
 10
329.030792
 20
498.883179
 10
328.968292
 20
498.660919
 10
328.866852
 20
498.454468
 10
328.73056
 20
498.270752
 10
328.564178
 20
498.116028
 10
328.373535
 20
497.995514
 10
328.165833
 20
497.912598
 10
327.94812
 20
497.869354
 10
327.727509
 20
497.868622
 10
327.511658
 20
497.909393
 10
327.308167
 20
497.991669
 10
327.122467
 20
498.110474
 10
326.961792
 20
498.26413
 10
326.830566
 20
498.446747
 10
326.732788
 20
498.652283
 10
326.672211
 20
498.874023
 10
326.650848
 20
499.112549
  0
LWPOLYLINE
  5
9E
330
48
100
AcDbEntity
  8
0
  6
Continuous
 62
     0
370
    30
100
AcDbPolyline
 90
       18
 70
     0
 43
0.0
 10
326.650848
 20
504.428864
 10
326.670685
 20
504.658234
 10
326.729645
 20
504.880432
 10
326.825836
 20
505.086853
 10
326.955658
 20
505.270569
 10
327.115356
 20
505.425293
 10
327.300049
 20
505.545746
 10
327.503235
 20
505.628632
 10
327.718414
 20
505.672058
 10
327.938934
 20
505.672791
 10
328.157166
 20
505.632294
 10
328.365021
 20
505.549896
 10
328.556641
 20
505.431183
 10
328.724121
 20
505.277771
 10
328.861786
 20
505.095245
 10
328.964722
 20
504.889618
 10
329.028992
 20
504.667877
 10
329.05191
 20
504.428894
  0
LWPOLYLINE
  5
9F
330
48
100
AcDbEntity
  8
0
  6
Continuous
 62
     0
370
    30
100
AcDbPolyline
 90
       18
 70
     0
 43
0.0
 10
329.05191
 20
504.428894
 10
329.030792
 20
504.199493
 10
328.968292
 20
503.977234
 10
328.866852
 20
503.770782
 10
328.73056
 20
503.587036
 10
328.564178
 20
503.432343
 10
328.373535
 20
503.311798
 10
328.165833
 20
503.228912
 10
327.94812
 20
503.185669
 10
327.727509
 20
503.184937
 10
327.511658
 20
503.225708
 10
327.308167
 20
503.307983
 10
327.122467
 20
503.426788
 10
326.961792
 20
503.580444
 10
326.830566
 20
503.763031
 10
326.732788
 20
503.968597
 10
326.672211
 20
504.190338
 10
326.650848
 20
504.428864
  0
LWPOLYLINE
  5
A0
330
48
100
AcDbEntity
  8
0
  6
Continuous
 62
     0
370
    30
100
AcDbPolyline
 90
       18
 70
     0
 43
0.0
 10
326.650848
 20
509.745178
 10
326.670685
 20
509.974548
 10
326.729645
 20
510.196747
 10
326.825836
 20
510.403168
 10
326.955658
 20
510.586884
 10
327.115356
 20
510.741608
 10
327.300049
 20
510.86203
 10
327.503235
 20
510.944946
 10
327.718414
 20
510.988373
 10
327.938934
 20
510.989075
 10
328.157166
 20
510.948578
 10
328.365021
 20
510.86618
 10
328.556641
 20
510.747498
 10
328.724121
 20
510.594086
 10
328.861786
 20
510.41156
 10
328.964722
 20
510.205933
 10
329.028992
 20
509.984192
 10
329.05191
 20
509.745178
  0
LWPOLYLINE
  5
A1
330
48
100
AcDbEntity
  8
0
  6
Continuous
 62
     0
370
    30
100
AcDbPolyline
 90
       18
 70
     0
 43
0.0
 10
329.05191
 20
509.745178
 10
329.030792
 20
509.515778
 10
328.968292
 20
509.293549
 10
328.866852
 20
509.087067
 10
328.73056
 20
508.903351
 10
328.564178
 20
508.748627
 10
328.373535
 20
508.628113
 10
328.165833
 20
508.545227
 10
327.94812
 20
508.501984
 10
327.727509
 20
508.501251
 10
327.511658
 20
508.541992
 10
327.308167
 20
508.624298
 10
327.122467
 20
508.743073
 10
326.961792
 20
508.896759
 10
326.830566
 20
509.079346
 10
326.732788
 20
509.284912
 10
326.672211
 20
509.506653
 10
326.650848
 20
509.745178
  0
LWPOLYLINE
  5
A2
330
48
100
AcDbEntity
  8
0
  6
Continuous
 62
     0
370
    30
100
AcDbPolyline
 90
       18
 70
     0
 43
0.0
 10
332.814178
 20
461.898407
 10
332.835419
 20
462.127838
 10
332.898376
 20
462.350067
 10
333.000641
 20
462.556519
 10
333.137909
 20
462.740265
 10
333.305634
 20
462.894989
 10
333.498016
 20
463.015411
 10
333.707672
 20
463.098297
 10
333.927582
 20
463.141632
 10
334.150635
 20
463.142303
 10
334.36908
 20
463.101654
 10
334.575134
 20
463.019196
 10
334.763306
 20
462.900391
 10
334.926422
 20
462.746857
 10
335.05954
 20
462.56424
 10
335.158447
 20
462.35849
 10
335.21994
 20
462.136658
 10
335.241699
 20
461.898438
  0
LWPOLYLINE
  5
A3
330
48
100
AcDbEntity
  8
0
  6
Continuous
 62
     0
370
    30
100
AcDbPolyline
 90
       18
 70
     0
 43
0.0
 10
335.241699
 20
461.898438
 10
335.221497
 20
461.668976
 10
335.161591
 20
461.446686
 10
335.063965
 20
461.240204
 10
334.932159
 20
461.056458
 10
334.77005
 20
460.901733
 10
334.582825
 20
460.781219
 10
334.376984
 20
460.698334
 10
334.159088
 20
460.655182
 10
333.936035
 20
460.65451
 10
333.715607
 20
460.695435
 10
333.505676
 20
460.77774
 10
333.312439
 20
460.896667
 10
333.14386
 20
461.050446
 10
333.005219
 20
461.233154
 10
332.901428
 20
461.438812
 10
332.836914
 20
461.660645
 10
332.814178
 20
461.898407
  0
LWPOLYLINE
  5
A4
330
48
100
AcDbEntity
  8
0
  6
Continuous
 62
     0
370
    30
100
AcDbPolyline
 90
       18
 70
     0
 43
0.0
 10
332.814178
 20
467.214722
 10
332.835419
 20
467.444122
 10
332.898376
 20
467.666382
 10
333.000641
 20
467.872833
 10
333.137909
 20
468.056549
 10
333.305634
 20
468.211304
 10
333.498016
 20
468.331696
 10
333.707672
 20
468.414612
 10
333.927582
 20
468.457947
 10
334.150635
 20
468.458588
 10
334.36908
 20
468.417969
 10
334.575134
 20
468.33551
 10
334.763306
 20
468.216675
 10
334.926422
 20
468.063171
 10
335.05954
 20
467.880524
 10
335.158447
 20
467.674774
 10
335.21994
 20
467.452972
 10
335.241699
 20
467.214752
  0
LWPOLYLINE
  5
A5
330
48
100
AcDbEntity
  8
0
  6
Continuous
 62
     0
370
    30
100
AcDbPolyline
 90
       18
 70
     0
 43
0.0
 10
335.241699
 20
467.214752
 10
335.221497
 20
466.985291
 10
335.161591
 20
466.763
 10
335.063965
 20
466.556488
 10
334.932159
 20
466.372772
 10
334.77005
 20
466.218048
 10
334.582825
 20
466.097534
 10
334.376984
 20
466.014648
 10
334.159088
 20
465.971497
 10
333.936035
 20
465.970825
 10
333.715607
 20
466.011719
 10
333.505676
 20
466.094055
 10
333.312439
 20
466.212982
 10
333.14386
 20
466.36676
 10
333.005219
 20
466.549469
 10
332.901428
 20
466.755127
 10
332.836914
 20
466.976959
 10
332.814178
 20
467.214722
  0
LWPOLYLINE
  5
A6
330
48
100
AcDbEntity
  8
0
  6
Continuous
 62
     0
370
    30
100
AcDbPolyline
 90
       18
 70
     0
 43
0.0
 10
332.814178
 20
472.531006
 10
332.835419
 20
472.760437
 10
332.898376
 20
472.982697
 10
333.000641
 20
473.189117
 10
333.137909
 20
473.372864
 10
333.305634
 20
473.527588
 10
333.498016
 20
473.64801
 10
333.707672
 20
473.730927
 10
333.927582
 20
473.774261
 10
334.150635
 20
473.774902
 10
334.36908
 20
473.734253
 10
334.575134
 20
473.651825
 10
334.763306
 20
473.53299
 10
334.926422
 20
473.379486
 10
335.05954
 20
473.196838
 10
335.158447
 20
472.991089
 10
335.21994
 20
472.769287
 10
335.241699
 20
472.531036
  0
LWPOLYLINE
  5
A7
330
48
100
AcDbEntity
  8
0
  6
Continuous
 62
     0
370
    30
100
AcDbPolyline
 90
       18
 70
     0
 43
0.0
 10
335.241699
 20
472.531036
 10
335.221497
 20
472.301605
 10
335.161591
 20
472.079315
 10
335.063965
 20
471.872803
 10
334.932159
 20
471.689056
 10
334.77005
 20
471.534332
 10
334.582825
 20
471.413849
 10
334.376984
 20
471.330963
 10
334.159088
 20
471.287811
 10
333.936035
 20
471.287109
 10
333.715607
 20
471.328033
 10
333.505676
 20
471.41037
 10
333.312439
 20
471.529266
 10
333.14386
 20
471.683044
 10
333.005219
 20
471.865784
 10
332.901428
 20
472.071442
 10
332.836914
 20
472.293274
 10
332.814178
 20
472.531006
  0
LWPOLYLINE
  5
A8
330
48
100
AcDbEntity
  8
0
  6
Continuous
 62
     0
370
    30
100
AcDbPolyline
 90
       18
 70
     0
 43
0.0
 10
332.814178
 20
477.847321
 10
332.835419
 20
478.076752
 10
332.898376
 20
478.299011
 10
333.000641
 20
478.505432
 10
333.137909
 20
478.689178
 10
333.305634
 20
478.843903
 10
333.498016
 20
478.964325
 10
333.707672
 20
479.047211
 10
333.927582
 20
479.090546
 10
334.150635
 20
479.091217
 10
334.36908
 20
479.050568
 10
334.575134
 20
478.96814
 10
334.763306
 20
478.849304
 10
334.926422
 20
478.695801
 10
335.05954
 20
478.513153
 10
335.158447
 20
478.307404
 10
335.21994
 20
478.085602
 10
335.241699
 20
477.847351
  0
LWPOLYLINE
  5
A9
330
48
100
AcDbEntity
  8
0
  6
Continuous
 62
     0
370
    30
100
AcDbPolyline
 90
       18
 70
     0
 43
0.0
 10
335.241699
 20
477.847351
 10
335.221497
 20
477.617889
 10
335.161591
 20
477.395599
 10
335.063965
 20
477.189117
 10
334.932159
 20
477.005371
 10
334.77005
 20
476.850647
 10
334.582825
 20
476.730164
 10
334.376984
 20
476.647247
 10
334.159088
 20
476.604095
 10
333.936035
 20
476.603424
 10
333.715607
 20
476.644348
 10
333.505676
 20
476.726654
 10
333.312439
 20
476.845581
 10
333.14386
 20
476.999359
 10
333.005219
 20
477.182068
 10
332.901428
 20
477.387756
 10
332.836914
 20
477.609558
 10
332.814178
 20
477.847321
  0
LWPOLYLINE
  5
AA
330
48
100
AcDbEntity
  8
0
  6
Continuous
 62
     0
370
    30
100
AcDbPolyline
 90
       18
 70
     0
 43
0.0
 10
332.814178
 20
483.163635
 10
332.835419
 20
483.393066
 10
332.898376
 20
483.615295
 10
333.000641
 20
483.821747
 10
333.137909
 20
484.005493
 10
333.305634
 20
484.160217
 10
333.498016
 20
484.28064
 10
333.707672
 20
484.363525
 10
333.927582
 20
484.40686
 10
334.150635
 20
484.407532
 10
334.36908
 20
484.366882
 10
334.575134
 20
484.284424
 10
334.763306
 20
484.165619
 10
334.926422
 20
484.012085
 10
335.05954
 20
483.829437
 10
335.158447
 20
483.623718
 10
335.21994
 20
483.401886
 10
335.241699
 20
483.163666
  0
LWPOLYLINE
  5
AB
330
48
100
AcDbEntity
  8
0
  6
Continuous
 62
     0
370
    30
100
AcDbPolyline
 90
       18
 70
     0
 43
0.0
 10
335.241699
 20
483.163666
 10
335.221497
 20
482.934204
 10
335.161591
 20
482.711914
 10
335.063965
 20
482.505432
 10
334.932159
 20
482.321686
 10
334.77005
 20
482.166962
 10
334.582825
 20
482.046448
 10
334.376984
 20
481.963562
 10
334.159088
 20
481.92041
 10
333.936035
 20
481.919739
 10
333.715607
 20
481.960632
 10
333.505676
 20
482.042969
 10
333.312439
 20
482.161896
 10
333.14386
 20
482.315674
 10
333.005219
 20
482.498383
 10
332.901428
 20
482.704041
 10
332.836914
 20
482.925873
 10
332.814178
 20
483.163635
  0
LWPOLYLINE
  5
AC
330
48
100
AcDbEntity
  8
0
  6
Continuous
 62
     0
370
    30
100
AcDbPolyline
 90
       18
 70
     0
 43
0.0
 10
332.814178
 20
488.47995
 10
332.835419
 20
488.709351
 10
332.898376
 20
488.93161
 10
333.000641
 20
489.138062
 10
333.137909
 20
489.321777
 10
333.305634
 20
489.476532
 10
333.498016
 20
489.596924
 10
333.707672
 20
489.67984
 10
333.927582
 20
489.723175
 10
334.150635
 20
489.723816
 10
334.36908
 20
489.683197
 10
334.575134
 20
489.600739
 10
334.763306
 20
489.481903
 10
334.926422
 20
489.3284
 10
335.05954
 20
489.145752
 10
335.158447
 20
488.940002
 10
335.21994
 20
488.718201
 10
335.241699
 20
488.47995
  0
LWPOLYLINE
  5
AD
330
48
100
AcDbEntity
  8
0
  6
Continuous
 62
     0
370
    30
100
AcDbPolyline
 90
       18
 70
     0
 43
0.0
 10
335.241699
 20
488.47995
 10
335.221497
 20
488.250519
 10
335.161591
 20
488.028229
 10
335.063965
 20
487.821716
 10
334.932159
 20
487.63797
 10
334.77005
 20
487.483276
 10
334.582825
 20
487.362762
 10
334.376984
 20
487.279877
 10
334.159088
 20
487.236725
 10
333.936035
 20
487.236053
 10
333.715607
 20
487.276947
 10
333.505676
 20
487.359283
 10
333.312439
 20
487.47821
 10
333.14386
 20
487.631989
 10
333.005219
 20
487.814697
 10
332.901428
 20
488.020355
 10
332.836914
 20
488.242188
 10
332.814178
 20
488.47995
  0
LWPOLYLINE
  5
AE
330
48
100
AcDbEntity
  8
0
  6
Continuous
 62
     0
370
    30
100
AcDbPolyline
 90
       18
 70
     0
 43
0.0
 10
332.814178
 20
493.796234
 10
332.835419
 20
494.025665
 10
332.898376
 20
494.247925
 10
333.000641
 20
494.454346
 10
333.137909
 20
494.638092
 10
333.305634
 20
494.792816
 10
333.498016
 20
494.913239
 10
333.707672
 20
494.996155
 10
333.927582
 20
495.03949
 10
334.150635
 20
495.040131
 10
334.36908
 20
494.999481
 10
334.575134
 20
494.917053
 10
334.763306
 20
494.798218
 10
334.926422
 20
494.644714
 10
335.05954
 20
494.462067
 10
335.158447
 20
494.256317
 10
335.21994
 20
494.034515
 10
335.241699
 20
493.796265
  0
LWPOLYLINE
  5
AF
330
48
100
AcDbEntity
  8
0
  6
Continuous
 62
     0
370
    30
100
AcDbPolyline
 90
       18
 70
     0
 43
0.0
 10
335.241699
 20
493.796265
 10
335.221497
 20
493.566833
 10
335.161591
 20
493.344543
 10
335.063965
 20
493.138031
 10
334.932159
 20
492.954285
 10
334.77005
 20
492.799561
 10
334.582825
 20
492.679077
 10
334.376984
 20
492.596161
 10
334.159088
 20
492.55304
 10
333.936035
 20
492.552338
 10
333.715607
 20
492.593262
 10
333.505676
 20
492.675598
 10
333.312439
 20
492.794495
 10
333.14386
 20
492.948273
 10
333.005219
 20
493.130981
 10
332.901428
 20
493.33667
 10
332.836914
 20
493.558502
 10
332.814178
 20
493.796234
  0
LWPOLYLINE
  5
B0
330
48
100
AcDbEntity
  8
0
  6
Continuous
 62
     0
370
    30
100
AcDbPolyline
 90
       18
 70
     0
 43
0.0
 10
332.814178
 20
499.112549
 10
332.835419
 20
499.34198
 10
332.898376
 20
499.56424
 10
333.000641
 20
499.77066
 10
333.137909
 20
499.954407
 10
333.305634
 20
500.109131
 10
333.498016
 20
500.229553
 10
333.707672
 20
500.312439
 10
333.927582
 20
500.355774
 10
334.150635
 20
500.356445
 10
334.36908
 20
500.315796
 10
334.575134
 20
500.233368
 10
334.763306
 20
500.114532
 10
334.926422
 20
499.960999
 10
335.05954
 20
499.778381
 10
335.158447
 20
499.572632
 10
335.21994
 20
499.35083
 10
335.241699
 20
499.112579
  0
LWPOLYLINE
  5
B1
330
48
100
AcDbEntity
  8
0
  6
Continuous
 62
     0
370
    30
100
AcDbPolyline
 90
       18
 70
     0
 43
0.0
 10
335.241699
 20
499.112579
 10
335.221497
 20
498.883118
 10
335.161591
 20
498.660828
 10
335.063965
 20
498.454346
 10
334.932159
 20
498.270599
 10
334.77005
 20
498.115875
 10
334.582825
 20
497.995392
 10
334.376984
 20
497.912476
 10
334.159088
 20
497.869324
 10
333.936035
 20
497.868652
 10
333.715607
 20
497.909576
 10
333.505676
 20
497.991882
 10
333.312439
 20
498.110809
 10
333.14386
 20
498.264587
 10
333.005219
 20
498.447296
 10
332.901428
 20
498.652954
 10
332.836914
 20
498.874786
 10
332.814178
 20
499.112549
  0
LWPOLYLINE
  5
B2
330
48
100
AcDbEntity
  8
0
  6
Continuous
 62
     0
370
    30
100
AcDbPolyline
 90
       18
 70
     0
 43
0.0
 10
332.814178
 20
504.428864
 10
332.835419
 20
504.658295
 10
332.898376
 20
504.880524
 10
333.000641
 20
505.086975
 10
333.137909
 20
505.270721
 10
333.305634
 20
505.425446
 10
333.498016
 20
505.545868
 10
333.707672
 20
505.628754
 10
333.927582
 20
505.672089
 10
334.150635
 20
505.67276
 10
334.36908
 20
505.632111
 10
334.575134
 20
505.549652
 10
334.763306
 20
505.430847
 10
334.926422
 20
505.277313
 10
335.05954
 20
505.094666
 10
335.158447
 20
504.888947
 10
335.21994
 20
504.667114
 10
335.241699
 20
504.428894
  0
LWPOLYLINE
  5
B3
330
48
100
AcDbEntity
  8
0
  6
Continuous
 62
     0
370
    30
100
AcDbPolyline
 90
       18
 70
     0
 43
0.0
 10
335.241699
 20
504.428894
 10
335.221497
 20
504.199432
 10
335.161591
 20
503.977142
 10
335.063965
 20
503.77066
 10
334.932159
 20
503.586914
 10
334.77005
 20
503.43219
 10
334.582825
 20
503.311676
 10
334.376984
 20
503.22879
 10
334.159088
 20
503.185638
 10
333.936035
 20
503.184967
 10
333.715607
 20
503.225861
 10
333.505676
 20
503.308197
 10
333.312439
 20
503.427124
 10
333.14386
 20
503.580902
 10
333.005219
 20
503.763611
 10
332.901428
 20
503.969269
 10
332.836914
 20
504.191101
 10
332.814178
 20
504.428864
  0
LWPOLYLINE
  5
B4
330
48
100
AcDbEntity
  8
0
  6
Continuous
 62
     0
370
    30
100
AcDbPolyline
 90
       18
 70
     0
 43
0.0
 10
332.814178
 20
509.745178
 10
332.835419
 20
509.974579
 10
332.898376
 20
510.196838
 10
333.000641
 20
510.40329
 10
333.137909
 20
510.587006
 10
333.305634
 20
510.74176
 10
333.498016
 20
510.862152
 10
333.707672
 20
510.945068
 10
333.927582
 20
510.988403
 10
334.150635
 20
510.989044
 10
334.36908
 20
510.948425
 10
334.575134
 20
510.865967
 10
334.763306
 20
510.747131
 10
334.926422
 20
510.593628
 10
335.05954
 20
510.41098
 10
335.158447
 20
510.205231
 10
335.21994
 20
509.983429
 10
335.241699
 20
509.745178
  0
LWPOLYLINE
  5
B5
330
48
100
AcDbEntity
  8
0
  6
Continuous
 62
     0
370
    30
100
AcDbPolyline
 90
       18
 70
     0
 43
0.0
 10
335.241699
 20
509.745178
 10
335.221497
 20
509.515747
 10
335.161591
 20
509.293457
 10
335.063965
 20
509.086945
 10
334.932159
 20
508.903198
 10
334.77005
 20
508.748505
 10
334.582825
 20
508.627991
 10
334.376984
 20
508.545105
 10
334.159088
 20
508.501953
 10
333.936035
 20
508.501282
 10
333.715607
 20
508.542175
 10
333.505676
 20
508.624512
 10
333.312439
 20
508.743439
 10
333.14386
 20
508.897217
 10
333.005219
 20
509.079926
 10
332.901428
 20
509.285583
 10
332.836914
 20
509.507416
 10
332.814178
 20
509.745178
  0
ARC
  5
B6
330
48
100
AcDbEntity
  8
0
  6
Continuous
 62
     0
370
    30
100
AcDbCircle
 10
330.950677
 20
459.399844
 30
0.0
 40
1.248500143913981
100
AcDbArc
 50
94.629518
 51
180.065941
  0
ARC
  5
B7
330
48
100
AcDbEntity
  8
0
  6
Continuous
 62
     0
370
    30
100
AcDbCircle
 10
330.95068
 20
459.396972
 30
0.0
 40
1.248502720331295
100
AcDbArc
 50
179.934152
 51
265.341972
  0
ARC
  5
B8
330
48
100
AcDbEntity
  8
0
  6
Continuous
 62
     0
370
    30
100
AcDbCircle
 10
330.950677
 20
464.699844
 30
0.0
 40
1.248500143913912
100
AcDbArc
 50
94.629518
 51
180.065941
  0
ARC
  5
B9
330
48
100
AcDbEntity
  8
0
  6
Continuous
 62
     0
370
    30
100
AcDbCircle
 10
330.95068
 20
464.696972
 30
0.0
 40
1.248502720327184
100
AcDbArc
 50
179.934152
 51
265.341972
  0
ARC
  5
BA
330
48
100
AcDbEntity
  8
0
  6
Continuous
 62
     0
370
    30
100
AcDbCircle
 10
330.950677
 20
469.999844
 30
0.0
 40
1.248500143913405
100
AcDbArc
 50
94.629518
 51
180.065941
  0
ARC
  5
BB
330
48
100
AcDbEntity
  8
0
  6
Continuous
 62
     0
370
    30
100
AcDbCircle
 10
330.95068
 20
469.996972
 30
0.0
 40
1.248502720331448
100
AcDbArc
 50
179.934152
 51
265.341972
  0
ARC
  5
BC
330
48
100
AcDbEntity
  8
0
  6
Continuous
 62
     0
370
    30
100
AcDbCircle
 10
330.950677
 20
475.299844
 30
0.0
 40
1.248500143918901
100
AcDbArc
 50
94.629518
 51
180.065941
  0
ARC
  5
BD
330
48
100
AcDbEntity
  8
0
  6
Continuous
 62
     0
370
    30
100
AcDbCircle
 10
330.95068
 20
475.296972
 30
0.0
 40
1.248502720329692
100
AcDbArc
 50
179.934152
 51
265.341972
  0
ARC
  5
BE
330
48
100
AcDbEntity
  8
0
  6
Continuous
 62
     0
370
    30
100
AcDbCircle
 10
330.950677
 20
480.599844
 30
0.0
 40
1.24850014391735
100
AcDbArc
 50
94.629518
 51
180.065941
  0
ARC
  5
BF
330
48
100
AcDbEntity
  8
0
  6
Continuous
 62
     0
370
    30
100
AcDbCircle
 10
330.95068
 20
480.596972
 30
0.0
 40
1.248502720331674
100
AcDbArc
 50
179.934152
 51
265.341972
  0
ARC
  5
C0
330
48
100
AcDbEntity
  8
0
  6
Continuous
 62
     0
370
    30
100
AcDbCircle
 10
330.950677
 20
485.899844
 30
0.0
 40
1.248500143920662
100
AcDbArc
 50
94.629518
 51
180.065941
  0
ARC
  5
C1
330
48
100
AcDbEntity
  8
0
  6
Continuous
 62
     0
370
    30
100
AcDbCircle
 10
330.95068
 20
485.896972
 30
0.0
 40
1.248502720327984
100
AcDbArc
 50
179.934152
 51
265.341972
  0
ARC
  5
C2
330
48
100
AcDbEntity
  8
0
  6
Continuous
 62
     0
370
    30
100
AcDbCircle
 10
330.950677
 20
491.199844
 30
0.0
 40
1.24850014391539
100
AcDbArc
 50
94.629518
 51
180.065941
  0
ARC
  5
C3
330
48
100
AcDbEntity
  8
0
  6
Continuous
 62
     0
370
    30
100
AcDbCircle
 10
330.95068
 20
491.196972
 30
0.0
 40
1.248502720329409
100
AcDbArc
 50
179.934152
 51
265.341972
  0
ARC
  5
C4
330
48
100
AcDbEntity
  8
0
  6
Continuous
 62
     0
370
    30
100
AcDbCircle
 10
330.950677
 20
496.499844
 30
0.0
 40
1.248500143915158
100
AcDbArc
 50
94.629518
 51
180.065941
  0
ARC
  5
C5
330
48
100
AcDbEntity
  8
0
  6
Continuous
 62
     0
370
    30
100
AcDbCircle
 10
330.95068
 20
496.496972
 30
0.0
 40
1.248502720329029
100
AcDbArc
 50
179.934152
 51
265.341972
  0
ARC
  5
C6
330
48
100
AcDbEntity
  8
0
  6
Continuous
 62
     0
370
    30
100
AcDbCircle
 10
330.950677
 20
501.799844
 30
0.0
 40
1.248500143916187
100
AcDbArc
 50
94.629518
 51
180.065941
  0
ARC
  5
C7
330
48
100
AcDbEntity
  8
0
  6
Continuous
 62
     0
370
    30
100
AcDbCircle
 10
330.95068
 20
501.796972
 30
0.0
 40
1.248502720332311
100
AcDbArc
 50
179.934152
 51
265.341972
  0
ARC
  5
C8
330
48
100
AcDbEntity
  8
0
  6
Continuous
 62
     0
370
    30
100
AcDbCircle
 10
330.950677
 20
507.099844
 30
0.0
 40
1.248500143912757
100
AcDbArc
 50
94.629518
 51
180.065941
  0
ARC
  5
C9
330
48
100
AcDbEntity
  8
0
  6
Continuous
 62
     0
370
    30
100
AcDbCircle
 10
330.95068
 20
507.096972
 30
0.0
 40
1.248502720324958
100
AcDbArc
 50
179.934152
 51
265.341972
  0
ARC
  5
CA
330
48
100
AcDbEntity
  8
0
  6
Continuous
 62
     0
370
    30
100
AcDbCircle
 10
330.950677
 20
512.399844
 30
0.0
 40
1.248500143917873
100
AcDbArc
 50
94.629518
 51
180.065941
  0
ARC
  5
CB
330
48
100
AcDbEntity
  8
0
  6
Continuous
 62
     0
370
    30
100
AcDbCircle
 10
330.95068
 20
512.396972
 30
0.0
 40
1.248502720327203
100
AcDbArc
 50
179.934152
 51
265.341972
  0
LWPOLYLINE
  5
CC
330
48
100
AcDbEntity
  8
0
  6
Continuous
 62
     0
370
    30
100
AcDbPolyline
 90
        5
 70
     0
 43
0.0
 10
325.229095
 20
460.612427
 10
324.919373
 20
460.453766
 10
324.673035
 20
460.185516
 10
324.511627
 20
459.83374
 10
324.449066
 20
459.398407
  0
LWPOLYLINE
  5
CD
330
48
100
AcDbEntity
  8
0
  6
Continuous
 62
     0
370
    30
100
AcDbPolyline
 90
        5
 70
     0
 43
0.0
 10
324.449066
 20
459.398407
 10
324.501221
 20
458.999969
 10
324.653656
 20
458.641815
 10
324.89267
 20
458.364319
 10
325.229156
 20
458.184387
  0
LWPOLYLINE
  5
CE
330
48
100
AcDbEntity
  8
0
  6
Continuous
 62
     0
370
    30
100
AcDbPolyline
 90
        5
 70
     0
 43
0.0
 10
325.229095
 20
465.912415
 10
324.919373
 20
465.753754
 10
324.673035
 20
465.485504
 10
324.511627
 20
465.133728
 10
324.449066
 20
464.698395
  0
LWPOLYLINE
  5
CF
330
48
100
AcDbEntity
  8
0
  6
Continuous
 62
     0
370
    30
100
AcDbPolyline
 90
        5
 70
     0
 43
0.0
 10
324.449066
 20
464.698395
 10
324.501221
 20
464.299957
 10
324.653656
 20
463.941833
 10
324.89267
 20
463.664307
 10
325.229156
 20
463.484375
  0
LWPOLYLINE
  5
D0
330
48
100
AcDbEntity
  8
0
  6
Continuous
 62
     0
370
    30
100
AcDbPolyline
 90
        5
 70
     0
 43
0.0
 10
325.229095
 20
471.212402
 10
324.919373
 20
471.053772
 10
324.673035
 20
470.785522
 10
324.511627
 20
470.433746
 10
324.449066
 20
469.998413
  0
LWPOLYLINE
  5
D1
330
48
100
AcDbEntity
  8
0
  6
Continuous
 62
     0
370
    30
100
AcDbPolyline
 90
        5
 70
     0
 43
0.0
 10
324.449066
 20
469.998413
 10
324.501221
 20
469.599976
 10
324.653656
 20
469.241821
 10
324.89267
 20
468.964325
 10
325.229156
 20
468.784363
  0
LWPOLYLINE
  5
D2
330
48
100
AcDbEntity
  8
0
  6
Continuous
 62
     0
370
    30
100
AcDbPolyline
 90
        5
 70
     0
 43
0.0
 10
325.229095
 20
476.512421
 10
324.919373
 20
476.35376
 10
324.673035
 20
476.08551
 10
324.511627
 20
475.733734
 10
324.449066
 20
475.298401
  0
LWPOLYLINE
  5
D3
330
48
100
AcDbEntity
  8
0
  6
Continuous
 62
     0
370
    30
100
AcDbPolyline
 90
        5
 70
     0
 43
0.0
 10
324.449066
 20
475.298401
 10
324.501221
 20
474.899963
 10
324.653656
 20
474.54184
 10
324.89267
 20
474.264313
 10
325.229156
 20
474.084381
  0
LWPOLYLINE
  5
D4
330
48
100
AcDbEntity
  8
0
  6
Continuous
 62
     0
370
    30
100
AcDbPolyline
 90
        5
 70
     0
 43
0.0
 10
325.229095
 20
481.812408
 10
324.919373
 20
481.653748
 10
324.673035
 20
481.385529
 10
324.511627
 20
481.033722
 10
324.449066
 20
480.598419
  0
LWPOLYLINE
  5
D5
330
48
100
AcDbEntity
  8
0
  6
Continuous
 62
     0
370
    30
100
AcDbPolyline
 90
        5
 70
     0
 43
0.0
 10
324.449066
 20
480.598419
 10
324.501221
 20
480.199951
 10
324.653656
 20
479.841827
 10
324.89267
 20
479.564331
 10
325.229156
 20
479.384369
  0
LWPOLYLINE
  5
D6
330
48
100
AcDbEntity
  8
0
  6
Continuous
 62
     0
370
    30
100
AcDbPolyline
 90
        5
 70
     0
 43
0.0
 10
325.229095
 20
487.112427
 10
324.919373
 20
486.953766
 10
324.673035
 20
486.685516
 10
324.511627
 20
486.33374
 10
324.449066
 20
485.898407
  0
LWPOLYLINE
  5
D7
330
48
100
AcDbEntity
  8
0
  6
Continuous
 62
     0
370
    30
100
AcDbPolyline
 90
        5
 70
     0
 43
0.0
 10
324.449066
 20
485.898407
 10
324.501221
 20
485.499969
 10
324.653656
 20
485.141815
 10
324.89267
 20
484.864319
 10
325.229156
 20
484.684387
  0
LWPOLYLINE
  5
D8
330
48
100
AcDbEntity
  8
0
  6
Continuous
 62
     0
370
    30
100
AcDbPolyline
 90
        5
 70
     0
 43
0.0
 10
325.229095
 20
492.412415
 10
324.919373
 20
492.253754
 10
324.673035
 20
491.985504
 10
324.511627
 20
491.633728
 10
324.449066
 20
491.198395
  0
LWPOLYLINE
  5
D9
330
48
100
AcDbEntity
  8
0
  6
Continuous
 62
     0
370
    30
100
AcDbPolyline
 90
        5
 70
     0
 43
0.0
 10
324.449066
 20
491.198395
 10
324.501221
 20
490.799957
 10
324.653656
 20
490.441833
 10
324.89267
 20
490.164307
 10
325.229156
 20
489.984375
  0
LWPOLYLINE
  5
DA
330
48
100
AcDbEntity
  8
0
  6
Continuous
 62
     0
370
    30
100
AcDbPolyline
 90
        5
 70
     0
 43
0.0
 10
325.229095
 20
497.712402
 10
324.919373
 20
497.553772
 10
324.673035
 20
497.285522
 10
324.511627
 20
496.933746
 10
324.449066
 20
496.498413
  0
LWPOLYLINE
  5
DB
330
48
100
AcDbEntity
  8
0
  6
Continuous
 62
     0
370
    30
100
AcDbPolyline
 90
        5
 70
     0
 43
0.0
 10
324.449066
 20
496.498413
 10
324.501221
 20
496.099976
 10
324.653656
 20
495.741821
 10
324.89267
 20
495.464325
 10
325.229156
 20
495.284363
  0
LWPOLYLINE
  5
DC
330
48
100
AcDbEntity
  8
0
  6
Continuous
 62
     0
370
    30
100
AcDbPolyline
 90
        5
 70
     0
 43
0.0
 10
325.229095
 20
503.012421
 10
324.919373
 20
502.85376
 10
324.673035
 20
502.58551
 10
324.511627
 20
502.233734
 10
324.449066
 20
501.798401
  0
LWPOLYLINE
  5
DD
330
48
100
AcDbEntity
  8
0
  6
Continuous
 62
     0
370
    30
100
AcDbPolyline
 90
        5
 70
     0
 43
0.0
 10
324.449066
 20
501.798401
 10
324.501221
 20
501.399963
 10
324.653656
 20
501.04184
 10
324.89267
 20
500.764313
 10
325.229156
 20
500.584381
  0
LWPOLYLINE
  5
DE
330
48
100
AcDbEntity
  8
0
  6
Continuous
 62
     0
370
    30
100
AcDbPolyline
 90
        5
 70
     0
 43
0.0
 10
325.229095
 20
508.312408
 10
324.919373
 20
508.153748
 10
324.673035
 20
507.885529
 10
324.511627
 20
507.533722
 10
324.449066
 20
507.098419
  0
LWPOLYLINE
  5
DF
330
48
100
AcDbEntity
  8
0
  6
Continuous
 62
     0
370
    30
100
AcDbPolyline
 90
        5
 70
     0
 43
0.0
 10
324.449066
 20
507.098419
 10
324.501221
 20
506.699951
 10
324.653656
 20
506.341827
 10
324.89267
 20
506.064331
 10
325.229156
 20
505.884369
  0
LWPOLYLINE
  5
E0
330
48
100
AcDbEntity
  8
0
  6
Continuous
 62
     0
370
    30
100
AcDbPolyline
 90
        5
 70
     0
 43
0.0
 10
325.229095
 20
513.612427
 10
324.919373
 20
513.453735
 10
324.673035
 20
513.185547
 10
324.511627
 20
512.83374
 10
324.449066
 20
512.398438
  0
LWPOLYLINE
  5
E1
330
48
100
AcDbEntity
  8
0
  6
Continuous
 62
     0
370
    30
100
AcDbPolyline
 90
        5
 70
     0
 43
0.0
 10
324.449066
 20
512.398438
 10
324.501221
 20
511.999969
 10
324.653656
 20
511.641815
 10
324.89267
 20
511.364319
 10
325.229156
 20
511.184387
  0
LWPOLYLINE
  5
E2
330
48
100
AcDbEntity
  8
0
  6
Continuous
 62
     0
370
    30
100
AcDbPolyline
 90
        5
 70
     0
 43
0.0
 10
337.540161
 20
459.398376
 10
337.483551
 20
459.807129
 10
337.318451
 20
460.172058
 10
337.060791
 20
460.450317
 10
336.712189
 20
460.619446
  0
LWPOLYLINE
  5
E3
330
48
100
AcDbEntity
  8
0
  6
Continuous
 62
     0
370
    30
100
AcDbPolyline
 90
        5
 70
     0
 43
0.0
 10
336.712067
 20
458.177338
 10
337.041595
 20
458.332336
 10
337.304535
 20
458.604004
 10
337.476105
 20
458.964447
 10
337.540161
 20
459.398376
  0
LWPOLYLINE
  5
E4
330
48
100
AcDbEntity
  8
0
  6
Continuous
 62
     0
370
    30
100
AcDbPolyline
 90
        5
 70
     0
 43
0.0
 10
337.540161
 20
464.698395
 10
337.483551
 20
465.107117
 10
337.318451
 20
465.472046
 10
337.060791
 20
465.750305
 10
336.712189
 20
465.919434
  0
LWPOLYLINE
  5
E5
330
48
100
AcDbEntity
  8
0
  6
Continuous
 62
     0
370
    30
100
AcDbPolyline
 90
        5
 70
     0
 43
0.0
 10
336.712067
 20
463.477325
 10
337.041595
 20
463.632324
 10
337.304535
 20
463.903992
 10
337.476105
 20
464.264465
 10
337.540161
 20
464.698395
  0
LWPOLYLINE
  5
E6
330
48
100
AcDbEntity
  8
0
  6
Continuous
 62
     0
370
    30
100
AcDbPolyline
 90
        5
 70
     0
 43
0.0
 10
337.540161
 20
469.998383
 10
337.483551
 20
470.407104
 10
337.318451
 20
470.772034
 10
337.060791
 20
471.050323
 10
336.712189
 20
471.219452
  0
LWPOLYLINE
  5
E7
330
48
100
AcDbEntity
  8
0
  6
Continuous
 62
     0
370
    30
100
AcDbPolyline
 90
        5
 70
     0
 43
0.0
 10
336.712067
 20
468.777344
 10
337.041595
 20
468.932343
 10
337.304535
 20
469.20401
 10
337.476105
 20
469.564453
 10
337.540161
 20
469.998383
  0
LWPOLYLINE
  5
E8
330
48
100
AcDbEntity
  8
0
  6
Continuous
 62
     0
370
    30
100
AcDbPolyline
 90
        5
 70
     0
 43
0.0
 10
337.540161
 20
475.29837
 10
337.483551
 20
475.707123
 10
337.318451
 20
476.072052
 10
337.060791
 20
476.350311
 10
336.712189
 20
476.51944
  0
LWPOLYLINE
  5
E9
330
48
100
AcDbEntity
  8
0
  6
Continuous
 62
     0
370
    30
100
AcDbPolyline
 90
        5
 70
     0
 43
0.0
 10
336.712067
 20
474.077332
 10
337.041595
 20
474.23233
 10
337.304535
 20
474.503998
 10
337.476105
 20
474.864441
 10
337.540161
 20
475.29837
  0
LWPOLYLINE
  5
EA
330
48
100
AcDbEntity
  8
0
  6
Continuous
 62
     0
370
    30
100
AcDbPolyline
 90
        5
 70
     0
 43
0.0
 10
337.540161
 20
480.598389
 10
337.483551
 20
481.007111
 10
337.318451
 20
481.37204
 10
337.060791
 20
481.650299
 10
336.712189
 20
481.819458
  0
LWPOLYLINE
  5
EB
330
48
100
AcDbEntity
  8
0
  6
Continuous
 62
     0
370
    30
100
AcDbPolyline
 90
        5
 70
     0
 43
0.0
 10
336.712067
 20
479.377319
 10
337.041595
 20
479.532318
 10
337.304535
 20
479.804016
 10
337.476105
 20
480.164459
 10
337.540161
 20
480.598389
  0
LWPOLYLINE
  5
EC
330
48
100
AcDbEntity
  8
0
  6
Continuous
 62
     0
370
    30
100
AcDbPolyline
 90
        5
 70
     0
 43
0.0
 10
337.540161
 20
485.898376
 10
337.483551
 20
486.307129
 10
337.318451
 20
486.672058
 10
337.060791
 20
486.950317
 10
336.712189
 20
487.119446
  0
LWPOLYLINE
  5
ED
330
48
100
AcDbEntity
  8
0
  6
Continuous
 62
     0
370
    30
100
AcDbPolyline
 90
        5
 70
     0
 43
0.0
 10
336.712067
 20
484.677338
 10
337.041595
 20
484.832336
 10
337.304535
 20
485.104004
 10
337.476105
 20
485.464447
 10
337.540161
 20
485.898376
  0
LWPOLYLINE
  5
EE
330
48
100
AcDbEntity
  8
0
  6
Continuous
 62
     0
370
    30
100
AcDbPolyline
 90
        5
 70
     0
 43
0.0
 10
337.540161
 20
491.198395
 10
337.483551
 20
491.607117
 10
337.318451
 20
491.972046
 10
337.060791
 20
492.250305
 10
336.712189
 20
492.419434
  0
LWPOLYLINE
  5
EF
330
48
100
AcDbEntity
  8
0
  6
Continuous
 62
     0
370
    30
100
AcDbPolyline
 90
        5
 70
     0
 43
0.0
 10
336.712067
 20
489.977325
 10
337.041595
 20
490.132324
 10
337.304535
 20
490.403992
 10
337.476105
 20
490.764465
 10
337.540161
 20
491.198395
  0
LWPOLYLINE
  5
F0
330
48
100
AcDbEntity
  8
0
  6
Continuous
 62
     0
370
    30
100
AcDbPolyline
 90
        5
 70
     0
 43
0.0
 10
337.540161
 20
496.498383
 10
337.483551
 20
496.907104
 10
337.318451
 20
497.272034
 10
337.060791
 20
497.550323
 10
336.712189
 20
497.719452
  0
LWPOLYLINE
  5
F1
330
48
100
AcDbEntity
  8
0
  6
Continuous
 62
     0
370
    30
100
AcDbPolyline
 90
        5
 70
     0
 43
0.0
 10
336.712067
 20
495.277344
 10
337.041595
 20
495.432343
 10
337.304535
 20
495.70401
 10
337.476105
 20
496.064453
 10
337.540161
 20
496.498383
  0
LWPOLYLINE
  5
F2
330
48
100
AcDbEntity
  8
0
  6
Continuous
 62
     0
370
    30
100
AcDbPolyline
 90
        5
 70
     0
 43
0.0
 10
337.540161
 20
501.79837
 10
337.483551
 20
502.207123
 10
337.318451
 20
502.572052
 10
337.060791
 20
502.850311
 10
336.712189
 20
503.01944
  0
LWPOLYLINE
  5
F3
330
48
100
AcDbEntity
  8
0
  6
Continuous
 62
     0
370
    30
100
AcDbPolyline
 90
        5
 70
     0
 43
0.0
 10
336.712067
 20
500.577332
 10
337.041595
 20
500.73233
 10
337.304535
 20
501.003998
 10
337.476105
 20
501.364441
 10
337.540161
 20
501.79837
  0
LWPOLYLINE
  5
F4
330
48
100
AcDbEntity
  8
0
  6
Continuous
 62
     0
370
    30
100
AcDbPolyline
 90
        5
 70
     0
 43
0.0
 10
337.540161
 20
507.098389
 10
337.483551
 20
507.507111
 10
337.318451
 20
507.87204
 10
337.060791
 20
508.150299
 10
336.712189
 20
508.319458
  0
LWPOLYLINE
  5
F5
330
48
100
AcDbEntity
  8
0
  6
Continuous
 62
     0
370
    30
100
AcDbPolyline
 90
        5
 70
     0
 43
0.0
 10
336.712067
 20
505.877319
 10
337.041595
 20
506.032318
 10
337.304535
 20
506.304016
 10
337.476105
 20
506.664459
 10
337.540161
 20
507.098389
  0
LWPOLYLINE
  5
F6
330
48
100
AcDbEntity
  8
0
  6
Continuous
 62
     0
370
    30
100
AcDbPolyline
 90
        5
 70
     0
 43
0.0
 10
337.540161
 20
512.398376
 10
337.483551
 20
512.807129
 10
337.318451
 20
513.172058
 10
337.060791
 20
513.450317
 10
336.712189
 20
513.619446
  0
LWPOLYLINE
  5
F7
330
48
100
AcDbEntity
  8
0
  6
Continuous
 62
     0
370
    30
100
AcDbPolyline
 90
        5
 70
     0
 43
0.0
 10
336.712067
 20
511.177338
 10
337.041595
 20
511.332336
 10
337.304535
 20
511.604004
 10
337.476105
 20
511.964447
 10
337.540161
 20
512.398376
  0
LWPOLYLINE
  5
F8
330
48
100
AcDbEntity
  8
0
  6
Continuous
 62
     0
370
    30
100
AcDbPolyline
 90
        6
 70
     0
 43
0.0
 10
327.970428
 20
463.139618
 10
327.654938
 20
463.052948
 10
327.376099
 20
462.880066
 10
327.1539
 20
462.633911
 10
327.003082
 20
462.331421
 10
326.931
 20
461.898407
  0
LWPOLYLINE
  5
F9
330
48
100
AcDbEntity
  8
0
  6
Continuous
 62
     0
370
    30
100
AcDbPolyline
 90
        6
 70
     0
 43
0.0
 10
326.931
 20
461.898407
 10
326.974487
 20
461.560211
 10
327.102417
 20
461.2453
 10
327.305328
 20
460.981018
 10
327.569641
 20
460.785492
 10
327.970367
 20
460.657196
  0
LWPOLYLINE
  5
FA
330
48
100
AcDbEntity
  8
0
  6
Continuous
 62
     0
370
    30
100
AcDbPolyline
 90
        6
 70
     0
 43
0.0
 10
327.970428
 20
468.455933
 10
327.654938
 20
468.369263
 10
327.376099
 20
468.196381
 10
327.1539
 20
467.950226
 10
327.003082
 20
467.647705
 10
326.931
 20
467.214722
  0
LWPOLYLINE
  5
FB
330
48
100
AcDbEntity
  8
0
  6
Continuous
 62
     0
370
    30
100
AcDbPolyline
 90
        6
 70
     0
 43
0.0
 10
326.931
 20
467.214722
 10
326.974487
 20
466.876526
 10
327.102417
 20
466.561615
 10
327.305328
 20
466.297333
 10
327.569641
 20
466.101807
 10
327.970367
 20
465.973511
  0
LWPOLYLINE
  5
FC
330
48
100
AcDbEntity
  8
0
  6
Continuous
 62
     0
370
    30
100
AcDbPolyline
 90
        6
 70
     0
 43
0.0
 10
327.970428
 20
473.772247
 10
327.654938
 20
473.685547
 10
327.376099
 20
473.512695
 10
327.1539
 20
473.266541
 10
327.003082
 20
472.96402
 10
326.931
 20
472.531006
  0
LWPOLYLINE
  5
FD
330
48
100
AcDbEntity
  8
0
  6
Continuous
 62
     0
370
    30
100
AcDbPolyline
 90
        6
 70
     0
 43
0.0
 10
326.931
 20
472.531006
 10
326.974487
 20
472.19281
 10
327.102417
 20
471.87793
 10
327.305328
 20
471.613647
 10
327.569641
 20
471.418121
 10
327.970367
 20
471.289795
  0
LWPOLYLINE
  5
FE
330
48
100
AcDbEntity
  8
0
  6
Continuous
 62
     0
370
    30
100
AcDbPolyline
 90
        6
 70
     0
 43
0.0
 10
327.970428
 20
479.088562
 10
327.654938
 20
479.001862
 10
327.376099
 20
478.82901
 10
327.1539
 20
478.582855
 10
327.003082
 20
478.280334
 10
326.931
 20
477.847321
  0
LWPOLYLINE
  5
FF
330
48
100
AcDbEntity
  8
0
  6
Continuous
 62
     0
370
    30
100
AcDbPolyline
 90
        6
 70
     0
 43
0.0
 10
326.931
 20
477.847321
 10
326.974487
 20
477.509125
 10
327.102417
 20
477.194214
 10
327.305328
 20
476.929932
 10
327.569641
 20
476.734406
 10
327.970367
 20
476.60611
  0
LWPOLYLINE
  5
100
330
48
100
AcDbEntity
  8
0
  6
Continuous
 62
     0
370
    30
100
AcDbPolyline
 90
        6
 70
     0
 43
0.0
 10
327.970428
 20
484.404846
 10
327.654938
 20
484.318176
 10
327.376099
 20
484.145294
 10
327.1539
 20
483.899139
 10
327.003082
 20
483.596649
 10
326.931
 20
483.163635
  0
LWPOLYLINE
  5
101
330
48
100
AcDbEntity
  8
0
  6
Continuous
 62
     0
370
    30
100
AcDbPolyline
 90
        6
 70
     0
 43
0.0
 10
326.931
 20
483.163635
 10
326.974487
 20
482.825439
 10
327.102417
 20
482.510529
 10
327.305328
 20
482.246246
 10
327.569641
 20
482.05072
 10
327.970367
 20
481.922424
  0
LWPOLYLINE
  5
102
330
48
100
AcDbEntity
  8
0
  6
Continuous
 62
     0
370
    30
100
AcDbPolyline
 90
        6
 70
     0
 43
0.0
 10
327.970428
 20
489.721161
 10
327.654938
 20
489.634491
 10
327.376099
 20
489.461609
 10
327.1539
 20
489.215454
 10
327.003082
 20
488.912933
 10
326.931
 20
488.47995
  0
LWPOLYLINE
  5
103
330
48
100
AcDbEntity
  8
0
  6
Continuous
 62
     0
370
    30
100
AcDbPolyline
 90
        6
 70
     0
 43
0.0
 10
326.931
 20
488.47995
 10
326.974487
 20
488.141754
 10
327.102417
 20
487.826843
 10
327.305328
 20
487.562561
 10
327.569641
 20
487.367035
 10
327.970367
 20
487.238739
  0
LWPOLYLINE
  5
104
330
48
100
AcDbEntity
  8
0
  6
Continuous
 62
     0
370
    30
100
AcDbPolyline
 90
        6
 70
     0
 43
0.0
 10
327.970428
 20
495.037476
 10
327.654938
 20
494.950775
 10
327.376099
 20
494.777924
 10
327.1539
 20
494.531769
 10
327.003082
 20
494.229248
 10
326.931
 20
493.796234
  0
LWPOLYLINE
  5
105
330
48
100
AcDbEntity
  8
0
  6
Continuous
 62
     0
370
    30
100
AcDbPolyline
 90
        6
 70
     0
 43
0.0
 10
326.931
 20
493.796234
 10
326.974487
 20
493.458038
 10
327.102417
 20
493.143158
 10
327.305328
 20
492.878845
 10
327.569641
 20
492.68335
 10
327.970367
 20
492.555023
  0
LWPOLYLINE
  5
106
330
48
100
AcDbEntity
  8
0
  6
Continuous
 62
     0
370
    30
100
AcDbPolyline
 90
        6
 70
     0
 43
0.0
 10
327.970428
 20
500.35379
 10
327.654938
 20
500.26709
 10
327.376099
 20
500.094238
 10
327.1539
 20
499.848083
 10
327.003082
 20
499.545563
 10
326.931
 20
499.112549
  0
LWPOLYLINE
  5
107
330
48
100
AcDbEntity
  8
0
  6
Continuous
 62
     0
370
    30
100
AcDbPolyline
 90
        6
 70
     0
 43
0.0
 10
326.931
 20
499.112549
 10
326.974487
 20
498.774353
 10
327.102417
 20
498.459442
 10
327.305328
 20
498.19516
 10
327.569641
 20
497.999634
 10
327.970367
 20
497.871338
  0
LWPOLYLINE
  5
108
330
48
100
AcDbEntity
  8
0
  6
Continuous
 62
     0
370
    30
100
AcDbPolyline
 90
        6
 70
     0
 43
0.0
 10
327.970428
 20
505.670074
 10
327.654938
 20
505.583405
 10
327.376099
 20
505.410522
 10
327.1539
 20
505.164368
 10
327.003082
 20
504.861877
 10
326.931
 20
504.428864
  0
LWPOLYLINE
  5
109
330
48
100
AcDbEntity
  8
0
  6
Continuous
 62
     0
370
    30
100
AcDbPolyline
 90
        6
 70
     0
 43
0.0
 10
326.931
 20
504.428864
 10
326.974487
 20
504.090668
 10
327.102417
 20
503.775757
 10
327.305328
 20
503.511475
 10
327.569641
 20
503.315948
 10
327.970367
 20
503.187653
  0
LWPOLYLINE
  5
10A
330
48
100
AcDbEntity
  8
0
  6
Continuous
 62
     0
370
    30
100
AcDbPolyline
 90
        6
 70
     0
 43
0.0
 10
327.970428
 20
510.986389
 10
327.654938
 20
510.899689
 10
327.376099
 20
510.726837
 10
327.1539
 20
510.480682
 10
327.003082
 20
510.178162
 10
326.931
 20
509.745178
  0
LWPOLYLINE
  5
10B
330
48
100
AcDbEntity
  8
0
  6
Continuous
 62
     0
370
    30
100
AcDbPolyline
 90
        6
 70
     0
 43
0.0
 10
326.931
 20
509.745178
 10
326.974487
 20
509.406952
 10
327.102417
 20
509.092072
 10
327.305328
 20
508.827789
 10
327.569641
 20
508.632263
 10
327.970367
 20
508.503937
  0
LWPOLYLINE
  5
10C
330
48
100
AcDbEntity
  8
0
  6
Continuous
 62
     0
370
    30
100
AcDbPolyline
 90
        6
 70
     0
 43
0.0
 10
335.001282
 20
461.898438
 10
334.955841
 20
462.241241
 10
334.822357
 20
462.559662
 10
334.611115
 20
462.82547
 10
334.336792
 20
463.019897
 10
333.928894
 20
463.141754
  0
LWPOLYLINE
  5
10D
330
48
100
AcDbEntity
  8
0
  6
Continuous
 62
     0
370
    30
100
AcDbPolyline
 90
        6
 70
     0
 43
0.0
 10
333.928833
 20
460.65506
 10
334.253906
 20
460.738373
 10
334.542145
 20
460.910767
 10
334.772125
 20
461.158936
 10
334.928009
 20
461.465302
 10
335.001282
 20
461.898438
  0
LWPOLYLINE
  5
10E
330
48
100
AcDbEntity
  8
0
  6
Continuous
 62
     0
370
    30
100
AcDbPolyline
 90
        6
 70
     0
 43
0.0
 10
335.001282
 20
467.214752
 10
334.955841
 20
467.557556
 10
334.822357
 20
467.875977
 10
334.611115
 20
468.141785
 10
334.336792
 20
468.336212
 10
333.928894
 20
468.458038
  0
LWPOLYLINE
  5
10F
330
48
100
AcDbEntity
  8
0
  6
Continuous
 62
     0
370
    30
100
AcDbPolyline
 90
        6
 70
     0
 43
0.0
 10
333.928833
 20
465.971375
 10
334.253906
 20
466.054688
 10
334.542145
 20
466.227081
 10
334.772125
 20
466.47525
 10
334.928009
 20
466.781586
 10
335.001282
 20
467.214752
  0
LWPOLYLINE
  5
110
330
48
100
AcDbEntity
  8
0
  6
Continuous
 62
     0
370
    30
100
AcDbPolyline
 90
        6
 70
     0
 43
0.0
 10
335.001282
 20
472.531036
 10
334.955841
 20
472.873871
 10
334.822357
 20
473.192291
 10
334.611115
 20
473.458099
 10
334.336792
 20
473.652496
 10
333.928894
 20
473.774353
  0
LWPOLYLINE
  5
111
330
48
100
AcDbEntity
  8
0
  6
Continuous
 62
     0
370
    30
100
AcDbPolyline
 90
        6
 70
     0
 43
0.0
 10
333.928833
 20
471.287689
 10
334.253906
 20
471.371002
 10
334.542145
 20
471.543396
 10
334.772125
 20
471.791534
 10
334.928009
 20
472.0979
 10
335.001282
 20
472.531036
  0
LWPOLYLINE
  5
112
330
48
100
AcDbEntity
  8
0
  6
Continuous
 62
     0
370
    30
100
AcDbPolyline
 90
        6
 70
     0
 43
0.0
 10
335.001282
 20
477.847351
 10
334.955841
 20
478.190186
 10
334.822357
 20
478.508575
 10
334.611115
 20
478.774384
 10
334.336792
 20
478.968811
 10
333.928894
 20
479.090668
  0
LWPOLYLINE
  5
113
330
48
100
AcDbEntity
  8
0
  6
Continuous
 62
     0
370
    30
100
AcDbPolyline
 90
        6
 70
     0
 43
0.0
 10
333.928833
 20
476.603973
 10
334.253906
 20
476.687317
 10
334.542145
 20
476.859711
 10
334.772125
 20
477.107849
 10
334.928009
 20
477.414215
 10
335.001282
 20
477.847351
  0
LWPOLYLINE
  5
114
330
48
100
AcDbEntity
  8
0
  6
Continuous
 62
     0
370
    30
100
AcDbPolyline
 90
        6
 70
     0
 43
0.0
 10
335.001282
 20
483.163666
 10
334.955841
 20
483.50647
 10
334.822357
 20
483.82489
 10
334.611115
 20
484.090698
 10
334.336792
 20
484.285126
 10
333.928894
 20
484.406982
  0
LWPOLYLINE
  5
115
330
48
100
AcDbEntity
  8
0
  6
Continuous
 62
     0
370
    30
100
AcDbPolyline
 90
        6
 70
     0
 43
0.0
 10
333.928833
 20
481.920288
 10
334.253906
 20
482.003601
 10
334.542145
 20
482.175995
 10
334.772125
 20
482.424164
 10
334.928009
 20
482.73053
 10
335.001282
 20
483.163666
  0
LWPOLYLINE
  5
116
330
48
100
AcDbEntity
  8
0
  6
Continuous
 62
     0
370
    30
100
AcDbPolyline
 90
        6
 70
     0
 43
0.0
 10
335.001282
 20
488.47995
 10
334.955841
 20
488.822784
 10
334.822357
 20
489.141205
 10
334.611115
 20
489.407013
 10
334.336792
 20
489.60144
 10
333.928894
 20
489.723267
  0
LWPOLYLINE
  5
117
330
48
100
AcDbEntity
  8
0
  6
Continuous
 62
     0
370
    30
100
AcDbPolyline
 90
        6
 70
     0
 43
0.0
 10
333.928833
 20
487.236603
 10
334.253906
 20
487.319916
 10
334.542145
 20
487.49231
 10
334.772125
 20
487.740448
 10
334.928009
 20
488.046814
 10
335.001282
 20
488.47995
  0
LWPOLYLINE
  5
118
330
48
100
AcDbEntity
  8
0
  6
Continuous
 62
     0
370
    30
100
AcDbPolyline
 90
        6
 70
     0
 43
0.0
 10
335.001282
 20
493.796265
 10
334.955841
 20
494.139099
 10
334.822357
 20
494.45752
 10
334.611115
 20
494.723328
 10
334.336792
 20
494.917725
 10
333.928894
 20
495.039581
  0
LWPOLYLINE
  5
119
330
48
100
AcDbEntity
  8
0
  6
Continuous
 62
     0
370
    30
100
AcDbPolyline
 90
        6
 70
     0
 43
0.0
 10
333.928833
 20
492.552917
 10
334.253906
 20
492.63623
 10
334.542145
 20
492.808624
 10
334.772125
 20
493.056763
 10
334.928009
 20
493.363129
 10
335.001282
 20
493.796265
  0
LWPOLYLINE
  5
11A
330
48
100
AcDbEntity
  8
0
  6
Continuous
 62
     0
370
    30
100
AcDbPolyline
 90
        6
 70
     0
 43
0.0
 10
335.001282
 20
499.112579
 10
334.955841
 20
499.455383
 10
334.822357
 20
499.773804
 10
334.611115
 20
500.039612
 10
334.336792
 20
500.234039
 10
333.928894
 20
500.355896
  0
LWPOLYLINE
  5
11B
330
48
100
AcDbEntity
  8
0
  6
Continuous
 62
     0
370
    30
100
AcDbPolyline
 90
        6
 70
     0
 43
0.0
 10
333.928833
 20
497.869202
 10
334.253906
 20
497.952545
 10
334.542145
 20
498.124939
 10
334.772125
 20
498.373077
 10
334.928009
 20
498.679443
 10
335.001282
 20
499.112579
  0
LWPOLYLINE
  5
11C
330
48
100
AcDbEntity
  8
0
  6
Continuous
 62
     0
370
    30
100
AcDbPolyline
 90
        6
 70
     0
 43
0.0
 10
335.001282
 20
504.428894
 10
334.955841
 20
504.771698
 10
334.822357
 20
505.090118
 10
334.611115
 20
505.355927
 10
334.336792
 20
505.550354
 10
333.928894
 20
505.67218
  0
LWPOLYLINE
  5
11D
330
48
100
AcDbEntity
  8
0
  6
Continuous
 62
     0
370
    30
100
AcDbPolyline
 90
        6
 70
     0
 43
0.0
 10
333.928833
 20
503.185516
 10
334.253906
 20
503.268829
 10
334.542145
 20
503.441223
 10
334.772125
 20
503.689392
 10
334.928009
 20
503.995758
 10
335.001282
 20
504.428894
  0
LWPOLYLINE
  5
11E
330
48
100
AcDbEntity
  8
0
  6
Continuous
 62
     0
370
    30
100
AcDbPolyline
 90
        6
 70
     0
 43
0.0
 10
335.001282
 20
509.745178
 10
334.955841
 20
510.088013
 10
334.822357
 20
510.406433
 10
334.611115
 20
510.672241
 10
334.336792
 20
510.866669
 10
333.928894
 20
510.988495
  0
LWPOLYLINE
  5
11F
330
48
100
AcDbEntity
  8
0
  6
Continuous
 62
     0
370
    30
100
AcDbPolyline
 90
        6
 70
     0
 43
0.0
 10
333.928833
 20
508.501831
 10
334.253906
 20
508.585144
 10
334.542145
 20
508.757538
 10
334.772125
 20
509.005676
 10
334.928009
 20
509.312042
 10
335.001282
 20
509.745178
  0
LINE
  5
120
330
48
100
AcDbEntity
  8
0
  6
Continuous
 62
     0
370
     0
100
AcDbLine
 10
343.172781
 20
525.898407
 30
0.0
 11
343.172781
 21
527.598407
 31
0.0
  0
LINE
  5
121
330
48
100
AcDbEntity
  8
0
  6
Continuous
 62
     0
370
    30
100
AcDbLine
 10
343.172781
 20
527.598407
 30
0.0
 11
319.175288
 21
527.598407
 31
0.0
  0
LINE
  5
122
330
48
100
AcDbEntity
  8
0
  6
Continuous
 62
     0
370
    30
100
AcDbLine
 10
343.175288
 20
527.598407
 30
0.0
 11
343.172781
 21
527.598407
 31
0.0
  0
LINE
  5
123
330
48
100
AcDbEntity
  8
0
  6
Continuous
 62
     0
370
     0
100
AcDbLine
 10
341.673095
 20
347.898407
 30
0.0
 11
341.673095
 21
339.898407
 31
0.0
  0
LWPOLYLINE
  5
124
330
48
100
AcDbEntity
  8
0
  6
Continuous
 62
     0
370
    30
100
AcDbPolyline
 90
       27
 70
     0
 43
0.0
 10
320.67749
 20
339.898407
 10
320.718475
 20
339.898407
 10
320.898071
 20
339.898407
 10
321.228271
 20
339.898407
 10
321.715485
 20
339.898407
 10
322.359344
 20
339.898407
 10
323.151825
 20
339.898407
 10
324.07724
 20
339.898407
 10
325.113281
 20
339.898407
 10
326.232697
 20
339.898407
 10
327.40567
 20
339.898407
 10
328.602173
 20
339.898407
 10
329.79422
 20
339.898407
 10
330.957489
 20
339.898407
 10
332.123138
 20
339.898407
 10
333.323425
 20
339.898407
 10
334.534454
 20
339.898407
 10
335.728546
 20
339.898407
 10
336.87561
 20
339.898407
 10
337.945465
 20
339.898407
 10
338.910187
 20
339.898407
 10
339.74649
 20
339.898407
 10
340.437531
 20
339.898407
 10
340.973999
 20
339.898407
 10
341.354279
 20
339.898407
 10
341.583618
 20
339.898407
 10
341.673096
 20
339.898407
  0
LINE
  5
125
330
48
100
AcDbEntity
  8
0
  6
Continuous
 62
     0
370
    30
100
AcDbLine
 10
320.675288
 20
347.898407
 30
0.0
 11
320.675288
 21
339.898407
 31
0.0
  0
LINE
  5
126
330
48
100
AcDbEntity
  8
0
  6
Continuous
 62
     0
370
    30
100
AcDbLine
 10
341.675288
 20
347.898407
 30
0.0
 11
341.675288
 21
339.898407
 31
0.0
  0
LINE
  5
127
330
48
100
AcDbEntity
  8
0
  6
Continuous
 62
     0
370
    30
100
AcDbLine
 10
343.175288
 20
527.598407
 30
0.0
 11
343.175288
 21
525.898407
 31
0.0
  0
LINE
  5
128
330
48
100
AcDbEntity
  8
0
  6
Continuous
 62
     0
370
    30
100
AcDbLine
 10
319.175288
 20
527.598407
 30
0.0
 11
319.175288
 21
525.898407
 31
0.0
  0
LINE
  5
129
330
48
100
AcDbEntity
  8
0
  6
Continuous
 62
     0
370
    30
100
AcDbLine
 10
319.175288
 20
347.898407
 30
0.0
 11
319.175288
 21
525.898407
 31
0.0
  0
LINE
  5
12A
330
48
100
AcDbEntity
  8
0
  6
Continuous
 62
     0
370
    30
100
AcDbLine
 10
343.175288
 20
347.898407
 30
0.0
 11
343.175288
 21
525.898407
 31
0.0
  0
ENDBLK
  5
12C
330
48
100
AcDbEntity
  8
0
100
AcDbBlockEnd
  0
BLOCK
  5
131
330
12E
100
AcDbEntity
  8
0
100
AcDbBlockBegin
  2
b
 70
     0
 10
292.425201
 20
118.046913
 30
0.0
  3
b
  1

  0
ARC
  5
12F
330
12E
100
AcDbEntity
  8
0
  6
Continuous
 62
     0
370
    30
100
AcDbCircle
 10
331.175288
 20
131.399087
 30
0.0
 40
12.0
100
AcDbArc
 50
178.828857
 51
358.828857
  0
ARC
  5
130
330
12E
100
AcDbEntity
  8
0
  6
Continuous
 62
     0
370
    30
100
AcDbCircle
 10
331.175288
 20
131.399087
 30
0.0
 40
12.0
100
AcDbArc
 50
358.828857
 51
178.828857
  0
ENDBLK
  5
132
330
12E
100
AcDbEntity
  8
0
100
AcDbBlockEnd
  0
BLOCK
  5
1C0
330
134
100
AcDbEntity
  8
0
100
AcDbBlockBegin
  2
c
 70
     0
 10
292.425201
 20
118.046913
 30
0.0
  3
c
  1

  0
LINE
  5
135
330
134
100
AcDbEntity
  8
0
  6
Continuous
 62
     0
370
     0
100
AcDbLine
 10
508.579449
 20
525.898392
 30
0.0
 11
496.824715
 21
525.898392
 31
0.0
  0
LINE
  5
136
330
134
100
AcDbEntity
  8
0
  6
Continuous
 62
     0
370
     0
100
AcDbLine
 10
520.824715
 20
525.898392
 30
0.0
 11
508.579449
 21
525.898392
 31
0.0
  0
LINE
  5
137
330
134
100
AcDbEntity
  8
0
  6
Continuous
 62
     0
370
    30
100
AcDbLine
 10
508.579449
 20
347.898392
 30
0.0
 11
520.824715
 21
347.898392
 31
0.0
  0
LINE
  5
138
330
134
100
AcDbEntity
  8
0
  6
Continuous
 62
     0
370
     0
100
AcDbLine
 10
496.824715
 20
350.098392
 30
0.0
 11
496.961686
 21
350.098392
 31
0.0
  0
LINE
  5
139
330
134
100
AcDbEntity
  8
0
  6
Continuous
 62
     0
370
     0
100
AcDbLine
 10
496.961686
 20
350.098392
 30
0.0
 11
496.961686
 21
347.898392
 31
0.0
  0
LINE
  5
13A
330
134
100
AcDbEntity
  8
0
  6
Continuous
 62
     0
370
    30
100
AcDbLine
 10
496.961686
 20
347.898392
 30
0.0
 11
508.579449
 21
347.898392
 31
0.0
  0
LWPOLYLINE
  5
13B
330
134
100
AcDbEntity
  8
0
  6
Continuous
 62
     0
370
    30
100
AcDbPolyline
 90
       18
 70
     0
 43
0.0
 10
520.731384
 20
459.398376
 10
520.734009
 20
459.627502
 10
520.741638
 20
459.849457
 10
520.753357
 20
460.055603
 10
520.767639
 20
460.239105
 10
520.782959
 20
460.394012
 10
520.797668
 20
460.514709
 10
520.81012
 20
460.597412
 10
520.819092
 20
460.641418
 10
520.823914
 20
460.642487
 10
520.824402
 20
460.602814
 10
520.820923
 20
460.520691
 10
520.814331
 20
460.402679
 10
520.805969
 20
460.249939
 10
520.797302
 20
460.067993
 10
520.789734
 20
459.862976
 10
520.784485
 20
459.641754
 10
520.782471
 20
459.398376
  0
LWPOLYLINE
  5
13C
330
134
100
AcDbEntity
  8
0
  6
Continuous
 62
     0
370
    30
100
AcDbPolyline
 90
       18
 70
     0
 43
0.0
 10
520.782471
 20
459.398376
 10
520.784241
 20
459.169312
 10
520.789307
 20
458.947357
 10
520.796753
 20
458.741089
 10
520.80542
 20
458.557587
 10
520.813843
 20
458.402863
 10
520.820557
 20
458.282166
 10
520.82428
 20
458.19931
 10
520.824097
 20
458.155426
 10
520.819519
 20
458.154266
 10
520.810791
 20
458.193909
 10
520.798584
 20
458.276062
 10
520.783936
 20
458.39386
 10
520.768616
 20
458.546509
 10
520.754211
 20
458.728394
 10
520.74231
 20
458.933319
 10
520.734375
 20
459.154449
 10
520.731384
 20
459.398376
  0
LWPOLYLINE
  5
13D
330
134
100
AcDbEntity
  8
0
  6
Continuous
 62
     0
370
    30
100
AcDbPolyline
 90
       18
 70
     0
 43
0.0
 10
520.731384
 20
464.698395
 10
520.734009
 20
464.92749
 10
520.741638
 20
465.149445
 10
520.753357
 20
465.355591
 10
520.767639
 20
465.539093
 10
520.782959
 20
465.694
 10
520.797668
 20
465.814728
 10
520.81012
 20
465.8974
 10
520.819092
 20
465.941437
 10
520.823914
 20
465.942474
 10
520.824402
 20
465.902802
 10
520.820923
 20
465.820679
 10
520.814331
 20
465.702667
 10
520.805969
 20
465.549957
 10
520.797302
 20
465.368011
 10
520.789734
 20
465.162964
 10
520.784485
 20
464.941772
 10
520.782471
 20
464.698364
  0
LWPOLYLINE
  5
13E
330
134
100
AcDbEntity
  8
0
  6
Continuous
 62
     0
370
    30
100
AcDbPolyline
 90
       18
 70
     0
 43
0.0
 10
520.782471
 20
464.698364
 10
520.784241
 20
464.469299
 10
520.789307
 20
464.247345
 10
520.796753
 20
464.041107
 10
520.80542
 20
463.857574
 10
520.813843
 20
463.702881
 10
520.820557
 20
463.582153
 10
520.82428
 20
463.499329
 10
520.824097
 20
463.455414
 10
520.819519
 20
463.454254
 10
520.810791
 20
463.493896
 10
520.798584
 20
463.57605
 10
520.783936
 20
463.693878
 10
520.768616
 20
463.846527
 10
520.754211
 20
464.028412
 10
520.74231
 20
464.233307
 10
520.734375
 20
464.454437
 10
520.731384
 20
464.698395
  0
LWPOLYLINE
  5
13F
330
134
100
AcDbEntity
  8
0
  6
Continuous
 62
     0
370
    30
100
AcDbPolyline
 90
       18
 70
     0
 43
0.0
 10
520.731384
 20
469.998383
 10
520.734009
 20
470.227509
 10
520.741638
 20
470.449463
 10
520.753357
 20
470.655579
 10
520.767639
 20
470.839111
 10
520.782959
 20
470.993988
 10
520.797668
 20
471.114716
 10
520.81012
 20
471.197418
 10
520.819092
 20
471.241425
 10
520.823914
 20
471.242493
 10
520.824402
 20
471.20282
 10
520.820923
 20
471.120697
 10
520.814331
 20
471.002655
 10
520.805969
 20
470.849945
 10
520.797302
 20
470.667999
 10
520.789734
 20
470.462982
 10
520.784485
 20
470.24176
 10
520.782471
 20
469.998383
  0
LWPOLYLINE
  5
140
330
134
100
AcDbEntity
  8
0
  6
Continuous
 62
     0
370
    30
100
AcDbPolyline
 90
       18
 70
     0
 43
0.0
 10
520.782471
 20
469.998383
 10
520.784241
 20
469.769318
 10
520.789307
 20
469.547363
 10
520.796753
 20
469.341095
 10
520.80542
 20
469.157593
 10
520.813843
 20
469.002869
 10
520.820557
 20
468.882172
 10
520.82428
 20
468.799316
 10
520.824097
 20
468.755402
 10
520.819519
 20
468.754242
 10
520.810791
 20
468.793915
 10
520.798584
 20
468.876038
 10
520.783936
 20
468.993866
 10
520.768616
 20
469.146515
 10
520.754211
 20
469.3284
 10
520.74231
 20
469.533325
 10
520.734375
 20
469.754456
 10
520.731384
 20
469.998383
  0
LWPOLYLINE
  5
141
330
134
100
AcDbEntity
  8
0
  6
Continuous
 62
     0
370
    30
100
AcDbPolyline
 90
       18
 70
     0
 43
0.0
 10
520.731384
 20
475.298401
 10
520.734009
 20
475.527496
 10
520.741638
 20
475.749451
 10
520.753357
 20
475.955597
 10
520.767639
 20
476.139099
 10
520.782959
 20
476.294006
 10
520.797668
 20
476.414703
 10
520.81012
 20
476.497406
 10
520.819092
 20
476.541412
 10
520.823914
 20
476.54248
 10
520.824402
 20
476.502808
 10
520.820923
 20
476.420685
 10
520.814331
 20
476.302673
 10
520.805969
 20
476.149933
 10
520.797302
 20
475.967987
 10
520.789734
 20
475.76297
 10
520.784485
 20
475.541748
 10
520.782471
 20
475.29837
  0
LWPOLYLINE
  5
142
330
134
100
AcDbEntity
  8
0
  6
Continuous
 62
     0
370
    30
100
AcDbPolyline
 90
       18
 70
     0
 43
0.0
 10
520.782471
 20
475.29837
 10
520.784241
 20
475.069305
 10
520.789307
 20
474.847351
 10
520.796753
 20
474.641113
 10
520.80542
 20
474.457581
 10
520.813843
 20
474.302887
 10
520.820557
 20
474.182159
 10
520.82428
 20
474.099304
 10
520.824097
 20
474.05542
 10
520.819519
 20
474.05426
 10
520.810791
 20
474.093903
 10
520.798584
 20
474.176056
 10
520.783936
 20
474.293854
 10
520.768616
 20
474.446533
 10
520.754211
 20
474.628418
 10
520.74231
 20
474.833313
 10
520.734375
 20
475.054443
 10
520.731384
 20
475.298401
  0
LWPOLYLINE
  5
143
330
134
100
AcDbEntity
  8
0
  6
Continuous
 62
     0
370
    30
100
AcDbPolyline
 90
       18
 70
     0
 43
0.0
 10
520.731384
 20
480.598389
 10
520.734009
 20
480.827515
 10
520.741638
 20
481.049469
 10
520.753357
 20
481.255585
 10
520.767639
 20
481.439117
 10
520.782959
 20
481.593994
 10
520.797668
 20
481.714722
 10
520.81012
 20
481.797394
 10
520.819092
 20
481.841431
 10
520.823914
 20
481.842499
 10
520.824402
 20
481.802826
 10
520.820923
 20
481.720673
 10
520.814331
 20
481.602661
 10
520.805969
 20
481.449951
 10
520.797302
 20
481.268005
 10
520.789734
 20
481.062988
 10
520.784485
 20
480.841766
 10
520.782471
 20
480.598358
  0
LWPOLYLINE
  5
144
330
134
100
AcDbEntity
  8
0
  6
Continuous
 62
     0
370
    30
100
AcDbPolyline
 90
       18
 70
     0
 43
0.0
 10
520.782471
 20
480.598358
 10
520.784241
 20
480.369324
 10
520.789307
 20
480.147369
 10
520.796753
 20
479.941101
 10
520.80542
 20
479.757568
 10
520.813843
 20
479.602875
 10
520.820557
 20
479.482178
 10
520.82428
 20
479.399323
 10
520.824097
 20
479.355408
 10
520.819519
 20
479.354248
 10
520.810791
 20
479.39389
 10
520.798584
 20
479.476044
 10
520.783936
 20
479.593872
 10
520.768616
 20
479.746521
 10
520.754211
 20
479.928406
 10
520.74231
 20
480.133301
 10
520.734375
 20
480.354462
 10
520.731384
 20
480.598389
  0
LWPOLYLINE
  5
145
330
134
100
AcDbEntity
  8
0
  6
Continuous
 62
     0
370
    30
100
AcDbPolyline
 90
       18
 70
     0
 43
0.0
 10
520.731384
 20
485.898407
 10
520.734009
 20
486.127502
 10
520.741638
 20
486.349457
 10
520.753357
 20
486.555603
 10
520.767639
 20
486.739105
 10
520.782959
 20
486.894012
 10
520.797668
 20
487.014709
 10
520.81012
 20
487.097412
 10
520.819092
 20
487.141418
 10
520.823914
 20
487.142487
 10
520.824402
 20
487.102814
 10
520.820923
 20
487.020691
 10
520.814331
 20
486.902679
 10
520.805969
 20
486.749939
 10
520.797302
 20
486.567993
 10
520.789734
 20
486.362976
 10
520.784485
 20
486.141754
 10
520.782471
 20
485.898376
  0
LWPOLYLINE
  5
146
330
134
100
AcDbEntity
  8
0
  6
Continuous
 62
     0
370
    30
100
AcDbPolyline
 90
       18
 70
     0
 43
0.0
 10
520.782471
 20
485.898376
 10
520.784241
 20
485.669312
 10
520.789307
 20
485.447357
 10
520.796753
 20
485.241089
 10
520.80542
 20
485.057587
 10
520.813843
 20
484.902863
 10
520.820557
 20
484.782166
 10
520.82428
 20
484.69931
 10
520.824097
 20
484.655426
 10
520.819519
 20
484.654266
 10
520.810791
 20
484.693909
 10
520.798584
 20
484.776062
 10
520.783936
 20
484.89386
 10
520.768616
 20
485.046509
 10
520.754211
 20
485.228394
 10
520.74231
 20
485.433319
 10
520.734375
 20
485.654449
 10
520.731384
 20
485.898407
  0
LWPOLYLINE
  5
147
330
134
100
AcDbEntity
  8
0
  6
Continuous
 62
     0
370
    30
100
AcDbPolyline
 90
       18
 70
     0
 43
0.0
 10
520.731384
 20
491.198395
 10
520.734009
 20
491.42749
 10
520.741638
 20
491.649445
 10
520.753357
 20
491.855591
 10
520.767639
 20
492.039093
 10
520.782959
 20
492.194
 10
520.797668
 20
492.314728
 10
520.81012
 20
492.3974
 10
520.819092
 20
492.441437
 10
520.823914
 20
492.442474
 10
520.824402
 20
492.402802
 10
520.820923
 20
492.320679
 10
520.814331
 20
492.202667
 10
520.805969
 20
492.049957
 10
520.797302
 20
491.868011
 10
520.789734
 20
491.662964
 10
520.784485
 20
491.441772
 10
520.782471
 20
491.198364
  0
LWPOLYLINE
  5
148
330
134
100
AcDbEntity
  8
0
  6
Continuous
 62
     0
370
    30
100
AcDbPolyline
 90
       18
 70
     0
 43
0.0
 10
520.782471
 20
491.198364
 10
520.784241
 20
490.969299
 10
520.789307
 20
490.747345
 10
520.796753
 20
490.541107
 10
520.80542
 20
490.357574
 10
520.813843
 20
490.202881
 10
520.820557
 20
490.082153
 10
520.82428
 20
489.999329
 10
520.824097
 20
489.955414
 10
520.819519
 20
489.954254
 10
520.810791
 20
489.993896
 10
520.798584
 20
490.07605
 10
520.783936
 20
490.193878
 10
520.768616
 20
490.346527
 10
520.754211
 20
490.528412
 10
520.74231
 20
490.733307
 10
520.734375
 20
490.954437
 10
520.731384
 20
491.198395
  0
LWPOLYLINE
  5
149
330
134
100
AcDbEntity
  8
0
  6
Continuous
 62
     0
370
    30
100
AcDbPolyline
 90
       18
 70
     0
 43
0.0
 10
520.731384
 20
496.498383
 10
520.734009
 20
496.727509
 10
520.741638
 20
496.949463
 10
520.753357
 20
497.155579
 10
520.767639
 20
497.339111
 10
520.782959
 20
497.493988
 10
520.797668
 20
497.614716
 10
520.81012
 20
497.697418
 10
520.819092
 20
497.741425
 10
520.823914
 20
497.742493
 10
520.824402
 20
497.70282
 10
520.820923
 20
497.620697
 10
520.814331
 20
497.502655
 10
520.805969
 20
497.349945
 10
520.797302
 20
497.167999
 10
520.789734
 20
496.962982
 10
520.784485
 20
496.74176
 10
520.782471
 20
496.498383
  0
LWPOLYLINE
  5
14A
330
134
100
AcDbEntity
  8
0
  6
Continuous
 62
     0
370
    30
100
AcDbPolyline
 90
       18
 70
     0
 43
0.0
 10
520.782471
 20
496.498383
 10
520.784241
 20
496.269318
 10
520.789307
 20
496.047363
 10
520.796753
 20
495.841095
 10
520.80542
 20
495.657593
 10
520.813843
 20
495.502869
 10
520.820557
 20
495.382172
 10
520.82428
 20
495.299316
 10
520.824097
 20
495.255402
 10
520.819519
 20
495.254242
 10
520.810791
 20
495.293915
 10
520.798584
 20
495.376038
 10
520.783936
 20
495.493866
 10
520.768616
 20
495.646515
 10
520.754211
 20
495.8284
 10
520.74231
 20
496.033325
 10
520.734375
 20
496.254456
 10
520.731384
 20
496.498383
  0
LWPOLYLINE
  5
14B
330
134
100
AcDbEntity
  8
0
  6
Continuous
 62
     0
370
    30
100
AcDbPolyline
 90
       18
 70
     0
 43
0.0
 10
520.731384
 20
501.798401
 10
520.734009
 20
502.027496
 10
520.741638
 20
502.249451
 10
520.753357
 20
502.455597
 10
520.767639
 20
502.639099
 10
520.782959
 20
502.794006
 10
520.797668
 20
502.914703
 10
520.81012
 20
502.997406
 10
520.819092
 20
503.041412
 10
520.823914
 20
503.04248
 10
520.824402
 20
503.002808
 10
520.820923
 20
502.920685
 10
520.814331
 20
502.802673
 10
520.805969
 20
502.649933
 10
520.797302
 20
502.467987
 10
520.789734
 20
502.26297
 10
520.784485
 20
502.041748
 10
520.782471
 20
501.79837
  0
LWPOLYLINE
  5
14C
330
134
100
AcDbEntity
  8
0
  6
Continuous
 62
     0
370
    30
100
AcDbPolyline
 90
       18
 70
     0
 43
0.0
 10
520.782471
 20
501.79837
 10
520.784241
 20
501.569305
 10
520.789307
 20
501.347351
 10
520.796753
 20
501.141113
 10
520.80542
 20
500.957581
 10
520.813843
 20
500.802887
 10
520.820557
 20
500.682159
 10
520.82428
 20
500.599304
 10
520.824097
 20
500.55542
 10
520.819519
 20
500.55426
 10
520.810791
 20
500.593903
 10
520.798584
 20
500.676056
 10
520.783936
 20
500.793854
 10
520.768616
 20
500.946533
 10
520.754211
 20
501.128418
 10
520.74231
 20
501.333313
 10
520.734375
 20
501.554443
 10
520.731384
 20
501.798401
  0
LWPOLYLINE
  5
14D
330
134
100
AcDbEntity
  8
0
  6
Continuous
 62
     0
370
    30
100
AcDbPolyline
 90
       18
 70
     0
 43
0.0
 10
520.731384
 20
507.098389
 10
520.734009
 20
507.327515
 10
520.741638
 20
507.549469
 10
520.753357
 20
507.755585
 10
520.767639
 20
507.939117
 10
520.782959
 20
508.093994
 10
520.797668
 20
508.214722
 10
520.81012
 20
508.297394
 10
520.819092
 20
508.341431
 10
520.823914
 20
508.342499
 10
520.824402
 20
508.302826
 10
520.820923
 20
508.220673
 10
520.814331
 20
508.102661
 10
520.805969
 20
507.949951
 10
520.797302
 20
507.768005
 10
520.789734
 20
507.562988
 10
520.784485
 20
507.341766
 10
520.782471
 20
507.098358
  0
LWPOLYLINE
  5
14E
330
134
100
AcDbEntity
  8
0
  6
Continuous
 62
     0
370
    30
100
AcDbPolyline
 90
       18
 70
     0
 43
0.0
 10
520.782471
 20
507.098358
 10
520.784241
 20
506.869324
 10
520.789307
 20
506.647369
 10
520.796753
 20
506.441101
 10
520.80542
 20
506.257568
 10
520.813843
 20
506.102875
 10
520.820557
 20
505.982178
 10
520.82428
 20
505.899323
 10
520.824097
 20
505.855408
 10
520.819519
 20
505.854248
 10
520.810791
 20
505.89389
 10
520.798584
 20
505.976044
 10
520.783936
 20
506.093872
 10
520.768616
 20
506.246521
 10
520.754211
 20
506.428406
 10
520.74231
 20
506.633301
 10
520.734375
 20
506.854462
 10
520.731384
 20
507.098389
  0
LWPOLYLINE
  5
14F
330
134
100
AcDbEntity
  8
0
  6
Continuous
 62
     0
370
    30
100
AcDbPolyline
 90
       18
 70
     0
 43
0.0
 10
520.731384
 20
512.398376
 10
520.734009
 20
512.627502
 10
520.741638
 20
512.849426
 10
520.753357
 20
513.055603
 10
520.767639
 20
513.239136
 10
520.782959
 20
513.393982
 10
520.797668
 20
513.514709
 10
520.81012
 20
513.597412
 10
520.819092
 20
513.641418
 10
520.823914
 20
513.642456
 10
520.824402
 20
513.602783
 10
520.820923
 20
513.520691
 10
520.814331
 20
513.402649
 10
520.805969
 20
513.249939
 10
520.797302
 20
513.067993
 10
520.789734
 20
512.862976
 10
520.784485
 20
512.641785
 10
520.782471
 20
512.398376
  0
LWPOLYLINE
  5
150
330
134
100
AcDbEntity
  8
0
  6
Continuous
 62
     0
370
    30
100
AcDbPolyline
 90
       18
 70
     0
 43
0.0
 10
520.782471
 20
512.398376
 10
520.784241
 20
512.169312
 10
520.789307
 20
511.947357
 10
520.796753
 20
511.741089
 10
520.80542
 20
511.557587
 10
520.813843
 20
511.402863
 10
520.820557
 20
511.282166
 10
520.82428
 20
511.19931
 10
520.824097
 20
511.155426
 10
520.819519
 20
511.154266
 10
520.810791
 20
511.193909
 10
520.798584
 20
511.276062
 10
520.783936
 20
511.39386
 10
520.768616
 20
511.546509
 10
520.754211
 20
511.728394
 10
520.74231
 20
511.933319
 10
520.734375
 20
512.15448
 10
520.731384
 20
512.398376
  0
LWPOLYLINE
  5
151
330
134
100
AcDbEntity
  8
0
  6
Continuous
 62
     0
370
    30
100
AcDbPolyline
 90
       18
 70
     0
 43
0.0
 10
518.389343
 20
459.398376
 10
518.402222
 20
459.627625
 10
518.440369
 20
459.849701
 10
518.501892
 20
460.055939
 10
518.583374
 20
460.239502
 10
518.681213
 20
460.394409
 10
518.791382
 20
460.515045
 10
518.908936
 20
460.597748
 10
519.029175
 20
460.64151
 10
519.148071
 20
460.642395
 10
519.261475
 20
460.602325
 10
519.365479
 20
460.52005
 10
519.45813
 20
460.401672
 10
519.536499
 20
460.248627
 10
519.599121
 20
460.066376
 10
519.64502
 20
459.861053
 10
519.673218
 20
459.639587
 10
519.68335
 20
459.398376
  0
LWPOLYLINE
  5
152
330
134
100
AcDbEntity
  8
0
  6
Continuous
 62
     0
370
    30
100
AcDbPolyline
 90
       18
 70
     0
 43
0.0
 10
519.68335
 20
459.398376
 10
519.674194
 20
459.169189
 10
519.646912
 20
458.947083
 10
519.60199
 20
458.740753
 10
519.540222
 20
458.557159
 10
519.462646
 20
458.402466
 10
519.37085
 20
458.28183
 10
519.267151
 20
458.198975
 10
519.154358
 20
458.155334
 10
519.035706
 20
458.154327
 10
518.915222
 20
458.194397
 10
518.797729
 20
458.276703
 10
518.68689
 20
458.394867
 10
518.588196
 20
458.547852
 10
518.505737
 20
458.730042
 10
518.443176
 20
458.935272
 10
518.403748
 20
459.156647
 10
518.389343
 20
459.398376
  0
LWPOLYLINE
  5
153
330
134
100
AcDbEntity
  8
0
  6
Continuous
 62
     0
370
    30
100
AcDbPolyline
 90
       18
 70
     0
 43
0.0
 10
518.389343
 20
464.698395
 10
518.402222
 20
464.927643
 10
518.440369
 20
465.149719
 10
518.501892
 20
465.355927
 10
518.583374
 20
465.53952
 10
518.681213
 20
465.694427
 10
518.791382
 20
465.815063
 10
518.908936
 20
465.897766
 10
519.029175
 20
465.941528
 10
519.148071
 20
465.942383
 10
519.261475
 20
465.902313
 10
519.365479
 20
465.820038
 10
519.45813
 20
465.701691
 10
519.536499
 20
465.548645
 10
519.599121
 20
465.366364
 10
519.64502
 20
465.161041
 10
519.673218
 20
464.939575
 10
519.68335
 20
464.698364
  0
LWPOLYLINE
  5
154
330
134
100
AcDbEntity
  8
0
  6
Continuous
 62
     0
370
    30
100
AcDbPolyline
 90
       18
 70
     0
 43
0.0
 10
519.68335
 20
464.698364
 10
519.674194
 20
464.469177
 10
519.646912
 20
464.247101
 10
519.60199
 20
464.040741
 10
519.540222
 20
463.857178
 10
519.462646
 20
463.702454
 10
519.37085
 20
463.581818
 10
519.267151
 20
463.498962
 10
519.154358
 20
463.455322
 10
519.035706
 20
463.454346
 10
518.915222
 20
463.494415
 10
518.797729
 20
463.576691
 10
518.68689
 20
463.694855
 10
518.588196
 20
463.847839
 10
518.505737
 20
464.03006
 10
518.443176
 20
464.23526
 10
518.403748
 20
464.456635
 10
518.389343
 20
464.698395
  0
LWPOLYLINE
  5
155
330
134
100
AcDbEntity
  8
0
  6
Continuous
 62
     0
370
    30
100
AcDbPolyline
 90
       18
 70
     0
 43
0.0
 10
518.389343
 20
469.998383
 10
518.402222
 20
470.227631
 10
518.440369
 20
470.449707
 10
518.501892
 20
470.655945
 10
518.583374
 20
470.839508
 10
518.681213
 20
470.994415
 10
518.791382
 20
471.115051
 10
518.908936
 20
471.197754
 10
519.029175
 20
471.241516
 10
519.148071
 20
471.242401
 10
519.261475
 20
471.202301
 10
519.365479
 20
471.120056
 10
519.45813
 20
471.001678
 10
519.536499
 20
470.848633
 10
519.599121
 20
470.666351
 10
519.64502
 20
470.46106
 10
519.673218
 20
470.239594
 10
519.68335
 20
469.998383
  0
LWPOLYLINE
  5
156
330
134
100
AcDbEntity
  8
0
  6
Continuous
 62
     0
370
    30
100
AcDbPolyline
 90
       18
 70
     0
 43
0.0
 10
519.68335
 20
469.998383
 10
519.674194
 20
469.769165
 10
519.646912
 20
469.547089
 10
519.60199
 20
469.340759
 10
519.540222
 20
469.157166
 10
519.462646
 20
469.002441
 10
519.37085
 20
468.881836
 10
519.267151
 20
468.798981
 10
519.154358
 20
468.75531
 10
519.035706
 20
468.754333
 10
518.915222
 20
468.794403
 10
518.797729
 20
468.876678
 10
518.68689
 20
468.994873
 10
518.588196
 20
469.147827
 10
518.505737
 20
469.330048
 10
518.443176
 20
469.535248
 10
518.403748
 20
469.756653
 10
518.389343
 20
469.998383
  0
LWPOLYLINE
  5
157
330
134
100
AcDbEntity
  8
0
  6
Continuous
 62
     0
370
    30
100
AcDbPolyline
 90
       18
 70
     0
 43
0.0
 10
518.389343
 20
475.298401
 10
518.402222
 20
475.527649
 10
518.440369
 20
475.749725
 10
518.501892
 20
475.955933
 10
518.583374
 20
476.139526
 10
518.681213
 20
476.294403
 10
518.791382
 20
476.415039
 10
518.908936
 20
476.497742
 10
519.029175
 20
476.541504
 10
519.148071
 20
476.542389
 10
519.261475
 20
476.502319
 10
519.365479
 20
476.420044
 10
519.45813
 20
476.301697
 10
519.536499
 20
476.148621
 10
519.599121
 20
475.96637
 10
519.64502
 20
475.761047
 10
519.673218
 20
475.539581
 10
519.68335
 20
475.29837
  0
LWPOLYLINE
  5
158
330
134
100
AcDbEntity
  8
0
  6
Continuous
 62
     0
370
    30
100
AcDbPolyline
 90
       18
 70
     0
 43
0.0
 10
519.68335
 20
475.29837
 10
519.674194
 20
475.069183
 10
519.646912
 20
474.847107
 10
519.60199
 20
474.640747
 10
519.540222
 20
474.457184
 10
519.462646
 20
474.30246
 10
519.37085
 20
474.181824
 10
519.267151
 20
474.098969
 10
519.154358
 20
474.055328
 10
519.035706
 20
474.054352
 10
518.915222
 20
474.094421
 10
518.797729
 20
474.176697
 10
518.68689
 20
474.294861
 10
518.588196
 20
474.447845
 10
518.505737
 20
474.630035
 10
518.443176
 20
474.835266
 10
518.403748
 20
475.056641
 10
518.389343
 20
475.298401
  0
LWPOLYLINE
  5
159
330
134
100
AcDbEntity
  8
0
  6
Continuous
 62
     0
370
    30
100
AcDbPolyline
 90
       18
 70
     0
 43
0.0
 10
518.389343
 20
480.598389
 10
518.402222
 20
480.827637
 10
518.440369
 20
481.049713
 10
518.501892
 20
481.255951
 10
518.583374
 20
481.439514
 10
518.681213
 20
481.594421
 10
518.791382
 20
481.715057
 10
518.908936
 20
481.79776
 10
519.029175
 20
481.841522
 10
519.148071
 20
481.842407
 10
519.261475
 20
481.802307
 10
519.365479
 20
481.720032
 10
519.45813
 20
481.601685
 10
519.536499
 20
481.448639
 10
519.599121
 20
481.266357
 10
519.64502
 20
481.061035
 10
519.673218
 20
480.839569
 10
519.68335
 20
480.598358
  0
LWPOLYLINE
  5
15A
330
134
100
AcDbEntity
  8
0
  6
Continuous
 62
     0
370
    30
100
AcDbPolyline
 90
       18
 70
     0
 43
0.0
 10
519.68335
 20
480.598358
 10
519.674194
 20
480.369171
 10
519.646912
 20
480.147095
 10
519.60199
 20
479.940735
 10
519.540222
 20
479.757172
 10
519.462646
 20
479.602448
 10
519.37085
 20
479.481812
 10
519.267151
 20
479.398956
 10
519.154358
 20
479.355316
 10
519.035706
 20
479.35434
 10
518.915222
 20
479.394409
 10
518.797729
 20
479.476685
 10
518.68689
 20
479.594849
 10
518.588196
 20
479.747833
 10
518.505737
 20
479.930054
 10
518.443176
 20
480.135254
 10
518.403748
 20
480.356628
 10
518.389343
 20
480.598389
  0
LWPOLYLINE
  5
15B
330
134
100
AcDbEntity
  8
0
  6
Continuous
 62
     0
370
    30
100
AcDbPolyline
 90
       18
 70
     0
 43
0.0
 10
518.389343
 20
485.898407
 10
518.402222
 20
486.127625
 10
518.440369
 20
486.349701
 10
518.501892
 20
486.555939
 10
518.583374
 20
486.739502
 10
518.681213
 20
486.894409
 10
518.791382
 20
487.015045
 10
518.908936
 20
487.097748
 10
519.029175
 20
487.14151
 10
519.148071
 20
487.142395
 10
519.261475
 20
487.102325
 10
519.365479
 20
487.02005
 10
519.45813
 20
486.901672
 10
519.536499
 20
486.748627
 10
519.599121
 20
486.566376
 10
519.64502
 20
486.361053
 10
519.673218
 20
486.139587
 10
519.68335
 20
485.898376
  0
LWPOLYLINE
  5
15C
330
134
100
AcDbEntity
  8
0
  6
Continuous
 62
     0
370
    30
100
AcDbPolyline
 90
       18
 70
     0
 43
0.0
 10
519.68335
 20
485.898376
 10
519.674194
 20
485.669189
 10
519.646912
 20
485.447083
 10
519.60199
 20
485.240753
 10
519.540222
 20
485.057159
 10
519.462646
 20
484.902466
 10
519.37085
 20
484.78183
 10
519.267151
 20
484.698975
 10
519.154358
 20
484.655334
 10
519.035706
 20
484.654327
 10
518.915222
 20
484.694397
 10
518.797729
 20
484.776703
 10
518.68689
 20
484.894867
 10
518.588196
 20
485.047852
 10
518.505737
 20
485.230042
 10
518.443176
 20
485.435272
 10
518.403748
 20
485.656647
 10
518.389343
 20
485.898376
  0
LWPOLYLINE
  5
15D
330
134
100
AcDbEntity
  8
0
  6
Continuous
 62
     0
370
    30
100
AcDbPolyline
 90
       18
 70
     0
 43
0.0
 10
518.389343
 20
491.198395
 10
518.402222
 20
491.427643
 10
518.440369
 20
491.649719
 10
518.501892
 20
491.855927
 10
518.583374
 20
492.03952
 10
518.681213
 20
492.194427
 10
518.791382
 20
492.315063
 10
518.908936
 20
492.397766
 10
519.029175
 20
492.441528
 10
519.148071
 20
492.442383
 10
519.261475
 20
492.402313
 10
519.365479
 20
492.320038
 10
519.45813
 20
492.201691
 10
519.536499
 20
492.048645
 10
519.599121
 20
491.866364
 10
519.64502
 20
491.661041
 10
519.673218
 20
491.439575
 10
519.68335
 20
491.198364
  0
LWPOLYLINE
  5
15E
330
134
100
AcDbEntity
  8
0
  6
Continuous
 62
     0
370
    30
100
AcDbPolyline
 90
       18
 70
     0
 43
0.0
 10
519.68335
 20
491.198364
 10
519.674194
 20
490.969177
 10
519.646912
 20
490.747101
 10
519.60199
 20
490.540741
 10
519.540222
 20
490.357178
 10
519.462646
 20
490.202454
 10
519.37085
 20
490.081818
 10
519.267151
 20
489.998962
 10
519.154358
 20
489.955322
 10
519.035706
 20
489.954346
 10
518.915222
 20
489.994415
 10
518.797729
 20
490.076691
 10
518.68689
 20
490.194855
 10
518.588196
 20
490.347839
 10
518.505737
 20
490.53006
 10
518.443176
 20
490.73526
 10
518.403748
 20
490.956635
 10
518.389343
 20
491.198395
  0
LWPOLYLINE
  5
15F
330
134
100
AcDbEntity
  8
0
  6
Continuous
 62
     0
370
    30
100
AcDbPolyline
 90
       18
 70
     0
 43
0.0
 10
518.389343
 20
496.498383
 10
518.402222
 20
496.727631
 10
518.440369
 20
496.949707
 10
518.501892
 20
497.155945
 10
518.583374
 20
497.339508
 10
518.681213
 20
497.494415
 10
518.791382
 20
497.615051
 10
518.908936
 20
497.697754
 10
519.029175
 20
497.741516
 10
519.148071
 20
497.742401
 10
519.261475
 20
497.702301
 10
519.365479
 20
497.620056
 10
519.45813
 20
497.501678
 10
519.536499
 20
497.348633
 10
519.599121
 20
497.166351
 10
519.64502
 20
496.96106
 10
519.673218
 20
496.739594
 10
519.68335
 20
496.498383
  0
LWPOLYLINE
  5
160
330
134
100
AcDbEntity
  8
0
  6
Continuous
 62
     0
370
    30
100
AcDbPolyline
 90
       18
 70
     0
 43
0.0
 10
519.68335
 20
496.498383
 10
519.674194
 20
496.269165
 10
519.646912
 20
496.047089
 10
519.60199
 20
495.840759
 10
519.540222
 20
495.657166
 10
519.462646
 20
495.502441
 10
519.37085
 20
495.381836
 10
519.267151
 20
495.298981
 10
519.154358
 20
495.25531
 10
519.035706
 20
495.254333
 10
518.915222
 20
495.294403
 10
518.797729
 20
495.376678
 10
518.68689
 20
495.494873
 10
518.588196
 20
495.647827
 10
518.505737
 20
495.830048
 10
518.443176
 20
496.035248
 10
518.403748
 20
496.256653
 10
518.389343
 20
496.498383
  0
LWPOLYLINE
  5
161
330
134
100
AcDbEntity
  8
0
  6
Continuous
 62
     0
370
    30
100
AcDbPolyline
 90
       18
 70
     0
 43
0.0
 10
518.389343
 20
501.798401
 10
518.402222
 20
502.027649
 10
518.440369
 20
502.249725
 10
518.501892
 20
502.455933
 10
518.583374
 20
502.639526
 10
518.681213
 20
502.794403
 10
518.791382
 20
502.915039
 10
518.908936
 20
502.997742
 10
519.029175
 20
503.041504
 10
519.148071
 20
503.042389
 10
519.261475
 20
503.002319
 10
519.365479
 20
502.920044
 10
519.45813
 20
502.801697
 10
519.536499
 20
502.648621
 10
519.599121
 20
502.46637
 10
519.64502
 20
502.261047
 10
519.673218
 20
502.039581
 10
519.68335
 20
501.79837
  0
LWPOLYLINE
  5
162
330
134
100
AcDbEntity
  8
0
  6
Continuous
 62
     0
370
    30
100
AcDbPolyline
 90
       18
 70
     0
 43
0.0
 10
519.68335
 20
501.79837
 10
519.674194
 20
501.569183
 10
519.646912
 20
501.347107
 10
519.60199
 20
501.140747
 10
519.540222
 20
500.957184
 10
519.462646
 20
500.80246
 10
519.37085
 20
500.681824
 10
519.267151
 20
500.598969
 10
519.154358
 20
500.555328
 10
519.035706
 20
500.554352
 10
518.915222
 20
500.594421
 10
518.797729
 20
500.676697
 10
518.68689
 20
500.794861
 10
518.588196
 20
500.947845
 10
518.505737
 20
501.130035
 10
518.443176
 20
501.335266
 10
518.403748
 20
501.556641
 10
518.389343
 20
501.798401
  0
LWPOLYLINE
  5
163
330
134
100
AcDbEntity
  8
0
  6
Continuous
 62
     0
370
    30
100
AcDbPolyline
 90
       18
 70
     0
 43
0.0
 10
518.389343
 20
507.098389
 10
518.402222
 20
507.327637
 10
518.440369
 20
507.549713
 10
518.501892
 20
507.755951
 10
518.583374
 20
507.939514
 10
518.681213
 20
508.094421
 10
518.791382
 20
508.215057
 10
518.908936
 20
508.29776
 10
519.029175
 20
508.341522
 10
519.148071
 20
508.342407
 10
519.261475
 20
508.302307
 10
519.365479
 20
508.220032
 10
519.45813
 20
508.101685
 10
519.536499
 20
507.948639
 10
519.599121
 20
507.766357
 10
519.64502
 20
507.561035
 10
519.673218
 20
507.339569
 10
519.68335
 20
507.098358
  0
LWPOLYLINE
  5
164
330
134
100
AcDbEntity
  8
0
  6
Continuous
 62
     0
370
    30
100
AcDbPolyline
 90
       18
 70
     0
 43
0.0
 10
519.68335
 20
507.098358
 10
519.674194
 20
506.869171
 10
519.646912
 20
506.647095
 10
519.60199
 20
506.440735
 10
519.540222
 20
506.257172
 10
519.462646
 20
506.102448
 10
519.37085
 20
505.981812
 10
519.267151
 20
505.898956
 10
519.154358
 20
505.855316
 10
519.035706
 20
505.85434
 10
518.915222
 20
505.894409
 10
518.797729
 20
505.976685
 10
518.68689
 20
506.094849
 10
518.588196
 20
506.247833
 10
518.505737
 20
506.430054
 10
518.443176
 20
506.635254
 10
518.403748
 20
506.856628
 10
518.389343
 20
507.098389
  0
LWPOLYLINE
  5
165
330
134
100
AcDbEntity
  8
0
  6
Continuous
 62
     0
370
    30
100
AcDbPolyline
 90
       18
 70
     0
 43
0.0
 10
518.389343
 20
512.398376
 10
518.402222
 20
512.627625
 10
518.440369
 20
512.849731
 10
518.501892
 20
513.055969
 10
518.583374
 20
513.239502
 10
518.681213
 20
513.394409
 10
518.791382
 20
513.515076
 10
518.908936
 20
513.597778
 10
519.029175
 20
513.641541
 10
519.148071
 20
513.642395
 10
519.261475
 20
513.602295
 10
519.365479
 20
513.52002
 10
519.45813
 20
513.401672
 10
519.536499
 20
513.248657
 10
519.599121
 20
513.066345
 10
519.64502
 20
512.861023
 10
519.673218
 20
512.639587
 10
519.68335
 20
512.398376
  0
LWPOLYLINE
  5
166
330
134
100
AcDbEntity
  8
0
  6
Continuous
 62
     0
370
    30
100
AcDbPolyline
 90
       18
 70
     0
 43
0.0
 10
519.68335
 20
512.398376
 10
519.674194
 20
512.169189
 10
519.646912
 20
511.947083
 10
519.60199
 20
511.740753
 10
519.540222
 20
511.557159
 10
519.462646
 20
511.402466
 10
519.37085
 20
511.28183
 10
519.267151
 20
511.198975
 10
519.154358
 20
511.155334
 10
519.035706
 20
511.154327
 10
518.915222
 20
511.194397
 10
518.797729
 20
511.276703
 10
518.68689
 20
511.394867
 10
518.588196
 20
511.547852
 10
518.505737
 20
511.730042
 10
518.443176
 20
511.935272
 10
518.403748
 20
512.156616
 10
518.389343
 20
512.398376
  0
LWPOLYLINE
  5
167
330
134
100
AcDbEntity
  8
0
  6
Continuous
 62
     0
370
    30
100
AcDbPolyline
 90
        3
 70
     0
 43
0.0
 10
518.76062
 20
459.984375
 10
518.7453
 20
459.930237
 10
518.677551
 20
459.398376
  0
LWPOLYLINE
  5
168
330
134
100
AcDbEntity
  8
0
  6
Continuous
 62
     0
370
    30
100
AcDbPolyline
 90
        3
 70
     0
 43
0.0
 10
518.677551
 20
459.398376
 10
518.678406
 20
459.337646
 10
518.76062
 20
458.812378
  0
LWPOLYLINE
  5
169
330
134
100
AcDbEntity
  8
0
  6
Continuous
 62
     0
370
    30
100
AcDbPolyline
 90
        3
 70
     0
 43
0.0
 10
518.76062
 20
465.284363
 10
518.7453
 20
465.230225
 10
518.677551
 20
464.698364
  0
LWPOLYLINE
  5
16A
330
134
100
AcDbEntity
  8
0
  6
Continuous
 62
     0
370
    30
100
AcDbPolyline
 90
        3
 70
     0
 43
0.0
 10
518.677551
 20
464.698364
 10
518.678406
 20
464.637665
 10
518.76062
 20
464.112366
  0
LWPOLYLINE
  5
16B
330
134
100
AcDbEntity
  8
0
  6
Continuous
 62
     0
370
    30
100
AcDbPolyline
 90
        3
 70
     0
 43
0.0
 10
518.76062
 20
470.584381
 10
518.7453
 20
470.530243
 10
518.677551
 20
469.998383
  0
LWPOLYLINE
  5
16C
330
134
100
AcDbEntity
  8
0
  6
Continuous
 62
     0
370
    30
100
AcDbPolyline
 90
        3
 70
     0
 43
0.0
 10
518.677551
 20
469.998383
 10
518.678406
 20
469.937653
 10
518.76062
 20
469.412354
  0
LWPOLYLINE
  5
16D
330
134
100
AcDbEntity
  8
0
  6
Continuous
 62
     0
370
    30
100
AcDbPolyline
 90
        3
 70
     0
 43
0.0
 10
518.76062
 20
475.884369
 10
518.7453
 20
475.830231
 10
518.677551
 20
475.29837
  0
LWPOLYLINE
  5
16E
330
134
100
AcDbEntity
  8
0
  6
Continuous
 62
     0
370
    30
100
AcDbPolyline
 90
        3
 70
     0
 43
0.0
 10
518.677551
 20
475.29837
 10
518.678406
 20
475.237671
 10
518.76062
 20
474.712372
  0
LWPOLYLINE
  5
16F
330
134
100
AcDbEntity
  8
0
  6
Continuous
 62
     0
370
    30
100
AcDbPolyline
 90
        3
 70
     0
 43
0.0
 10
518.76062
 20
481.184357
 10
518.7453
 20
481.130219
 10
518.677551
 20
480.598358
  0
LWPOLYLINE
  5
170
330
134
100
AcDbEntity
  8
0
  6
Continuous
 62
     0
370
    30
100
AcDbPolyline
 90
        3
 70
     0
 43
0.0
 10
518.677551
 20
480.598358
 10
518.678406
 20
480.537659
 10
518.76062
 20
480.01236
  0
LWPOLYLINE
  5
171
330
134
100
AcDbEntity
  8
0
  6
Continuous
 62
     0
370
    30
100
AcDbPolyline
 90
        3
 70
     0
 43
0.0
 10
518.76062
 20
486.484375
 10
518.7453
 20
486.430237
 10
518.677551
 20
485.898376
  0
LWPOLYLINE
  5
172
330
134
100
AcDbEntity
  8
0
  6
Continuous
 62
     0
370
    30
100
AcDbPolyline
 90
        3
 70
     0
 43
0.0
 10
518.677551
 20
485.898376
 10
518.678406
 20
485.837646
 10
518.76062
 20
485.312378
  0
LWPOLYLINE
  5
173
330
134
100
AcDbEntity
  8
0
  6
Continuous
 62
     0
370
    30
100
AcDbPolyline
 90
        3
 70
     0
 43
0.0
 10
518.76062
 20
491.784363
 10
518.7453
 20
491.730225
 10
518.677551
 20
491.198364
  0
LWPOLYLINE
  5
174
330
134
100
AcDbEntity
  8
0
  6
Continuous
 62
     0
370
    30
100
AcDbPolyline
 90
        3
 70
     0
 43
0.0
 10
518.677551
 20
491.198364
 10
518.678406
 20
491.137665
 10
518.76062
 20
490.612366
  0
LWPOLYLINE
  5
175
330
134
100
AcDbEntity
  8
0
  6
Continuous
 62
     0
370
    30
100
AcDbPolyline
 90
        3
 70
     0
 43
0.0
 10
518.76062
 20
497.084381
 10
518.7453
 20
497.030243
 10
518.677551
 20
496.498383
  0
LWPOLYLINE
  5
176
330
134
100
AcDbEntity
  8
0
  6
Continuous
 62
     0
370
    30
100
AcDbPolyline
 90
        3
 70
     0
 43
0.0
 10
518.677551
 20
496.498383
 10
518.678406
 20
496.437653
 10
518.76062
 20
495.912354
  0
LWPOLYLINE
  5
177
330
134
100
AcDbEntity
  8
0
  6
Continuous
 62
     0
370
    30
100
AcDbPolyline
 90
        3
 70
     0
 43
0.0
 10
518.76062
 20
502.384369
 10
518.7453
 20
502.330231
 10
518.677551
 20
501.79837
  0
LWPOLYLINE
  5
178
330
134
100
AcDbEntity
  8
0
  6
Continuous
 62
     0
370
    30
100
AcDbPolyline
 90
        3
 70
     0
 43
0.0
 10
518.677551
 20
501.79837
 10
518.678406
 20
501.737671
 10
518.76062
 20
501.212372
  0
LWPOLYLINE
  5
179
330
134
100
AcDbEntity
  8
0
  6
Continuous
 62
     0
370
    30
100
AcDbPolyline
 90
        3
 70
     0
 43
0.0
 10
518.76062
 20
507.684357
 10
518.7453
 20
507.630219
 10
518.677551
 20
507.098358
  0
LWPOLYLINE
  5
17A
330
134
100
AcDbEntity
  8
0
  6
Continuous
 62
     0
370
    30
100
AcDbPolyline
 90
        3
 70
     0
 43
0.0
 10
518.677551
 20
507.098358
 10
518.678406
 20
507.037659
 10
518.76062
 20
506.51236
  0
LWPOLYLINE
  5
17B
330
134
100
AcDbEntity
  8
0
  6
Continuous
 62
     0
370
    30
100
AcDbPolyline
 90
        3
 70
     0
 43
0.0
 10
518.76062
 20
512.984375
 10
518.7453
 20
512.930237
 10
518.677551
 20
512.398376
  0
LWPOLYLINE
  5
17C
330
134
100
AcDbEntity
  8
0
  6
Continuous
 62
     0
370
    30
100
AcDbPolyline
 90
        3
 70
     0
 43
0.0
 10
518.677551
 20
512.398376
 10
518.678406
 20
512.337646
 10
518.76062
 20
511.812378
  0
LWPOLYLINE
  5
17D
330
134
100
AcDbEntity
  8
0
  6
Continuous
 62
     0
370
    30
100
AcDbPolyline
 90
       18
 70
     0
 43
0.0
 10
519.939087
 20
461.898376
 10
519.947144
 20
462.127502
 10
519.970764
 20
462.349487
 10
520.008606
 20
462.555725
 10
520.058105
 20
462.739319
 10
520.116699
 20
462.894043
 10
520.181274
 20
463.014618
 10
520.248535
 20
463.097504
 10
520.31543
 20
463.141418
 10
520.379456
 20
463.142487
 10
520.438354
 20
463.102753
 10
520.490417
 20
463.020599
 10
520.534973
 20
462.902588
 10
520.571228
 20
462.749786
 10
520.599243
 20
462.567871
 10
520.61908
 20
462.362793
 10
520.631042
 20
462.14151
 10
520.635376
 20
461.898407
  0
LWPOLYLINE
  5
17E
330
134
100
AcDbEntity
  8
0
  6
Continuous
 62
     0
370
    30
100
AcDbPolyline
 90
       18
 70
     0
 43
0.0
 10
520.635376
 20
461.898407
 10
520.631531
 20
461.669281
 10
520.620056
 20
461.447235
 10
520.600647
 20
461.240967
 10
520.573181
 20
461.057343
 10
520.537415
 20
460.902649
 10
520.493408
 20
460.781982
 10
520.44165
 20
460.699097
 10
520.383179
 20
460.655365
 10
520.319397
 20
460.654297
 10
520.252502
 20
460.694275
 10
520.185364
 20
460.776337
 10
520.120422
 20
460.89444
 10
520.061462
 20
461.047516
 10
520.011292
 20
461.229523
 10
519.972656
 20
461.434509
 10
519.948059
 20
461.655792
 10
519.939087
 20
461.898376
  0
LWPOLYLINE
  5
17F
330
134
100
AcDbEntity
  8
0
  6
Continuous
 62
     0
370
    30
100
AcDbPolyline
 90
       18
 70
     0
 43
0.0
 10
519.939087
 20
467.214691
 10
519.947144
 20
467.443817
 10
519.970764
 20
467.665802
 10
520.008606
 20
467.872009
 10
520.058105
 20
468.055634
 10
520.116699
 20
468.210358
 10
520.181274
 20
468.330933
 10
520.248535
 20
468.413818
 10
520.31543
 20
468.457733
 10
520.379456
 20
468.458771
 10
520.438354
 20
468.419067
 10
520.490417
 20
468.336914
 10
520.534973
 20
468.218872
 10
520.571228
 20
468.066101
 10
520.599243
 20
467.884186
 10
520.61908
 20
467.679077
 10
520.631042
 20
467.457825
 10
520.635376
 20
467.214722
  0
LWPOLYLINE
  5
180
330
134
100
AcDbEntity
  8
0
  6
Continuous
 62
     0
370
    30
100
AcDbPolyline
 90
       18
 70
     0
 43
0.0
 10
520.635376
 20
467.214722
 10
520.631531
 20
466.985565
 10
520.620056
 20
466.76355
 10
520.600647
 20
466.557281
 10
520.573181
 20
466.373657
 10
520.537415
 20
466.218933
 10
520.493408
 20
466.098267
 10
520.44165
 20
466.015411
 10
520.383179
 20
465.97168
 10
520.319397
 20
465.970612
 10
520.252502
 20
466.01059
 10
520.185364
 20
466.092621
 10
520.120422
 20
466.210754
 10
520.061462
 20
466.3638
 10
520.011292
 20
466.545807
 10
519.972656
 20
466.750824
 10
519.948059
 20
466.972107
 10
519.939087
 20
467.214691
  0
LWPOLYLINE
  5
181
330
134
100
AcDbEntity
  8
0
  6
Continuous
 62
     0
370
    30
100
AcDbPolyline
 90
       18
 70
     0
 43
0.0
 10
519.939087
 20
472.531006
 10
519.947144
 20
472.760132
 10
519.970764
 20
472.982117
 10
520.008606
 20
473.188324
 10
520.058105
 20
473.371948
 10
520.116699
 20
473.526642
 10
520.181274
 20
473.647247
 10
520.248535
 20
473.730133
 10
520.31543
 20
473.774048
 10
520.379456
 20
473.775085
 10
520.438354
 20
473.735382
 10
520.490417
 20
473.653229
 10
520.534973
 20
473.535187
 10
520.571228
 20
473.382416
 10
520.599243
 20
473.20047
 10
520.61908
 20
472.995392
 10
520.631042
 20
472.774139
 10
520.635376
 20
472.531036
  0
LWPOLYLINE
  5
182
330
134
100
AcDbEntity
  8
0
  6
Continuous
 62
     0
370
    30
100
AcDbPolyline
 90
       18
 70
     0
 43
0.0
 10
520.635376
 20
472.531036
 10
520.631531
 20
472.30188
 10
520.620056
 20
472.079865
 10
520.600647
 20
471.873566
 10
520.573181
 20
471.689941
 10
520.537415
 20
471.535248
 10
520.493408
 20
471.414581
 10
520.44165
 20
471.331696
 10
520.383179
 20
471.287994
 10
520.319397
 20
471.286896
 10
520.252502
 20
471.326904
 10
520.185364
 20
471.408936
 10
520.120422
 20
471.527069
 10
520.061462
 20
471.680115
 10
520.011292
 20
471.862122
 10
519.972656
 20
472.067139
 10
519.948059
 20
472.288422
 10
519.939087
 20
472.531006
  0
LWPOLYLINE
  5
183
330
134
100
AcDbEntity
  8
0
  6
Continuous
 62
     0
370
    30
100
AcDbPolyline
 90
       18
 70
     0
 43
0.0
 10
519.939087
 20
477.847321
 10
519.947144
 20
478.076416
 10
519.970764
 20
478.298401
 10
520.008606
 20
478.504639
 10
520.058105
 20
478.688263
 10
520.116699
 20
478.842957
 10
520.181274
 20
478.963562
 10
520.248535
 20
479.046417
 10
520.31543
 20
479.090332
 10
520.379456
 20
479.0914
 10
520.438354
 20
479.051697
 10
520.490417
 20
478.969543
 10
520.534973
 20
478.851501
 10
520.571228
 20
478.6987
 10
520.599243
 20
478.516785
 10
520.61908
 20
478.311707
 10
520.631042
 20
478.090454
 10
520.635376
 20
477.847321
  0
LWPOLYLINE
  5
184
330
134
100
AcDbEntity
  8
0
  6
Continuous
 62
     0
370
    30
100
AcDbPolyline
 90
       18
 70
     0
 43
0.0
 10
520.635376
 20
477.847321
 10
520.631531
 20
477.618195
 10
520.620056
 20
477.396179
 10
520.600647
 20
477.18988
 10
520.573181
 20
477.006256
 10
520.537415
 20
476.851562
 10
520.493408
 20
476.730896
 10
520.44165
 20
476.64801
 10
520.383179
 20
476.604279
 10
520.319397
 20
476.60321
 10
520.252502
 20
476.643219
 10
520.185364
 20
476.72525
 10
520.120422
 20
476.843384
 10
520.061462
 20
476.996429
 10
520.011292
 20
477.178436
 10
519.972656
 20
477.383453
 10
519.948059
 20
477.604706
 10
519.939087
 20
477.847321
  0
LWPOLYLINE
  5
185
330
134
100
AcDbEntity
  8
0
  6
Continuous
 62
     0
370
    30
100
AcDbPolyline
 90
       18
 70
     0
 43
0.0
 10
519.939087
 20
483.163605
 10
519.947144
 20
483.392731
 10
519.970764
 20
483.614716
 10
520.008606
 20
483.820953
 10
520.058105
 20
484.004547
 10
520.116699
 20
484.159271
 10
520.181274
 20
484.279846
 10
520.248535
 20
484.362732
 10
520.31543
 20
484.406647
 10
520.379456
 20
484.407715
 10
520.438354
 20
484.367981
 10
520.490417
 20
484.285828
 10
520.534973
 20
484.167816
 10
520.571228
 20
484.015015
 10
520.599243
 20
483.833099
 10
520.61908
 20
483.628021
 10
520.631042
 20
483.406738
 10
520.635376
 20
483.163635
  0
LWPOLYLINE
  5
186
330
134
100
AcDbEntity
  8
0
  6
Continuous
 62
     0
370
    30
100
AcDbPolyline
 90
       18
 70
     0
 43
0.0
 10
520.635376
 20
483.163635
 10
520.631531
 20
482.934509
 10
520.620056
 20
482.712463
 10
520.600647
 20
482.506195
 10
520.573181
 20
482.322571
 10
520.537415
 20
482.167877
 10
520.493408
 20
482.047211
 10
520.44165
 20
481.964325
 10
520.383179
 20
481.920593
 10
520.319397
 20
481.919525
 10
520.252502
 20
481.959503
 10
520.185364
 20
482.041565
 10
520.120422
 20
482.159668
 10
520.061462
 20
482.312744
 10
520.011292
 20
482.494751
 10
519.972656
 20
482.699738
 10
519.948059
 20
482.921021
 10
519.939087
 20
483.163605
  0
LWPOLYLINE
  5
187
330
134
100
AcDbEntity
  8
0
  6
Continuous
 62
     0
370
    30
100
AcDbPolyline
 90
       18
 70
     0
 43
0.0
 10
519.939087
 20
488.479919
 10
519.947144
 20
488.709045
 10
519.970764
 20
488.93103
 10
520.008606
 20
489.137238
 10
520.058105
 20
489.320862
 10
520.116699
 20
489.475586
 10
520.181274
 20
489.596161
 10
520.248535
 20
489.679047
 10
520.31543
 20
489.722961
 10
520.379456
 20
489.723999
 10
520.438354
 20
489.684296
 10
520.490417
 20
489.602142
 10
520.534973
 20
489.4841
 10
520.571228
 20
489.331329
 10
520.599243
 20
489.149414
 10
520.61908
 20
488.944305
 10
520.631042
 20
488.723053
 10
520.635376
 20
488.47995
  0
LWPOLYLINE
  5
188
330
134
100
AcDbEntity
  8
0
  6
Continuous
 62
     0
370
    30
100
AcDbPolyline
 90
       18
 70
     0
 43
0.0
 10
520.635376
 20
488.47995
 10
520.631531
 20
488.250793
 10
520.620056
 20
488.028778
 10
520.600647
 20
487.82251
 10
520.573181
 20
487.638885
 10
520.537415
 20
487.484161
 10
520.493408
 20
487.363495
 10
520.44165
 20
487.28064
 10
520.383179
 20
487.236908
 10
520.319397
 20
487.23584
 10
520.252502
 20
487.275818
 10
520.185364
 20
487.357849
 10
520.120422
 20
487.475983
 10
520.061462
 20
487.629028
 10
520.011292
 20
487.811035
 10
519.972656
 20
488.016052
 10
519.948059
 20
488.237335
 10
519.939087
 20
488.479919
  0
LWPOLYLINE
  5
189
330
134
100
AcDbEntity
  8
0
  6
Continuous
 62
     0
370
    30
100
AcDbPolyline
 90
       18
 70
     0
 43
0.0
 10
519.939087
 20
493.796234
 10
519.947144
 20
494.02536
 10
519.970764
 20
494.247314
 10
520.008606
 20
494.453552
 10
520.058105
 20
494.637177
 10
520.116699
 20
494.79187
 10
520.181274
 20
494.912476
 10
520.248535
 20
494.995361
 10
520.31543
 20
495.039276
 10
520.379456
 20
495.040314
 10
520.438354
 20
495.00061
 10
520.490417
 20
494.918457
 10
520.534973
 20
494.800415
 10
520.571228
 20
494.647614
 10
520.599243
 20
494.465698
 10
520.61908
 20
494.26062
 10
520.631042
 20
494.039368
 10
520.635376
 20
493.796265
  0
LWPOLYLINE
  5
18A
330
134
100
AcDbEntity
  8
0
  6
Continuous
 62
     0
370
    30
100
AcDbPolyline
 90
       18
 70
     0
 43
0.0
 10
520.635376
 20
493.796265
 10
520.631531
 20
493.567108
 10
520.620056
 20
493.345093
 10
520.600647
 20
493.138794
 10
520.573181
 20
492.95517
 10
520.537415
 20
492.800476
 10
520.493408
 20
492.67981
 10
520.44165
 20
492.596924
 10
520.383179
 20
492.553223
 10
520.319397
 20
492.552124
 10
520.252502
 20
492.592133
 10
520.185364
 20
492.674164
 10
520.120422
 20
492.792297
 10
520.061462
 20
492.945343
 10
520.011292
 20
493.12735
 10
519.972656
 20
493.332367
 10
519.948059
 20
493.55365
 10
519.939087
 20
493.796234
  0
LWPOLYLINE
  5
18B
330
134
100
AcDbEntity
  8
0
  6
Continuous
 62
     0
370
    30
100
AcDbPolyline
 90
       18
 70
     0
 43
0.0
 10
519.939087
 20
499.112549
 10
519.947144
 20
499.341644
 10
519.970764
 20
499.563629
 10
520.008606
 20
499.769867
 10
520.058105
 20
499.953461
 10
520.116699
 20
500.108185
 10
520.181274
 20
500.22879
 10
520.248535
 20
500.311646
 10
520.31543
 20
500.35556
 10
520.379456
 20
500.356628
 10
520.438354
 20
500.316925
 10
520.490417
 20
500.234772
 10
520.534973
 20
500.11673
 10
520.571228
 20
499.963928
 10
520.599243
 20
499.782013
 10
520.61908
 20
499.576935
 10
520.631042
 20
499.355682
 10
520.635376
 20
499.112549
  0
LWPOLYLINE
  5
18C
330
134
100
AcDbEntity
  8
0
  6
Continuous
 62
     0
370
    30
100
AcDbPolyline
 90
       18
 70
     0
 43
0.0
 10
520.635376
 20
499.112549
 10
520.631531
 20
498.883423
 10
520.620056
 20
498.661407
 10
520.600647
 20
498.455109
 10
520.573181
 20
498.271484
 10
520.537415
 20
498.116791
 10
520.493408
 20
497.996124
 10
520.44165
 20
497.913239
 10
520.383179
 20
497.869507
 10
520.319397
 20
497.868439
 10
520.252502
 20
497.908417
 10
520.185364
 20
497.990479
 10
520.120422
 20
498.108612
 10
520.061462
 20
498.261658
 10
520.011292
 20
498.443665
 10
519.972656
 20
498.648682
 10
519.948059
 20
498.869934
 10
519.939087
 20
499.112549
  0
LWPOLYLINE
  5
18D
330
134
100
AcDbEntity
  8
0
  6
Continuous
 62
     0
370
    30
100
AcDbPolyline
 90
       18
 70
     0
 43
0.0
 10
519.939087
 20
504.428833
 10
519.947144
 20
504.657959
 10
519.970764
 20
504.879944
 10
520.008606
 20
505.086151
 10
520.058105
 20
505.269775
 10
520.116699
 20
505.4245
 10
520.181274
 20
505.545074
 10
520.248535
 20
505.62796
 10
520.31543
 20
505.671875
 10
520.379456
 20
505.672943
 10
520.438354
 20
505.633209
 10
520.490417
 20
505.551056
 10
520.534973
 20
505.433044
 10
520.571228
 20
505.280243
 10
520.599243
 20
505.098328
 10
520.61908
 20
504.893219
 10
520.631042
 20
504.671967
 10
520.635376
 20
504.428864
  0
LWPOLYLINE
  5
18E
330
134
100
AcDbEntity
  8
0
  6
Continuous
 62
     0
370
    30
100
AcDbPolyline
 90
       18
 70
     0
 43
0.0
 10
520.635376
 20
504.428864
 10
520.631531
 20
504.199738
 10
520.620056
 20
503.977692
 10
520.600647
 20
503.771423
 10
520.573181
 20
503.587799
 10
520.537415
 20
503.433105
 10
520.493408
 20
503.312439
 10
520.44165
 20
503.229553
 10
520.383179
 20
503.185822
 10
520.319397
 20
503.184753
 10
520.252502
 20
503.224731
 10
520.185364
 20
503.306793
 10
520.120422
 20
503.424896
 10
520.061462
 20
503.577972
 10
520.011292
 20
503.759949
 10
519.972656
 20
503.964966
 10
519.948059
 20
504.186249
 10
519.939087
 20
504.428833
  0
LWPOLYLINE
  5
18F
330
134
100
AcDbEntity
  8
0
  6
Continuous
 62
     0
370
    30
100
AcDbPolyline
 90
       18
 70
     0
 43
0.0
 10
519.939087
 20
509.745148
 10
519.947144
 20
509.974274
 10
519.970764
 20
510.196259
 10
520.008606
 20
510.402466
 10
520.058105
 20
510.58609
 10
520.116699
 20
510.740814
 10
520.181274
 20
510.861389
 10
520.248535
 20
510.944275
 10
520.31543
 20
510.98819
 10
520.379456
 20
510.989227
 10
520.438354
 20
510.949524
 10
520.490417
 20
510.867371
 10
520.534973
 20
510.749329
 10
520.571228
 20
510.596558
 10
520.599243
 20
510.414642
 10
520.61908
 20
510.209534
 10
520.631042
 20
509.988281
 10
520.635376
 20
509.745178
  0
LWPOLYLINE
  5
190
330
134
100
AcDbEntity
  8
0
  6
Continuous
 62
     0
370
    30
100
AcDbPolyline
 90
       18
 70
     0
 43
0.0
 10
520.635376
 20
509.745178
 10
520.631531
 20
509.516022
 10
520.620056
 20
509.294006
 10
520.600647
 20
509.087708
 10
520.573181
 20
508.904114
 10
520.537415
 20
508.74939
 10
520.493408
 20
508.628723
 10
520.44165
 20
508.545837
 10
520.383179
 20
508.502136
 10
520.319397
 20
508.501068
 10
520.252502
 20
508.541046
 10
520.185364
 20
508.623077
 10
520.120422
 20
508.741211
 10
520.061462
 20
508.894257
 10
520.011292
 20
509.076263
 10
519.972656
 20
509.281281
 10
519.948059
 20
509.502563
 10
519.939087
 20
509.745148
  0
LWPOLYLINE
  5
191
330
134
100
AcDbEntity
  8
0
  6
Continuous
 62
     0
370
    30
100
AcDbPolyline
 90
        4
 70
     0
 43
0.0
 10
518.822632
 20
459.398376
 10
518.809509
 20
459.675812
 10
518.769897
 20
459.94162
 10
518.638916
 20
460.333984
  0
LWPOLYLINE
  5
192
330
134
100
AcDbEntity
  8
0
  6
Continuous
 62
     0
370
    30
100
AcDbPolyline
 90
        4
 70
     0
 43
0.0
 10
518.638855
 20
458.462646
 10
518.722412
 20
458.670502
 10
518.781616
 20
458.915833
 10
518.822632
 20
459.398376
  0
LWPOLYLINE
  5
193
330
134
100
AcDbEntity
  8
0
  6
Continuous
 62
     0
370
    30
100
AcDbPolyline
 90
        4
 70
     0
 43
0.0
 10
518.822632
 20
464.698364
 10
518.809509
 20
464.97583
 10
518.769897
 20
465.241608
 10
518.638916
 20
465.633972
  0
LWPOLYLINE
  5
194
330
134
100
AcDbEntity
  8
0
  6
Continuous
 62
     0
370
    30
100
AcDbPolyline
 90
        4
 70
     0
 43
0.0
 10
518.638855
 20
463.762665
 10
518.722412
 20
463.97052
 10
518.781616
 20
464.21582
 10
518.822632
 20
464.698364
  0
LWPOLYLINE
  5
195
330
134
100
AcDbEntity
  8
0
  6
Continuous
 62
     0
370
    30
100
AcDbPolyline
 90
        4
 70
     0
 43
0.0
 10
518.822632
 20
469.998383
 10
518.809509
 20
470.275818
 10
518.769897
 20
470.541626
 10
518.638916
 20
470.93396
  0
LWPOLYLINE
  5
196
330
134
100
AcDbEntity
  8
0
  6
Continuous
 62
     0
370
    30
100
AcDbPolyline
 90
        4
 70
     0
 43
0.0
 10
518.638855
 20
469.062653
 10
518.722412
 20
469.270508
 10
518.781616
 20
469.515839
 10
518.822632
 20
469.998383
  0
LWPOLYLINE
  5
197
330
134
100
AcDbEntity
  8
0
  6
Continuous
 62
     0
370
    30
100
AcDbPolyline
 90
        4
 70
     0
 43
0.0
 10
518.822632
 20
475.29837
 10
518.809509
 20
475.575836
 10
518.769897
 20
475.841614
 10
518.638916
 20
476.233978
  0
LWPOLYLINE
  5
198
330
134
100
AcDbEntity
  8
0
  6
Continuous
 62
     0
370
    30
100
AcDbPolyline
 90
        4
 70
     0
 43
0.0
 10
518.638855
 20
474.362671
 10
518.722412
 20
474.570526
 10
518.781616
 20
474.815826
 10
518.822632
 20
475.29837
  0
LWPOLYLINE
  5
199
330
134
100
AcDbEntity
  8
0
  6
Continuous
 62
     0
370
    30
100
AcDbPolyline
 90
        4
 70
     0
 43
0.0
 10
518.822632
 20
480.598358
 10
518.809509
 20
480.875824
 10
518.769897
 20
481.141602
 10
518.638916
 20
481.533966
  0
LWPOLYLINE
  5
19A
330
134
100
AcDbEntity
  8
0
  6
Continuous
 62
     0
370
    30
100
AcDbPolyline
 90
        4
 70
     0
 43
0.0
 10
518.638855
 20
479.662659
 10
518.722412
 20
479.870514
 10
518.781616
 20
480.115845
 10
518.822632
 20
480.598358
  0
LWPOLYLINE
  5
19B
330
134
100
AcDbEntity
  8
0
  6
Continuous
 62
     0
370
    30
100
AcDbPolyline
 90
        4
 70
     0
 43
0.0
 10
518.822632
 20
485.898376
 10
518.809509
 20
486.175812
 10
518.769897
 20
486.44162
 10
518.638916
 20
486.833984
  0
LWPOLYLINE
  5
19C
330
134
100
AcDbEntity
  8
0
  6
Continuous
 62
     0
370
    30
100
AcDbPolyline
 90
        4
 70
     0
 43
0.0
 10
518.638855
 20
484.962646
 10
518.722412
 20
485.170502
 10
518.781616
 20
485.415833
 10
518.822632
 20
485.898376
  0
LWPOLYLINE
  5
19D
330
134
100
AcDbEntity
  8
0
  6
Continuous
 62
     0
370
    30
100
AcDbPolyline
 90
        4
 70
     0
 43
0.0
 10
518.822632
 20
491.198364
 10
518.809509
 20
491.47583
 10
518.769897
 20
491.741608
 10
518.638916
 20
492.133972
  0
LWPOLYLINE
  5
19E
330
134
100
AcDbEntity
  8
0
  6
Continuous
 62
     0
370
    30
100
AcDbPolyline
 90
        4
 70
     0
 43
0.0
 10
518.638855
 20
490.262665
 10
518.722412
 20
490.47052
 10
518.781616
 20
490.71582
 10
518.822632
 20
491.198364
  0
LWPOLYLINE
  5
19F
330
134
100
AcDbEntity
  8
0
  6
Continuous
 62
     0
370
    30
100
AcDbPolyline
 90
        4
 70
     0
 43
0.0
 10
518.822632
 20
496.498383
 10
518.809509
 20
496.775818
 10
518.769897
 20
497.041626
 10
518.638916
 20
497.43396
  0
LWPOLYLINE
  5
1A0
330
134
100
AcDbEntity
  8
0
  6
Continuous
 62
     0
370
    30
100
AcDbPolyline
 90
        4
 70
     0
 43
0.0
 10
518.638855
 20
495.562653
 10
518.722412
 20
495.770508
 10
518.781616
 20
496.015839
 10
518.822632
 20
496.498383
  0
LWPOLYLINE
  5
1A1
330
134
100
AcDbEntity
  8
0
  6
Continuous
 62
     0
370
    30
100
AcDbPolyline
 90
        4
 70
     0
 43
0.0
 10
518.822632
 20
501.79837
 10
518.809509
 20
502.075836
 10
518.769897
 20
502.341614
 10
518.638916
 20
502.733978
  0
LWPOLYLINE
  5
1A2
330
134
100
AcDbEntity
  8
0
  6
Continuous
 62
     0
370
    30
100
AcDbPolyline
 90
        4
 70
     0
 43
0.0
 10
518.638855
 20
500.862671
 10
518.722412
 20
501.070526
 10
518.781616
 20
501.315826
 10
518.822632
 20
501.79837
  0
LWPOLYLINE
  5
1A3
330
134
100
AcDbEntity
  8
0
  6
Continuous
 62
     0
370
    30
100
AcDbPolyline
 90
        4
 70
     0
 43
0.0
 10
518.822632
 20
507.098358
 10
518.809509
 20
507.375824
 10
518.769897
 20
507.641602
 10
518.638916
 20
508.033966
  0
LWPOLYLINE
  5
1A4
330
134
100
AcDbEntity
  8
0
  6
Continuous
 62
     0
370
    30
100
AcDbPolyline
 90
        4
 70
     0
 43
0.0
 10
518.638855
 20
506.162659
 10
518.722412
 20
506.370514
 10
518.781616
 20
506.615845
 10
518.822632
 20
507.098358
  0
LWPOLYLINE
  5
1A5
330
134
100
AcDbEntity
  8
0
  6
Continuous
 62
     0
370
    30
100
AcDbPolyline
 90
        4
 70
     0
 43
0.0
 10
518.822632
 20
512.398376
 10
518.809509
 20
512.675842
 10
518.769897
 20
512.941589
 10
518.638916
 20
513.333984
  0
LWPOLYLINE
  5
1A6
330
134
100
AcDbEntity
  8
0
  6
Continuous
 62
     0
370
    30
100
AcDbPolyline
 90
        4
 70
     0
 43
0.0
 10
518.638855
 20
511.462646
 10
518.722412
 20
511.670502
 10
518.781616
 20
511.915833
 10
518.822632
 20
512.398376
  0
LINE
  5
1A7
330
134
100
AcDbEntity
  8
0
  6
Continuous
 62
     0
370
    30
100
AcDbLine
 10
520.824715
 20
527.598392
 30
0.0
 11
508.579449
 21
527.598392
 31
0.0
  0
LINE
  5
1A8
330
134
100
AcDbEntity
  8
0
  6
Continuous
 62
     0
370
     0
100
AcDbLine
 10
508.579449
 20
527.598392
 30
0.0
 11
508.579449
 21
525.898392
 31
0.0
  0
LINE
  5
1A9
330
134
100
AcDbEntity
  8
0
  6
Continuous
 62
     0
370
    30
100
AcDbLine
 10
508.579449
 20
527.598392
 30
0.0
 11
496.824715
 21
527.598392
 31
0.0
  0
LINE
  5
1AA
330
134
100
AcDbEntity
  8
0
  6
Continuous
 62
     0
370
    30
100
AcDbLine
 10
496.824715
 20
347.898392
 30
0.0
 11
496.961686
 21
347.898392
 31
0.0
  0
LINE
  5
1AB
330
134
100
AcDbEntity
  8
0
  6
Continuous
 62
     0
370
    30
100
AcDbLine
 10
498.324715
 20
339.898392
 30
0.0
 11
508.610107
 21
339.898392
 31
0.0
  0
LINE
  5
1AC
330
134
100
AcDbEntity
  8
0
  6
Continuous
 62
     0
370
     0
100
AcDbLine
 10
508.610107
 20
339.898392
 30
0.0
 11
508.610107
 21
347.898392
 31
0.0
  0
LINE
  5
1AD
330
134
100
AcDbEntity
  8
0
  6
Continuous
 62
     0
370
    30
100
AcDbLine
 10
508.610107
 20
339.898392
 30
0.0
 11
519.324715
 21
339.898392
 31
0.0
  0
LINE
  5
1AE
330
134
100
AcDbEntity
  8
0
  6
Continuous
 62
     0
370
    30
100
AcDbLine
 10
519.324715
 20
347.898392
 30
0.0
 11
519.324715
 21
339.898392
 31
0.0
  0
LINE
  5
1AF
330
134
100
AcDbEntity
  8
0
  6
Continuous
 62
     0
370
    30
100
AcDbLine
 10
498.324715
 20
347.898392
 30
0.0
 11
498.324715
 21
339.898392
 31
0.0
  0
LINE
  5
1B0
330
134
100
AcDbEntity
  8
0
  6
Continuous
 62
     0
370
    30
100
AcDbLine
 10
496.824715
 20
347.898392
 30
0.0
 11
496.824715
 21
350.098392
 31
0.0
  0
LINE
  5
1B1
330
134
100
AcDbEntity
  8
0
  6
Continuous
 62
     0
370
    30
100
AcDbLine
 10
496.824715
 20
527.598392
 30
0.0
 11
496.824715
 21
525.898392
 31
0.0
  0
LINE
  5
1B2
330
134
100
AcDbEntity
  8
0
  6
Continuous
 62
     0
370
    30
100
AcDbLine
 10
520.824715
 20
527.598392
 30
0.0
 11
520.824715
 21
525.898392
 31
0.0
  0
LINE
  5
1B3
330
134
100
AcDbEntity
  8
0
  6
Continuous
 62
     0
370
    30
100
AcDbLine
 10
520.824715
 20
347.898392
 30
0.0
 11
520.824715
 21
458.156095
 31
0.0
  0
LINE
  5
1B4
330
134
100
AcDbEntity
  8
0
  6
Continuous
 62
     0
370
    30
100
AcDbLine
 10
520.824715
 20
460.640676
 30
0.0
 11
520.824715
 21
463.456095
 31
0.0
  0
LINE
  5
1B5
330
134
100
AcDbEntity
  8
0
  6
Continuous
 62
     0
370
    30
100
AcDbLine
 10
520.824715
 20
465.940676
 30
0.0
 11
520.824715
 21
468.756095
 31
0.0
  0
LINE
  5
1B6
330
134
100
AcDbEntity
  8
0
  6
Continuous
 62
     0
370
    30
100
AcDbLine
 10
520.824715
 20
471.240676
 30
0.0
 11
520.824715
 21
474.056095
 31
0.0
  0
LINE
  5
1B7
330
134
100
AcDbEntity
  8
0
  6
Continuous
 62
     0
370
    30
100
AcDbLine
 10
520.824715
 20
476.540676
 30
0.0
 11
520.824715
 21
479.356095
 31
0.0
  0
LINE
  5
1B8
330
134
100
AcDbEntity
  8
0
  6
Continuous
 62
     0
370
    30
100
AcDbLine
 10
520.824715
 20
481.840676
 30
0.0
 11
520.824715
 21
484.656095
 31
0.0
  0
LINE
  5
1B9
330
134
100
AcDbEntity
  8
0
  6
Continuous
 62
     0
370
    30
100
AcDbLine
 10
520.824715
 20
487.140676
 30
0.0
 11
520.824715
 21
489.956095
 31
0.0
  0
LINE
  5
1BA
330
134
100
AcDbEntity
  8
0
  6
Continuous
 62
     0
370
    30
100
AcDbLine
 10
520.824715
 20
492.440676
 30
0.0
 11
520.824715
 21
495.256095
 31
0.0
  0
LINE
  5
1BB
330
134
100
AcDbEntity
  8
0
  6
Continuous
 62
     0
370
    30
100
AcDbLine
 10
520.824715
 20
497.740676
 30
0.0
 11
520.824715
 21
500.556095
 31
0.0
  0
LINE
  5
1BC
330
134
100
AcDbEntity
  8
0
  6
Continuous
 62
     0
370
    30
100
AcDbLine
 10
520.824715
 20
503.040676
 30
0.0
 11
520.824715
 21
505.856095
 31
0.0
  0
LINE
  5
1BD
330
134
100
AcDbEntity
  8
0
  6
Continuous
 62
     0
370
    30
100
AcDbLine
 10
520.824715
 20
508.340676
 30
0.0
 11
520.824715
 21
511.156095
 31
0.0
  0
LINE
  5
1BE
330
134
100
AcDbEntity
  8
0
  6
Continuous
 62
     0
370
    30
100
AcDbLine
 10
520.824715
 20
513.640676
 30
0.0
 11
520.824715
 21
525.898392
 31
0.0
  0
LINE
  5
1BF
330
134
100
AcDbEntity
  8
0
  6
Continuous
 62
     0
370
    30
100
AcDbLine
 10
496.824715
 20
350.098392
 30
0.0
 11
496.824715
 21
525.898392
 31
0.0
  0
ENDBLK
  5
1C1
330
134
100
AcDbEntity
  8
0
100
AcDbBlockEnd
  0
BLOCK
  5
25E
330
1C3
100
AcDbEntity
  8
0
100
AcDbBlockBegin
  2
d
 70
     0
 10
292.425201
 20
118.046913
 30
0.0
  3
d
  1

  0
ELLIPSE
  5
1C4
330
1C3
100
AcDbEntity
  8
0
  6
Continuous
 62
     0
370
     0
100
AcDbEllipse
 10
487.544287
 20
270.570321
 30
0.0
 11
12.0
 21
-6.661338147750939E-16
 31
0.0
210
0.0
220
0.0
230
-1.0
 40
0.707107
 41
6.283185283721288
 42
7.089023766552756
  0
ELLIPSE
  5
1C5
330
1C3
100
AcDbEntity
  8
0
  6
Continuous
 62
     0
370
     0
100
AcDbEllipse
 10
487.544287
 20
270.570321
 30
0.0
 11
12.0
 21
-6.661338147750939E-16
 31
0.0
210
0.0
220
0.0
230
-1.0
 40
0.707107
 41
0.8058384593731691
 42
3.141592630131495
  0
ELLIPSE
  5
1C6
330
1C3
100
AcDbEntity
  8
0
  6
Continuous
 62
     0
370
    30
100
AcDbEllipse
 10
487.544287
 20
144.705318
 30
0.0
 11
-12.0
 21
6.661338147750939E-16
 31
0.0
210
0.0
220
0.0
230
1.0
 40
0.707107
 41
0.0000000234582984
 42
3.141592677048091
  0
LWPOLYLINE
  5
1C7
330
1C3
100
AcDbEntity
  8
0
  6
Continuous
 62
     0
370
    30
100
AcDbPolyline
 90
       17
 70
     0
 43
0.0
 10
478.068817
 20
218.341217
 10
478.083588
 20
218.499939
 10
478.127808
 20
218.626053
 10
478.200195
 20
218.714493
 10
478.29837
 20
218.763
 10
478.419678
 20
218.770691
 10
478.560364
 20
218.738846
 10
478.716339
 20
218.668625
 10
478.88324
 20
218.55719
 10
479.053802
 20
218.421143
 10
479.220459
 20
218.255569
 10
479.376953
 20
218.069626
 10
479.517273
 20
217.870605
 10
479.634644
 20
217.664398
 10
479.723663
 20
217.457901
 10
479.779755
 20
217.258575
 10
479.800079
 20
217.065918
  0
LWPOLYLINE
  5
1C8
330
1C3
100
AcDbEntity
  8
0
  6
Continuous
 62
     0
370
    30
100
AcDbPolyline
 90
       17
 70
     0
 43
0.0
 10
479.800079
 20
217.065918
 10
479.781647
 20
216.904922
 10
479.727234
 20
216.771835
 10
479.639893
 20
216.67276
 10
479.523834
 20
216.612061
 10
479.384613
 20
216.592346
 10
479.228882
 20
216.613678
 10
479.062805
 20
216.676758
 10
478.892212
 20
216.785492
 10
478.725128
 20
216.923569
 10
478.568481
 20
217.095764
 10
478.42691
 20
217.291626
 10
478.304382
 20
217.502594
 10
478.204926
 20
217.720886
 10
478.131195
 20
217.93782
 10
478.085388
 20
218.144318
 10
478.068817
 20
218.341217
  0
LWPOLYLINE
  5
1C9
330
1C3
100
AcDbEntity
  8
0
  6
Continuous
 62
     0
370
    30
100
AcDbPolyline
 90
       17
 70
     0
 43
0.0
 10
478.068817
 20
222.088882
 10
478.083588
 20
222.247604
 10
478.127808
 20
222.373718
 10
478.200195
 20
222.462158
 10
478.29837
 20
222.510666
 10
478.419678
 20
222.518356
 10
478.560364
 20
222.486511
 10
478.716339
 20
222.41629
 10
478.88324
 20
222.304855
 10
479.053802
 20
222.168808
 10
479.220459
 20
222.003235
 10
479.376953
 20
221.817291
 10
479.517273
 20
221.618271
 10
479.634644
 20
221.412064
 10
479.723663
 20
221.205566
 10
479.779755
 20
221.006241
 10
479.800079
 20
220.813583
  0
LWPOLYLINE
  5
1CA
330
1C3
100
AcDbEntity
  8
0
  6
Continuous
 62
     0
370
    30
100
AcDbPolyline
 90
       17
 70
     0
 43
0.0
 10
479.800079
 20
220.813583
 10
479.781647
 20
220.652588
 10
479.727234
 20
220.519501
 10
479.639893
 20
220.420425
 10
479.523834
 20
220.359726
 10
479.384613
 20
220.340012
 10
479.228882
 20
220.361343
 10
479.062805
 20
220.424423
 10
478.892212
 20
220.533157
 10
478.725128
 20
220.671234
 10
478.568481
 20
220.84343
 10
478.42691
 20
221.039291
 10
478.304382
 20
221.250259
 10
478.204926
 20
221.468552
 10
478.131195
 20
221.685486
 10
478.085388
 20
221.891998
 10
478.068817
 20
222.088882
  0
LWPOLYLINE
  5
1CB
330
1C3
100
AcDbEntity
  8
0
  6
Continuous
 62
     0
370
    30
100
AcDbPolyline
 90
       17
 70
     0
 43
0.0
 10
478.068817
 20
225.836548
 10
478.083588
 20
225.99527
 10
478.127808
 20
226.121384
 10
478.200195
 20
226.209824
 10
478.29837
 20
226.258331
 10
478.419678
 20
226.266022
 10
478.560364
 20
226.234177
 10
478.716339
 20
226.163956
 10
478.88324
 20
226.052521
 10
479.053802
 20
225.916473
 10
479.220459
 20
225.7509
 10
479.376953
 20
225.564957
 10
479.517273
 20
225.365936
 10
479.634644
 20
225.159729
 10
479.723663
 20
224.953232
 10
479.779755
 20
224.753906
 10
479.800079
 20
224.561249
  0
LWPOLYLINE
  5
1CC
330
1C3
100
AcDbEntity
  8
0
  6
Continuous
 62
     0
370
    30
100
AcDbPolyline
 90
       17
 70
     0
 43
0.0
 10
479.800079
 20
224.561249
 10
479.781647
 20
224.400253
 10
479.727234
 20
224.267166
 10
479.639893
 20
224.168091
 10
479.523834
 20
224.107391
 10
479.384613
 20
224.087677
 10
479.228882
 20
224.109009
 10
479.062805
 20
224.172089
 10
478.892212
 20
224.280823
 10
478.725128
 20
224.4189
 10
478.568481
 20
224.591095
 10
478.42691
 20
224.786957
 10
478.304382
 20
224.997925
 10
478.204926
 20
225.216217
 10
478.131195
 20
225.433151
 10
478.085388
 20
225.639664
 10
478.068817
 20
225.836548
  0
LWPOLYLINE
  5
1CD
330
1C3
100
AcDbEntity
  8
0
  6
Continuous
 62
     0
370
    30
100
AcDbPolyline
 90
       17
 70
     0
 43
0.0
 10
478.068817
 20
229.584213
 10
478.083588
 20
229.742935
 10
478.127808
 20
229.869049
 10
478.200195
 20
229.957489
 10
478.29837
 20
230.005997
 10
478.419678
 20
230.013687
 10
478.560364
 20
229.981842
 10
478.716339
 20
229.911621
 10
478.88324
 20
229.800186
 10
479.053802
 20
229.664139
 10
479.220459
 20
229.498581
 10
479.376953
 20
229.312622
 10
479.517273
 20
229.113602
 10
479.634644
 20
228.907394
 10
479.723663
 20
228.700912
 10
479.779755
 20
228.501572
 10
479.800079
 20
228.308914
  0
LWPOLYLINE
  5
1CE
330
1C3
100
AcDbEntity
  8
0
  6
Continuous
 62
     0
370
    30
100
AcDbPolyline
 90
       17
 70
     0
 43
0.0
 10
479.800079
 20
228.308914
 10
479.781647
 20
228.147919
 10
479.727234
 20
228.014832
 10
479.639893
 20
227.915756
 10
479.523834
 20
227.855057
 10
479.384613
 20
227.835342
 10
479.228882
 20
227.856674
 10
479.062805
 20
227.919754
 10
478.892212
 20
228.028488
 10
478.725128
 20
228.166565
 10
478.568481
 20
228.33876
 10
478.42691
 20
228.534622
 10
478.304382
 20
228.74559
 10
478.204926
 20
228.963882
 10
478.131195
 20
229.180817
 10
478.085388
 20
229.387329
 10
478.068817
 20
229.584213
  0
LWPOLYLINE
  5
1CF
330
1C3
100
AcDbEntity
  8
0
  6
Continuous
 62
     0
370
    30
100
AcDbPolyline
 90
       17
 70
     0
 43
0.0
 10
478.068817
 20
233.331879
 10
478.083588
 20
233.490601
 10
478.127808
 20
233.616714
 10
478.200195
 20
233.705154
 10
478.29837
 20
233.753662
 10
478.419678
 20
233.761353
 10
478.560364
 20
233.729523
 10
478.716339
 20
233.659286
 10
478.88324
 20
233.547852
 10
479.053802
 20
233.411804
 10
479.220459
 20
233.246246
 10
479.376953
 20
233.060287
 10
479.517273
 20
232.861267
 10
479.634644
 20
232.65506
 10
479.723663
 20
232.448578
 10
479.779755
 20
232.249237
 10
479.800079
 20
232.05658
  0
LWPOLYLINE
  5
1D0
330
1C3
100
AcDbEntity
  8
0
  6
Continuous
 62
     0
370
    30
100
AcDbPolyline
 90
       17
 70
     0
 43
0.0
 10
479.800079
 20
232.05658
 10
479.781647
 20
231.895584
 10
479.727234
 20
231.762497
 10
479.639893
 20
231.663422
 10
479.523834
 20
231.602722
 10
479.384613
 20
231.583008
 10
479.228882
 20
231.60434
 10
479.062805
 20
231.667419
 10
478.892212
 20
231.776154
 10
478.725128
 20
231.91423
 10
478.568481
 20
232.086426
 10
478.42691
 20
232.282288
 10
478.304382
 20
232.493256
 10
478.204926
 20
232.711548
 10
478.131195
 20
232.928482
 10
478.085388
 20
233.134995
 10
478.068817
 20
233.331879
  0
LWPOLYLINE
  5
1D1
330
1C3
100
AcDbEntity
  8
0
  6
Continuous
 62
     0
370
    30
100
AcDbPolyline
 90
       17
 70
     0
 43
0.0
 10
478.068817
 20
237.079544
 10
478.083588
 20
237.238266
 10
478.127808
 20
237.36438
 10
478.200195
 20
237.45282
 10
478.29837
 20
237.501328
 10
478.419678
 20
237.509018
 10
478.560364
 20
237.477188
 10
478.716339
 20
237.406952
 10
478.88324
 20
237.295517
 10
479.053802
 20
237.15947
 10
479.220459
 20
236.993912
 10
479.376953
 20
236.807953
 10
479.517273
 20
236.608932
 10
479.634644
 20
236.402725
 10
479.723663
 20
236.196243
 10
479.779755
 20
235.996902
 10
479.800079
 20
235.804245
  0
LWPOLYLINE
  5
1D2
330
1C3
100
AcDbEntity
  8
0
  6
Continuous
 62
     0
370
    30
100
AcDbPolyline
 90
       17
 70
     0
 43
0.0
 10
479.800079
 20
235.804245
 10
479.781647
 20
235.64325
 10
479.727234
 20
235.510162
 10
479.639893
 20
235.411087
 10
479.523834
 20
235.350388
 10
479.384613
 20
235.330673
 10
479.228882
 20
235.352005
 10
479.062805
 20
235.415085
 10
478.892212
 20
235.523819
 10
478.725128
 20
235.661896
 10
478.568481
 20
235.834091
 10
478.42691
 20
236.029953
 10
478.304382
 20
236.240921
 10
478.204926
 20
236.459213
 10
478.131195
 20
236.676147
 10
478.085388
 20
236.88266
 10
478.068817
 20
237.079544
  0
LWPOLYLINE
  5
1D3
330
1C3
100
AcDbEntity
  8
0
  6
Continuous
 62
     0
370
    30
100
AcDbPolyline
 90
       17
 70
     0
 43
0.0
 10
478.068817
 20
240.827209
 10
478.083588
 20
240.985931
 10
478.127808
 20
241.112045
 10
478.200195
 20
241.200485
 10
478.29837
 20
241.248993
 10
478.419678
 20
241.256683
 10
478.560364
 20
241.224854
 10
478.716339
 20
241.154617
 10
478.88324
 20
241.043182
 10
479.053802
 20
240.907135
 10
479.220459
 20
240.741577
 10
479.376953
 20
240.555618
 10
479.517273
 20
240.356598
 10
479.634644
 20
240.150391
 10
479.723663
 20
239.943909
 10
479.779755
 20
239.744568
 10
479.800079
 20
239.55191
  0
LWPOLYLINE
  5
1D4
330
1C3
100
AcDbEntity
  8
0
  6
Continuous
 62
     0
370
    30
100
AcDbPolyline
 90
       17
 70
     0
 43
0.0
 10
479.800079
 20
239.55191
 10
479.781647
 20
239.390915
 10
479.727234
 20
239.257828
 10
479.639893
 20
239.158752
 10
479.523834
 20
239.098053
 10
479.384613
 20
239.078339
 10
479.228882
 20
239.09967
 10
479.062805
 20
239.16275
 10
478.892212
 20
239.271484
 10
478.725128
 20
239.409561
 10
478.568481
 20
239.581757
 10
478.42691
 20
239.777618
 10
478.304382
 20
239.988586
 10
478.204926
 20
240.206879
 10
478.131195
 20
240.423813
 10
478.085388
 20
240.630325
 10
478.068817
 20
240.827209
  0
LWPOLYLINE
  5
1D5
330
1C3
100
AcDbEntity
  8
0
  6
Continuous
 62
     0
370
    30
100
AcDbPolyline
 90
       17
 70
     0
 43
0.0
 10
478.068817
 20
244.574875
 10
478.083588
 20
244.733597
 10
478.127808
 20
244.859711
 10
478.200195
 20
244.948151
 10
478.29837
 20
244.996674
 10
478.419678
 20
245.004349
 10
478.560364
 20
244.972519
 10
478.716339
 20
244.902283
 10
478.88324
 20
244.790848
 10
479.053802
 20
244.6548
 10
479.220459
 20
244.489243
 10
479.376953
 20
244.303284
 10
479.517273
 20
244.104263
 10
479.634644
 20
243.898056
 10
479.723663
 20
243.691574
 10
479.779755
 20
243.492233
 10
479.800079
 20
243.299576
  0
LWPOLYLINE
  5
1D6
330
1C3
100
AcDbEntity
  8
0
  6
Continuous
 62
     0
370
    30
100
AcDbPolyline
 90
       17
 70
     0
 43
0.0
 10
479.800079
 20
243.299576
 10
479.781647
 20
243.13858
 10
479.727234
 20
243.005493
 10
479.639893
 20
242.906418
 10
479.523834
 20
242.845718
 10
479.384613
 20
242.826004
 10
479.228882
 20
242.847336
 10
479.062805
 20
242.910431
 10
478.892212
 20
243.01915
 10
478.725128
 20
243.157227
 10
478.568481
 20
243.329422
 10
478.42691
 20
243.525284
 10
478.304382
 20
243.736252
 10
478.204926
 20
243.954544
 10
478.131195
 20
244.171478
 10
478.085388
 20
244.377991
 10
478.068817
 20
244.574875
  0
LWPOLYLINE
  5
1D7
330
1C3
100
AcDbEntity
  8
0
  6
Continuous
 62
     0
370
    30
100
AcDbPolyline
 90
       17
 70
     0
 43
0.0
 10
478.068817
 20
248.32254
 10
478.083588
 20
248.481262
 10
478.127808
 20
248.607376
 10
478.200195
 20
248.695816
 10
478.29837
 20
248.744339
 10
478.419678
 20
248.752014
 10
478.560364
 20
248.720184
 10
478.716339
 20
248.649948
 10
478.88324
 20
248.538513
 10
479.053802
 20
248.402466
 10
479.220459
 20
248.236908
 10
479.376953
 20
248.050949
 10
479.517273
 20
247.851929
 10
479.634644
 20
247.645737
 10
479.723663
 20
247.43924
 10
479.779755
 20
247.239899
 10
479.800079
 20
247.047241
  0
LWPOLYLINE
  5
1D8
330
1C3
100
AcDbEntity
  8
0
  6
Continuous
 62
     0
370
    30
100
AcDbPolyline
 90
       17
 70
     0
 43
0.0
 10
479.800079
 20
247.047241
 10
479.781647
 20
246.886246
 10
479.727234
 20
246.753159
 10
479.639893
 20
246.654083
 10
479.523834
 20
246.593384
 10
479.384613
 20
246.573669
 10
479.228882
 20
246.595001
 10
479.062805
 20
246.658096
 10
478.892212
 20
246.766815
 10
478.725128
 20
246.904892
 10
478.568481
 20
247.077087
 10
478.42691
 20
247.272949
 10
478.304382
 20
247.483917
 10
478.204926
 20
247.702209
 10
478.131195
 20
247.919144
 10
478.085388
 20
248.125656
 10
478.068817
 20
248.32254
  0
LWPOLYLINE
  5
1D9
330
1C3
100
AcDbEntity
  8
0
  6
Continuous
 62
     0
370
    30
100
AcDbPolyline
 90
       17
 70
     0
 43
0.0
 10
478.068817
 20
252.070206
 10
478.083588
 20
252.228928
 10
478.127808
 20
252.355042
 10
478.200195
 20
252.443481
 10
478.29837
 20
252.492004
 10
478.419678
 20
252.49968
 10
478.560364
 20
252.46785
 10
478.716339
 20
252.397614
 10
478.88324
 20
252.286179
 10
479.053802
 20
252.150146
 10
479.220459
 20
251.984573
 10
479.376953
 20
251.798615
 10
479.517273
 20
251.599594
 10
479.634644
 20
251.393402
 10
479.723663
 20
251.186905
 10
479.779755
 20
250.987564
 10
479.800079
 20
250.794907
  0
LWPOLYLINE
  5
1DA
330
1C3
100
AcDbEntity
  8
0
  6
Continuous
 62
     0
370
    30
100
AcDbPolyline
 90
       17
 70
     0
 43
0.0
 10
479.800079
 20
250.794907
 10
479.781647
 20
250.633911
 10
479.727234
 20
250.500824
 10
479.639893
 20
250.401749
 10
479.523834
 20
250.341049
 10
479.384613
 20
250.321335
 10
479.228882
 20
250.342667
 10
479.062805
 20
250.405762
 10
478.892212
 20
250.514481
 10
478.725128
 20
250.652557
 10
478.568481
 20
250.824753
 10
478.42691
 20
251.020615
 10
478.304382
 20
251.231583
 10
478.204926
 20
251.449875
 10
478.131195
 20
251.666809
 10
478.085388
 20
251.873322
 10
478.068817
 20
252.070206
  0
LWPOLYLINE
  5
1DB
330
1C3
100
AcDbEntity
  8
0
  6
Continuous
 62
     0
370
    30
100
AcDbPolyline
 90
       17
 70
     0
 43
0.0
 10
478.068817
 20
255.817871
 10
478.083588
 20
255.976593
 10
478.127808
 20
256.102722
 10
478.200195
 20
256.191132
 10
478.29837
 20
256.239655
 10
478.419678
 20
256.247345
 10
478.560364
 20
256.215515
 10
478.716339
 20
256.145264
 10
478.88324
 20
256.033844
 10
479.053802
 20
255.897812
 10
479.220459
 20
255.732239
 10
479.376953
 20
255.54628
 10
479.517273
 20
255.34726
 10
479.634644
 20
255.141068
 10
479.723663
 20
254.93457
 10
479.779755
 20
254.735229
 10
479.800079
 20
254.542572
  0
LWPOLYLINE
  5
1DC
330
1C3
100
AcDbEntity
  8
0
  6
Continuous
 62
     0
370
    30
100
AcDbPolyline
 90
       17
 70
     0
 43
0.0
 10
479.800079
 20
254.542572
 10
479.781647
 20
254.381577
 10
479.727234
 20
254.248489
 10
479.639893
 20
254.149414
 10
479.523834
 20
254.088715
 10
479.384613
 20
254.069
 10
479.228882
 20
254.090332
 10
479.062805
 20
254.153427
 10
478.892212
 20
254.262146
 10
478.725128
 20
254.400223
 10
478.568481
 20
254.572418
 10
478.42691
 20
254.76828
 10
478.304382
 20
254.979248
 10
478.204926
 20
255.19754
 10
478.131195
 20
255.414474
 10
478.085388
 20
255.620987
 10
478.068817
 20
255.817871
  0
LWPOLYLINE
  5
1DD
330
1C3
100
AcDbEntity
  8
0
  6
Continuous
 62
     0
370
    30
100
AcDbPolyline
 90
       17
 70
     0
 43
0.0
 10
475.656738
 20
222.38884
 10
475.660034
 20
222.544266
 10
475.670197
 20
222.660126
 10
475.687561
 20
222.731522
 10
475.712494
 20
222.756592
 10
475.745483
 20
222.734863
 10
475.786499
 20
222.668335
 10
475.835297
 20
222.558914
 10
475.891113
 20
222.404953
 10
475.951782
 20
222.224762
 10
476.014343
 20
222.01535
 10
476.075897
 20
221.78775
 10
476.13327
 20
221.550995
 10
476.182739
 20
221.313004
 10
476.221069
 20
221.082291
 10
476.245514
 20
220.867722
 10
476.254272
 20
220.672318
  0
LWPOLYLINE
  5
1DE
330
1C3
100
AcDbEntity
  8
0
  6
Continuous
 62
     0
370
    30
100
AcDbPolyline
 90
       17
 70
     0
 43
0.0
 10
476.254272
 20
220.672318
 10
476.246094
 20
220.51619
 10
476.222137
 20
220.397873
 10
476.184296
 20
220.322556
 10
476.135162
 20
220.293274
 10
476.078033
 20
220.311005
 10
476.016602
 20
220.373795
 10
475.954071
 20
220.480698
 10
475.89328
 20
220.633713
 10
475.83728
 20
220.814514
 10
475.788177
 20
221.026245
 10
475.746887
 20
221.257202
 10
475.713562
 20
221.498062
 10
475.688354
 20
221.740219
 10
475.670746
 20
221.974548
 10
475.660309
 20
222.19162
 10
475.656738
 20
222.38884
  0
LWPOLYLINE
  5
1DF
330
1C3
100
AcDbEntity
  8
0
  6
Continuous
 62
     0
370
    30
100
AcDbPolyline
 90
       17
 70
     0
 43
0.0
 10
475.656738
 20
226.136505
 10
475.660034
 20
226.291931
 10
475.670197
 20
226.407791
 10
475.687561
 20
226.479187
 10
475.712494
 20
226.504257
 10
475.745483
 20
226.482529
 10
475.786499
 20
226.416
 10
475.835297
 20
226.30658
 10
475.891113
 20
226.152618
 10
475.951782
 20
225.972427
 10
476.014343
 20
225.763016
 10
476.075897
 20
225.535416
 10
476.13327
 20
225.29866
 10
476.182739
 20
225.060669
 10
476.221069
 20
224.829956
 10
476.245514
 20
224.615387
 10
476.254272
 20
224.419983
  0
LWPOLYLINE
  5
1E0
330
1C3
100
AcDbEntity
  8
0
  6
Continuous
 62
     0
370
    30
100
AcDbPolyline
 90
       17
 70
     0
 43
0.0
 10
476.254272
 20
224.419983
 10
476.246094
 20
224.263855
 10
476.222137
 20
224.145538
 10
476.184296
 20
224.070221
 10
476.135162
 20
224.040939
 10
476.078033
 20
224.05867
 10
476.016602
 20
224.12146
 10
475.954071
 20
224.228363
 10
475.89328
 20
224.381378
 10
475.83728
 20
224.56218
 10
475.788177
 20
224.773911
 10
475.746887
 20
225.004868
 10
475.713562
 20
225.245728
 10
475.688354
 20
225.487885
 10
475.670746
 20
225.722214
 10
475.660309
 20
225.939285
 10
475.656738
 20
226.136505
  0
LWPOLYLINE
  5
1E1
330
1C3
100
AcDbEntity
  8
0
  6
Continuous
 62
     0
370
    30
100
AcDbPolyline
 90
       17
 70
     0
 43
0.0
 10
475.656738
 20
229.884171
 10
475.660034
 20
230.039597
 10
475.670197
 20
230.155457
 10
475.687561
 20
230.226852
 10
475.712494
 20
230.251923
 10
475.745483
 20
230.230194
 10
475.786499
 20
230.163666
 10
475.835297
 20
230.054245
 10
475.891113
 20
229.900284
 10
475.951782
 20
229.720093
 10
476.014343
 20
229.510681
 10
476.075897
 20
229.283081
 10
476.13327
 20
229.046326
 10
476.182739
 20
228.808334
 10
476.221069
 20
228.577621
 10
476.245514
 20
228.363052
 10
476.254272
 20
228.167648
  0
LWPOLYLINE
  5
1E2
330
1C3
100
AcDbEntity
  8
0
  6
Continuous
 62
     0
370
    30
100
AcDbPolyline
 90
       17
 70
     0
 43
0.0
 10
476.254272
 20
228.167648
 10
476.246094
 20
228.01152
 10
476.222137
 20
227.893204
 10
476.184296
 20
227.817886
 10
476.135162
 20
227.788605
 10
476.078033
 20
227.806335
 10
476.016602
 20
227.869125
 10
475.954071
 20
227.976028
 10
475.89328
 20
228.129044
 10
475.83728
 20
228.309845
 10
475.788177
 20
228.521576
 10
475.746887
 20
228.752533
 10
475.713562
 20
228.993393
 10
475.688354
 20
229.23555
 10
475.670746
 20
229.469879
 10
475.660309
 20
229.686951
 10
475.656738
 20
229.884171
  0
LWPOLYLINE
  5
1E3
330
1C3
100
AcDbEntity
  8
0
  6
Continuous
 62
     0
370
    30
100
AcDbPolyline
 90
       17
 70
     0
 43
0.0
 10
475.656738
 20
233.631836
 10
475.660034
 20
233.787262
 10
475.670197
 20
233.903122
 10
475.687561
 20
233.974518
 10
475.712494
 20
233.999588
 10
475.745483
 20
233.977859
 10
475.786499
 20
233.911331
 10
475.835297
 20
233.80191
 10
475.891113
 20
233.647949
 10
475.951782
 20
233.467758
 10
476.014343
 20
233.258347
 10
476.075897
 20
233.030746
 10
476.13327
 20
232.793991
 10
476.182739
 20
232.556
 10
476.221069
 20
232.325287
 10
476.245514
 20
232.110718
 10
476.254272
 20
231.915314
  0
LWPOLYLINE
  5
1E4
330
1C3
100
AcDbEntity
  8
0
  6
Continuous
 62
     0
370
    30
100
AcDbPolyline
 90
       17
 70
     0
 43
0.0
 10
476.254272
 20
231.915314
 10
476.246094
 20
231.759186
 10
476.222137
 20
231.640869
 10
476.184296
 20
231.565552
 10
476.135162
 20
231.53627
 10
476.078033
 20
231.554001
 10
476.016602
 20
231.616791
 10
475.954071
 20
231.723694
 10
475.89328
 20
231.876709
 10
475.83728
 20
232.05751
 10
475.788177
 20
232.269241
 10
475.746887
 20
232.500198
 10
475.713562
 20
232.741058
 10
475.688354
 20
232.983215
 10
475.670746
 20
233.217545
 10
475.660309
 20
233.434616
 10
475.656738
 20
233.631836
  0
LWPOLYLINE
  5
1E5
330
1C3
100
AcDbEntity
  8
0
  6
Continuous
 62
     0
370
    30
100
AcDbPolyline
 90
       17
 70
     0
 43
0.0
 10
475.656738
 20
237.379501
 10
475.660034
 20
237.534927
 10
475.670197
 20
237.650787
 10
475.687561
 20
237.722183
 10
475.712494
 20
237.747253
 10
475.745483
 20
237.725525
 10
475.786499
 20
237.658997
 10
475.835297
 20
237.549576
 10
475.891113
 20
237.395615
 10
475.951782
 20
237.215424
 10
476.014343
 20
237.006012
 10
476.075897
 20
236.778412
 10
476.13327
 20
236.541656
 10
476.182739
 20
236.303665
 10
476.221069
 20
236.072952
 10
476.245514
 20
235.858383
 10
476.254272
 20
235.662979
  0
LWPOLYLINE
  5
1E6
330
1C3
100
AcDbEntity
  8
0
  6
Continuous
 62
     0
370
    30
100
AcDbPolyline
 90
       17
 70
     0
 43
0.0
 10
476.254272
 20
235.662979
 10
476.246094
 20
235.506851
 10
476.222137
 20
235.388535
 10
476.184296
 20
235.313217
 10
476.135162
 20
235.283936
 10
476.078033
 20
235.301666
 10
476.016602
 20
235.364456
 10
475.954071
 20
235.471359
 10
475.89328
 20
235.624374
 10
475.83728
 20
235.805191
 10
475.788177
 20
236.016907
 10
475.746887
 20
236.247864
 10
475.713562
 20
236.488724
 10
475.688354
 20
236.730881
 10
475.670746
 20
236.96521
 10
475.660309
 20
237.182281
 10
475.656738
 20
237.379501
  0
LWPOLYLINE
  5
1E7
330
1C3
100
AcDbEntity
  8
0
  6
Continuous
 62
     0
370
    30
100
AcDbPolyline
 90
       17
 70
     0
 43
0.0
 10
475.656738
 20
241.127167
 10
475.660034
 20
241.282593
 10
475.670197
 20
241.398453
 10
475.687561
 20
241.469849
 10
475.712494
 20
241.494919
 10
475.745483
 20
241.47319
 10
475.786499
 20
241.406662
 10
475.835297
 20
241.297241
 10
475.891113
 20
241.14328
 10
475.951782
 20
240.963089
 10
476.014343
 20
240.753677
 10
476.075897
 20
240.526077
 10
476.13327
 20
240.289322
 10
476.182739
 20
240.051331
 10
476.221069
 20
239.820618
 10
476.245514
 20
239.606049
 10
476.254272
 20
239.410645
  0
LWPOLYLINE
  5
1E8
330
1C3
100
AcDbEntity
  8
0
  6
Continuous
 62
     0
370
    30
100
AcDbPolyline
 90
       17
 70
     0
 43
0.0
 10
476.254272
 20
239.410645
 10
476.246094
 20
239.254517
 10
476.222137
 20
239.1362
 10
476.184296
 20
239.060883
 10
476.135162
 20
239.031601
 10
476.078033
 20
239.049332
 10
476.016602
 20
239.112122
 10
475.954071
 20
239.219025
 10
475.89328
 20
239.37204
 10
475.83728
 20
239.552856
 10
475.788177
 20
239.764572
 10
475.746887
 20
239.995529
 10
475.713562
 20
240.236389
 10
475.688354
 20
240.478546
 10
475.670746
 20
240.712875
 10
475.660309
 20
240.929947
 10
475.656738
 20
241.127167
  0
LWPOLYLINE
  5
1E9
330
1C3
100
AcDbEntity
  8
0
  6
Continuous
 62
     0
370
    30
100
AcDbPolyline
 90
       17
 70
     0
 43
0.0
 10
475.656738
 20
244.874832
 10
475.660034
 20
245.030258
 10
475.670197
 20
245.146118
 10
475.687561
 20
245.217514
 10
475.712494
 20
245.242584
 10
475.745483
 20
245.220856
 10
475.786499
 20
245.154327
 10
475.835297
 20
245.044907
 10
475.891113
 20
244.890945
 10
475.951782
 20
244.710754
 10
476.014343
 20
244.501343
 10
476.075897
 20
244.273743
 10
476.13327
 20
244.036987
 10
476.182739
 20
243.798996
 10
476.221069
 20
243.568283
 10
476.245514
 20
243.353714
 10
476.254272
 20
243.15831
  0
LWPOLYLINE
  5
1EA
330
1C3
100
AcDbEntity
  8
0
  6
Continuous
 62
     0
370
    30
100
AcDbPolyline
 90
       17
 70
     0
 43
0.0
 10
476.254272
 20
243.15831
 10
476.246094
 20
243.002182
 10
476.222137
 20
242.883865
 10
476.184296
 20
242.808548
 10
476.135162
 20
242.779282
 10
476.078033
 20
242.796997
 10
476.016602
 20
242.859787
 10
475.954071
 20
242.966705
 10
475.89328
 20
243.119705
 10
475.83728
 20
243.300522
 10
475.788177
 20
243.512238
 10
475.746887
 20
243.743195
 10
475.713562
 20
243.984055
 10
475.688354
 20
244.226212
 10
475.670746
 20
244.460541
 10
475.660309
 20
244.677612
 10
475.656738
 20
244.874832
  0
LWPOLYLINE
  5
1EB
330
1C3
100
AcDbEntity
  8
0
  6
Continuous
 62
     0
370
    30
100
AcDbPolyline
 90
       17
 70
     0
 43
0.0
 10
475.656738
 20
248.622513
 10
475.660034
 20
248.777924
 10
475.670197
 20
248.893784
 10
475.687561
 20
248.965179
 10
475.712494
 20
248.99025
 10
475.745483
 20
248.968521
 10
475.786499
 20
248.901993
 10
475.835297
 20
248.792572
 10
475.891113
 20
248.638611
 10
475.951782
 20
248.45842
 10
476.014343
 20
248.249008
 10
476.075897
 20
248.021408
 10
476.13327
 20
247.784653
 10
476.182739
 20
247.546661
 10
476.221069
 20
247.315948
 10
476.245514
 20
247.101379
 10
476.254272
 20
246.905975
  0
LWPOLYLINE
  5
1EC
330
1C3
100
AcDbEntity
  8
0
  6
Continuous
 62
     0
370
    30
100
AcDbPolyline
 90
       17
 70
     0
 43
0.0
 10
476.254272
 20
246.905975
 10
476.246094
 20
246.749847
 10
476.222137
 20
246.631531
 10
476.184296
 20
246.556213
 10
476.135162
 20
246.526947
 10
476.078033
 20
246.544662
 10
476.016602
 20
246.607452
 10
475.954071
 20
246.714371
 10
475.89328
 20
246.867371
 10
475.83728
 20
247.048187
 10
475.788177
 20
247.259903
 10
475.746887
 20
247.49086
 10
475.713562
 20
247.73172
 10
475.688354
 20
247.973877
 10
475.670746
 20
248.208206
 10
475.660309
 20
248.425278
 10
475.656738
 20
248.622513
  0
LWPOLYLINE
  5
1ED
330
1C3
100
AcDbEntity
  8
0
  6
Continuous
 62
     0
370
    30
100
AcDbPolyline
 90
       17
 70
     0
 43
0.0
 10
475.656738
 20
252.370178
 10
475.660034
 20
252.525589
 10
475.670197
 20
252.641449
 10
475.687561
 20
252.712845
 10
475.712494
 20
252.73793
 10
475.745483
 20
252.716187
 10
475.786499
 20
252.649658
 10
475.835297
 20
252.540237
 10
475.891113
 20
252.386276
 10
475.951782
 20
252.206085
 10
476.014343
 20
251.996674
 10
476.075897
 20
251.769089
 10
476.13327
 20
251.532318
 10
476.182739
 20
251.294327
 10
476.221069
 20
251.063614
 10
476.245514
 20
250.849045
 10
476.254272
 20
250.653641
  0
LWPOLYLINE
  5
1EE
330
1C3
100
AcDbEntity
  8
0
  6
Continuous
 62
     0
370
    30
100
AcDbPolyline
 90
       17
 70
     0
 43
0.0
 10
476.254272
 20
250.653641
 10
476.246094
 20
250.497513
 10
476.222137
 20
250.379196
 10
476.184296
 20
250.303879
 10
476.135162
 20
250.274612
 10
476.078033
 20
250.292328
 10
476.016602
 20
250.355118
 10
475.954071
 20
250.462036
 10
475.89328
 20
250.615036
 10
475.83728
 20
250.795853
 10
475.788177
 20
251.007568
 10
475.746887
 20
251.238525
 10
475.713562
 20
251.479385
 10
475.688354
 20
251.721542
 10
475.670746
 20
251.955872
 10
475.660309
 20
252.172943
 10
475.656738
 20
252.370178
  0
LWPOLYLINE
  5
1EF
330
1C3
100
AcDbEntity
  8
0
  6
Continuous
 62
     0
370
    30
100
AcDbPolyline
 90
       17
 70
     0
 43
0.0
 10
475.656738
 20
256.117828
 10
475.660034
 20
256.273254
 10
475.670197
 20
256.38913
 10
475.687561
 20
256.46051
 10
475.712494
 20
256.485596
 10
475.745483
 20
256.463837
 10
475.786499
 20
256.397339
 10
475.835297
 20
256.287903
 10
475.891113
 20
256.133942
 10
475.951782
 20
255.953751
 10
476.014343
 20
255.744339
 10
476.075897
 20
255.516754
 10
476.13327
 20
255.279984
 10
476.182739
 20
255.041992
 10
476.221069
 20
254.811279
 10
476.245514
 20
254.59671
 10
476.254272
 20
254.401306
  0
LWPOLYLINE
  5
1F0
330
1C3
100
AcDbEntity
  8
0
  6
Continuous
 62
     0
370
    30
100
AcDbPolyline
 90
       17
 70
     0
 43
0.0
 10
476.254272
 20
254.401306
 10
476.246094
 20
254.245178
 10
476.222137
 20
254.126862
 10
476.184296
 20
254.051544
 10
476.135162
 20
254.022278
 10
476.078033
 20
254.039993
 10
476.016602
 20
254.102783
 10
475.954071
 20
254.209702
 10
475.89328
 20
254.362701
 10
475.83728
 20
254.543518
 10
475.788177
 20
254.755234
 10
475.746887
 20
254.986191
 10
475.713562
 20
255.227051
 10
475.688354
 20
255.469208
 10
475.670746
 20
255.703537
 10
475.660309
 20
255.920609
 10
475.656738
 20
256.117828
  0
LWPOLYLINE
  5
1F1
330
1C3
100
AcDbEntity
  8
0
  6
Continuous
 62
     0
370
    30
100
AcDbPolyline
 90
       17
 70
     0
 43
0.0
 10
475.656738
 20
259.865509
 10
475.660034
 20
260.020935
 10
475.670197
 20
260.13678
 10
475.687561
 20
260.208191
 10
475.712494
 20
260.233246
 10
475.745483
 20
260.211517
 10
475.786499
 20
260.144989
 10
475.835297
 20
260.035583
 10
475.891113
 20
259.881622
 10
475.951782
 20
259.701416
 10
476.014343
 20
259.492004
 10
476.075897
 20
259.264404
 10
476.13327
 20
259.027649
 10
476.182739
 20
258.789642
 10
476.221069
 20
258.558929
 10
476.245514
 20
258.344391
 10
476.254272
 20
258.148956
  0
LWPOLYLINE
  5
1F2
330
1C3
100
AcDbEntity
  8
0
  6
Continuous
 62
     0
370
    30
100
AcDbPolyline
 90
       17
 70
     0
 43
0.0
 10
476.254272
 20
258.148956
 10
476.246094
 20
257.992859
 10
476.222137
 20
257.874542
 10
476.184296
 20
257.799194
 10
476.135162
 20
257.769928
 10
476.078033
 20
257.787659
 10
476.016602
 20
257.850464
 10
475.954071
 20
257.957367
 10
475.89328
 20
258.110382
 10
475.83728
 20
258.291168
 10
475.788177
 20
258.502899
 10
475.746887
 20
258.733856
 10
475.713562
 20
258.974701
 10
475.688354
 20
259.216888
 10
475.670746
 20
259.451202
 10
475.660309
 20
259.668274
 10
475.656738
 20
259.865509
  0
LWPOLYLINE
  5
1F3
330
1C3
100
AcDbEntity
  8
0
  6
Continuous
 62
     0
370
    30
100
AcDbPolyline
 90
       16
 70
     0
 43
0.0
 10
483.019836
 20
215.688675
 10
483.045288
 20
215.865219
 10
483.121094
 20
216.019913
 10
483.243713
 20
216.146042
 10
483.407623
 20
216.239487
 10
483.606049
 20
216.298157
 10
483.832825
 20
216.316956
 10
484.075287
 20
216.30307
 10
484.325623
 20
216.251923
 10
484.57135
 20
216.166351
 10
484.803986
 20
216.053818
 10
485.010193
 20
215.912766
 10
485.182251
 20
215.7509
 10
485.31192
 20
215.573257
 10
485.392883
 20
215.386642
 10
485.420898
 20
215.19632
  0
LWPOLYLINE
  5
1F4
330
1C3
100
AcDbEntity
  8
0
  6
Continuous
 62
     0
370
    30
100
AcDbPolyline
 90
       16
 70
     0
 43
0.0
 10
485.420898
 20
215.19632
 10
485.393799
 20
215.016159
 10
485.313812
 20
214.850632
 10
485.185211
 20
214.70842
 10
485.014038
 20
214.596771
 10
484.808716
 20
214.520691
 10
484.576813
 20
214.487778
 10
484.331604
 20
214.494003
 10
484.081512
 20
214.544678
 10
483.83905
 20
214.637238
 10
483.611938
 20
214.762756
 10
483.412689
 20
214.9207
 10
483.247833
 20
215.100449
 10
483.124207
 20
215.293777
 10
483.047028
 20
215.491196
 10
483.019836
 20
215.688675
  0
LWPOLYLINE
  5
1F5
330
1C3
100
AcDbEntity
  8
0
  6
Continuous
 62
     0
370
    30
100
AcDbPolyline
 90
       16
 70
     0
 43
0.0
 10
483.019836
 20
219.43634
 10
483.045288
 20
219.612885
 10
483.121094
 20
219.767578
 10
483.243713
 20
219.893707
 10
483.407623
 20
219.987152
 10
483.606049
 20
220.045822
 10
483.832825
 20
220.064621
 10
484.075287
 20
220.050735
 10
484.325623
 20
219.999588
 10
484.57135
 20
219.914017
 10
484.803986
 20
219.801483
 10
485.010193
 20
219.660431
 10
485.182251
 20
219.498566
 10
485.31192
 20
219.320923
 10
485.392883
 20
219.134308
 10
485.420898
 20
218.943985
  0
LWPOLYLINE
  5
1F6
330
1C3
100
AcDbEntity
  8
0
  6
Continuous
 62
     0
370
    30
100
AcDbPolyline
 90
       16
 70
     0
 43
0.0
 10
485.420898
 20
218.943985
 10
485.393799
 20
218.763824
 10
485.313812
 20
218.598297
 10
485.185211
 20
218.456085
 10
485.014038
 20
218.344437
 10
484.808716
 20
218.268356
 10
484.576813
 20
218.235443
 10
484.331604
 20
218.241669
 10
484.081512
 20
218.292343
 10
483.83905
 20
218.384903
 10
483.611938
 20
218.510422
 10
483.412689
 20
218.668365
 10
483.247833
 20
218.848114
 10
483.124207
 20
219.041443
 10
483.047028
 20
219.238861
 10
483.019836
 20
219.43634
  0
LWPOLYLINE
  5
1F7
330
1C3
100
AcDbEntity
  8
0
  6
Continuous
 62
     0
370
    30
100
AcDbPolyline
 90
       16
 70
     0
 43
0.0
 10
483.019836
 20
223.184006
 10
483.045288
 20
223.36055
 10
483.121094
 20
223.515244
 10
483.243713
 20
223.641373
 10
483.407623
 20
223.734818
 10
483.606049
 20
223.793488
 10
483.832825
 20
223.812286
 10
484.075287
 20
223.798401
 10
484.325623
 20
223.747253
 10
484.57135
 20
223.661682
 10
484.803986
 20
223.549149
 10
485.010193
 20
223.408096
 10
485.182251
 20
223.246231
 10
485.31192
 20
223.068588
 10
485.392883
 20
222.881973
 10
485.420898
 20
222.69165
  0
LWPOLYLINE
  5
1F8
330
1C3
100
AcDbEntity
  8
0
  6
Continuous
 62
     0
370
    30
100
AcDbPolyline
 90
       16
 70
     0
 43
0.0
 10
485.420898
 20
222.69165
 10
485.393799
 20
222.51149
 10
485.313812
 20
222.345963
 10
485.185211
 20
222.203751
 10
485.014038
 20
222.092102
 10
484.808716
 20
222.016022
 10
484.576813
 20
221.983109
 10
484.331604
 20
221.989334
 10
484.081512
 20
222.040009
 10
483.83905
 20
222.132568
 10
483.611938
 20
222.258087
 10
483.412689
 20
222.416031
 10
483.247833
 20
222.595779
 10
483.124207
 20
222.789108
 10
483.047028
 20
222.986526
 10
483.019836
 20
223.184006
  0
LWPOLYLINE
  5
1F9
330
1C3
100
AcDbEntity
  8
0
  6
Continuous
 62
     0
370
    30
100
AcDbPolyline
 90
       16
 70
     0
 43
0.0
 10
483.019836
 20
226.931671
 10
483.045288
 20
227.108215
 10
483.121094
 20
227.262909
 10
483.243713
 20
227.389038
 10
483.407623
 20
227.482483
 10
483.606049
 20
227.541153
 10
483.832825
 20
227.559952
 10
484.075287
 20
227.546066
 10
484.325623
 20
227.494919
 10
484.57135
 20
227.409348
 10
484.803986
 20
227.296814
 10
485.010193
 20
227.155762
 10
485.182251
 20
226.993896
 10
485.31192
 20
226.816254
 10
485.392883
 20
226.629639
 10
485.420898
 20
226.439316
  0
LWPOLYLINE
  5
1FA
330
1C3
100
AcDbEntity
  8
0
  6
Continuous
 62
     0
370
    30
100
AcDbPolyline
 90
       16
 70
     0
 43
0.0
 10
485.420898
 20
226.439316
 10
485.393799
 20
226.259155
 10
485.313812
 20
226.093628
 10
485.185211
 20
225.951416
 10
485.014038
 20
225.839767
 10
484.808716
 20
225.763687
 10
484.576813
 20
225.730774
 10
484.331604
 20
225.737
 10
484.081512
 20
225.787674
 10
483.83905
 20
225.880234
 10
483.611938
 20
226.005753
 10
483.412689
 20
226.163696
 10
483.247833
 20
226.343445
 10
483.124207
 20
226.536774
 10
483.047028
 20
226.734192
 10
483.019836
 20
226.931671
  0
LWPOLYLINE
  5
1FB
330
1C3
100
AcDbEntity
  8
0
  6
Continuous
 62
     0
370
    30
100
AcDbPolyline
 90
       16
 70
     0
 43
0.0
 10
483.019836
 20
230.679337
 10
483.045288
 20
230.855881
 10
483.121094
 20
231.010574
 10
483.243713
 20
231.136719
 10
483.407623
 20
231.230148
 10
483.606049
 20
231.288818
 10
483.832825
 20
231.307617
 10
484.075287
 20
231.293732
 10
484.325623
 20
231.242584
 10
484.57135
 20
231.157013
 10
484.803986
 20
231.044479
 10
485.010193
 20
230.903427
 10
485.182251
 20
230.741562
 10
485.31192
 20
230.563919
 10
485.392883
 20
230.377304
 10
485.420898
 20
230.186981
  0
LWPOLYLINE
  5
1FC
330
1C3
100
AcDbEntity
  8
0
  6
Continuous
 62
     0
370
    30
100
AcDbPolyline
 90
       16
 70
     0
 43
0.0
 10
485.420898
 20
230.186981
 10
485.393799
 20
230.006821
 10
485.313812
 20
229.841293
 10
485.185211
 20
229.699081
 10
485.014038
 20
229.587433
 10
484.808716
 20
229.511353
 10
484.576813
 20
229.478439
 10
484.331604
 20
229.484665
 10
484.081512
 20
229.535339
 10
483.83905
 20
229.627899
 10
483.611938
 20
229.753433
 10
483.412689
 20
229.911362
 10
483.247833
 20
230.09111
 10
483.124207
 20
230.284439
 10
483.047028
 20
230.481857
 10
483.019836
 20
230.679337
  0
LWPOLYLINE
  5
1FD
330
1C3
100
AcDbEntity
  8
0
  6
Continuous
 62
     0
370
    30
100
AcDbPolyline
 90
       16
 70
     0
 43
0.0
 10
483.019836
 20
234.427002
 10
483.045288
 20
234.603546
 10
483.121094
 20
234.75824
 10
483.243713
 20
234.884384
 10
483.407623
 20
234.977814
 10
483.606049
 20
235.036484
 10
483.832825
 20
235.055283
 10
484.075287
 20
235.041397
 10
484.325623
 20
234.99025
 10
484.57135
 20
234.904678
 10
484.803986
 20
234.792145
 10
485.010193
 20
234.651093
 10
485.182251
 20
234.489227
 10
485.31192
 20
234.311584
 10
485.392883
 20
234.124969
 10
485.420898
 20
233.934647
  0
LWPOLYLINE
  5
1FE
330
1C3
100
AcDbEntity
  8
0
  6
Continuous
 62
     0
370
    30
100
AcDbPolyline
 90
       16
 70
     0
 43
0.0
 10
485.420898
 20
233.934647
 10
485.393799
 20
233.754486
 10
485.313812
 20
233.588959
 10
485.185211
 20
233.446747
 10
485.014038
 20
233.335098
 10
484.808716
 20
233.259018
 10
484.576813
 20
233.226105
 10
484.331604
 20
233.23233
 10
484.081512
 20
233.283005
 10
483.83905
 20
233.375565
 10
483.611938
 20
233.501099
 10
483.412689
 20
233.659027
 10
483.247833
 20
233.838776
 10
483.124207
 20
234.032104
 10
483.047028
 20
234.229523
 10
483.019836
 20
234.427002
  0
LWPOLYLINE
  5
1FF
330
1C3
100
AcDbEntity
  8
0
  6
Continuous
 62
     0
370
    30
100
AcDbPolyline
 90
       16
 70
     0
 43
0.0
 10
483.019836
 20
238.174667
 10
483.045288
 20
238.351212
 10
483.121094
 20
238.505905
 10
483.243713
 20
238.63205
 10
483.407623
 20
238.725479
 10
483.606049
 20
238.784149
 10
483.832825
 20
238.802948
 10
484.075287
 20
238.789062
 10
484.325623
 20
238.737915
 10
484.57135
 20
238.652344
 10
484.803986
 20
238.53981
 10
485.010193
 20
238.398758
 10
485.182251
 20
238.236893
 10
485.31192
 20
238.05925
 10
485.392883
 20
237.872635
 10
485.420898
 20
237.682312
  0
LWPOLYLINE
  5
200
330
1C3
100
AcDbEntity
  8
0
  6
Continuous
 62
     0
370
    30
100
AcDbPolyline
 90
       16
 70
     0
 43
0.0
 10
485.420898
 20
237.682312
 10
485.393799
 20
237.502151
 10
485.313812
 20
237.336624
 10
485.185211
 20
237.194412
 10
485.014038
 20
237.082764
 10
484.808716
 20
237.006683
 10
484.576813
 20
236.97377
 10
484.331604
 20
236.979996
 10
484.081512
 20
237.03067
 10
483.83905
 20
237.12323
 10
483.611938
 20
237.248764
 10
483.412689
 20
237.406693
 10
483.247833
 20
237.586441
 10
483.124207
 20
237.77977
 10
483.047028
 20
237.977188
 10
483.019836
 20
238.174667
  0
LWPOLYLINE
  5
201
330
1C3
100
AcDbEntity
  8
0
  6
Continuous
 62
     0
370
    30
100
AcDbPolyline
 90
       16
 70
     0
 43
0.0
 10
483.019836
 20
241.922333
 10
483.045288
 20
242.098877
 10
483.121094
 20
242.253571
 10
483.243713
 20
242.379715
 10
483.407623
 20
242.473145
 10
483.606049
 20
242.531815
 10
483.832825
 20
242.550613
 10
484.075287
 20
242.536728
 10
484.325623
 20
242.48558
 10
484.57135
 20
242.400009
 10
484.803986
 20
242.287476
 10
485.010193
 20
242.146423
 10
485.182251
 20
241.984558
 10
485.31192
 20
241.806915
 10
485.392883
 20
241.6203
 10
485.420898
 20
241.429977
  0
LWPOLYLINE
  5
202
330
1C3
100
AcDbEntity
  8
0
  6
Continuous
 62
     0
370
    30
100
AcDbPolyline
 90
       16
 70
     0
 43
0.0
 10
485.420898
 20
241.429977
 10
485.393799
 20
241.249817
 10
485.313812
 20
241.08429
 10
485.185211
 20
240.942078
 10
485.014038
 20
240.830429
 10
484.808716
 20
240.754364
 10
484.576813
 20
240.721436
 10
484.331604
 20
240.727661
 10
484.081512
 20
240.778336
 10
483.83905
 20
240.870895
 10
483.611938
 20
240.996429
 10
483.412689
 20
241.154358
 10
483.247833
 20
241.334106
 10
483.124207
 20
241.527435
 10
483.047028
 20
241.724854
 10
483.019836
 20
241.922333
  0
LWPOLYLINE
  5
203
330
1C3
100
AcDbEntity
  8
0
  6
Continuous
 62
     0
370
    30
100
AcDbPolyline
 90
       16
 70
     0
 43
0.0
 10
483.019836
 20
245.669998
 10
483.045288
 20
245.846542
 10
483.121094
 20
246.001236
 10
483.243713
 20
246.12738
 10
483.407623
 20
246.22081
 10
483.606049
 20
246.27948
 10
483.832825
 20
246.298279
 10
484.075287
 20
246.284393
 10
484.325623
 20
246.233246
 10
484.57135
 20
246.147675
 10
484.803986
 20
246.035141
 10
485.010193
 20
245.894089
 10
485.182251
 20
245.732224
 10
485.31192
 20
245.554581
 10
485.392883
 20
245.367966
 10
485.420898
 20
245.177643
  0
LWPOLYLINE
  5
204
330
1C3
100
AcDbEntity
  8
0
  6
Continuous
 62
     0
370
    30
100
AcDbPolyline
 90
       16
 70
     0
 43
0.0
 10
485.420898
 20
245.177643
 10
485.393799
 20
244.997482
 10
485.313812
 20
244.831955
 10
485.185211
 20
244.689743
 10
485.014038
 20
244.578094
 10
484.808716
 20
244.502029
 10
484.576813
 20
244.469101
 10
484.331604
 20
244.475327
 10
484.081512
 20
244.526001
 10
483.83905
 20
244.618561
 10
483.611938
 20
244.744095
 10
483.412689
 20
244.902023
 10
483.247833
 20
245.081772
 10
483.124207
 20
245.275101
 10
483.047028
 20
245.472519
 10
483.019836
 20
245.669998
  0
LWPOLYLINE
  5
205
330
1C3
100
AcDbEntity
  8
0
  6
Continuous
 62
     0
370
    30
100
AcDbPolyline
 90
       16
 70
     0
 43
0.0
 10
483.019836
 20
249.417664
 10
483.045288
 20
249.594208
 10
483.121094
 20
249.748901
 10
483.243713
 20
249.875046
 10
483.407623
 20
249.968475
 10
483.606049
 20
250.027145
 10
483.832825
 20
250.045944
 10
484.075287
 20
250.032059
 10
484.325623
 20
249.980911
 10
484.57135
 20
249.89534
 10
484.803986
 20
249.782806
 10
485.010193
 20
249.641754
 10
485.182251
 20
249.479889
 10
485.31192
 20
249.302246
 10
485.392883
 20
249.115631
 10
485.420898
 20
248.925308
  0
LWPOLYLINE
  5
206
330
1C3
100
AcDbEntity
  8
0
  6
Continuous
 62
     0
370
    30
100
AcDbPolyline
 90
       16
 70
     0
 43
0.0
 10
485.420898
 20
248.925308
 10
485.393799
 20
248.745148
 10
485.313812
 20
248.57962
 10
485.185211
 20
248.437408
 10
485.014038
 20
248.32576
 10
484.808716
 20
248.249695
 10
484.576813
 20
248.216766
 10
484.331604
 20
248.222992
 10
484.081512
 20
248.273666
 10
483.83905
 20
248.366226
 10
483.611938
 20
248.49176
 10
483.412689
 20
248.649689
 10
483.247833
 20
248.829437
 10
483.124207
 20
249.022766
 10
483.047028
 20
249.220184
 10
483.019836
 20
249.417664
  0
LWPOLYLINE
  5
207
330
1C3
100
AcDbEntity
  8
0
  6
Continuous
 62
     0
370
    30
100
AcDbPolyline
 90
       16
 70
     0
 43
0.0
 10
483.019836
 20
253.165329
 10
483.045288
 20
253.341873
 10
483.121094
 20
253.496567
 10
483.243713
 20
253.622711
 10
483.407623
 20
253.716141
 10
483.606049
 20
253.774811
 10
483.832825
 20
253.79361
 10
484.075287
 20
253.779724
 10
484.325623
 20
253.728577
 10
484.57135
 20
253.643005
 10
484.803986
 20
253.530472
 10
485.010193
 20
253.38942
 10
485.182251
 20
253.227554
 10
485.31192
 20
253.049927
 10
485.392883
 20
252.863297
 10
485.420898
 20
252.672974
  0
LWPOLYLINE
  5
208
330
1C3
100
AcDbEntity
  8
0
  6
Continuous
 62
     0
370
    30
100
AcDbPolyline
 90
       16
 70
     0
 43
0.0
 10
485.420898
 20
252.672974
 10
485.393799
 20
252.492813
 10
485.313812
 20
252.327286
 10
485.185211
 20
252.185074
 10
485.014038
 20
252.073425
 10
484.808716
 20
251.99736
 10
484.576813
 20
251.964432
 10
484.331604
 20
251.970657
 10
484.081512
 20
252.021332
 10
483.83905
 20
252.113892
 10
483.611938
 20
252.239426
 10
483.412689
 20
252.397354
 10
483.247833
 20
252.577103
 10
483.124207
 20
252.770432
 10
483.047028
 20
252.96785
 10
483.019836
 20
253.165329
  0
LWPOLYLINE
  5
209
330
1C3
100
AcDbEntity
  8
0
  6
Continuous
 62
     0
370
    30
100
AcDbPolyline
 90
       17
 70
     0
 43
0.0
 10
476.485962
 20
222.020523
 10
476.495361
 20
222.177002
 10
476.523499
 20
222.296463
 10
476.569916
 20
222.373993
 10
476.633667
 20
222.407471
 10
476.713654
 20
222.396027
 10
476.807739
 20
222.342209
 10
476.913757
 20
222.247498
 10
477.029083
 20
222.109589
 10
477.148804
 20
221.946411
 10
477.267456
 20
221.754013
 10
477.380341
 20
221.542847
 10
477.482635
 20
221.32106
 10
477.569
 20
221.095795
 10
477.634827
 20
220.874847
 10
477.676483
 20
220.666367
 10
477.691437
 20
220.471878
  0
LWPOLYLINE
  5
20A
330
1C3
100
AcDbEntity
  8
0
  6
Continuous
 62
     0
370
    30
100
AcDbPolyline
 90
       17
 70
     0
 43
0.0
 10
477.691437
 20
220.471878
 10
477.677643
 20
220.313766
 10
477.637115
 20
220.189438
 10
477.572205
 20
220.104599
 10
477.486694
 20
220.062622
 10
477.384979
 20
220.065536
 10
477.272491
 20
220.111954
 10
477.154053
 20
220.20192
 10
477.034241
 20
220.337875
 10
476.918732
 20
220.502579
 10
476.812195
 20
220.69957
 10
476.717529
 20
220.917694
 10
476.636993
 20
221.147873
 10
476.572479
 20
221.381592
 10
476.525208
 20
221.609909
 10
476.496216
 20
221.823395
 10
476.485962
 20
222.020523
  0
LWPOLYLINE
  5
20B
330
1C3
100
AcDbEntity
  8
0
  6
Continuous
 62
     0
370
    30
100
AcDbPolyline
 90
       17
 70
     0
 43
0.0
 10
476.485962
 20
225.779724
 10
476.495361
 20
225.936188
 10
476.523499
 20
226.055664
 10
476.569916
 20
226.133194
 10
476.633667
 20
226.166672
 10
476.713654
 20
226.155212
 10
476.807739
 20
226.10141
 10
476.913757
 20
226.006699
 10
477.029083
 20
225.86879
 10
477.148804
 20
225.705612
 10
477.267456
 20
225.513214
 10
477.380341
 20
225.302048
 10
477.482635
 20
225.080261
 10
477.569
 20
224.854996
 10
477.634827
 20
224.634048
 10
477.676483
 20
224.425552
 10
477.691437
 20
224.231064
  0
LWPOLYLINE
  5
20C
330
1C3
100
AcDbEntity
  8
0
  6
Continuous
 62
     0
370
    30
100
AcDbPolyline
 90
       17
 70
     0
 43
0.0
 10
477.691437
 20
224.231064
 10
477.677643
 20
224.072968
 10
477.637115
 20
223.948624
 10
477.572205
 20
223.863785
 10
477.486694
 20
223.821823
 10
477.384979
 20
223.824738
 10
477.272491
 20
223.87114
 10
477.154053
 20
223.961121
 10
477.034241
 20
224.097076
 10
476.918732
 20
224.26178
 10
476.812195
 20
224.458771
 10
476.717529
 20
224.676895
 10
476.636993
 20
224.907074
 10
476.572479
 20
225.140793
 10
476.525208
 20
225.36911
 10
476.496216
 20
225.582581
 10
476.485962
 20
225.779724
  0
LWPOLYLINE
  5
20D
330
1C3
100
AcDbEntity
  8
0
  6
Continuous
 62
     0
370
    30
100
AcDbPolyline
 90
       17
 70
     0
 43
0.0
 10
476.485962
 20
229.538925
 10
476.495361
 20
229.695389
 10
476.523499
 20
229.81485
 10
476.569916
 20
229.892395
 10
476.633667
 20
229.925873
 10
476.713654
 20
229.914413
 10
476.807739
 20
229.860611
 10
476.913757
 20
229.7659
 10
477.029083
 20
229.627991
 10
477.148804
 20
229.464798
 10
477.267456
 20
229.272415
 10
477.380341
 20
229.061234
 10
477.482635
 20
228.839462
 10
477.569
 20
228.614197
 10
477.634827
 20
228.39325
 10
477.676483
 20
228.184753
 10
477.691437
 20
227.990265
  0
LWPOLYLINE
  5
20E
330
1C3
100
AcDbEntity
  8
0
  6
Continuous
 62
     0
370
    30
100
AcDbPolyline
 90
       17
 70
     0
 43
0.0
 10
477.691437
 20
227.990265
 10
477.677643
 20
227.832153
 10
477.637115
 20
227.707825
 10
477.572205
 20
227.622986
 10
477.486694
 20
227.581009
 10
477.384979
 20
227.583923
 10
477.272491
 20
227.630341
 10
477.154053
 20
227.720306
 10
477.034241
 20
227.856277
 10
476.918732
 20
228.020981
 10
476.812195
 20
228.217972
 10
476.717529
 20
228.436096
 10
476.636993
 20
228.66626
 10
476.572479
 20
228.899994
 10
476.525208
 20
229.128311
 10
476.496216
 20
229.341782
 10
476.485962
 20
229.538925
  0
LWPOLYLINE
  5
20F
330
1C3
100
AcDbEntity
  8
0
  6
Continuous
 62
     0
370
    30
100
AcDbPolyline
 90
       17
 70
     0
 43
0.0
 10
476.485962
 20
233.298111
 10
476.495361
 20
233.45459
 10
476.523499
 20
233.574051
 10
476.569916
 20
233.651596
 10
476.633667
 20
233.685074
 10
476.713654
 20
233.673615
 10
476.807739
 20
233.619812
 10
476.913757
 20
233.525085
 10
477.029083
 20
233.387177
 10
477.148804
 20
233.223999
 10
477.267456
 20
233.031601
 10
477.380341
 20
232.820435
 10
477.482635
 20
232.598648
 10
477.569
 20
232.373383
 10
477.634827
 20
232.152435
 10
477.676483
 20
231.943954
 10
477.691437
 20
231.749466
  0
LWPOLYLINE
  5
210
330
1C3
100
AcDbEntity
  8
0
  6
Continuous
 62
     0
370
    30
100
AcDbPolyline
 90
       17
 70
     0
 43
0.0
 10
477.691437
 20
231.749466
 10
477.677643
 20
231.591354
 10
477.637115
 20
231.467026
 10
477.572205
 20
231.382187
 10
477.486694
 20
231.34021
 10
477.384979
 20
231.343124
 10
477.272491
 20
231.389542
 10
477.154053
 20
231.479507
 10
477.034241
 20
231.615463
 10
476.918732
 20
231.780167
 10
476.812195
 20
231.977158
 10
476.717529
 20
232.195282
 10
476.636993
 20
232.425461
 10
476.572479
 20
232.65918
 10
476.525208
 20
232.887512
 10
476.496216
 20
233.100983
 10
476.485962
 20
233.298111
  0
LWPOLYLINE
  5
211
330
1C3
100
AcDbEntity
  8
0
  6
Continuous
 62
     0
370
    30
100
AcDbPolyline
 90
       17
 70
     0
 43
0.0
 10
476.485962
 20
237.057312
 10
476.495361
 20
237.213791
 10
476.523499
 20
237.333252
 10
476.569916
 20
237.410782
 10
476.633667
 20
237.44426
 10
476.713654
 20
237.4328
 10
476.807739
 20
237.378998
 10
476.913757
 20
237.284286
 10
477.029083
 20
237.146378
 10
477.148804
 20
236.9832
 10
477.267456
 20
236.790802
 10
477.380341
 20
236.579636
 10
477.482635
 20
236.357849
 10
477.569
 20
236.132584
 10
477.634827
 20
235.911636
 10
477.676483
 20
235.70314
 10
477.691437
 20
235.508667
  0
LWPOLYLINE
  5
212
330
1C3
100
AcDbEntity
  8
0
  6
Continuous
 62
     0
370
    30
100
AcDbPolyline
 90
       17
 70
     0
 43
0.0
 10
477.691437
 20
235.508667
 10
477.677643
 20
235.350555
 10
477.637115
 20
235.226227
 10
477.572205
 20
235.141373
 10
477.486694
 20
235.099411
 10
477.384979
 20
235.102325
 10
477.272491
 20
235.148743
 10
477.154053
 20
235.238708
 10
477.034241
 20
235.374664
 10
476.918732
 20
235.539368
 10
476.812195
 20
235.736359
 10
476.717529
 20
235.954483
 10
476.636993
 20
236.184662
 10
476.572479
 20
236.418381
 10
476.525208
 20
236.646698
 10
476.496216
 20
236.860168
 10
476.485962
 20
237.057312
  0
LWPOLYLINE
  5
213
330
1C3
100
AcDbEntity
  8
0
  6
Continuous
 62
     0
370
    30
100
AcDbPolyline
 90
       17
 70
     0
 43
0.0
 10
476.485962
 20
240.816513
 10
476.495361
 20
240.972977
 10
476.523499
 20
241.092438
 10
476.569916
 20
241.169983
 10
476.633667
 20
241.203461
 10
476.713654
 20
241.192001
 10
476.807739
 20
241.138199
 10
476.913757
 20
241.043488
 10
477.029083
 20
240.905579
 10
477.148804
 20
240.742386
 10
477.267456
 20
240.550003
 10
477.380341
 20
240.338821
 10
477.482635
 20
240.11705
 10
477.569
 20
239.891785
 10
477.634827
 20
239.670837
 10
477.676483
 20
239.462341
 10
477.691437
 20
239.267853
  0
LWPOLYLINE
  5
214
330
1C3
100
AcDbEntity
  8
0
  6
Continuous
 62
     0
370
    30
100
AcDbPolyline
 90
       17
 70
     0
 43
0.0
 10
477.691437
 20
239.267853
 10
477.677643
 20
239.109756
 10
477.637115
 20
238.985413
 10
477.572205
 20
238.900574
 10
477.486694
 20
238.858612
 10
477.384979
 20
238.861511
 10
477.272491
 20
238.907928
 10
477.154053
 20
238.99791
 10
477.034241
 20
239.133865
 10
476.918732
 20
239.298569
 10
476.812195
 20
239.49556
 10
476.717529
 20
239.713684
 10
476.636993
 20
239.943848
 10
476.572479
 20
240.177582
 10
476.525208
 20
240.405899
 10
476.496216
 20
240.61937
 10
476.485962
 20
240.816513
  0
LWPOLYLINE
  5
215
330
1C3
100
AcDbEntity
  8
0
  6
Continuous
 62
     0
370
    30
100
AcDbPolyline
 90
       17
 70
     0
 43
0.0
 10
476.485962
 20
244.575699
 10
476.495361
 20
244.732178
 10
476.523499
 20
244.851639
 10
476.569916
 20
244.929184
 10
476.633667
 20
244.962662
 10
476.713654
 20
244.951202
 10
476.807739
 20
244.8974
 10
476.913757
 20
244.802689
 10
477.029083
 20
244.664764
 10
477.148804
 20
244.501587
 10
477.267456
 20
244.309189
 10
477.380341
 20
244.098022
 10
477.482635
 20
243.876236
 10
477.569
 20
243.65097
 10
477.634827
 20
243.430023
 10
477.676483
 20
243.221542
 10
477.691437
 20
243.027054
  0
LWPOLYLINE
  5
216
330
1C3
100
AcDbEntity
  8
0
  6
Continuous
 62
     0
370
    30
100
AcDbPolyline
 90
       17
 70
     0
 43
0.0
 10
477.691437
 20
243.027054
 10
477.677643
 20
242.868942
 10
477.637115
 20
242.744614
 10
477.572205
 20
242.659775
 10
477.486694
 20
242.617798
 10
477.384979
 20
242.620712
 10
477.272491
 20
242.66713
 10
477.154053
 20
242.757095
 10
477.034241
 20
242.893051
 10
476.918732
 20
243.057755
 10
476.812195
 20
243.254761
 10
476.717529
 20
243.47287
 10
476.636993
 20
243.703049
 10
476.572479
 20
243.936768
 10
476.525208
 20
244.1651
 10
476.496216
 20
244.378571
 10
476.485962
 20
244.575699
  0
LWPOLYLINE
  5
217
330
1C3
100
AcDbEntity
  8
0
  6
Continuous
 62
     0
370
    30
100
AcDbPolyline
 90
       17
 70
     0
 43
0.0
 10
476.485962
 20
248.3349
 10
476.495361
 20
248.491379
 10
476.523499
 20
248.61084
 10
476.569916
 20
248.68837
 10
476.633667
 20
248.721848
 10
476.713654
 20
248.710388
 10
476.807739
 20
248.656586
 10
476.913757
 20
248.561874
 10
477.029083
 20
248.423965
 10
477.148804
 20
248.260788
 10
477.267456
 20
248.06839
 10
477.380341
 20
247.857224
 10
477.482635
 20
247.635437
 10
477.569
 20
247.410172
 10
477.634827
 20
247.189224
 10
477.676483
 20
246.980728
 10
477.691437
 20
246.786255
  0
LWPOLYLINE
  5
218
330
1C3
100
AcDbEntity
  8
0
  6
Continuous
 62
     0
370
    30
100
AcDbPolyline
 90
       17
 70
     0
 43
0.0
 10
477.691437
 20
246.786255
 10
477.677643
 20
246.628143
 10
477.637115
 20
246.503815
 10
477.572205
 20
246.418961
 10
477.486694
 20
246.376999
 10
477.384979
 20
246.379913
 10
477.272491
 20
246.426331
 10
477.154053
 20
246.516296
 10
477.034241
 20
246.652252
 10
476.918732
 20
246.816956
 10
476.812195
 20
247.013947
 10
476.717529
 20
247.232071
 10
476.636993
 20
247.46225
 10
476.572479
 20
247.695969
 10
476.525208
 20
247.924286
 10
476.496216
 20
248.137756
 10
476.485962
 20
248.3349
  0
LWPOLYLINE
  5
219
330
1C3
100
AcDbEntity
  8
0
  6
Continuous
 62
     0
370
    30
100
AcDbPolyline
 90
       17
 70
     0
 43
0.0
 10
476.485962
 20
252.094101
 10
476.495361
 20
252.250565
 10
476.523499
 20
252.370026
 10
476.569916
 20
252.447571
 10
476.633667
 20
252.481049
 10
476.713654
 20
252.469589
 10
476.807739
 20
252.415787
 10
476.913757
 20
252.321075
 10
477.029083
 20
252.183167
 10
477.148804
 20
252.019989
 10
477.267456
 20
251.827591
 10
477.380341
 20
251.616425
 10
477.482635
 20
251.394638
 10
477.569
 20
251.169373
 10
477.634827
 20
250.948425
 10
477.676483
 20
250.739929
 10
477.691437
 20
250.545441
  0
LWPOLYLINE
  5
21A
330
1C3
100
AcDbEntity
  8
0
  6
Continuous
 62
     0
370
    30
100
AcDbPolyline
 90
       17
 70
     0
 43
0.0
 10
477.691437
 20
250.545441
 10
477.677643
 20
250.387344
 10
477.637115
 20
250.263
 10
477.572205
 20
250.178162
 10
477.486694
 20
250.1362
 10
477.384979
 20
250.139114
 10
477.272491
 20
250.185516
 10
477.154053
 20
250.275497
 10
477.034241
 20
250.411453
 10
476.918732
 20
250.576157
 10
476.812195
 20
250.773148
 10
476.717529
 20
250.991272
 10
476.636993
 20
251.221451
 10
476.572479
 20
251.45517
 10
476.525208
 20
251.683487
 10
476.496216
 20
251.896957
 10
476.485962
 20
252.094101
  0
LWPOLYLINE
  5
21B
330
1C3
100
AcDbEntity
  8
0
  6
Continuous
 62
     0
370
    30
100
AcDbPolyline
 90
       17
 70
     0
 43
0.0
 10
476.485962
 20
255.853287
 10
476.495361
 20
256.009766
 10
476.523499
 20
256.129242
 10
476.569916
 20
256.206757
 10
476.633667
 20
256.240234
 10
476.713654
 20
256.22879
 10
476.807739
 20
256.174988
 10
476.913757
 20
256.080261
 10
477.029083
 20
255.942352
 10
477.148804
 20
255.779175
 10
477.267456
 20
255.586792
 10
477.380341
 20
255.37561
 10
477.482635
 20
255.153839
 10
477.569
 20
254.928558
 10
477.634827
 20
254.707611
 10
477.676483
 20
254.49913
 10
477.691437
 20
254.304642
  0
LWPOLYLINE
  5
21C
330
1C3
100
AcDbEntity
  8
0
  6
Continuous
 62
     0
370
    30
100
AcDbPolyline
 90
       17
 70
     0
 43
0.0
 10
477.691437
 20
254.304642
 10
477.677643
 20
254.14653
 10
477.637115
 20
254.022202
 10
477.572205
 20
253.937363
 10
477.486694
 20
253.895386
 10
477.384979
 20
253.8983
 10
477.272491
 20
253.944717
 10
477.154053
 20
254.034683
 10
477.034241
 20
254.170639
 10
476.918732
 20
254.335342
 10
476.812195
 20
254.532349
 10
476.717529
 20
254.750473
 10
476.636993
 20
254.980637
 10
476.572479
 20
255.214371
 10
476.525208
 20
255.442688
 10
476.496216
 20
255.656158
 10
476.485962
 20
255.853287
  0
LWPOLYLINE
  5
21D
330
1C3
100
AcDbEntity
  8
0
  6
Continuous
 62
     0
370
    30
100
AcDbPolyline
 90
       17
 70
     0
 43
0.0
 10
480.297394
 20
218.552261
 10
480.31662
 20
218.713928
 10
480.373718
 20
218.849426
 10
480.466766
 20
218.953415
 10
480.592407
 20
219.022934
 10
480.746765
 20
219.056168
 10
480.924225
 20
219.054184
 10
481.119202
 20
219.017136
 10
481.326111
 20
218.940796
 10
481.535706
 20
218.840576
 10
481.738922
 20
218.709869
 10
481.928406
 20
218.55658
 10
482.09726
 20
218.386673
 10
482.238007
 20
218.204834
 10
482.34436
 20
218.016754
 10
482.411591
 20
217.828964
 10
482.436432
 20
217.637299
  0
LWPOLYLINE
  5
21E
330
1C3
100
AcDbEntity
  8
0
  6
Continuous
 62
     0
370
    30
100
AcDbPolyline
 90
       16
 70
     0
 43
0.0
 10
482.436432
 20
217.637299
 10
482.411438
 20
217.46167
 10
482.337799
 20
217.310226
 10
482.219604
 20
217.190903
 10
482.063049
 20
217.109756
 10
481.876068
 20
217.07048
 10
481.666229
 20
217.079117
 10
481.44577
 20
217.129288
 10
481.222595
 20
217.224625
 10
481.007782
 20
217.36055
 10
480.808136
 20
217.526627
 10
480.63446
 20
217.720154
 10
480.491699
 20
217.929199
 10
480.385284
 20
218.144424
 10
480.31958
 20
218.355392
 10
480.297394
 20
218.552261
  0
LWPOLYLINE
  5
21F
330
1C3
100
AcDbEntity
  8
0
  6
Continuous
 62
     0
370
    30
100
AcDbPolyline
 90
       17
 70
     0
 43
0.0
 10
480.297394
 20
222.311462
 10
480.31662
 20
222.473129
 10
480.373718
 20
222.608627
 10
480.466766
 20
222.712601
 10
480.592407
 20
222.78212
 10
480.746765
 20
222.815369
 10
480.924225
 20
222.813385
 10
481.119202
 20
222.776321
 10
481.326111
 20
222.699997
 10
481.535706
 20
222.599777
 10
481.738922
 20
222.46907
 10
481.928406
 20
222.315765
 10
482.09726
 20
222.145874
 10
482.238007
 20
221.964035
 10
482.34436
 20
221.775955
 10
482.411591
 20
221.58815
 10
482.436432
 20
221.396484
  0
LWPOLYLINE
  5
220
330
1C3
100
AcDbEntity
  8
0
  6
Continuous
 62
     0
370
    30
100
AcDbPolyline
 90
       16
 70
     0
 43
0.0
 10
482.436432
 20
221.396484
 10
482.411438
 20
221.220856
 10
482.337799
 20
221.069412
 10
482.219604
 20
220.950104
 10
482.063049
 20
220.868958
 10
481.876068
 20
220.829666
 10
481.666229
 20
220.838318
 10
481.44577
 20
220.888489
 10
481.222595
 20
220.983826
 10
481.007782
 20
221.119751
 10
480.808136
 20
221.285812
 10
480.63446
 20
221.47934
 10
480.491699
 20
221.6884
 10
480.385284
 20
221.90361
 10
480.31958
 20
222.114594
 10
480.297394
 20
222.311462
  0
LWPOLYLINE
  5
221
330
1C3
100
AcDbEntity
  8
0
  6
Continuous
 62
     0
370
    30
100
AcDbPolyline
 90
       17
 70
     0
 43
0.0
 10
480.297394
 20
226.070648
 10
480.31662
 20
226.232315
 10
480.373718
 20
226.367813
 10
480.466766
 20
226.471802
 10
480.592407
 20
226.541321
 10
480.746765
 20
226.574554
 10
480.924225
 20
226.572571
 10
481.119202
 20
226.535522
 10
481.326111
 20
226.459198
 10
481.535706
 20
226.358963
 10
481.738922
 20
226.228271
 10
481.928406
 20
226.074966
 10
482.09726
 20
225.90506
 10
482.238007
 20
225.723236
 10
482.34436
 20
225.535156
 10
482.411591
 20
225.347351
 10
482.436432
 20
225.155685
  0
LWPOLYLINE
  5
222
330
1C3
100
AcDbEntity
  8
0
  6
Continuous
 62
     0
370
    30
100
AcDbPolyline
 90
       16
 70
     0
 43
0.0
 10
482.436432
 20
225.155685
 10
482.411438
 20
224.980057
 10
482.337799
 20
224.828613
 10
482.219604
 20
224.70929
 10
482.063049
 20
224.628159
 10
481.876068
 20
224.588867
 10
481.666229
 20
224.597519
 10
481.44577
 20
224.64769
 10
481.222595
 20
224.743011
 10
481.007782
 20
224.878952
 10
480.808136
 20
225.045013
 10
480.63446
 20
225.238541
 10
480.491699
 20
225.447601
 10
480.385284
 20
225.662811
 10
480.31958
 20
225.873779
 10
480.297394
 20
226.070648
  0
LWPOLYLINE
  5
223
330
1C3
100
AcDbEntity
  8
0
  6
Continuous
 62
     0
370
    30
100
AcDbPolyline
 90
       17
 70
     0
 43
0.0
 10
480.297394
 20
229.829849
 10
480.31662
 20
229.991516
 10
480.373718
 20
230.127014
 10
480.466766
 20
230.231003
 10
480.592407
 20
230.300522
 10
480.746765
 20
230.333755
 10
480.924225
 20
230.331772
 10
481.119202
 20
230.294724
 10
481.326111
 20
230.218384
 10
481.535706
 20
230.118164
 10
481.738922
 20
229.987473
 10
481.928406
 20
229.834167
 10
482.09726
 20
229.664261
 10
482.238007
 20
229.482422
 10
482.34436
 20
229.294342
 10
482.411591
 20
229.106552
 10
482.436432
 20
228.914886
  0
LWPOLYLINE
  5
224
330
1C3
100
AcDbEntity
  8
0
  6
Continuous
 62
     0
370
    30
100
AcDbPolyline
 90
       16
 70
     0
 43
0.0
 10
482.436432
 20
228.914886
 10
482.411438
 20
228.739258
 10
482.337799
 20
228.587814
 10
482.219604
 20
228.468491
 10
482.063049
 20
228.387344
 10
481.876068
 20
228.348068
 10
481.666229
 20
228.35672
 10
481.44577
 20
228.406876
 10
481.222595
 20
228.502213
 10
481.007782
 20
228.638138
 10
480.808136
 20
228.804214
 10
480.63446
 20
228.997742
 10
480.491699
 20
229.206787
 10
480.385284
 20
229.422012
 10
480.31958
 20
229.63298
 10
480.297394
 20
229.829849
  0
LWPOLYLINE
  5
225
330
1C3
100
AcDbEntity
  8
0
  6
Continuous
 62
     0
370
    30
100
AcDbPolyline
 90
       17
 70
     0
 43
0.0
 10
480.297394
 20
233.58905
 10
480.31662
 20
233.750717
 10
480.373718
 20
233.886215
 10
480.466766
 20
233.990189
 10
480.592407
 20
234.059708
 10
480.746765
 20
234.092957
 10
480.924225
 20
234.090973
 10
481.119202
 20
234.053909
 10
481.326111
 20
233.977585
 10
481.535706
 20
233.877365
 10
481.738922
 20
233.746658
 10
481.928406
 20
233.593369
 10
482.09726
 20
233.423462
 10
482.238007
 20
233.241623
 10
482.34436
 20
233.053543
 10
482.411591
 20
232.865738
 10
482.436432
 20
232.674072
  0
LWPOLYLINE
  5
226
330
1C3
100
AcDbEntity
  8
0
  6
Continuous
 62
     0
370
    30
100
AcDbPolyline
 90
       16
 70
     0
 43
0.0
 10
482.436432
 20
232.674072
 10
482.411438
 20
232.498459
 10
482.337799
 20
232.347
 10
482.219604
 20
232.227692
 10
482.063049
 20
232.146545
 10
481.876068
 20
232.107269
 10
481.666229
 20
232.115906
 10
481.44577
 20
232.166077
 10
481.222595
 20
232.261414
 10
481.007782
 20
232.397339
 10
480.808136
 20
232.563416
 10
480.63446
 20
232.756943
 10
480.491699
 20
232.965988
 10
480.385284
 20
233.181198
 10
480.31958
 20
233.392181
 10
480.297394
 20
233.58905
  0
LWPOLYLINE
  5
227
330
1C3
100
AcDbEntity
  8
0
  6
Continuous
 62
     0
370
    30
100
AcDbPolyline
 90
       17
 70
     0
 43
0.0
 10
480.297394
 20
237.348236
 10
480.31662
 20
237.509903
 10
480.373718
 20
237.645401
 10
480.466766
 20
237.74939
 10
480.592407
 20
237.818909
 10
480.746765
 20
237.852142
 10
480.924225
 20
237.850159
 10
481.119202
 20
237.81311
 10
481.326111
 20
237.736786
 10
481.535706
 20
237.636551
 10
481.738922
 20
237.505859
 10
481.928406
 20
237.352554
 10
482.09726
 20
237.182663
 10
482.238007
 20
237.000824
 10
482.34436
 20
236.812744
 10
482.411591
 20
236.624939
 10
482.436432
 20
236.433273
  0
LWPOLYLINE
  5
228
330
1C3
100
AcDbEntity
  8
0
  6
Continuous
 62
     0
370
    30
100
AcDbPolyline
 90
       16
 70
     0
 43
0.0
 10
482.436432
 20
236.433273
 10
482.411438
 20
236.257645
 10
482.337799
 20
236.106201
 10
482.219604
 20
235.986877
 10
482.063049
 20
235.905746
 10
481.876068
 20
235.866455
 10
481.666229
 20
235.875107
 10
481.44577
 20
235.925278
 10
481.222595
 20
236.020615
 10
481.007782
 20
236.15654
 10
480.808136
 20
236.322601
 10
480.63446
 20
236.516129
 10
480.491699
 20
236.725189
 10
480.385284
 20
236.940399
 10
480.31958
 20
237.151367
 10
480.297394
 20
237.348236
  0
LWPOLYLINE
  5
229
330
1C3
100
AcDbEntity
  8
0
  6
Continuous
 62
     0
370
    30
100
AcDbPolyline
 90
       17
 70
     0
 43
0.0
 10
480.297394
 20
241.107437
 10
480.31662
 20
241.269104
 10
480.373718
 20
241.404602
 10
480.466766
 20
241.508591
 10
480.592407
 20
241.57811
 10
480.746765
 20
241.611343
 10
480.924225
 20
241.60936
 10
481.119202
 20
241.572311
 10
481.326111
 20
241.495987
 10
481.535706
 20
241.395752
 10
481.738922
 20
241.26506
 10
481.928406
 20
241.111755
 10
482.09726
 20
240.941849
 10
482.238007
 20
240.76001
 10
482.34436
 20
240.571945
 10
482.411591
 20
240.38414
 10
482.436432
 20
240.192474
  0
LWPOLYLINE
  5
22A
330
1C3
100
AcDbEntity
  8
0
  6
Continuous
 62
     0
370
    30
100
AcDbPolyline
 90
       16
 70
     0
 43
0.0
 10
482.436432
 20
240.192474
 10
482.411438
 20
240.016846
 10
482.337799
 20
239.865402
 10
482.219604
 20
239.746078
 10
482.063049
 20
239.664948
 10
481.876068
 20
239.625656
 10
481.666229
 20
239.634308
 10
481.44577
 20
239.684479
 10
481.222595
 20
239.7798
 10
481.007782
 20
239.915726
 10
480.808136
 20
240.081802
 10
480.63446
 20
240.27533
 10
480.491699
 20
240.484375
 10
480.385284
 20
240.6996
 10
480.31958
 20
240.910568
 10
480.297394
 20
241.107437
  0
LWPOLYLINE
  5
22B
330
1C3
100
AcDbEntity
  8
0
  6
Continuous
 62
     0
370
    30
100
AcDbPolyline
 90
       17
 70
     0
 43
0.0
 10
480.297394
 20
244.866638
 10
480.31662
 20
245.028305
 10
480.373718
 20
245.163803
 10
480.466766
 20
245.267792
 10
480.592407
 20
245.337311
 10
480.746765
 20
245.370544
 10
480.924225
 20
245.368561
 10
481.119202
 20
245.331512
 10
481.326111
 20
245.255173
 10
481.535706
 20
245.154953
 10
481.738922
 20
245.024246
 10
481.928406
 20
244.870956
 10
482.09726
 20
244.70105
 10
482.238007
 20
244.519211
 10
482.34436
 20
244.331131
 10
482.411591
 20
244.143341
 10
482.436432
 20
243.95166
  0
LWPOLYLINE
  5
22C
330
1C3
100
AcDbEntity
  8
0
  6
Continuous
 62
     0
370
    30
100
AcDbPolyline
 90
       16
 70
     0
 43
0.0
 10
482.436432
 20
243.95166
 10
482.411438
 20
243.776047
 10
482.337799
 20
243.624603
 10
482.219604
 20
243.50528
 10
482.063049
 20
243.424133
 10
481.876068
 20
243.384857
 10
481.666229
 20
243.393494
 10
481.44577
 20
243.443665
 10
481.222595
 20
243.539001
 10
481.007782
 20
243.674927
 10
480.808136
 20
243.841003
 10
480.63446
 20
244.034531
 10
480.491699
 20
244.243576
 10
480.385284
 20
244.458801
 10
480.31958
 20
244.669769
 10
480.297394
 20
244.866638
  0
LWPOLYLINE
  5
22D
330
1C3
100
AcDbEntity
  8
0
  6
Continuous
 62
     0
370
    30
100
AcDbPolyline
 90
       17
 70
     0
 43
0.0
 10
480.297394
 20
248.625839
 10
480.31662
 20
248.787491
 10
480.373718
 20
248.923004
 10
480.466766
 20
249.026978
 10
480.592407
 20
249.096497
 10
480.746765
 20
249.12973
 10
480.924225
 20
249.127762
 10
481.119202
 20
249.090698
 10
481.326111
 20
249.014374
 10
481.535706
 20
248.914154
 10
481.738922
 20
248.783447
 10
481.928406
 20
248.630142
 10
482.09726
 20
248.460251
 10
482.238007
 20
248.278412
 10
482.34436
 20
248.090332
 10
482.411591
 20
247.902527
 10
482.436432
 20
247.710861
  0
LWPOLYLINE
  5
22E
330
1C3
100
AcDbEntity
  8
0
  6
Continuous
 62
     0
370
    30
100
AcDbPolyline
 90
       16
 70
     0
 43
0.0
 10
482.436432
 20
247.710861
 10
482.411438
 20
247.535233
 10
482.337799
 20
247.383789
 10
482.219604
 20
247.264481
 10
482.063049
 20
247.183334
 10
481.876068
 20
247.144043
 10
481.666229
 20
247.152695
 10
481.44577
 20
247.202866
 10
481.222595
 20
247.298203
 10
481.007782
 20
247.434128
 10
480.808136
 20
247.600189
 10
480.63446
 20
247.793716
 10
480.491699
 20
248.002777
 10
480.385284
 20
248.217987
 10
480.31958
 20
248.428955
 10
480.297394
 20
248.625839
  0
LWPOLYLINE
  5
22F
330
1C3
100
AcDbEntity
  8
0
  6
Continuous
 62
     0
370
    30
100
AcDbPolyline
 90
       17
 70
     0
 43
0.0
 10
480.297394
 20
252.385025
 10
480.31662
 20
252.546692
 10
480.373718
 20
252.68219
 10
480.466766
 20
252.786179
 10
480.592407
 20
252.855698
 10
480.746765
 20
252.888931
 10
480.924225
 20
252.886948
 10
481.119202
 20
252.849899
 10
481.326111
 20
252.773575
 10
481.535706
 20
252.67334
 10
481.738922
 20
252.542648
 10
481.928406
 20
252.389343
 10
482.09726
 20
252.219437
 10
482.238007
 20
252.037598
 10
482.34436
 20
251.849533
 10
482.411591
 20
251.661728
 10
482.436432
 20
251.470062
  0
LWPOLYLINE
  5
230
330
1C3
100
AcDbEntity
  8
0
  6
Continuous
 62
     0
370
    30
100
AcDbPolyline
 90
       16
 70
     0
 43
0.0
 10
482.436432
 20
251.470062
 10
482.411438
 20
251.294434
 10
482.337799
 20
251.14299
 10
482.219604
 20
251.023666
 10
482.063049
 20
250.942535
 10
481.876068
 20
250.903244
 10
481.666229
 20
250.911896
 10
481.44577
 20
250.962067
 10
481.222595
 20
251.057388
 10
481.007782
 20
251.193329
 10
480.808136
 20
251.35939
 10
480.63446
 20
251.552917
 10
480.491699
 20
251.761963
 10
480.385284
 20
251.977188
 10
480.31958
 20
252.188156
 10
480.297394
 20
252.385025
  0
LWPOLYLINE
  5
231
330
1C3
100
AcDbEntity
  8
0
  6
Continuous
 62
     0
370
    30
100
AcDbPolyline
 90
        5
 70
     0
 43
0.0
 10
478.816284
 20
218.604355
 10
478.940521
 20
218.184036
 10
479.162537
 20
217.762527
 10
479.458435
 20
217.40419
 10
479.794464
 20
217.163986
  0
LWPOLYLINE
  5
232
330
1C3
100
AcDbEntity
  8
0
  6
Continuous
 62
     0
370
    30
100
AcDbPolyline
 90
        5
 70
     0
 43
0.0
 10
478.816284
 20
222.35202
 10
478.940521
 20
221.931702
 10
479.162537
 20
221.510193
 10
479.458435
 20
221.151855
 10
479.794464
 20
220.911652
  0
LWPOLYLINE
  5
233
330
1C3
100
AcDbEntity
  8
0
  6
Continuous
 62
     0
370
    30
100
AcDbPolyline
 90
        5
 70
     0
 43
0.0
 10
478.816284
 20
226.099686
 10
478.940521
 20
225.679367
 10
479.162537
 20
225.257858
 10
479.458435
 20
224.899521
 10
479.794464
 20
224.659317
  0
LWPOLYLINE
  5
234
330
1C3
100
AcDbEntity
  8
0
  6
Continuous
 62
     0
370
    30
100
AcDbPolyline
 90
        5
 70
     0
 43
0.0
 10
478.816284
 20
229.847351
 10
478.940521
 20
229.427032
 10
479.162537
 20
229.005524
 10
479.458435
 20
228.647186
 10
479.794464
 20
228.406982
  0
LWPOLYLINE
  5
235
330
1C3
100
AcDbEntity
  8
0
  6
Continuous
 62
     0
370
    30
100
AcDbPolyline
 90
        5
 70
     0
 43
0.0
 10
478.816284
 20
233.595016
 10
478.940521
 20
233.174698
 10
479.162537
 20
232.753189
 10
479.458435
 20
232.394852
 10
479.794464
 20
232.154648
  0
LWPOLYLINE
  5
236
330
1C3
100
AcDbEntity
  8
0
  6
Continuous
 62
     0
370
    30
100
AcDbPolyline
 90
        5
 70
     0
 43
0.0
 10
478.816284
 20
237.342682
 10
478.940521
 20
236.922363
 10
479.162537
 20
236.500854
 10
479.458435
 20
236.142517
 10
479.794464
 20
235.902313
  0
LWPOLYLINE
  5
237
330
1C3
100
AcDbEntity
  8
0
  6
Continuous
 62
     0
370
    30
100
AcDbPolyline
 90
        5
 70
     0
 43
0.0
 10
478.816284
 20
241.090347
 10
478.940521
 20
240.670029
 10
479.162537
 20
240.24852
 10
479.458435
 20
239.890182
 10
479.794464
 20
239.649979
  0
LWPOLYLINE
  5
238
330
1C3
100
AcDbEntity
  8
0
  6
Continuous
 62
     0
370
    30
100
AcDbPolyline
 90
        5
 70
     0
 43
0.0
 10
478.816284
 20
244.838013
 10
478.940521
 20
244.417709
 10
479.162537
 20
243.996185
 10
479.458435
 20
243.637848
 10
479.794464
 20
243.397644
  0
LWPOLYLINE
  5
239
330
1C3
100
AcDbEntity
  8
0
  6
Continuous
 62
     0
370
    30
100
AcDbPolyline
 90
        5
 70
     0
 43
0.0
 10
478.816284
 20
248.585678
 10
478.940521
 20
248.165375
 10
479.162537
 20
247.743851
 10
479.458435
 20
247.385513
 10
479.794464
 20
247.145309
  0
LWPOLYLINE
  5
23A
330
1C3
100
AcDbEntity
  8
0
  6
Continuous
 62
     0
370
    30
100
AcDbPolyline
 90
        5
 70
     0
 43
0.0
 10
478.816284
 20
252.333359
 10
478.940521
 20
251.91304
 10
479.162537
 20
251.491516
 10
479.458435
 20
251.133179
 10
479.794464
 20
250.892975
  0
LWPOLYLINE
  5
23B
330
1C3
100
AcDbEntity
  8
0
  6
Continuous
 62
     0
370
    30
100
AcDbPolyline
 90
        5
 70
     0
 43
0.0
 10
478.816284
 20
256.081024
 10
478.940521
 20
255.660706
 10
479.162537
 20
255.239182
 10
479.458435
 20
254.880844
 10
479.794464
 20
254.64064
  0
LWPOLYLINE
  5
23C
330
1C3
100
AcDbEntity
  8
0
  6
Continuous
 62
     0
370
    30
100
AcDbPolyline
 90
        8
 70
     0
 43
0.0
 10
483.32132
 20
216.197327
 10
483.444855
 20
215.902618
 10
483.667389
 20
215.624832
 10
483.969421
 20
215.39357
 10
484.323669
 20
215.234268
 10
484.69693
 20
215.165192
 10
485.052612
 20
215.193039
 10
485.404083
 20
215.343277
  0
LWPOLYLINE
  5
23D
330
1C3
100
AcDbEntity
  8
0
  6
Continuous
 62
     0
370
    30
100
AcDbPolyline
 90
        8
 70
     0
 43
0.0
 10
483.32132
 20
219.944992
 10
483.444855
 20
219.650284
 10
483.667389
 20
219.372498
 10
483.969421
 20
219.141235
 10
484.323669
 20
218.981934
 10
484.69693
 20
218.912857
 10
485.052612
 20
218.940704
 10
485.404083
 20
219.090942
  0
LWPOLYLINE
  5
23E
330
1C3
100
AcDbEntity
  8
0
  6
Continuous
 62
     0
370
    30
100
AcDbPolyline
 90
        8
 70
     0
 43
0.0
 10
483.32132
 20
223.692657
 10
483.444855
 20
223.397949
 10
483.667389
 20
223.120163
 10
483.969421
 20
222.888901
 10
484.323669
 20
222.729599
 10
484.69693
 20
222.660522
 10
485.052612
 20
222.68837
 10
485.404083
 20
222.838608
  0
LWPOLYLINE
  5
23F
330
1C3
100
AcDbEntity
  8
0
  6
Continuous
 62
     0
370
    30
100
AcDbPolyline
 90
        8
 70
     0
 43
0.0
 10
483.32132
 20
227.440323
 10
483.444855
 20
227.145615
 10
483.667389
 20
226.867828
 10
483.969421
 20
226.636566
 10
484.323669
 20
226.477264
 10
484.69693
 20
226.408188
 10
485.052612
 20
226.436035
 10
485.404083
 20
226.586273
  0
LWPOLYLINE
  5
240
330
1C3
100
AcDbEntity
  8
0
  6
Continuous
 62
     0
370
    30
100
AcDbPolyline
 90
        8
 70
     0
 43
0.0
 10
483.32132
 20
231.187988
 10
483.444855
 20
230.89328
 10
483.667389
 20
230.615494
 10
483.969421
 20
230.384232
 10
484.323669
 20
230.22493
 10
484.69693
 20
230.155853
 10
485.052612
 20
230.183701
 10
485.404083
 20
230.333939
  0
LWPOLYLINE
  5
241
330
1C3
100
AcDbEntity
  8
0
  6
Continuous
 62
     0
370
    30
100
AcDbPolyline
 90
        8
 70
     0
 43
0.0
 10
483.32132
 20
234.935654
 10
483.444855
 20
234.640945
 10
483.667389
 20
234.363159
 10
483.969421
 20
234.131897
 10
484.323669
 20
233.972595
 10
484.69693
 20
233.903519
 10
485.052612
 20
233.931366
 10
485.404083
 20
234.081604
  0
LWPOLYLINE
  5
242
330
1C3
100
AcDbEntity
  8
0
  6
Continuous
 62
     0
370
    30
100
AcDbPolyline
 90
        8
 70
     0
 43
0.0
 10
483.32132
 20
238.683319
 10
483.444855
 20
238.388611
 10
483.667389
 20
238.110825
 10
483.969421
 20
237.879562
 10
484.323669
 20
237.720261
 10
484.69693
 20
237.651184
 10
485.052612
 20
237.679031
 10
485.404083
 20
237.829269
  0
LWPOLYLINE
  5
243
330
1C3
100
AcDbEntity
  8
0
  6
Continuous
 62
     0
370
    30
100
AcDbPolyline
 90
        8
 70
     0
 43
0.0
 10
483.32132
 20
242.430984
 10
483.444855
 20
242.136276
 10
483.667389
 20
241.85849
 10
483.969421
 20
241.627228
 10
484.323669
 20
241.467926
 10
484.69693
 20
241.398849
 10
485.052612
 20
241.426697
 10
485.404083
 20
241.576935
  0
LWPOLYLINE
  5
244
330
1C3
100
AcDbEntity
  8
0
  6
Continuous
 62
     0
370
    30
100
AcDbPolyline
 90
        8
 70
     0
 43
0.0
 10
483.32132
 20
246.17865
 10
483.444855
 20
245.883942
 10
483.667389
 20
245.606155
 10
483.969421
 20
245.374893
 10
484.323669
 20
245.215591
 10
484.69693
 20
245.146515
 10
485.052612
 20
245.174362
 10
485.404083
 20
245.3246
  0
LWPOLYLINE
  5
245
330
1C3
100
AcDbEntity
  8
0
  6
Continuous
 62
     0
370
    30
100
AcDbPolyline
 90
        8
 70
     0
 43
0.0
 10
483.32132
 20
249.926315
 10
483.444855
 20
249.631607
 10
483.667389
 20
249.353821
 10
483.969421
 20
249.122559
 10
484.323669
 20
248.963257
 10
484.69693
 20
248.89418
 10
485.052612
 20
248.922028
 10
485.404083
 20
249.072266
  0
LWPOLYLINE
  5
246
330
1C3
100
AcDbEntity
  8
0
  6
Continuous
 62
     0
370
    30
100
AcDbPolyline
 90
        8
 70
     0
 43
0.0
 10
483.32132
 20
253.673981
 10
483.444855
 20
253.379272
 10
483.667389
 20
253.101501
 10
483.969421
 20
252.870224
 10
484.323669
 20
252.710922
 10
484.69693
 20
252.641846
 10
485.052612
 20
252.669693
 10
485.404083
 20
252.819931
  0
LWPOLYLINE
  5
247
330
1C3
100
AcDbEntity
  8
0
  6
Continuous
 62
     0
370
    30
100
AcDbPolyline
 90
        7
 70
     0
 43
0.0
 10
480.824188
 20
219.059845
 10
480.91391
 20
218.731323
 10
481.102905
 20
218.394089
 10
481.374237
 20
218.088226
 10
481.702545
 20
217.84967
 10
482.054596
 20
217.707367
 10
482.435059
 20
217.681458
  0
LWPOLYLINE
  5
248
330
1C3
100
AcDbEntity
  8
0
  6
Continuous
 62
     0
370
    30
100
AcDbPolyline
 90
        7
 70
     0
 43
0.0
 10
480.824188
 20
222.819031
 10
480.91391
 20
222.490509
 10
481.102905
 20
222.153275
 10
481.374237
 20
221.847427
 10
481.702545
 20
221.608856
 10
482.054596
 20
221.466553
 10
482.435059
 20
221.440643
  0
LWPOLYLINE
  5
249
330
1C3
100
AcDbEntity
  8
0
  6
Continuous
 62
     0
370
    30
100
AcDbPolyline
 90
        7
 70
     0
 43
0.0
 10
480.824188
 20
226.578232
 10
480.91391
 20
226.24971
 10
481.102905
 20
225.912476
 10
481.374237
 20
225.606613
 10
481.702545
 20
225.368057
 10
482.054596
 20
225.225754
 10
482.435059
 20
225.199844
  0
LWPOLYLINE
  5
24A
330
1C3
100
AcDbEntity
  8
0
  6
Continuous
 62
     0
370
    30
100
AcDbPolyline
 90
        7
 70
     0
 43
0.0
 10
480.824188
 20
230.337433
 10
480.91391
 20
230.008911
 10
481.102905
 20
229.671677
 10
481.374237
 20
229.365814
 10
481.702545
 20
229.127258
 10
482.054596
 20
228.984955
 10
482.435059
 20
228.959045
  0
LWPOLYLINE
  5
24B
330
1C3
100
AcDbEntity
  8
0
  6
Continuous
 62
     0
370
    30
100
AcDbPolyline
 90
        7
 70
     0
 43
0.0
 10
480.824188
 20
234.096619
 10
480.91391
 20
233.768097
 10
481.102905
 20
233.430878
 10
481.374237
 20
233.125015
 10
481.702545
 20
232.886459
 10
482.054596
 20
232.744141
 10
482.435059
 20
232.718231
  0
LWPOLYLINE
  5
24C
330
1C3
100
AcDbEntity
  8
0
  6
Continuous
 62
     0
370
    30
100
AcDbPolyline
 90
        7
 70
     0
 43
0.0
 10
480.824188
 20
237.85582
 10
480.91391
 20
237.527298
 10
481.102905
 20
237.190063
 10
481.374237
 20
236.884201
 10
481.702545
 20
236.645645
 10
482.054596
 20
236.503342
 10
482.435059
 20
236.477432
  0
LWPOLYLINE
  5
24D
330
1C3
100
AcDbEntity
  8
0
  6
Continuous
 62
     0
370
    30
100
AcDbPolyline
 90
        7
 70
     0
 43
0.0
 10
480.824188
 20
241.615021
 10
480.91391
 20
241.286499
 10
481.102905
 20
240.949265
 10
481.374237
 20
240.643402
 10
481.702545
 20
240.404846
 10
482.054596
 20
240.262543
 10
482.435059
 20
240.236633
  0
LWPOLYLINE
  5
24E
330
1C3
100
AcDbEntity
  8
0
  6
Continuous
 62
     0
370
    30
100
AcDbPolyline
 90
        7
 70
     0
 43
0.0
 10
480.824188
 20
245.374207
 10
480.91391
 20
245.0457
 10
481.102905
 20
244.708466
 10
481.374237
 20
244.402603
 10
481.702545
 20
244.164047
 10
482.054596
 20
244.021744
 10
482.435059
 20
243.995819
  0
LWPOLYLINE
  5
24F
330
1C3
100
AcDbEntity
  8
0
  6
Continuous
 62
     0
370
    30
100
AcDbPolyline
 90
        7
 70
     0
 43
0.0
 10
480.824188
 20
249.133408
 10
480.91391
 20
248.804886
 10
481.102905
 20
248.467651
 10
481.374237
 20
248.161789
 10
481.702545
 20
247.923233
 10
482.054596
 20
247.78093
 10
482.435059
 20
247.75502
  0
LWPOLYLINE
  5
250
330
1C3
100
AcDbEntity
  8
0
  6
Continuous
 62
     0
370
    30
100
AcDbPolyline
 90
        7
 70
     0
 43
0.0
 10
480.824188
 20
252.892609
 10
480.91391
 20
252.564087
 10
481.102905
 20
252.226852
 10
481.374237
 20
251.92099
 10
481.702545
 20
251.682434
 10
482.054596
 20
251.540131
 10
482.435059
 20
251.514221
  0
LINE
  5
251
330
1C3
100
AcDbEntity
  8
0
  6
Continuous
 62
     0
370
     0
100
AcDbLine
 10
495.854366
 20
264.448941
 30
0.0
 11
495.854366
 21
265.651022
 31
0.0
  0
ELLIPSE
  5
252
330
1C3
100
AcDbEntity
  8
0
  6
Continuous
 62
     0
370
    30
100
AcDbEllipse
 10
487.544287
 20
271.772403
 30
0.0
 11
12.0
 21
0.0
 31
0.0
210
0.0
220
0.0
230
-1.0
 40
0.707107
 41
0.8058384593731732
 42
3.947431112962961
  0
ELLIPSE
  5
253
330
1C3
100
AcDbEntity
  8
0
  6
Continuous
 62
     0
370
    30
100
AcDbEllipse
 10
487.544287
 20
271.772403
 30
0.0
 11
12.0
 21
0.0
 31
0.0
210
0.0
220
0.0
230
-1.0
 40
0.707107
 41
3.947431112962962
 42
7.089023766552759
  0
ELLIPSE
  5
254
330
1C3
100
AcDbEntity
  8
0
  6
Continuous
 62
     0
370
    30
100
AcDbEllipse
 10
487.544287
 20
220.897546
 30
0.0
 11
-11.0
 21
6.106226635438361E-16
 31
0.0
210
0.0
220
0.0
230
1.0
 40
0.707107
 41
5.588236576351187
 42
5.613273101508815
  0
LINE
  5
255
330
1C3
100
AcDbEntity
  8
0
  6
Continuous
 62
     0
370
     0
100
AcDbLine
 10
494.815606
 20
137.95521
 30
0.0
 11
494.815606
 21
133.692257
 31
0.0
  0
LWPOLYLINE
  5
256
330
1C3
100
AcDbEntity
  8
0
  6
Continuous
 62
     0
370
    30
100
AcDbPolyline
 90
        8
 70
     0
 43
0.0
 10
494.815613
 20
133.692261
 10
495.571838
 20
134.262634
 10
496.26297
 20
134.911163
 10
496.867371
 20
135.633057
 10
497.364136
 20
136.419739
 10
497.734711
 20
137.258896
 10
497.964478
 20
138.134842
 10
498.044281
 20
139.048462
  0
LWPOLYLINE
  5
257
330
1C3
100
AcDbEntity
  8
0
  6
Continuous
 62
     0
370
    30
100
AcDbPolyline
 90
       21
 70
     0
 43
0.0
 10
477.044281
 20
139.048462
 10
477.123566
 20
138.137817
 10
477.357452
 20
137.248672
 10
477.735199
 20
136.399734
 10
478.240479
 20
135.606857
 10
478.853241
 20
134.882187
 10
479.5513
 20
134.233795
 10
480.318939
 20
133.661255
 10
481.193268
 20
133.136002
 10
482.179749
 20
132.666
 10
483.268494
 20
132.267319
 10
484.443878
 20
131.954895
 10
485.684692
 20
131.741211
 10
486.965424
 20
131.635132
 10
488.257599
 20
131.640991
 10
489.532104
 20
131.758102
 10
490.7612
 20
131.980881
 10
491.920441
 20
132.299423
 10
492.990234
 20
132.700562
 10
493.956543
 20
133.169144
 10
494.815613
 20
133.692261
  0
LINE
  5
258
330
1C3
100
AcDbEntity
  8
0
  6
Continuous
 62
     0
370
    30
100
AcDbLine
 10
477.044287
 20
140.597398
 30
0.0
 11
477.044287
 21
139.048464
 31
0.0
  0
LINE
  5
259
330
1C3
100
AcDbEntity
  8
0
  6
Continuous
 62
     0
370
    30
100
AcDbLine
 10
498.044287
 20
140.597399
 30
0.0
 11
498.044287
 21
139.048464
 31
0.0
  0
LINE
  5
25A
330
1C3
100
AcDbEntity
  8
0
  6
Continuous
 62
     0
370
    30
100
AcDbLine
 10
499.544287
 20
271.772403
 30
0.0
 11
499.544287
 21
270.570321
 31
0.0
  0
LINE
  5
25B
330
1C3
100
AcDbEntity
  8
0
  6
Continuous
 62
     0
370
    30
100
AcDbLine
 10
475.544287
 20
271.772402
 30
0.0
 11
475.544287
 21
270.570321
 31
0.0
  0
LINE
  5
25C
330
1C3
100
AcDbEntity
  8
0
  6
Continuous
 62
     0
370
    30
100
AcDbLine
 10
475.544287
 20
144.705318
 30
0.0
 11
475.544287
 21
270.570321
 31
0.0
  0
LINE
  5
25D
330
1C3
100
AcDbEntity
  8
0
  6
Continuous
 62
     0
370
    30
100
AcDbLine
 10
499.544287
 20
144.705318
 30
0.0
 11
499.544287
 21
270.570321
 31
0.0
  0
ENDBLK
  5
25F
330
1C3
100
AcDbEntity
  8
0
100
AcDbBlockEnd
  0
BLOCK
  5
2EC
330
261
100
AcDbEntity
  8
0
100
AcDbBlockBegin
  2
e
 70
     0
 10
207.296051
 20
0.0
 30
0.0
  3
e
  1

  0
LINE
  5
262
330
261
100
AcDbEntity
  8
0
  6
Continuous
 62
     0
370
     0
100
AcDbLine
 10
173.791198
 20
525.898415
 30
0.0
 11
161.545931
 21
525.898415
 31
0.0
  0
LINE
  5
263
330
261
100
AcDbEntity
  8
0
  6
Continuous
 62
     0
370
     0
100
AcDbLine
 10
161.545931
 20
525.898415
 30
0.0
 11
149.791198
 21
525.898415
 31
0.0
  0
LINE
  5
264
330
261
100
AcDbEntity
  8
0
  6
Continuous
 62
     0
370
    30
100
AcDbLine
 10
149.791198
 20
347.898415
 30
0.0
 11
173.570427
 21
347.898415
 31
0.0
  0
LINE
  5
265
330
261
100
AcDbEntity
  8
0
  6
Continuous
 62
     0
370
     0
100
AcDbLine
 10
173.570427
 20
347.898415
 30
0.0
 11
173.570427
 21
350.098415
 31
0.0
  0
LINE
  5
266
330
261
100
AcDbEntity
  8
0
  6
Continuous
 62
     0
370
     0
100
AcDbLine
 10
173.570427
 20
350.098415
 30
0.0
 11
173.791198
 21
350.098415
 31
0.0
  0
LWPOLYLINE
  5
267
330
261
100
AcDbEntity
  8
0
  6
Continuous
 62
     0
370
    30
100
AcDbPolyline
 90
        9
 70
     0
 43
0.0
 10
149.791748
 20
460.640686
 10
149.791687
 20
460.595306
 10
149.795441
 20
460.512939
 10
149.802139
 20
460.3927
 10
149.810486
 20
460.239288
 10
149.819061
 20
460.057526
 10
149.826492
 20
459.853455
 10
149.831543
 20
459.633789
 10
149.83342
 20
459.398376
  0
LWPOLYLINE
  5
268
330
261
100
AcDbEntity
  8
0
  6
Continuous
 62
     0
370
    30
100
AcDbPolyline
 90
        9
 70
     0
 43
0.0
 10
149.83342
 20
459.398376
 10
149.83168
 20
459.171204
 10
149.826706
 20
458.950897
 10
149.819351
 20
458.745941
 10
149.810776
 20
458.563202
 10
149.802383
 20
458.4086
 10
149.795624
 20
458.286835
 10
149.791748
 20
458.203949
 10
149.791748
 20
458.156128
  0
LWPOLYLINE
  5
269
330
261
100
AcDbEntity
  8
0
  6
Continuous
 62
     0
370
    30
100
AcDbPolyline
 90
        9
 70
     0
 43
0.0
 10
149.791748
 20
465.940704
 10
149.791687
 20
465.895294
 10
149.795441
 20
465.812958
 10
149.802139
 20
465.692719
 10
149.810486
 20
465.539307
 10
149.819061
 20
465.357513
 10
149.826492
 20
465.153442
 10
149.831543
 20
464.933807
 10
149.83342
 20
464.698395
  0
LWPOLYLINE
  5
26A
330
261
100
AcDbEntity
  8
0
  6
Continuous
 62
     0
370
    30
100
AcDbPolyline
 90
        9
 70
     0
 43
0.0
 10
149.83342
 20
464.698395
 10
149.83168
 20
464.471191
 10
149.826706
 20
464.250916
 10
149.819351
 20
464.045959
 10
149.810776
 20
463.86319
 10
149.802383
 20
463.708618
 10
149.795624
 20
463.586823
 10
149.791748
 20
463.503967
 10
149.791748
 20
463.456116
  0
LWPOLYLINE
  5
26B
330
261
100
AcDbEntity
  8
0
  6
Continuous
 62
     0
370
    30
100
AcDbPolyline
 90
        9
 70
     0
 43
0.0
 10
149.791748
 20
471.240692
 10
149.791687
 20
471.195312
 10
149.795441
 20
471.112946
 10
149.802139
 20
470.992706
 10
149.810486
 20
470.839294
 10
149.819061
 20
470.657501
 10
149.826492
 20
470.45343
 10
149.831543
 20
470.233795
 10
149.83342
 20
469.998383
  0
LWPOLYLINE
  5
26C
330
261
100
AcDbEntity
  8
0
  6
Continuous
 62
     0
370
    30
100
AcDbPolyline
 90
        9
 70
     0
 43
0.0
 10
149.83342
 20
469.998383
 10
149.83168
 20
469.77121
 10
149.826706
 20
469.550903
 10
149.819351
 20
469.345947
 10
149.810776
 20
469.163177
 10
149.802383
 20
469.008606
 10
149.795624
 20
468.88681
 10
149.791748
 20
468.803955
 10
149.791748
 20
468.756104
  0
LWPOLYLINE
  5
26D
330
261
100
AcDbEntity
  8
0
  6
Continuous
 62
     0
370
    30
100
AcDbPolyline
 90
        9
 70
     0
 43
0.0
 10
149.791748
 20
476.54071
 10
149.791687
 20
476.4953
 10
149.795441
 20
476.412933
 10
149.802139
 20
476.292694
 10
149.810486
 20
476.139282
 10
149.819061
 20
475.95752
 10
149.826492
 20
475.753448
 10
149.831543
 20
475.533783
 10
149.83342
 20
475.298401
  0
LWPOLYLINE
  5
26E
330
261
100
AcDbEntity
  8
0
  6
Continuous
 62
     0
370
    30
100
AcDbPolyline
 90
        9
 70
     0
 43
0.0
 10
149.83342
 20
475.298401
 10
149.83168
 20
475.071198
 10
149.826706
 20
474.850922
 10
149.819351
 20
474.645935
 10
149.810776
 20
474.463196
 10
149.802383
 20
474.308624
 10
149.795624
 20
474.186829
 10
149.791748
 20
474.103943
 10
149.791748
 20
474.056122
  0
LWPOLYLINE
  5
26F
330
261
100
AcDbEntity
  8
0
  6
Continuous
 62
     0
370
    30
100
AcDbPolyline
 90
        9
 70
     0
 43
0.0
 10
149.791748
 20
481.840698
 10
149.791687
 20
481.795319
 10
149.795441
 20
481.712952
 10
149.802139
 20
481.592712
 10
149.810486
 20
481.439301
 10
149.819061
 20
481.257507
 10
149.826492
 20
481.053436
 10
149.831543
 20
480.833801
 10
149.83342
 20
480.598389
  0
LWPOLYLINE
  5
270
330
261
100
AcDbEntity
  8
0
  6
Continuous
 62
     0
370
    30
100
AcDbPolyline
 90
        9
 70
     0
 43
0.0
 10
149.83342
 20
480.598389
 10
149.83168
 20
480.371185
 10
149.826706
 20
480.150909
 10
149.819351
 20
479.945953
 10
149.810776
 20
479.763184
 10
149.802383
 20
479.608612
 10
149.795624
 20
479.486816
 10
149.791748
 20
479.403961
 10
149.791748
 20
479.35611
  0
LWPOLYLINE
  5
271
330
261
100
AcDbEntity
  8
0
  6
Continuous
 62
     0
370
    30
100
AcDbPolyline
 90
        9
 70
     0
 43
0.0
 10
149.791748
 20
487.140686
 10
149.791687
 20
487.095306
 10
149.795441
 20
487.012939
 10
149.802139
 20
486.8927
 10
149.810486
 20
486.739288
 10
149.819061
 20
486.557526
 10
149.826492
 20
486.353455
 10
149.831543
 20
486.133789
 10
149.83342
 20
485.898376
  0
LWPOLYLINE
  5
272
330
261
100
AcDbEntity
  8
0
  6
Continuous
 62
     0
370
    30
100
AcDbPolyline
 90
        9
 70
     0
 43
0.0
 10
149.83342
 20
485.898376
 10
149.83168
 20
485.671204
 10
149.826706
 20
485.450897
 10
149.819351
 20
485.245941
 10
149.810776
 20
485.063202
 10
149.802383
 20
484.9086
 10
149.795624
 20
484.786835
 10
149.791748
 20
484.703949
 10
149.791748
 20
484.656128
  0
LWPOLYLINE
  5
273
330
261
100
AcDbEntity
  8
0
  6
Continuous
 62
     0
370
    30
100
AcDbPolyline
 90
        9
 70
     0
 43
0.0
 10
149.791748
 20
492.440704
 10
149.791687
 20
492.395294
 10
149.795441
 20
492.312958
 10
149.802139
 20
492.192719
 10
149.810486
 20
492.039307
 10
149.819061
 20
491.857513
 10
149.826492
 20
491.653442
 10
149.831543
 20
491.433807
 10
149.83342
 20
491.198395
  0
LWPOLYLINE
  5
274
330
261
100
AcDbEntity
  8
0
  6
Continuous
 62
     0
370
    30
100
AcDbPolyline
 90
        9
 70
     0
 43
0.0
 10
149.83342
 20
491.198395
 10
149.83168
 20
490.971191
 10
149.826706
 20
490.750916
 10
149.819351
 20
490.545959
 10
149.810776
 20
490.36319
 10
149.802383
 20
490.208618
 10
149.795624
 20
490.086823
 10
149.791748
 20
490.003967
 10
149.791748
 20
489.956116
  0
LWPOLYLINE
  5
275
330
261
100
AcDbEntity
  8
0
  6
Continuous
 62
     0
370
    30
100
AcDbPolyline
 90
        9
 70
     0
 43
0.0
 10
149.791748
 20
497.740692
 10
149.791687
 20
497.695312
 10
149.795441
 20
497.612946
 10
149.802139
 20
497.492706
 10
149.810486
 20
497.339294
 10
149.819061
 20
497.157501
 10
149.826492
 20
496.95343
 10
149.831543
 20
496.733795
 10
149.83342
 20
496.498383
  0
LWPOLYLINE
  5
276
330
261
100
AcDbEntity
  8
0
  6
Continuous
 62
     0
370
    30
100
AcDbPolyline
 90
        9
 70
     0
 43
0.0
 10
149.83342
 20
496.498383
 10
149.83168
 20
496.27121
 10
149.826706
 20
496.050903
 10
149.819351
 20
495.845947
 10
149.810776
 20
495.663177
 10
149.802383
 20
495.508606
 10
149.795624
 20
495.38681
 10
149.791748
 20
495.303955
 10
149.791748
 20
495.256104
  0
LWPOLYLINE
  5
277
330
261
100
AcDbEntity
  8
0
  6
Continuous
 62
     0
370
    30
100
AcDbPolyline
 90
        9
 70
     0
 43
0.0
 10
149.791748
 20
503.04071
 10
149.791687
 20
502.9953
 10
149.795441
 20
502.912933
 10
149.802139
 20
502.792694
 10
149.810486
 20
502.639282
 10
149.819061
 20
502.45752
 10
149.826492
 20
502.253448
 10
149.831543
 20
502.033783
 10
149.83342
 20
501.798401
  0
LWPOLYLINE
  5
278
330
261
100
AcDbEntity
  8
0
  6
Continuous
 62
     0
370
    30
100
AcDbPolyline
 90
        9
 70
     0
 43
0.0
 10
149.83342
 20
501.798401
 10
149.83168
 20
501.571198
 10
149.826706
 20
501.350922
 10
149.819351
 20
501.145935
 10
149.810776
 20
500.963196
 10
149.802383
 20
500.808624
 10
149.795624
 20
500.686829
 10
149.791748
 20
500.603943
 10
149.791748
 20
500.556122
  0
LWPOLYLINE
  5
279
330
261
100
AcDbEntity
  8
0
  6
Continuous
 62
     0
370
    30
100
AcDbPolyline
 90
        9
 70
     0
 43
0.0
 10
149.791748
 20
508.340698
 10
149.791687
 20
508.295319
 10
149.795441
 20
508.212952
 10
149.802139
 20
508.092712
 10
149.810486
 20
507.939301
 10
149.819061
 20
507.757507
 10
149.826492
 20
507.553436
 10
149.831543
 20
507.333801
 10
149.83342
 20
507.098389
  0
LWPOLYLINE
  5
27A
330
261
100
AcDbEntity
  8
0
  6
Continuous
 62
     0
370
    30
100
AcDbPolyline
 90
        9
 70
     0
 43
0.0
 10
149.83342
 20
507.098389
 10
149.83168
 20
506.871185
 10
149.826706
 20
506.650909
 10
149.819351
 20
506.445953
 10
149.810776
 20
506.263184
 10
149.802383
 20
506.108612
 10
149.795624
 20
505.986816
 10
149.791748
 20
505.903961
 10
149.791748
 20
505.85611
  0
LWPOLYLINE
  5
27B
330
261
100
AcDbEntity
  8
0
  6
Continuous
 62
     0
370
    30
100
AcDbPolyline
 90
        9
 70
     0
 43
0.0
 10
149.791748
 20
513.640686
 10
149.791687
 20
513.595276
 10
149.795441
 20
513.512939
 10
149.802139
 20
513.3927
 10
149.810486
 20
513.239319
 10
149.819061
 20
513.057495
 10
149.826492
 20
512.853455
 10
149.831543
 20
512.633789
 10
149.83342
 20
512.398376
  0
LWPOLYLINE
  5
27C
330
261
100
AcDbEntity
  8
0
  6
Continuous
 62
     0
370
    30
100
AcDbPolyline
 90
        9
 70
     0
 43
0.0
 10
149.83342
 20
512.398376
 10
149.83168
 20
512.171204
 10
149.826706
 20
511.950897
 10
149.819351
 20
511.745941
 10
149.810776
 20
511.563202
 10
149.802383
 20
511.4086
 10
149.795624
 20
511.286835
 10
149.791748
 20
511.203949
 10
149.791748
 20
511.156128
  0
LWPOLYLINE
  5
27D
330
261
100
AcDbEntity
  8
0
  6
Continuous
 62
     0
370
    30
100
AcDbPolyline
 90
       18
 70
     0
 43
0.0
 10
150.73288
 20
459.398407
 10
150.741165
 20
459.627563
 10
150.766068
 20
459.849579
 10
150.807266
 20
460.055725
 10
150.863922
 20
460.239258
 10
150.935135
 20
460.394165
 10
151.019775
 20
460.514862
 10
151.115753
 20
460.597534
 10
151.220383
 20
460.641479
 10
151.330902
 20
460.642487
 10
151.443481
 20
460.602661
 10
151.553558
 20
460.520477
 10
151.657593
 20
460.402344
 10
151.750504
 20
460.249512
 10
151.828247
 20
460.067444
 10
151.887329
 20
459.862335
 10
151.924667
 20
459.641022
 10
151.938354
 20
459.398376
  0
LWPOLYLINE
  5
27E
330
261
100
AcDbEntity
  8
0
  6
Continuous
 62
     0
370
    30
100
AcDbPolyline
 90
       18
 70
     0
 43
0.0
 10
151.938354
 20
459.398376
 10
151.926163
 20
459.169281
 10
151.890167
 20
458.947296
 10
151.832336
 20
458.740997
 10
151.7556
 20
458.557465
 10
151.663498
 20
458.40274
 10
151.56012
 20
458.282074
 10
151.450027
 20
458.199219
 10
151.337708
 20
458.155396
 10
151.226974
 20
458.154297
 10
151.121704
 20
458.194092
 10
151.025436
 20
458.276306
 10
150.939926
 20
458.394226
 10
150.867783
 20
458.546997
 10
150.810257
 20
458.729004
 10
150.768158
 20
458.934021
 10
150.742264
 20
459.155243
 10
150.73288
 20
459.398407
  0
LWPOLYLINE
  5
27F
330
261
100
AcDbEntity
  8
0
  6
Continuous
 62
     0
370
    30
100
AcDbPolyline
 90
       18
 70
     0
 43
0.0
 10
150.73288
 20
464.698425
 10
150.741165
 20
464.927582
 10
150.766068
 20
465.149567
 10
150.807266
 20
465.355743
 10
150.863922
 20
465.539276
 10
150.935135
 20
465.694153
 10
151.019775
 20
465.81485
 10
151.115753
 20
465.897552
 10
151.220383
 20
465.941467
 10
151.330902
 20
465.942474
 10
151.443481
 20
465.902649
 10
151.553558
 20
465.820496
 10
151.657593
 20
465.702362
 10
151.750504
 20
465.54953
 10
151.828247
 20
465.367462
 10
151.887329
 20
465.162323
 10
151.924667
 20
464.94104
 10
151.938354
 20
464.698395
  0
LWPOLYLINE
  5
280
330
261
100
AcDbEntity
  8
0
  6
Continuous
 62
     0
370
    30
100
AcDbPolyline
 90
       18
 70
     0
 43
0.0
 10
151.938354
 20
464.698395
 10
151.926163
 20
464.469299
 10
151.890167
 20
464.247284
 10
151.832336
 20
464.040985
 10
151.7556
 20
463.857452
 10
151.663498
 20
463.702759
 10
151.56012
 20
463.582062
 10
151.450027
 20
463.499207
 10
151.337708
 20
463.455414
 10
151.226974
 20
463.454315
 10
151.121704
 20
463.49411
 10
151.025436
 20
463.576294
 10
150.939926
 20
463.694244
 10
150.867783
 20
463.847015
 10
150.810257
 20
464.028992
 10
150.768158
 20
464.234009
 10
150.742264
 20
464.455231
 10
150.73288
 20
464.698425
  0
LWPOLYLINE
  5
281
330
261
100
AcDbEntity
  8
0
  6
Continuous
 62
     0
370
    30
100
AcDbPolyline
 90
       18
 70
     0
 43
0.0
 10
150.73288
 20
469.998413
 10
150.741165
 20
470.22757
 10
150.766068
 20
470.449554
 10
150.807266
 20
470.655731
 10
150.863922
 20
470.839264
 10
150.935135
 20
470.994171
 10
151.019775
 20
471.114868
 10
151.115753
 20
471.19754
 10
151.220383
 20
471.241486
 10
151.330902
 20
471.242462
 10
151.443481
 20
471.202667
 10
151.553558
 20
471.120483
 10
151.657593
 20
471.00235
 10
151.750504
 20
470.849518
 10
151.828247
 20
470.66745
 10
151.887329
 20
470.462341
 10
151.924667
 20
470.241028
 10
151.938354
 20
469.998383
  0
LWPOLYLINE
  5
282
330
261
100
AcDbEntity
  8
0
  6
Continuous
 62
     0
370
    30
100
AcDbPolyline
 90
       18
 70
     0
 43
0.0
 10
151.938354
 20
469.998383
 10
151.926163
 20
469.769287
 10
151.890167
 20
469.547302
 10
151.832336
 20
469.341003
 10
151.7556
 20
469.157471
 10
151.663498
 20
469.002747
 10
151.56012
 20
468.88208
 10
151.450027
 20
468.799225
 10
151.337708
 20
468.755402
 10
151.226974
 20
468.754303
 10
151.121704
 20
468.794098
 10
151.025436
 20
468.876312
 10
150.939926
 20
468.994232
 10
150.867783
 20
469.147003
 10
150.810257
 20
469.32901
 10
150.768158
 20
469.533997
 10
150.742264
 20
469.755249
 10
150.73288
 20
469.998413
  0
LWPOLYLINE
  5
283
330
261
100
AcDbEntity
  8
0
  6
Continuous
 62
     0
370
    30
100
AcDbPolyline
 90
       18
 70
     0
 43
0.0
 10
150.73288
 20
475.298401
 10
150.741165
 20
475.527557
 10
150.766068
 20
475.749573
 10
150.807266
 20
475.955719
 10
150.863922
 20
476.139282
 10
150.935135
 20
476.294159
 10
151.019775
 20
476.414856
 10
151.115753
 20
476.497559
 10
151.220383
 20
476.541473
 10
151.330902
 20
476.54248
 10
151.443481
 20
476.502655
 10
151.553558
 20
476.420471
 10
151.657593
 20
476.302338
 10
151.750504
 20
476.149506
 10
151.828247
 20
475.967438
 10
151.887329
 20
475.762329
 10
151.924667
 20
475.541016
 10
151.938354
 20
475.298401
  0
LWPOLYLINE
  5
284
330
261
100
AcDbEntity
  8
0
  6
Continuous
 62
     0
370
    30
100
AcDbPolyline
 90
       18
 70
     0
 43
0.0
 10
151.938354
 20
475.298401
 10
151.926163
 20
475.069275
 10
151.890167
 20
474.84729
 10
151.832336
 20
474.640991
 10
151.7556
 20
474.457458
 10
151.663498
 20
474.302765
 10
151.56012
 20
474.182068
 10
151.450027
 20
474.099213
 10
151.337708
 20
474.05542
 10
151.226974
 20
474.054321
 10
151.121704
 20
474.094086
 10
151.025436
 20
474.1763
 10
150.939926
 20
474.29422
 10
150.867783
 20
474.446991
 10
150.810257
 20
474.628998
 10
150.768158
 20
474.834015
 10
150.742264
 20
475.055237
 10
150.73288
 20
475.298401
  0
LWPOLYLINE
  5
285
330
261
100
AcDbEntity
  8
0
  6
Continuous
 62
     0
370
    30
100
AcDbPolyline
 90
       18
 70
     0
 43
0.0
 10
150.73288
 20
480.598419
 10
150.741165
 20
480.827576
 10
150.766068
 20
481.049561
 10
150.807266
 20
481.255737
 10
150.863922
 20
481.43927
 10
150.935135
 20
481.594177
 10
151.019775
 20
481.714844
 10
151.115753
 20
481.797546
 10
151.220383
 20
481.841492
 10
151.330902
 20
481.842468
 10
151.443481
 20
481.802673
 10
151.553558
 20
481.72049
 10
151.657593
 20
481.602356
 10
151.750504
 20
481.449524
 10
151.828247
 20
481.267456
 10
151.887329
 20
481.062317
 10
151.924667
 20
480.841034
 10
151.938354
 20
480.598389
  0
LWPOLYLINE
  5
286
330
261
100
AcDbEntity
  8
0
  6
Continuous
 62
     0
370
    30
100
AcDbPolyline
 90
       18
 70
     0
 43
0.0
 10
151.938354
 20
480.598389
 10
151.926163
 20
480.369293
 10
151.890167
 20
480.147278
 10
151.832336
 20
479.94101
 10
151.7556
 20
479.757477
 10
151.663498
 20
479.602753
 10
151.56012
 20
479.482056
 10
151.450027
 20
479.399231
 10
151.337708
 20
479.355408
 10
151.226974
 20
479.354309
 10
151.121704
 20
479.394104
 10
151.025436
 20
479.476288
 10
150.939926
 20
479.594238
 10
150.867783
 20
479.747009
 10
150.810257
 20
479.928986
 10
150.768158
 20
480.134003
 10
150.742264
 20
480.355225
 10
150.73288
 20
480.598419
  0
LWPOLYLINE
  5
287
330
261
100
AcDbEntity
  8
0
  6
Continuous
 62
     0
370
    30
100
AcDbPolyline
 90
       18
 70
     0
 43
0.0
 10
150.73288
 20
485.898407
 10
150.741165
 20
486.127563
 10
150.766068
 20
486.349579
 10
150.807266
 20
486.555725
 10
150.863922
 20
486.739258
 10
150.935135
 20
486.894165
 10
151.019775
 20
487.014862
 10
151.115753
 20
487.097534
 10
151.220383
 20
487.141479
 10
151.330902
 20
487.142487
 10
151.443481
 20
487.102661
 10
151.553558
 20
487.020477
 10
151.657593
 20
486.902344
 10
151.750504
 20
486.749512
 10
151.828247
 20
486.567444
 10
151.887329
 20
486.362335
 10
151.924667
 20
486.141022
 10
151.938354
 20
485.898376
  0
LWPOLYLINE
  5
288
330
261
100
AcDbEntity
  8
0
  6
Continuous
 62
     0
370
    30
100
AcDbPolyline
 90
       18
 70
     0
 43
0.0
 10
151.938354
 20
485.898376
 10
151.926163
 20
485.669281
 10
151.890167
 20
485.447296
 10
151.832336
 20
485.240997
 10
151.7556
 20
485.057465
 10
151.663498
 20
484.90274
 10
151.56012
 20
484.782074
 10
151.450027
 20
484.699219
 10
151.337708
 20
484.655396
 10
151.226974
 20
484.654297
 10
151.121704
 20
484.694092
 10
151.025436
 20
484.776306
 10
150.939926
 20
484.894226
 10
150.867783
 20
485.046997
 10
150.810257
 20
485.229004
 10
150.768158
 20
485.434021
 10
150.742264
 20
485.655243
 10
150.73288
 20
485.898407
  0
LWPOLYLINE
  5
289
330
261
100
AcDbEntity
  8
0
  6
Continuous
 62
     0
370
    30
100
AcDbPolyline
 90
       18
 70
     0
 43
0.0
 10
150.73288
 20
491.198425
 10
150.741165
 20
491.427582
 10
150.766068
 20
491.649567
 10
150.807266
 20
491.855743
 10
150.863922
 20
492.039276
 10
150.935135
 20
492.194153
 10
151.019775
 20
492.31485
 10
151.115753
 20
492.397552
 10
151.220383
 20
492.441467
 10
151.330902
 20
492.442474
 10
151.443481
 20
492.402649
 10
151.553558
 20
492.320496
 10
151.657593
 20
492.202362
 10
151.750504
 20
492.04953
 10
151.828247
 20
491.867462
 10
151.887329
 20
491.662323
 10
151.924667
 20
491.44104
 10
151.938354
 20
491.198395
  0
LWPOLYLINE
  5
28A
330
261
100
AcDbEntity
  8
0
  6
Continuous
 62
     0
370
    30
100
AcDbPolyline
 90
       18
 70
     0
 43
0.0
 10
151.938354
 20
491.198395
 10
151.926163
 20
490.969299
 10
151.890167
 20
490.747284
 10
151.832336
 20
490.540985
 10
151.7556
 20
490.357452
 10
151.663498
 20
490.202759
 10
151.56012
 20
490.082062
 10
151.450027
 20
489.999207
 10
151.337708
 20
489.955414
 10
151.226974
 20
489.954315
 10
151.121704
 20
489.99411
 10
151.025436
 20
490.076294
 10
150.939926
 20
490.194244
 10
150.867783
 20
490.347015
 10
150.810257
 20
490.528992
 10
150.768158
 20
490.734009
 10
150.742264
 20
490.955231
 10
150.73288
 20
491.198425
  0
LWPOLYLINE
  5
28B
330
261
100
AcDbEntity
  8
0
  6
Continuous
 62
     0
370
    30
100
AcDbPolyline
 90
       18
 70
     0
 43
0.0
 10
150.73288
 20
496.498413
 10
150.741165
 20
496.72757
 10
150.766068
 20
496.949554
 10
150.807266
 20
497.155731
 10
150.863922
 20
497.339264
 10
150.935135
 20
497.494171
 10
151.019775
 20
497.614868
 10
151.115753
 20
497.69754
 10
151.220383
 20
497.741486
 10
151.330902
 20
497.742462
 10
151.443481
 20
497.702667
 10
151.553558
 20
497.620483
 10
151.657593
 20
497.50235
 10
151.750504
 20
497.349518
 10
151.828247
 20
497.16745
 10
151.887329
 20
496.962341
 10
151.924667
 20
496.741028
 10
151.938354
 20
496.498383
  0
LWPOLYLINE
  5
28C
330
261
100
AcDbEntity
  8
0
  6
Continuous
 62
     0
370
    30
100
AcDbPolyline
 90
       18
 70
     0
 43
0.0
 10
151.938354
 20
496.498383
 10
151.926163
 20
496.269287
 10
151.890167
 20
496.047302
 10
151.832336
 20
495.841003
 10
151.7556
 20
495.657471
 10
151.663498
 20
495.502747
 10
151.56012
 20
495.38208
 10
151.450027
 20
495.299225
 10
151.337708
 20
495.255402
 10
151.226974
 20
495.254303
 10
151.121704
 20
495.294098
 10
151.025436
 20
495.376312
 10
150.939926
 20
495.494232
 10
150.867783
 20
495.647003
 10
150.810257
 20
495.82901
 10
150.768158
 20
496.033997
 10
150.742264
 20
496.255249
 10
150.73288
 20
496.498413
  0
LWPOLYLINE
  5
28D
330
261
100
AcDbEntity
  8
0
  6
Continuous
 62
     0
370
    30
100
AcDbPolyline
 90
       18
 70
     0
 43
0.0
 10
150.73288
 20
501.798401
 10
150.741165
 20
502.027557
 10
150.766068
 20
502.249573
 10
150.807266
 20
502.455719
 10
150.863922
 20
502.639282
 10
150.935135
 20
502.794159
 10
151.019775
 20
502.914856
 10
151.115753
 20
502.997559
 10
151.220383
 20
503.041473
 10
151.330902
 20
503.04248
 10
151.443481
 20
503.002655
 10
151.553558
 20
502.920471
 10
151.657593
 20
502.802338
 10
151.750504
 20
502.649506
 10
151.828247
 20
502.467438
 10
151.887329
 20
502.262329
 10
151.924667
 20
502.041016
 10
151.938354
 20
501.798401
  0
LWPOLYLINE
  5
28E
330
261
100
AcDbEntity
  8
0
  6
Continuous
 62
     0
370
    30
100
AcDbPolyline
 90
       18
 70
     0
 43
0.0
 10
151.938354
 20
501.798401
 10
151.926163
 20
501.569275
 10
151.890167
 20
501.34729
 10
151.832336
 20
501.140991
 10
151.7556
 20
500.957458
 10
151.663498
 20
500.802765
 10
151.56012
 20
500.682068
 10
151.450027
 20
500.599213
 10
151.337708
 20
500.55542
 10
151.226974
 20
500.554321
 10
151.121704
 20
500.594086
 10
151.025436
 20
500.6763
 10
150.939926
 20
500.79422
 10
150.867783
 20
500.946991
 10
150.810257
 20
501.128998
 10
150.768158
 20
501.334015
 10
150.742264
 20
501.555237
 10
150.73288
 20
501.798401
  0
LWPOLYLINE
  5
28F
330
261
100
AcDbEntity
  8
0
  6
Continuous
 62
     0
370
    30
100
AcDbPolyline
 90
       18
 70
     0
 43
0.0
 10
150.73288
 20
507.098419
 10
150.741165
 20
507.327576
 10
150.766068
 20
507.549561
 10
150.807266
 20
507.755737
 10
150.863922
 20
507.93927
 10
150.935135
 20
508.094177
 10
151.019775
 20
508.214844
 10
151.115753
 20
508.297546
 10
151.220383
 20
508.341492
 10
151.330902
 20
508.342468
 10
151.443481
 20
508.302673
 10
151.553558
 20
508.22049
 10
151.657593
 20
508.102356
 10
151.750504
 20
507.949524
 10
151.828247
 20
507.767456
 10
151.887329
 20
507.562317
 10
151.924667
 20
507.341034
 10
151.938354
 20
507.098389
  0
LWPOLYLINE
  5
290
330
261
100
AcDbEntity
  8
0
  6
Continuous
 62
     0
370
    30
100
AcDbPolyline
 90
       18
 70
     0
 43
0.0
 10
151.938354
 20
507.098389
 10
151.926163
 20
506.869293
 10
151.890167
 20
506.647278
 10
151.832336
 20
506.44101
 10
151.7556
 20
506.257477
 10
151.663498
 20
506.102753
 10
151.56012
 20
505.982056
 10
151.450027
 20
505.899231
 10
151.337708
 20
505.855408
 10
151.226974
 20
505.854309
 10
151.121704
 20
505.894104
 10
151.025436
 20
505.976288
 10
150.939926
 20
506.094238
 10
150.867783
 20
506.247009
 10
150.810257
 20
506.428986
 10
150.768158
 20
506.634003
 10
150.742264
 20
506.855225
 10
150.73288
 20
507.098419
  0
LWPOLYLINE
  5
291
330
261
100
AcDbEntity
  8
0
  6
Continuous
 62
     0
370
    30
100
AcDbPolyline
 90
       18
 70
     0
 43
0.0
 10
150.73288
 20
512.398438
 10
150.741165
 20
512.627563
 10
150.766068
 20
512.849548
 10
150.807266
 20
513.055725
 10
150.863922
 20
513.239258
 10
150.935135
 20
513.394165
 10
151.019775
 20
513.514832
 10
151.115753
 20
513.597534
 10
151.220383
 20
513.641479
 10
151.330902
 20
513.642456
 10
151.443481
 20
513.602661
 10
151.553558
 20
513.520508
 10
151.657593
 20
513.402344
 10
151.750504
 20
513.249512
 10
151.828247
 20
513.067444
 10
151.887329
 20
512.862305
 10
151.924667
 20
512.641052
 10
151.938354
 20
512.398376
  0
LWPOLYLINE
  5
292
330
261
100
AcDbEntity
  8
0
  6
Continuous
 62
     0
370
    30
100
AcDbPolyline
 90
       18
 70
     0
 43
0.0
 10
151.938354
 20
512.398376
 10
151.926163
 20
512.169312
 10
151.890167
 20
511.947296
 10
151.832336
 20
511.740997
 10
151.7556
 20
511.557465
 10
151.663498
 20
511.40274
 10
151.56012
 20
511.282074
 10
151.450027
 20
511.199219
 10
151.337708
 20
511.155396
 10
151.226974
 20
511.154297
 10
151.121704
 20
511.194092
 10
151.025436
 20
511.276306
 10
150.939926
 20
511.394226
 10
150.867783
 20
511.546997
 10
150.810257
 20
511.729004
 10
150.768158
 20
511.934021
 10
150.742264
 20
512.155212
 10
150.73288
 20
512.398438
  0
LWPOLYLINE
  5
293
330
261
100
AcDbEntity
  8
0
  6
Continuous
 62
     0
370
    30
100
AcDbPolyline
 90
       18
 70
     0
 43
0.0
 10
149.903641
 20
461.898407
 10
149.90657
 20
462.127472
 10
149.915512
 20
462.349396
 10
149.93074
 20
462.555603
 10
149.952621
 20
462.739197
 10
149.981552
 20
462.89389
 10
150.017746
 20
463.014526
 10
150.060944
 20
463.097382
 10
150.110428
 20
463.141418
 10
150.1651
 20
463.142548
 10
150.223114
 20
463.102997
 10
150.281876
 20
463.020874
 10
150.339127
 20
462.902985
 10
150.391556
 20
462.750305
 10
150.43634
 20
462.568512
 10
150.470871
 20
462.363556
 10
150.492981
 20
462.142395
 10
150.50119
 20
461.898438
  0
LWPOLYLINE
  5
294
330
261
100
AcDbEntity
  8
0
  6
Continuous
 62
     0
370
    30
100
AcDbPolyline
 90
       18
 70
     0
 43
0.0
 10
150.50119
 20
461.898438
 10
150.493958
 20
461.669342
 10
150.472748
 20
461.447357
 10
150.438934
 20
461.241119
 10
150.394745
 20
461.057526
 10
150.342712
 20
460.902832
 10
150.285736
 20
460.782135
 10
150.226822
 20
460.699249
 10
150.168793
 20
460.655426
 10
150.113831
 20
460.654266
 10
150.063873
 20
460.694122
 10
150.020355
 20
460.776093
 10
149.983658
 20
460.894104
 10
149.954285
 20
461.047028
 10
149.931961
 20
461.228912
 10
149.916275
 20
461.433807
 10
149.906952
 20
461.654999
 10
149.903641
 20
461.898407
  0
LWPOLYLINE
  5
295
330
261
100
AcDbEntity
  8
0
  6
Continuous
 62
     0
370
    30
100
AcDbPolyline
 90
       18
 70
     0
 43
0.0
 10
149.903641
 20
467.214722
 10
149.90657
 20
467.443787
 10
149.915512
 20
467.66571
 10
149.93074
 20
467.871918
 10
149.952621
 20
468.055511
 10
149.981552
 20
468.210205
 10
150.017746
 20
468.330841
 10
150.060944
 20
468.413696
 10
150.110428
 20
468.457733
 10
150.1651
 20
468.458832
 10
150.223114
 20
468.419281
 10
150.281876
 20
468.337189
 10
150.339127
 20
468.219299
 10
150.391556
 20
468.06662
 10
150.43634
 20
467.884827
 10
150.470871
 20
467.679871
 10
150.492981
 20
467.45871
 10
150.50119
 20
467.214752
  0
LWPOLYLINE
  5
296
330
261
100
AcDbEntity
  8
0
  6
Continuous
 62
     0
370
    30
100
AcDbPolyline
 90
       18
 70
     0
 43
0.0
 10
150.50119
 20
467.214752
 10
150.493958
 20
466.985657
 10
150.472748
 20
466.763672
 10
150.438934
 20
466.557434
 10
150.394745
 20
466.37384
 10
150.342712
 20
466.219116
 10
150.285736
 20
466.098419
 10
150.226822
 20
466.015564
 10
150.168793
 20
465.971741
 10
150.113831
 20
465.970581
 10
150.063873
 20
466.010406
 10
150.020355
 20
466.092407
 10
149.983658
 20
466.210388
 10
149.954285
 20
466.363342
 10
149.931961
 20
466.545197
 10
149.916275
 20
466.750122
 10
149.906952
 20
466.971283
 10
149.903641
 20
467.214722
  0
LWPOLYLINE
  5
297
330
261
100
AcDbEntity
  8
0
  6
Continuous
 62
     0
370
    30
100
AcDbPolyline
 90
       18
 70
     0
 43
0.0
 10
149.903641
 20
472.531036
 10
149.90657
 20
472.760101
 10
149.915512
 20
472.982025
 10
149.93074
 20
473.188202
 10
149.952621
 20
473.371796
 10
149.981552
 20
473.52652
 10
150.017746
 20
473.647125
 10
150.060944
 20
473.730011
 10
150.110428
 20
473.774017
 10
150.1651
 20
473.775146
 10
150.223114
 20
473.735596
 10
150.281876
 20
473.653503
 10
150.339127
 20
473.535583
 10
150.391556
 20
473.382935
 10
150.43634
 20
473.201141
 10
150.470871
 20
472.996155
 10
150.492981
 20
472.774994
 10
150.50119
 20
472.531036
  0
LWPOLYLINE
  5
298
330
261
100
AcDbEntity
  8
0
  6
Continuous
 62
     0
370
    30
100
AcDbPolyline
 90
       18
 70
     0
 43
0.0
 10
150.50119
 20
472.531036
 10
150.493958
 20
472.301971
 10
150.472748
 20
472.079987
 10
150.438934
 20
471.873749
 10
150.394745
 20
471.690125
 10
150.342712
 20
471.535431
 10
150.285736
 20
471.414734
 10
150.226822
 20
471.331848
 10
150.168793
 20
471.288025
 10
150.113831
 20
471.286896
 10
150.063873
 20
471.326721
 10
150.020355
 20
471.408722
 10
149.983658
 20
471.526703
 10
149.954285
 20
471.679626
 10
149.931961
 20
471.861511
 10
149.916275
 20
472.066406
 10
149.906952
 20
472.287598
 10
149.903641
 20
472.531036
  0
LWPOLYLINE
  5
299
330
261
100
AcDbEntity
  8
0
  6
Continuous
 62
     0
370
    30
100
AcDbPolyline
 90
       18
 70
     0
 43
0.0
 10
149.903641
 20
477.847321
 10
149.90657
 20
478.076385
 10
149.915512
 20
478.29834
 10
149.93074
 20
478.504517
 10
149.952621
 20
478.68811
 10
149.981552
 20
478.842834
 10
150.017746
 20
478.96344
 10
150.060944
 20
479.046326
 10
150.110428
 20
479.090332
 10
150.1651
 20
479.091461
 10
150.223114
 20
479.05191
 10
150.281876
 20
478.969818
 10
150.339127
 20
478.851898
 10
150.391556
 20
478.699249
 10
150.43634
 20
478.517456
 10
150.470871
 20
478.312469
 10
150.492981
 20
478.091309
 10
150.50119
 20
477.847351
  0
LWPOLYLINE
  5
29A
330
261
100
AcDbEntity
  8
0
  6
Continuous
 62
     0
370
    30
100
AcDbPolyline
 90
       18
 70
     0
 43
0.0
 10
150.50119
 20
477.847351
 10
150.493958
 20
477.618256
 10
150.472748
 20
477.396301
 10
150.438934
 20
477.190033
 10
150.394745
 20
477.006439
 10
150.342712
 20
476.851746
 10
150.285736
 20
476.731049
 10
150.226822
 20
476.648163
 10
150.168793
 20
476.60434
 10
150.113831
 20
476.60321
 10
150.063873
 20
476.643036
 10
150.020355
 20
476.725037
 10
149.983658
 20
476.843018
 10
149.954285
 20
476.995941
 10
149.931961
 20
477.177826
 10
149.916275
 20
477.382721
 10
149.906952
 20
477.603912
 10
149.903641
 20
477.847321
  0
LWPOLYLINE
  5
29B
330
261
100
AcDbEntity
  8
0
  6
Continuous
 62
     0
370
    30
100
AcDbPolyline
 90
       18
 70
     0
 43
0.0
 10
149.903641
 20
483.163635
 10
149.90657
 20
483.3927
 10
149.915512
 20
483.614624
 10
149.93074
 20
483.820831
 10
149.952621
 20
484.004425
 10
149.981552
 20
484.159119
 10
150.017746
 20
484.279755
 10
150.060944
 20
484.36261
 10
150.110428
 20
484.406647
 10
150.1651
 20
484.407776
 10
150.223114
 20
484.368195
 10
150.281876
 20
484.286102
 10
150.339127
 20
484.168213
 10
150.391556
 20
484.015533
 10
150.43634
 20
483.83374
 10
150.470871
 20
483.628784
 10
150.492981
 20
483.407623
 10
150.50119
 20
483.163666
  0
LWPOLYLINE
  5
29C
330
261
100
AcDbEntity
  8
0
  6
Continuous
 62
     0
370
    30
100
AcDbPolyline
 90
       18
 70
     0
 43
0.0
 10
150.50119
 20
483.163666
 10
150.493958
 20
482.93457
 10
150.472748
 20
482.712585
 10
150.438934
 20
482.506348
 10
150.394745
 20
482.322754
 10
150.342712
 20
482.16806
 10
150.285736
 20
482.047363
 10
150.226822
 20
481.964478
 10
150.168793
 20
481.920654
 10
150.113831
 20
481.919495
 10
150.063873
 20
481.959351
 10
150.020355
 20
482.041321
 10
149.983658
 20
482.159332
 10
149.954285
 20
482.312256
 10
149.931961
 20
482.494141
 10
149.916275
 20
482.699036
 10
149.906952
 20
482.920227
 10
149.903641
 20
483.163635
  0
LWPOLYLINE
  5
29D
330
261
100
AcDbEntity
  8
0
  6
Continuous
 62
     0
370
    30
100
AcDbPolyline
 90
       18
 70
     0
 43
0.0
 10
149.903641
 20
488.47995
 10
149.90657
 20
488.709015
 10
149.915512
 20
488.930939
 10
149.93074
 20
489.137146
 10
149.952621
 20
489.32074
 10
149.981552
 20
489.475433
 10
150.017746
 20
489.596069
 10
150.060944
 20
489.678925
 10
150.110428
 20
489.722961
 10
150.1651
 20
489.72406
 10
150.223114
 20
489.684509
 10
150.281876
 20
489.602417
 10
150.339127
 20
489.484528
 10
150.391556
 20
489.331848
 10
150.43634
 20
489.150055
 10
150.470871
 20
488.945099
 10
150.492981
 20
488.723907
 10
150.50119
 20
488.47998
  0
LWPOLYLINE
  5
29E
330
261
100
AcDbEntity
  8
0
  6
Continuous
 62
     0
370
    30
100
AcDbPolyline
 90
       18
 70
     0
 43
0.0
 10
150.50119
 20
488.47998
 10
150.493958
 20
488.250885
 10
150.472748
 20
488.0289
 10
150.438934
 20
487.822662
 10
150.394745
 20
487.639069
 10
150.342712
 20
487.484344
 10
150.285736
 20
487.363647
 10
150.226822
 20
487.280792
 10
150.168793
 20
487.236969
 10
150.113831
 20
487.235809
 10
150.063873
 20
487.275635
 10
150.020355
 20
487.357635
 10
149.983658
 20
487.475616
 10
149.954285
 20
487.628571
 10
149.931961
 20
487.810425
 10
149.916275
 20
488.01535
 10
149.906952
 20
488.236511
 10
149.903641
 20
488.47995
  0
LWPOLYLINE
  5
29F
330
261
100
AcDbEntity
  8
0
  6
Continuous
 62
     0
370
    30
100
AcDbPolyline
 90
       18
 70
     0
 43
0.0
 10
149.903641
 20
493.796265
 10
149.90657
 20
494.02533
 10
149.915512
 20
494.247253
 10
149.93074
 20
494.45343
 10
149.952621
 20
494.637024
 10
149.981552
 20
494.791748
 10
150.017746
 20
494.912354
 10
150.060944
 20
494.995239
 10
150.110428
 20
495.039246
 10
150.1651
 20
495.040375
 10
150.223114
 20
495.000824
 10
150.281876
 20
494.918732
 10
150.339127
 20
494.800812
 10
150.391556
 20
494.648163
 10
150.43634
 20
494.46637
 10
150.470871
 20
494.261383
 10
150.492981
 20
494.040222
 10
150.50119
 20
493.796265
  0
LWPOLYLINE
  5
2A0
330
261
100
AcDbEntity
  8
0
  6
Continuous
 62
     0
370
    30
100
AcDbPolyline
 90
       18
 70
     0
 43
0.0
 10
150.50119
 20
493.796265
 10
150.493958
 20
493.5672
 10
150.472748
 20
493.345215
 10
150.438934
 20
493.138947
 10
150.394745
 20
492.955353
 10
150.342712
 20
492.800659
 10
150.285736
 20
492.679962
 10
150.226822
 20
492.597076
 10
150.168793
 20
492.553253
 10
150.113831
 20
492.552124
 10
150.063873
 20
492.591949
 10
150.020355
 20
492.67395
 10
149.983658
 20
492.791931
 10
149.954285
 20
492.944855
 10
149.931961
 20
493.12674
 10
149.916275
 20
493.331635
 10
149.906952
 20
493.552826
 10
149.903641
 20
493.796265
  0
LWPOLYLINE
  5
2A1
330
261
100
AcDbEntity
  8
0
  6
Continuous
 62
     0
370
    30
100
AcDbPolyline
 90
       18
 70
     0
 43
0.0
 10
149.903641
 20
499.112549
 10
149.90657
 20
499.341614
 10
149.915512
 20
499.563568
 10
149.93074
 20
499.769745
 10
149.952621
 20
499.953339
 10
149.981552
 20
500.108063
 10
150.017746
 20
500.228668
 10
150.060944
 20
500.311554
 10
150.110428
 20
500.35556
 10
150.1651
 20
500.356689
 10
150.223114
 20
500.317139
 10
150.281876
 20
500.235046
 10
150.339127
 20
500.117126
 10
150.391556
 20
499.964478
 10
150.43634
 20
499.782684
 10
150.470871
 20
499.577698
 10
150.492981
 20
499.356537
 10
150.50119
 20
499.112579
  0
LWPOLYLINE
  5
2A2
330
261
100
AcDbEntity
  8
0
  6
Continuous
 62
     0
370
    30
100
AcDbPolyline
 90
       18
 70
     0
 43
0.0
 10
150.50119
 20
499.112579
 10
150.493958
 20
498.883484
 10
150.472748
 20
498.66153
 10
150.438934
 20
498.455261
 10
150.394745
 20
498.271667
 10
150.342712
 20
498.116974
 10
150.285736
 20
497.996277
 10
150.226822
 20
497.913391
 10
150.168793
 20
497.869568
 10
150.113831
 20
497.868439
 10
150.063873
 20
497.908264
 10
150.020355
 20
497.990265
 10
149.983658
 20
498.108246
 10
149.954285
 20
498.261169
 10
149.931961
 20
498.443054
 10
149.916275
 20
498.647949
 10
149.906952
 20
498.869141
 10
149.903641
 20
499.112549
  0
LWPOLYLINE
  5
2A3
330
261
100
AcDbEntity
  8
0
  6
Continuous
 62
     0
370
    30
100
AcDbPolyline
 90
       18
 70
     0
 43
0.0
 10
149.903641
 20
504.428864
 10
149.90657
 20
504.657928
 10
149.915512
 20
504.879852
 10
149.93074
 20
505.08606
 10
149.952621
 20
505.269653
 10
149.981552
 20
505.424347
 10
150.017746
 20
505.544983
 10
150.060944
 20
505.627838
 10
150.110428
 20
505.671875
 10
150.1651
 20
505.673004
 10
150.223114
 20
505.633423
 10
150.281876
 20
505.551331
 10
150.339127
 20
505.433441
 10
150.391556
 20
505.280762
 10
150.43634
 20
505.098969
 10
150.470871
 20
504.894012
 10
150.492981
 20
504.672852
 10
150.50119
 20
504.428894
  0
LWPOLYLINE
  5
2A4
330
261
100
AcDbEntity
  8
0
  6
Continuous
 62
     0
370
    30
100
AcDbPolyline
 90
       18
 70
     0
 43
0.0
 10
150.50119
 20
504.428894
 10
150.493958
 20
504.199799
 10
150.472748
 20
503.977814
 10
150.438934
 20
503.771576
 10
150.394745
 20
503.587982
 10
150.342712
 20
503.433289
 10
150.285736
 20
503.312592
 10
150.226822
 20
503.229706
 10
150.168793
 20
503.185883
 10
150.113831
 20
503.184723
 10
150.063873
 20
503.224579
 10
150.020355
 20
503.306549
 10
149.983658
 20
503.424561
 10
149.954285
 20
503.577484
 10
149.931961
 20
503.759369
 10
149.916275
 20
503.964264
 10
149.906952
 20
504.185425
 10
149.903641
 20
504.428864
  0
LWPOLYLINE
  5
2A5
330
261
100
AcDbEntity
  8
0
  6
Continuous
 62
     0
370
    30
100
AcDbPolyline
 90
       18
 70
     0
 43
0.0
 10
149.903641
 20
509.745178
 10
149.90657
 20
509.974243
 10
149.915512
 20
510.196167
 10
149.93074
 20
510.402344
 10
149.952621
 20
510.585968
 10
149.981552
 20
510.740662
 10
150.017746
 20
510.861298
 10
150.060944
 20
510.944153
 10
150.110428
 20
510.988159
 10
150.1651
 20
510.989288
 10
150.223114
 20
510.949738
 10
150.281876
 20
510.867645
 10
150.339127
 20
510.749756
 10
150.391556
 20
510.597076
 10
150.43634
 20
510.415283
 10
150.470871
 20
510.210327
 10
150.492981
 20
509.989136
 10
150.50119
 20
509.745209
  0
LWPOLYLINE
  5
2A6
330
261
100
AcDbEntity
  8
0
  6
Continuous
 62
     0
370
    30
100
AcDbPolyline
 90
       18
 70
     0
 43
0.0
 10
150.50119
 20
509.745209
 10
150.493958
 20
509.516113
 10
150.472748
 20
509.294128
 10
150.438934
 20
509.087891
 10
150.394745
 20
508.904297
 10
150.342712
 20
508.749573
 10
150.285736
 20
508.628876
 10
150.226822
 20
508.546021
 10
150.168793
 20
508.502197
 10
150.113831
 20
508.501038
 10
150.063873
 20
508.540863
 10
150.020355
 20
508.622864
 10
149.983658
 20
508.740845
 10
149.954285
 20
508.893799
 10
149.931961
 20
509.075653
 10
149.916275
 20
509.280579
 10
149.906952
 20
509.50174
 10
149.903641
 20
509.745178
  0
LWPOLYLINE
  5
2A7
330
261
100
AcDbEntity
  8
0
  6
Continuous
 62
     0
370
    30
100
AcDbPolyline
 90
        3
 70
     0
 43
0.0
 10
151.793289
 20
459.398376
 10
151.79364
 20
459.446228
 10
151.855316
 20
459.984406
  0
LWPOLYLINE
  5
2A8
330
261
100
AcDbEntity
  8
0
  6
Continuous
 62
     0
370
    30
100
AcDbPolyline
 90
        3
 70
     0
 43
0.0
 10
151.855316
 20
458.812378
 10
151.845871
 20
458.855774
 10
151.793289
 20
459.398376
  0
LWPOLYLINE
  5
2A9
330
261
100
AcDbEntity
  8
0
  6
Continuous
 62
     0
370
    30
100
AcDbPolyline
 90
        3
 70
     0
 43
0.0
 10
151.793289
 20
464.698395
 10
151.79364
 20
464.746216
 10
151.855316
 20
465.284393
  0
LWPOLYLINE
  5
2AA
330
261
100
AcDbEntity
  8
0
  6
Continuous
 62
     0
370
    30
100
AcDbPolyline
 90
        3
 70
     0
 43
0.0
 10
151.855316
 20
464.112396
 10
151.845871
 20
464.155792
 10
151.793289
 20
464.698395
  0
LWPOLYLINE
  5
2AB
330
261
100
AcDbEntity
  8
0
  6
Continuous
 62
     0
370
    30
100
AcDbPolyline
 90
        3
 70
     0
 43
0.0
 10
151.793289
 20
469.998383
 10
151.79364
 20
470.046204
 10
151.855316
 20
470.584381
  0
LWPOLYLINE
  5
2AC
330
261
100
AcDbEntity
  8
0
  6
Continuous
 62
     0
370
    30
100
AcDbPolyline
 90
        3
 70
     0
 43
0.0
 10
151.855316
 20
469.412384
 10
151.845871
 20
469.45578
 10
151.793289
 20
469.998383
  0
LWPOLYLINE
  5
2AD
330
261
100
AcDbEntity
  8
0
  6
Continuous
 62
     0
370
    30
100
AcDbPolyline
 90
        3
 70
     0
 43
0.0
 10
151.793289
 20
475.298401
 10
151.79364
 20
475.346222
 10
151.855316
 20
475.884399
  0
LWPOLYLINE
  5
2AE
330
261
100
AcDbEntity
  8
0
  6
Continuous
 62
     0
370
    30
100
AcDbPolyline
 90
        3
 70
     0
 43
0.0
 10
151.855316
 20
474.712372
 10
151.845871
 20
474.755798
 10
151.793289
 20
475.298401
  0
LWPOLYLINE
  5
2AF
330
261
100
AcDbEntity
  8
0
  6
Continuous
 62
     0
370
    30
100
AcDbPolyline
 90
        3
 70
     0
 43
0.0
 10
151.793289
 20
480.598389
 10
151.79364
 20
480.64621
 10
151.855316
 20
481.184387
  0
LWPOLYLINE
  5
2B0
330
261
100
AcDbEntity
  8
0
  6
Continuous
 62
     0
370
    30
100
AcDbPolyline
 90
        3
 70
     0
 43
0.0
 10
151.855316
 20
480.01239
 10
151.845871
 20
480.055786
 10
151.793289
 20
480.598389
  0
LWPOLYLINE
  5
2B1
330
261
100
AcDbEntity
  8
0
  6
Continuous
 62
     0
370
    30
100
AcDbPolyline
 90
        3
 70
     0
 43
0.0
 10
151.793289
 20
485.898376
 10
151.79364
 20
485.946228
 10
151.855316
 20
486.484406
  0
LWPOLYLINE
  5
2B2
330
261
100
AcDbEntity
  8
0
  6
Continuous
 62
     0
370
    30
100
AcDbPolyline
 90
        3
 70
     0
 43
0.0
 10
151.855316
 20
485.312378
 10
151.845871
 20
485.355774
 10
151.793289
 20
485.898376
  0
LWPOLYLINE
  5
2B3
330
261
100
AcDbEntity
  8
0
  6
Continuous
 62
     0
370
    30
100
AcDbPolyline
 90
        3
 70
     0
 43
0.0
 10
151.793289
 20
491.198395
 10
151.79364
 20
491.246216
 10
151.855316
 20
491.784393
  0
LWPOLYLINE
  5
2B4
330
261
100
AcDbEntity
  8
0
  6
Continuous
 62
     0
370
    30
100
AcDbPolyline
 90
        3
 70
     0
 43
0.0
 10
151.855316
 20
490.612396
 10
151.845871
 20
490.655792
 10
151.793289
 20
491.198395
  0
LWPOLYLINE
  5
2B5
330
261
100
AcDbEntity
  8
0
  6
Continuous
 62
     0
370
    30
100
AcDbPolyline
 90
        3
 70
     0
 43
0.0
 10
151.793289
 20
496.498383
 10
151.79364
 20
496.546204
 10
151.855316
 20
497.084381
  0
LWPOLYLINE
  5
2B6
330
261
100
AcDbEntity
  8
0
  6
Continuous
 62
     0
370
    30
100
AcDbPolyline
 90
        3
 70
     0
 43
0.0
 10
151.855316
 20
495.912384
 10
151.845871
 20
495.95578
 10
151.793289
 20
496.498383
  0
LWPOLYLINE
  5
2B7
330
261
100
AcDbEntity
  8
0
  6
Continuous
 62
     0
370
    30
100
AcDbPolyline
 90
        3
 70
     0
 43
0.0
 10
151.793289
 20
501.798401
 10
151.79364
 20
501.846222
 10
151.855316
 20
502.384399
  0
LWPOLYLINE
  5
2B8
330
261
100
AcDbEntity
  8
0
  6
Continuous
 62
     0
370
    30
100
AcDbPolyline
 90
        3
 70
     0
 43
0.0
 10
151.855316
 20
501.212372
 10
151.845871
 20
501.255798
 10
151.793289
 20
501.798401
  0
LWPOLYLINE
  5
2B9
330
261
100
AcDbEntity
  8
0
  6
Continuous
 62
     0
370
    30
100
AcDbPolyline
 90
        3
 70
     0
 43
0.0
 10
151.793289
 20
507.098389
 10
151.79364
 20
507.14621
 10
151.855316
 20
507.684387
  0
LWPOLYLINE
  5
2BA
330
261
100
AcDbEntity
  8
0
  6
Continuous
 62
     0
370
    30
100
AcDbPolyline
 90
        3
 70
     0
 43
0.0
 10
151.855316
 20
506.51239
 10
151.845871
 20
506.555786
 10
151.793289
 20
507.098389
  0
LWPOLYLINE
  5
2BB
330
261
100
AcDbEntity
  8
0
  6
Continuous
 62
     0
370
    30
100
AcDbPolyline
 90
        3
 70
     0
 43
0.0
 10
151.793289
 20
512.398376
 10
151.79364
 20
512.446228
 10
151.855316
 20
512.984375
  0
LWPOLYLINE
  5
2BC
330
261
100
AcDbEntity
  8
0
  6
Continuous
 62
     0
370
    30
100
AcDbPolyline
 90
        3
 70
     0
 43
0.0
 10
151.855316
 20
511.812378
 10
151.845871
 20
511.855774
 10
151.793289
 20
512.398376
  0
LWPOLYLINE
  5
2BD
330
261
100
AcDbEntity
  8
0
  6
Continuous
 62
     0
370
    30
100
AcDbPolyline
 90
        3
 70
     0
 43
0.0
 10
151.748169
 20
460.254059
 10
151.654617
 20
459.899384
 10
151.614166
 20
459.398407
  0
LWPOLYLINE
  5
2BE
330
261
100
AcDbEntity
  8
0
  6
Continuous
 62
     0
370
    30
100
AcDbPolyline
 90
        3
 70
     0
 43
0.0
 10
151.614166
 20
459.398407
 10
151.641861
 20
458.980408
 10
151.748169
 20
458.542816
  0
LWPOLYLINE
  5
2BF
330
261
100
AcDbEntity
  8
0
  6
Continuous
 62
     0
370
    30
100
AcDbPolyline
 90
        3
 70
     0
 43
0.0
 10
151.748169
 20
465.554077
 10
151.654617
 20
465.199371
 10
151.614166
 20
464.698425
  0
LWPOLYLINE
  5
2C0
330
261
100
AcDbEntity
  8
0
  6
Continuous
 62
     0
370
    30
100
AcDbPolyline
 90
        3
 70
     0
 43
0.0
 10
151.614166
 20
464.698425
 10
151.641861
 20
464.280426
 10
151.748169
 20
463.842834
  0
LWPOLYLINE
  5
2C1
330
261
100
AcDbEntity
  8
0
  6
Continuous
 62
     0
370
    30
100
AcDbPolyline
 90
        3
 70
     0
 43
0.0
 10
151.748169
 20
470.854065
 10
151.654617
 20
470.499359
 10
151.614166
 20
469.998413
  0
LWPOLYLINE
  5
2C2
330
261
100
AcDbEntity
  8
0
  6
Continuous
 62
     0
370
    30
100
AcDbPolyline
 90
        3
 70
     0
 43
0.0
 10
151.614166
 20
469.998413
 10
151.641861
 20
469.580414
 10
151.748169
 20
469.142822
  0
LWPOLYLINE
  5
2C3
330
261
100
AcDbEntity
  8
0
  6
Continuous
 62
     0
370
    30
100
AcDbPolyline
 90
        3
 70
     0
 43
0.0
 10
151.748169
 20
476.154053
 10
151.654617
 20
475.799377
 10
151.614166
 20
475.298401
  0
LWPOLYLINE
  5
2C4
330
261
100
AcDbEntity
  8
0
  6
Continuous
 62
     0
370
    30
100
AcDbPolyline
 90
        3
 70
     0
 43
0.0
 10
151.614166
 20
475.298401
 10
151.641861
 20
474.880402
 10
151.748169
 20
474.44281
  0
LWPOLYLINE
  5
2C5
330
261
100
AcDbEntity
  8
0
  6
Continuous
 62
     0
370
    30
100
AcDbPolyline
 90
        3
 70
     0
 43
0.0
 10
151.748169
 20
481.454071
 10
151.654617
 20
481.099365
 10
151.614166
 20
480.598419
  0
LWPOLYLINE
  5
2C6
330
261
100
AcDbEntity
  8
0
  6
Continuous
 62
     0
370
    30
100
AcDbPolyline
 90
        3
 70
     0
 43
0.0
 10
151.614166
 20
480.598419
 10
151.641861
 20
480.18042
 10
151.748169
 20
479.742828
  0
LWPOLYLINE
  5
2C7
330
261
100
AcDbEntity
  8
0
  6
Continuous
 62
     0
370
    30
100
AcDbPolyline
 90
        3
 70
     0
 43
0.0
 10
151.748169
 20
486.754059
 10
151.654617
 20
486.399384
 10
151.614166
 20
485.898407
  0
LWPOLYLINE
  5
2C8
330
261
100
AcDbEntity
  8
0
  6
Continuous
 62
     0
370
    30
100
AcDbPolyline
 90
        3
 70
     0
 43
0.0
 10
151.614166
 20
485.898407
 10
151.641861
 20
485.480408
 10
151.748169
 20
485.042816
  0
LWPOLYLINE
  5
2C9
330
261
100
AcDbEntity
  8
0
  6
Continuous
 62
     0
370
    30
100
AcDbPolyline
 90
        3
 70
     0
 43
0.0
 10
151.748169
 20
492.054077
 10
151.654617
 20
491.699371
 10
151.614166
 20
491.198425
  0
LWPOLYLINE
  5
2CA
330
261
100
AcDbEntity
  8
0
  6
Continuous
 62
     0
370
    30
100
AcDbPolyline
 90
        3
 70
     0
 43
0.0
 10
151.614166
 20
491.198425
 10
151.641861
 20
490.780426
 10
151.748169
 20
490.342834
  0
LWPOLYLINE
  5
2CB
330
261
100
AcDbEntity
  8
0
  6
Continuous
 62
     0
370
    30
100
AcDbPolyline
 90
        3
 70
     0
 43
0.0
 10
151.748169
 20
497.354065
 10
151.654617
 20
496.999359
 10
151.614166
 20
496.498413
  0
LWPOLYLINE
  5
2CC
330
261
100
AcDbEntity
  8
0
  6
Continuous
 62
     0
370
    30
100
AcDbPolyline
 90
        3
 70
     0
 43
0.0
 10
151.614166
 20
496.498413
 10
151.641861
 20
496.080414
 10
151.748169
 20
495.642822
  0
LWPOLYLINE
  5
2CD
330
261
100
AcDbEntity
  8
0
  6
Continuous
 62
     0
370
    30
100
AcDbPolyline
 90
        3
 70
     0
 43
0.0
 10
151.748169
 20
502.654053
 10
151.654617
 20
502.299377
 10
151.614166
 20
501.798401
  0
LWPOLYLINE
  5
2CE
330
261
100
AcDbEntity
  8
0
  6
Continuous
 62
     0
370
    30
100
AcDbPolyline
 90
        3
 70
     0
 43
0.0
 10
151.614166
 20
501.798401
 10
151.641861
 20
501.380402
 10
151.748169
 20
500.94281
  0
LWPOLYLINE
  5
2CF
330
261
100
AcDbEntity
  8
0
  6
Continuous
 62
     0
370
    30
100
AcDbPolyline
 90
        3
 70
     0
 43
0.0
 10
151.748169
 20
507.954071
 10
151.654617
 20
507.599365
 10
151.614166
 20
507.098419
  0
LWPOLYLINE
  5
2D0
330
261
100
AcDbEntity
  8
0
  6
Continuous
 62
     0
370
    30
100
AcDbPolyline
 90
        3
 70
     0
 43
0.0
 10
151.614166
 20
507.098419
 10
151.641861
 20
506.68042
 10
151.748169
 20
506.242828
  0
LWPOLYLINE
  5
2D1
330
261
100
AcDbEntity
  8
0
  6
Continuous
 62
     0
370
    30
100
AcDbPolyline
 90
        3
 70
     0
 43
0.0
 10
151.748169
 20
513.254089
 10
151.654617
 20
512.899353
 10
151.614166
 20
512.398438
  0
LWPOLYLINE
  5
2D2
330
261
100
AcDbEntity
  8
0
  6
Continuous
 62
     0
370
    30
100
AcDbPolyline
 90
        3
 70
     0
 43
0.0
 10
151.614166
 20
512.398438
 10
151.641861
 20
511.980408
 10
151.748169
 20
511.542816
  0
LINE
  5
2D3
330
261
100
AcDbEntity
  8
0
  6
Continuous
 62
     0
370
     0
100
AcDbLine
 10
161.545931
 20
525.898415
 30
0.0
 11
161.545931
 21
527.598415
 31
0.0
  0
LINE
  5
2D4
330
261
100
AcDbEntity
  8
0
  6
Continuous
 62
     0
370
    30
100
AcDbLine
 10
161.545931
 20
527.598415
 30
0.0
 11
149.791198
 21
527.598415
 31
0.0
  0
LINE
  5
2D5
330
261
100
AcDbEntity
  8
0
  6
Continuous
 62
     0
370
    30
100
AcDbLine
 10
173.791198
 20
527.598415
 30
0.0
 11
161.545931
 21
527.598415
 31
0.0
  0
LINE
  5
2D6
330
261
100
AcDbEntity
  8
0
  6
Continuous
 62
     0
370
    30
100
AcDbLine
 10
173.570427
 20
347.898415
 30
0.0
 11
173.791197
 21
347.898415
 31
0.0
  0
LINE
  5
2D7
330
261
100
AcDbEntity
  8
0
  6
Continuous
 62
     0
370
     0
100
AcDbLine
 10
161.576589
 20
347.898415
 30
0.0
 11
161.576589
 21
339.898415
 31
0.0
  0
LINE
  5
2D8
330
261
100
AcDbEntity
  8
0
  6
Continuous
 62
     0
370
    30
100
AcDbLine
 10
161.576589
 20
339.898415
 30
0.0
 11
172.291198
 21
339.898415
 31
0.0
  0
LWPOLYLINE
  5
2D9
330
261
100
AcDbEntity
  8
0
  6
Continuous
 62
     0
370
    30
100
AcDbPolyline
 90
       14
 70
     0
 43
0.0
 10
151.291199
 20
339.898407
 10
151.354919
 20
339.898407
 10
151.555237
 20
339.898407
 10
151.902771
 20
339.898407
 10
152.402802
 20
339.898407
 10
153.054047
 20
339.898407
 10
153.847961
 20
339.898407
 10
154.768936
 20
339.898407
 10
155.795197
 20
339.898407
 10
156.900513
 20
339.898407
 10
158.056381
 20
339.898407
 10
159.234222
 20
339.898407
 10
160.407379
 20
339.898407
 10
161.576584
 20
339.898407
  0
LINE
  5
2DA
330
261
100
AcDbEntity
  8
0
  6
Continuous
 62
     0
370
    30
100
AcDbLine
 10
151.291198
 20
347.898415
 30
0.0
 11
151.291198
 21
339.898415
 31
0.0
  0
LINE
  5
2DB
330
261
100
AcDbEntity
  8
0
  6
Continuous
 62
     0
370
    30
100
AcDbLine
 10
172.291198
 20
347.898415
 30
0.0
 11
172.291198
 21
339.898415
 31
0.0
  0
LINE
  5
2DC
330
261
100
AcDbEntity
  8
0
  6
Continuous
 62
     0
370
    30
100
AcDbLine
 10
173.791197
 20
347.898415
 30
0.0
 11
173.791197
 21
350.098415
 31
0.0
  0
LINE
  5
2DD
330
261
100
AcDbEntity
  8
0
  6
Continuous
 62
     0
370
    30
100
AcDbLine
 10
173.791198
 20
527.598415
 30
0.0
 11
173.791198
 21
525.898415
 31
0.0
  0
LINE
  5
2DE
330
261
100
AcDbEntity
  8
0
  6
Continuous
 62
     0
370
    30
100
AcDbLine
 10
149.791198
 20
527.598415
 30
0.0
 11
149.791198
 21
525.898415
 31
0.0
  0
LINE
  5
2DF
330
261
100
AcDbEntity
  8
0
  6
Continuous
 62
     0
370
    30
100
AcDbLine
 10
149.791198
 20
347.898415
 30
0.0
 11
149.791198
 21
458.168909
 31
0.0
  0
LINE
  5
2E0
330
261
100
AcDbEntity
  8
0
  6
Continuous
 62
     0
370
    30
100
AcDbLine
 10
149.791198
 20
460.627859
 30
0.0
 11
149.791198
 21
463.468909
 31
0.0
  0
LINE
  5
2E1
330
261
100
AcDbEntity
  8
0
  6
Continuous
 62
     0
370
    30
100
AcDbLine
 10
149.791198
 20
465.927859
 30
0.0
 11
149.791198
 21
468.768909
 31
0.0
  0
LINE
  5
2E2
330
261
100
AcDbEntity
  8
0
  6
Continuous
 62
     0
370
    30
100
AcDbLine
 10
149.791198
 20
471.227859
 30
0.0
 11
149.791198
 21
474.068909
 31
0.0
  0
LINE
  5
2E3
330
261
100
AcDbEntity
  8
0
  6
Continuous
 62
     0
370
    30
100
AcDbLine
 10
149.791198
 20
476.527859
 30
0.0
 11
149.791198
 21
479.368909
 31
0.0
  0
LINE
  5
2E4
330
261
100
AcDbEntity
  8
0
  6
Continuous
 62
     0
370
    30
100
AcDbLine
 10
149.791198
 20
481.827859
 30
0.0
 11
149.791198
 21
484.668909
 31
0.0
  0
LINE
  5
2E5
330
261
100
AcDbEntity
  8
0
  6
Continuous
 62
     0
370
    30
100
AcDbLine
 10
149.791198
 20
487.127859
 30
0.0
 11
149.791198
 21
489.968909
 31
0.0
  0
LINE
  5
2E6
330
261
100
AcDbEntity
  8
0
  6
Continuous
 62
     0
370
    30
100
AcDbLine
 10
149.791198
 20
492.427859
 30
0.0
 11
149.791198
 21
495.268909
 31
0.0
  0
LINE
  5
2E7
330
261
100
AcDbEntity
  8
0
  6
Continuous
 62
     0
370
    30
100
AcDbLine
 10
149.791198
 20
497.727859
 30
0.0
 11
149.791198
 21
500.568909
 31
0.0
  0
LINE
  5
2E8
330
261
100
AcDbEntity
  8
0
  6
Continuous
 62
     0
370
    30
100
AcDbLine
 10
149.791198
 20
503.027859
 30
0.0
 11
149.791198
 21
505.868909
 31
0.0
  0
LINE
  5
2E9
330
261
100
AcDbEntity
  8
0
  6
Continuous
 62
     0
370
    30
100
AcDbLine
 10
149.791198
 20
508.327859
 30
0.0
 11
149.791198
 21
511.168909
 31
0.0
  0
LINE
  5
2EA
330
261
100
AcDbEntity
  8
0
  6
Continuous
 62
     0
370
    30
100
AcDbLine
 10
149.791198
 20
513.627859
 30
0.0
 11
149.791198
 21
525.898415
 31
0.0
  0
LINE
  5
2EB
330
261
100
AcDbEntity
  8
0
  6
Continuous
 62
     0
370
    30
100
AcDbLine
 10
173.791198
 20
350.098415
 30
0.0
 11
173.791198
 21
525.898415
 31
0.0
  0
ENDBLK
  5
2ED
330
261
100
AcDbEntity
  8
0
100
AcDbBlockEnd
  0
ENDSEC
  0
SECTION
  2
ENTITIES
  0
INSERT
  5
12D
330
1F
100
AcDbEntity
  8
0
  6
Continuous
 62
   250
370
     0
100
AcDbBlockReference
  2
a
 10
292.425201
 20
118.046913
 30
0.0
  0
INSERT
  5
133
330
1F
100
AcDbEntity
  8
0
  6
Continuous
 62
   250
370
     0
100
AcDbBlockReference
  2
b
 10
292.425201
 20
118.046913
 30
0.0
  0
INSERT
  5
1C2
330
1F
100
AcDbEntity
  8
0
  6
Continuous
 62
   250
370
     0
100
AcDbBlockReference
  2
c
 10
292.425201
 20
118.046913
 30
0.0
  0
INSERT
  5
260
330
1F
100
AcDbEntity
  8
0
  6
Continuous
 62
   250
370
     0
100
AcDbBlockReference
  2
d
 10
292.425201
 20
118.046913
 30
0.0
  0
INSERT
  5
2EE
330
1F
100
AcDbEntity
  8
0
  6
Continuous
 62
   250
370
     0
100
AcDbBlockReference
  2
e
 10
207.296051
 20
0.0
 30
0.0
  0
ENDSEC
  0
SECTION
  2
OBJECTS
  0
DICTIONARY
  5
C
330
0
100
AcDbDictionary
281
     1
  3
ACAD_GROUP
350
D
  3
ACAD_LAYOUT
350
1A
  3
ACAD_MLEADERSTYLE
350
2F1
  3
ACAD_MLINESTYLE
350
17
  3
ACAD_PLOTSETTINGS
350
19
  3
ACAD_PLOTSTYLENAME
350
E
  3
ACAD_VISUALSTYLE
350
2A
  3
AcDbVariableDictionary
350
2EF
  0
DICTIONARY
  5
D
102
{ACAD_REACTORS
330
C
102
}
330
C
100
AcDbDictionary
281
     1
  0
DICTIONARY
  5
1A
102
{ACAD_REACTORS
330
C
102
}
330
C
100
AcDbDictionary
281
     1
  3
Layout1
350
1E
  3
Layout2
350
26
  3
Model
350
22
  0
DICTIONARY
  5
2F1
102
{ACAD_REACTORS
330
C
102
}
330
C
100
AcDbDictionary
281
     1
  0
DICTIONARY
  5
17
102
{ACAD_REACTORS
330
C
102
}
330
C
100
AcDbDictionary
281
     1
  3
Standard
350
18
  0
DICTIONARY
  5
19
102
{ACAD_REACTORS
330
C
102
}
330
C
100
AcDbDictionary
281
     1
  0
ACDBDICTIONARYWDFLT
  5
E
102
{ACAD_REACTORS
330
C
102
}
330
C
100
AcDbDictionary
281
     1
  3
Normal
350
F
100
AcDbDictionaryWithDefault
340
F
  0
DICTIONARY
  5
2A
102
{ACAD_REACTORS
330
C
102
}
330
C
100
AcDbDictionary
281
     1
  3
2dWireframe
350
2F
  3
3D Hidden
350
31
  3
3dWireframe
350
30
  3
Basic
350
32
  3
Brighten
350
36
  3
ColorChange
350
3A
  3
Conceptual
350
34
  3
Dim
350
35
  3
Facepattern
350
39
  3
Flat
350
2B
  3
FlatWithEdges
350
2C
  3
Gouraud
350
2D
  3
GouraudWithEdges
350
2E
  3
Linepattern
350
38
  3
Realistic
350
33
  3
Thicken
350
37
  0
DICTIONARY
  5
2EF
102
{ACAD_REACTORS
330
C
102
}
330
C
100
AcDbDictionary
281
     1
  3
PSOLHEIGHT
350
2F3
  3
PSOLWIDTH
350
2F2
  0
LAYOUT
  5
1E
102
{ACAD_REACTORS
330
1A
102
}
330
1A
100
AcDbPlotSettings
  1

  2
none_device
  4

  6

 40
0.0
 41
0.0
 42
0.0
 43
0.0
 44
0.0
 45
0.0
 46
0.0
 47
0.0
 48
0.0
 49
0.0
140
0.0
141
0.0
142
1.0
143
1.0
 70
   688
 72
     0
 73
     0
 74
     5
  7

 75
    16
147
1.0
148
0.0
149
0.0
100
AcDbLayout
  1
Layout1
 70
     1
 71
     1
 10
0.0
 20
0.0
 11
420.0
 21
297.0
 12
0.0
 22
0.0
 32
0.0
 14
1.000000E+20
 24
1.000000E+20
 34
1.000000E+20
 15
-1.000000E+20
 25
-1.000000E+20
 35
-1.000000E+20
146
0.0
 13
0.0
 23
0.0
 33
0.0
 16
1.0
 26
0.0
 36
0.0
 17
0.0
 27
1.0
 37
0.0
 76
     0
330
1B
  0
LAYOUT
  5
26
102
{ACAD_REACTORS
330
1A
102
}
330
1A
100
AcDbPlotSettings
  1

  2
none_device
  4

  6

 40
0.0
 41
0.0
 42
0.0
 43
0.0
 44
0.0
 45
0.0
 46
0.0
 47
0.0
 48
0.0
 49
0.0
140
0.0
141
0.0
142
1.0
143
1.0
 70
   688
 72
     0
 73
     0
 74
     5
  7

 75
    16
147
1.0
148
0.0
149
0.0
100
AcDbLayout
  1
Layout2
 70
     1
 71
     2
 10
0.0
 20
0.0
 11
0.0
 21
0.0
 12
0.0
 22
0.0
 32
0.0
 14
0.0
 24
0.0
 34
0.0
 15
0.0
 25
0.0
 35
0.0
146
0.0
 13
0.0
 23
0.0
 33
0.0
 16
1.0
 26
0.0
 36
0.0
 17
0.0
 27
1.0
 37
0.0
 76
     0
330
23
  0
LAYOUT
  5
22
102
{ACAD_REACTORS
330
1A
102
}
330
1A
100
AcDbPlotSettings
  1

  2
none_device
  4

  6

 40
0.0
 41
0.0
 42
0.0
 43
0.0
 44
0.0
 45
0.0
 46
0.0
 47
0.0
 48
0.0
 49
0.0
140
0.0
141
0.0
142
1.0
143
1.0
 70
  1712
 72
     0
 73
     0
 74
     0
  7

 75
     0
147
1.0
148
0.0
149
0.0
100
AcDbLayout
  1
Model
 70
     1
 71
     0
 10
149.791199
 20
111.031151
 11
520.824707
 21
527.598389
 12
0.0
 22
0.0
 32
0.0
 14
149.791199
 24
111.031151
 34
0.0
 15
520.824707
 25
527.598389
 35
0.0
146
0.0
 13
0.0
 23
0.0
 33
0.0
 16
1.0
 26
0.0
 36
0.0
 17
0.0
 27
1.0
 37
0.0
 76
     0
330
1F
331
29
  0
MLINESTYLE
  5
18
102
{ACAD_REACTORS
330
17
102
}
330
17
100
AcDbMlineStyle
  2
Standard
 70
     0
  3

 62
   256
 51
90.0
 52
90.0
 71
     2
 49
0.5
 62
   256
  6
BYLAYER
 49
-0.5
 62
   256
  6
BYLAYER
  0
ACDBPLACEHOLDER
  5
F
102
{ACAD_REACTORS
330
E
102
}
330
E
  0
VISUALSTYLE
  5
2F
102
{ACAD_REACTORS
330
2A
102
}
330
2A
100
AcDbVisualStyle
  2
2dWireframe
 70
     4
 71
     0
 72
     2
 73
     0
 90
        0
 40
-0.6
 41
-30.0
 62
     5
 63
     7
 74
     1
 91
        4
 64
     7
 65
   257
 75
     1
175
     1
 42
1.0
 92
        0
 66
   257
 43
1.0
 76
     1
 77
     6
 78
     2
 67
     7
 79
     5
170
     0
171
     0
290
     0
174
     0
 93
        1
 44
0.0
173
     0
291
     0
 45
0.0
1001
ACAD
1000
AcDbSavedByObjectVersion
1070
     0
  0
VISUALSTYLE
  5
31
102
{ACAD_REACTORS
330
2A
102
}
330
2A
100
AcDbVisualStyle
  2
3D Hidden
 70
     6
 71
     1
 72
     2
 73
     2
 90
        0
 40
-0.6
 41
-30.0
 62
     5
 63
     7
 74
     2
 91
        2
 64
     7
 65
   257
 75
     2
175
     1
 42
40.0
 92
        0
 66
   257
 43
1.0
 76
     1
 77
     6
 78
     2
 67
     7
 79
     3
170
     0
171
     0
290
     0
174
     0
 93
        1
 44
0.0
173
     0
291
     0
 45
0.0
1001
ACAD
1000
AcDbSavedByObjectVersion
1070
     0
  0
VISUALSTYLE
  5
30
102
{ACAD_REACTORS
330
2A
102
}
330
2A
100
AcDbVisualStyle
  2
3dWireframe
 70
     5
 71
     0
 72
     2
 73
     0
 90
        0
 40
-0.6
 41
-30.0
 62
     5
 63
     7
 74
     1
 91
        4
 64
     7
 65
   257
 75
     1
175
     1
 42
1.0
 92
        0
 66
   257
 43
1.0
 76
     1
 77
     6
 78
     2
 67
     7
 79
     5
170
     0
171
     0
290
     0
174
     0
 93
        1
 44
0.0
173
     0
291
     0
 45
0.0
1001
ACAD
1000
AcDbSavedByObjectVersion
1070
     0
  0
VISUALSTYLE
  5
32
102
{ACAD_REACTORS
330
2A
102
}
330
2A
100
AcDbVisualStyle
  2
Basic
 70
     7
 71
     1
 72
     0
 73
     1
 90
        0
 40
-0.6
 41
-30.0
 62
     5
 63
     7
 74
     0
 91
        4
 64
     7
 65
   257
 75
     1
175
     1
 42
1.0
 92
        8
 66
     7
 43
1.0
 76
     1
 77
     6
 78
     2
 67
     7
 79
     5
170
     0
171
     0
290
     0
174
     0
 93
        1
 44
0.0
173
     0
291
     1
 45
0.0
1001
ACAD
1000
AcDbSavedByObjectVersion
1070
     0
  0
VISUALSTYLE
  5
36
102
{ACAD_REACTORS
330
2A
102
}
330
2A
100
AcDbVisualStyle
  2
Brighten
 70
    12
 71
     2
 72
     2
 73
     0
 90
        0
 40
-0.6
 41
-30.0
 62
     5
 63
     7
 74
     1
 91
        4
 64
     7
 65
   257
 75
     1
175
     1
 42
1.0
 92
        8
 66
     7
 43
1.0
 76
     1
 77
     6
 78
     2
 67
     7
 79
     5
170
     0
171
     0
290
     0
174
     0
 93
        1
 44
50.0
173
     0
291
     1
 45
0.0
1001
ACAD
1000
AcDbSavedByObjectVersion
1070
     0
  0
VISUALSTYLE
  5
3A
102
{ACAD_REACTORS
330
2A
102
}
330
2A
100
AcDbVisualStyle
  2
ColorChange
 70
    16
 71
     2
 72
     2
 73
     3
 90
        0
 40
-0.6
 41
-30.0
 62
     5
 63
     8
 74
     1
 91
        4
 64
     7
 65
   257
 75
     1
175
     1
 42
1.0
 92
        8
 66
     8
 43
1.0
 76
     1
 77
     6
 78
     2
 67
     7
 79
     5
170
     0
171
     0
290
     0
174
     0
 93
        1
 44
0.0
173
     0
291
     1
 45
0.0
1001
ACAD
1000
AcDbSavedByObjectVersion
1070
     0
  0
VISUALSTYLE
  5
34
102
{ACAD_REACTORS
330
2A
102
}
330
2A
100
AcDbVisualStyle
  2
Conceptual
 70
     9
 71
     3
 72
     2
 73
     0
 90
        0
 40
-0.6
 41
-30.0
 62
     5
 63
     7
 74
     2
 91
        2
 64
     7
 65
   257
 75
     1
175
     1
 42
40.0
 92
        8
 66
     7
 43
1.0
 76
     1
 77
     6
 78
     2
 67
     7
 79
     3
170
     0
171
     0
290
     0
174
     0
 93
        1
 44
0.0
173
     0
291
     0
 45
0.0
1001
ACAD
1000
AcDbSavedByObjectVersion
1070
     0
  0
VISUALSTYLE
  5
35
102
{ACAD_REACTORS
330
2A
102
}
330
2A
100
AcDbVisualStyle
  2
Dim
 70
    11
 71
     2
 72
     2
 73
     0
 90
        0
 40
-0.6
 41
-30.0
 62
     5
 63
     7
 74
     1
 91
        4
 64
     7
 65
   257
 75
     1
175
     1
 42
1.0
 92
        8
 66
     7
 43
1.0
 76
     1
 77
     6
 78
     2
 67
     7
 79
     5
170
     0
171
     0
290
     0
174
     0
 93
        1
 44
-50.0
173
     0
291
     1
 45
0.0
1001
ACAD
1000
AcDbSavedByObjectVersion
1070
     0
  0
VISUALSTYLE
  5
39
102
{ACAD_REACTORS
330
2A
102
}
330
2A
100
AcDbVisualStyle
  2
Facepattern
 70
    15
 71
     2
 72
     2
 73
     0
 90
        0
 40
-0.6
 41
-30.0
 62
     5
 63
     7
 74
     1
 91
        4
 64
     7
 65
   257
 75
     1
175
     1
 42
1.0
 92
        8
 66
     7
 43
1.0
 76
     1
 77
     6
 78
     2
 67
     7
 79
     5
170
     0
171
     0
290
     0
174
     0
 93
        1
 44
0.0
173
     0
291
     1
 45
0.0
1001
ACAD
1000
AcDbSavedByObjectVersion
1070
     0
  0
VISUALSTYLE
  5
2B
102
{ACAD_REACTORS
330
2A
102
}
330
2A
100
AcDbVisualStyle
  2
Flat
 70
     0
 71
     2
 72
     1
 73
     1
 90
        2
 40
-0.6
 41
30.0
 62
     5
 63
     7
 74
     0
 91
        4
 64
     7
 65
   257
 75
     1
175
     1
 42
1.0
 92
        8
 66
     7
 43
1.0
 76
     1
 77
     6
 78
     2
 67
     7
 79
     5
170
     0
171
     0
290
     0
174
     0
 93
       13
 44
0.0
173
     0
291
     1
 45
0.0
1001
ACAD
1000
AcDbSavedByObjectVersion
1070
     0
  0
VISUALSTYLE
  5
2C
102
{ACAD_REACTORS
330
2A
102
}
330
2A
100
AcDbVisualStyle
  2
FlatWithEdges
 70
     1
 71
     2
 72
     1
 73
     1
 90
        2
 40
-0.6
 41
30.0
 62
     5
 63
     7
 74
     1
 91
        4
 64
     7
 65
   257
 75
     1
175
     1
 42
1.0
 92
        0
 66
   257
 43
1.0
 76
     1
 77
     6
 78
     2
 67
     7
 79
     5
170
     0
171
     0
290
     0
174
     0
 93
       13
 44
0.0
173
     0
291
     1
 45
0.0
1001
ACAD
1000
AcDbSavedByObjectVersion
1070
     0
  0
VISUALSTYLE
  5
2D
102
{ACAD_REACTORS
330
2A
102
}
330
2A
100
AcDbVisualStyle
  2
Gouraud
 70
     2
 71
     2
 72
     2
 73
     1
 90
        2
 40
-0.6
 41
30.0
 62
     5
 63
     7
 74
     0
 91
        4
 64
     7
 65
   257
 75
     1
175
     1
 42
1.0
 92
        0
 66
     7
 43
1.0
 76
     1
 77
     6
 78
     2
 67
     7
 79
     5
170
     0
171
     0
290
     0
174
     0
 93
       13
 44
0.0
173
     0
291
     1
 45
0.0
1001
ACAD
1000
AcDbSavedByObjectVersion
1070
     0
  0
VISUALSTYLE
  5
2E
102
{ACAD_REACTORS
330
2A
102
}
330
2A
100
AcDbVisualStyle
  2
GouraudWithEdges
 70
     3
 71
     2
 72
     2
 73
     1
 90
        2
 40
-0.6
 41
30.0
 62
     5
 63
     7
 74
     1
 91
        4
 64
     7
 65
   257
 75
     1
175
     1
 42
1.0
 92
        0
 66
   257
 43
1.0
 76
     1
 77
     6
 78
     2
 67
     7
 79
     5
170
     0
171
     0
290
     0
174
     0
 93
       13
 44
0.0
173
     0
291
     1
 45
0.0
1001
ACAD
1000
AcDbSavedByObjectVersion
1070
     0
  0
VISUALSTYLE
  5
38
102
{ACAD_REACTORS
330
2A
102
}
330
2A
100
AcDbVisualStyle
  2
Linepattern
 70
    14
 71
     2
 72
     2
 73
     0
 90
        0
 40
-0.6
 41
-30.0
 62
     5
 63
     7
 74
     1
 91
        4
 64
     7
 65
   257
 75
     7
175
     7
 42
1.0
 92
        8
 66
     7
 43
1.0
 76
     1
 77
     6
 78
     2
 67
     7
 79
     5
170
     0
171
     0
290
     0
174
     0
 93
        1
 44
0.0
173
     0
291
     1
 45
0.0
1001
ACAD
1000
AcDbSavedByObjectVersion
1070
     0
  0
VISUALSTYLE
  5
33
102
{ACAD_REACTORS
330
2A
102
}
330
2A
100
AcDbVisualStyle
  2
Realistic
 70
     8
 71
     2
 72
     2
 73
     0
 90
        0
 40
-0.6
 41
-30.0
 62
     5
 63
     7
 74
     1
 91
        0
 64
     7
 65
   257
 75
     1
175
     1
 42
1.0
 92
        8
 66
     8
 43
1.0
 76
     1
 77
     6
 78
     2
 67
     7
 79
     5
170
     0
171
     0
290
     0
174
     0
 93
       13
 44
0.0
173
     0
291
     0
 45
0.0
1001
ACAD
1000
AcDbSavedByObjectVersion
1070
     0
  0
VISUALSTYLE
  5
37
102
{ACAD_REACTORS
330
2A
102
}
330
2A
100
AcDbVisualStyle
  2
Thicken
 70
    13
 71
     2
 72
     2
 73
     0
 90
        0
 40
-0.6
 41
-30.0
 62
     5
 63
     7
 74
     1
 91
        4
 64
     7
 65
   257
 75
     1
175
     1
 42
1.0
 92
       12
 66
     7
 43
1.0
 76
     1
 77
     6
 78
     2
 67
     7
 79
     5
170
     0
171
     0
290
     0
174
     0
 93
        1
 44
0.0
173
     0
291
     1
 45
0.0
1001
ACAD
1000
AcDbSavedByObjectVersion
1070
     0
  0
DICTIONARYVAR
  5
2F3
102
{ACAD_REACTORS
330
2EF
102
}
330
2EF
100
DictionaryVariables
280
     0
  1
80.000000
  0
DICTIONARYVAR
  5
2F2
102
{ACAD_REACTORS
330
2EF
102
}
330
2EF
100
DictionaryVariables
280
     0
  1
5.000000
  0
ENDSEC
  0
EOF
