  0
SECTION
  2
HEADER
  9
$ACADVER
  1
AC1024
  9
$ACADMAINTVER
 70
     6
  9
$DWGCODEPAGE
  3
ANSI_1252
  9
$INSBASE
 10
0.0
 20
0.0
 30
0.0
  9
$EXTMIN
 10
1.000000E+20
 20
1.000000E+20
 30
1.000000E+20
  9
$EXTMAX
 10
-1.000000E+20
 20
-1.000000E+20
 30
-1.000000E+20
  9
$LIMMIN
 10
0.0
 20
0.0
  9
$LIMMAX
 10
420.0
 20
297.0
  9
$ORTHOMODE
 70
     0
  9
$REGENMODE
 70
     1
  9
$FILLMODE
 70
     1
  9
$QTEXTMODE
 70
     0
  9
$MIRRTEXT
 70
     1
  9
$LTSCALE
 40
1.0
  9
$ATTMODE
 70
     1
  9
$TEXTSIZE
 40
2.5
  9
$TRACEWID
 40
1.0
  9
$TEXTSTYLE
  7
Standard
  9
$CLAYER
  8
0
  9
$CELTYPE
  6
ByLayer
  9
$CECOLOR
 62
   256
  9
$CELTSCALE
 40
1.0
  9
$DISPSILH
 70
     0
  9
$DIMSCALE
 40
1.0
  9
$DIMASZ
 40
2.5
  9
$DIMEXO
 40
0.625
  9
$DIMDLI
 40
3.75
  9
$DIMRND
 40
0.0
  9
$DIMDLE
 40
0.0
  9
$DIMEXE
 40
1.25
  9
$DIMTP
 40
0.0
  9
$DIMTM
 40
0.0
  9
$DIMTXT
 40
2.5
  9
$DIMCEN
 40
2.5
  9
$DIMTSZ
 40
0.0
  9
$DIMTOL
 70
     0
  9
$DIMLIM
 70
     0
  9
$DIMTIH
 70
     0
  9
$DIMTOH
 70
     0
  9
$DIMSE1
 70
     0
  9
$DIMSE2
 70
     0
  9
$DIMTAD
 70
     1
  9
$DIMZIN
 70
     8
  9
$DIMBLK
  1

  9
$DIMASO
 70
     1
  9
$DIMSHO
 70
     1
  9
$DIMPOST
  1

  9
$DIMAPOST
  1

  9
$DIMALT
 70
     0
  9
$DIMALTD
 70
     3
  9
$DIMALTF
 40
0.03937
  9
$DIMLFAC
 40
1.0
  9
$DIMTOFL
 70
     1
  9
$DIMTVP
 40
0.0
  9
$DIMTIX
 70
     0
  9
$DIMSOXD
 70
     0
  9
$DIMSAH
 70
     0
  9
$DIMBLK1
  1

  9
$DIMBLK2
  1

  9
$DIMSTYLE
  2
ISO-25
  9
$DIMCLRD
 70
     0
  9
$DIMCLRE
 70
     0
  9
$DIMCLRT
 70
     0
  9
$DIMTFAC
 40
1.0
  9
$DIMGAP
 40
0.625
  9
$DIMJUST
 70
     0
  9
$DIMSD1
 70
     0
  9
$DIMSD2
 70
     0
  9
$DIMTOLJ
 70
     0
  9
$DIMTZIN
 70
     8
  9
$DIMALTZ
 70
     0
  9
$DIMALTTZ
 70
     0
  9
$DIMUPT
 70
     0
  9
$DIMDEC
 70
     2
  9
$DIMTDEC
 70
     2
  9
$DIMALTU
 70
     2
  9
$DIMALTTD
 70
     3
  9
$DIMTXSTY
  7
Standard
  9
$DIMAUNIT
 70
     0
  9
$DIMADEC
 70
     0
  9
$DIMALTRND
 40
0.0
  9
$DIMAZIN
 70
     0
  9
$DIMDSEP
 70
    44
  9
$DIMATFIT
 70
     3
  9
$DIMFRAC
 70
     0
  9
$DIMLDRBLK
  1

  9
$DIMLUNIT
 70
     2
  9
$DIMLWD
 70
    -2
  9
$DIMLWE
 70
    -2
  9
$DIMTMOVE
 70
     0
  9
$DIMFXL
 40
1.0
  9
$DIMFXLON
 70
     0
  9
$DIMJOGANG
 40
0.785398
  9
$DIMTFILL
 70
     0
  9
$DIMTFILLCLR
 70
     0
  9
$DIMARCSYM
 70
     0
  9
$DIMLTYPE
  6

  9
$DIMLTEX1
  6

  9
$DIMLTEX2
  6

  9
$DIMTXTDIRECTION
 70
     0
  9
$LUNITS
 70
     2
  9
$LUPREC
 70
     4
  9
$SKETCHINC
 40
1.0
  9
$FILLETRAD
 40
10.0
  9
$AUNITS
 70
     0
  9
$AUPREC
 70
     0
  9
$MENU
  1
.
  9
$ELEVATION
 40
0.0
  9
$PELEVATION
 40
0.0
  9
$THICKNESS
 40
0.0
  9
$LIMCHECK
 70
     0
  9
$CHAMFERA
 40
0.0
  9
$CHAMFERB
 40
0.0
  9
$CHAMFERC
 40
0.0
  9
$CHAMFERD
 40
0.0
  9
$SKPOLY
 70
     0
  9
$TDCREATE
 40
2457827.490907002
  9
$TDUCREATE
 40
2457827.449240336
  9
$TDUPDATE
 40
2457827.490908403
  9
$TDUUPDATE
 40
2457827.449241736
  9
$TDINDWG
 40
0.0000000116
  9
$TDUSRTIMER
 40
0.0000000116
  9
$USRTIMER
 70
     1
  9
$ANGBASE
 50
0.0
  9
$ANGDIR
 70
     0
  9
$PDMODE
 70
     0
  9
$PDSIZE
 40
0.0
  9
$PLINEWID
 40
0.0
  9
$SPLFRAME
 70
     0
  9
$SPLINETYPE
 70
     6
  9
$SPLINESEGS
 70
     8
  9
$HANDSEED
  5
2A9
  9
$SURFTAB1
 70
     6
  9
$SURFTAB2
 70
     6
  9
$SURFTYPE
 70
     6
  9
$SURFU
 70
     6
  9
$SURFV
 70
     6
  9
$UCSBASE
  2

  9
$UCSNAME
  2

  9
$UCSORG
 10
0.0
 20
0.0
 30
0.0
  9
$UCSXDIR
 10
1.0
 20
0.0
 30
0.0
  9
$UCSYDIR
 10
0.0
 20
1.0
 30
0.0
  9
$UCSORTHOREF
  2

  9
$UCSORTHOVIEW
 70
     0
  9
$UCSORGTOP
 10
0.0
 20
0.0
 30
0.0
  9
$UCSORGBOTTOM
 10
0.0
 20
0.0
 30
0.0
  9
$UCSORGLEFT
 10
0.0
 20
0.0
 30
0.0
  9
$UCSORGRIGHT
 10
0.0
 20
0.0
 30
0.0
  9
$UCSORGFRONT
 10
0.0
 20
0.0
 30
0.0
  9
$UCSORGBACK
 10
0.0
 20
0.0
 30
0.0
  9
$PUCSBASE
  2

  9
$PUCSNAME
  2

  9
$PUCSORG
 10
0.0
 20
0.0
 30
0.0
  9
$PUCSXDIR
 10
1.0
 20
0.0
 30
0.0
  9
$PUCSYDIR
 10
0.0
 20
1.0
 30
0.0
  9
$PUCSORTHOREF
  2

  9
$PUCSORTHOVIEW
 70
     0
  9
$PUCSORGTOP
 10
0.0
 20
0.0
 30
0.0
  9
$PUCSORGBOTTOM
 10
0.0
 20
0.0
 30
0.0
  9
$PUCSORGLEFT
 10
0.0
 20
0.0
 30
0.0
  9
$PUCSORGRIGHT
 10
0.0
 20
0.0
 30
0.0
  9
$PUCSORGFRONT
 10
0.0
 20
0.0
 30
0.0
  9
$PUCSORGBACK
 10
0.0
 20
0.0
 30
0.0
  9
$USERI1
 70
     0
  9
$USERI2
 70
     0
  9
$USERI3
 70
     0
  9
$USERI4
 70
     0
  9
$USERI5
 70
     0
  9
$USERR1
 40
0.0
  9
$USERR2
 40
0.0
  9
$USERR3
 40
0.0
  9
$USERR4
 40
0.0
  9
$USERR5
 40
0.0
  9
$WORLDVIEW
 70
     1
  9
$SHADEDGE
 70
     3
  9
$SHADEDIF
 70
    70
  9
$TILEMODE
 70
     1
  9
$MAXACTVP
 70
    64
  9
$PINSBASE
 10
0.0
 20
0.0
 30
0.0
  9
$PLIMCHECK
 70
     0
  9
$PEXTMIN
 10
1.000000E+20
 20
1.000000E+20
 30
1.000000E+20
  9
$PEXTMAX
 10
-1.000000E+20
 20
-1.000000E+20
 30
-1.000000E+20
  9
$PLIMMIN
 10
0.0
 20
0.0
  9
$PLIMMAX
 10
420.0
 20
297.0
  9
$UNITMODE
 70
     0
  9
$VISRETAIN
 70
     1
  9
$PLINEGEN
 70
     0
  9
$PSLTSCALE
 70
     1
  9
$TREEDEPTH
 70
  3020
  9
$CMLSTYLE
  2
Standard
  9
$CMLJUST
 70
     0
  9
$CMLSCALE
 40
20.0
  9
$PROXYGRAPHICS
 70
     1
  9
$MEASUREMENT
 70
     1
  9
$CELWEIGHT
370
    -1
  9
$ENDCAPS
280
     0
  9
$JOINSTYLE
280
     0
  9
$LWDISPLAY
290
     0
  9
$INSUNITS
 70
     4
  9
$HYPERLINKBASE
  1

  9
$STYLESHEET
  1

  9
$XEDIT
290
     1
  9
$CEPSNTYPE
380
     0
  9
$PSTYLEMODE
290
     1
  9
$FINGERPRINTGUID
  2
{2F6FF65B-5562-4251-B1DD-536F414DD9E6}
  9
$VERSIONGUID
  2
{FAEB1C32-E019-11D5-929B-00C0DF256EC4}
  9
$EXTNAMES
290
     1
  9
$PSVPSCALE
 40
0.0
  9
$OLESTARTUP
290
     0
  9
$SORTENTS
280
   127
  9
$INDEXCTL
280
     0
  9
$HIDETEXT
280
     1
  9
$XCLIPFRAME
280
     2
  9
$HALOGAP
280
     0
  9
$OBSCOLOR
 70
   257
  9
$OBSLTYPE
280
     0
  9
$INTERSECTIONDISPLAY
280
     0
  9
$INTERSECTIONCOLOR
 70
   257
  9
$DIMASSOC
280
     2
  9
$PROJECTNAME
  1

  9
$CAMERADISPLAY
290
     0
  9
$LENSLENGTH
 40
50.0
  9
$CAMERAHEIGHT
 40
0.0
  9
$STEPSPERSEC
 40
2.0
  9
$STEPSIZE
 40
6.0
  9
$3DDWFPREC
 40
2.0
  9
$PSOLWIDTH
 40
5.0
  9
$PSOLHEIGHT
 40
80.0
  9
$LOFTANG1
 40
1.570796
  9
$LOFTANG2
 40
1.570796
  9
$LOFTMAG1
 40
0.0
  9
$LOFTMAG2
 40
0.0
  9
$LOFTPARAM
 70
     7
  9
$LOFTNORMALS
280
     1
  9
$LATITUDE
 40
37.795
  9
$LONGITUDE
 40
-122.394
  9
$NORTHDIRECTION
 40
0.0
  9
$TIMEZONE
 70
 -8000
  9
$LIGHTGLYPHDISPLAY
280
     1
  9
$TILEMODELIGHTSYNCH
280
     1
  9
$CMATERIAL
347
44
  9
$SOLIDHIST
280
     0
  9
$SHOWHIST
280
     1
  9
$DWFFRAME
280
     2
  9
$DGNFRAME
280
     2
  9
$REALWORLDSCALE
290
     1
  9
$INTERFERECOLOR
 62
   256
  9
$CSHADOW
280
     0
  9
$SHADOWPLANELOCATION
 40
0.0
  0
ENDSEC
  0
SECTION
  2
CLASSES
  0
CLASS
  1
ACDBDICTIONARYWDFLT
  2
AcDbDictionaryWithDefault
  3
ObjectDBX Classes
 90
        0
 91
        4
280
     0
281
     0
  0
CLASS
  1
VISUALSTYLE
  2
AcDbVisualStyle
  3
ObjectDBX Classes
 90
     4095
 91
        4
280
     0
281
     0
  0
CLASS
  1
MATERIAL
  2
AcDbMaterial
  3
ObjectDBX Classes
 90
     1153
 91
        4
280
     0
281
     0
  0
CLASS
  1
SCALE
  2
AcDbScale
  3
ObjectDBX Classes
 90
     1153
 91
        4
280
     0
281
     0
  0
CLASS
  1
TABLESTYLE
  2
AcDbTableStyle
  3
ObjectDBX Classes
 90
     4095
 91
        4
280
     0
281
     0
  0
CLASS
  1
MLEADERSTYLE
  2
AcDbMLeaderStyle
  3
ACDB_MLEADERSTYLE_CLASS
 90
     4095
 91
        4
280
     0
281
     0
  0
CLASS
  1
SUN
  2
AcDbSun
  3
SCENEOE
 90
     1153
 91
        4
280
     0
281
     0
  0
CLASS
  1
DICTIONARYVAR
  2
AcDbDictionaryVar
  3
ObjectDBX Classes
 90
        0
 91
        4
280
     0
281
     0
  0
CLASS
  1
CELLSTYLEMAP
  2
AcDbCellStyleMap
  3
ObjectDBX Classes
 90
     1152
 91
        4
280
     0
281
     0
  0
ENDSEC
  0
SECTION
  2
TABLES
  0
TABLE
  2
VPORT
  5
8
330
0
100
AcDbSymbolTable
 70
     1
  0
VPORT
  5
29
330
8
100
AcDbSymbolTableRecord
100
AcDbViewportTableRecord
  2
*Active
 70
     0
 10
0.0
 20
0.0
 11
1.0
 21
1.0
 12
344.186916
 22
148.5
 13
0.0
 23
0.0
 14
10.0
 24
10.0
 15
10.0
 25
10.0
 16
0.0
 26
0.0
 36
1.0
 17
0.0
 27
0.0
 37
0.0
 40
297.0
 41
1.972973
 42
50.0
 43
0.0
 44
0.0
 50
0.0
 51
0.0
 71
     0
 72
   100
 73
     1
 74
     3
 75
     0
 76
     0
 77
     0
 78
     0
281
     0
 65
     1
110
0.0
120
0.0
130
0.0
111
1.0
121
0.0
131
0.0
112
0.0
122
1.0
132
0.0
 79
     0
146
0.0
348
2F
 60
     3
 61
     5
292
     1
282
     1
141
0.0
142
0.0
 63
   250
361
6D
  0
ENDTAB
  0
TABLE
  2
LTYPE
  5
5
330
0
100
AcDbSymbolTable
 70
     1
  0
LTYPE
  5
14
330
5
100
AcDbSymbolTableRecord
100
AcDbLinetypeTableRecord
  2
ByBlock
 70
     0
  3

 72
    65
 73
     0
 40
0.0
  0
LTYPE
  5
15
330
5
100
AcDbSymbolTableRecord
100
AcDbLinetypeTableRecord
  2
ByLayer
 70
     0
  3

 72
    65
 73
     0
 40
0.0
  0
LTYPE
  5
16
330
5
100
AcDbSymbolTableRecord
100
AcDbLinetypeTableRecord
  2
Continuous
 70
     0
  3
Solid line
 72
    65
 73
     0
 40
0.0
  0
ENDTAB
  0
TABLE
  2
LAYER
  5
2
330
0
100
AcDbSymbolTable
 70
     1
  0
LAYER
  5
10
330
2
100
AcDbSymbolTableRecord
100
AcDbLayerTableRecord
  2
0
 70
     0
 62
   106
  6
Continuous
370
     0
390
F
347
46
  0
ENDTAB
  0
TABLE
  2
STYLE
  5
3
330
0
100
AcDbSymbolTable
 70
     4
  0
STYLE
  5
11
330
3
100
AcDbSymbolTableRecord
100
AcDbTextStyleTableRecord
  2
Standard
 70
     0
 40
0.0
 41
1.0
 50
0.0
 71
     0
 42
2.5
  3
txt
  4

  0
STYLE
  5
6E
330
3
100
AcDbSymbolTableRecord
100
AcDbTextStyleTableRecord
  2
Default
 70
     0
 40
0.0
 41
1.0
 50
0.0
 71
     0
 42
2.5
  3

  4

1001
ACAD
1000
txt
1071
        0
  0
STYLE
  5
6F
330
3
100
AcDbSymbolTableRecord
100
AcDbTextStyleTableRecord
  2
ISO
 70
     0
 40
0.0
 41
1.0
 50
0.0
 71
     0
 42
2.5
  3

  4

1001
ACAD
1000
txt
1071
        0
  0
STYLE
  5
70
330
3
100
AcDbSymbolTableRecord
100
AcDbTextStyleTableRecord
  2
zucchetti
 70
     0
 40
0.0
 41
1.0
 50
0.0
 71
     0
 42
2.5
  3

  4

1001
ACAD
1000
Arial
1071
        0
  0
ENDTAB
  0
TABLE
  2
VIEW
  5
6
330
0
100
AcDbSymbolTable
 70
     0
  0
ENDTAB
  0
TABLE
  2
UCS
  5
7
330
0
100
AcDbSymbolTable
 70
     0
  0
ENDTAB
  0
TABLE
  2
APPID
  5
9
330
0
100
AcDbSymbolTable
 70
     1
  0
APPID
  5
12
330
9
100
AcDbSymbolTableRecord
100
AcDbRegAppTableRecord
  2
ACAD
 70
     0
  0
ENDTAB
  0
TABLE
  2
DIMSTYLE
  5
A
330
0
100
AcDbSymbolTable
 70
     4
100
AcDbDimStyleTable
  0
DIMSTYLE
105
27
330
A
100
AcDbSymbolTableRecord
100
AcDbDimStyleTableRecord
  2
ISO-25
 70
     0
 41
2.5
 42
0.625
 43
3.75
 44
1.25
 73
     0
 74
     0
 77
     1
 78
     8
140
2.5
141
2.5
143
0.03937
147
0.625
171
     3
172
     1
178
     0
271
     2
272
     2
274
     3
278
    44
283
     0
284
     8
340
11
  0
DIMSTYLE
105
71
330
A
100
AcDbSymbolTableRecord
100
AcDbDimStyleTableRecord
  2
Default
 70
     0
  3
<>
 41
4.375
 42
1.05
 44
2.1
 49
10.01
 73
     0
 74
     0
 77
     1
 78
     8
140
3.5
146
0.4
147
1.75
172
     1
271
     2
178
     3
271
     2
272
     3
284
     8
340
6E
341
72
342
72
  0
DIMSTYLE
105
79
330
A
100
AcDbSymbolTableRecord
100
AcDbDimStyleTableRecord
  2
ISO
 70
     0
  3
<>
 41
4.375
 42
1.05
 44
2.1
 49
10.01
 73
     0
 74
     0
 77
     1
 78
     8
140
3.5
146
0.4
147
1.75
172
     1
271
     2
178
     3
271
     2
272
     3
284
     8
340
6F
341
72
342
72
  0
DIMSTYLE
105
7A
330
A
100
AcDbSymbolTableRecord
100
AcDbDimStyleTableRecord
  2
zucchetti
 70
     0
  3
<>
 41
3.0
 42
0.9
 44
1.8
 49
8.58
 73
     0
 74
     0
 77
     1
 78
     8
140
3.0
146
0.6
147
1.5
172
     1
176
     3
177
     3
271
     2
178
     3
271
     2
272
     2
284
     8
340
70
  0
ENDTAB
  0
TABLE
  2
BLOCK_RECORD
  5
1
330
0
100
AcDbSymbolTable
 70
     7
  0
BLOCK_RECORD
  5
1F
330
1
100
AcDbSymbolTableRecord
100
AcDbBlockTableRecord
  2
*Model_Space
340
22
 70
     0
280
     1
281
     0
  0
BLOCK_RECORD
  5
1B
330
1
100
AcDbSymbolTableRecord
100
AcDbBlockTableRecord
  2
*Paper_Space
340
1E
 70
     0
280
     1
281
     0
  0
BLOCK_RECORD
  5
23
330
1
100
AcDbSymbolTableRecord
100
AcDbBlockTableRecord
  2
*Paper_Space0
340
26
 70
     0
280
     1
281
     0
  0
BLOCK_RECORD
  5
72
330
1
100
AcDbSymbolTableRecord
100
AcDbBlockTableRecord
  2
_CLOSED
340
0
 70
     0
280
     1
281
     0
  0
BLOCK_RECORD
  5
7B
330
1
100
AcDbSymbolTableRecord
100
AcDbBlockTableRecord
  2
a
340
0
102
{BLKREFS
331
88
102
}
 70
     0
280
     1
281
     0
  0
BLOCK_RECORD
  5
89
330
1
100
AcDbSymbolTableRecord
100
AcDbBlockTableRecord
  2
b
340
0
102
{BLKREFS
331
164
102
}
 70
     0
280
     1
281
     0
  0
BLOCK_RECORD
  5
165
330
1
100
AcDbSymbolTableRecord
100
AcDbBlockTableRecord
  2
c
340
0
102
{BLKREFS
331
172
102
}
 70
     0
280
     1
281
     0
  0
BLOCK_RECORD
  5
173
330
1
100
AcDbSymbolTableRecord
100
AcDbBlockTableRecord
  2
d
340
0
102
{BLKREFS
331
261
102
}
 70
     0
280
     1
281
     0
  0
BLOCK_RECORD
  5
262
330
1
100
AcDbSymbolTableRecord
100
AcDbBlockTableRecord
  2
e
340
0
102
{BLKREFS
331
26F
102
}
 70
     0
280
     1
281
     0
  0
ENDTAB
  0
ENDSEC
  0
SECTION
  2
BLOCKS
  0
BLOCK
  5
20
330
1F
100
AcDbEntity
  8
0
100
AcDbBlockBegin
  2
*Model_Space
 70
     0
 10
0.0
 20
0.0
 30
0.0
  3
*Model_Space
  1

  0
ENDBLK
  5
21
330
1F
100
AcDbEntity
  8
0
100
AcDbBlockEnd
  0
BLOCK
  5
1C
330
1B
100
AcDbEntity
 67
     1
  8
0
100
AcDbBlockBegin
  2
*Paper_Space
 70
     0
 10
0.0
 20
0.0
 30
0.0
  3
*Paper_Space
  1

  0
ENDBLK
  5
1D
330
1B
100
AcDbEntity
 67
     1
  8
0
100
AcDbBlockEnd
  0
BLOCK
  5
24
330
23
100
AcDbEntity
  8
0
100
AcDbBlockBegin
  2
*Paper_Space0
 70
     0
 10
0.0
 20
0.0
 30
0.0
  3
*Paper_Space0
  1

  0
ENDBLK
  5
25
330
23
100
AcDbEntity
  8
0
100
AcDbBlockEnd
  0
BLOCK
  5
73
330
72
100
AcDbEntity
  8
0
100
AcDbBlockBegin
  2
_CLOSED
 70
     0
 10
0.0
 20
0.0
 30
0.0
  3
_CLOSED
  1

  0
LINE
  5
75
330
72
100
AcDbEntity
  8
0
  6
ByBlock
 62
     0
370
    -2
100
AcDbLine
 10
-1.0
 20
0.166667
 30
0.0
 11
0.0
 21
0.0
 31
0.0
  0
LINE
  5
76
330
72
100
AcDbEntity
  8
0
  6
ByBlock
 62
     0
370
    -2
100
AcDbLine
 10
0.0
 20
0.0
 30
0.0
 11
-1.0
 21
-0.166667
 31
0.0
  0
LINE
  5
77
330
72
100
AcDbEntity
  8
0
  6
ByBlock
 62
     0
370
    -2
100
AcDbLine
 10
-1.0
 20
0.166667
 30
0.0
 11
-1.0
 21
-0.166667
 31
0.0
  0
LINE
  5
78
330
72
100
AcDbEntity
  8
0
  6
ByBlock
 62
     0
370
    -2
100
AcDbLine
 10
0.0
 20
0.0
 30
0.0
 11
-1.0
 21
0.0
 31
0.0
  0
ENDBLK
  5
74
330
72
100
AcDbEntity
  8
0
100
AcDbBlockEnd
  0
BLOCK
  5
86
330
7B
100
AcDbEntity
  8
0
100
AcDbBlockBegin
  2
a
 70
     0
 10
121.395836
 20
283.567993
 30
0.0
  3
a
  1

  0
LINE
  5
7C
330
7B
100
AcDbEntity
  8
0
  6
Continuous
 62
     0
370
    30
100
AcDbLine
 10
516.981964
 20
617.626727
 30
0.0
 11
524.981964
 21
617.626727
 31
0.0
  0
LINE
  5
7D
330
7B
100
AcDbEntity
  8
0
  6
Continuous
 62
     0
370
    30
100
AcDbLine
 10
516.981964
 20
617.626727
 30
0.0
 11
162.981964
 21
617.626727
 31
0.0
  0
LINE
  5
7E
330
7B
100
AcDbEntity
  8
0
  6
Continuous
 62
     0
370
    30
100
AcDbLine
 10
154.981964
 20
617.626727
 30
0.0
 11
162.981964
 21
617.626727
 31
0.0
  0
LINE
  5
7F
330
7B
100
AcDbEntity
  8
0
  6
Continuous
 62
     0
370
    30
100
AcDbLine
 10
154.981964
 20
620.626727
 30
0.0
 11
154.981964
 21
617.626727
 31
0.0
  0
LINE
  5
80
330
7B
100
AcDbEntity
  8
0
  6
Continuous
 62
     0
370
     0
100
AcDbLine
 10
162.981964
 20
620.626727
 30
0.0
 11
162.981964
 21
617.626727
 31
0.0
  0
LINE
  5
81
330
7B
100
AcDbEntity
  8
0
  6
Continuous
 62
     0
370
    30
100
AcDbLine
 10
154.981964
 20
620.626727
 30
0.0
 11
162.981964
 21
620.626727
 31
0.0
  0
LINE
  5
82
330
7B
100
AcDbEntity
  8
0
  6
Continuous
 62
     0
370
    30
100
AcDbLine
 10
516.981964
 20
620.626727
 30
0.0
 11
162.981964
 21
620.626727
 31
0.0
  0
LINE
  5
83
330
7B
100
AcDbEntity
  8
0
  6
Continuous
 62
     0
370
    30
100
AcDbLine
 10
516.981964
 20
620.626727
 30
0.0
 11
524.981964
 21
620.626727
 31
0.0
  0
LINE
  5
84
330
7B
100
AcDbEntity
  8
0
  6
Continuous
 62
     0
370
     0
100
AcDbLine
 10
516.981964
 20
620.626727
 30
0.0
 11
516.981964
 21
617.626727
 31
0.0
  0
LINE
  5
85
330
7B
100
AcDbEntity
  8
0
  6
Continuous
 62
     0
370
    30
100
AcDbLine
 10
524.981964
 20
620.626727
 30
0.0
 11
524.981964
 21
617.626727
 31
0.0
  0
ENDBLK
  5
87
330
7B
100
AcDbEntity
  8
0
100
AcDbBlockEnd
  0
BLOCK
  5
162
330
89
100
AcDbEntity
  8
0
100
AcDbBlockBegin
  2
b
 70
     0
 10
121.395836
 20
283.567993
 30
0.0
  3
b
  1

  0
ARC
  5
8A
330
89
100
AcDbEntity
  8
0
  6
Continuous
 62
     0
370
    30
100
AcDbCircle
 10
414.981964
 20
392.373247
 30
0.0
 40
11.5
100
AcDbArc
 50
276.419595
 51
96.419595
  0
ARC
  5
8B
330
89
100
AcDbEntity
  8
0
  6
Continuous
 62
     0
370
    30
100
AcDbCircle
 10
414.981964
 20
392.373247
 30
0.0
 40
11.5
100
AcDbArc
 50
96.419595
 51
276.419595
  0
ARC
  5
8C
330
89
100
AcDbEntity
  8
0
  6
Continuous
 62
     0
370
    30
100
AcDbCircle
 10
264.981964
 20
392.373247
 30
0.0
 40
11.5
100
AcDbArc
 50
326.018491
 51
146.018491
  0
ARC
  5
8D
330
89
100
AcDbEntity
  8
0
  6
Continuous
 62
     0
370
    30
100
AcDbCircle
 10
264.981964
 20
392.373247
 30
0.0
 40
11.5
100
AcDbArc
 50
146.018491
 51
326.018491
  0
ARC
  5
8E
330
89
100
AcDbEntity
  8
0
  6
Continuous
 62
     0
370
    30
100
AcDbCircle
 10
294.612614
 20
397.066281
 30
0.0
 40
1.75
100
AcDbArc
 50
9.0
 51
189.0
  0
ARC
  5
8F
330
89
100
AcDbEntity
  8
0
  6
Continuous
 62
     0
370
    30
100
AcDbCircle
 10
294.612614
 20
397.066281
 30
0.0
 40
1.75
100
AcDbArc
 50
189.0
 51
9.0
  0
ARC
  5
90
330
89
100
AcDbEntity
  8
0
  6
Continuous
 62
     0
370
    30
100
AcDbCircle
 10
286.195168
 20
413.586451
 30
0.0
 40
1.75
100
AcDbArc
 50
45.0
 51
225.0
  0
ARC
  5
91
330
89
100
AcDbEntity
  8
0
  6
Continuous
 62
     0
370
    30
100
AcDbCircle
 10
286.195168
 20
413.586451
 30
0.0
 40
1.75
100
AcDbArc
 50
225.0
 51
45.0
  0
ARC
  5
92
330
89
100
AcDbEntity
  8
0
  6
Continuous
 62
     0
370
    30
100
AcDbCircle
 10
269.674998
 20
422.003897
 30
0.0
 40
1.75
100
AcDbArc
 50
81.0
 51
261.0
  0
ARC
  5
93
330
89
100
AcDbEntity
  8
0
  6
Continuous
 62
     0
370
    30
100
AcDbCircle
 10
269.674998
 20
422.003897
 30
0.0
 40
1.75
100
AcDbArc
 50
261.0
 51
81.0
  0
ARC
  5
94
330
89
100
AcDbEntity
  8
0
  6
Continuous
 62
     0
370
    30
100
AcDbCircle
 10
251.362249
 20
419.103443
 30
0.0
 40
1.75
100
AcDbArc
 50
117.0
 51
297.0
  0
ARC
  5
95
330
89
100
AcDbEntity
  8
0
  6
Continuous
 62
     0
370
    30
100
AcDbCircle
 10
251.362249
 20
419.103443
 30
0.0
 40
1.75
100
AcDbArc
 50
297.0
 51
117.0
  0
ARC
  5
96
330
89
100
AcDbEntity
  8
0
  6
Continuous
 62
     0
370
    30
100
AcDbCircle
 10
238.251768
 20
405.992962
 30
0.0
 40
1.75
100
AcDbArc
 50
153.0
 51
333.0
  0
ARC
  5
97
330
89
100
AcDbEntity
  8
0
  6
Continuous
 62
     0
370
    30
100
AcDbCircle
 10
238.251768
 20
405.992962
 30
0.0
 40
1.75
100
AcDbArc
 50
333.0
 51
153.0
  0
ARC
  5
98
330
89
100
AcDbEntity
  8
0
  6
Continuous
 62
     0
370
    30
100
AcDbCircle
 10
235.351314
 20
387.680213
 30
0.0
 40
1.75
100
AcDbArc
 50
189.0
 51
9.0
  0
ARC
  5
99
330
89
100
AcDbEntity
  8
0
  6
Continuous
 62
     0
370
    30
100
AcDbCircle
 10
235.351314
 20
387.680213
 30
0.0
 40
1.75
100
AcDbArc
 50
9.0
 51
189.0
  0
ARC
  5
9A
330
89
100
AcDbEntity
  8
0
  6
Continuous
 62
     0
370
    30
100
AcDbCircle
 10
243.768761
 20
371.160044
 30
0.0
 40
1.75
100
AcDbArc
 50
225.0
 51
45.0
  0
ARC
  5
9B
330
89
100
AcDbEntity
  8
0
  6
Continuous
 62
     0
370
    30
100
AcDbCircle
 10
243.768761
 20
371.160044
 30
0.0
 40
1.75
100
AcDbArc
 50
45.0
 51
225.0
  0
ARC
  5
9C
330
89
100
AcDbEntity
  8
0
  6
Continuous
 62
     0
370
    30
100
AcDbCircle
 10
260.28893
 20
362.742597
 30
0.0
 40
1.75
100
AcDbArc
 50
261.0
 51
81.0
  0
ARC
  5
9D
330
89
100
AcDbEntity
  8
0
  6
Continuous
 62
     0
370
    30
100
AcDbCircle
 10
260.28893
 20
362.742597
 30
0.0
 40
1.75
100
AcDbArc
 50
81.0
 51
261.0
  0
ARC
  5
9E
330
89
100
AcDbEntity
  8
0
  6
Continuous
 62
     0
370
    30
100
AcDbCircle
 10
278.601679
 20
365.643051
 30
0.0
 40
1.75
100
AcDbArc
 50
297.0
 51
117.0
  0
ARC
  5
9F
330
89
100
AcDbEntity
  8
0
  6
Continuous
 62
     0
370
    30
100
AcDbCircle
 10
278.601679
 20
365.643051
 30
0.0
 40
1.75
100
AcDbArc
 50
117.0
 51
297.0
  0
ARC
  5
A0
330
89
100
AcDbEntity
  8
0
  6
Continuous
 62
     0
370
    30
100
AcDbCircle
 10
291.71216
 20
378.753532
 30
0.0
 40
1.75
100
AcDbArc
 50
333.0
 51
153.0
  0
ARC
  5
A1
330
89
100
AcDbEntity
  8
0
  6
Continuous
 62
     0
370
    30
100
AcDbCircle
 10
291.71216
 20
378.753532
 30
0.0
 40
1.75
100
AcDbArc
 50
153.0
 51
333.0
  0
ARC
  5
A2
330
89
100
AcDbEntity
  8
0
  6
Continuous
 62
     0
370
    30
100
AcDbCircle
 10
310.415628
 20
399.569233
 30
0.0
 40
1.75
100
AcDbArc
 50
9.0
 51
189.0
  0
ARC
  5
A3
330
89
100
AcDbEntity
  8
0
  6
Continuous
 62
     0
370
    30
100
AcDbCircle
 10
310.415628
 20
399.569233
 30
0.0
 40
1.75
100
AcDbArc
 50
189.0
 51
9.0
  0
ARC
  5
A4
330
89
100
AcDbEntity
  8
0
  6
Continuous
 62
     0
370
    30
100
AcDbCircle
 10
310.415628
 20
385.177262
 30
0.0
 40
1.75
100
AcDbArc
 50
351.0
 51
171.0
  0
ARC
  5
A5
330
89
100
AcDbEntity
  8
0
  6
Continuous
 62
     0
370
    30
100
AcDbCircle
 10
310.415628
 20
385.177262
 30
0.0
 40
1.75
100
AcDbArc
 50
171.0
 51
351.0
  0
ARC
  5
A6
330
89
100
AcDbEntity
  8
0
  6
Continuous
 62
     0
370
    30
100
AcDbCircle
 10
305.968264
 20
371.489684
 30
0.0
 40
1.75
100
AcDbArc
 50
333.0
 51
153.0
  0
ARC
  5
A7
330
89
100
AcDbEntity
  8
0
  6
Continuous
 62
     0
370
    30
100
AcDbCircle
 10
305.968264
 20
371.489684
 30
0.0
 40
1.75
100
AcDbArc
 50
153.0
 51
333.0
  0
ARC
  5
A8
330
89
100
AcDbEntity
  8
0
  6
Continuous
 62
     0
370
    30
100
AcDbCircle
 10
297.508876
 20
359.846335
 30
0.0
 40
1.75
100
AcDbArc
 50
315.0
 51
135.0
  0
ARC
  5
A9
330
89
100
AcDbEntity
  8
0
  6
Continuous
 62
     0
370
    30
100
AcDbCircle
 10
297.508876
 20
359.846335
 30
0.0
 40
1.75
100
AcDbArc
 50
135.0
 51
315.0
  0
ARC
  5
AA
330
89
100
AcDbEntity
  8
0
  6
Continuous
 62
     0
370
    30
100
AcDbCircle
 10
285.865527
 20
351.386947
 30
0.0
 40
1.75
100
AcDbArc
 50
297.0
 51
117.0
  0
ARC
  5
AB
330
89
100
AcDbEntity
  8
0
  6
Continuous
 62
     0
370
    30
100
AcDbCircle
 10
285.865527
 20
351.386947
 30
0.0
 40
1.75
100
AcDbArc
 50
117.0
 51
297.0
  0
ARC
  5
AC
330
89
100
AcDbEntity
  8
0
  6
Continuous
 62
     0
370
    30
100
AcDbCircle
 10
272.17795
 20
346.939583
 30
0.0
 40
1.75
100
AcDbArc
 50
279.0
 51
99.0
  0
ARC
  5
AD
330
89
100
AcDbEntity
  8
0
  6
Continuous
 62
     0
370
    30
100
AcDbCircle
 10
272.17795
 20
346.939583
 30
0.0
 40
1.75
100
AcDbArc
 50
99.0
 51
279.0
  0
ARC
  5
AE
330
89
100
AcDbEntity
  8
0
  6
Continuous
 62
     0
370
    30
100
AcDbCircle
 10
257.785979
 20
346.939583
 30
0.0
 40
1.75
100
AcDbArc
 50
261.0
 51
81.0
  0
ARC
  5
AF
330
89
100
AcDbEntity
  8
0
  6
Continuous
 62
     0
370
    30
100
AcDbCircle
 10
257.785979
 20
346.939583
 30
0.0
 40
1.75
100
AcDbArc
 50
81.0
 51
261.0
  0
ARC
  5
B0
330
89
100
AcDbEntity
  8
0
  6
Continuous
 62
     0
370
    30
100
AcDbCircle
 10
244.098401
 20
351.386947
 30
0.0
 40
1.75
100
AcDbArc
 50
243.0
 51
63.0
  0
ARC
  5
B1
330
89
100
AcDbEntity
  8
0
  6
Continuous
 62
     0
370
    30
100
AcDbCircle
 10
244.098401
 20
351.386947
 30
0.0
 40
1.75
100
AcDbArc
 50
63.0
 51
243.0
  0
ARC
  5
B2
330
89
100
AcDbEntity
  8
0
  6
Continuous
 62
     0
370
    30
100
AcDbCircle
 10
232.455052
 20
359.846335
 30
0.0
 40
1.75
100
AcDbArc
 50
225.0
 51
45.0
  0
ARC
  5
B3
330
89
100
AcDbEntity
  8
0
  6
Continuous
 62
     0
370
    30
100
AcDbCircle
 10
232.455052
 20
359.846335
 30
0.0
 40
1.75
100
AcDbArc
 50
45.0
 51
225.0
  0
ARC
  5
B4
330
89
100
AcDbEntity
  8
0
  6
Continuous
 62
     0
370
    30
100
AcDbCircle
 10
223.995664
 20
371.489684
 30
0.0
 40
1.75
100
AcDbArc
 50
207.0
 51
27.0
  0
ARC
  5
B5
330
89
100
AcDbEntity
  8
0
  6
Continuous
 62
     0
370
    30
100
AcDbCircle
 10
223.995664
 20
371.489684
 30
0.0
 40
1.75
100
AcDbArc
 50
27.0
 51
207.0
  0
ARC
  5
B6
330
89
100
AcDbEntity
  8
0
  6
Continuous
 62
     0
370
    30
100
AcDbCircle
 10
219.5483
 20
385.177262
 30
0.0
 40
1.75
100
AcDbArc
 50
189.0
 51
9.0
  0
ARC
  5
B7
330
89
100
AcDbEntity
  8
0
  6
Continuous
 62
     0
370
    30
100
AcDbCircle
 10
219.5483
 20
385.177262
 30
0.0
 40
1.75
100
AcDbArc
 50
9.0
 51
189.0
  0
ARC
  5
B8
330
89
100
AcDbEntity
  8
0
  6
Continuous
 62
     0
370
    30
100
AcDbCircle
 10
219.5483
 20
399.569233
 30
0.0
 40
1.75
100
AcDbArc
 50
171.0
 51
351.0
  0
ARC
  5
B9
330
89
100
AcDbEntity
  8
0
  6
Continuous
 62
     0
370
    30
100
AcDbCircle
 10
219.5483
 20
399.569233
 30
0.0
 40
1.75
100
AcDbArc
 50
351.0
 51
171.0
  0
ARC
  5
BA
330
89
100
AcDbEntity
  8
0
  6
Continuous
 62
     0
370
    30
100
AcDbCircle
 10
223.995664
 20
413.25681
 30
0.0
 40
1.75
100
AcDbArc
 50
153.0
 51
333.0
  0
ARC
  5
BB
330
89
100
AcDbEntity
  8
0
  6
Continuous
 62
     0
370
    30
100
AcDbCircle
 10
223.995664
 20
413.25681
 30
0.0
 40
1.75
100
AcDbArc
 50
333.0
 51
153.0
  0
ARC
  5
BC
330
89
100
AcDbEntity
  8
0
  6
Continuous
 62
     0
370
    30
100
AcDbCircle
 10
232.455052
 20
424.900159
 30
0.0
 40
1.75
100
AcDbArc
 50
135.0
 51
315.0
  0
ARC
  5
BD
330
89
100
AcDbEntity
  8
0
  6
Continuous
 62
     0
370
    30
100
AcDbCircle
 10
232.455052
 20
424.900159
 30
0.0
 40
1.75
100
AcDbArc
 50
315.0
 51
135.0
  0
ARC
  5
BE
330
89
100
AcDbEntity
  8
0
  6
Continuous
 62
     0
370
    30
100
AcDbCircle
 10
244.098401
 20
433.359547
 30
0.0
 40
1.75
100
AcDbArc
 50
117.0
 51
297.0
  0
ARC
  5
BF
330
89
100
AcDbEntity
  8
0
  6
Continuous
 62
     0
370
    30
100
AcDbCircle
 10
244.098401
 20
433.359547
 30
0.0
 40
1.75
100
AcDbArc
 50
297.0
 51
117.0
  0
ARC
  5
C0
330
89
100
AcDbEntity
  8
0
  6
Continuous
 62
     0
370
    30
100
AcDbCircle
 10
257.785979
 20
437.806911
 30
0.0
 40
1.75
100
AcDbArc
 50
99.0
 51
279.0
  0
ARC
  5
C1
330
89
100
AcDbEntity
  8
0
  6
Continuous
 62
     0
370
    30
100
AcDbCircle
 10
257.785979
 20
437.806911
 30
0.0
 40
1.75
100
AcDbArc
 50
279.0
 51
99.0
  0
ARC
  5
C2
330
89
100
AcDbEntity
  8
0
  6
Continuous
 62
     0
370
    30
100
AcDbCircle
 10
272.17795
 20
437.806911
 30
0.0
 40
1.75
100
AcDbArc
 50
81.0
 51
261.0
  0
ARC
  5
C3
330
89
100
AcDbEntity
  8
0
  6
Continuous
 62
     0
370
    30
100
AcDbCircle
 10
272.17795
 20
437.806911
 30
0.0
 40
1.75
100
AcDbArc
 50
261.0
 51
81.0
  0
ARC
  5
C4
330
89
100
AcDbEntity
  8
0
  6
Continuous
 62
     0
370
    30
100
AcDbCircle
 10
285.865527
 20
433.359547
 30
0.0
 40
1.75
100
AcDbArc
 50
63.0
 51
243.0
  0
ARC
  5
C5
330
89
100
AcDbEntity
  8
0
  6
Continuous
 62
     0
370
    30
100
AcDbCircle
 10
285.865527
 20
433.359547
 30
0.0
 40
1.75
100
AcDbArc
 50
243.0
 51
63.0
  0
ARC
  5
C6
330
89
100
AcDbEntity
  8
0
  6
Continuous
 62
     0
370
    30
100
AcDbCircle
 10
297.508876
 20
424.900159
 30
0.0
 40
1.75
100
AcDbArc
 50
45.0
 51
225.0
  0
ARC
  5
C7
330
89
100
AcDbEntity
  8
0
  6
Continuous
 62
     0
370
    30
100
AcDbCircle
 10
297.508876
 20
424.900159
 30
0.0
 40
1.75
100
AcDbArc
 50
225.0
 51
45.0
  0
ARC
  5
C8
330
89
100
AcDbEntity
  8
0
  6
Continuous
 62
     0
370
    30
100
AcDbCircle
 10
305.968264
 20
413.25681
 30
0.0
 40
1.75
100
AcDbArc
 50
27.0
 51
207.0
  0
ARC
  5
C9
330
89
100
AcDbEntity
  8
0
  6
Continuous
 62
     0
370
    30
100
AcDbCircle
 10
305.968264
 20
413.25681
 30
0.0
 40
1.75
100
AcDbArc
 50
207.0
 51
27.0
  0
ARC
  5
CA
330
89
100
AcDbEntity
  8
0
  6
Continuous
 62
     0
370
    30
100
AcDbCircle
 10
326.218641
 20
402.072184
 30
0.0
 40
1.75
100
AcDbArc
 50
9.0
 51
189.0
  0
ARC
  5
CB
330
89
100
AcDbEntity
  8
0
  6
Continuous
 62
     0
370
    30
100
AcDbCircle
 10
326.218641
 20
402.072184
 30
0.0
 40
1.75
100
AcDbArc
 50
189.0
 51
9.0
  0
ARC
  5
CC
330
89
100
AcDbEntity
  8
0
  6
Continuous
 62
     0
370
    30
100
AcDbCircle
 10
320.224369
 20
420.520658
 30
0.0
 40
1.75
100
AcDbArc
 50
27.0
 51
207.0
  0
ARC
  5
CD
330
89
100
AcDbEntity
  8
0
  6
Continuous
 62
     0
370
    30
100
AcDbCircle
 10
320.224369
 20
420.520658
 30
0.0
 40
1.75
100
AcDbArc
 50
207.0
 51
27.0
  0
ARC
  5
CE
330
89
100
AcDbEntity
  8
0
  6
Continuous
 62
     0
370
    30
100
AcDbCircle
 10
308.822585
 20
436.213868
 30
0.0
 40
1.75
100
AcDbArc
 50
45.0
 51
225.0
  0
ARC
  5
CF
330
89
100
AcDbEntity
  8
0
  6
Continuous
 62
     0
370
    30
100
AcDbCircle
 10
308.822585
 20
436.213868
 30
0.0
 40
1.75
100
AcDbArc
 50
225.0
 51
45.0
  0
ARC
  5
D0
330
89
100
AcDbEntity
  8
0
  6
Continuous
 62
     0
370
    30
100
AcDbCircle
 10
293.129375
 20
447.615652
 30
0.0
 40
1.75
100
AcDbArc
 50
63.0
 51
243.0
  0
ARC
  5
D1
330
89
100
AcDbEntity
  8
0
  6
Continuous
 62
     0
370
    30
100
AcDbCircle
 10
293.129375
 20
447.615652
 30
0.0
 40
1.75
100
AcDbArc
 50
243.0
 51
63.0
  0
ARC
  5
D2
330
89
100
AcDbEntity
  8
0
  6
Continuous
 62
     0
370
    30
100
AcDbCircle
 10
274.680901
 20
453.609924
 30
0.0
 40
1.75
100
AcDbArc
 50
81.0
 51
261.0
  0
ARC
  5
D3
330
89
100
AcDbEntity
  8
0
  6
Continuous
 62
     0
370
    30
100
AcDbCircle
 10
274.680901
 20
453.609924
 30
0.0
 40
1.75
100
AcDbArc
 50
261.0
 51
81.0
  0
ARC
  5
D4
330
89
100
AcDbEntity
  8
0
  6
Continuous
 62
     0
370
    30
100
AcDbCircle
 10
255.283027
 20
453.609924
 30
0.0
 40
1.75
100
AcDbArc
 50
99.0
 51
279.0
  0
ARC
  5
D5
330
89
100
AcDbEntity
  8
0
  6
Continuous
 62
     0
370
    30
100
AcDbCircle
 10
255.283027
 20
453.609924
 30
0.0
 40
1.75
100
AcDbArc
 50
279.0
 51
99.0
  0
ARC
  5
D6
330
89
100
AcDbEntity
  8
0
  6
Continuous
 62
     0
370
    30
100
AcDbCircle
 10
236.834553
 20
447.615652
 30
0.0
 40
1.75
100
AcDbArc
 50
117.0
 51
297.0
  0
ARC
  5
D7
330
89
100
AcDbEntity
  8
0
  6
Continuous
 62
     0
370
    30
100
AcDbCircle
 10
236.834553
 20
447.615652
 30
0.0
 40
1.75
100
AcDbArc
 50
297.0
 51
117.0
  0
ARC
  5
D8
330
89
100
AcDbEntity
  8
0
  6
Continuous
 62
     0
370
    30
100
AcDbCircle
 10
221.141344
 20
436.213868
 30
0.0
 40
1.75
100
AcDbArc
 50
135.0
 51
315.0
  0
ARC
  5
D9
330
89
100
AcDbEntity
  8
0
  6
Continuous
 62
     0
370
    30
100
AcDbCircle
 10
221.141344
 20
436.213868
 30
0.0
 40
1.75
100
AcDbArc
 50
315.0
 51
135.0
  0
ARC
  5
DA
330
89
100
AcDbEntity
  8
0
  6
Continuous
 62
     0
370
    30
100
AcDbCircle
 10
209.73956
 20
420.520658
 30
0.0
 40
1.75
100
AcDbArc
 50
153.0
 51
333.0
  0
ARC
  5
DB
330
89
100
AcDbEntity
  8
0
  6
Continuous
 62
     0
370
    30
100
AcDbCircle
 10
209.73956
 20
420.520658
 30
0.0
 40
1.75
100
AcDbArc
 50
333.0
 51
153.0
  0
ARC
  5
DC
330
89
100
AcDbEntity
  8
0
  6
Continuous
 62
     0
370
    30
100
AcDbCircle
 10
203.745287
 20
402.072184
 30
0.0
 40
1.75
100
AcDbArc
 50
171.0
 51
351.0
  0
ARC
  5
DD
330
89
100
AcDbEntity
  8
0
  6
Continuous
 62
     0
370
    30
100
AcDbCircle
 10
203.745287
 20
402.072184
 30
0.0
 40
1.75
100
AcDbArc
 50
351.0
 51
171.0
  0
ARC
  5
DE
330
89
100
AcDbEntity
  8
0
  6
Continuous
 62
     0
370
    30
100
AcDbCircle
 10
203.745287
 20
382.67431
 30
0.0
 40
1.75
100
AcDbArc
 50
189.0
 51
9.0
  0
ARC
  5
DF
330
89
100
AcDbEntity
  8
0
  6
Continuous
 62
     0
370
    30
100
AcDbCircle
 10
203.745287
 20
382.67431
 30
0.0
 40
1.75
100
AcDbArc
 50
9.0
 51
189.0
  0
ARC
  5
E0
330
89
100
AcDbEntity
  8
0
  6
Continuous
 62
     0
370
    30
100
AcDbCircle
 10
209.73956
 20
364.225836
 30
0.0
 40
1.75
100
AcDbArc
 50
207.0
 51
27.0
  0
ARC
  5
E1
330
89
100
AcDbEntity
  8
0
  6
Continuous
 62
     0
370
    30
100
AcDbCircle
 10
209.73956
 20
364.225836
 30
0.0
 40
1.75
100
AcDbArc
 50
27.0
 51
207.0
  0
ARC
  5
E2
330
89
100
AcDbEntity
  8
0
  6
Continuous
 62
     0
370
    30
100
AcDbCircle
 10
221.141344
 20
348.532627
 30
0.0
 40
1.75
100
AcDbArc
 50
225.0
 51
45.0
  0
ARC
  5
E3
330
89
100
AcDbEntity
  8
0
  6
Continuous
 62
     0
370
    30
100
AcDbCircle
 10
221.141344
 20
348.532627
 30
0.0
 40
1.75
100
AcDbArc
 50
45.0
 51
225.0
  0
ARC
  5
E4
330
89
100
AcDbEntity
  8
0
  6
Continuous
 62
     0
370
    30
100
AcDbCircle
 10
236.834553
 20
337.130843
 30
0.0
 40
1.75
100
AcDbArc
 50
243.0
 51
63.0
  0
ARC
  5
E5
330
89
100
AcDbEntity
  8
0
  6
Continuous
 62
     0
370
    30
100
AcDbCircle
 10
236.834553
 20
337.130843
 30
0.0
 40
1.75
100
AcDbArc
 50
63.0
 51
243.0
  0
ARC
  5
E6
330
89
100
AcDbEntity
  8
0
  6
Continuous
 62
     0
370
    30
100
AcDbCircle
 10
255.283027
 20
331.13657
 30
0.0
 40
1.75
100
AcDbArc
 50
261.0
 51
81.0
  0
ARC
  5
E7
330
89
100
AcDbEntity
  8
0
  6
Continuous
 62
     0
370
    30
100
AcDbCircle
 10
255.283027
 20
331.13657
 30
0.0
 40
1.75
100
AcDbArc
 50
81.0
 51
261.0
  0
ARC
  5
E8
330
89
100
AcDbEntity
  8
0
  6
Continuous
 62
     0
370
    30
100
AcDbCircle
 10
274.680901
 20
331.13657
 30
0.0
 40
1.75
100
AcDbArc
 50
279.0
 51
99.0
  0
ARC
  5
E9
330
89
100
AcDbEntity
  8
0
  6
Continuous
 62
     0
370
    30
100
AcDbCircle
 10
274.680901
 20
331.13657
 30
0.0
 40
1.75
100
AcDbArc
 50
99.0
 51
279.0
  0
ARC
  5
EA
330
89
100
AcDbEntity
  8
0
  6
Continuous
 62
     0
370
    30
100
AcDbCircle
 10
293.129375
 20
337.130843
 30
0.0
 40
1.75
100
AcDbArc
 50
297.0
 51
117.0
  0
ARC
  5
EB
330
89
100
AcDbEntity
  8
0
  6
Continuous
 62
     0
370
    30
100
AcDbCircle
 10
293.129375
 20
337.130843
 30
0.0
 40
1.75
100
AcDbArc
 50
117.0
 51
297.0
  0
ARC
  5
EC
330
89
100
AcDbEntity
  8
0
  6
Continuous
 62
     0
370
    30
100
AcDbCircle
 10
308.822585
 20
348.532627
 30
0.0
 40
1.75
100
AcDbArc
 50
315.0
 51
135.0
  0
ARC
  5
ED
330
89
100
AcDbEntity
  8
0
  6
Continuous
 62
     0
370
    30
100
AcDbCircle
 10
308.822585
 20
348.532627
 30
0.0
 40
1.75
100
AcDbArc
 50
135.0
 51
315.0
  0
ARC
  5
EE
330
89
100
AcDbEntity
  8
0
  6
Continuous
 62
     0
370
    30
100
AcDbCircle
 10
320.224369
 20
364.225836
 30
0.0
 40
1.75
100
AcDbArc
 50
333.0
 51
153.0
  0
ARC
  5
EF
330
89
100
AcDbEntity
  8
0
  6
Continuous
 62
     0
370
    30
100
AcDbCircle
 10
320.224369
 20
364.225836
 30
0.0
 40
1.75
100
AcDbArc
 50
153.0
 51
333.0
  0
ARC
  5
F0
330
89
100
AcDbEntity
  8
0
  6
Continuous
 62
     0
370
    30
100
AcDbCircle
 10
326.218641
 20
382.67431
 30
0.0
 40
1.75
100
AcDbArc
 50
351.0
 51
171.0
  0
ARC
  5
F1
330
89
100
AcDbEntity
  8
0
  6
Continuous
 62
     0
370
    30
100
AcDbCircle
 10
326.218641
 20
382.67431
 30
0.0
 40
1.75
100
AcDbArc
 50
171.0
 51
351.0
  0
ARC
  5
F2
330
89
100
AcDbEntity
  8
0
  6
Continuous
 62
     0
370
    30
100
AcDbCircle
 10
444.612614
 20
397.066281
 30
0.0
 40
1.75
100
AcDbArc
 50
9.0
 51
189.0
  0
ARC
  5
F3
330
89
100
AcDbEntity
  8
0
  6
Continuous
 62
     0
370
    30
100
AcDbCircle
 10
444.612614
 20
397.066281
 30
0.0
 40
1.75
100
AcDbArc
 50
189.0
 51
9.0
  0
ARC
  5
F4
330
89
100
AcDbEntity
  8
0
  6
Continuous
 62
     0
370
    30
100
AcDbCircle
 10
436.195168
 20
413.586451
 30
0.0
 40
1.75
100
AcDbArc
 50
45.0
 51
225.0
  0
ARC
  5
F5
330
89
100
AcDbEntity
  8
0
  6
Continuous
 62
     0
370
    30
100
AcDbCircle
 10
436.195168
 20
413.586451
 30
0.0
 40
1.75
100
AcDbArc
 50
225.0
 51
45.0
  0
ARC
  5
F6
330
89
100
AcDbEntity
  8
0
  6
Continuous
 62
     0
370
    30
100
AcDbCircle
 10
419.674998
 20
422.003897
 30
0.0
 40
1.75
100
AcDbArc
 50
81.0
 51
261.0
  0
ARC
  5
F7
330
89
100
AcDbEntity
  8
0
  6
Continuous
 62
     0
370
    30
100
AcDbCircle
 10
419.674998
 20
422.003897
 30
0.0
 40
1.75
100
AcDbArc
 50
261.0
 51
81.0
  0
ARC
  5
F8
330
89
100
AcDbEntity
  8
0
  6
Continuous
 62
     0
370
    30
100
AcDbCircle
 10
401.362249
 20
419.103443
 30
0.0
 40
1.75
100
AcDbArc
 50
117.0
 51
297.0
  0
ARC
  5
F9
330
89
100
AcDbEntity
  8
0
  6
Continuous
 62
     0
370
    30
100
AcDbCircle
 10
401.362249
 20
419.103443
 30
0.0
 40
1.75
100
AcDbArc
 50
297.0
 51
117.0
  0
ARC
  5
FA
330
89
100
AcDbEntity
  8
0
  6
Continuous
 62
     0
370
    30
100
AcDbCircle
 10
388.251768
 20
405.992962
 30
0.0
 40
1.75
100
AcDbArc
 50
153.0
 51
333.0
  0
ARC
  5
FB
330
89
100
AcDbEntity
  8
0
  6
Continuous
 62
     0
370
    30
100
AcDbCircle
 10
388.251768
 20
405.992962
 30
0.0
 40
1.75
100
AcDbArc
 50
333.0
 51
153.0
  0
ARC
  5
FC
330
89
100
AcDbEntity
  8
0
  6
Continuous
 62
     0
370
    30
100
AcDbCircle
 10
385.351314
 20
387.680213
 30
0.0
 40
1.75
100
AcDbArc
 50
189.0
 51
9.0
  0
ARC
  5
FD
330
89
100
AcDbEntity
  8
0
  6
Continuous
 62
     0
370
    30
100
AcDbCircle
 10
385.351314
 20
387.680213
 30
0.0
 40
1.75
100
AcDbArc
 50
9.0
 51
189.0
  0
ARC
  5
FE
330
89
100
AcDbEntity
  8
0
  6
Continuous
 62
     0
370
    30
100
AcDbCircle
 10
393.768761
 20
371.160044
 30
0.0
 40
1.75
100
AcDbArc
 50
225.0
 51
45.0
  0
ARC
  5
FF
330
89
100
AcDbEntity
  8
0
  6
Continuous
 62
     0
370
    30
100
AcDbCircle
 10
393.768761
 20
371.160044
 30
0.0
 40
1.75
100
AcDbArc
 50
45.0
 51
225.0
  0
ARC
  5
100
330
89
100
AcDbEntity
  8
0
  6
Continuous
 62
     0
370
    30
100
AcDbCircle
 10
410.28893
 20
362.742597
 30
0.0
 40
1.75
100
AcDbArc
 50
261.0
 51
81.0
  0
ARC
  5
101
330
89
100
AcDbEntity
  8
0
  6
Continuous
 62
     0
370
    30
100
AcDbCircle
 10
410.28893
 20
362.742597
 30
0.0
 40
1.75
100
AcDbArc
 50
81.0
 51
261.0
  0
ARC
  5
102
330
89
100
AcDbEntity
  8
0
  6
Continuous
 62
     0
370
    30
100
AcDbCircle
 10
428.601679
 20
365.643051
 30
0.0
 40
1.75
100
AcDbArc
 50
297.0
 51
117.0
  0
ARC
  5
103
330
89
100
AcDbEntity
  8
0
  6
Continuous
 62
     0
370
    30
100
AcDbCircle
 10
428.601679
 20
365.643051
 30
0.0
 40
1.75
100
AcDbArc
 50
117.0
 51
297.0
  0
ARC
  5
104
330
89
100
AcDbEntity
  8
0
  6
Continuous
 62
     0
370
    30
100
AcDbCircle
 10
441.71216
 20
378.753532
 30
0.0
 40
1.75
100
AcDbArc
 50
333.0
 51
153.0
  0
ARC
  5
105
330
89
100
AcDbEntity
  8
0
  6
Continuous
 62
     0
370
    30
100
AcDbCircle
 10
441.71216
 20
378.753532
 30
0.0
 40
1.75
100
AcDbArc
 50
153.0
 51
333.0
  0
ARC
  5
106
330
89
100
AcDbEntity
  8
0
  6
Continuous
 62
     0
370
    30
100
AcDbCircle
 10
460.415628
 20
399.569233
 30
0.0
 40
1.75
100
AcDbArc
 50
9.0
 51
189.0
  0
ARC
  5
107
330
89
100
AcDbEntity
  8
0
  6
Continuous
 62
     0
370
    30
100
AcDbCircle
 10
460.415628
 20
399.569233
 30
0.0
 40
1.75
100
AcDbArc
 50
189.0
 51
9.0
  0
ARC
  5
108
330
89
100
AcDbEntity
  8
0
  6
Continuous
 62
     0
370
    30
100
AcDbCircle
 10
455.968264
 20
413.25681
 30
0.0
 40
1.75
100
AcDbArc
 50
27.0
 51
207.0
  0
ARC
  5
109
330
89
100
AcDbEntity
  8
0
  6
Continuous
 62
     0
370
    30
100
AcDbCircle
 10
455.968264
 20
413.25681
 30
0.0
 40
1.75
100
AcDbArc
 50
207.0
 51
27.0
  0
ARC
  5
10A
330
89
100
AcDbEntity
  8
0
  6
Continuous
 62
     0
370
    30
100
AcDbCircle
 10
447.508876
 20
424.900159
 30
0.0
 40
1.75
100
AcDbArc
 50
45.0
 51
225.0
  0
ARC
  5
10B
330
89
100
AcDbEntity
  8
0
  6
Continuous
 62
     0
370
    30
100
AcDbCircle
 10
447.508876
 20
424.900159
 30
0.0
 40
1.75
100
AcDbArc
 50
225.0
 51
45.0
  0
ARC
  5
10C
330
89
100
AcDbEntity
  8
0
  6
Continuous
 62
     0
370
    30
100
AcDbCircle
 10
435.865527
 20
433.359547
 30
0.0
 40
1.75
100
AcDbArc
 50
63.0
 51
243.0
  0
ARC
  5
10D
330
89
100
AcDbEntity
  8
0
  6
Continuous
 62
     0
370
    30
100
AcDbCircle
 10
435.865527
 20
433.359547
 30
0.0
 40
1.75
100
AcDbArc
 50
243.0
 51
63.0
  0
ARC
  5
10E
330
89
100
AcDbEntity
  8
0
  6
Continuous
 62
     0
370
    30
100
AcDbCircle
 10
422.17795
 20
437.806911
 30
0.0
 40
1.75
100
AcDbArc
 50
81.0
 51
261.0
  0
ARC
  5
10F
330
89
100
AcDbEntity
  8
0
  6
Continuous
 62
     0
370
    30
100
AcDbCircle
 10
422.17795
 20
437.806911
 30
0.0
 40
1.75
100
AcDbArc
 50
261.0
 51
81.0
  0
ARC
  5
110
330
89
100
AcDbEntity
  8
0
  6
Continuous
 62
     0
370
    30
100
AcDbCircle
 10
407.785979
 20
437.806911
 30
0.0
 40
1.75
100
AcDbArc
 50
99.0
 51
279.0
  0
ARC
  5
111
330
89
100
AcDbEntity
  8
0
  6
Continuous
 62
     0
370
    30
100
AcDbCircle
 10
407.785979
 20
437.806911
 30
0.0
 40
1.75
100
AcDbArc
 50
279.0
 51
99.0
  0
ARC
  5
112
330
89
100
AcDbEntity
  8
0
  6
Continuous
 62
     0
370
    30
100
AcDbCircle
 10
394.098401
 20
433.359547
 30
0.0
 40
1.75
100
AcDbArc
 50
117.0
 51
297.0
  0
ARC
  5
113
330
89
100
AcDbEntity
  8
0
  6
Continuous
 62
     0
370
    30
100
AcDbCircle
 10
394.098401
 20
433.359547
 30
0.0
 40
1.75
100
AcDbArc
 50
297.0
 51
117.0
  0
ARC
  5
114
330
89
100
AcDbEntity
  8
0
  6
Continuous
 62
     0
370
    30
100
AcDbCircle
 10
382.455052
 20
424.900159
 30
0.0
 40
1.75
100
AcDbArc
 50
135.0
 51
315.0
  0
ARC
  5
115
330
89
100
AcDbEntity
  8
0
  6
Continuous
 62
     0
370
    30
100
AcDbCircle
 10
382.455052
 20
424.900159
 30
0.0
 40
1.75
100
AcDbArc
 50
315.0
 51
135.0
  0
ARC
  5
116
330
89
100
AcDbEntity
  8
0
  6
Continuous
 62
     0
370
    30
100
AcDbCircle
 10
373.995664
 20
413.25681
 30
0.0
 40
1.75
100
AcDbArc
 50
153.0
 51
333.0
  0
ARC
  5
117
330
89
100
AcDbEntity
  8
0
  6
Continuous
 62
     0
370
    30
100
AcDbCircle
 10
373.995664
 20
413.25681
 30
0.0
 40
1.75
100
AcDbArc
 50
333.0
 51
153.0
  0
ARC
  5
118
330
89
100
AcDbEntity
  8
0
  6
Continuous
 62
     0
370
    30
100
AcDbCircle
 10
369.5483
 20
399.569233
 30
0.0
 40
1.75
100
AcDbArc
 50
171.0
 51
351.0
  0
ARC
  5
119
330
89
100
AcDbEntity
  8
0
  6
Continuous
 62
     0
370
    30
100
AcDbCircle
 10
369.5483
 20
399.569233
 30
0.0
 40
1.75
100
AcDbArc
 50
351.0
 51
171.0
  0
ARC
  5
11A
330
89
100
AcDbEntity
  8
0
  6
Continuous
 62
     0
370
    30
100
AcDbCircle
 10
369.5483
 20
385.177262
 30
0.0
 40
1.75
100
AcDbArc
 50
189.0
 51
9.0
  0
ARC
  5
11B
330
89
100
AcDbEntity
  8
0
  6
Continuous
 62
     0
370
    30
100
AcDbCircle
 10
369.5483
 20
385.177262
 30
0.0
 40
1.75
100
AcDbArc
 50
9.0
 51
189.0
  0
ARC
  5
11C
330
89
100
AcDbEntity
  8
0
  6
Continuous
 62
     0
370
    30
100
AcDbCircle
 10
373.995664
 20
371.489684
 30
0.0
 40
1.75
100
AcDbArc
 50
207.0
 51
27.0
  0
ARC
  5
11D
330
89
100
AcDbEntity
  8
0
  6
Continuous
 62
     0
370
    30
100
AcDbCircle
 10
373.995664
 20
371.489684
 30
0.0
 40
1.75
100
AcDbArc
 50
27.0
 51
207.0
  0
ARC
  5
11E
330
89
100
AcDbEntity
  8
0
  6
Continuous
 62
     0
370
    30
100
AcDbCircle
 10
382.455052
 20
359.846335
 30
0.0
 40
1.75
100
AcDbArc
 50
225.0
 51
45.0
  0
ARC
  5
11F
330
89
100
AcDbEntity
  8
0
  6
Continuous
 62
     0
370
    30
100
AcDbCircle
 10
382.455052
 20
359.846335
 30
0.0
 40
1.75
100
AcDbArc
 50
45.0
 51
225.0
  0
ARC
  5
120
330
89
100
AcDbEntity
  8
0
  6
Continuous
 62
     0
370
    30
100
AcDbCircle
 10
394.098401
 20
351.386947
 30
0.0
 40
1.75
100
AcDbArc
 50
243.0
 51
63.0
  0
ARC
  5
121
330
89
100
AcDbEntity
  8
0
  6
Continuous
 62
     0
370
    30
100
AcDbCircle
 10
394.098401
 20
351.386947
 30
0.0
 40
1.75
100
AcDbArc
 50
63.0
 51
243.0
  0
ARC
  5
122
330
89
100
AcDbEntity
  8
0
  6
Continuous
 62
     0
370
    30
100
AcDbCircle
 10
407.785979
 20
346.939583
 30
0.0
 40
1.75
100
AcDbArc
 50
261.0
 51
81.0
  0
ARC
  5
123
330
89
100
AcDbEntity
  8
0
  6
Continuous
 62
     0
370
    30
100
AcDbCircle
 10
407.785979
 20
346.939583
 30
0.0
 40
1.75
100
AcDbArc
 50
81.0
 51
261.0
  0
ARC
  5
124
330
89
100
AcDbEntity
  8
0
  6
Continuous
 62
     0
370
    30
100
AcDbCircle
 10
422.17795
 20
346.939583
 30
0.0
 40
1.75
100
AcDbArc
 50
279.0
 51
99.0
  0
ARC
  5
125
330
89
100
AcDbEntity
  8
0
  6
Continuous
 62
     0
370
    30
100
AcDbCircle
 10
422.17795
 20
346.939583
 30
0.0
 40
1.75
100
AcDbArc
 50
99.0
 51
279.0
  0
ARC
  5
126
330
89
100
AcDbEntity
  8
0
  6
Continuous
 62
     0
370
    30
100
AcDbCircle
 10
435.865527
 20
351.386947
 30
0.0
 40
1.75
100
AcDbArc
 50
297.0
 51
117.0
  0
ARC
  5
127
330
89
100
AcDbEntity
  8
0
  6
Continuous
 62
     0
370
    30
100
AcDbCircle
 10
435.865527
 20
351.386947
 30
0.0
 40
1.75
100
AcDbArc
 50
117.0
 51
297.0
  0
ARC
  5
128
330
89
100
AcDbEntity
  8
0
  6
Continuous
 62
     0
370
    30
100
AcDbCircle
 10
447.508876
 20
359.846335
 30
0.0
 40
1.75
100
AcDbArc
 50
315.0
 51
135.0
  0
ARC
  5
129
330
89
100
AcDbEntity
  8
0
  6
Continuous
 62
     0
370
    30
100
AcDbCircle
 10
447.508876
 20
359.846335
 30
0.0
 40
1.75
100
AcDbArc
 50
135.0
 51
315.0
  0
ARC
  5
12A
330
89
100
AcDbEntity
  8
0
  6
Continuous
 62
     0
370
    30
100
AcDbCircle
 10
455.968264
 20
371.489684
 30
0.0
 40
1.75
100
AcDbArc
 50
333.0
 51
153.0
  0
ARC
  5
12B
330
89
100
AcDbEntity
  8
0
  6
Continuous
 62
     0
370
    30
100
AcDbCircle
 10
455.968264
 20
371.489684
 30
0.0
 40
1.75
100
AcDbArc
 50
153.0
 51
333.0
  0
ARC
  5
12C
330
89
100
AcDbEntity
  8
0
  6
Continuous
 62
     0
370
    30
100
AcDbCircle
 10
460.415628
 20
385.177262
 30
0.0
 40
1.75
100
AcDbArc
 50
351.0
 51
171.0
  0
ARC
  5
12D
330
89
100
AcDbEntity
  8
0
  6
Continuous
 62
     0
370
    30
100
AcDbCircle
 10
460.415628
 20
385.177262
 30
0.0
 40
1.75
100
AcDbArc
 50
171.0
 51
351.0
  0
ARC
  5
12E
330
89
100
AcDbEntity
  8
0
  6
Continuous
 62
     0
370
    30
100
AcDbCircle
 10
476.218641
 20
402.072184
 30
0.0
 40
1.75
100
AcDbArc
 50
9.0
 51
189.0
  0
ARC
  5
12F
330
89
100
AcDbEntity
  8
0
  6
Continuous
 62
     0
370
    30
100
AcDbCircle
 10
476.218641
 20
402.072184
 30
0.0
 40
1.75
100
AcDbArc
 50
189.0
 51
9.0
  0
ARC
  5
130
330
89
100
AcDbEntity
  8
0
  6
Continuous
 62
     0
370
    30
100
AcDbCircle
 10
470.224369
 20
420.520658
 30
0.0
 40
1.75
100
AcDbArc
 50
27.0
 51
207.0
  0
ARC
  5
131
330
89
100
AcDbEntity
  8
0
  6
Continuous
 62
     0
370
    30
100
AcDbCircle
 10
470.224369
 20
420.520658
 30
0.0
 40
1.75
100
AcDbArc
 50
207.0
 51
27.0
  0
ARC
  5
132
330
89
100
AcDbEntity
  8
0
  6
Continuous
 62
     0
370
    30
100
AcDbCircle
 10
458.822585
 20
436.213868
 30
0.0
 40
1.75
100
AcDbArc
 50
45.0
 51
225.0
  0
ARC
  5
133
330
89
100
AcDbEntity
  8
0
  6
Continuous
 62
     0
370
    30
100
AcDbCircle
 10
458.822585
 20
436.213868
 30
0.0
 40
1.75
100
AcDbArc
 50
225.0
 51
45.0
  0
ARC
  5
134
330
89
100
AcDbEntity
  8
0
  6
Continuous
 62
     0
370
    30
100
AcDbCircle
 10
443.129375
 20
447.615652
 30
0.0
 40
1.75
100
AcDbArc
 50
63.0
 51
243.0
  0
ARC
  5
135
330
89
100
AcDbEntity
  8
0
  6
Continuous
 62
     0
370
    30
100
AcDbCircle
 10
443.129375
 20
447.615652
 30
0.0
 40
1.75
100
AcDbArc
 50
243.0
 51
63.0
  0
ARC
  5
136
330
89
100
AcDbEntity
  8
0
  6
Continuous
 62
     0
370
    30
100
AcDbCircle
 10
424.680901
 20
453.609924
 30
0.0
 40
1.75
100
AcDbArc
 50
81.0
 51
261.0
  0
ARC
  5
137
330
89
100
AcDbEntity
  8
0
  6
Continuous
 62
     0
370
    30
100
AcDbCircle
 10
424.680901
 20
453.609924
 30
0.0
 40
1.75
100
AcDbArc
 50
261.0
 51
81.0
  0
ARC
  5
138
330
89
100
AcDbEntity
  8
0
  6
Continuous
 62
     0
370
    30
100
AcDbCircle
 10
405.283027
 20
453.609924
 30
0.0
 40
1.75
100
AcDbArc
 50
99.0
 51
279.0
  0
ARC
  5
139
330
89
100
AcDbEntity
  8
0
  6
Continuous
 62
     0
370
    30
100
AcDbCircle
 10
405.283027
 20
453.609924
 30
0.0
 40
1.75
100
AcDbArc
 50
279.0
 51
99.0
  0
ARC
  5
13A
330
89
100
AcDbEntity
  8
0
  6
Continuous
 62
     0
370
    30
100
AcDbCircle
 10
386.834553
 20
447.615652
 30
0.0
 40
1.75
100
AcDbArc
 50
117.0
 51
297.0
  0
ARC
  5
13B
330
89
100
AcDbEntity
  8
0
  6
Continuous
 62
     0
370
    30
100
AcDbCircle
 10
386.834553
 20
447.615652
 30
0.0
 40
1.75
100
AcDbArc
 50
297.0
 51
117.0
  0
ARC
  5
13C
330
89
100
AcDbEntity
  8
0
  6
Continuous
 62
     0
370
    30
100
AcDbCircle
 10
371.141344
 20
436.213868
 30
0.0
 40
1.75
100
AcDbArc
 50
135.0
 51
315.0
  0
ARC
  5
13D
330
89
100
AcDbEntity
  8
0
  6
Continuous
 62
     0
370
    30
100
AcDbCircle
 10
371.141344
 20
436.213868
 30
0.0
 40
1.75
100
AcDbArc
 50
315.0
 51
135.0
  0
ARC
  5
13E
330
89
100
AcDbEntity
  8
0
  6
Continuous
 62
     0
370
    30
100
AcDbCircle
 10
359.73956
 20
420.520658
 30
0.0
 40
1.75
100
AcDbArc
 50
153.0
 51
333.0
  0
ARC
  5
13F
330
89
100
AcDbEntity
  8
0
  6
Continuous
 62
     0
370
    30
100
AcDbCircle
 10
359.73956
 20
420.520658
 30
0.0
 40
1.75
100
AcDbArc
 50
333.0
 51
153.0
  0
ARC
  5
140
330
89
100
AcDbEntity
  8
0
  6
Continuous
 62
     0
370
    30
100
AcDbCircle
 10
353.745287
 20
402.072184
 30
0.0
 40
1.75
100
AcDbArc
 50
171.0
 51
351.0
  0
ARC
  5
141
330
89
100
AcDbEntity
  8
0
  6
Continuous
 62
     0
370
    30
100
AcDbCircle
 10
353.745287
 20
402.072184
 30
0.0
 40
1.75
100
AcDbArc
 50
351.0
 51
171.0
  0
ARC
  5
142
330
89
100
AcDbEntity
  8
0
  6
Continuous
 62
     0
370
    30
100
AcDbCircle
 10
353.745287
 20
382.67431
 30
0.0
 40
1.75
100
AcDbArc
 50
189.0
 51
9.0
  0
ARC
  5
143
330
89
100
AcDbEntity
  8
0
  6
Continuous
 62
     0
370
    30
100
AcDbCircle
 10
353.745287
 20
382.67431
 30
0.0
 40
1.75
100
AcDbArc
 50
9.0
 51
189.0
  0
ARC
  5
144
330
89
100
AcDbEntity
  8
0
  6
Continuous
 62
     0
370
    30
100
AcDbCircle
 10
359.73956
 20
364.225836
 30
0.0
 40
1.75
100
AcDbArc
 50
207.0
 51
27.0
  0
ARC
  5
145
330
89
100
AcDbEntity
  8
0
  6
Continuous
 62
     0
370
    30
100
AcDbCircle
 10
359.73956
 20
364.225836
 30
0.0
 40
1.75
100
AcDbArc
 50
27.0
 51
207.0
  0
ARC
  5
146
330
89
100
AcDbEntity
  8
0
  6
Continuous
 62
     0
370
    30
100
AcDbCircle
 10
371.141344
 20
348.532627
 30
0.0
 40
1.75
100
AcDbArc
 50
225.0
 51
45.0
  0
ARC
  5
147
330
89
100
AcDbEntity
  8
0
  6
Continuous
 62
     0
370
    30
100
AcDbCircle
 10
371.141344
 20
348.532627
 30
0.0
 40
1.75
100
AcDbArc
 50
45.0
 51
225.0
  0
ARC
  5
148
330
89
100
AcDbEntity
  8
0
  6
Continuous
 62
     0
370
    30
100
AcDbCircle
 10
386.834553
 20
337.130843
 30
0.0
 40
1.75
100
AcDbArc
 50
243.0
 51
63.0
  0
ARC
  5
149
330
89
100
AcDbEntity
  8
0
  6
Continuous
 62
     0
370
    30
100
AcDbCircle
 10
386.834553
 20
337.130843
 30
0.0
 40
1.75
100
AcDbArc
 50
63.0
 51
243.0
  0
ARC
  5
14A
330
89
100
AcDbEntity
  8
0
  6
Continuous
 62
     0
370
    30
100
AcDbCircle
 10
405.283027
 20
331.13657
 30
0.0
 40
1.75
100
AcDbArc
 50
261.0
 51
81.0
  0
ARC
  5
14B
330
89
100
AcDbEntity
  8
0
  6
Continuous
 62
     0
370
    30
100
AcDbCircle
 10
405.283027
 20
331.13657
 30
0.0
 40
1.75
100
AcDbArc
 50
81.0
 51
261.0
  0
ARC
  5
14C
330
89
100
AcDbEntity
  8
0
  6
Continuous
 62
     0
370
    30
100
AcDbCircle
 10
424.680901
 20
331.13657
 30
0.0
 40
1.75
100
AcDbArc
 50
279.0
 51
99.0
  0
ARC
  5
14D
330
89
100
AcDbEntity
  8
0
  6
Continuous
 62
     0
370
    30
100
AcDbCircle
 10
424.680901
 20
331.13657
 30
0.0
 40
1.75
100
AcDbArc
 50
99.0
 51
279.0
  0
ARC
  5
14E
330
89
100
AcDbEntity
  8
0
  6
Continuous
 62
     0
370
    30
100
AcDbCircle
 10
443.129375
 20
337.130843
 30
0.0
 40
1.75
100
AcDbArc
 50
297.0
 51
117.0
  0
ARC
  5
14F
330
89
100
AcDbEntity
  8
0
  6
Continuous
 62
     0
370
    30
100
AcDbCircle
 10
443.129375
 20
337.130843
 30
0.0
 40
1.75
100
AcDbArc
 50
117.0
 51
297.0
  0
ARC
  5
150
330
89
100
AcDbEntity
  8
0
  6
Continuous
 62
     0
370
    30
100
AcDbCircle
 10
458.822585
 20
348.532627
 30
0.0
 40
1.75
100
AcDbArc
 50
315.0
 51
135.0
  0
ARC
  5
151
330
89
100
AcDbEntity
  8
0
  6
Continuous
 62
     0
370
    30
100
AcDbCircle
 10
458.822585
 20
348.532627
 30
0.0
 40
1.75
100
AcDbArc
 50
135.0
 51
315.0
  0
ARC
  5
152
330
89
100
AcDbEntity
  8
0
  6
Continuous
 62
     0
370
    30
100
AcDbCircle
 10
470.224369
 20
364.225836
 30
0.0
 40
1.75
100
AcDbArc
 50
333.0
 51
153.0
  0
ARC
  5
153
330
89
100
AcDbEntity
  8
0
  6
Continuous
 62
     0
370
    30
100
AcDbCircle
 10
470.224369
 20
364.225836
 30
0.0
 40
1.75
100
AcDbArc
 50
153.0
 51
333.0
  0
ARC
  5
154
330
89
100
AcDbEntity
  8
0
  6
Continuous
 62
     0
370
    30
100
AcDbCircle
 10
476.218641
 20
382.67431
 30
0.0
 40
1.75
100
AcDbArc
 50
351.0
 51
171.0
  0
ARC
  5
155
330
89
100
AcDbEntity
  8
0
  6
Continuous
 62
     0
370
    30
100
AcDbCircle
 10
476.218641
 20
382.67431
 30
0.0
 40
1.75
100
AcDbArc
 50
171.0
 51
351.0
  0
ARC
  5
156
330
89
100
AcDbEntity
  8
0
  6
Continuous
 62
     0
370
    30
100
AcDbCircle
 10
162.981964
 20
280.373247
 30
0.0
 40
8.0
100
AcDbArc
 50
180.0
 51
270.0
  0
ARC
  5
157
330
89
100
AcDbEntity
  8
0
  6
Continuous
 62
     0
370
    30
100
AcDbCircle
 10
516.981964
 20
504.373247
 30
0.0
 40
8.0
100
AcDbArc
 50
0.0
 51
90.0
  0
LINE
  5
158
330
89
100
AcDbEntity
  8
0
  6
Continuous
 62
     0
370
    30
100
AcDbLine
 10
162.981964
 20
512.373247
 30
0.0
 11
516.981964
 21
512.373247
 31
0.0
  0
ARC
  5
159
330
89
100
AcDbEntity
  8
0
  6
Continuous
 62
     0
370
    30
100
AcDbCircle
 10
162.981964
 20
504.373247
 30
0.0
 40
8.0
100
AcDbArc
 50
90.0
 51
180.0
  0
LINE
  5
15A
330
89
100
AcDbEntity
  8
0
  6
Continuous
 62
     0
370
    30
100
AcDbLine
 10
154.981964
 20
280.373247
 30
0.0
 11
154.981964
 21
504.373247
 31
0.0
  0
LINE
  5
15B
330
89
100
AcDbEntity
  8
0
  6
Continuous
 62
     0
370
    30
100
AcDbLine
 10
516.981964
 20
272.373247
 30
0.0
 11
162.981964
 21
272.373247
 31
0.0
  0
ARC
  5
15C
330
89
100
AcDbEntity
  8
0
  6
Continuous
 62
     0
370
    30
100
AcDbCircle
 10
516.981964
 20
280.373247
 30
0.0
 40
8.0
100
AcDbArc
 50
270.0
 51
360.0
  0
LINE
  5
15D
330
89
100
AcDbEntity
  8
0
  6
Continuous
 62
     0
370
    30
100
AcDbLine
 10
524.981964
 20
504.373247
 30
0.0
 11
524.981964
 21
280.373247
 31
0.0
  0
ARC
  5
15E
330
89
100
AcDbEntity
  8
0
  6
Continuous
 62
     0
370
    30
100
AcDbCircle
 10
264.981964
 20
392.373247
 30
0.0
 40
11.0
100
AcDbArc
 50
180.0
 51
360.0
  0
ARC
  5
15F
330
89
100
AcDbEntity
  8
0
  6
Continuous
 62
     0
370
    30
100
AcDbCircle
 10
264.981964
 20
392.373247
 30
0.0
 40
11.0
100
AcDbArc
 50
0.0
 51
180.0
  0
ARC
  5
160
330
89
100
AcDbEntity
  8
0
  6
Continuous
 62
     0
370
    30
100
AcDbCircle
 10
414.981964
 20
392.373247
 30
0.0
 40
11.0
100
AcDbArc
 50
180.0
 51
360.0
  0
ARC
  5
161
330
89
100
AcDbEntity
  8
0
  6
Continuous
 62
     0
370
    30
100
AcDbCircle
 10
414.981964
 20
392.373247
 30
0.0
 40
11.0
100
AcDbArc
 50
0.0
 51
180.0
  0
ENDBLK
  5
163
330
89
100
AcDbEntity
  8
0
100
AcDbBlockEnd
  0
BLOCK
  5
170
330
165
100
AcDbEntity
  8
0
100
AcDbBlockBegin
  2
c
 70
     0
 10
121.395836
 20
283.567993
 30
0.0
  3
c
  1

  0
LINE
  5
166
330
165
100
AcDbEntity
  8
0
  6
Continuous
 62
     0
370
    30
100
AcDbLine
 10
833.083748
 20
617.626727
 30
0.0
 11
841.083748
 21
617.626727
 31
0.0
  0
LINE
  5
167
330
165
100
AcDbEntity
  8
0
  6
Continuous
 62
     0
370
    30
100
AcDbLine
 10
833.083748
 20
617.626727
 30
0.0
 11
609.083748
 21
617.626727
 31
0.0
  0
LINE
  5
168
330
165
100
AcDbEntity
  8
0
  6
Continuous
 62
     0
370
    30
100
AcDbLine
 10
601.083748
 20
617.626727
 30
0.0
 11
609.083748
 21
617.626727
 31
0.0
  0
LINE
  5
169
330
165
100
AcDbEntity
  8
0
  6
Continuous
 62
     0
370
     0
100
AcDbLine
 10
833.083748
 20
620.626727
 30
0.0
 11
833.083748
 21
617.626727
 31
0.0
  0
LINE
  5
16A
330
165
100
AcDbEntity
  8
0
  6
Continuous
 62
     0
370
    30
100
AcDbLine
 10
841.083748
 20
620.626727
 30
0.0
 11
841.083748
 21
617.626727
 31
0.0
  0
LINE
  5
16B
330
165
100
AcDbEntity
  8
0
  6
Continuous
 62
     0
370
    30
100
AcDbLine
 10
833.083748
 20
620.626727
 30
0.0
 11
841.083748
 21
620.626727
 31
0.0
  0
LINE
  5
16C
330
165
100
AcDbEntity
  8
0
  6
Continuous
 62
     0
370
    30
100
AcDbLine
 10
601.083748
 20
620.626727
 30
0.0
 11
609.083748
 21
620.626727
 31
0.0
  0
LINE
  5
16D
330
165
100
AcDbEntity
  8
0
  6
Continuous
 62
     0
370
    30
100
AcDbLine
 10
833.083748
 20
620.626727
 30
0.0
 11
609.083748
 21
620.626727
 31
0.0
  0
LINE
  5
16E
330
165
100
AcDbEntity
  8
0
  6
Continuous
 62
     0
370
    30
100
AcDbLine
 10
601.083748
 20
620.626727
 30
0.0
 11
601.083748
 21
617.626727
 31
0.0
  0
LINE
  5
16F
330
165
100
AcDbEntity
  8
0
  6
Continuous
 62
     0
370
     0
100
AcDbLine
 10
609.083748
 20
620.626727
 30
0.0
 11
609.083748
 21
617.626727
 31
0.0
  0
ENDBLK
  5
171
330
165
100
AcDbEntity
  8
0
100
AcDbBlockEnd
  0
BLOCK
  5
25F
330
173
100
AcDbEntity
  8
0
100
AcDbBlockBegin
  2
d
 70
     0
 10
121.395836
 20
283.567993
 30
0.0
  3
d
  1

  0
ELLIPSE
  5
174
330
173
100
AcDbEntity
  8
0
  6
Continuous
 62
     0
370
    30
100
AcDbEllipse
 10
873.69717
 20
453.674561
 30
0.0
 11
-11.5
 21
6.383782391594650E-16
 31
0.0
210
0.0
220
0.0
230
1.0
 40
0.57735
 41
2.468237550896641
 42
5.609830204486432
  0
ELLIPSE
  5
175
330
173
100
AcDbEntity
  8
0
  6
Continuous
 62
     0
370
    30
100
AcDbEllipse
 10
873.69717
 20
453.674561
 30
0.0
 11
-11.5
 21
6.383782391594650E-16
 31
0.0
210
0.0
220
0.0
230
1.0
 40
0.57735
 41
5.609830204486433
 42
8.751422858076227
  0
ELLIPSE
  5
176
330
173
100
AcDbEntity
  8
0
  6
Continuous
 62
     0
370
    30
100
AcDbEllipse
 10
873.69717
 20
451.225071
 30
0.0
 11
-11.5
 21
6.383782391594650E-16
 31
0.0
210
0.0
220
0.0
230
1.0
 40
0.57735
 41
5.987222377042336
 42
6.097660218302062
  0
ELLIPSE
  5
177
330
173
100
AcDbEntity
  8
0
  6
Continuous
 62
     0
370
    30
100
AcDbEllipse
 10
873.69717
 20
451.225071
 30
0.0
 11
-11.5
 21
6.383782391594650E-16
 31
0.0
210
0.0
220
0.0
230
1.0
 40
0.57735
 41
3.327117725187944
 42
3.437555566447677
  0
ELLIPSE
  5
178
330
173
100
AcDbEntity
  8
0
  6
Continuous
 62
     0
370
    30
100
AcDbEllipse
 10
767.631153
 20
392.437317
 30
0.0
 11
-11.5
 21
0.0
 31
0.0
210
0.0
220
0.0
230
1.0
 40
0.57735
 41
3.333901604670622
 42
6.475494258260415
  0
ELLIPSE
  5
179
330
173
100
AcDbEntity
  8
0
  6
Continuous
 62
     0
370
    30
100
AcDbEllipse
 10
767.631153
 20
392.437317
 30
0.0
 11
-11.5
 21
0.0
 31
0.0
210
0.0
220
0.0
230
1.0
 40
0.57735
 41
0.1923089510808289
 42
3.333901604670621
  0
ELLIPSE
  5
17A
330
173
100
AcDbEntity
  8
0
  6
Continuous
 62
     0
370
    30
100
AcDbEllipse
 10
767.631153
 20
389.987827
 30
0.0
 11
-11.5
 21
0.0
 31
0.0
210
0.0
220
0.0
230
1.0
 40
0.57735
 41
5.98722237704233
 42
6.097660218302059
  0
ELLIPSE
  5
17B
330
173
100
AcDbEntity
  8
0
  6
Continuous
 62
     0
370
    30
100
AcDbEllipse
 10
767.631153
 20
389.987827
 30
0.0
 11
-11.5
 21
0.0
 31
0.0
210
0.0
220
0.0
230
1.0
 40
0.57735
 41
3.333901604670622
 42
3.437555566447672
  0
ELLIPSE
  5
17C
330
173
100
AcDbEntity
  8
0
  6
Continuous
 62
     0
370
    30
100
AcDbEllipse
 10
785.264711
 20
406.449902
 30
0.0
 11
1.75
 21
0.0
 31
0.0
210
0.0
220
0.0
230
-1.0
 40
0.57735
 41
2.199114857512853
 42
5.340707511102647
  0
ELLIPSE
  5
17D
330
173
100
AcDbEntity
  8
0
  6
Continuous
 62
     0
370
    30
100
AcDbEllipse
 10
785.264711
 20
406.449902
 30
0.0
 11
1.75
 21
0.0
 31
0.0
210
0.0
220
0.0
230
-1.0
 40
0.57735
 41
5.340707511102647
 42
8.48230016469244
  0
ELLIPSE
  5
17E
330
173
100
AcDbEntity
  8
0
  6
Continuous
 62
     0
370
    30
100
AcDbEllipse
 10
767.631153
 20
409.757825
 30
0.0
 11
1.75
 21
0.0
 31
0.0
210
0.0
220
0.0
230
-1.0
 40
0.57735
 41
1.570796326794894
 42
4.71238898038469
  0
ELLIPSE
  5
17F
330
173
100
AcDbEntity
  8
0
  6
Continuous
 62
     0
370
    30
100
AcDbEllipse
 10
767.631153
 20
409.757825
 30
0.0
 11
1.75
 21
0.0
 31
0.0
210
0.0
220
0.0
230
-1.0
 40
0.57735
 41
4.712388980384699
 42
7.85398163397448
  0
ELLIPSE
  5
180
330
173
100
AcDbEntity
  8
0
  6
Continuous
 62
     0
370
    30
100
AcDbEllipse
 10
749.997596
 20
406.449902
 30
0.0
 11
1.75
 21
0.0
 31
0.0
210
0.0
220
0.0
230
-1.0
 40
0.57735
 41
0.9424777960769447
 42
4.084070449666729
  0
ELLIPSE
  5
181
330
173
100
AcDbEntity
  8
0
  6
Continuous
 62
     0
370
    30
100
AcDbEllipse
 10
749.997596
 20
406.449902
 30
0.0
 11
1.75
 21
0.0
 31
0.0
210
0.0
220
0.0
230
-1.0
 40
0.57735
 41
4.084070449666739
 42
7.225663103256531
  0
ELLIPSE
  5
182
330
173
100
AcDbEntity
  8
0
  6
Continuous
 62
     0
370
    30
100
AcDbEllipse
 10
739.099458
 20
397.789648
 30
0.0
 11
1.75
 21
0.0
 31
0.0
210
0.0
220
0.0
230
-1.0
 40
0.57735
 41
0.314159265358985
 42
3.45575191894877
  0
ELLIPSE
  5
183
330
173
100
AcDbEntity
  8
0
  6
Continuous
 62
     0
370
    30
100
AcDbEllipse
 10
739.099458
 20
397.789648
 30
0.0
 11
1.75
 21
0.0
 31
0.0
210
0.0
220
0.0
230
-1.0
 40
0.57735
 41
3.455751918948783
 42
6.597344572538571
  0
ELLIPSE
  5
184
330
173
100
AcDbEntity
  8
0
  6
Continuous
 62
     0
370
    30
100
AcDbEllipse
 10
739.099458
 20
387.084986
 30
0.0
 11
1.75
 21
0.0
 31
0.0
210
0.0
220
0.0
230
-1.0
 40
0.57735
 41
5.969026041820602
 42
9.110618695410398
  0
ELLIPSE
  5
185
330
173
100
AcDbEntity
  8
0
  6
Continuous
 62
     0
370
    30
100
AcDbEllipse
 10
739.099458
 20
387.084986
 30
0.0
 11
1.75
 21
0.0
 31
0.0
210
0.0
220
0.0
230
-1.0
 40
0.57735
 41
2.827433388230816
 42
5.969026041820602
  0
ELLIPSE
  5
186
330
173
100
AcDbEntity
  8
0
  6
Continuous
 62
     0
370
    30
100
AcDbEllipse
 10
749.997596
 20
378.424732
 30
0.0
 11
1.75
 21
0.0
 31
0.0
210
0.0
220
0.0
230
-1.0
 40
0.57735
 41
5.340707511102648
 42
8.482300164692441
  0
ELLIPSE
  5
187
330
173
100
AcDbEntity
  8
0
  6
Continuous
 62
     0
370
    30
100
AcDbEllipse
 10
749.997596
 20
378.424732
 30
0.0
 11
1.75
 21
0.0
 31
0.0
210
0.0
220
0.0
230
-1.0
 40
0.57735
 41
2.199114857512855
 42
5.340707511102648
  0
ELLIPSE
  5
188
330
173
100
AcDbEntity
  8
0
  6
Continuous
 62
     0
370
    30
100
AcDbEllipse
 10
767.631153
 20
375.116809
 30
0.0
 11
1.75
 21
0.0
 31
0.0
210
0.0
220
0.0
230
-1.0
 40
0.57735
 41
4.712388980384699
 42
7.853981633974478
  0
ELLIPSE
  5
189
330
173
100
AcDbEntity
  8
0
  6
Continuous
 62
     0
370
    30
100
AcDbEllipse
 10
767.631153
 20
375.116809
 30
0.0
 11
1.75
 21
0.0
 31
0.0
210
0.0
220
0.0
230
-1.0
 40
0.57735
 41
1.570796326794895
 42
4.712388980384699
  0
ELLIPSE
  5
18A
330
173
100
AcDbEntity
  8
0
  6
Continuous
 62
     0
370
    30
100
AcDbEllipse
 10
785.264711
 20
378.424732
 30
0.0
 11
1.75
 21
0.0
 31
0.0
210
0.0
220
0.0
230
-1.0
 40
0.57735
 41
4.084070449666715
 42
7.225663103256524
  0
ELLIPSE
  5
18B
330
173
100
AcDbEntity
  8
0
  6
Continuous
 62
     0
370
    30
100
AcDbEllipse
 10
785.264711
 20
378.424732
 30
0.0
 11
1.75
 21
0.0
 31
0.0
210
0.0
220
0.0
230
-1.0
 40
0.57735
 41
0.9424777960769379
 42
4.084070449666715
  0
ELLIPSE
  5
18C
330
173
100
AcDbEntity
  8
0
  6
Continuous
 62
     0
370
    30
100
AcDbEllipse
 10
796.162849
 20
387.084986
 30
0.0
 11
1.75
 21
0.0
 31
0.0
210
0.0
220
0.0
230
-1.0
 40
0.57735
 41
3.455751918948776
 42
6.59734457253855
  0
ELLIPSE
  5
18D
330
173
100
AcDbEntity
  8
0
  6
Continuous
 62
     0
370
    30
100
AcDbEllipse
 10
796.162849
 20
387.084986
 30
0.0
 11
1.75
 21
0.0
 31
0.0
210
0.0
220
0.0
230
-1.0
 40
0.57735
 41
0.3141592653589778
 42
3.455751918948776
  0
ELLIPSE
  5
18E
330
173
100
AcDbEntity
  8
0
  6
Continuous
 62
     0
370
    30
100
AcDbEllipse
 10
796.162849
 20
397.789648
 30
0.0
 11
1.75
 21
0.0
 31
0.0
210
0.0
220
0.0
230
-1.0
 40
0.57735
 41
2.827433388230815
 42
5.9690260418206
  0
ELLIPSE
  5
18F
330
173
100
AcDbEntity
  8
0
  6
Continuous
 62
     0
370
    30
100
AcDbEllipse
 10
796.162849
 20
397.789648
 30
0.0
 11
1.75
 21
0.0
 31
0.0
210
0.0
220
0.0
230
-1.0
 40
0.57735
 41
5.969026041820607
 42
9.110618695410402
  0
ELLIPSE
  5
190
330
173
100
AcDbEntity
  8
0
  6
Continuous
 62
     0
370
    30
100
AcDbEllipse
 10
794.669275
 20
413.923281
 30
0.0
 11
1.75
 21
0.0
 31
0.0
210
0.0
220
0.0
230
-1.0
 40
0.57735
 41
2.199114857512855
 42
5.340707511102647
  0
ELLIPSE
  5
191
330
173
100
AcDbEntity
  8
0
  6
Continuous
 62
     0
370
    30
100
AcDbEllipse
 10
794.669275
 20
413.923281
 30
0.0
 11
1.75
 21
0.0
 31
0.0
210
0.0
220
0.0
230
-1.0
 40
0.57735
 41
5.34070751110265
 42
8.482300164692441
  0
ELLIPSE
  5
192
330
173
100
AcDbEntity
  8
0
  6
Continuous
 62
     0
370
    30
100
AcDbEllipse
 10
804.845935
 20
408.047784
 30
0.0
 11
1.75
 21
0.0
 31
0.0
210
0.0
220
0.0
230
-1.0
 40
0.57735
 41
2.513274122871835
 42
5.654866776461627
  0
ELLIPSE
  5
193
330
173
100
AcDbEntity
  8
0
  6
Continuous
 62
     0
370
    30
100
AcDbEllipse
 10
804.845935
 20
408.047784
 30
0.0
 11
1.75
 21
0.0
 31
0.0
210
0.0
220
0.0
230
-1.0
 40
0.57735
 41
5.654866776461628
 42
8.79645943005142
  0
ELLIPSE
  5
194
330
173
100
AcDbEntity
  8
0
  6
Continuous
 62
     0
370
    30
100
AcDbEllipse
 10
811.379753
 20
400.644225
 30
0.0
 11
1.75
 21
0.0
 31
0.0
210
0.0
220
0.0
230
-1.0
 40
0.57735
 41
2.827433388230814
 42
5.969026041820607
  0
ELLIPSE
  5
195
330
173
100
AcDbEntity
  8
0
  6
Continuous
 62
     0
370
    30
100
AcDbEllipse
 10
811.379753
 20
400.644225
 30
0.0
 11
1.75
 21
0.0
 31
0.0
210
0.0
220
0.0
230
-1.0
 40
0.57735
 41
5.96902604182061
 42
9.1106186954104
  0
ELLIPSE
  5
196
330
173
100
AcDbEntity
  8
0
  6
Continuous
 62
     0
370
    30
100
AcDbEllipse
 10
813.631153
 20
392.437317
 30
0.0
 11
1.75
 21
0.0
 31
0.0
210
0.0
220
0.0
230
-1.0
 40
0.57735
 41
3.14159265358979
 42
6.283185307179586
  0
ELLIPSE
  5
197
330
173
100
AcDbEntity
  8
0
  6
Continuous
 62
     0
370
    30
100
AcDbEllipse
 10
813.631153
 20
392.437317
 30
0.0
 11
1.75
 21
0.0
 31
0.0
210
0.0
220
0.0
230
-1.0
 40
0.57735
 41
0.0000000000000029
 42
3.14159265358979
  0
ELLIPSE
  5
198
330
173
100
AcDbEntity
  8
0
  6
Continuous
 62
     0
370
    30
100
AcDbEllipse
 10
811.379753
 20
384.230409
 30
0.0
 11
1.75
 21
0.0
 31
0.0
210
0.0
220
0.0
230
-1.0
 40
0.57735
 41
3.455751918948767
 42
6.597344572538557
  0
ELLIPSE
  5
199
330
173
100
AcDbEntity
  8
0
  6
Continuous
 62
     0
370
    30
100
AcDbEllipse
 10
811.379753
 20
384.230409
 30
0.0
 11
1.75
 21
0.0
 31
0.0
210
0.0
220
0.0
230
-1.0
 40
0.57735
 41
0.3141592653589795
 42
3.455751918948767
  0
ELLIPSE
  5
19A
330
173
100
AcDbEntity
  8
0
  6
Continuous
 62
     0
370
    30
100
AcDbEllipse
 10
804.845935
 20
376.82685
 30
0.0
 11
1.75
 21
0.0
 31
0.0
210
0.0
220
0.0
230
-1.0
 40
0.57735
 41
3.769911184307744
 42
6.911503837897545
  0
ELLIPSE
  5
19B
330
173
100
AcDbEntity
  8
0
  6
Continuous
 62
     0
370
    30
100
AcDbEllipse
 10
804.845935
 20
376.82685
 30
0.0
 11
1.75
 21
0.0
 31
0.0
210
0.0
220
0.0
230
-1.0
 40
0.57735
 41
0.6283185307179673
 42
3.769911184307744
  0
ELLIPSE
  5
19C
330
173
100
AcDbEntity
  8
0
  6
Continuous
 62
     0
370
    30
100
AcDbEllipse
 10
794.669275
 20
370.951353
 30
0.0
 11
1.75
 21
0.0
 31
0.0
210
0.0
220
0.0
230
-1.0
 40
0.57735
 41
4.08407044966674
 42
7.225663103256524
  0
ELLIPSE
  5
19D
330
173
100
AcDbEntity
  8
0
  6
Continuous
 62
     0
370
    30
100
AcDbEllipse
 10
794.669275
 20
370.951353
 30
0.0
 11
1.75
 21
0.0
 31
0.0
210
0.0
220
0.0
230
-1.0
 40
0.57735
 41
0.9424777960769376
 42
4.08407044966674
  0
ELLIPSE
  5
19E
330
173
100
AcDbEntity
  8
0
  6
Continuous
 62
     0
370
    30
100
AcDbEllipse
 10
781.845935
 20
367.179051
 30
0.0
 11
1.75
 21
0.0
 31
0.0
210
0.0
220
0.0
230
-1.0
 40
0.57735
 41
4.398229715025707
 42
7.539822368615489
  0
ELLIPSE
  5
19F
330
173
100
AcDbEntity
  8
0
  6
Continuous
 62
     0
370
    30
100
AcDbEllipse
 10
781.845935
 20
367.179051
 30
0.0
 11
1.75
 21
0.0
 31
0.0
210
0.0
220
0.0
230
-1.0
 40
0.57735
 41
1.256637061435914
 42
4.398229715025707
  0
ELLIPSE
  5
1A0
330
173
100
AcDbEntity
  8
0
  6
Continuous
 62
     0
370
    30
100
AcDbEllipse
 10
767.631153
 20
365.879205
 30
0.0
 11
1.75
 21
0.0
 31
0.0
210
0.0
220
0.0
230
-1.0
 40
0.57735
 41
4.712388980384695
 42
7.853981633974469
  0
ELLIPSE
  5
1A1
330
173
100
AcDbEntity
  8
0
  6
Continuous
 62
     0
370
    30
100
AcDbEllipse
 10
767.631153
 20
365.879205
 30
0.0
 11
1.75
 21
0.0
 31
0.0
210
0.0
220
0.0
230
-1.0
 40
0.57735
 41
1.570796326794894
 42
4.712388980384695
  0
ELLIPSE
  5
1A2
330
173
100
AcDbEntity
  8
0
  6
Continuous
 62
     0
370
    30
100
AcDbEllipse
 10
753.416371
 20
367.179051
 30
0.0
 11
1.75
 21
0.0
 31
0.0
210
0.0
220
0.0
230
-1.0
 40
0.57735
 41
5.026548245743667
 42
8.168140899333455
  0
ELLIPSE
  5
1A3
330
173
100
AcDbEntity
  8
0
  6
Continuous
 62
     0
370
    30
100
AcDbEllipse
 10
753.416371
 20
367.179051
 30
0.0
 11
1.75
 21
0.0
 31
0.0
210
0.0
220
0.0
230
-1.0
 40
0.57735
 41
1.884955592153872
 42
5.026548245743667
  0
ELLIPSE
  5
1A4
330
173
100
AcDbEntity
  8
0
  6
Continuous
 62
     0
370
    30
100
AcDbEllipse
 10
740.593031
 20
370.951353
 30
0.0
 11
1.75
 21
0.0
 31
0.0
210
0.0
220
0.0
230
-1.0
 40
0.57735
 41
5.340707511102648
 42
8.48230016469244
  0
ELLIPSE
  5
1A5
330
173
100
AcDbEntity
  8
0
  6
Continuous
 62
     0
370
    30
100
AcDbEllipse
 10
740.593031
 20
370.951353
 30
0.0
 11
1.75
 21
0.0
 31
0.0
210
0.0
220
0.0
230
-1.0
 40
0.57735
 41
2.199114857512854
 42
5.340707511102648
  0
ELLIPSE
  5
1A6
330
173
100
AcDbEntity
  8
0
  6
Continuous
 62
     0
370
    30
100
AcDbEllipse
 10
730.416371
 20
376.82685
 30
0.0
 11
1.75
 21
0.0
 31
0.0
210
0.0
220
0.0
230
-1.0
 40
0.57735
 41
5.654866776461628
 42
8.79645943005142
  0
ELLIPSE
  5
1A7
330
173
100
AcDbEntity
  8
0
  6
Continuous
 62
     0
370
    30
100
AcDbEllipse
 10
730.416371
 20
376.82685
 30
0.0
 11
1.75
 21
0.0
 31
0.0
210
0.0
220
0.0
230
-1.0
 40
0.57735
 41
2.513274122871838
 42
5.654866776461628
  0
ELLIPSE
  5
1A8
330
173
100
AcDbEntity
  8
0
  6
Continuous
 62
     0
370
    30
100
AcDbEllipse
 10
723.882553
 20
384.230409
 30
0.0
 11
1.75
 21
0.0
 31
0.0
210
0.0
220
0.0
230
-1.0
 40
0.57735
 41
5.96902604182061
 42
9.110618695410398
  0
ELLIPSE
  5
1A9
330
173
100
AcDbEntity
  8
0
  6
Continuous
 62
     0
370
    30
100
AcDbEllipse
 10
723.882553
 20
384.230409
 30
0.0
 11
1.75
 21
0.0
 31
0.0
210
0.0
220
0.0
230
-1.0
 40
0.57735
 41
2.827433388230828
 42
5.96902604182061
  0
ELLIPSE
  5
1AA
330
173
100
AcDbEntity
  8
0
  6
Continuous
 62
     0
370
    30
100
AcDbEllipse
 10
721.631153
 20
392.437317
 30
0.0
 11
1.75
 21
0.0
 31
0.0
210
0.0
220
0.0
230
-1.0
 40
0.57735
 41
0.0000000000000144
 42
3.141592653589793
  0
ELLIPSE
  5
1AB
330
173
100
AcDbEntity
  8
0
  6
Continuous
 62
     0
370
    30
100
AcDbEllipse
 10
721.631153
 20
392.437317
 30
0.0
 11
1.75
 21
0.0
 31
0.0
210
0.0
220
0.0
230
-1.0
 40
0.57735
 41
3.141592653589805
 42
6.2831853071796
  0
ELLIPSE
  5
1AC
330
173
100
AcDbEntity
  8
0
  6
Continuous
 62
     0
370
    30
100
AcDbEllipse
 10
723.882553
 20
400.644225
 30
0.0
 11
1.75
 21
0.0
 31
0.0
210
0.0
220
0.0
230
-1.0
 40
0.57735
 41
0.3141592653589786
 42
3.455751918948773
  0
ELLIPSE
  5
1AD
330
173
100
AcDbEntity
  8
0
  6
Continuous
 62
     0
370
    30
100
AcDbEllipse
 10
723.882553
 20
400.644225
 30
0.0
 11
1.75
 21
0.0
 31
0.0
210
0.0
220
0.0
230
-1.0
 40
0.57735
 41
3.455751918948782
 42
6.597344572538566
  0
ELLIPSE
  5
1AE
330
173
100
AcDbEntity
  8
0
  6
Continuous
 62
     0
370
    30
100
AcDbEllipse
 10
730.416371
 20
408.047784
 30
0.0
 11
1.75
 21
0.0
 31
0.0
210
0.0
220
0.0
230
-1.0
 40
0.57735
 41
0.6283185307179691
 42
3.769911184307752
  0
ELLIPSE
  5
1AF
330
173
100
AcDbEntity
  8
0
  6
Continuous
 62
     0
370
    30
100
AcDbEllipse
 10
730.416371
 20
408.047784
 30
0.0
 11
1.75
 21
0.0
 31
0.0
210
0.0
220
0.0
230
-1.0
 40
0.57735
 41
3.769911184307762
 42
6.911503837897556
  0
ELLIPSE
  5
1B0
330
173
100
AcDbEntity
  8
0
  6
Continuous
 62
     0
370
    30
100
AcDbEllipse
 10
740.593031
 20
413.923281
 30
0.0
 11
1.75
 21
0.0
 31
0.0
210
0.0
220
0.0
230
-1.0
 40
0.57735
 41
0.9424777960769312
 42
4.084070449666727
  0
ELLIPSE
  5
1B1
330
173
100
AcDbEntity
  8
0
  6
Continuous
 62
     0
370
    30
100
AcDbEllipse
 10
740.593031
 20
413.923281
 30
0.0
 11
1.75
 21
0.0
 31
0.0
210
0.0
220
0.0
230
-1.0
 40
0.57735
 41
4.084070449666746
 42
7.225663103256517
  0
ELLIPSE
  5
1B2
330
173
100
AcDbEntity
  8
0
  6
Continuous
 62
     0
370
    30
100
AcDbEllipse
 10
753.416371
 20
417.695583
 30
0.0
 11
1.75
 21
0.0
 31
0.0
210
0.0
220
0.0
230
-1.0
 40
0.57735
 41
1.256637061435914
 42
4.398229715025709
  0
ELLIPSE
  5
1B3
330
173
100
AcDbEntity
  8
0
  6
Continuous
 62
     0
370
    30
100
AcDbEllipse
 10
753.416371
 20
417.695583
 30
0.0
 11
1.75
 21
0.0
 31
0.0
210
0.0
220
0.0
230
-1.0
 40
0.57735
 41
4.398229715025729
 42
7.539822368615501
  0
ELLIPSE
  5
1B4
330
173
100
AcDbEntity
  8
0
  6
Continuous
 62
     0
370
    30
100
AcDbEllipse
 10
767.631153
 20
418.995429
 30
0.0
 11
1.75
 21
0.0
 31
0.0
210
0.0
220
0.0
230
-1.0
 40
0.57735
 41
1.570796326794894
 42
4.712388980384684
  0
ELLIPSE
  5
1B5
330
173
100
AcDbEntity
  8
0
  6
Continuous
 62
     0
370
    30
100
AcDbEllipse
 10
767.631153
 20
418.995429
 30
0.0
 11
1.75
 21
0.0
 31
0.0
210
0.0
220
0.0
230
-1.0
 40
0.57735
 41
4.712388980384701
 42
7.85398163397448
  0
ELLIPSE
  5
1B6
330
173
100
AcDbEntity
  8
0
  6
Continuous
 62
     0
370
    30
100
AcDbEllipse
 10
781.845935
 20
417.695583
 30
0.0
 11
1.75
 21
0.0
 31
0.0
210
0.0
220
0.0
230
-1.0
 40
0.57735
 41
1.884955592153875
 42
5.026548245743669
  0
ELLIPSE
  5
1B7
330
173
100
AcDbEntity
  8
0
  6
Continuous
 62
     0
370
    30
100
AcDbEllipse
 10
781.845935
 20
417.695583
 30
0.0
 11
1.75
 21
0.0
 31
0.0
210
0.0
220
0.0
230
-1.0
 40
0.57735
 41
5.026548245743671
 42
8.168140899333462
  0
ELLIPSE
  5
1B8
330
173
100
AcDbEntity
  8
0
  6
Continuous
 62
     0
370
    30
100
AcDbEllipse
 10
804.073839
 20
421.39666
 30
0.0
 11
1.75
 21
0.0
 31
0.0
210
0.0
220
0.0
230
-1.0
 40
0.57735
 41
2.199114857512855
 42
5.340707511102647
  0
ELLIPSE
  5
1B9
330
173
100
AcDbEntity
  8
0
  6
Continuous
 62
     0
370
    30
100
AcDbEllipse
 10
804.073839
 20
421.39666
 30
0.0
 11
1.75
 21
0.0
 31
0.0
210
0.0
220
0.0
230
-1.0
 40
0.57735
 41
5.34070751110265
 42
8.482300164692441
  0
ELLIPSE
  5
1BA
330
173
100
AcDbEntity
  8
0
  6
Continuous
 62
     0
370
    30
100
AcDbEllipse
 10
786.790207
 20
426.481067
 30
0.0
 11
1.75
 21
0.0
 31
0.0
210
0.0
220
0.0
230
-1.0
 40
0.57735
 41
1.884955592153877
 42
5.026548245743669
  0
ELLIPSE
  5
1BB
330
173
100
AcDbEntity
  8
0
  6
Continuous
 62
     0
370
    30
100
AcDbEllipse
 10
786.790207
 20
426.481067
 30
0.0
 11
1.75
 21
0.0
 31
0.0
210
0.0
220
0.0
230
-1.0
 40
0.57735
 41
5.026548245743673
 42
8.168140899333464
  0
ELLIPSE
  5
1BC
330
173
100
AcDbEntity
  8
0
  6
Continuous
 62
     0
370
    30
100
AcDbEllipse
 10
767.631153
 20
428.233034
 30
0.0
 11
1.75
 21
0.0
 31
0.0
210
0.0
220
0.0
230
-1.0
 40
0.57735
 41
1.570796326794894
 42
4.71238898038469
  0
ELLIPSE
  5
1BD
330
173
100
AcDbEntity
  8
0
  6
Continuous
 62
     0
370
    30
100
AcDbEllipse
 10
767.631153
 20
428.233034
 30
0.0
 11
1.75
 21
0.0
 31
0.0
210
0.0
220
0.0
230
-1.0
 40
0.57735
 41
4.712388980384692
 42
7.85398163397448
  0
ELLIPSE
  5
1BE
330
173
100
AcDbEntity
  8
0
  6
Continuous
 62
     0
370
    30
100
AcDbEllipse
 10
748.472099
 20
426.481067
 30
0.0
 11
1.75
 21
0.0
 31
0.0
210
0.0
220
0.0
230
-1.0
 40
0.57735
 41
1.256637061435917
 42
4.398229715025709
  0
ELLIPSE
  5
1BF
330
173
100
AcDbEntity
  8
0
  6
Continuous
 62
     0
370
    30
100
AcDbEllipse
 10
748.472099
 20
426.481067
 30
0.0
 11
1.75
 21
0.0
 31
0.0
210
0.0
220
0.0
230
-1.0
 40
0.57735
 41
4.398229715025718
 42
7.539822368615503
  0
ELLIPSE
  5
1C0
330
173
100
AcDbEntity
  8
0
  6
Continuous
 62
     0
370
    30
100
AcDbEllipse
 10
731.188467
 20
421.39666
 30
0.0
 11
1.75
 21
0.0
 31
0.0
210
0.0
220
0.0
230
-1.0
 40
0.57735
 41
0.9424777960769314
 42
4.084070449666727
  0
ELLIPSE
  5
1C1
330
173
100
AcDbEntity
  8
0
  6
Continuous
 62
     0
370
    30
100
AcDbEllipse
 10
731.188467
 20
421.39666
 30
0.0
 11
1.75
 21
0.0
 31
0.0
210
0.0
220
0.0
230
-1.0
 40
0.57735
 41
4.084070449666747
 42
7.225663103256517
  0
ELLIPSE
  5
1C2
330
173
100
AcDbEntity
  8
0
  6
Continuous
 62
     0
370
    30
100
AcDbEllipse
 10
717.472099
 20
413.477511
 30
0.0
 11
1.75
 21
0.0
 31
0.0
210
0.0
220
0.0
230
-1.0
 40
0.57735
 41
0.6283185307179645
 42
3.76991118430775
  0
ELLIPSE
  5
1C3
330
173
100
AcDbEntity
  8
0
  6
Continuous
 62
     0
370
    30
100
AcDbEllipse
 10
717.472099
 20
413.477511
 30
0.0
 11
1.75
 21
0.0
 31
0.0
210
0.0
220
0.0
230
-1.0
 40
0.57735
 41
3.76991118430775
 42
6.91150383789755
  0
ELLIPSE
  5
1C4
330
173
100
AcDbEntity
  8
0
  6
Continuous
 62
     0
370
    30
100
AcDbEllipse
 10
708.665649
 20
403.498802
 30
0.0
 11
1.75
 21
0.0
 31
0.0
210
0.0
220
0.0
230
-1.0
 40
0.57735
 41
0.3141592653589918
 42
3.455751918948768
  0
ELLIPSE
  5
1C5
330
173
100
AcDbEntity
  8
0
  6
Continuous
 62
     0
370
    30
100
AcDbEllipse
 10
708.665649
 20
403.498802
 30
0.0
 11
1.75
 21
0.0
 31
0.0
210
0.0
220
0.0
230
-1.0
 40
0.57735
 41
3.45575191894878
 42
6.597344572538578
  0
ELLIPSE
  5
1C6
330
173
100
AcDbEntity
  8
0
  6
Continuous
 62
     0
370
    30
100
AcDbEllipse
 10
705.631153
 20
392.437317
 30
0.0
 11
1.75
 21
0.0
 31
0.0
210
0.0
220
0.0
230
-1.0
 40
0.57735
 41
-0.0000000000000089
 42
3.141592653589799
  0
ELLIPSE
  5
1C7
330
173
100
AcDbEntity
  8
0
  6
Continuous
 62
     0
370
    30
100
AcDbEllipse
 10
705.631153
 20
392.437317
 30
0.0
 11
1.75
 21
0.0
 31
0.0
210
0.0
220
0.0
230
-1.0
 40
0.57735
 41
3.141592653589796
 42
6.283185307179577
  0
ELLIPSE
  5
1C8
330
173
100
AcDbEntity
  8
0
  6
Continuous
 62
     0
370
    30
100
AcDbEllipse
 10
708.665649
 20
381.375832
 30
0.0
 11
1.75
 21
0.0
 31
0.0
210
0.0
220
0.0
230
-1.0
 40
0.57735
 41
5.969026041820605
 42
9.110618695410402
  0
ELLIPSE
  5
1C9
330
173
100
AcDbEntity
  8
0
  6
Continuous
 62
     0
370
    30
100
AcDbEllipse
 10
708.665649
 20
381.375832
 30
0.0
 11
1.75
 21
0.0
 31
0.0
210
0.0
220
0.0
230
-1.0
 40
0.57735
 41
2.82743338823083
 42
5.969026041820605
  0
ELLIPSE
  5
1CA
330
173
100
AcDbEntity
  8
0
  6
Continuous
 62
     0
370
    30
100
AcDbEllipse
 10
717.472099
 20
371.397123
 30
0.0
 11
1.75
 21
0.0
 31
0.0
210
0.0
220
0.0
230
-1.0
 40
0.57735
 41
5.654866776461621
 42
8.79645943005142
  0
ELLIPSE
  5
1CB
330
173
100
AcDbEntity
  8
0
  6
Continuous
 62
     0
370
    30
100
AcDbEllipse
 10
717.472099
 20
371.397123
 30
0.0
 11
1.75
 21
0.0
 31
0.0
210
0.0
220
0.0
230
-1.0
 40
0.57735
 41
2.513274122871838
 42
5.654866776461621
  0
ELLIPSE
  5
1CC
330
173
100
AcDbEntity
  8
0
  6
Continuous
 62
     0
370
    30
100
AcDbEllipse
 10
731.188467
 20
363.477974
 30
0.0
 11
1.75
 21
0.0
 31
0.0
210
0.0
220
0.0
230
-1.0
 40
0.57735
 41
5.340707511102654
 42
8.482300164692443
  0
ELLIPSE
  5
1CD
330
173
100
AcDbEntity
  8
0
  6
Continuous
 62
     0
370
    30
100
AcDbEllipse
 10
731.188467
 20
363.477974
 30
0.0
 11
1.75
 21
0.0
 31
0.0
210
0.0
220
0.0
230
-1.0
 40
0.57735
 41
2.199114857512857
 42
5.340707511102654
  0
ELLIPSE
  5
1CE
330
173
100
AcDbEntity
  8
0
  6
Continuous
 62
     0
370
    30
100
AcDbEllipse
 10
748.472099
 20
358.393567
 30
0.0
 11
1.75
 21
0.0
 31
0.0
210
0.0
220
0.0
230
-1.0
 40
0.57735
 41
5.026548245743676
 42
8.168140899333451
  0
ELLIPSE
  5
1CF
330
173
100
AcDbEntity
  8
0
  6
Continuous
 62
     0
370
    30
100
AcDbEllipse
 10
748.472099
 20
358.393567
 30
0.0
 11
1.75
 21
0.0
 31
0.0
210
0.0
220
0.0
230
-1.0
 40
0.57735
 41
1.88495559215388
 42
5.026548245743676
  0
ELLIPSE
  5
1D0
330
173
100
AcDbEntity
  8
0
  6
Continuous
 62
     0
370
    30
100
AcDbEllipse
 10
767.631153
 20
356.6416
 30
0.0
 11
1.75
 21
0.0
 31
0.0
210
0.0
220
0.0
230
-1.0
 40
0.57735
 41
4.712388980384681
 42
7.853981633974469
  0
ELLIPSE
  5
1D1
330
173
100
AcDbEntity
  8
0
  6
Continuous
 62
     0
370
    30
100
AcDbEllipse
 10
767.631153
 20
356.6416
 30
0.0
 11
1.75
 21
0.0
 31
0.0
210
0.0
220
0.0
230
-1.0
 40
0.57735
 41
1.570796326794894
 42
4.712388980384681
  0
ELLIPSE
  5
1D2
330
173
100
AcDbEntity
  8
0
  6
Continuous
 62
     0
370
    30
100
AcDbEllipse
 10
786.790207
 20
358.393567
 30
0.0
 11
1.75
 21
0.0
 31
0.0
210
0.0
220
0.0
230
-1.0
 40
0.57735
 41
4.398229715025698
 42
7.5398223686155
  0
ELLIPSE
  5
1D3
330
173
100
AcDbEntity
  8
0
  6
Continuous
 62
     0
370
    30
100
AcDbEllipse
 10
786.790207
 20
358.393567
 30
0.0
 11
1.75
 21
0.0
 31
0.0
210
0.0
220
0.0
230
-1.0
 40
0.57735
 41
1.256637061435921
 42
4.398229715025698
  0
ELLIPSE
  5
1D4
330
173
100
AcDbEntity
  8
0
  6
Continuous
 62
     0
370
    30
100
AcDbEllipse
 10
804.073839
 20
363.477974
 30
0.0
 11
1.75
 21
0.0
 31
0.0
210
0.0
220
0.0
230
-1.0
 40
0.57735
 41
4.084070449666722
 42
7.225663103256524
  0
ELLIPSE
  5
1D5
330
173
100
AcDbEntity
  8
0
  6
Continuous
 62
     0
370
    30
100
AcDbEllipse
 10
804.073839
 20
363.477974
 30
0.0
 11
1.75
 21
0.0
 31
0.0
210
0.0
220
0.0
230
-1.0
 40
0.57735
 41
0.9424777960769382
 42
4.084070449666722
  0
ELLIPSE
  5
1D6
330
173
100
AcDbEntity
  8
0
  6
Continuous
 62
     0
370
    30
100
AcDbEllipse
 10
817.790207
 20
371.397123
 30
0.0
 11
1.75
 21
0.0
 31
0.0
210
0.0
220
0.0
230
-1.0
 40
0.57735
 41
3.769911184307752
 42
6.911503837897545
  0
ELLIPSE
  5
1D7
330
173
100
AcDbEntity
  8
0
  6
Continuous
 62
     0
370
    30
100
AcDbEllipse
 10
817.790207
 20
371.397123
 30
0.0
 11
1.75
 21
0.0
 31
0.0
210
0.0
220
0.0
230
-1.0
 40
0.57735
 41
0.6283185307179673
 42
3.769911184307753
  0
ELLIPSE
  5
1D8
330
173
100
AcDbEntity
  8
0
  6
Continuous
 62
     0
370
    30
100
AcDbEllipse
 10
826.596657
 20
381.375832
 30
0.0
 11
1.75
 21
0.0
 31
0.0
210
0.0
220
0.0
230
-1.0
 40
0.57735
 41
3.455751918948776
 42
6.597344572538566
  0
ELLIPSE
  5
1D9
330
173
100
AcDbEntity
  8
0
  6
Continuous
 62
     0
370
    30
100
AcDbEllipse
 10
826.596657
 20
381.375832
 30
0.0
 11
1.75
 21
0.0
 31
0.0
210
0.0
220
0.0
230
-1.0
 40
0.57735
 41
0.3141592653589795
 42
3.455751918948776
  0
ELLIPSE
  5
1DA
330
173
100
AcDbEntity
  8
0
  6
Continuous
 62
     0
370
    30
100
AcDbEllipse
 10
829.631153
 20
392.437317
 30
0.0
 11
1.75
 21
0.0
 31
0.0
210
0.0
220
0.0
230
-1.0
 40
0.57735
 41
3.141592653589796
 42
6.283185307179588
  0
ELLIPSE
  5
1DB
330
173
100
AcDbEntity
  8
0
  6
Continuous
 62
     0
370
    30
100
AcDbEllipse
 10
829.631153
 20
392.437317
 30
0.0
 11
1.75
 21
0.0
 31
0.0
210
0.0
220
0.0
230
-1.0
 40
0.57735
 41
0.0000000000000029
 42
3.141592653589796
  0
ELLIPSE
  5
1DC
330
173
100
AcDbEntity
  8
0
  6
Continuous
 62
     0
370
    30
100
AcDbEllipse
 10
826.596657
 20
403.498802
 30
0.0
 11
1.75
 21
0.0
 31
0.0
210
0.0
220
0.0
230
-1.0
 40
0.57735
 41
2.827433388230812
 42
5.969026041820605
  0
ELLIPSE
  5
1DD
330
173
100
AcDbEntity
  8
0
  6
Continuous
 62
     0
370
    30
100
AcDbEllipse
 10
826.596657
 20
403.498802
 30
0.0
 11
1.75
 21
0.0
 31
0.0
210
0.0
220
0.0
230
-1.0
 40
0.57735
 41
5.969026041820607
 42
9.110618695410398
  0
ELLIPSE
  5
1DE
330
173
100
AcDbEntity
  8
0
  6
Continuous
 62
     0
370
    30
100
AcDbEllipse
 10
817.790207
 20
413.477511
 30
0.0
 11
1.75
 21
0.0
 31
0.0
210
0.0
220
0.0
230
-1.0
 40
0.57735
 41
2.513274122871835
 42
5.654866776461625
  0
ELLIPSE
  5
1DF
330
173
100
AcDbEntity
  8
0
  6
Continuous
 62
     0
370
    30
100
AcDbEllipse
 10
817.790207
 20
413.477511
 30
0.0
 11
1.75
 21
0.0
 31
0.0
210
0.0
220
0.0
230
-1.0
 40
0.57735
 41
5.654866776461628
 42
8.79645943005142
  0
ELLIPSE
  5
1E0
330
173
100
AcDbEntity
  8
0
  6
Continuous
 62
     0
370
    30
100
AcDbEllipse
 10
891.330728
 20
467.687146
 30
0.0
 11
1.75
 21
0.0
 31
0.0
210
0.0
220
0.0
230
-1.0
 40
0.57735
 41
2.199114857512851
 42
5.340707511102647
  0
ELLIPSE
  5
1E1
330
173
100
AcDbEntity
  8
0
  6
Continuous
 62
     0
370
    30
100
AcDbEllipse
 10
891.330728
 20
467.687146
 30
0.0
 11
1.75
 21
0.0
 31
0.0
210
0.0
220
0.0
230
-1.0
 40
0.57735
 41
5.340707511102647
 42
8.482300164692438
  0
ELLIPSE
  5
1E2
330
173
100
AcDbEntity
  8
0
  6
Continuous
 62
     0
370
    30
100
AcDbEllipse
 10
873.69717
 20
470.995069
 30
0.0
 11
1.75
 21
0.0
 31
0.0
210
0.0
220
0.0
230
-1.0
 40
0.57735
 41
1.570796326794882
 42
4.712388980384687
  0
ELLIPSE
  5
1E3
330
173
100
AcDbEntity
  8
0
  6
Continuous
 62
     0
370
    30
100
AcDbEllipse
 10
873.69717
 20
470.995069
 30
0.0
 11
1.75
 21
0.0
 31
0.0
210
0.0
220
0.0
230
-1.0
 40
0.57735
 41
4.712388980384688
 42
7.853981633974469
  0
ELLIPSE
  5
1E4
330
173
100
AcDbEntity
  8
0
  6
Continuous
 62
     0
370
    30
100
AcDbEllipse
 10
856.063613
 20
467.687146
 30
0.0
 11
1.75
 21
0.0
 31
0.0
210
0.0
220
0.0
230
-1.0
 40
0.57735
 41
0.9424777960769296
 42
4.084070449666722
  0
ELLIPSE
  5
1E5
330
173
100
AcDbEntity
  8
0
  6
Continuous
 62
     0
370
    30
100
AcDbEllipse
 10
856.063613
 20
467.687146
 30
0.0
 11
1.75
 21
0.0
 31
0.0
210
0.0
220
0.0
230
-1.0
 40
0.57735
 41
4.084070449666731
 42
7.225663103256515
  0
ELLIPSE
  5
1E6
330
173
100
AcDbEntity
  8
0
  6
Continuous
 62
     0
370
    30
100
AcDbEllipse
 10
845.165475
 20
459.026892
 30
0.0
 11
1.75
 21
0.0
 31
0.0
210
0.0
220
0.0
230
-1.0
 40
0.57735
 41
0.314159265358984
 42
3.455751918948764
  0
ELLIPSE
  5
1E7
330
173
100
AcDbEntity
  8
0
  6
Continuous
 62
     0
370
    30
100
AcDbEllipse
 10
845.165475
 20
459.026892
 30
0.0
 11
1.75
 21
0.0
 31
0.0
210
0.0
220
0.0
230
-1.0
 40
0.57735
 41
3.455751918948772
 42
6.597344572538571
  0
ELLIPSE
  5
1E8
330
173
100
AcDbEntity
  8
0
  6
Continuous
 62
     0
370
    30
100
AcDbEllipse
 10
845.165475
 20
448.322229
 30
0.0
 11
1.75
 21
0.0
 31
0.0
210
0.0
220
0.0
230
-1.0
 40
0.57735
 41
5.969026041820609
 42
9.110618695410398
  0
ELLIPSE
  5
1E9
330
173
100
AcDbEntity
  8
0
  6
Continuous
 62
     0
370
    30
100
AcDbEllipse
 10
845.165475
 20
448.322229
 30
0.0
 11
1.75
 21
0.0
 31
0.0
210
0.0
220
0.0
230
-1.0
 40
0.57735
 41
2.827433388230814
 42
5.969026041820609
  0
ELLIPSE
  5
1EA
330
173
100
AcDbEntity
  8
0
  6
Continuous
 62
     0
370
    30
100
AcDbEllipse
 10
856.063613
 20
439.661975
 30
0.0
 11
1.75
 21
0.0
 31
0.0
210
0.0
220
0.0
230
-1.0
 40
0.57735
 41
5.340707511102647
 42
8.482300164692441
  0
ELLIPSE
  5
1EB
330
173
100
AcDbEntity
  8
0
  6
Continuous
 62
     0
370
    30
100
AcDbEllipse
 10
856.063613
 20
439.661975
 30
0.0
 11
1.75
 21
0.0
 31
0.0
210
0.0
220
0.0
230
-1.0
 40
0.57735
 41
2.199114857512857
 42
5.340707511102647
  0
ELLIPSE
  5
1EC
330
173
100
AcDbEntity
  8
0
  6
Continuous
 62
     0
370
    30
100
AcDbEllipse
 10
873.69717
 20
436.354052
 30
0.0
 11
1.75
 21
0.0
 31
0.0
210
0.0
220
0.0
230
-1.0
 40
0.57735
 41
4.712388980384684
 42
7.853981633974485
  0
ELLIPSE
  5
1ED
330
173
100
AcDbEntity
  8
0
  6
Continuous
 62
     0
370
    30
100
AcDbEllipse
 10
873.69717
 20
436.354052
 30
0.0
 11
1.75
 21
0.0
 31
0.0
210
0.0
220
0.0
230
-1.0
 40
0.57735
 41
1.570796326794905
 42
4.712388980384684
  0
ELLIPSE
  5
1EE
330
173
100
AcDbEntity
  8
0
  6
Continuous
 62
     0
370
    30
100
AcDbEllipse
 10
891.330728
 20
439.661975
 30
0.0
 11
1.75
 21
0.0
 31
0.0
210
0.0
220
0.0
230
-1.0
 40
0.57735
 41
4.084070449666717
 42
7.225663103256523
  0
ELLIPSE
  5
1EF
330
173
100
AcDbEntity
  8
0
  6
Continuous
 62
     0
370
    30
100
AcDbEllipse
 10
891.330728
 20
439.661975
 30
0.0
 11
1.75
 21
0.0
 31
0.0
210
0.0
220
0.0
230
-1.0
 40
0.57735
 41
0.9424777960769526
 42
4.084070449666717
  0
ELLIPSE
  5
1F0
330
173
100
AcDbEntity
  8
0
  6
Continuous
 62
     0
370
    30
100
AcDbEllipse
 10
902.228866
 20
448.322229
 30
0.0
 11
1.75
 21
0.0
 31
0.0
210
0.0
220
0.0
230
-1.0
 40
0.57735
 41
3.455751918948769
 42
6.597344572538562
  0
ELLIPSE
  5
1F1
330
173
100
AcDbEntity
  8
0
  6
Continuous
 62
     0
370
    30
100
AcDbEllipse
 10
902.228866
 20
448.322229
 30
0.0
 11
1.75
 21
0.0
 31
0.0
210
0.0
220
0.0
230
-1.0
 40
0.57735
 41
0.3141592653589859
 42
3.455751918948769
  0
ELLIPSE
  5
1F2
330
173
100
AcDbEntity
  8
0
  6
Continuous
 62
     0
370
    30
100
AcDbEllipse
 10
902.228866
 20
459.026892
 30
0.0
 11
1.75
 21
0.0
 31
0.0
210
0.0
220
0.0
230
-1.0
 40
0.57735
 41
2.827433388230806
 42
5.96902604182061
  0
ELLIPSE
  5
1F3
330
173
100
AcDbEntity
  8
0
  6
Continuous
 62
     0
370
    30
100
AcDbEllipse
 10
902.228866
 20
459.026892
 30
0.0
 11
1.75
 21
0.0
 31
0.0
210
0.0
220
0.0
230
-1.0
 40
0.57735
 41
5.969026041820614
 42
9.110618695410393
  0
ELLIPSE
  5
1F4
330
173
100
AcDbEntity
  8
0
  6
Continuous
 62
     0
370
    30
100
AcDbEllipse
 10
900.735292
 20
475.160525
 30
0.0
 11
1.75
 21
0.0
 31
0.0
210
0.0
220
0.0
230
-1.0
 40
0.57735
 41
2.199114857512854
 42
5.340707511102648
  0
ELLIPSE
  5
1F5
330
173
100
AcDbEntity
  8
0
  6
Continuous
 62
     0
370
    30
100
AcDbEllipse
 10
900.735292
 20
475.160525
 30
0.0
 11
1.75
 21
0.0
 31
0.0
210
0.0
220
0.0
230
-1.0
 40
0.57735
 41
5.340707511102648
 42
8.48230016469244
  0
ELLIPSE
  5
1F6
330
173
100
AcDbEntity
  8
0
  6
Continuous
 62
     0
370
    30
100
AcDbEllipse
 10
887.911952
 20
478.932826
 30
0.0
 11
1.75
 21
0.0
 31
0.0
210
0.0
220
0.0
230
-1.0
 40
0.57735
 41
1.884955592153865
 42
5.026548245743662
  0
ELLIPSE
  5
1F7
330
173
100
AcDbEntity
  8
0
  6
Continuous
 62
     0
370
    30
100
AcDbEllipse
 10
887.911952
 20
478.932826
 30
0.0
 11
1.75
 21
0.0
 31
0.0
210
0.0
220
0.0
230
-1.0
 40
0.57735
 41
5.026548245743669
 42
8.168140899333451
  0
ELLIPSE
  5
1F8
330
173
100
AcDbEntity
  8
0
  6
Continuous
 62
     0
370
    30
100
AcDbEllipse
 10
873.69717
 20
480.232673
 30
0.0
 11
1.75
 21
0.0
 31
0.0
210
0.0
220
0.0
230
-1.0
 40
0.57735
 41
1.570796326794902
 42
4.712388980384672
  0
ELLIPSE
  5
1F9
330
173
100
AcDbEntity
  8
0
  6
Continuous
 62
     0
370
    30
100
AcDbEllipse
 10
873.69717
 20
480.232673
 30
0.0
 11
1.75
 21
0.0
 31
0.0
210
0.0
220
0.0
230
-1.0
 40
0.57735
 41
4.712388980384687
 42
7.853981633974488
  0
ELLIPSE
  5
1FA
330
173
100
AcDbEntity
  8
0
  6
Continuous
 62
     0
370
    30
100
AcDbEllipse
 10
859.482389
 20
478.932826
 30
0.0
 11
1.75
 21
0.0
 31
0.0
210
0.0
220
0.0
230
-1.0
 40
0.57735
 41
1.256637061435914
 42
4.398229715025707
  0
ELLIPSE
  5
1FB
330
173
100
AcDbEntity
  8
0
  6
Continuous
 62
     0
370
    30
100
AcDbEllipse
 10
859.482389
 20
478.932826
 30
0.0
 11
1.75
 21
0.0
 31
0.0
210
0.0
220
0.0
230
-1.0
 40
0.57735
 41
4.398229715025725
 42
7.5398223686155
  0
ELLIPSE
  5
1FC
330
173
100
AcDbEntity
  8
0
  6
Continuous
 62
     0
370
    30
100
AcDbEllipse
 10
846.659049
 20
475.160525
 30
0.0
 11
1.75
 21
0.0
 31
0.0
210
0.0
220
0.0
230
-1.0
 40
0.57735
 41
0.9424777960769215
 42
4.084070449666715
  0
ELLIPSE
  5
1FD
330
173
100
AcDbEntity
  8
0
  6
Continuous
 62
     0
370
    30
100
AcDbEllipse
 10
846.659049
 20
475.160525
 30
0.0
 11
1.75
 21
0.0
 31
0.0
210
0.0
220
0.0
230
-1.0
 40
0.57735
 41
4.084070449666731
 42
7.225663103256508
  0
ELLIPSE
  5
1FE
330
173
100
AcDbEntity
  8
0
  6
Continuous
 62
     0
370
    30
100
AcDbEllipse
 10
836.482389
 20
469.285027
 30
0.0
 11
1.75
 21
0.0
 31
0.0
210
0.0
220
0.0
230
-1.0
 40
0.57735
 41
0.6283185307179673
 42
3.769911184307752
  0
ELLIPSE
  5
1FF
330
173
100
AcDbEntity
  8
0
  6
Continuous
 62
     0
370
    30
100
AcDbEllipse
 10
836.482389
 20
469.285027
 30
0.0
 11
1.75
 21
0.0
 31
0.0
210
0.0
220
0.0
230
-1.0
 40
0.57735
 41
3.76991118430776
 42
6.911503837897554
  0
ELLIPSE
  5
200
330
173
100
AcDbEntity
  8
0
  6
Continuous
 62
     0
370
    30
100
AcDbEllipse
 10
829.948571
 20
461.881469
 30
0.0
 11
1.75
 21
0.0
 31
0.0
210
0.0
220
0.0
230
-1.0
 40
0.57735
 41
0.3141592653589849
 42
3.455751918948764
  0
ELLIPSE
  5
201
330
173
100
AcDbEntity
  8
0
  6
Continuous
 62
     0
370
    30
100
AcDbEllipse
 10
829.948571
 20
461.881469
 30
0.0
 11
1.75
 21
0.0
 31
0.0
210
0.0
220
0.0
230
-1.0
 40
0.57735
 41
3.455751918948772
 42
6.597344572538571
  0
ELLIPSE
  5
202
330
173
100
AcDbEntity
  8
0
  6
Continuous
 62
     0
370
    30
100
AcDbEllipse
 10
827.69717
 20
453.674561
 30
0.0
 11
1.75
 21
0.0
 31
0.0
210
0.0
220
0.0
230
-1.0
 40
0.57735
 41
0.0000000000000043
 42
3.141592653589793
  0
ELLIPSE
  5
203
330
173
100
AcDbEntity
  8
0
  6
Continuous
 62
     0
370
    30
100
AcDbEllipse
 10
827.69717
 20
453.674561
 30
0.0
 11
1.75
 21
0.0
 31
0.0
210
0.0
220
0.0
230
-1.0
 40
0.57735
 41
3.141592653589796
 42
6.283185307179591
  0
ELLIPSE
  5
204
330
173
100
AcDbEntity
  8
0
  6
Continuous
 62
     0
370
    30
100
AcDbEllipse
 10
829.948571
 20
445.467652
 30
0.0
 11
1.75
 21
0.0
 31
0.0
210
0.0
220
0.0
230
-1.0
 40
0.57735
 41
5.969026041820602
 42
9.1106186954104
  0
ELLIPSE
  5
205
330
173
100
AcDbEntity
  8
0
  6
Continuous
 62
     0
370
    30
100
AcDbEllipse
 10
829.948571
 20
445.467652
 30
0.0
 11
1.75
 21
0.0
 31
0.0
210
0.0
220
0.0
230
-1.0
 40
0.57735
 41
2.827433388230821
 42
5.969026041820602
  0
ELLIPSE
  5
206
330
173
100
AcDbEntity
  8
0
  6
Continuous
 62
     0
370
    30
100
AcDbEllipse
 10
836.482389
 20
438.064094
 30
0.0
 11
1.75
 21
0.0
 31
0.0
210
0.0
220
0.0
230
-1.0
 40
0.57735
 41
5.654866776461628
 42
8.796459430051417
  0
ELLIPSE
  5
207
330
173
100
AcDbEntity
  8
0
  6
Continuous
 62
     0
370
    30
100
AcDbEllipse
 10
836.482389
 20
438.064094
 30
0.0
 11
1.75
 21
0.0
 31
0.0
210
0.0
220
0.0
230
-1.0
 40
0.57735
 41
2.513274122871835
 42
5.654866776461628
  0
ELLIPSE
  5
208
330
173
100
AcDbEntity
  8
0
  6
Continuous
 62
     0
370
    30
100
AcDbEllipse
 10
846.659049
 20
432.188596
 30
0.0
 11
1.75
 21
0.0
 31
0.0
210
0.0
220
0.0
230
-1.0
 40
0.57735
 41
5.340707511102647
 42
8.48230016469244
  0
ELLIPSE
  5
209
330
173
100
AcDbEntity
  8
0
  6
Continuous
 62
     0
370
    30
100
AcDbEllipse
 10
846.659049
 20
432.188596
 30
0.0
 11
1.75
 21
0.0
 31
0.0
210
0.0
220
0.0
230
-1.0
 40
0.57735
 41
2.199114857512854
 42
5.340707511102647
  0
ELLIPSE
  5
20A
330
173
100
AcDbEntity
  8
0
  6
Continuous
 62
     0
370
    30
100
AcDbEllipse
 10
859.482389
 20
428.416295
 30
0.0
 11
1.75
 21
0.0
 31
0.0
210
0.0
220
0.0
230
-1.0
 40
0.57735
 41
5.026548245743669
 42
8.168140899333462
  0
ELLIPSE
  5
20B
330
173
100
AcDbEntity
  8
0
  6
Continuous
 62
     0
370
    30
100
AcDbEllipse
 10
859.482389
 20
428.416295
 30
0.0
 11
1.75
 21
0.0
 31
0.0
210
0.0
220
0.0
230
-1.0
 40
0.57735
 41
1.884955592153876
 42
5.026548245743669
  0
ELLIPSE
  5
20C
330
173
100
AcDbEntity
  8
0
  6
Continuous
 62
     0
370
    30
100
AcDbEllipse
 10
873.69717
 20
427.116448
 30
0.0
 11
1.75
 21
0.0
 31
0.0
210
0.0
220
0.0
230
-1.0
 40
0.57735
 41
4.712388980384692
 42
7.853981633974483
  0
ELLIPSE
  5
20D
330
173
100
AcDbEntity
  8
0
  6
Continuous
 62
     0
370
    30
100
AcDbEllipse
 10
873.69717
 20
427.116448
 30
0.0
 11
1.75
 21
0.0
 31
0.0
210
0.0
220
0.0
230
-1.0
 40
0.57735
 41
1.570796326794899
 42
4.712388980384692
  0
ELLIPSE
  5
20E
330
173
100
AcDbEntity
  8
0
  6
Continuous
 62
     0
370
    30
100
AcDbEllipse
 10
887.911952
 20
428.416295
 30
0.0
 11
1.75
 21
0.0
 31
0.0
210
0.0
220
0.0
230
-1.0
 40
0.57735
 41
4.398229715025701
 42
7.539822368615503
  0
ELLIPSE
  5
20F
330
173
100
AcDbEntity
  8
0
  6
Continuous
 62
     0
370
    30
100
AcDbEllipse
 10
887.911952
 20
428.416295
 30
0.0
 11
1.75
 21
0.0
 31
0.0
210
0.0
220
0.0
230
-1.0
 40
0.57735
 41
1.25663706143594
 42
4.398229715025701
  0
ELLIPSE
  5
210
330
173
100
AcDbEntity
  8
0
  6
Continuous
 62
     0
370
    30
100
AcDbEllipse
 10
900.735292
 20
432.188596
 30
0.0
 11
1.75
 21
0.0
 31
0.0
210
0.0
220
0.0
230
-1.0
 40
0.57735
 41
4.084070449666721
 42
7.225663103256525
  0
ELLIPSE
  5
211
330
173
100
AcDbEntity
  8
0
  6
Continuous
 62
     0
370
    30
100
AcDbEllipse
 10
900.735292
 20
432.188596
 30
0.0
 11
1.75
 21
0.0
 31
0.0
210
0.0
220
0.0
230
-1.0
 40
0.57735
 41
0.9424777960769389
 42
4.084070449666721
  0
ELLIPSE
  5
212
330
173
100
AcDbEntity
  8
0
  6
Continuous
 62
     0
370
    30
100
AcDbEllipse
 10
910.911952
 20
438.064094
 30
0.0
 11
1.75
 21
0.0
 31
0.0
210
0.0
220
0.0
230
-1.0
 40
0.57735
 41
3.769911184307762
 42
6.911503837897545
  0
ELLIPSE
  5
213
330
173
100
AcDbEntity
  8
0
  6
Continuous
 62
     0
370
    30
100
AcDbEllipse
 10
910.911952
 20
438.064094
 30
0.0
 11
1.75
 21
0.0
 31
0.0
210
0.0
220
0.0
230
-1.0
 40
0.57735
 41
0.6283185307179583
 42
3.769911184307762
  0
ELLIPSE
  5
214
330
173
100
AcDbEntity
  8
0
  6
Continuous
 62
     0
370
    30
100
AcDbEllipse
 10
917.44577
 20
445.467652
 30
0.0
 11
1.75
 21
0.0
 31
0.0
210
0.0
220
0.0
230
-1.0
 40
0.57735
 41
3.45575191894877
 42
6.597344572538558
  0
ELLIPSE
  5
215
330
173
100
AcDbEntity
  8
0
  6
Continuous
 62
     0
370
    30
100
AcDbEllipse
 10
917.44577
 20
445.467652
 30
0.0
 11
1.75
 21
0.0
 31
0.0
210
0.0
220
0.0
230
-1.0
 40
0.57735
 41
0.3141592653589986
 42
3.45575191894877
  0
ELLIPSE
  5
216
330
173
100
AcDbEntity
  8
0
  6
Continuous
 62
     0
370
    30
100
AcDbEllipse
 10
919.69717
 20
453.674561
 30
0.0
 11
1.75
 21
0.0
 31
0.0
210
0.0
220
0.0
230
-1.0
 40
0.57735
 41
3.141592653589813
 42
6.283185307179566
  0
ELLIPSE
  5
217
330
173
100
AcDbEntity
  8
0
  6
Continuous
 62
     0
370
    30
100
AcDbEllipse
 10
919.69717
 20
453.674561
 30
0.0
 11
1.75
 21
0.0
 31
0.0
210
0.0
220
0.0
230
-1.0
 40
0.57735
 41
0.0
 42
3.141592653589813
  0
ELLIPSE
  5
218
330
173
100
AcDbEntity
  8
0
  6
Continuous
 62
     0
370
    30
100
AcDbEllipse
 10
917.44577
 20
461.881469
 30
0.0
 11
1.75
 21
0.0
 31
0.0
210
0.0
220
0.0
230
-1.0
 40
0.57735
 41
2.827433388230822
 42
5.969026041820612
  0
ELLIPSE
  5
219
330
173
100
AcDbEntity
  8
0
  6
Continuous
 62
     0
370
    30
100
AcDbEllipse
 10
917.44577
 20
461.881469
 30
0.0
 11
1.75
 21
0.0
 31
0.0
210
0.0
220
0.0
230
-1.0
 40
0.57735
 41
5.969026041820614
 42
9.110618695410409
  0
ELLIPSE
  5
21A
330
173
100
AcDbEntity
  8
0
  6
Continuous
 62
     0
370
    30
100
AcDbEllipse
 10
910.911952
 20
469.285027
 30
0.0
 11
1.75
 21
0.0
 31
0.0
210
0.0
220
0.0
230
-1.0
 40
0.57735
 41
2.513274122871836
 42
5.654866776461627
  0
ELLIPSE
  5
21B
330
173
100
AcDbEntity
  8
0
  6
Continuous
 62
     0
370
    30
100
AcDbEllipse
 10
910.911952
 20
469.285027
 30
0.0
 11
1.75
 21
0.0
 31
0.0
210
0.0
220
0.0
230
-1.0
 40
0.57735
 41
5.654866776461628
 42
8.796459430051423
  0
ELLIPSE
  5
21C
330
173
100
AcDbEntity
  8
0
  6
Continuous
 62
     0
370
    30
100
AcDbEllipse
 10
910.139856
 20
482.633904
 30
0.0
 11
1.75
 21
0.0
 31
0.0
210
0.0
220
0.0
230
-1.0
 40
0.57735
 41
2.199114857512857
 42
5.340707511102649
  0
ELLIPSE
  5
21D
330
173
100
AcDbEntity
  8
0
  6
Continuous
 62
     0
370
    30
100
AcDbEllipse
 10
910.139856
 20
482.633904
 30
0.0
 11
1.75
 21
0.0
 31
0.0
210
0.0
220
0.0
230
-1.0
 40
0.57735
 41
5.340707511102649
 42
8.482300164692443
  0
ELLIPSE
  5
21E
330
173
100
AcDbEntity
  8
0
  6
Continuous
 62
     0
370
    30
100
AcDbEllipse
 10
892.856224
 20
487.71831
 30
0.0
 11
1.75
 21
0.0
 31
0.0
210
0.0
220
0.0
230
-1.0
 40
0.57735
 41
1.884955592153889
 42
5.026548245743641
  0
ELLIPSE
  5
21F
330
173
100
AcDbEntity
  8
0
  6
Continuous
 62
     0
370
    30
100
AcDbEllipse
 10
892.856224
 20
487.71831
 30
0.0
 11
1.75
 21
0.0
 31
0.0
210
0.0
220
0.0
230
-1.0
 40
0.57735
 41
5.026548245743673
 42
8.168140899333475
  0
ELLIPSE
  5
220
330
173
100
AcDbEntity
  8
0
  6
Continuous
 62
     0
370
    30
100
AcDbEllipse
 10
873.69717
 20
489.470277
 30
0.0
 11
1.75
 21
0.0
 31
0.0
210
0.0
220
0.0
230
-1.0
 40
0.57735
 41
1.570796326794891
 42
4.712388980384687
  0
ELLIPSE
  5
221
330
173
100
AcDbEntity
  8
0
  6
Continuous
 62
     0
370
    30
100
AcDbEllipse
 10
873.69717
 20
489.470277
 30
0.0
 11
1.75
 21
0.0
 31
0.0
210
0.0
220
0.0
230
-1.0
 40
0.57735
 41
4.712388980384699
 42
7.853981633974477
  0
ELLIPSE
  5
222
330
173
100
AcDbEntity
  8
0
  6
Continuous
 62
     0
370
    30
100
AcDbEllipse
 10
854.538117
 20
487.71831
 30
0.0
 11
1.75
 21
0.0
 31
0.0
210
0.0
220
0.0
230
-1.0
 40
0.57735
 41
1.256637061435921
 42
4.398229715025705
  0
ELLIPSE
  5
223
330
173
100
AcDbEntity
  8
0
  6
Continuous
 62
     0
370
    30
100
AcDbEllipse
 10
854.538117
 20
487.71831
 30
0.0
 11
1.75
 21
0.0
 31
0.0
210
0.0
220
0.0
230
-1.0
 40
0.57735
 41
4.398229715025707
 42
7.539822368615507
  0
ELLIPSE
  5
224
330
173
100
AcDbEntity
  8
0
  6
Continuous
 62
     0
370
    30
100
AcDbEllipse
 10
837.254485
 20
482.633904
 30
0.0
 11
1.75
 21
0.0
 31
0.0
210
0.0
220
0.0
230
-1.0
 40
0.57735
 41
0.9424777960769215
 42
4.084070449666722
  0
ELLIPSE
  5
225
330
173
100
AcDbEntity
  8
0
  6
Continuous
 62
     0
370
    30
100
AcDbEllipse
 10
837.254485
 20
482.633904
 30
0.0
 11
1.75
 21
0.0
 31
0.0
210
0.0
220
0.0
230
-1.0
 40
0.57735
 41
4.084070449666731
 42
7.225663103256508
  0
ELLIPSE
  5
226
330
173
100
AcDbEntity
  8
0
  6
Continuous
 62
     0
370
    30
100
AcDbEllipse
 10
823.538117
 20
474.714755
 30
0.0
 11
1.75
 21
0.0
 31
0.0
210
0.0
220
0.0
230
-1.0
 40
0.57735
 41
0.6283185307179586
 42
3.769911184307752
  0
ELLIPSE
  5
227
330
173
100
AcDbEntity
  8
0
  6
Continuous
 62
     0
370
    30
100
AcDbEllipse
 10
823.538117
 20
474.714755
 30
0.0
 11
1.75
 21
0.0
 31
0.0
210
0.0
220
0.0
230
-1.0
 40
0.57735
 41
3.769911184307752
 42
6.911503837897545
  0
ELLIPSE
  5
228
330
173
100
AcDbEntity
  8
0
  6
Continuous
 62
     0
370
    30
100
AcDbEllipse
 10
814.731666
 20
464.736045
 30
0.0
 11
1.75
 21
0.0
 31
0.0
210
0.0
220
0.0
230
-1.0
 40
0.57735
 41
0.3141592653589759
 42
3.455751918948764
  0
ELLIPSE
  5
229
330
173
100
AcDbEntity
  8
0
  6
Continuous
 62
     0
370
    30
100
AcDbEllipse
 10
814.731666
 20
464.736045
 30
0.0
 11
1.75
 21
0.0
 31
0.0
210
0.0
220
0.0
230
-1.0
 40
0.57735
 41
3.455751918948772
 42
6.597344572538562
  0
ELLIPSE
  5
22A
330
173
100
AcDbEntity
  8
0
  6
Continuous
 62
     0
370
    30
100
AcDbEllipse
 10
811.69717
 20
453.674561
 30
0.0
 11
1.75
 21
0.0
 31
0.0
210
0.0
220
0.0
230
-1.0
 40
0.57735
 41
0.0
 42
3.141592653589794
  0
ELLIPSE
  5
22B
330
173
100
AcDbEntity
  8
0
  6
Continuous
 62
     0
370
    30
100
AcDbEllipse
 10
811.69717
 20
453.674561
 30
0.0
 11
1.75
 21
0.0
 31
0.0
210
0.0
220
0.0
230
-1.0
 40
0.57735
 41
3.141592653589794
 42
6.283185307179586
  0
ELLIPSE
  5
22C
330
173
100
AcDbEntity
  8
0
  6
Continuous
 62
     0
370
    30
100
AcDbEllipse
 10
814.731666
 20
442.613076
 30
0.0
 11
1.75
 21
0.0
 31
0.0
210
0.0
220
0.0
230
-1.0
 40
0.57735
 41
5.969026041820603
 42
9.1106186954104
  0
ELLIPSE
  5
22D
330
173
100
AcDbEntity
  8
0
  6
Continuous
 62
     0
370
    30
100
AcDbEllipse
 10
814.731666
 20
442.613076
 30
0.0
 11
1.75
 21
0.0
 31
0.0
210
0.0
220
0.0
230
-1.0
 40
0.57735
 41
2.82743338823082
 42
5.969026041820603
  0
ELLIPSE
  5
22E
330
173
100
AcDbEntity
  8
0
  6
Continuous
 62
     0
370
    30
100
AcDbEllipse
 10
823.538117
 20
432.634366
 30
0.0
 11
1.75
 21
0.0
 31
0.0
210
0.0
220
0.0
230
-1.0
 40
0.57735
 41
5.654866776461629
 42
8.79645943005142
  0
ELLIPSE
  5
22F
330
173
100
AcDbEntity
  8
0
  6
Continuous
 62
     0
370
    30
100
AcDbEllipse
 10
823.538117
 20
432.634366
 30
0.0
 11
1.75
 21
0.0
 31
0.0
210
0.0
220
0.0
230
-1.0
 40
0.57735
 41
2.513274122871835
 42
5.654866776461629
  0
ELLIPSE
  5
230
330
173
100
AcDbEntity
  8
0
  6
Continuous
 62
     0
370
    30
100
AcDbEllipse
 10
837.254485
 20
424.715217
 30
0.0
 11
1.75
 21
0.0
 31
0.0
210
0.0
220
0.0
230
-1.0
 40
0.57735
 41
5.340707511102648
 42
8.48230016469244
  0
ELLIPSE
  5
231
330
173
100
AcDbEntity
  8
0
  6
Continuous
 62
     0
370
    30
100
AcDbEllipse
 10
837.254485
 20
424.715217
 30
0.0
 11
1.75
 21
0.0
 31
0.0
210
0.0
220
0.0
230
-1.0
 40
0.57735
 41
2.199114857512857
 42
5.340707511102648
  0
ELLIPSE
  5
232
330
173
100
AcDbEntity
  8
0
  6
Continuous
 62
     0
370
    30
100
AcDbEllipse
 10
854.538117
 20
419.630811
 30
0.0
 11
1.75
 21
0.0
 31
0.0
210
0.0
220
0.0
230
-1.0
 40
0.57735
 41
5.026548245743674
 42
8.168140899333462
  0
ELLIPSE
  5
233
330
173
100
AcDbEntity
  8
0
  6
Continuous
 62
     0
370
    30
100
AcDbEllipse
 10
854.538117
 20
419.630811
 30
0.0
 11
1.75
 21
0.0
 31
0.0
210
0.0
220
0.0
230
-1.0
 40
0.57735
 41
1.88495559215388
 42
5.026548245743674
  0
ELLIPSE
  5
234
330
173
100
AcDbEntity
  8
0
  6
Continuous
 62
     0
370
    30
100
AcDbEllipse
 10
873.69717
 20
417.878844
 30
0.0
 11
1.75
 21
0.0
 31
0.0
210
0.0
220
0.0
230
-1.0
 40
0.57735
 41
4.712388980384681
 42
7.85398163397448
  0
ELLIPSE
  5
235
330
173
100
AcDbEntity
  8
0
  6
Continuous
 62
     0
370
    30
100
AcDbEllipse
 10
873.69717
 20
417.878844
 30
0.0
 11
1.75
 21
0.0
 31
0.0
210
0.0
220
0.0
230
-1.0
 40
0.57735
 41
1.570796326794905
 42
4.712388980384681
  0
ELLIPSE
  5
236
330
173
100
AcDbEntity
  8
0
  6
Continuous
 62
     0
370
    30
100
AcDbEllipse
 10
892.856224
 20
419.630811
 30
0.0
 11
1.75
 21
0.0
 31
0.0
210
0.0
220
0.0
230
-1.0
 40
0.57735
 41
4.398229715025705
 42
7.539822368615503
  0
ELLIPSE
  5
237
330
173
100
AcDbEntity
  8
0
  6
Continuous
 62
     0
370
    30
100
AcDbEllipse
 10
892.856224
 20
419.630811
 30
0.0
 11
1.75
 21
0.0
 31
0.0
210
0.0
220
0.0
230
-1.0
 40
0.57735
 41
1.256637061435922
 42
4.398229715025705
  0
ELLIPSE
  5
238
330
173
100
AcDbEntity
  8
0
  6
Continuous
 62
     0
370
    30
100
AcDbEllipse
 10
910.139856
 20
424.715217
 30
0.0
 11
1.75
 21
0.0
 31
0.0
210
0.0
220
0.0
230
-1.0
 40
0.57735
 41
4.08407044966672
 42
7.225663103256528
  0
ELLIPSE
  5
239
330
173
100
AcDbEntity
  8
0
  6
Continuous
 62
     0
370
    30
100
AcDbEllipse
 10
910.139856
 20
424.715217
 30
0.0
 11
1.75
 21
0.0
 31
0.0
210
0.0
220
0.0
230
-1.0
 40
0.57735
 41
0.9424777960769506
 42
4.08407044966672
  0
ELLIPSE
  5
23A
330
173
100
AcDbEntity
  8
0
  6
Continuous
 62
     0
370
    30
100
AcDbEllipse
 10
923.856224
 20
432.634366
 30
0.0
 11
1.75
 21
0.0
 31
0.0
210
0.0
220
0.0
230
-1.0
 40
0.57735
 41
3.769911184307764
 42
6.91150383789755
  0
ELLIPSE
  5
23B
330
173
100
AcDbEntity
  8
0
  6
Continuous
 62
     0
370
    30
100
AcDbEllipse
 10
923.856224
 20
432.634366
 30
0.0
 11
1.75
 21
0.0
 31
0.0
210
0.0
220
0.0
230
-1.0
 40
0.57735
 41
0.6283185307179588
 42
3.769911184307763
  0
ELLIPSE
  5
23C
330
173
100
AcDbEntity
  8
0
  6
Continuous
 62
     0
370
    30
100
AcDbEllipse
 10
932.662674
 20
442.613076
 30
0.0
 11
1.75
 21
0.0
 31
0.0
210
0.0
220
0.0
230
-1.0
 40
0.57735
 41
3.455751918948785
 42
6.597344572538561
  0
ELLIPSE
  5
23D
330
173
100
AcDbEntity
  8
0
  6
Continuous
 62
     0
370
    30
100
AcDbEllipse
 10
932.662674
 20
442.613076
 30
0.0
 11
1.75
 21
0.0
 31
0.0
210
0.0
220
0.0
230
-1.0
 40
0.57735
 41
0.3141592653589751
 42
3.455751918948785
  0
ELLIPSE
  5
23E
330
173
100
AcDbEntity
  8
0
  6
Continuous
 62
     0
370
    30
100
AcDbEllipse
 10
935.69717
 20
453.674561
 30
0.0
 11
1.75
 21
0.0
 31
0.0
210
0.0
220
0.0
230
-1.0
 40
0.57735
 41
3.141592653589796
 42
6.283185307179569
  0
ELLIPSE
  5
23F
330
173
100
AcDbEntity
  8
0
  6
Continuous
 62
     0
370
    30
100
AcDbEllipse
 10
935.69717
 20
453.674561
 30
0.0
 11
1.75
 21
0.0
 31
0.0
210
0.0
220
0.0
230
-1.0
 40
0.57735
 41
0.0000000000000116
 42
3.141592653589796
  0
ELLIPSE
  5
240
330
173
100
AcDbEntity
  8
0
  6
Continuous
 62
     0
370
    30
100
AcDbEllipse
 10
932.662674
 20
464.736045
 30
0.0
 11
1.75
 21
0.0
 31
0.0
210
0.0
220
0.0
230
-1.0
 40
0.57735
 41
2.827433388230801
 42
5.969026041820603
  0
ELLIPSE
  5
241
330
173
100
AcDbEntity
  8
0
  6
Continuous
 62
     0
370
    30
100
AcDbEllipse
 10
932.662674
 20
464.736045
 30
0.0
 11
1.75
 21
0.0
 31
0.0
210
0.0
220
0.0
230
-1.0
 40
0.57735
 41
5.96902604182061
 42
9.110618695410388
  0
ELLIPSE
  5
242
330
173
100
AcDbEntity
  8
0
  6
Continuous
 62
     0
370
    30
100
AcDbEllipse
 10
923.856224
 20
474.714755
 30
0.0
 11
1.75
 21
0.0
 31
0.0
210
0.0
220
0.0
230
-1.0
 40
0.57735
 41
2.51327412287183
 42
5.654866776461626
  0
ELLIPSE
  5
243
330
173
100
AcDbEntity
  8
0
  6
Continuous
 62
     0
370
    30
100
AcDbEllipse
 10
923.856224
 20
474.714755
 30
0.0
 11
1.75
 21
0.0
 31
0.0
210
0.0
220
0.0
230
-1.0
 40
0.57735
 41
5.654866776461635
 42
8.796459430051417
  0
ELLIPSE
  5
244
330
173
100
AcDbEntity
  8
0
  6
Continuous
 62
     0
370
    30
100
AcDbEllipse
 10
1025.018021
 20
447.142588
 30
0.0
 11
-8.0
 21
0.0
 31
0.0
210
0.0
220
0.0
230
1.0
 40
0.57735
 41
2.356194490192344
 42
3.141592644950109
  0
LINE
  5
245
330
173
100
AcDbEntity
  8
0
  6
Continuous
 62
     0
370
    30
100
AcDbLine
 10
1030.674876
 20
443.876602
 30
0.0
 11
780.359075
 21
299.356707
 31
0.0
  0
ELLIPSE
  5
246
330
173
100
AcDbEntity
  8
0
  6
Continuous
 62
     0
370
    30
100
AcDbEllipse
 10
774.702221
 20
302.622693
 30
0.0
 11
-8.0
 21
0.0
 31
0.0
210
0.0
220
0.0
230
1.0
 40
0.57735
 41
0.7853981633974483
 42
2.356194490192345
  0
LINE
  5
247
330
173
100
AcDbEntity
  8
0
  6
Continuous
 62
     0
370
    30
100
AcDbLine
 10
769.045367
 20
299.356707
 30
0.0
 11
610.653448
 21
390.804324
 31
0.0
  0
ELLIPSE
  5
248
330
173
100
AcDbEntity
  8
0
  6
Continuous
 62
     0
370
    30
100
AcDbEllipse
 10
616.310302
 20
394.07031
 30
0.0
 11
-8.0
 21
0.0
 31
0.0
210
0.0
220
0.0
230
1.0
 40
0.57735
 41
-0.0000000086396845
 42
0.7853981633974483
  0
LINE
  5
249
330
173
100
AcDbEntity
  8
0
  6
Continuous
 62
     0
370
     0
100
AcDbLine
 10
769.045367
 20
301.806196
 30
0.0
 11
769.045367
 21
299.356707
 31
0.0
  0
LINE
  5
24A
330
173
100
AcDbEntity
  8
0
  6
Continuous
 62
     0
370
     0
100
AcDbLine
 10
780.359075
 20
301.806196
 30
0.0
 11
780.359075
 21
299.356707
 31
0.0
  0
ELLIPSE
  5
24B
330
173
100
AcDbEntity
  8
0
  6
Continuous
 62
     0
370
    30
100
AcDbEllipse
 10
774.702221
 20
305.072183
 30
0.0
 11
-8.0
 21
0.0
 31
0.0
210
0.0
220
0.0
230
1.0
 40
0.57735
 41
0.7853981633974483
 42
2.356194490192345
  0
ELLIPSE
  5
24C
330
173
100
AcDbEntity
  8
0
  6
Continuous
 62
     0
370
    30
100
AcDbEllipse
 10
866.626102
 20
541.039695
 30
0.0
 11
-8.0
 21
0.0
 31
0.0
210
0.0
220
0.0
230
1.0
 40
0.57735
 41
3.926990816987241
 42
5.497787143782138
  0
LINE
  5
24D
330
173
100
AcDbEntity
  8
0
  6
Continuous
 62
     0
370
    30
100
AcDbLine
 10
610.653448
 20
399.785786
 30
0.0
 11
860.969248
 21
544.305681
 31
0.0
  0
ELLIPSE
  5
24E
330
173
100
AcDbEntity
  8
0
  6
Continuous
 62
     0
370
    30
100
AcDbEllipse
 10
616.310302
 20
396.5198
 30
0.0
 11
-8.0
 21
0.0
 31
0.0
210
0.0
220
0.0
230
1.0
 40
0.57735
 41
5.497787143782137
 42
7.068583470577035
  0
LINE
  5
24F
330
173
100
AcDbEntity
  8
0
  6
Continuous
 62
     0
370
    30
100
AcDbLine
 10
769.045367
 20
301.806196
 30
0.0
 11
610.653448
 21
393.253814
 31
0.0
  0
LINE
  5
250
330
173
100
AcDbEntity
  8
0
  6
Continuous
 62
     0
370
    30
100
AcDbLine
 10
1030.674876
 20
446.326091
 30
0.0
 11
780.359075
 21
301.806196
 31
0.0
  0
ELLIPSE
  5
251
330
173
100
AcDbEntity
  8
0
  6
Continuous
 62
     0
370
    30
100
AcDbEllipse
 10
1025.018021
 20
449.592078
 30
0.0
 11
-8.0
 21
0.0
 31
0.0
210
0.0
220
0.0
230
1.0
 40
0.57735
 41
2.356194490192344
 42
3.926990816987242
  0
LINE
  5
252
330
173
100
AcDbEntity
  8
0
  6
Continuous
 62
     0
370
    30
100
AcDbLine
 10
872.282957
 20
544.305681
 30
0.0
 11
1030.674876
 21
452.858064
 31
0.0
  0
LINE
  5
253
330
173
100
AcDbEntity
  8
0
  6
Continuous
 62
     0
370
     0
100
AcDbLine
 10
610.653448
 20
393.253814
 30
0.0
 11
610.653448
 21
390.804324
 31
0.0
  0
LINE
  5
254
330
173
100
AcDbEntity
  8
0
  6
Continuous
 62
     0
370
     0
100
AcDbLine
 10
1030.674876
 20
446.326091
 30
0.0
 11
1030.674876
 21
443.876602
 31
0.0
  0
LINE
  5
255
330
173
100
AcDbEntity
  8
0
  6
Continuous
 62
     0
370
    30
100
AcDbLine
 10
1033.018021
 20
447.142588
 30
0.0
 11
1033.018021
 21
449.592078
 31
0.0
  0
LINE
  5
256
330
173
100
AcDbEntity
  8
0
  6
Continuous
 62
     0
370
    30
100
AcDbLine
 10
608.310302
 20
394.07031
 30
0.0
 11
608.310302
 21
396.5198
 31
0.0
  0
ELLIPSE
  5
257
330
173
100
AcDbEntity
  8
0
  6
Continuous
 62
     0
370
    30
100
AcDbEllipse
 10
767.631153
 20
392.437317
 30
0.0
 11
-11.0
 21
0.0
 31
0.0
210
0.0
220
0.0
230
1.0
 40
0.57735
 41
0.7853981633974483
 42
3.926990816987241
  0
ELLIPSE
  5
258
330
173
100
AcDbEntity
  8
0
  6
Continuous
 62
     0
370
    30
100
AcDbEllipse
 10
767.631153
 20
392.437317
 30
0.0
 11
-11.0
 21
0.0
 31
0.0
210
0.0
220
0.0
230
1.0
 40
0.57735
 41
3.926990816987242
 42
7.068583470577035
  0
LINE
  5
259
330
173
100
AcDbEntity
  8
0
  6
Continuous
 62
     0
370
    30
100
AcDbLine
 10
756.631153
 20
390.500825
 30
0.0
 11
756.631153
 21
392.437317
 31
0.0
  0
LINE
  5
25A
330
173
100
AcDbEntity
  8
0
  6
Continuous
 62
     0
370
    30
100
AcDbLine
 10
778.631153
 20
390.500825
 30
0.0
 11
778.631153
 21
392.437317
 31
0.0
  0
ELLIPSE
  5
25B
330
173
100
AcDbEntity
  8
0
  6
Continuous
 62
     0
370
    30
100
AcDbEllipse
 10
873.69717
 20
453.674561
 30
0.0
 11
-11.0
 21
0.0
 31
0.0
210
0.0
220
0.0
230
1.0
 40
0.57735
 41
0.7853981633974483
 42
3.926990816987241
  0
ELLIPSE
  5
25C
330
173
100
AcDbEntity
  8
0
  6
Continuous
 62
     0
370
    30
100
AcDbEllipse
 10
873.69717
 20
453.674561
 30
0.0
 11
-11.0
 21
0.0
 31
0.0
210
0.0
220
0.0
230
1.0
 40
0.57735
 41
3.926990816987242
 42
7.068583470577035
  0
LINE
  5
25D
330
173
100
AcDbEntity
  8
0
  6
Continuous
 62
     0
370
    30
100
AcDbLine
 10
862.69717
 20
451.738069
 30
0.0
 11
862.69717
 21
453.674561
 31
0.0
  0
LINE
  5
25E
330
173
100
AcDbEntity
  8
0
  6
Continuous
 62
     0
370
    30
100
AcDbLine
 10
884.69717
 20
451.738069
 30
0.0
 11
884.69717
 21
453.67456
 31
0.0
  0
ENDBLK
  5
260
330
173
100
AcDbEntity
  8
0
100
AcDbBlockEnd
  0
BLOCK
  5
26D
330
262
100
AcDbEntity
  8
0
100
AcDbBlockBegin
  2
e
 70
     0
 10
159.533173
 20
0.0
 30
0.0
  3
e
  1

  0
LINE
  5
263
330
262
100
AcDbEntity
  8
0
  6
Continuous
 62
     0
370
    30
100
AcDbLine
 10
102.876007
 20
617.626697
 30
0.0
 11
-121.123993
 21
617.626697
 31
0.0
  0
LINE
  5
264
330
262
100
AcDbEntity
  8
0
  6
Continuous
 62
     0
370
    30
100
AcDbLine
 10
-129.123993
 20
617.626697
 30
0.0
 11
-121.123993
 21
617.626697
 31
0.0
  0
LINE
  5
265
330
262
100
AcDbEntity
  8
0
  6
Continuous
 62
     0
370
    30
100
AcDbLine
 10
102.876007
 20
617.626697
 30
0.0
 11
110.876007
 21
617.626697
 31
0.0
  0
LINE
  5
266
330
262
100
AcDbEntity
  8
0
  6
Continuous
 62
     0
370
    30
100
AcDbLine
 10
102.876007
 20
620.626697
 30
0.0
 11
110.876007
 21
620.626697
 31
0.0
  0
LINE
  5
267
330
262
100
AcDbEntity
  8
0
  6
Continuous
 62
     0
370
    30
100
AcDbLine
 10
-129.123993
 20
620.626697
 30
0.0
 11
-121.123993
 21
620.626697
 31
0.0
  0
LINE
  5
268
330
262
100
AcDbEntity
  8
0
  6
Continuous
 62
     0
370
    30
100
AcDbLine
 10
102.876007
 20
620.626697
 30
0.0
 11
-121.123993
 21
620.626697
 31
0.0
  0
LINE
  5
269
330
262
100
AcDbEntity
  8
0
  6
Continuous
 62
     0
370
     0
100
AcDbLine
 10
102.876007
 20
620.626697
 30
0.0
 11
102.876007
 21
617.626697
 31
0.0
  0
LINE
  5
26A
330
262
100
AcDbEntity
  8
0
  6
Continuous
 62
     0
370
    30
100
AcDbLine
 10
110.876007
 20
620.626697
 30
0.0
 11
110.876007
 21
617.626697
 31
0.0
  0
LINE
  5
26B
330
262
100
AcDbEntity
  8
0
  6
Continuous
 62
     0
370
    30
100
AcDbLine
 10
-129.123993
 20
620.626697
 30
0.0
 11
-129.123993
 21
617.626697
 31
0.0
  0
LINE
  5
26C
330
262
100
AcDbEntity
  8
0
  6
Continuous
 62
     0
370
     0
100
AcDbLine
 10
-121.123993
 20
620.626697
 30
0.0
 11
-121.123993
 21
617.626697
 31
0.0
  0
ENDBLK
  5
26E
330
262
100
AcDbEntity
  8
0
100
AcDbBlockEnd
  0
ENDSEC
  0
SECTION
  2
ENTITIES
  0
INSERT
  5
88
330
1F
100
AcDbEntity
  8
0
  6
Continuous
 62
     7
420
 16250871
370
     0
100
AcDbBlockReference
  2
a
 10
121.395836
 20
283.567993
 30
0.0
  0
INSERT
  5
164
330
1F
100
AcDbEntity
  8
0
  6
Continuous
 62
     7
420
 16250871
370
     0
100
AcDbBlockReference
  2
b
 10
121.395836
 20
283.567993
 30
0.0
  0
INSERT
  5
172
330
1F
100
AcDbEntity
  8
0
  6
Continuous
 62
     7
420
 16250871
370
     0
100
AcDbBlockReference
  2
c
 10
121.395836
 20
283.567993
 30
0.0
  0
INSERT
  5
261
330
1F
100
AcDbEntity
  8
0
  6
Continuous
 62
     7
420
 16250871
370
     0
100
AcDbBlockReference
  2
d
 10
121.395836
 20
283.567993
 30
0.0
  0
INSERT
  5
26F
330
1F
100
AcDbEntity
  8
0
  6
Continuous
 62
     7
420
 16250871
370
     0
100
AcDbBlockReference
  2
e
 10
159.533173
 20
0.0
 30
0.0
  0
ENDSEC
  0
SECTION
  2
OBJECTS
  0
DICTIONARY
  5
C
330
0
100
AcDbDictionary
281
     1
  3
ACAD_DETAILVIEWSTYLE
350
2A7
  3
ACAD_GROUP
350
D
  3
ACAD_LAYOUT
350
1A
  3
ACAD_MATERIAL
350
43
  3
ACAD_MLEADERSTYLE
350
6B
  3
ACAD_MLINESTYLE
350
17
  3
ACAD_PLOTSETTINGS
350
19
  3
ACAD_PLOTSTYLENAME
350
E
  3
ACAD_SCALELIST
350
47
  3
ACAD_SECTIONVIEWSTYLE
350
2A8
  3
ACAD_TABLESTYLE
350
69
  3
ACAD_VISUALSTYLE
350
2A
  3
ACDB_RECOMPOSE_DATA
350
2A4
  3
AcDbVariableDictionary
350
270
  0
SUN
  5
6D
330
29
100
AcDbSun
 90
        1
290
     0
 63
     7
421
 16777215
 40
1.0
291
     1
 91
  2455826
 92
 54000000
292
     0
 70
     2
 71
   256
280
     1
  0
DICTIONARY
  5
2A7
102
{ACAD_REACTORS
330
C
102
}
330
C
100
AcDbDictionary
281
     1
  0
DICTIONARY
  5
D
102
{ACAD_REACTORS
330
C
102
}
330
C
100
AcDbDictionary
281
     1
  0
DICTIONARY
  5
1A
102
{ACAD_REACTORS
330
C
102
}
330
C
100
AcDbDictionary
281
     1
  3
Layout1
350
1E
  3
Layout2
350
26
  3
Model
350
22
  0
DICTIONARY
  5
43
102
{ACAD_REACTORS
330
C
102
}
330
C
100
AcDbDictionary
281
     1
  3
ByBlock
350
45
  3
ByLayer
350
44
  3
Global
350
46
  0
DICTIONARY
  5
6B
102
{ACAD_REACTORS
330
C
102
}
330
C
100
AcDbDictionary
281
     1
  3
Standard
350
6C
  0
DICTIONARY
  5
17
102
{ACAD_REACTORS
330
C
102
}
330
C
100
AcDbDictionary
281
     1
  3
Standard
350
18
  0
DICTIONARY
  5
19
102
{ACAD_REACTORS
330
C
102
}
330
C
100
AcDbDictionary
281
     1
  0
ACDBDICTIONARYWDFLT
  5
E
102
{ACAD_REACTORS
330
C
102
}
330
C
100
AcDbDictionary
281
     1
  3
Normal
350
F
100
AcDbDictionaryWithDefault
340
F
  0
DICTIONARY
  5
47
102
{ACAD_REACTORS
330
C
102
}
330
C
100
AcDbDictionary
281
     1
  3
A0
350
48
  3
A1
350
49
  3
A2
350
4A
  3
A3
350
4B
  3
A4
350
4C
  3
A5
350
4D
  3
A6
350
4E
  3
A7
350
4F
  3
A8
350
50
  3
A9
350
51
  3
B0
350
52
  3
B1
350
53
  3
B2
350
54
  3
B3
350
55
  3
B4
350
56
  3
B5
350
57
  3
B6
350
58
  3
B7
350
59
  3
B8
350
5A
  3
B9
350
5B
  3
C0
350
5C
  3
C1
350
5D
  3
C2
350
5E
  3
C3
350
5F
  3
C4
350
60
  3
C5
350
61
  3
C6
350
62
  3
C7
350
63
  3
C8
350
64
  3
C9
350
65
  3
D0
350
66
  3
D1
350
67
  3
D2
350
68
  0
DICTIONARY
  5
2A8
102
{ACAD_REACTORS
330
C
102
}
330
C
100
AcDbDictionary
281
     1
  0
DICTIONARY
  5
69
102
{ACAD_REACTORS
330
C
102
}
330
C
100
AcDbDictionary
281
     1
  3
Standard
350
6A
  0
DICTIONARY
  5
2A
102
{ACAD_REACTORS
330
C
102
}
330
C
100
AcDbDictionary
281
     1
  3
2dWireframe
350
2F
  3
Basic
350
32
  3
Brighten
350
36
  3
ColorChange
350
3A
  3
Conceptual
350
34
  3
Dim
350
35
  3
EdgeColorOff
350
3D
  3
Facepattern
350
39
  3
Flat
350
2B
  3
FlatWithEdges
350
2C
  3
Gouraud
350
2D
  3
GouraudWithEdges
350
2E
  3
Hidden
350
31
  3
JitterOff
350
3B
  3
Linepattern
350
38
  3
OverhangOff
350
3C
  3
Realistic
350
33
  3
Shaded
350
42
  3
Shaded with edges
350
41
  3
Shades of Gray
350
3E
  3
Sketchy
350
3F
  3
Thicken
350
37
  3
Wireframe
350
30
  3
X-Ray
350
40
  0
XRECORD
  5
2A4
102
{ACAD_REACTORS
330
C
102
}
330
C
100
AcDbXrecord
280
     1
 90
        1
330
6A
  0
DICTIONARY
  5
270
102
{ACAD_REACTORS
330
C
102
}
330
C
100
AcDbDictionary
281
     1
  3
CANNOSCALE
350
271
  3
CMLEADERSTYLE
350
2A6
  3
CTABLESTYLE
350
2A5
  0
LAYOUT
  5
1E
102
{ACAD_REACTORS
330
1A
102
}
330
1A
100
AcDbPlotSettings
  1

  2
none_device
  4

  6

 40
0.0
 41
0.0
 42
0.0
 43
0.0
 44
0.0
 45
0.0
 46
0.0
 47
0.0
 48
0.0
 49
0.0
140
0.0
141
0.0
142
1.0
143
1.0
 70
   688
 72
     1
 73
     0
 74
     5
  7

 75
    16
 76
     0
 77
     2
 78
   300
147
1.0
148
0.0
149
0.0
100
AcDbLayout
  1
Layout1
 70
     1
 71
     1
 10
0.0
 20
0.0
 11
420.0
 21
297.0
 12
0.0
 22
0.0
 32
0.0
 14
1.000000E+20
 24
1.000000E+20
 34
1.000000E+20
 15
-1.000000E+20
 25
-1.000000E+20
 35
-1.000000E+20
146
0.0
 13
0.0
 23
0.0
 33
0.0
 16
1.0
 26
0.0
 36
0.0
 17
0.0
 27
1.0
 37
0.0
 76
     0
330
1B
  0
LAYOUT
  5
26
102
{ACAD_REACTORS
330
1A
102
}
330
1A
100
AcDbPlotSettings
  1

  2
none_device
  4

  6

 40
0.0
 41
0.0
 42
0.0
 43
0.0
 44
0.0
 45
0.0
 46
0.0
 47
0.0
 48
0.0
 49
0.0
140
0.0
141
0.0
142
1.0
143
1.0
 70
   688
 72
     1
 73
     0
 74
     5
  7

 75
    16
 76
     0
 77
     2
 78
   300
147
1.0
148
0.0
149
0.0
100
AcDbLayout
  1
Layout2
 70
     1
 71
     2
 10
0.0
 20
0.0
 11
0.0
 21
0.0
 12
0.0
 22
0.0
 32
0.0
 14
0.0
 24
0.0
 34
0.0
 15
0.0
 25
0.0
 35
0.0
146
0.0
 13
0.0
 23
0.0
 33
0.0
 16
1.0
 26
0.0
 36
0.0
 17
0.0
 27
1.0
 37
0.0
 76
     0
330
23
  0
LAYOUT
  5
22
102
{ACAD_REACTORS
330
1A
102
}
330
1A
100
AcDbPlotSettings
  1

  2
none_device
  4
Letter_(8.50_x_11.00_Inches)
  6

 40
6.35
 41
6.35
 42
6.350005
 43
6.350005
 44
215.9
 45
279.4
 46
0.0
 47
0.0
 48
0.0
 49
0.0
140
0.0
141
0.0
142
1.0
143
1.0
 70
  1712
 72
     1
 73
     0
 74
     0
  7

 75
     0
 76
     0
 77
     2
 78
   300
147
1.0
148
0.0
149
0.0
100
AcDbLayout
  1
Model
 70
     1
 71
     0
 10
0.0
 20
0.0
 11
420.0
 21
297.0
 12
0.0
 22
0.0
 32
0.0
 14
1.000000E+20
 24
1.000000E+20
 34
1.000000E+20
 15
-1.000000E+20
 25
-1.000000E+20
 35
-1.000000E+20
146
0.0
 13
0.0
 23
0.0
 33
0.0
 16
1.0
 26
0.0
 36
0.0
 17
0.0
 27
1.0
 37
0.0
 76
     0
330
1F
331
29
  0
MATERIAL
  5
45
102
{ACAD_REACTORS
330
43
102
}
330
43
100
AcDbMaterial
  1
ByBlock
 72
     1
 94
      127
  0
MATERIAL
  5
44
102
{ACAD_REACTORS
330
43
102
}
330
43
100
AcDbMaterial
  1
ByLayer
 72
     1
 94
      127
  0
MATERIAL
  5
46
102
{ACAD_REACTORS
330
43
102
}
330
43
100
AcDbMaterial
  1
Global
 72
     1
 94
      127
  0
MLEADERSTYLE
  5
6C
102
{ACAD_REACTORS
330
6B
102
}
330
6B
100
AcDbMLeaderStyle
179
     2
170
     2
171
     1
172
     0
 90
        2
 40
0.0
 41
0.0
173
     1
 91
-1056964608
340
14
 92
       -2
290
     1
 42
2.0
291
     1
 43
8.0
  3
Standard
341
0
 44
4.0
300

342
11
174
     1
178
     6
175
     1
176
     0
 93
-1056964608
 45
4.0
292
     0
297
     0
 46
4.0
343
0
 94
-1056964608
 47
1.0
 49
1.0
140
1.0
293
     1
141
0.0
294
     1
177
     0
142
1.0
295
     0
296
     0
143
3.75
271
     0
272
     9
273
     9
  0
MLINESTYLE
  5
18
102
{ACAD_REACTORS
330
17
102
}
330
17
100
AcDbMlineStyle
  2
Standard
 70
     0
  3

 62
   256
 51
90.0
 52
90.0
 71
     2
 49
0.5
 62
   256
  6
BYLAYER
 49
-0.5
 62
   256
  6
BYLAYER
  0
ACDBPLACEHOLDER
  5
F
102
{ACAD_REACTORS
330
E
102
}
330
E
  0
SCALE
  5
48
102
{ACAD_REACTORS
330
47
102
}
330
47
100
AcDbScale
 70
     0
300
1:1
140
1.0
141
1.0
290
     1
  0
SCALE
  5
49
102
{ACAD_REACTORS
330
47
102
}
330
47
100
AcDbScale
 70
     0
300
1:2
140
1.0
141
2.0
290
     0
  0
SCALE
  5
4A
102
{ACAD_REACTORS
330
47
102
}
330
47
100
AcDbScale
 70
     0
300
1:4
140
1.0
141
4.0
290
     0
  0
SCALE
  5
4B
102
{ACAD_REACTORS
330
47
102
}
330
47
100
AcDbScale
 70
     0
300
1:5
140
1.0
141
5.0
290
     0
  0
SCALE
  5
4C
102
{ACAD_REACTORS
330
47
102
}
330
47
100
AcDbScale
 70
     0
300
1:8
140
1.0
141
8.0
290
     0
  0
SCALE
  5
4D
102
{ACAD_REACTORS
330
47
102
}
330
47
100
AcDbScale
 70
     0
300
1:10
140
1.0
141
10.0
290
     0
  0
SCALE
  5
4E
102
{ACAD_REACTORS
330
47
102
}
330
47
100
AcDbScale
 70
     0
300
1:16
140
1.0
141
16.0
290
     0
  0
SCALE
  5
4F
102
{ACAD_REACTORS
330
47
102
}
330
47
100
AcDbScale
 70
     0
300
1:20
140
1.0
141
20.0
290
     0
  0
SCALE
  5
50
102
{ACAD_REACTORS
330
47
102
}
330
47
100
AcDbScale
 70
     0
300
1:30
140
1.0
141
30.0
290
     0
  0
SCALE
  5
51
102
{ACAD_REACTORS
330
47
102
}
330
47
100
AcDbScale
 70
     0
300
1:40
140
1.0
141
40.0
290
     0
  0
SCALE
  5
52
102
{ACAD_REACTORS
330
47
102
}
330
47
100
AcDbScale
 70
     0
300
1:50
140
1.0
141
50.0
290
     0
  0
SCALE
  5
53
102
{ACAD_REACTORS
330
47
102
}
330
47
100
AcDbScale
 70
     0
300
1:100
140
1.0
141
100.0
290
     0
  0
SCALE
  5
54
102
{ACAD_REACTORS
330
47
102
}
330
47
100
AcDbScale
 70
     0
300
2:1
140
2.0
141
1.0
290
     0
  0
SCALE
  5
55
102
{ACAD_REACTORS
330
47
102
}
330
47
100
AcDbScale
 70
     0
300
4:1
140
4.0
141
1.0
290
     0
  0
SCALE
  5
56
102
{ACAD_REACTORS
330
47
102
}
330
47
100
AcDbScale
 70
     0
300
8:1
140
8.0
141
1.0
290
     0
  0
SCALE
  5
57
102
{ACAD_REACTORS
330
47
102
}
330
47
100
AcDbScale
 70
     0
300
10:1
140
10.0
141
1.0
290
     0
  0
SCALE
  5
58
102
{ACAD_REACTORS
330
47
102
}
330
47
100
AcDbScale
 70
     0
300
100:1
140
100.0
141
1.0
290
     0
  0
SCALE
  5
59
102
{ACAD_REACTORS
330
47
102
}
330
47
100
AcDbScale
 70
     0
300
1/128" = 1'-0"
140
0.007812
141
12.0
290
     0
  0
SCALE
  5
5A
102
{ACAD_REACTORS
330
47
102
}
330
47
100
AcDbScale
 70
     0
300
1/64" = 1'-0"
140
0.015625
141
12.0
290
     0
  0
SCALE
  5
5B
102
{ACAD_REACTORS
330
47
102
}
330
47
100
AcDbScale
 70
     0
300
1/32" = 1'-0"
140
0.03125
141
12.0
290
     0
  0
SCALE
  5
5C
102
{ACAD_REACTORS
330
47
102
}
330
47
100
AcDbScale
 70
     0
300
1/16" = 1'-0"
140
0.0625
141
12.0
290
     0
  0
SCALE
  5
5D
102
{ACAD_REACTORS
330
47
102
}
330
47
100
AcDbScale
 70
     0
300
3/32" = 1'-0"
140
0.09375
141
12.0
290
     0
  0
SCALE
  5
5E
102
{ACAD_REACTORS
330
47
102
}
330
47
100
AcDbScale
 70
     0
300
1/8" = 1'-0"
140
0.125
141
12.0
290
     0
  0
SCALE
  5
5F
102
{ACAD_REACTORS
330
47
102
}
330
47
100
AcDbScale
 70
     0
300
3/16" = 1'-0"
140
0.1875
141
12.0
290
     0
  0
SCALE
  5
60
102
{ACAD_REACTORS
330
47
102
}
330
47
100
AcDbScale
 70
     0
300
1/4" = 1'-0"
140
0.25
141
12.0
290
     0
  0
SCALE
  5
61
102
{ACAD_REACTORS
330
47
102
}
330
47
100
AcDbScale
 70
     0
300
3/8" = 1'-0"
140
0.375
141
12.0
290
     0
  0
SCALE
  5
62
102
{ACAD_REACTORS
330
47
102
}
330
47
100
AcDbScale
 70
     0
300
1/2" = 1'-0"
140
0.5
141
12.0
290
     0
  0
SCALE
  5
63
102
{ACAD_REACTORS
330
47
102
}
330
47
100
AcDbScale
 70
     0
300
3/4" = 1'-0"
140
0.75
141
12.0
290
     0
  0
SCALE
  5
64
102
{ACAD_REACTORS
330
47
102
}
330
47
100
AcDbScale
 70
     0
300
1" = 1'-0"
140
1.0
141
12.0
290
     0
  0
SCALE
  5
65
102
{ACAD_REACTORS
330
47
102
}
330
47
100
AcDbScale
 70
     0
300
1-1/2" = 1'-0"
140
1.5
141
12.0
290
     0
  0
SCALE
  5
66
102
{ACAD_REACTORS
330
47
102
}
330
47
100
AcDbScale
 70
     0
300
3" = 1'-0"
140
3.0
141
12.0
290
     0
  0
SCALE
  5
67
102
{ACAD_REACTORS
330
47
102
}
330
47
100
AcDbScale
 70
     0
300
6" = 1'-0"
140
6.0
141
12.0
290
     0
  0
SCALE
  5
68
102
{ACAD_REACTORS
330
47
102
}
330
47
100
AcDbScale
 70
     0
300
1'-0" = 1'-0"
140
12.0
141
12.0
290
     0
  0
TABLESTYLE
  5
6A
102
{ACAD_REACTORS
330
69
102
}
102
{ACAD_XDICTIONARY
360
2A2
102
}
330
69
100
AcDbTableStyle
  3
Standard
 70
     0
 71
     0
 40
0.06
 41
0.06
280
     0
281
     0
  7
Standard
140
4.5
170
     2
 62
     0
 63
   257
283
     0
 90
        4
 91
        0
  1

274
    -2
284
     1
 64
     0
275
    -2
285
     1
 65
     0
276
    -2
286
     1
 66
     0
277
    -2
287
     1
 67
     0
278
    -2
288
     1
 68
     0
279
    -2
289
     1
 69
     0
  7
Standard
140
6.0
170
     5
 62
     0
 63
   257
283
     0
 90
        4
 91
        0
  1

274
    -2
284
     1
 64
     0
275
    -2
285
     1
 65
     0
276
    -2
286
     1
 66
     0
277
    -2
287
     1
 67
     0
278
    -2
288
     1
 68
     0
279
    -2
289
     1
 69
     0
  7
Standard
140
4.5
170
     5
 62
     0
 63
   257
283
     0
 90
        4
 91
        0
  1

274
    -2
284
     1
 64
     0
275
    -2
285
     1
 65
     0
276
    -2
286
     1
 66
     0
277
    -2
287
     1
 67
     0
278
    -2
288
     1
 68
     0
279
    -2
289
     1
 69
     0
  0
VISUALSTYLE
  5
2F
102
{ACAD_REACTORS
330
2A
102
}
102
{ACAD_XDICTIONARY
360
27A
102
}
330
2A
100
AcDbVisualStyle
  2
2dWireframe
 70
     4
177
     2
291
     0
 71
     0
176
     1
 72
     2
176
     1
 73
     0
176
     1
 90
        0
176
     1
 40
0.6
176
     1
 41
30.0
176
     1
 62
     5
 63
     7
421
 16777215
176
     1
 74
     1
176
     1
 91
        4
176
     1
 64
     7
176
     1
 65
   257
176
     1
 75
     1
176
     1
175
     1
176
     1
 42
1.0
176
     1
 92
        0
176
     1
 66
   257
176
     1
 43
1.0
176
     1
 76
     1
176
     1
 77
     6
176
     1
 78
     2
176
     1
 67
     7
176
     1
 79
     5
176
     1
170
     0
176
     1
171
     0
176
     1
290
     0
176
     1
 93
        1
176
     1
 44
0.0
176
     1
173
     0
176
     1
  0
VISUALSTYLE
  5
32
102
{ACAD_REACTORS
330
2A
102
}
102
{ACAD_XDICTIONARY
360
280
102
}
330
2A
100
AcDbVisualStyle
  2
Basic
 70
     7
177
     2
291
     1
 71
     1
176
     1
 72
     0
176
     1
 73
     1
176
     1
 90
        0
176
     1
 40
0.6
176
     1
 41
30.0
176
     1
 62
     5
 63
     7
421
 16777215
176
     1
 74
     0
176
     1
 91
        4
176
     1
 64
     7
176
     1
 65
   257
176
     1
 75
     1
176
     1
175
     1
176
     1
 42
1.0
176
     1
 92
        8
176
     1
 66
     7
176
     1
 43
1.0
176
     1
 76
     1
176
     1
 77
     6
176
     1
 78
     2
176
     1
 67
     7
176
     1
 79
     5
176
     1
170
     0
176
     1
171
     0
176
     1
290
     0
176
     1
 93
        1
176
     1
 44
0.0
176
     1
173
     0
176
     1
  0
VISUALSTYLE
  5
36
102
{ACAD_REACTORS
330
2A
102
}
102
{ACAD_XDICTIONARY
360
288
102
}
330
2A
100
AcDbVisualStyle
  2
Brighten
 70
    12
177
     2
291
     1
 71
     2
176
     1
 72
     2
176
     1
 73
     0
176
     1
 90
        0
176
     1
 40
0.6
176
     1
 41
30.0
176
     1
 62
     5
 63
     7
421
 16777215
176
     1
 74
     1
176
     1
 91
        4
176
     1
 64
     7
176
     1
 65
   257
176
     1
 75
     1
176
     1
175
     1
176
     1
 42
1.0
176
     1
 92
        8
176
     1
 66
     7
176
     1
 43
1.0
176
     1
 76
     1
176
     1
 77
     6
176
     1
 78
     2
176
     1
 67
     7
176
     1
 79
     5
176
     1
170
     0
176
     1
171
     0
176
     1
290
     0
176
     1
 93
        1
176
     1
 44
50.0
176
     1
173
     0
176
     1
  0
VISUALSTYLE
  5
3A
102
{ACAD_REACTORS
330
2A
102
}
102
{ACAD_XDICTIONARY
360
290
102
}
330
2A
100
AcDbVisualStyle
  2
ColorChange
 70
    16
177
     2
291
     1
 71
     2
176
     1
 72
     2
176
     1
 73
     3
176
     1
 90
        0
176
     1
 40
0.6
176
     1
 41
30.0
176
     1
 62
     5
 63
     8
421
  8421504
176
     1
 74
     1
176
     1
 91
        4
176
     1
 64
     7
176
     1
 65
   257
176
     1
 75
     1
176
     1
175
     1
176
     1
 42
1.0
176
     1
 92
        8
176
     1
 66
     8
424
  8421504
176
     1
 43
1.0
176
     1
 76
     1
176
     1
 77
     6
176
     1
 78
     2
176
     1
 67
     7
176
     1
 79
     5
176
     1
170
     0
176
     1
171
     0
176
     1
290
     0
176
     1
 93
        1
176
     1
 44
0.0
176
     1
173
     0
176
     1
  0
VISUALSTYLE
  5
34
102
{ACAD_REACTORS
330
2A
102
}
102
{ACAD_XDICTIONARY
360
284
102
}
330
2A
100
AcDbVisualStyle
  2
Conceptual
 70
     9
177
     2
291
     0
 71
     3
176
     1
 72
     2
176
     1
 73
     0
176
     1
 90
        0
176
     1
 40
0.6
176
     1
 41
30.0
176
     1
 62
     5
 63
     7
421
 16777215
176
     1
 74
     2
176
     1
 91
        2
176
     1
 64
     7
176
     1
 65
   257
176
     1
 75
     1
176
     1
175
     1
176
     1
 42
179.0
176
     1
 92
        8
176
     1
 66
     7
176
     1
 43
1.0
176
     1
 76
     1
176
     1
 77
     6
176
     1
 78
     2
176
     1
 67
     7
176
     1
 79
     3
176
     1
170
     0
176
     1
171
     0
176
     1
290
     0
176
     1
 93
        1
176
     1
 44
0.0
176
     1
173
     0
176
     1
  0
VISUALSTYLE
  5
35
102
{ACAD_REACTORS
330
2A
102
}
102
{ACAD_XDICTIONARY
360
286
102
}
330
2A
100
AcDbVisualStyle
  2
Dim
 70
    11
177
     2
291
     1
 71
     2
176
     1
 72
     2
176
     1
 73
     0
176
     1
 90
        0
176
     1
 40
0.6
176
     1
 41
30.0
176
     1
 62
     5
 63
     7
421
 16777215
176
     1
 74
     1
176
     1
 91
        4
176
     1
 64
     7
176
     1
 65
   257
176
     1
 75
     1
176
     1
175
     1
176
     1
 42
1.0
176
     1
 92
        8
176
     1
 66
     7
176
     1
 43
1.0
176
     1
 76
     1
176
     1
 77
     6
176
     1
 78
     2
176
     1
 67
     7
176
     1
 79
     5
176
     1
170
     0
176
     1
171
     0
176
     1
290
     0
176
     1
 93
        1
176
     1
 44
-50.0
176
     1
173
     0
176
     1
  0
VISUALSTYLE
  5
3D
102
{ACAD_REACTORS
330
2A
102
}
102
{ACAD_XDICTIONARY
360
296
102
}
330
2A
100
AcDbVisualStyle
  2
EdgeColorOff
 70
    22
177
     2
291
     1
 71
     2
176
     0
 72
     2
176
     0
 73
     0
176
     0
 90
        0
176
     0
 40
0.6
176
     0
 41
30.0
176
     0
 62
     5
 63
     7
421
 16777215
176
     0
 74
     1
176
     0
 91
        4
176
     0
 64
     7
176
     0
 65
   257
176
     0
 75
     1
176
     0
175
     1
176
     0
 42
1.0
176
     0
 92
        8
176
     2
 66
     7
176
     0
 43
1.0
176
     0
 76
     1
176
     0
 77
     6
176
     0
 78
     2
176
     0
 67
     7
176
     0
 79
     5
176
     0
170
     0
176
     0
171
     0
176
     0
290
     0
176
     0
 93
        1
176
     0
 44
0.0
176
     0
173
     0
176
     0
  0
VISUALSTYLE
  5
39
102
{ACAD_REACTORS
330
2A
102
}
102
{ACAD_XDICTIONARY
360
28E
102
}
330
2A
100
AcDbVisualStyle
  2
Facepattern
 70
    15
177
     2
291
     1
 71
     2
176
     1
 72
     2
176
     1
 73
     0
176
     1
 90
        0
176
     1
 40
0.6
176
     1
 41
30.0
176
     1
 62
     5
 63
     7
421
 16777215
176
     1
 74
     1
176
     1
 91
        4
176
     1
 64
     7
176
     1
 65
   257
176
     1
 75
     1
176
     1
175
     1
176
     1
 42
1.0
176
     1
 92
        8
176
     1
 66
     7
176
     1
 43
1.0
176
     1
 76
     1
176
     1
 77
     6
176
     1
 78
     2
176
     1
 67
     7
176
     1
 79
     5
176
     1
170
     0
176
     1
171
     0
176
     1
290
     0
176
     1
 93
        1
176
     1
 44
0.0
176
     1
173
     0
176
     1
  0
VISUALSTYLE
  5
2B
102
{ACAD_REACTORS
330
2A
102
}
102
{ACAD_XDICTIONARY
360
272
102
}
330
2A
100
AcDbVisualStyle
  2
Flat
 70
     0
177
     2
291
     1
 71
     2
176
     1
 72
     1
176
     1
 73
     1
176
     1
 90
        2
176
     1
 40
0.6
176
     1
 41
30.0
176
     1
 62
     5
 63
     7
421
 16777215
176
     1
 74
     0
176
     1
 91
        0
176
     1
 64
     7
176
     1
 65
   257
176
     1
 75
     1
176
     1
175
     1
176
     1
 42
1.0
176
     1
 92
        8
176
     1
 66
     7
176
     1
 43
1.0
176
     1
 76
     1
176
     1
 77
     6
176
     1
 78
     2
176
     1
 67
     7
176
     1
 79
     5
176
     1
170
     0
176
     1
171
     0
176
     1
290
     0
176
     1
 93
       13
176
     1
 44
0.0
176
     1
173
     0
176
     1
  0
VISUALSTYLE
  5
2C
102
{ACAD_REACTORS
330
2A
102
}
102
{ACAD_XDICTIONARY
360
274
102
}
330
2A
100
AcDbVisualStyle
  2
FlatWithEdges
 70
     1
177
     2
291
     1
 71
     2
176
     1
 72
     1
176
     1
 73
     1
176
     1
 90
        2
176
     1
 40
0.6
176
     1
 41
30.0
176
     1
 62
     5
 63
     7
421
 16777215
176
     1
 74
     1
176
     1
 91
        0
176
     1
 64
     7
176
     1
 65
   257
176
     1
 75
     1
176
     1
175
     1
176
     1
 42
1.0
176
     1
 92
        0
176
     1
 66
   257
176
     1
 43
1.0
176
     1
 76
     1
176
     1
 77
     6
176
     1
 78
     2
176
     1
 67
     7
176
     1
 79
     5
176
     1
170
     0
176
     1
171
     0
176
     1
290
     0
176
     1
 93
       13
176
     1
 44
0.0
176
     1
173
     0
176
     1
  0
VISUALSTYLE
  5
2D
102
{ACAD_REACTORS
330
2A
102
}
102
{ACAD_XDICTIONARY
360
276
102
}
330
2A
100
AcDbVisualStyle
  2
Gouraud
 70
     2
177
     2
291
     1
 71
     2
176
     1
 72
     2
176
     1
 73
     1
176
     1
 90
        2
176
     1
 40
0.6
176
     1
 41
30.0
176
     1
 62
     5
 63
     7
421
 16777215
176
     1
 74
     0
176
     1
 91
        0
176
     1
 64
     7
176
     1
 65
   257
176
     1
 75
     1
176
     1
175
     1
176
     1
 42
1.0
176
     1
 92
        0
176
     1
 66
     7
176
     1
 43
1.0
176
     1
 76
     1
176
     1
 77
     6
176
     1
 78
     2
176
     1
 67
     7
176
     1
 79
     5
176
     1
170
     0
176
     1
171
     0
176
     1
290
     0
176
     1
 93
       13
176
     1
 44
0.0
176
     1
173
     0
176
     1
  0
VISUALSTYLE
  5
2E
102
{ACAD_REACTORS
330
2A
102
}
102
{ACAD_XDICTIONARY
360
278
102
}
330
2A
100
AcDbVisualStyle
  2
GouraudWithEdges
 70
     3
177
     2
291
     1
 71
     2
176
     1
 72
     2
176
     1
 73
     1
176
     1
 90
        2
176
     1
 40
0.6
176
     1
 41
30.0
176
     1
 62
     5
 63
     7
421
 16777215
176
     1
 74
     1
176
     1
 91
        0
176
     1
 64
     7
176
     1
 65
   257
176
     1
 75
     1
176
     1
175
     1
176
     1
 42
1.0
176
     1
 92
        0
176
     1
 66
   257
176
     1
 43
1.0
176
     1
 76
     1
176
     1
 77
     6
176
     1
 78
     2
176
     1
 67
     7
176
     1
 79
     5
176
     1
170
     0
176
     1
171
     0
176
     1
290
     0
176
     1
 93
       13
176
     1
 44
0.0
176
     1
173
     0
176
     1
  0
VISUALSTYLE
  5
31
102
{ACAD_REACTORS
330
2A
102
}
102
{ACAD_XDICTIONARY
360
27E
102
}
330
2A
100
AcDbVisualStyle
  2
Hidden
 70
     6
177
     2
291
     0
 71
     1
176
     1
 72
     2
176
     1
 73
     2
176
     1
 90
        0
176
     1
 40
0.6
176
     1
 41
30.0
176
     1
 62
     5
 63
     7
421
 16777215
176
     1
 74
     2
176
     1
 91
        2
176
     1
 64
     7
176
     1
 65
   257
176
     1
 75
     2
176
     1
175
     1
176
     1
 42
40.0
176
     1
 92
        0
176
     1
 66
   257
176
     1
 43
1.0
176
     1
 76
     1
176
     1
 77
     6
176
     1
 78
     2
176
     1
 67
     7
176
     1
 79
     3
176
     1
170
     0
176
     1
171
     0
176
     1
290
     0
176
     1
 93
        1
176
     1
 44
0.0
176
     1
173
     0
176
     1
  0
VISUALSTYLE
  5
3B
102
{ACAD_REACTORS
330
2A
102
}
102
{ACAD_XDICTIONARY
360
292
102
}
330
2A
100
AcDbVisualStyle
  2
JitterOff
 70
    20
177
     2
291
     1
 71
     2
176
     0
 72
     2
176
     0
 73
     0
176
     0
 90
        0
176
     0
 40
0.6
176
     0
 41
30.0
176
     0
 62
     5
 63
     7
421
 16777215
176
     0
 74
     1
176
     0
 91
        4
176
     0
 64
     7
176
     0
 65
   257
176
     0
 75
     1
176
     0
175
     1
176
     0
 42
1.0
176
     0
 92
       10
176
     2
 66
     7
176
     0
 43
1.0
176
     0
 76
     1
176
     0
 77
     6
176
     0
 78
     2
176
     0
 67
     7
176
     0
 79
     5
176
     0
170
     0
176
     0
171
     0
176
     0
290
     0
176
     0
 93
        1
176
     0
 44
0.0
176
     0
173
     0
176
     0
  0
VISUALSTYLE
  5
38
102
{ACAD_REACTORS
330
2A
102
}
102
{ACAD_XDICTIONARY
360
28C
102
}
330
2A
100
AcDbVisualStyle
  2
Linepattern
 70
    14
177
     2
291
     1
 71
     2
176
     1
 72
     2
176
     1
 73
     0
176
     1
 90
        0
176
     1
 40
0.6
176
     1
 41
30.0
176
     1
 62
     5
 63
     7
421
 16777215
176
     1
 74
     1
176
     1
 91
        4
176
     1
 64
     7
176
     1
 65
   257
176
     1
 75
     7
176
     1
175
     7
176
     1
 42
1.0
176
     1
 92
        8
176
     1
 66
     7
176
     1
 43
1.0
176
     1
 76
     1
176
     1
 77
     6
176
     1
 78
     2
176
     1
 67
     7
176
     1
 79
     5
176
     1
170
     0
176
     1
171
     0
176
     1
290
     0
176
     1
 93
        1
176
     1
 44
0.0
176
     1
173
     0
176
     1
  0
VISUALSTYLE
  5
3C
102
{ACAD_REACTORS
330
2A
102
}
102
{ACAD_XDICTIONARY
360
294
102
}
330
2A
100
AcDbVisualStyle
  2
OverhangOff
 70
    21
177
     2
291
     1
 71
     2
176
     0
 72
     2
176
     0
 73
     0
176
     0
 90
        0
176
     0
 40
0.6
176
     0
 41
30.0
176
     0
 62
     5
 63
     7
421
 16777215
176
     0
 74
     1
176
     0
 91
        4
176
     0
 64
     7
176
     0
 65
   257
176
     0
 75
     1
176
     0
175
     1
176
     0
 42
1.0
176
     0
 92
        9
176
     2
 66
     7
176
     0
 43
1.0
176
     0
 76
     1
176
     0
 77
     6
176
     0
 78
     2
176
     0
 67
     7
176
     0
 79
     5
176
     0
170
     0
176
     0
171
     0
176
     0
290
     0
176
     0
 93
        1
176
     0
 44
0.0
176
     0
173
     0
176
     0
  0
VISUALSTYLE
  5
33
102
{ACAD_REACTORS
330
2A
102
}
102
{ACAD_XDICTIONARY
360
282
102
}
330
2A
100
AcDbVisualStyle
  2
Realistic
 70
     8
177
     2
291
     0
 71
     2
176
     1
 72
     3
176
     1
 73
     0
176
     1
 90
        2
176
     1
 40
0.6
176
     1
 41
30.0
176
     1
 62
     5
 63
     7
421
 16777215
176
     1
 74
     0
176
     1
 91
        0
176
     1
 64
     7
176
     1
 65
   257
176
     1
 75
     1
176
     1
175
     1
176
     1
 42
1.0
176
     1
 92
        8
176
     1
 66
   257
176
     1
 43
1.0
176
     1
 76
     1
176
     1
 77
     6
176
     1
 78
     2
176
     1
 67
     7
176
     1
 79
     3
176
     1
170
     0
176
     1
171
     0
176
     1
290
     0
176
     1
 93
       13
176
     1
 44
0.0
176
     1
173
     0
176
     1
  0
VISUALSTYLE
  5
42
102
{ACAD_REACTORS
330
2A
102
}
102
{ACAD_XDICTIONARY
360
2A0
102
}
330
2A
100
AcDbVisualStyle
  2
Shaded
 70
    27
177
     2
291
     0
 71
     2
176
     1
 72
     2
176
     1
 73
     1
176
     1
 90
        2
176
     1
 40
0.6
176
     1
 41
30.0
176
     1
 62
     5
 63
     7
421
 16777215
176
     1
 74
     0
176
     1
 91
        4
176
     1
 64
     7
176
     1
 65
   257
176
     1
 75
     1
176
     1
175
     1
176
     1
 42
1.0
176
     1
 92
        8
176
     1
 66
   257
176
     1
 43
1.0
176
     1
 76
     1
176
     1
 77
     6
176
     1
 78
     2
176
     1
 67
     8
425
  7895160
176
     1
 79
     3
176
     1
170
     0
176
     1
171
     0
176
     1
290
     0
176
     1
 93
        5
176
     1
 44
0.0
176
     1
173
     0
176
     1
  0
VISUALSTYLE
  5
41
102
{ACAD_REACTORS
330
2A
102
}
102
{ACAD_XDICTIONARY
360
29E
102
}
330
2A
100
AcDbVisualStyle
  2
Shaded with edges
 70
    26
177
     2
291
     0
 71
     2
176
     1
 72
     2
176
     1
 73
     1
176
     1
 90
        2
176
     1
 40
0.6
176
     1
 41
30.0
176
     1
 62
     5
 63
     7
421
 16777215
176
     1
 74
     1
176
     1
 91
       10
176
     1
 64
     7
176
     1
 65
   257
176
     1
 75
     2
176
     1
175
     1
176
     1
 42
1.0
176
     1
 92
        8
176
     1
 66
   257
176
     1
 43
1.0
176
     1
 76
     1
176
     1
 77
     6
176
     1
 78
     2
176
     1
 67
     7
176
     1
 79
     3
176
     1
170
     0
176
     1
171
     0
176
     1
290
     0
176
     1
 93
        5
176
     1
 44
0.0
176
     1
173
     0
176
     1
  0
VISUALSTYLE
  5
3E
102
{ACAD_REACTORS
330
2A
102
}
102
{ACAD_XDICTIONARY
360
298
102
}
330
2A
100
AcDbVisualStyle
  2
Shades of Gray
 70
    23
177
     2
291
     0
 71
     2
176
     1
 72
     2
176
     1
 73
     3
176
     1
 90
        0
176
     1
 40
0.6
176
     1
 41
30.0
176
     1
 62
     5
 63
     7
421
 16777215
176
     1
 74
     2
176
     1
 91
        2
176
     1
 64
     7
176
     1
 65
     7
176
     1
 75
     1
176
     1
175
     1
176
     1
 42
40.0
176
     1
 92
        8
176
     1
 66
     7
176
     1
 43
1.0
176
     1
 76
     1
176
     1
 77
     6
176
     1
 78
     2
176
     1
 67
     7
176
     1
 79
     3
176
     1
170
     0
176
     1
171
     0
176
     1
290
     0
176
     1
 93
        1
176
     1
 44
0.0
176
     1
173
     0
176
     1
  0
VISUALSTYLE
  5
3F
102
{ACAD_REACTORS
330
2A
102
}
102
{ACAD_XDICTIONARY
360
29A
102
}
330
2A
100
AcDbVisualStyle
  2
Sketchy
 70
    24
177
     2
291
     0
 71
     1
176
     1
 72
     2
176
     1
 73
     2
176
     1
 90
        0
176
     1
 40
0.6
176
     1
 41
30.0
176
     1
 62
     5
 63
     7
421
 16777215
176
     1
 74
     2
176
     1
 91
        2
176
     1
 64
     7
176
     1
 65
     7
176
     1
 75
     1
176
     1
175
     1
176
     1
 42
40.0
176
     1
 92
       11
176
     1
 66
     7
176
     1
 43
1.0
176
     1
 76
     1
176
     1
 77
     6
176
     1
 78
     2
176
     1
 67
     7
176
     1
 79
     6
176
     1
170
     0
176
     1
171
     0
176
     1
290
     0
176
     1
 93
        1
176
     1
 44
0.0
176
     1
173
     0
176
     1
  0
VISUALSTYLE
  5
37
102
{ACAD_REACTORS
330
2A
102
}
102
{ACAD_XDICTIONARY
360
28A
102
}
330
2A
100
AcDbVisualStyle
  2
Thicken
 70
    13
177
     2
291
     1
 71
     2
176
     1
 72
     2
176
     1
 73
     0
176
     1
 90
        0
176
     1
 40
0.6
176
     1
 41
30.0
176
     1
 62
     5
 63
     7
421
 16777215
176
     1
 74
     1
176
     1
 91
        4
176
     1
 64
     7
176
     1
 65
   257
176
     1
 75
     1
176
     1
175
     1
176
     1
 42
1.0
176
     1
 92
       12
176
     1
 66
     7
176
     1
 43
1.0
176
     1
 76
     1
176
     1
 77
     6
176
     1
 78
     2
176
     1
 67
     7
176
     1
 79
     5
176
     1
170
     0
176
     1
171
     0
176
     1
290
     0
176
     1
 93
        1
176
     1
 44
0.0
176
     1
173
     0
176
     1
  0
VISUALSTYLE
  5
30
102
{ACAD_REACTORS
330
2A
102
}
102
{ACAD_XDICTIONARY
360
27C
102
}
330
2A
100
AcDbVisualStyle
  2
Wireframe
 70
     5
177
     2
291
     0
 71
     0
176
     1
 72
     2
176
     1
 73
     0
176
     1
 90
        0
176
     1
 40
0.6
176
     1
 41
30.0
176
     1
 62
     5
 63
     7
421
 16777215
176
     1
 74
     1
176
     1
 91
        4
176
     1
 64
     7
176
     1
 65
   257
176
     1
 75
     1
176
     1
175
     1
176
     1
 42
1.0
176
     1
 92
        0
176
     1
 66
   257
176
     1
 43
1.0
176
     1
 76
     1
176
     1
 77
     6
176
     1
 78
     2
176
     1
 67
     7
176
     1
 79
     3
176
     1
170
     0
176
     1
171
     0
176
     1
290
     0
176
     1
 93
        1
176
     1
 44
0.0
176
     1
173
     0
176
     1
  0
VISUALSTYLE
  5
40
102
{ACAD_REACTORS
330
2A
102
}
102
{ACAD_XDICTIONARY
360
29C
102
}
330
2A
100
AcDbVisualStyle
  2
X-Ray
 70
    25
177
     2
291
     0
 71
     2
176
     1
 72
     2
176
     1
 73
     1
176
     1
 90
        1
176
     1
 40
0.5
176
     1
 41
30.0
176
     1
 62
     5
 63
     7
421
 16777215
176
     1
 74
     1
176
     1
 91
        0
176
     1
 64
     7
176
     1
 65
   257
176
     1
 75
     1
176
     1
175
     1
176
     1
 42
1.0
176
     1
 92
        8
176
     1
 66
     7
176
     1
 43
1.0
176
     1
 76
     1
176
     1
 77
     6
176
     1
 78
     2
176
     1
 67
     7
176
     1
 79
     3
176
     1
170
     0
176
     1
171
     0
176
     1
290
     0
176
     1
 93
       13
176
     1
 44
0.0
176
     1
173
     0
176
     1
  0
DICTIONARYVAR
  5
271
102
{ACAD_REACTORS
330
270
102
}
330
270
100
DictionaryVariables
280
     0
  1
1:1
  0
DICTIONARYVAR
  5
2A6
102
{ACAD_REACTORS
330
270
102
}
330
270
100
DictionaryVariables
280
     0
  1
Standard
  0
DICTIONARYVAR
  5
2A5
102
{ACAD_REACTORS
330
270
102
}
330
270
100
DictionaryVariables
280
     0
  1
Standard
  0
DICTIONARY
  5
2A2
330
6A
100
AcDbDictionary
280
     1
281
     1
  3
ACAD_ROUNDTRIP_2008_TABLESTYLE_CELLSTYLEMAP
360
2A3
  0
DICTIONARY
  5
27A
330
2F
100
AcDbDictionary
280
     1
281
     1
  3
ACAD_XREC_ROUNDTRIP
360
27B
  0
DICTIONARY
  5
280
330
32
100
AcDbDictionary
280
     1
281
     1
  3
ACAD_XREC_ROUNDTRIP
360
281
  0
DICTIONARY
  5
288
330
36
100
AcDbDictionary
280
     1
281
     1
  3
ACAD_XREC_ROUNDTRIP
360
289
  0
DICTIONARY
  5
290
330
3A
100
AcDbDictionary
280
     1
281
     1
  3
ACAD_XREC_ROUNDTRIP
360
291
  0
DICTIONARY
  5
284
330
34
100
AcDbDictionary
280
     1
281
     1
  3
ACAD_XREC_ROUNDTRIP
360
285
  0
DICTIONARY
  5
286
330
35
100
AcDbDictionary
280
     1
281
     1
  3
ACAD_XREC_ROUNDTRIP
360
287
  0
DICTIONARY
  5
296
330
3D
100
AcDbDictionary
280
     1
281
     1
  3
ACAD_XREC_ROUNDTRIP
360
297
  0
DICTIONARY
  5
28E
330
39
100
AcDbDictionary
280
     1
281
     1
  3
ACAD_XREC_ROUNDTRIP
360
28F
  0
DICTIONARY
  5
272
330
2B
100
AcDbDictionary
280
     1
281
     1
  3
ACAD_XREC_ROUNDTRIP
360
273
  0
DICTIONARY
  5
274
330
2C
100
AcDbDictionary
280
     1
281
     1
  3
ACAD_XREC_ROUNDTRIP
360
275
  0
DICTIONARY
  5
276
330
2D
100
AcDbDictionary
280
     1
281
     1
  3
ACAD_XREC_ROUNDTRIP
360
277
  0
DICTIONARY
  5
278
330
2E
100
AcDbDictionary
280
     1
281
     1
  3
ACAD_XREC_ROUNDTRIP
360
279
  0
DICTIONARY
  5
27E
330
31
100
AcDbDictionary
280
     1
281
     1
  3
ACAD_XREC_ROUNDTRIP
360
27F
  0
DICTIONARY
  5
292
330
3B
100
AcDbDictionary
280
     1
281
     1
  3
ACAD_XREC_ROUNDTRIP
360
293
  0
DICTIONARY
  5
28C
330
38
100
AcDbDictionary
280
     1
281
     1
  3
ACAD_XREC_ROUNDTRIP
360
28D
  0
DICTIONARY
  5
294
330
3C
100
AcDbDictionary
280
     1
281
     1
  3
ACAD_XREC_ROUNDTRIP
360
295
  0
DICTIONARY
  5
282
330
33
100
AcDbDictionary
280
     1
281
     1
  3
ACAD_XREC_ROUNDTRIP
360
283
  0
DICTIONARY
  5
2A0
330
42
100
AcDbDictionary
280
     1
281
     1
  3
ACAD_XREC_ROUNDTRIP
360
2A1
  0
DICTIONARY
  5
29E
330
41
100
AcDbDictionary
280
     1
281
     1
  3
ACAD_XREC_ROUNDTRIP
360
29F
  0
DICTIONARY
  5
298
330
3E
100
AcDbDictionary
280
     1
281
     1
  3
ACAD_XREC_ROUNDTRIP
360
299
  0
DICTIONARY
  5
29A
330
3F
100
AcDbDictionary
280
     1
281
     1
  3
ACAD_XREC_ROUNDTRIP
360
29B
  0
DICTIONARY
  5
28A
330
37
100
AcDbDictionary
280
     1
281
     1
  3
ACAD_XREC_ROUNDTRIP
360
28B
  0
DICTIONARY
  5
27C
330
30
100
AcDbDictionary
280
     1
281
     1
  3
ACAD_XREC_ROUNDTRIP
360
27D
  0
DICTIONARY
  5
29C
330
40
100
AcDbDictionary
280
     1
281
     1
  3
ACAD_XREC_ROUNDTRIP
360
29D
  0
CELLSTYLEMAP
  5
2A3
102
{ACAD_REACTORS
330
2A2
102
}
330
2A2
100
AcDbCellStyleMap
 90
        3
300
CELLSTYLE
  1
TABLEFORMAT_BEGIN
 90
        5
170
     1
 91
        0
 92
    32768
 62
   257
 93
        1
300
CONTENTFORMAT
  1
CONTENTFORMAT_BEGIN
 90
        0
 91
        0
 92
        4
 93
        0
300

 40
0.0
140
1.0
 94
        5
 62
     0
340
11
144
6.0
309
CONTENTFORMAT_END
171
     1
301
MARGIN
  1
CELLMARGIN_BEGIN
 40
1.5
 40
1.5
 40
1.5
 40
1.5
 40
1.5
 40
1.5
309
CELLMARGIN_END
 94
        6
 95
        1
302
GRIDFORMAT
  1
GRIDFORMAT_BEGIN
 90
        0
 91
        1
 62
     0
 92
       -2
340
14
 93
        0
 40
0.045
309
GRIDFORMAT_END
 95
        2
302
GRIDFORMAT
  1
GRIDFORMAT_BEGIN
 90
        0
 91
        1
 62
     0
 92
       -2
340
14
 93
        0
 40
0.045
309
GRIDFORMAT_END
 95
        4
302
GRIDFORMAT
  1
GRIDFORMAT_BEGIN
 90
        0
 91
        1
 62
     0
 92
       -2
340
14
 93
        0
 40
0.045
309
GRIDFORMAT_END
 95
        8
302
GRIDFORMAT
  1
GRIDFORMAT_BEGIN
 90
        0
 91
        1
 62
     0
 92
       -2
340
14
 93
        0
 40
0.045
309
GRIDFORMAT_END
 95
       16
302
GRIDFORMAT
  1
GRIDFORMAT_BEGIN
 90
        0
 91
        1
 62
     0
 92
       -2
340
14
 93
        0
 40
0.045
309
GRIDFORMAT_END
 95
       32
302
GRIDFORMAT
  1
GRIDFORMAT_BEGIN
 90
        0
 91
        1
 62
     0
 92
       -2
340
14
 93
        0
 40
0.045
309
GRIDFORMAT_END
309
TABLEFORMAT_END
  1
CELLSTYLE_BEGIN
 90
        1
 91
        1
300
_TITLE
309
CELLSTYLE_END
300
CELLSTYLE
  1
TABLEFORMAT_BEGIN
 90
        5
170
     1
 91
        0
 92
        0
 62
   257
 93
        1
300
CONTENTFORMAT
  1
CONTENTFORMAT_BEGIN
 90
        0
 91
        0
 92
        4
 93
        0
300

 40
0.0
140
1.0
 94
        5
 62
     0
340
11
144
4.5
309
CONTENTFORMAT_END
171
     1
301
MARGIN
  1
CELLMARGIN_BEGIN
 40
1.5
 40
1.5
 40
1.5
 40
1.5
 40
1.5
 40
1.5
309
CELLMARGIN_END
 94
        6
 95
        1
302
GRIDFORMAT
  1
GRIDFORMAT_BEGIN
 90
        0
 91
        1
 62
     0
 92
       -2
340
14
 93
        0
 40
0.045
309
GRIDFORMAT_END
 95
        2
302
GRIDFORMAT
  1
GRIDFORMAT_BEGIN
 90
        0
 91
        1
 62
     0
 92
       -2
340
14
 93
        0
 40
0.045
309
GRIDFORMAT_END
 95
        4
302
GRIDFORMAT
  1
GRIDFORMAT_BEGIN
 90
        0
 91
        1
 62
     0
 92
       -2
340
14
 93
        0
 40
0.045
309
GRIDFORMAT_END
 95
        8
302
GRIDFORMAT
  1
GRIDFORMAT_BEGIN
 90
        0
 91
        1
 62
     0
 92
       -2
340
14
 93
        0
 40
0.045
309
GRIDFORMAT_END
 95
       16
302
GRIDFORMAT
  1
GRIDFORMAT_BEGIN
 90
        0
 91
        1
 62
     0
 92
       -2
340
14
 93
        0
 40
0.045
309
GRIDFORMAT_END
 95
       32
302
GRIDFORMAT
  1
GRIDFORMAT_BEGIN
 90
        0
 91
        1
 62
     0
 92
       -2
340
14
 93
        0
 40
0.045
309
GRIDFORMAT_END
309
TABLEFORMAT_END
  1
CELLSTYLE_BEGIN
 90
        2
 91
        1
300
_HEADER
309
CELLSTYLE_END
300
CELLSTYLE
  1
TABLEFORMAT_BEGIN
 90
        5
170
     1
 91
        0
 92
        0
 62
   257
 93
        1
300
CONTENTFORMAT
  1
CONTENTFORMAT_BEGIN
 90
        0
 91
        0
 92
        4
 93
        0
300

 40
0.0
140
1.0
 94
        2
 62
     0
340
11
144
4.5
309
CONTENTFORMAT_END
171
     1
301
MARGIN
  1
CELLMARGIN_BEGIN
 40
1.5
 40
1.5
 40
1.5
 40
1.5
 40
1.5
 40
1.5
309
CELLMARGIN_END
 94
        6
 95
        1
302
GRIDFORMAT
  1
GRIDFORMAT_BEGIN
 90
        0
 91
        1
 62
     0
 92
       -2
340
14
 93
        0
 40
0.045
309
GRIDFORMAT_END
 95
        2
302
GRIDFORMAT
  1
GRIDFORMAT_BEGIN
 90
        0
 91
        1
 62
     0
 92
       -2
340
14
 93
        0
 40
0.045
309
GRIDFORMAT_END
 95
        4
302
GRIDFORMAT
  1
GRIDFORMAT_BEGIN
 90
        0
 91
        1
 62
     0
 92
       -2
340
14
 93
        0
 40
0.045
309
GRIDFORMAT_END
 95
        8
302
GRIDFORMAT
  1
GRIDFORMAT_BEGIN
 90
        0
 91
        1
 62
     0
 92
       -2
340
14
 93
        0
 40
0.045
309
GRIDFORMAT_END
 95
       16
302
GRIDFORMAT
  1
GRIDFORMAT_BEGIN
 90
        0
 91
        1
 62
     0
 92
       -2
340
14
 93
        0
 40
0.045
309
GRIDFORMAT_END
 95
       32
302
GRIDFORMAT
  1
GRIDFORMAT_BEGIN
 90
        0
 91
        1
 62
     0
 92
       -2
340
14
 93
        0
 40
0.045
309
GRIDFORMAT_END
309
TABLEFORMAT_END
  1
CELLSTYLE_BEGIN
 90
        3
 91
        2
300
_DATA
309
CELLSTYLE_END
  0
XRECORD
  5
27B
102
{ACAD_REACTORS
330
27A
102
}
330
27A
100
AcDbXrecord
280
     1
102
RTVSPost2010Prop28
280
     1
102
RTVSPost2010PropOp28
 70
     1
102
RTVSPost2010Prop29
280
     1
102
RTVSPost2010PropOp29
 70
     1
102
RTVSPost2010Prop30
280
     0
102
RTVSPost2010PropOp30
 70
     1
102
RTVSPost2010Prop31
280
     0
102
RTVSPost2010PropOp31
 70
     1
102
RTVSPost2010Prop32
280
     0
102
RTVSPost2010PropOp32
 70
     1
102
RTVSPost2010Prop33
280
     0
102
RTVSPost2010PropOp33
 70
     1
102
RTVSPost2010Prop34
280
     0
102
RTVSPost2010PropOp34
 70
     1
102
RTVSPost2010Prop35
280
     0
102
RTVSPost2010PropOp35
 70
     1
102
RTVSPost2010Prop36
280
     0
102
RTVSPost2010PropOp36
 70
     1
102
RTVSPost2010Prop37
 90
       50
102
RTVSPost2010PropOp37
 70
     1
102
RTVSPost2010Prop38
140
0.0
102
RTVSPost2010PropOp38
 70
     1
102
RTVSPost2010Prop39
140
1.0
102
RTVSPost2010PropOp39
 70
     1
102
RTVSPost2010Prop40
 90
        0
102
RTVSPost2010PropOp40
 70
     1
102
RTVSPost2010Prop41ColorIndex
 90
       18
102
RTVSPost2010Prop41ColorRGB
 90
        0
102
RTVSPost2010PropOp41
 70
     1
102
RTVSPost2010Prop42
 90
       50
102
RTVSPost2010PropOp42
 70
     1
102
RTVSPost2010Prop43
 90
        3
102
RTVSPost2010PropOp43
 70
     1
102
RTVSPost2010Prop44ColorIndex
 90
        5
102
RTVSPost2010Prop44ColorRGB
 90
      255
102
RTVSPost2010PropOp44
 70
     1
102
RTVSPost2010Prop45
280
     0
102
RTVSPost2010PropOp45
 70
     1
102
RTVSPost2010Prop46
 90
       50
102
RTVSPost2010PropOp46
 70
     1
102
RTVSPost2010Prop47
 90
       50
102
RTVSPost2010PropOp47
 70
     1
102
RTVSPost2010Prop48
 90
       50
102
RTVSPost2010PropOp48
 70
     1
102
RTVSPost2010Prop49
280
     0
102
RTVSPost2010PropOp49
 70
     1
102
RTVSPost2010Prop50
 90
       50
102
RTVSPost2010PropOp50
 70
     1
102
RTVSPost2010Prop51ColorIndex
 90
      256
102
RTVSPost2010Prop51ColorRGB
 90
-16777216
102
RTVSPost2010PropOp51
 70
     0
102
RTVSPost2010Prop52
140
1.0
102
RTVSPost2010PropOp52
 70
     0
102
RTVSPost2010Prop53
 90
        2
102
RTVSPost2010PropOp53
 70
     1
102
RTVSPost2010Prop54
  1
strokes_ogs.tif
102
RTVSPost2010PropOp54
 70
     1
102
RTVSPost2010Prop55
280
     0
102
RTVSPost2010PropOp55
 70
     1
102
RTVSPost2010Prop56
140
1.0
102
RTVSPost2010PropOp56
 70
     1
102
RTVSPost2010Prop57
140
1.0
102
RTVSPost2010PropOp57
 70
     1
  0
XRECORD
  5
281
102
{ACAD_REACTORS
330
280
102
}
330
280
100
AcDbXrecord
280
     1
102
RTVSPost2010Prop28
280
     0
102
RTVSPost2010PropOp28
 70
     1
102
RTVSPost2010Prop29
280
     1
102
RTVSPost2010PropOp29
 70
     1
102
RTVSPost2010Prop30
280
     1
102
RTVSPost2010PropOp30
 70
     1
102
RTVSPost2010Prop31
280
     0
102
RTVSPost2010PropOp31
 70
     1
102
RTVSPost2010Prop32
280
     0
102
RTVSPost2010PropOp32
 70
     1
102
RTVSPost2010Prop33
280
     0
102
RTVSPost2010PropOp33
 70
     1
102
RTVSPost2010Prop34
280
     0
102
RTVSPost2010PropOp34
 70
     1
102
RTVSPost2010Prop35
280
     0
102
RTVSPost2010PropOp35
 70
     1
102
RTVSPost2010Prop36
280
     0
102
RTVSPost2010PropOp36
 70
     1
102
RTVSPost2010Prop37
 90
       50
102
RTVSPost2010PropOp37
 70
     1
102
RTVSPost2010Prop38
140
0.0
102
RTVSPost2010PropOp38
 70
     1
102
RTVSPost2010Prop39
140
1.0
102
RTVSPost2010PropOp39
 70
     1
102
RTVSPost2010Prop40
 90
        0
102
RTVSPost2010PropOp40
 70
     1
102
RTVSPost2010Prop41ColorIndex
 90
       18
102
RTVSPost2010Prop41ColorRGB
 90
        0
102
RTVSPost2010PropOp41
 70
     1
102
RTVSPost2010Prop42
 90
       50
102
RTVSPost2010PropOp42
 70
     1
102
RTVSPost2010Prop43
 90
        3
102
RTVSPost2010PropOp43
 70
     1
102
RTVSPost2010Prop44ColorIndex
 90
        5
102
RTVSPost2010Prop44ColorRGB
 90
      255
102
RTVSPost2010PropOp44
 70
     1
102
RTVSPost2010Prop45
280
     0
102
RTVSPost2010PropOp45
 70
     1
102
RTVSPost2010Prop46
 90
       50
102
RTVSPost2010PropOp46
 70
     1
102
RTVSPost2010Prop47
 90
       50
102
RTVSPost2010PropOp47
 70
     1
102
RTVSPost2010Prop48
 90
       50
102
RTVSPost2010PropOp48
 70
     1
102
RTVSPost2010Prop49
280
     0
102
RTVSPost2010PropOp49
 70
     1
102
RTVSPost2010Prop50
 90
       50
102
RTVSPost2010PropOp50
 70
     1
102
RTVSPost2010Prop51ColorIndex
 90
      256
102
RTVSPost2010Prop51ColorRGB
 90
-16777216
102
RTVSPost2010PropOp51
 70
     0
102
RTVSPost2010Prop52
140
1.0
102
RTVSPost2010PropOp52
 70
     0
102
RTVSPost2010Prop53
 90
        2
102
RTVSPost2010PropOp53
 70
     1
102
RTVSPost2010Prop54
  1
strokes_ogs.tif
102
RTVSPost2010PropOp54
 70
     1
102
RTVSPost2010Prop55
280
     0
102
RTVSPost2010PropOp55
 70
     1
102
RTVSPost2010Prop56
140
1.0
102
RTVSPost2010PropOp56
 70
     1
102
RTVSPost2010Prop57
140
1.0
102
RTVSPost2010PropOp57
 70
     1
  0
XRECORD
  5
289
102
{ACAD_REACTORS
330
288
102
}
330
288
100
AcDbXrecord
280
     1
102
RTVSPost2010Prop28
280
     0
102
RTVSPost2010PropOp28
 70
     1
102
RTVSPost2010Prop29
280
     1
102
RTVSPost2010PropOp29
 70
     1
102
RTVSPost2010Prop30
280
     1
102
RTVSPost2010PropOp30
 70
     1
102
RTVSPost2010Prop31
280
     0
102
RTVSPost2010PropOp31
 70
     1
102
RTVSPost2010Prop32
280
     0
102
RTVSPost2010PropOp32
 70
     1
102
RTVSPost2010Prop33
280
     0
102
RTVSPost2010PropOp33
 70
     1
102
RTVSPost2010Prop34
280
     0
102
RTVSPost2010PropOp34
 70
     1
102
RTVSPost2010Prop35
280
     0
102
RTVSPost2010PropOp35
 70
     1
102
RTVSPost2010Prop36
280
     0
102
RTVSPost2010PropOp36
 70
     1
102
RTVSPost2010Prop37
 90
       50
102
RTVSPost2010PropOp37
 70
     1
102
RTVSPost2010Prop38
140
0.0
102
RTVSPost2010PropOp38
 70
     1
102
RTVSPost2010Prop39
140
1.0
102
RTVSPost2010PropOp39
 70
     1
102
RTVSPost2010Prop40
 90
        0
102
RTVSPost2010PropOp40
 70
     1
102
RTVSPost2010Prop41ColorIndex
 90
       18
102
RTVSPost2010Prop41ColorRGB
 90
        0
102
RTVSPost2010PropOp41
 70
     1
102
RTVSPost2010Prop42
 90
       50
102
RTVSPost2010PropOp42
 70
     1
102
RTVSPost2010Prop43
 90
        3
102
RTVSPost2010PropOp43
 70
     1
102
RTVSPost2010Prop44ColorIndex
 90
        5
102
RTVSPost2010Prop44ColorRGB
 90
      255
102
RTVSPost2010PropOp44
 70
     1
102
RTVSPost2010Prop45
280
     0
102
RTVSPost2010PropOp45
 70
     1
102
RTVSPost2010Prop46
 90
       50
102
RTVSPost2010PropOp46
 70
     1
102
RTVSPost2010Prop47
 90
       50
102
RTVSPost2010PropOp47
 70
     1
102
RTVSPost2010Prop48
 90
       50
102
RTVSPost2010PropOp48
 70
     1
102
RTVSPost2010Prop49
280
     0
102
RTVSPost2010PropOp49
 70
     1
102
RTVSPost2010Prop50
 90
       50
102
RTVSPost2010PropOp50
 70
     1
102
RTVSPost2010Prop51ColorIndex
 90
      256
102
RTVSPost2010Prop51ColorRGB
 90
-16777216
102
RTVSPost2010PropOp51
 70
     0
102
RTVSPost2010Prop52
140
1.0
102
RTVSPost2010PropOp52
 70
     0
102
RTVSPost2010Prop53
 90
        2
102
RTVSPost2010PropOp53
 70
     1
102
RTVSPost2010Prop54
  1
strokes_ogs.tif
102
RTVSPost2010PropOp54
 70
     1
102
RTVSPost2010Prop55
280
     0
102
RTVSPost2010PropOp55
 70
     1
102
RTVSPost2010Prop56
140
1.0
102
RTVSPost2010PropOp56
 70
     1
102
RTVSPost2010Prop57
140
1.0
102
RTVSPost2010PropOp57
 70
     1
  0
XRECORD
  5
291
102
{ACAD_REACTORS
330
290
102
}
330
290
100
AcDbXrecord
280
     1
102
RTVSPost2010Prop28
280
     0
102
RTVSPost2010PropOp28
 70
     1
102
RTVSPost2010Prop29
280
     1
102
RTVSPost2010PropOp29
 70
     1
102
RTVSPost2010Prop30
280
     1
102
RTVSPost2010PropOp30
 70
     1
102
RTVSPost2010Prop31
280
     0
102
RTVSPost2010PropOp31
 70
     1
102
RTVSPost2010Prop32
280
     0
102
RTVSPost2010PropOp32
 70
     1
102
RTVSPost2010Prop33
280
     0
102
RTVSPost2010PropOp33
 70
     1
102
RTVSPost2010Prop34
280
     0
102
RTVSPost2010PropOp34
 70
     1
102
RTVSPost2010Prop35
280
     0
102
RTVSPost2010PropOp35
 70
     1
102
RTVSPost2010Prop36
280
     0
102
RTVSPost2010PropOp36
 70
     1
102
RTVSPost2010Prop37
 90
       50
102
RTVSPost2010PropOp37
 70
     1
102
RTVSPost2010Prop38
140
0.0
102
RTVSPost2010PropOp38
 70
     1
102
RTVSPost2010Prop39
140
1.0
102
RTVSPost2010PropOp39
 70
     1
102
RTVSPost2010Prop40
 90
        0
102
RTVSPost2010PropOp40
 70
     1
102
RTVSPost2010Prop41ColorIndex
 90
       18
102
RTVSPost2010Prop41ColorRGB
 90
        0
102
RTVSPost2010PropOp41
 70
     1
102
RTVSPost2010Prop42
 90
       50
102
RTVSPost2010PropOp42
 70
     1
102
RTVSPost2010Prop43
 90
        3
102
RTVSPost2010PropOp43
 70
     1
102
RTVSPost2010Prop44ColorIndex
 90
        5
102
RTVSPost2010Prop44ColorRGB
 90
      255
102
RTVSPost2010PropOp44
 70
     1
102
RTVSPost2010Prop45
280
     0
102
RTVSPost2010PropOp45
 70
     1
102
RTVSPost2010Prop46
 90
       50
102
RTVSPost2010PropOp46
 70
     1
102
RTVSPost2010Prop47
 90
       50
102
RTVSPost2010PropOp47
 70
     1
102
RTVSPost2010Prop48
 90
       50
102
RTVSPost2010PropOp48
 70
     1
102
RTVSPost2010Prop49
280
     0
102
RTVSPost2010PropOp49
 70
     1
102
RTVSPost2010Prop50
 90
       50
102
RTVSPost2010PropOp50
 70
     1
102
RTVSPost2010Prop51ColorIndex
 90
      256
102
RTVSPost2010Prop51ColorRGB
 90
-16777216
102
RTVSPost2010PropOp51
 70
     0
102
RTVSPost2010Prop52
140
1.0
102
RTVSPost2010PropOp52
 70
     0
102
RTVSPost2010Prop53
 90
        2
102
RTVSPost2010PropOp53
 70
     1
102
RTVSPost2010Prop54
  1
strokes_ogs.tif
102
RTVSPost2010PropOp54
 70
     1
102
RTVSPost2010Prop55
280
     0
102
RTVSPost2010PropOp55
 70
     1
102
RTVSPost2010Prop56
140
1.0
102
RTVSPost2010PropOp56
 70
     1
102
RTVSPost2010Prop57
140
1.0
102
RTVSPost2010PropOp57
 70
     1
  0
XRECORD
  5
285
102
{ACAD_REACTORS
330
284
102
}
330
284
100
AcDbXrecord
280
     1
102
RTVSPost2010Prop28
280
     0
102
RTVSPost2010PropOp28
 70
     1
102
RTVSPost2010Prop29
280
     1
102
RTVSPost2010PropOp29
 70
     1
102
RTVSPost2010Prop30
280
     1
102
RTVSPost2010PropOp30
 70
     1
102
RTVSPost2010Prop31
280
     0
102
RTVSPost2010PropOp31
 70
     1
102
RTVSPost2010Prop32
280
     0
102
RTVSPost2010PropOp32
 70
     1
102
RTVSPost2010Prop33
280
     0
102
RTVSPost2010PropOp33
 70
     1
102
RTVSPost2010Prop34
280
     0
102
RTVSPost2010PropOp34
 70
     1
102
RTVSPost2010Prop35
280
     0
102
RTVSPost2010PropOp35
 70
     1
102
RTVSPost2010Prop36
280
     0
102
RTVSPost2010PropOp36
 70
     1
102
RTVSPost2010Prop37
 90
       50
102
RTVSPost2010PropOp37
 70
     1
102
RTVSPost2010Prop38
140
0.0
102
RTVSPost2010PropOp38
 70
     1
102
RTVSPost2010Prop39
140
1.0
102
RTVSPost2010PropOp39
 70
     1
102
RTVSPost2010Prop40
 90
        0
102
RTVSPost2010PropOp40
 70
     1
102
RTVSPost2010Prop41ColorIndex
 90
       18
102
RTVSPost2010Prop41ColorRGB
 90
        0
102
RTVSPost2010PropOp41
 70
     1
102
RTVSPost2010Prop42
 90
       50
102
RTVSPost2010PropOp42
 70
     1
102
RTVSPost2010Prop43
 90
        3
102
RTVSPost2010PropOp43
 70
     1
102
RTVSPost2010Prop44ColorIndex
 90
        5
102
RTVSPost2010Prop44ColorRGB
 90
      255
102
RTVSPost2010PropOp44
 70
     1
102
RTVSPost2010Prop45
280
     0
102
RTVSPost2010PropOp45
 70
     1
102
RTVSPost2010Prop46
 90
       50
102
RTVSPost2010PropOp46
 70
     1
102
RTVSPost2010Prop47
 90
       50
102
RTVSPost2010PropOp47
 70
     1
102
RTVSPost2010Prop48
 90
       50
102
RTVSPost2010PropOp48
 70
     1
102
RTVSPost2010Prop49
280
     0
102
RTVSPost2010PropOp49
 70
     1
102
RTVSPost2010Prop50
 90
       50
102
RTVSPost2010PropOp50
 70
     1
102
RTVSPost2010Prop51ColorIndex
 90
      256
102
RTVSPost2010Prop51ColorRGB
 90
-16777216
102
RTVSPost2010PropOp51
 70
     0
102
RTVSPost2010Prop52
140
1.0
102
RTVSPost2010PropOp52
 70
     0
102
RTVSPost2010Prop53
 90
        2
102
RTVSPost2010PropOp53
 70
     1
102
RTVSPost2010Prop54
  1
strokes_ogs.tif
102
RTVSPost2010PropOp54
 70
     1
102
RTVSPost2010Prop55
280
     0
102
RTVSPost2010PropOp55
 70
     1
102
RTVSPost2010Prop56
140
1.0
102
RTVSPost2010PropOp56
 70
     1
102
RTVSPost2010Prop57
140
1.0
102
RTVSPost2010PropOp57
 70
     1
  0
XRECORD
  5
287
102
{ACAD_REACTORS
330
286
102
}
330
286
100
AcDbXrecord
280
     1
102
RTVSPost2010Prop28
280
     0
102
RTVSPost2010PropOp28
 70
     1
102
RTVSPost2010Prop29
280
     1
102
RTVSPost2010PropOp29
 70
     1
102
RTVSPost2010Prop30
280
     1
102
RTVSPost2010PropOp30
 70
     1
102
RTVSPost2010Prop31
280
     0
102
RTVSPost2010PropOp31
 70
     1
102
RTVSPost2010Prop32
280
     0
102
RTVSPost2010PropOp32
 70
     1
102
RTVSPost2010Prop33
280
     0
102
RTVSPost2010PropOp33
 70
     1
102
RTVSPost2010Prop34
280
     0
102
RTVSPost2010PropOp34
 70
     1
102
RTVSPost2010Prop35
280
     0
102
RTVSPost2010PropOp35
 70
     1
102
RTVSPost2010Prop36
280
     0
102
RTVSPost2010PropOp36
 70
     1
102
RTVSPost2010Prop37
 90
       50
102
RTVSPost2010PropOp37
 70
     1
102
RTVSPost2010Prop38
140
0.0
102
RTVSPost2010PropOp38
 70
     1
102
RTVSPost2010Prop39
140
1.0
102
RTVSPost2010PropOp39
 70
     1
102
RTVSPost2010Prop40
 90
        0
102
RTVSPost2010PropOp40
 70
     1
102
RTVSPost2010Prop41ColorIndex
 90
       18
102
RTVSPost2010Prop41ColorRGB
 90
        0
102
RTVSPost2010PropOp41
 70
     1
102
RTVSPost2010Prop42
 90
       50
102
RTVSPost2010PropOp42
 70
     1
102
RTVSPost2010Prop43
 90
        3
102
RTVSPost2010PropOp43
 70
     1
102
RTVSPost2010Prop44ColorIndex
 90
        5
102
RTVSPost2010Prop44ColorRGB
 90
      255
102
RTVSPost2010PropOp44
 70
     1
102
RTVSPost2010Prop45
280
     0
102
RTVSPost2010PropOp45
 70
     1
102
RTVSPost2010Prop46
 90
       50
102
RTVSPost2010PropOp46
 70
     1
102
RTVSPost2010Prop47
 90
       50
102
RTVSPost2010PropOp47
 70
     1
102
RTVSPost2010Prop48
 90
       50
102
RTVSPost2010PropOp48
 70
     1
102
RTVSPost2010Prop49
280
     0
102
RTVSPost2010PropOp49
 70
     1
102
RTVSPost2010Prop50
 90
       50
102
RTVSPost2010PropOp50
 70
     1
102
RTVSPost2010Prop51ColorIndex
 90
      256
102
RTVSPost2010Prop51ColorRGB
 90
-16777216
102
RTVSPost2010PropOp51
 70
     0
102
RTVSPost2010Prop52
140
1.0
102
RTVSPost2010PropOp52
 70
     0
102
RTVSPost2010Prop53
 90
        2
102
RTVSPost2010PropOp53
 70
     1
102
RTVSPost2010Prop54
  1
strokes_ogs.tif
102
RTVSPost2010PropOp54
 70
     1
102
RTVSPost2010Prop55
280
     0
102
RTVSPost2010PropOp55
 70
     1
102
RTVSPost2010Prop56
140
1.0
102
RTVSPost2010PropOp56
 70
     1
102
RTVSPost2010Prop57
140
1.0
102
RTVSPost2010PropOp57
 70
     1
  0
XRECORD
  5
297
102
{ACAD_REACTORS
330
296
102
}
330
296
100
AcDbXrecord
280
     1
102
RTVSPost2010Prop28
280
     0
102
RTVSPost2010PropOp28
 70
     0
102
RTVSPost2010Prop29
280
     1
102
RTVSPost2010PropOp29
 70
     0
102
RTVSPost2010Prop30
280
     1
102
RTVSPost2010PropOp30
 70
     0
102
RTVSPost2010Prop31
280
     0
102
RTVSPost2010PropOp31
 70
     0
102
RTVSPost2010Prop32
280
     0
102
RTVSPost2010PropOp32
 70
     0
102
RTVSPost2010Prop33
280
     0
102
RTVSPost2010PropOp33
 70
     0
102
RTVSPost2010Prop34
280
     0
102
RTVSPost2010PropOp34
 70
     0
102
RTVSPost2010Prop35
280
     0
102
RTVSPost2010PropOp35
 70
     0
102
RTVSPost2010Prop36
280
     0
102
RTVSPost2010PropOp36
 70
     0
102
RTVSPost2010Prop37
 90
       50
102
RTVSPost2010PropOp37
 70
     0
102
RTVSPost2010Prop38
140
0.0
102
RTVSPost2010PropOp38
 70
     0
102
RTVSPost2010Prop39
140
1.0
102
RTVSPost2010PropOp39
 70
     0
102
RTVSPost2010Prop40
 90
        0
102
RTVSPost2010PropOp40
 70
     0
102
RTVSPost2010Prop41ColorIndex
 90
       18
102
RTVSPost2010Prop41ColorRGB
 90
        0
102
RTVSPost2010PropOp41
 70
     0
102
RTVSPost2010Prop42
 90
       50
102
RTVSPost2010PropOp42
 70
     0
102
RTVSPost2010Prop43
 90
        3
102
RTVSPost2010PropOp43
 70
     0
102
RTVSPost2010Prop44ColorIndex
 90
        5
102
RTVSPost2010Prop44ColorRGB
 90
      255
102
RTVSPost2010PropOp44
 70
     0
102
RTVSPost2010Prop45
280
     0
102
RTVSPost2010PropOp45
 70
     0
102
RTVSPost2010Prop46
 90
       50
102
RTVSPost2010PropOp46
 70
     0
102
RTVSPost2010Prop47
 90
       50
102
RTVSPost2010PropOp47
 70
     0
102
RTVSPost2010Prop48
 90
       50
102
RTVSPost2010PropOp48
 70
     0
102
RTVSPost2010Prop49
280
     0
102
RTVSPost2010PropOp49
 70
     0
102
RTVSPost2010Prop50
 90
       50
102
RTVSPost2010PropOp50
 70
     0
102
RTVSPost2010Prop51ColorIndex
 90
      256
102
RTVSPost2010Prop51ColorRGB
 90
-16777216
102
RTVSPost2010PropOp51
 70
     0
102
RTVSPost2010Prop52
140
1.0
102
RTVSPost2010PropOp52
 70
     0
102
RTVSPost2010Prop53
 90
        2
102
RTVSPost2010PropOp53
 70
     0
102
RTVSPost2010Prop54
  1
strokes_ogs.tif
102
RTVSPost2010PropOp54
 70
     0
102
RTVSPost2010Prop55
280
     0
102
RTVSPost2010PropOp55
 70
     0
102
RTVSPost2010Prop56
140
1.0
102
RTVSPost2010PropOp56
 70
     0
102
RTVSPost2010Prop57
140
1.0
102
RTVSPost2010PropOp57
 70
     0
  0
XRECORD
  5
28F
102
{ACAD_REACTORS
330
28E
102
}
330
28E
100
AcDbXrecord
280
     1
102
RTVSPost2010Prop28
280
     0
102
RTVSPost2010PropOp28
 70
     1
102
RTVSPost2010Prop29
280
     1
102
RTVSPost2010PropOp29
 70
     1
102
RTVSPost2010Prop30
280
     1
102
RTVSPost2010PropOp30
 70
     1
102
RTVSPost2010Prop31
280
     0
102
RTVSPost2010PropOp31
 70
     1
102
RTVSPost2010Prop32
280
     0
102
RTVSPost2010PropOp32
 70
     1
102
RTVSPost2010Prop33
280
     0
102
RTVSPost2010PropOp33
 70
     1
102
RTVSPost2010Prop34
280
     0
102
RTVSPost2010PropOp34
 70
     1
102
RTVSPost2010Prop35
280
     0
102
RTVSPost2010PropOp35
 70
     1
102
RTVSPost2010Prop36
280
     0
102
RTVSPost2010PropOp36
 70
     1
102
RTVSPost2010Prop37
 90
       50
102
RTVSPost2010PropOp37
 70
     1
102
RTVSPost2010Prop38
140
0.0
102
RTVSPost2010PropOp38
 70
     1
102
RTVSPost2010Prop39
140
1.0
102
RTVSPost2010PropOp39
 70
     1
102
RTVSPost2010Prop40
 90
        0
102
RTVSPost2010PropOp40
 70
     1
102
RTVSPost2010Prop41ColorIndex
 90
       18
102
RTVSPost2010Prop41ColorRGB
 90
        0
102
RTVSPost2010PropOp41
 70
     1
102
RTVSPost2010Prop42
 90
       50
102
RTVSPost2010PropOp42
 70
     1
102
RTVSPost2010Prop43
 90
        3
102
RTVSPost2010PropOp43
 70
     1
102
RTVSPost2010Prop44ColorIndex
 90
        5
102
RTVSPost2010Prop44ColorRGB
 90
      255
102
RTVSPost2010PropOp44
 70
     1
102
RTVSPost2010Prop45
280
     0
102
RTVSPost2010PropOp45
 70
     1
102
RTVSPost2010Prop46
 90
       50
102
RTVSPost2010PropOp46
 70
     1
102
RTVSPost2010Prop47
 90
       50
102
RTVSPost2010PropOp47
 70
     1
102
RTVSPost2010Prop48
 90
       50
102
RTVSPost2010PropOp48
 70
     1
102
RTVSPost2010Prop49
280
     0
102
RTVSPost2010PropOp49
 70
     1
102
RTVSPost2010Prop50
 90
       50
102
RTVSPost2010PropOp50
 70
     1
102
RTVSPost2010Prop51ColorIndex
 90
      256
102
RTVSPost2010Prop51ColorRGB
 90
-16777216
102
RTVSPost2010PropOp51
 70
     0
102
RTVSPost2010Prop52
140
1.0
102
RTVSPost2010PropOp52
 70
     0
102
RTVSPost2010Prop53
 90
        2
102
RTVSPost2010PropOp53
 70
     1
102
RTVSPost2010Prop54
  1
strokes_ogs.tif
102
RTVSPost2010PropOp54
 70
     1
102
RTVSPost2010Prop55
280
     0
102
RTVSPost2010PropOp55
 70
     1
102
RTVSPost2010Prop56
140
1.0
102
RTVSPost2010PropOp56
 70
     1
102
RTVSPost2010Prop57
140
1.0
102
RTVSPost2010PropOp57
 70
     1
  0
XRECORD
  5
273
102
{ACAD_REACTORS
330
272
102
}
330
272
100
AcDbXrecord
280
     1
102
RTVSPost2010Prop28
280
     0
102
RTVSPost2010PropOp28
 70
     1
102
RTVSPost2010Prop29
280
     1
102
RTVSPost2010PropOp29
 70
     1
102
RTVSPost2010Prop30
280
     1
102
RTVSPost2010PropOp30
 70
     1
102
RTVSPost2010Prop31
280
     0
102
RTVSPost2010PropOp31
 70
     1
102
RTVSPost2010Prop32
280
     0
102
RTVSPost2010PropOp32
 70
     1
102
RTVSPost2010Prop33
280
     0
102
RTVSPost2010PropOp33
 70
     1
102
RTVSPost2010Prop34
280
     0
102
RTVSPost2010PropOp34
 70
     1
102
RTVSPost2010Prop35
280
     0
102
RTVSPost2010PropOp35
 70
     1
102
RTVSPost2010Prop36
280
     0
102
RTVSPost2010PropOp36
 70
     1
102
RTVSPost2010Prop37
 90
       50
102
RTVSPost2010PropOp37
 70
     1
102
RTVSPost2010Prop38
140
0.0
102
RTVSPost2010PropOp38
 70
     1
102
RTVSPost2010Prop39
140
1.0
102
RTVSPost2010PropOp39
 70
     1
102
RTVSPost2010Prop40
 90
        0
102
RTVSPost2010PropOp40
 70
     1
102
RTVSPost2010Prop41ColorIndex
 90
       18
102
RTVSPost2010Prop41ColorRGB
 90
        0
102
RTVSPost2010PropOp41
 70
     1
102
RTVSPost2010Prop42
 90
       50
102
RTVSPost2010PropOp42
 70
     1
102
RTVSPost2010Prop43
 90
        3
102
RTVSPost2010PropOp43
 70
     1
102
RTVSPost2010Prop44ColorIndex
 90
        5
102
RTVSPost2010Prop44ColorRGB
 90
      255
102
RTVSPost2010PropOp44
 70
     1
102
RTVSPost2010Prop45
280
     0
102
RTVSPost2010PropOp45
 70
     1
102
RTVSPost2010Prop46
 90
       50
102
RTVSPost2010PropOp46
 70
     1
102
RTVSPost2010Prop47
 90
       50
102
RTVSPost2010PropOp47
 70
     1
102
RTVSPost2010Prop48
 90
       50
102
RTVSPost2010PropOp48
 70
     1
102
RTVSPost2010Prop49
280
     0
102
RTVSPost2010PropOp49
 70
     1
102
RTVSPost2010Prop50
 90
       50
102
RTVSPost2010PropOp50
 70
     1
102
RTVSPost2010Prop51ColorIndex
 90
      256
102
RTVSPost2010Prop51ColorRGB
 90
-16777216
102
RTVSPost2010PropOp51
 70
     0
102
RTVSPost2010Prop52
140
1.0
102
RTVSPost2010PropOp52
 70
     0
102
RTVSPost2010Prop53
 90
        2
102
RTVSPost2010PropOp53
 70
     1
102
RTVSPost2010Prop54
  1
strokes_ogs.tif
102
RTVSPost2010PropOp54
 70
     1
102
RTVSPost2010Prop55
280
     0
102
RTVSPost2010PropOp55
 70
     1
102
RTVSPost2010Prop56
140
1.0
102
RTVSPost2010PropOp56
 70
     1
102
RTVSPost2010Prop57
140
1.0
102
RTVSPost2010PropOp57
 70
     1
  0
XRECORD
  5
275
102
{ACAD_REACTORS
330
274
102
}
330
274
100
AcDbXrecord
280
     1
102
RTVSPost2010Prop28
280
     0
102
RTVSPost2010PropOp28
 70
     1
102
RTVSPost2010Prop29
280
     1
102
RTVSPost2010PropOp29
 70
     1
102
RTVSPost2010Prop30
280
     1
102
RTVSPost2010PropOp30
 70
     1
102
RTVSPost2010Prop31
280
     0
102
RTVSPost2010PropOp31
 70
     1
102
RTVSPost2010Prop32
280
     0
102
RTVSPost2010PropOp32
 70
     1
102
RTVSPost2010Prop33
280
     0
102
RTVSPost2010PropOp33
 70
     1
102
RTVSPost2010Prop34
280
     0
102
RTVSPost2010PropOp34
 70
     1
102
RTVSPost2010Prop35
280
     0
102
RTVSPost2010PropOp35
 70
     1
102
RTVSPost2010Prop36
280
     0
102
RTVSPost2010PropOp36
 70
     1
102
RTVSPost2010Prop37
 90
       50
102
RTVSPost2010PropOp37
 70
     1
102
RTVSPost2010Prop38
140
0.0
102
RTVSPost2010PropOp38
 70
     1
102
RTVSPost2010Prop39
140
1.0
102
RTVSPost2010PropOp39
 70
     1
102
RTVSPost2010Prop40
 90
        0
102
RTVSPost2010PropOp40
 70
     1
102
RTVSPost2010Prop41ColorIndex
 90
       18
102
RTVSPost2010Prop41ColorRGB
 90
        0
102
RTVSPost2010PropOp41
 70
     1
102
RTVSPost2010Prop42
 90
       50
102
RTVSPost2010PropOp42
 70
     1
102
RTVSPost2010Prop43
 90
        3
102
RTVSPost2010PropOp43
 70
     1
102
RTVSPost2010Prop44ColorIndex
 90
        5
102
RTVSPost2010Prop44ColorRGB
 90
      255
102
RTVSPost2010PropOp44
 70
     1
102
RTVSPost2010Prop45
280
     0
102
RTVSPost2010PropOp45
 70
     1
102
RTVSPost2010Prop46
 90
       50
102
RTVSPost2010PropOp46
 70
     1
102
RTVSPost2010Prop47
 90
       50
102
RTVSPost2010PropOp47
 70
     1
102
RTVSPost2010Prop48
 90
       50
102
RTVSPost2010PropOp48
 70
     1
102
RTVSPost2010Prop49
280
     0
102
RTVSPost2010PropOp49
 70
     1
102
RTVSPost2010Prop50
 90
       50
102
RTVSPost2010PropOp50
 70
     1
102
RTVSPost2010Prop51ColorIndex
 90
      256
102
RTVSPost2010Prop51ColorRGB
 90
-16777216
102
RTVSPost2010PropOp51
 70
     0
102
RTVSPost2010Prop52
140
1.0
102
RTVSPost2010PropOp52
 70
     0
102
RTVSPost2010Prop53
 90
        2
102
RTVSPost2010PropOp53
 70
     1
102
RTVSPost2010Prop54
  1
strokes_ogs.tif
102
RTVSPost2010PropOp54
 70
     1
102
RTVSPost2010Prop55
280
     0
102
RTVSPost2010PropOp55
 70
     1
102
RTVSPost2010Prop56
140
1.0
102
RTVSPost2010PropOp56
 70
     1
102
RTVSPost2010Prop57
140
1.0
102
RTVSPost2010PropOp57
 70
     1
  0
XRECORD
  5
277
102
{ACAD_REACTORS
330
276
102
}
330
276
100
AcDbXrecord
280
     1
102
RTVSPost2010Prop28
280
     0
102
RTVSPost2010PropOp28
 70
     1
102
RTVSPost2010Prop29
280
     1
102
RTVSPost2010PropOp29
 70
     1
102
RTVSPost2010Prop30
280
     1
102
RTVSPost2010PropOp30
 70
     1
102
RTVSPost2010Prop31
280
     0
102
RTVSPost2010PropOp31
 70
     1
102
RTVSPost2010Prop32
280
     0
102
RTVSPost2010PropOp32
 70
     1
102
RTVSPost2010Prop33
280
     0
102
RTVSPost2010PropOp33
 70
     1
102
RTVSPost2010Prop34
280
     0
102
RTVSPost2010PropOp34
 70
     1
102
RTVSPost2010Prop35
280
     0
102
RTVSPost2010PropOp35
 70
     1
102
RTVSPost2010Prop36
280
     0
102
RTVSPost2010PropOp36
 70
     1
102
RTVSPost2010Prop37
 90
       50
102
RTVSPost2010PropOp37
 70
     1
102
RTVSPost2010Prop38
140
0.0
102
RTVSPost2010PropOp38
 70
     1
102
RTVSPost2010Prop39
140
1.0
102
RTVSPost2010PropOp39
 70
     1
102
RTVSPost2010Prop40
 90
        0
102
RTVSPost2010PropOp40
 70
     1
102
RTVSPost2010Prop41ColorIndex
 90
       18
102
RTVSPost2010Prop41ColorRGB
 90
        0
102
RTVSPost2010PropOp41
 70
     1
102
RTVSPost2010Prop42
 90
       50
102
RTVSPost2010PropOp42
 70
     1
102
RTVSPost2010Prop43
 90
        3
102
RTVSPost2010PropOp43
 70
     1
102
RTVSPost2010Prop44ColorIndex
 90
        5
102
RTVSPost2010Prop44ColorRGB
 90
      255
102
RTVSPost2010PropOp44
 70
     1
102
RTVSPost2010Prop45
280
     0
102
RTVSPost2010PropOp45
 70
     1
102
RTVSPost2010Prop46
 90
       50
102
RTVSPost2010PropOp46
 70
     1
102
RTVSPost2010Prop47
 90
       50
102
RTVSPost2010PropOp47
 70
     1
102
RTVSPost2010Prop48
 90
       50
102
RTVSPost2010PropOp48
 70
     1
102
RTVSPost2010Prop49
280
     0
102
RTVSPost2010PropOp49
 70
     1
102
RTVSPost2010Prop50
 90
       50
102
RTVSPost2010PropOp50
 70
     1
102
RTVSPost2010Prop51ColorIndex
 90
      256
102
RTVSPost2010Prop51ColorRGB
 90
-16777216
102
RTVSPost2010PropOp51
 70
     0
102
RTVSPost2010Prop52
140
1.0
102
RTVSPost2010PropOp52
 70
     0
102
RTVSPost2010Prop53
 90
        2
102
RTVSPost2010PropOp53
 70
     1
102
RTVSPost2010Prop54
  1
strokes_ogs.tif
102
RTVSPost2010PropOp54
 70
     1
102
RTVSPost2010Prop55
280
     0
102
RTVSPost2010PropOp55
 70
     1
102
RTVSPost2010Prop56
140
1.0
102
RTVSPost2010PropOp56
 70
     1
102
RTVSPost2010Prop57
140
1.0
102
RTVSPost2010PropOp57
 70
     1
  0
XRECORD
  5
279
102
{ACAD_REACTORS
330
278
102
}
330
278
100
AcDbXrecord
280
     1
102
RTVSPost2010Prop28
280
     0
102
RTVSPost2010PropOp28
 70
     1
102
RTVSPost2010Prop29
280
     1
102
RTVSPost2010PropOp29
 70
     1
102
RTVSPost2010Prop30
280
     1
102
RTVSPost2010PropOp30
 70
     1
102
RTVSPost2010Prop31
280
     0
102
RTVSPost2010PropOp31
 70
     1
102
RTVSPost2010Prop32
280
     0
102
RTVSPost2010PropOp32
 70
     1
102
RTVSPost2010Prop33
280
     0
102
RTVSPost2010PropOp33
 70
     1
102
RTVSPost2010Prop34
280
     0
102
RTVSPost2010PropOp34
 70
     1
102
RTVSPost2010Prop35
280
     0
102
RTVSPost2010PropOp35
 70
     1
102
RTVSPost2010Prop36
280
     0
102
RTVSPost2010PropOp36
 70
     1
102
RTVSPost2010Prop37
 90
       50
102
RTVSPost2010PropOp37
 70
     1
102
RTVSPost2010Prop38
140
0.0
102
RTVSPost2010PropOp38
 70
     1
102
RTVSPost2010Prop39
140
1.0
102
RTVSPost2010PropOp39
 70
     1
102
RTVSPost2010Prop40
 90
        0
102
RTVSPost2010PropOp40
 70
     1
102
RTVSPost2010Prop41ColorIndex
 90
       18
102
RTVSPost2010Prop41ColorRGB
 90
        0
102
RTVSPost2010PropOp41
 70
     1
102
RTVSPost2010Prop42
 90
       50
102
RTVSPost2010PropOp42
 70
     1
102
RTVSPost2010Prop43
 90
        3
102
RTVSPost2010PropOp43
 70
     1
102
RTVSPost2010Prop44ColorIndex
 90
        5
102
RTVSPost2010Prop44ColorRGB
 90
      255
102
RTVSPost2010PropOp44
 70
     1
102
RTVSPost2010Prop45
280
     0
102
RTVSPost2010PropOp45
 70
     1
102
RTVSPost2010Prop46
 90
       50
102
RTVSPost2010PropOp46
 70
     1
102
RTVSPost2010Prop47
 90
       50
102
RTVSPost2010PropOp47
 70
     1
102
RTVSPost2010Prop48
 90
       50
102
RTVSPost2010PropOp48
 70
     1
102
RTVSPost2010Prop49
280
     0
102
RTVSPost2010PropOp49
 70
     1
102
RTVSPost2010Prop50
 90
       50
102
RTVSPost2010PropOp50
 70
     1
102
RTVSPost2010Prop51ColorIndex
 90
      256
102
RTVSPost2010Prop51ColorRGB
 90
-16777216
102
RTVSPost2010PropOp51
 70
     0
102
RTVSPost2010Prop52
140
1.0
102
RTVSPost2010PropOp52
 70
     0
102
RTVSPost2010Prop53
 90
        2
102
RTVSPost2010PropOp53
 70
     1
102
RTVSPost2010Prop54
  1
strokes_ogs.tif
102
RTVSPost2010PropOp54
 70
     1
102
RTVSPost2010Prop55
280
     0
102
RTVSPost2010PropOp55
 70
     1
102
RTVSPost2010Prop56
140
1.0
102
RTVSPost2010PropOp56
 70
     1
102
RTVSPost2010Prop57
140
1.0
102
RTVSPost2010PropOp57
 70
     1
  0
XRECORD
  5
27F
102
{ACAD_REACTORS
330
27E
102
}
330
27E
100
AcDbXrecord
280
     1
102
RTVSPost2010Prop28
280
     0
102
RTVSPost2010PropOp28
 70
     1
102
RTVSPost2010Prop29
280
     1
102
RTVSPost2010PropOp29
 70
     1
102
RTVSPost2010Prop30
280
     1
102
RTVSPost2010PropOp30
 70
     1
102
RTVSPost2010Prop31
280
     0
102
RTVSPost2010PropOp31
 70
     1
102
RTVSPost2010Prop32
280
     0
102
RTVSPost2010PropOp32
 70
     1
102
RTVSPost2010Prop33
280
     0
102
RTVSPost2010PropOp33
 70
     1
102
RTVSPost2010Prop34
280
     0
102
RTVSPost2010PropOp34
 70
     1
102
RTVSPost2010Prop35
280
     0
102
RTVSPost2010PropOp35
 70
     1
102
RTVSPost2010Prop36
280
     0
102
RTVSPost2010PropOp36
 70
     1
102
RTVSPost2010Prop37
 90
       50
102
RTVSPost2010PropOp37
 70
     1
102
RTVSPost2010Prop38
140
0.0
102
RTVSPost2010PropOp38
 70
     1
102
RTVSPost2010Prop39
140
1.0
102
RTVSPost2010PropOp39
 70
     1
102
RTVSPost2010Prop40
 90
        0
102
RTVSPost2010PropOp40
 70
     1
102
RTVSPost2010Prop41ColorIndex
 90
       18
102
RTVSPost2010Prop41ColorRGB
 90
        0
102
RTVSPost2010PropOp41
 70
     1
102
RTVSPost2010Prop42
 90
       50
102
RTVSPost2010PropOp42
 70
     1
102
RTVSPost2010Prop43
 90
        3
102
RTVSPost2010PropOp43
 70
     1
102
RTVSPost2010Prop44ColorIndex
 90
        5
102
RTVSPost2010Prop44ColorRGB
 90
      255
102
RTVSPost2010PropOp44
 70
     1
102
RTVSPost2010Prop45
280
     0
102
RTVSPost2010PropOp45
 70
     1
102
RTVSPost2010Prop46
 90
       50
102
RTVSPost2010PropOp46
 70
     1
102
RTVSPost2010Prop47
 90
       50
102
RTVSPost2010PropOp47
 70
     1
102
RTVSPost2010Prop48
 90
       50
102
RTVSPost2010PropOp48
 70
     1
102
RTVSPost2010Prop49
280
     0
102
RTVSPost2010PropOp49
 70
     1
102
RTVSPost2010Prop50
 90
       50
102
RTVSPost2010PropOp50
 70
     1
102
RTVSPost2010Prop51ColorIndex
 90
      256
102
RTVSPost2010Prop51ColorRGB
 90
-16777216
102
RTVSPost2010PropOp51
 70
     0
102
RTVSPost2010Prop52
140
1.0
102
RTVSPost2010PropOp52
 70
     0
102
RTVSPost2010Prop53
 90
        2
102
RTVSPost2010PropOp53
 70
     1
102
RTVSPost2010Prop54
  1
strokes_ogs.tif
102
RTVSPost2010PropOp54
 70
     1
102
RTVSPost2010Prop55
280
     0
102
RTVSPost2010PropOp55
 70
     1
102
RTVSPost2010Prop56
140
1.0
102
RTVSPost2010PropOp56
 70
     1
102
RTVSPost2010Prop57
140
1.0
102
RTVSPost2010PropOp57
 70
     1
  0
XRECORD
  5
293
102
{ACAD_REACTORS
330
292
102
}
330
292
100
AcDbXrecord
280
     1
102
RTVSPost2010Prop28
280
     0
102
RTVSPost2010PropOp28
 70
     0
102
RTVSPost2010Prop29
280
     1
102
RTVSPost2010PropOp29
 70
     0
102
RTVSPost2010Prop30
280
     1
102
RTVSPost2010PropOp30
 70
     0
102
RTVSPost2010Prop31
280
     0
102
RTVSPost2010PropOp31
 70
     0
102
RTVSPost2010Prop32
280
     0
102
RTVSPost2010PropOp32
 70
     0
102
RTVSPost2010Prop33
280
     0
102
RTVSPost2010PropOp33
 70
     0
102
RTVSPost2010Prop34
280
     0
102
RTVSPost2010PropOp34
 70
     0
102
RTVSPost2010Prop35
280
     0
102
RTVSPost2010PropOp35
 70
     0
102
RTVSPost2010Prop36
280
     0
102
RTVSPost2010PropOp36
 70
     0
102
RTVSPost2010Prop37
 90
       50
102
RTVSPost2010PropOp37
 70
     0
102
RTVSPost2010Prop38
140
0.0
102
RTVSPost2010PropOp38
 70
     0
102
RTVSPost2010Prop39
140
1.0
102
RTVSPost2010PropOp39
 70
     0
102
RTVSPost2010Prop40
 90
        0
102
RTVSPost2010PropOp40
 70
     0
102
RTVSPost2010Prop41ColorIndex
 90
       18
102
RTVSPost2010Prop41ColorRGB
 90
        0
102
RTVSPost2010PropOp41
 70
     0
102
RTVSPost2010Prop42
 90
       50
102
RTVSPost2010PropOp42
 70
     0
102
RTVSPost2010Prop43
 90
        3
102
RTVSPost2010PropOp43
 70
     0
102
RTVSPost2010Prop44ColorIndex
 90
        5
102
RTVSPost2010Prop44ColorRGB
 90
      255
102
RTVSPost2010PropOp44
 70
     0
102
RTVSPost2010Prop45
280
     0
102
RTVSPost2010PropOp45
 70
     0
102
RTVSPost2010Prop46
 90
       50
102
RTVSPost2010PropOp46
 70
     0
102
RTVSPost2010Prop47
 90
       50
102
RTVSPost2010PropOp47
 70
     0
102
RTVSPost2010Prop48
 90
       50
102
RTVSPost2010PropOp48
 70
     0
102
RTVSPost2010Prop49
280
     0
102
RTVSPost2010PropOp49
 70
     0
102
RTVSPost2010Prop50
 90
       50
102
RTVSPost2010PropOp50
 70
     0
102
RTVSPost2010Prop51ColorIndex
 90
      256
102
RTVSPost2010Prop51ColorRGB
 90
-16777216
102
RTVSPost2010PropOp51
 70
     0
102
RTVSPost2010Prop52
140
1.0
102
RTVSPost2010PropOp52
 70
     0
102
RTVSPost2010Prop53
 90
        2
102
RTVSPost2010PropOp53
 70
     0
102
RTVSPost2010Prop54
  1
strokes_ogs.tif
102
RTVSPost2010PropOp54
 70
     0
102
RTVSPost2010Prop55
280
     0
102
RTVSPost2010PropOp55
 70
     0
102
RTVSPost2010Prop56
140
1.0
102
RTVSPost2010PropOp56
 70
     0
102
RTVSPost2010Prop57
140
1.0
102
RTVSPost2010PropOp57
 70
     0
  0
XRECORD
  5
28D
102
{ACAD_REACTORS
330
28C
102
}
330
28C
100
AcDbXrecord
280
     1
102
RTVSPost2010Prop28
280
     0
102
RTVSPost2010PropOp28
 70
     1
102
RTVSPost2010Prop29
280
     1
102
RTVSPost2010PropOp29
 70
     1
102
RTVSPost2010Prop30
280
     1
102
RTVSPost2010PropOp30
 70
     1
102
RTVSPost2010Prop31
280
     0
102
RTVSPost2010PropOp31
 70
     1
102
RTVSPost2010Prop32
280
     0
102
RTVSPost2010PropOp32
 70
     1
102
RTVSPost2010Prop33
280
     0
102
RTVSPost2010PropOp33
 70
     1
102
RTVSPost2010Prop34
280
     0
102
RTVSPost2010PropOp34
 70
     1
102
RTVSPost2010Prop35
280
     0
102
RTVSPost2010PropOp35
 70
     1
102
RTVSPost2010Prop36
280
     0
102
RTVSPost2010PropOp36
 70
     1
102
RTVSPost2010Prop37
 90
       50
102
RTVSPost2010PropOp37
 70
     1
102
RTVSPost2010Prop38
140
0.0
102
RTVSPost2010PropOp38
 70
     1
102
RTVSPost2010Prop39
140
1.0
102
RTVSPost2010PropOp39
 70
     1
102
RTVSPost2010Prop40
 90
        0
102
RTVSPost2010PropOp40
 70
     1
102
RTVSPost2010Prop41ColorIndex
 90
       18
102
RTVSPost2010Prop41ColorRGB
 90
        0
102
RTVSPost2010PropOp41
 70
     1
102
RTVSPost2010Prop42
 90
       50
102
RTVSPost2010PropOp42
 70
     1
102
RTVSPost2010Prop43
 90
        3
102
RTVSPost2010PropOp43
 70
     1
102
RTVSPost2010Prop44ColorIndex
 90
        5
102
RTVSPost2010Prop44ColorRGB
 90
      255
102
RTVSPost2010PropOp44
 70
     1
102
RTVSPost2010Prop45
280
     0
102
RTVSPost2010PropOp45
 70
     1
102
RTVSPost2010Prop46
 90
       50
102
RTVSPost2010PropOp46
 70
     1
102
RTVSPost2010Prop47
 90
       50
102
RTVSPost2010PropOp47
 70
     1
102
RTVSPost2010Prop48
 90
       50
102
RTVSPost2010PropOp48
 70
     1
102
RTVSPost2010Prop49
280
     0
102
RTVSPost2010PropOp49
 70
     1
102
RTVSPost2010Prop50
 90
       50
102
RTVSPost2010PropOp50
 70
     1
102
RTVSPost2010Prop51ColorIndex
 90
      256
102
RTVSPost2010Prop51ColorRGB
 90
-16777216
102
RTVSPost2010PropOp51
 70
     0
102
RTVSPost2010Prop52
140
1.0
102
RTVSPost2010PropOp52
 70
     0
102
RTVSPost2010Prop53
 90
        2
102
RTVSPost2010PropOp53
 70
     1
102
RTVSPost2010Prop54
  1
strokes_ogs.tif
102
RTVSPost2010PropOp54
 70
     1
102
RTVSPost2010Prop55
280
     0
102
RTVSPost2010PropOp55
 70
     1
102
RTVSPost2010Prop56
140
1.0
102
RTVSPost2010PropOp56
 70
     1
102
RTVSPost2010Prop57
140
1.0
102
RTVSPost2010PropOp57
 70
     1
  0
XRECORD
  5
295
102
{ACAD_REACTORS
330
294
102
}
330
294
100
AcDbXrecord
280
     1
102
RTVSPost2010Prop28
280
     0
102
RTVSPost2010PropOp28
 70
     0
102
RTVSPost2010Prop29
280
     1
102
RTVSPost2010PropOp29
 70
     0
102
RTVSPost2010Prop30
280
     1
102
RTVSPost2010PropOp30
 70
     0
102
RTVSPost2010Prop31
280
     0
102
RTVSPost2010PropOp31
 70
     0
102
RTVSPost2010Prop32
280
     0
102
RTVSPost2010PropOp32
 70
     0
102
RTVSPost2010Prop33
280
     0
102
RTVSPost2010PropOp33
 70
     0
102
RTVSPost2010Prop34
280
     0
102
RTVSPost2010PropOp34
 70
     0
102
RTVSPost2010Prop35
280
     0
102
RTVSPost2010PropOp35
 70
     0
102
RTVSPost2010Prop36
280
     0
102
RTVSPost2010PropOp36
 70
     0
102
RTVSPost2010Prop37
 90
       50
102
RTVSPost2010PropOp37
 70
     0
102
RTVSPost2010Prop38
140
0.0
102
RTVSPost2010PropOp38
 70
     0
102
RTVSPost2010Prop39
140
1.0
102
RTVSPost2010PropOp39
 70
     0
102
RTVSPost2010Prop40
 90
        0
102
RTVSPost2010PropOp40
 70
     0
102
RTVSPost2010Prop41ColorIndex
 90
       18
102
RTVSPost2010Prop41ColorRGB
 90
        0
102
RTVSPost2010PropOp41
 70
     0
102
RTVSPost2010Prop42
 90
       50
102
RTVSPost2010PropOp42
 70
     0
102
RTVSPost2010Prop43
 90
        3
102
RTVSPost2010PropOp43
 70
     0
102
RTVSPost2010Prop44ColorIndex
 90
        5
102
RTVSPost2010Prop44ColorRGB
 90
      255
102
RTVSPost2010PropOp44
 70
     0
102
RTVSPost2010Prop45
280
     0
102
RTVSPost2010PropOp45
 70
     0
102
RTVSPost2010Prop46
 90
       50
102
RTVSPost2010PropOp46
 70
     0
102
RTVSPost2010Prop47
 90
       50
102
RTVSPost2010PropOp47
 70
     0
102
RTVSPost2010Prop48
 90
       50
102
RTVSPost2010PropOp48
 70
     0
102
RTVSPost2010Prop49
280
     0
102
RTVSPost2010PropOp49
 70
     0
102
RTVSPost2010Prop50
 90
       50
102
RTVSPost2010PropOp50
 70
     0
102
RTVSPost2010Prop51ColorIndex
 90
      256
102
RTVSPost2010Prop51ColorRGB
 90
-16777216
102
RTVSPost2010PropOp51
 70
     0
102
RTVSPost2010Prop52
140
1.0
102
RTVSPost2010PropOp52
 70
     0
102
RTVSPost2010Prop53
 90
        2
102
RTVSPost2010PropOp53
 70
     0
102
RTVSPost2010Prop54
  1
strokes_ogs.tif
102
RTVSPost2010PropOp54
 70
     0
102
RTVSPost2010Prop55
280
     0
102
RTVSPost2010PropOp55
 70
     0
102
RTVSPost2010Prop56
140
1.0
102
RTVSPost2010PropOp56
 70
     0
102
RTVSPost2010Prop57
140
1.0
102
RTVSPost2010PropOp57
 70
     0
  0
XRECORD
  5
283
102
{ACAD_REACTORS
330
282
102
}
330
282
100
AcDbXrecord
280
     1
102
RTVSPost2010Prop28
280
     0
102
RTVSPost2010PropOp28
 70
     1
102
RTVSPost2010Prop29
280
     1
102
RTVSPost2010PropOp29
 70
     1
102
RTVSPost2010Prop30
280
     1
102
RTVSPost2010PropOp30
 70
     1
102
RTVSPost2010Prop31
280
     0
102
RTVSPost2010PropOp31
 70
     1
102
RTVSPost2010Prop32
280
     0
102
RTVSPost2010PropOp32
 70
     1
102
RTVSPost2010Prop33
280
     0
102
RTVSPost2010PropOp33
 70
     1
102
RTVSPost2010Prop34
280
     0
102
RTVSPost2010PropOp34
 70
     1
102
RTVSPost2010Prop35
280
     0
102
RTVSPost2010PropOp35
 70
     1
102
RTVSPost2010Prop36
280
     0
102
RTVSPost2010PropOp36
 70
     1
102
RTVSPost2010Prop37
 90
       50
102
RTVSPost2010PropOp37
 70
     1
102
RTVSPost2010Prop38
140
0.0
102
RTVSPost2010PropOp38
 70
     1
102
RTVSPost2010Prop39
140
1.0
102
RTVSPost2010PropOp39
 70
     1
102
RTVSPost2010Prop40
 90
        0
102
RTVSPost2010PropOp40
 70
     1
102
RTVSPost2010Prop41ColorIndex
 90
       18
102
RTVSPost2010Prop41ColorRGB
 90
        0
102
RTVSPost2010PropOp41
 70
     1
102
RTVSPost2010Prop42
 90
       50
102
RTVSPost2010PropOp42
 70
     1
102
RTVSPost2010Prop43
 90
        3
102
RTVSPost2010PropOp43
 70
     1
102
RTVSPost2010Prop44ColorIndex
 90
        5
102
RTVSPost2010Prop44ColorRGB
 90
      255
102
RTVSPost2010PropOp44
 70
     1
102
RTVSPost2010Prop45
280
     0
102
RTVSPost2010PropOp45
 70
     1
102
RTVSPost2010Prop46
 90
       50
102
RTVSPost2010PropOp46
 70
     1
102
RTVSPost2010Prop47
 90
       50
102
RTVSPost2010PropOp47
 70
     1
102
RTVSPost2010Prop48
 90
       50
102
RTVSPost2010PropOp48
 70
     1
102
RTVSPost2010Prop49
280
     0
102
RTVSPost2010PropOp49
 70
     1
102
RTVSPost2010Prop50
 90
       50
102
RTVSPost2010PropOp50
 70
     1
102
RTVSPost2010Prop51ColorIndex
 90
      256
102
RTVSPost2010Prop51ColorRGB
 90
-16777216
102
RTVSPost2010PropOp51
 70
     0
102
RTVSPost2010Prop52
140
1.0
102
RTVSPost2010PropOp52
 70
     0
102
RTVSPost2010Prop53
 90
        2
102
RTVSPost2010PropOp53
 70
     1
102
RTVSPost2010Prop54
  1
strokes_ogs.tif
102
RTVSPost2010PropOp54
 70
     1
102
RTVSPost2010Prop55
280
     0
102
RTVSPost2010PropOp55
 70
     1
102
RTVSPost2010Prop56
140
1.0
102
RTVSPost2010PropOp56
 70
     1
102
RTVSPost2010Prop57
140
1.0
102
RTVSPost2010PropOp57
 70
     1
  0
XRECORD
  5
2A1
102
{ACAD_REACTORS
330
2A0
102
}
330
2A0
100
AcDbXrecord
280
     1
102
RTVSPost2010Prop28
280
     0
102
RTVSPost2010PropOp28
 70
     1
102
RTVSPost2010Prop29
280
     1
102
RTVSPost2010PropOp29
 70
     1
102
RTVSPost2010Prop30
280
     1
102
RTVSPost2010PropOp30
 70
     1
102
RTVSPost2010Prop31
280
     0
102
RTVSPost2010PropOp31
 70
     1
102
RTVSPost2010Prop32
280
     0
102
RTVSPost2010PropOp32
 70
     1
102
RTVSPost2010Prop33
280
     0
102
RTVSPost2010PropOp33
 70
     1
102
RTVSPost2010Prop34
280
     0
102
RTVSPost2010PropOp34
 70
     1
102
RTVSPost2010Prop35
280
     0
102
RTVSPost2010PropOp35
 70
     1
102
RTVSPost2010Prop36
280
     0
102
RTVSPost2010PropOp36
 70
     1
102
RTVSPost2010Prop37
 90
       50
102
RTVSPost2010PropOp37
 70
     1
102
RTVSPost2010Prop38
140
0.0
102
RTVSPost2010PropOp38
 70
     1
102
RTVSPost2010Prop39
140
1.0
102
RTVSPost2010PropOp39
 70
     1
102
RTVSPost2010Prop40
 90
        0
102
RTVSPost2010PropOp40
 70
     1
102
RTVSPost2010Prop41ColorIndex
 90
       18
102
RTVSPost2010Prop41ColorRGB
 90
        0
102
RTVSPost2010PropOp41
 70
     1
102
RTVSPost2010Prop42
 90
       50
102
RTVSPost2010PropOp42
 70
     1
102
RTVSPost2010Prop43
 90
        3
102
RTVSPost2010PropOp43
 70
     1
102
RTVSPost2010Prop44ColorIndex
 90
        5
102
RTVSPost2010Prop44ColorRGB
 90
      255
102
RTVSPost2010PropOp44
 70
     1
102
RTVSPost2010Prop45
280
     0
102
RTVSPost2010PropOp45
 70
     1
102
RTVSPost2010Prop46
 90
       50
102
RTVSPost2010PropOp46
 70
     1
102
RTVSPost2010Prop47
 90
       50
102
RTVSPost2010PropOp47
 70
     1
102
RTVSPost2010Prop48
 90
       50
102
RTVSPost2010PropOp48
 70
     1
102
RTVSPost2010Prop49
280
     0
102
RTVSPost2010PropOp49
 70
     1
102
RTVSPost2010Prop50
 90
       50
102
RTVSPost2010PropOp50
 70
     1
102
RTVSPost2010Prop51ColorIndex
 90
      256
102
RTVSPost2010Prop51ColorRGB
 90
-16777216
102
RTVSPost2010PropOp51
 70
     0
102
RTVSPost2010Prop52
140
1.0
102
RTVSPost2010PropOp52
 70
     0
102
RTVSPost2010Prop53
 90
        2
102
RTVSPost2010PropOp53
 70
     1
102
RTVSPost2010Prop54
  1
strokes_ogs.tif
102
RTVSPost2010PropOp54
 70
     1
102
RTVSPost2010Prop55
280
     0
102
RTVSPost2010PropOp55
 70
     1
102
RTVSPost2010Prop56
140
1.0
102
RTVSPost2010PropOp56
 70
     1
102
RTVSPost2010Prop57
140
1.0
102
RTVSPost2010PropOp57
 70
     1
  0
XRECORD
  5
29F
102
{ACAD_REACTORS
330
29E
102
}
330
29E
100
AcDbXrecord
280
     1
102
RTVSPost2010Prop28
280
     0
102
RTVSPost2010PropOp28
 70
     1
102
RTVSPost2010Prop29
280
     1
102
RTVSPost2010PropOp29
 70
     1
102
RTVSPost2010Prop30
280
     1
102
RTVSPost2010PropOp30
 70
     1
102
RTVSPost2010Prop31
280
     0
102
RTVSPost2010PropOp31
 70
     1
102
RTVSPost2010Prop32
280
     0
102
RTVSPost2010PropOp32
 70
     1
102
RTVSPost2010Prop33
280
     0
102
RTVSPost2010PropOp33
 70
     1
102
RTVSPost2010Prop34
280
     0
102
RTVSPost2010PropOp34
 70
     1
102
RTVSPost2010Prop35
280
     0
102
RTVSPost2010PropOp35
 70
     1
102
RTVSPost2010Prop36
280
     0
102
RTVSPost2010PropOp36
 70
     1
102
RTVSPost2010Prop37
 90
       50
102
RTVSPost2010PropOp37
 70
     1
102
RTVSPost2010Prop38
140
0.0
102
RTVSPost2010PropOp38
 70
     1
102
RTVSPost2010Prop39
140
1.0
102
RTVSPost2010PropOp39
 70
     1
102
RTVSPost2010Prop40
 90
        0
102
RTVSPost2010PropOp40
 70
     1
102
RTVSPost2010Prop41ColorIndex
 90
       18
102
RTVSPost2010Prop41ColorRGB
 90
        0
102
RTVSPost2010PropOp41
 70
     1
102
RTVSPost2010Prop42
 90
       50
102
RTVSPost2010PropOp42
 70
     1
102
RTVSPost2010Prop43
 90
        3
102
RTVSPost2010PropOp43
 70
     1
102
RTVSPost2010Prop44ColorIndex
 90
        5
102
RTVSPost2010Prop44ColorRGB
 90
      255
102
RTVSPost2010PropOp44
 70
     1
102
RTVSPost2010Prop45
280
     0
102
RTVSPost2010PropOp45
 70
     1
102
RTVSPost2010Prop46
 90
       50
102
RTVSPost2010PropOp46
 70
     1
102
RTVSPost2010Prop47
 90
       50
102
RTVSPost2010PropOp47
 70
     1
102
RTVSPost2010Prop48
 90
       50
102
RTVSPost2010PropOp48
 70
     1
102
RTVSPost2010Prop49
280
     0
102
RTVSPost2010PropOp49
 70
     1
102
RTVSPost2010Prop50
 90
       50
102
RTVSPost2010PropOp50
 70
     1
102
RTVSPost2010Prop51ColorIndex
 90
      256
102
RTVSPost2010Prop51ColorRGB
 90
-16777216
102
RTVSPost2010PropOp51
 70
     0
102
RTVSPost2010Prop52
140
1.0
102
RTVSPost2010PropOp52
 70
     0
102
RTVSPost2010Prop53
 90
        2
102
RTVSPost2010PropOp53
 70
     1
102
RTVSPost2010Prop54
  1
strokes_ogs.tif
102
RTVSPost2010PropOp54
 70
     1
102
RTVSPost2010Prop55
280
     0
102
RTVSPost2010PropOp55
 70
     1
102
RTVSPost2010Prop56
140
1.0
102
RTVSPost2010PropOp56
 70
     1
102
RTVSPost2010Prop57
140
1.0
102
RTVSPost2010PropOp57
 70
     1
  0
XRECORD
  5
299
102
{ACAD_REACTORS
330
298
102
}
330
298
100
AcDbXrecord
280
     1
102
RTVSPost2010Prop28
280
     0
102
RTVSPost2010PropOp28
 70
     1
102
RTVSPost2010Prop29
280
     1
102
RTVSPost2010PropOp29
 70
     1
102
RTVSPost2010Prop30
280
     1
102
RTVSPost2010PropOp30
 70
     1
102
RTVSPost2010Prop31
280
     0
102
RTVSPost2010PropOp31
 70
     1
102
RTVSPost2010Prop32
280
     0
102
RTVSPost2010PropOp32
 70
     1
102
RTVSPost2010Prop33
280
     0
102
RTVSPost2010PropOp33
 70
     1
102
RTVSPost2010Prop34
280
     0
102
RTVSPost2010PropOp34
 70
     1
102
RTVSPost2010Prop35
280
     0
102
RTVSPost2010PropOp35
 70
     1
102
RTVSPost2010Prop36
280
     0
102
RTVSPost2010PropOp36
 70
     1
102
RTVSPost2010Prop37
 90
       50
102
RTVSPost2010PropOp37
 70
     1
102
RTVSPost2010Prop38
140
0.0
102
RTVSPost2010PropOp38
 70
     1
102
RTVSPost2010Prop39
140
1.0
102
RTVSPost2010PropOp39
 70
     1
102
RTVSPost2010Prop40
 90
        0
102
RTVSPost2010PropOp40
 70
     1
102
RTVSPost2010Prop41ColorIndex
 90
       18
102
RTVSPost2010Prop41ColorRGB
 90
        0
102
RTVSPost2010PropOp41
 70
     1
102
RTVSPost2010Prop42
 90
       50
102
RTVSPost2010PropOp42
 70
     1
102
RTVSPost2010Prop43
 90
        3
102
RTVSPost2010PropOp43
 70
     1
102
RTVSPost2010Prop44ColorIndex
 90
        5
102
RTVSPost2010Prop44ColorRGB
 90
      255
102
RTVSPost2010PropOp44
 70
     1
102
RTVSPost2010Prop45
280
     0
102
RTVSPost2010PropOp45
 70
     1
102
RTVSPost2010Prop46
 90
       50
102
RTVSPost2010PropOp46
 70
     1
102
RTVSPost2010Prop47
 90
       50
102
RTVSPost2010PropOp47
 70
     1
102
RTVSPost2010Prop48
 90
       50
102
RTVSPost2010PropOp48
 70
     1
102
RTVSPost2010Prop49
280
     0
102
RTVSPost2010PropOp49
 70
     1
102
RTVSPost2010Prop50
 90
       50
102
RTVSPost2010PropOp50
 70
     1
102
RTVSPost2010Prop51ColorIndex
 90
      256
102
RTVSPost2010Prop51ColorRGB
 90
-16777216
102
RTVSPost2010PropOp51
 70
     0
102
RTVSPost2010Prop52
140
1.0
102
RTVSPost2010PropOp52
 70
     0
102
RTVSPost2010Prop53
 90
        2
102
RTVSPost2010PropOp53
 70
     1
102
RTVSPost2010Prop54
  1
strokes_ogs.tif
102
RTVSPost2010PropOp54
 70
     1
102
RTVSPost2010Prop55
280
     0
102
RTVSPost2010PropOp55
 70
     1
102
RTVSPost2010Prop56
140
1.0
102
RTVSPost2010PropOp56
 70
     1
102
RTVSPost2010Prop57
140
1.0
102
RTVSPost2010PropOp57
 70
     1
  0
XRECORD
  5
29B
102
{ACAD_REACTORS
330
29A
102
}
330
29A
100
AcDbXrecord
280
     1
102
RTVSPost2010Prop28
280
     0
102
RTVSPost2010PropOp28
 70
     1
102
RTVSPost2010Prop29
280
     1
102
RTVSPost2010PropOp29
 70
     1
102
RTVSPost2010Prop30
280
     1
102
RTVSPost2010PropOp30
 70
     1
102
RTVSPost2010Prop31
280
     0
102
RTVSPost2010PropOp31
 70
     1
102
RTVSPost2010Prop32
280
     0
102
RTVSPost2010PropOp32
 70
     1
102
RTVSPost2010Prop33
280
     0
102
RTVSPost2010PropOp33
 70
     1
102
RTVSPost2010Prop34
280
     0
102
RTVSPost2010PropOp34
 70
     1
102
RTVSPost2010Prop35
280
     0
102
RTVSPost2010PropOp35
 70
     1
102
RTVSPost2010Prop36
280
     0
102
RTVSPost2010PropOp36
 70
     1
102
RTVSPost2010Prop37
 90
       50
102
RTVSPost2010PropOp37
 70
     1
102
RTVSPost2010Prop38
140
0.0
102
RTVSPost2010PropOp38
 70
     1
102
RTVSPost2010Prop39
140
1.0
102
RTVSPost2010PropOp39
 70
     1
102
RTVSPost2010Prop40
 90
        0
102
RTVSPost2010PropOp40
 70
     1
102
RTVSPost2010Prop41ColorIndex
 90
       18
102
RTVSPost2010Prop41ColorRGB
 90
        0
102
RTVSPost2010PropOp41
 70
     1
102
RTVSPost2010Prop42
 90
       50
102
RTVSPost2010PropOp42
 70
     1
102
RTVSPost2010Prop43
 90
        3
102
RTVSPost2010PropOp43
 70
     1
102
RTVSPost2010Prop44ColorIndex
 90
        5
102
RTVSPost2010Prop44ColorRGB
 90
      255
102
RTVSPost2010PropOp44
 70
     1
102
RTVSPost2010Prop45
280
     0
102
RTVSPost2010PropOp45
 70
     1
102
RTVSPost2010Prop46
 90
       50
102
RTVSPost2010PropOp46
 70
     1
102
RTVSPost2010Prop47
 90
       50
102
RTVSPost2010PropOp47
 70
     1
102
RTVSPost2010Prop48
 90
       50
102
RTVSPost2010PropOp48
 70
     1
102
RTVSPost2010Prop49
280
     0
102
RTVSPost2010PropOp49
 70
     1
102
RTVSPost2010Prop50
 90
       50
102
RTVSPost2010PropOp50
 70
     1
102
RTVSPost2010Prop51ColorIndex
 90
      256
102
RTVSPost2010Prop51ColorRGB
 90
-16777216
102
RTVSPost2010PropOp51
 70
     0
102
RTVSPost2010Prop52
140
1.0
102
RTVSPost2010PropOp52
 70
     0
102
RTVSPost2010Prop53
 90
        2
102
RTVSPost2010PropOp53
 70
     1
102
RTVSPost2010Prop54
  1
strokes_ogs.tif
102
RTVSPost2010PropOp54
 70
     1
102
RTVSPost2010Prop55
280
     0
102
RTVSPost2010PropOp55
 70
     1
102
RTVSPost2010Prop56
140
1.0
102
RTVSPost2010PropOp56
 70
     1
102
RTVSPost2010Prop57
140
1.0
102
RTVSPost2010PropOp57
 70
     1
  0
XRECORD
  5
28B
102
{ACAD_REACTORS
330
28A
102
}
330
28A
100
AcDbXrecord
280
     1
102
RTVSPost2010Prop28
280
     0
102
RTVSPost2010PropOp28
 70
     1
102
RTVSPost2010Prop29
280
     1
102
RTVSPost2010PropOp29
 70
     1
102
RTVSPost2010Prop30
280
     1
102
RTVSPost2010PropOp30
 70
     1
102
RTVSPost2010Prop31
280
     0
102
RTVSPost2010PropOp31
 70
     1
102
RTVSPost2010Prop32
280
     0
102
RTVSPost2010PropOp32
 70
     1
102
RTVSPost2010Prop33
280
     0
102
RTVSPost2010PropOp33
 70
     1
102
RTVSPost2010Prop34
280
     0
102
RTVSPost2010PropOp34
 70
     1
102
RTVSPost2010Prop35
280
     0
102
RTVSPost2010PropOp35
 70
     1
102
RTVSPost2010Prop36
280
     0
102
RTVSPost2010PropOp36
 70
     1
102
RTVSPost2010Prop37
 90
       50
102
RTVSPost2010PropOp37
 70
     1
102
RTVSPost2010Prop38
140
0.0
102
RTVSPost2010PropOp38
 70
     1
102
RTVSPost2010Prop39
140
1.0
102
RTVSPost2010PropOp39
 70
     1
102
RTVSPost2010Prop40
 90
        0
102
RTVSPost2010PropOp40
 70
     1
102
RTVSPost2010Prop41ColorIndex
 90
       18
102
RTVSPost2010Prop41ColorRGB
 90
        0
102
RTVSPost2010PropOp41
 70
     1
102
RTVSPost2010Prop42
 90
       50
102
RTVSPost2010PropOp42
 70
     1
102
RTVSPost2010Prop43
 90
        3
102
RTVSPost2010PropOp43
 70
     1
102
RTVSPost2010Prop44ColorIndex
 90
        5
102
RTVSPost2010Prop44ColorRGB
 90
      255
102
RTVSPost2010PropOp44
 70
     1
102
RTVSPost2010Prop45
280
     0
102
RTVSPost2010PropOp45
 70
     1
102
RTVSPost2010Prop46
 90
       50
102
RTVSPost2010PropOp46
 70
     1
102
RTVSPost2010Prop47
 90
       50
102
RTVSPost2010PropOp47
 70
     1
102
RTVSPost2010Prop48
 90
       50
102
RTVSPost2010PropOp48
 70
     1
102
RTVSPost2010Prop49
280
     0
102
RTVSPost2010PropOp49
 70
     1
102
RTVSPost2010Prop50
 90
       50
102
RTVSPost2010PropOp50
 70
     1
102
RTVSPost2010Prop51ColorIndex
 90
      256
102
RTVSPost2010Prop51ColorRGB
 90
-16777216
102
RTVSPost2010PropOp51
 70
     0
102
RTVSPost2010Prop52
140
1.0
102
RTVSPost2010PropOp52
 70
     0
102
RTVSPost2010Prop53
 90
        2
102
RTVSPost2010PropOp53
 70
     1
102
RTVSPost2010Prop54
  1
strokes_ogs.tif
102
RTVSPost2010PropOp54
 70
     1
102
RTVSPost2010Prop55
280
     0
102
RTVSPost2010PropOp55
 70
     1
102
RTVSPost2010Prop56
140
1.0
102
RTVSPost2010PropOp56
 70
     1
102
RTVSPost2010Prop57
140
1.0
102
RTVSPost2010PropOp57
 70
     1
  0
XRECORD
  5
27D
102
{ACAD_REACTORS
330
27C
102
}
330
27C
100
AcDbXrecord
280
     1
102
RTVSPost2010Prop28
280
     0
102
RTVSPost2010PropOp28
 70
     1
102
RTVSPost2010Prop29
280
     1
102
RTVSPost2010PropOp29
 70
     1
102
RTVSPost2010Prop30
280
     1
102
RTVSPost2010PropOp30
 70
     1
102
RTVSPost2010Prop31
280
     0
102
RTVSPost2010PropOp31
 70
     1
102
RTVSPost2010Prop32
280
     0
102
RTVSPost2010PropOp32
 70
     1
102
RTVSPost2010Prop33
280
     0
102
RTVSPost2010PropOp33
 70
     1
102
RTVSPost2010Prop34
280
     0
102
RTVSPost2010PropOp34
 70
     1
102
RTVSPost2010Prop35
280
     0
102
RTVSPost2010PropOp35
 70
     1
102
RTVSPost2010Prop36
280
     0
102
RTVSPost2010PropOp36
 70
     1
102
RTVSPost2010Prop37
 90
       50
102
RTVSPost2010PropOp37
 70
     1
102
RTVSPost2010Prop38
140
0.0
102
RTVSPost2010PropOp38
 70
     1
102
RTVSPost2010Prop39
140
1.0
102
RTVSPost2010PropOp39
 70
     1
102
RTVSPost2010Prop40
 90
        0
102
RTVSPost2010PropOp40
 70
     1
102
RTVSPost2010Prop41ColorIndex
 90
       18
102
RTVSPost2010Prop41ColorRGB
 90
        0
102
RTVSPost2010PropOp41
 70
     1
102
RTVSPost2010Prop42
 90
       50
102
RTVSPost2010PropOp42
 70
     1
102
RTVSPost2010Prop43
 90
        3
102
RTVSPost2010PropOp43
 70
     1
102
RTVSPost2010Prop44ColorIndex
 90
        5
102
RTVSPost2010Prop44ColorRGB
 90
      255
102
RTVSPost2010PropOp44
 70
     1
102
RTVSPost2010Prop45
280
     0
102
RTVSPost2010PropOp45
 70
     1
102
RTVSPost2010Prop46
 90
       50
102
RTVSPost2010PropOp46
 70
     1
102
RTVSPost2010Prop47
 90
       50
102
RTVSPost2010PropOp47
 70
     1
102
RTVSPost2010Prop48
 90
       50
102
RTVSPost2010PropOp48
 70
     1
102
RTVSPost2010Prop49
280
     0
102
RTVSPost2010PropOp49
 70
     1
102
RTVSPost2010Prop50
 90
       50
102
RTVSPost2010PropOp50
 70
     1
102
RTVSPost2010Prop51ColorIndex
 90
      256
102
RTVSPost2010Prop51ColorRGB
 90
-16777216
102
RTVSPost2010PropOp51
 70
     0
102
RTVSPost2010Prop52
140
1.0
102
RTVSPost2010PropOp52
 70
     0
102
RTVSPost2010Prop53
 90
        2
102
RTVSPost2010PropOp53
 70
     1
102
RTVSPost2010Prop54
  1
strokes_ogs.tif
102
RTVSPost2010PropOp54
 70
     1
102
RTVSPost2010Prop55
280
     0
102
RTVSPost2010PropOp55
 70
     1
102
RTVSPost2010Prop56
140
1.0
102
RTVSPost2010PropOp56
 70
     1
102
RTVSPost2010Prop57
140
1.0
102
RTVSPost2010PropOp57
 70
     1
  0
XRECORD
  5
29D
102
{ACAD_REACTORS
330
29C
102
}
330
29C
100
AcDbXrecord
280
     1
102
RTVSPost2010Prop28
280
     0
102
RTVSPost2010PropOp28
 70
     1
102
RTVSPost2010Prop29
280
     1
102
RTVSPost2010PropOp29
 70
     1
102
RTVSPost2010Prop30
280
     1
102
RTVSPost2010PropOp30
 70
     1
102
RTVSPost2010Prop31
280
     0
102
RTVSPost2010PropOp31
 70
     1
102
RTVSPost2010Prop32
280
     0
102
RTVSPost2010PropOp32
 70
     1
102
RTVSPost2010Prop33
280
     0
102
RTVSPost2010PropOp33
 70
     1
102
RTVSPost2010Prop34
280
     0
102
RTVSPost2010PropOp34
 70
     1
102
RTVSPost2010Prop35
280
     0
102
RTVSPost2010PropOp35
 70
     1
102
RTVSPost2010Prop36
280
     0
102
RTVSPost2010PropOp36
 70
     1
102
RTVSPost2010Prop37
 90
       50
102
RTVSPost2010PropOp37
 70
     1
102
RTVSPost2010Prop38
140
0.0
102
RTVSPost2010PropOp38
 70
     1
102
RTVSPost2010Prop39
140
1.0
102
RTVSPost2010PropOp39
 70
     1
102
RTVSPost2010Prop40
 90
        0
102
RTVSPost2010PropOp40
 70
     1
102
RTVSPost2010Prop41ColorIndex
 90
       18
102
RTVSPost2010Prop41ColorRGB
 90
        0
102
RTVSPost2010PropOp41
 70
     1
102
RTVSPost2010Prop42
 90
       50
102
RTVSPost2010PropOp42
 70
     1
102
RTVSPost2010Prop43
 90
        3
102
RTVSPost2010PropOp43
 70
     1
102
RTVSPost2010Prop44ColorIndex
 90
        5
102
RTVSPost2010Prop44ColorRGB
 90
      255
102
RTVSPost2010PropOp44
 70
     1
102
RTVSPost2010Prop45
280
     0
102
RTVSPost2010PropOp45
 70
     1
102
RTVSPost2010Prop46
 90
       50
102
RTVSPost2010PropOp46
 70
     1
102
RTVSPost2010Prop47
 90
       50
102
RTVSPost2010PropOp47
 70
     1
102
RTVSPost2010Prop48
 90
       50
102
RTVSPost2010PropOp48
 70
     1
102
RTVSPost2010Prop49
280
     0
102
RTVSPost2010PropOp49
 70
     1
102
RTVSPost2010Prop50
 90
       50
102
RTVSPost2010PropOp50
 70
     1
102
RTVSPost2010Prop51ColorIndex
 90
      256
102
RTVSPost2010Prop51ColorRGB
 90
-16777216
102
RTVSPost2010PropOp51
 70
     0
102
RTVSPost2010Prop52
140
1.0
102
RTVSPost2010PropOp52
 70
     0
102
RTVSPost2010Prop53
 90
        2
102
RTVSPost2010PropOp53
 70
     1
102
RTVSPost2010Prop54
  1
strokes_ogs.tif
102
RTVSPost2010PropOp54
 70
     1
102
RTVSPost2010Prop55
280
     0
102
RTVSPost2010PropOp55
 70
     1
102
RTVSPost2010Prop56
140
1.0
102
RTVSPost2010PropOp56
 70
     1
102
RTVSPost2010Prop57
140
1.0
102
RTVSPost2010PropOp57
 70
     1
  0
ENDSEC
  0
EOF
