  0
SECTION
  2
HEADER
  9
$ACADVER
  1
AC1024
  9
$ACADMAINTVER
 70
     6
  9
$DWGCODEPAGE
  3
ANSI_1252
  9
$INSBASE
 10
0.0
 20
0.0
 30
0.0
  9
$EXTMIN
 10
1.000000E+20
 20
1.000000E+20
 30
1.000000E+20
  9
$EXTMAX
 10
-1.000000E+20
 20
-1.000000E+20
 30
-1.000000E+20
  9
$LIMMIN
 10
0.0
 20
0.0
  9
$LIMMAX
 10
420.0
 20
297.0
  9
$ORTHOMODE
 70
     0
  9
$REGENMODE
 70
     1
  9
$FILLMODE
 70
     1
  9
$QTEXTMODE
 70
     0
  9
$MIRRTEXT
 70
     1
  9
$LTSCALE
 40
1.0
  9
$ATTMODE
 70
     1
  9
$TEXTSIZE
 40
2.5
  9
$TRACEWID
 40
1.0
  9
$TEXTSTYLE
  7
Standard
  9
$CLAYER
  8
0
  9
$CELTYPE
  6
ByLayer
  9
$CECOLOR
 62
   256
  9
$CELTSCALE
 40
1.0
  9
$DISPSILH
 70
     0
  9
$DIMSCALE
 40
1.0
  9
$DIMASZ
 40
2.5
  9
$DIMEXO
 40
0.625
  9
$DIMDLI
 40
3.75
  9
$DIMRND
 40
0.0
  9
$DIMDLE
 40
0.0
  9
$DIMEXE
 40
1.25
  9
$DIMTP
 40
0.0
  9
$DIMTM
 40
0.0
  9
$DIMTXT
 40
2.5
  9
$DIMCEN
 40
2.5
  9
$DIMTSZ
 40
0.0
  9
$DIMTOL
 70
     0
  9
$DIMLIM
 70
     0
  9
$DIMTIH
 70
     0
  9
$DIMTOH
 70
     0
  9
$DIMSE1
 70
     0
  9
$DIMSE2
 70
     0
  9
$DIMTAD
 70
     1
  9
$DIMZIN
 70
     8
  9
$DIMBLK
  1

  9
$DIMASO
 70
     1
  9
$DIMSHO
 70
     1
  9
$DIMPOST
  1

  9
$DIMAPOST
  1

  9
$DIMALT
 70
     0
  9
$DIMALTD
 70
     3
  9
$DIMALTF
 40
0.03937
  9
$DIMLFAC
 40
1.0
  9
$DIMTOFL
 70
     1
  9
$DIMTVP
 40
0.0
  9
$DIMTIX
 70
     0
  9
$DIMSOXD
 70
     0
  9
$DIMSAH
 70
     0
  9
$DIMBLK1
  1

  9
$DIMBLK2
  1

  9
$DIMSTYLE
  2
ISO-25
  9
$DIMCLRD
 70
     0
  9
$DIMCLRE
 70
     0
  9
$DIMCLRT
 70
     0
  9
$DIMTFAC
 40
1.0
  9
$DIMGAP
 40
0.625
  9
$DIMJUST
 70
     0
  9
$DIMSD1
 70
     0
  9
$DIMSD2
 70
     0
  9
$DIMTOLJ
 70
     0
  9
$DIMTZIN
 70
     8
  9
$DIMALTZ
 70
     0
  9
$DIMALTTZ
 70
     0
  9
$DIMUPT
 70
     0
  9
$DIMDEC
 70
     2
  9
$DIMTDEC
 70
     2
  9
$DIMALTU
 70
     2
  9
$DIMALTTD
 70
     3
  9
$DIMTXSTY
  7
Standard
  9
$DIMAUNIT
 70
     0
  9
$DIMADEC
 70
     0
  9
$DIMALTRND
 40
0.0
  9
$DIMAZIN
 70
     0
  9
$DIMDSEP
 70
    44
  9
$DIMATFIT
 70
     3
  9
$DIMFRAC
 70
     0
  9
$DIMLDRBLK
  1

  9
$DIMLUNIT
 70
     2
  9
$DIMLWD
 70
    -2
  9
$DIMLWE
 70
    -2
  9
$DIMTMOVE
 70
     0
  9
$DIMFXL
 40
1.0
  9
$DIMFXLON
 70
     0
  9
$DIMJOGANG
 40
0.785398
  9
$DIMTFILL
 70
     0
  9
$DIMTFILLCLR
 70
     0
  9
$DIMARCSYM
 70
     0
  9
$DIMLTYPE
  6

  9
$DIMLTEX1
  6

  9
$DIMLTEX2
  6

  9
$DIMTXTDIRECTION
 70
     0
  9
$LUNITS
 70
     2
  9
$LUPREC
 70
     4
  9
$SKETCHINC
 40
1.0
  9
$FILLETRAD
 40
10.0
  9
$AUNITS
 70
     0
  9
$AUPREC
 70
     0
  9
$MENU
  1
.
  9
$ELEVATION
 40
0.0
  9
$PELEVATION
 40
0.0
  9
$THICKNESS
 40
0.0
  9
$LIMCHECK
 70
     0
  9
$CHAMFERA
 40
0.0
  9
$CHAMFERB
 40
0.0
  9
$CHAMFERC
 40
0.0
  9
$CHAMFERD
 40
0.0
  9
$SKPOLY
 70
     0
  9
$TDCREATE
 40
2458620.565882222
  9
$TDUCREATE
 40
2458620.482548889
  9
$TDUPDATE
 40
2458620.565882894
  9
$TDUUPDATE
 40
2458620.48254956
  9
$TDINDWG
 40
0.0000000116
  9
$TDUSRTIMER
 40
0.0000000116
  9
$USRTIMER
 70
     1
  9
$ANGBASE
 50
0.0
  9
$ANGDIR
 70
     0
  9
$PDMODE
 70
     0
  9
$PDSIZE
 40
0.0
  9
$PLINEWID
 40
0.0
  9
$SPLFRAME
 70
     0
  9
$SPLINETYPE
 70
     6
  9
$SPLINESEGS
 70
     8
  9
$HANDSEED
  5
27A
  9
$SURFTAB1
 70
     6
  9
$SURFTAB2
 70
     6
  9
$SURFTYPE
 70
     6
  9
$SURFU
 70
     6
  9
$SURFV
 70
     6
  9
$UCSBASE
  2

  9
$UCSNAME
  2

  9
$UCSORG
 10
0.0
 20
0.0
 30
0.0
  9
$UCSXDIR
 10
1.0
 20
0.0
 30
0.0
  9
$UCSYDIR
 10
0.0
 20
1.0
 30
0.0
  9
$UCSORTHOREF
  2

  9
$UCSORTHOVIEW
 70
     0
  9
$UCSORGTOP
 10
0.0
 20
0.0
 30
0.0
  9
$UCSORGBOTTOM
 10
0.0
 20
0.0
 30
0.0
  9
$UCSORGLEFT
 10
0.0
 20
0.0
 30
0.0
  9
$UCSORGRIGHT
 10
0.0
 20
0.0
 30
0.0
  9
$UCSORGFRONT
 10
0.0
 20
0.0
 30
0.0
  9
$UCSORGBACK
 10
0.0
 20
0.0
 30
0.0
  9
$PUCSBASE
  2

  9
$PUCSNAME
  2

  9
$PUCSORG
 10
0.0
 20
0.0
 30
0.0
  9
$PUCSXDIR
 10
1.0
 20
0.0
 30
0.0
  9
$PUCSYDIR
 10
0.0
 20
1.0
 30
0.0
  9
$PUCSORTHOREF
  2

  9
$PUCSORTHOVIEW
 70
     0
  9
$PUCSORGTOP
 10
0.0
 20
0.0
 30
0.0
  9
$PUCSORGBOTTOM
 10
0.0
 20
0.0
 30
0.0
  9
$PUCSORGLEFT
 10
0.0
 20
0.0
 30
0.0
  9
$PUCSORGRIGHT
 10
0.0
 20
0.0
 30
0.0
  9
$PUCSORGFRONT
 10
0.0
 20
0.0
 30
0.0
  9
$PUCSORGBACK
 10
0.0
 20
0.0
 30
0.0
  9
$USERI1
 70
     0
  9
$USERI2
 70
     0
  9
$USERI3
 70
     0
  9
$USERI4
 70
     0
  9
$USERI5
 70
     0
  9
$USERR1
 40
0.0
  9
$USERR2
 40
0.0
  9
$USERR3
 40
0.0
  9
$USERR4
 40
0.0
  9
$USERR5
 40
0.0
  9
$WORLDVIEW
 70
     1
  9
$SHADEDGE
 70
     3
  9
$SHADEDIF
 70
    70
  9
$TILEMODE
 70
     1
  9
$MAXACTVP
 70
    64
  9
$PINSBASE
 10
0.0
 20
0.0
 30
0.0
  9
$PLIMCHECK
 70
     0
  9
$PEXTMIN
 10
1.000000E+20
 20
1.000000E+20
 30
1.000000E+20
  9
$PEXTMAX
 10
-1.000000E+20
 20
-1.000000E+20
 30
-1.000000E+20
  9
$PLIMMIN
 10
0.0
 20
0.0
  9
$PLIMMAX
 10
420.0
 20
297.0
  9
$UNITMODE
 70
     0
  9
$VISRETAIN
 70
     1
  9
$PLINEGEN
 70
     0
  9
$PSLTSCALE
 70
     1
  9
$TREEDEPTH
 70
  3020
  9
$CMLSTYLE
  2
Standard
  9
$CMLJUST
 70
     0
  9
$CMLSCALE
 40
20.0
  9
$PROXYGRAPHICS
 70
     1
  9
$MEASUREMENT
 70
     1
  9
$CELWEIGHT
370
    -1
  9
$ENDCAPS
280
     0
  9
$JOINSTYLE
280
     0
  9
$LWDISPLAY
290
     0
  9
$INSUNITS
 70
     4
  9
$HYPERLINKBASE
  1

  9
$STYLESHEET
  1

  9
$XEDIT
290
     1
  9
$CEPSNTYPE
380
     0
  9
$PSTYLEMODE
290
     1
  9
$FINGERPRINTGUID
  2
{5AE5ACD3-C28F-4BF0-897A-DCDFCADD36BE}
  9
$VERSIONGUID
  2
{FAEB1C32-E019-11D5-929B-00C0DF256EC4}
  9
$EXTNAMES
290
     1
  9
$PSVPSCALE
 40
0.0
  9
$OLESTARTUP
290
     0
  9
$SORTENTS
280
   127
  9
$INDEXCTL
280
     0
  9
$HIDETEXT
280
     1
  9
$XCLIPFRAME
280
     2
  9
$HALOGAP
280
     0
  9
$OBSCOLOR
 70
   257
  9
$OBSLTYPE
280
     0
  9
$INTERSECTIONDISPLAY
280
     0
  9
$INTERSECTIONCOLOR
 70
   257
  9
$DIMASSOC
280
     2
  9
$PROJECTNAME
  1

  9
$CAMERADISPLAY
290
     0
  9
$LENSLENGTH
 40
50.0
  9
$CAMERAHEIGHT
 40
0.0
  9
$STEPSPERSEC
 40
2.0
  9
$STEPSIZE
 40
6.0
  9
$3DDWFPREC
 40
2.0
  9
$PSOLWIDTH
 40
5.0
  9
$PSOLHEIGHT
 40
80.0
  9
$LOFTANG1
 40
1.570796
  9
$LOFTANG2
 40
1.570796
  9
$LOFTMAG1
 40
0.0
  9
$LOFTMAG2
 40
0.0
  9
$LOFTPARAM
 70
     7
  9
$LOFTNORMALS
280
     1
  9
$LATITUDE
 40
37.795
  9
$LONGITUDE
 40
-122.394
  9
$NORTHDIRECTION
 40
0.0
  9
$TIMEZONE
 70
 -8000
  9
$LIGHTGLYPHDISPLAY
280
     1
  9
$TILEMODELIGHTSYNCH
280
     1
  9
$CMATERIAL
347
44
  9
$SOLIDHIST
280
     0
  9
$SHOWHIST
280
     1
  9
$DWFFRAME
280
     2
  9
$DGNFRAME
280
     2
  9
$REALWORLDSCALE
290
     1
  9
$INTERFERECOLOR
 62
   256
  9
$CSHADOW
280
     0
  9
$SHADOWPLANELOCATION
 40
0.0
  0
ENDSEC
  0
SECTION
  2
CLASSES
  0
CLASS
  1
ACDBDICTIONARYWDFLT
  2
AcDbDictionaryWithDefault
  3
ObjectDBX Classes
 90
        0
 91
        4
280
     0
281
     0
  0
CLASS
  1
VISUALSTYLE
  2
AcDbVisualStyle
  3
ObjectDBX Classes
 90
     4095
 91
        4
280
     0
281
     0
  0
CLASS
  1
MATERIAL
  2
AcDbMaterial
  3
ObjectDBX Classes
 90
     1153
 91
        4
280
     0
281
     0
  0
CLASS
  1
SCALE
  2
AcDbScale
  3
ObjectDBX Classes
 90
     1153
 91
        4
280
     0
281
     0
  0
CLASS
  1
TABLESTYLE
  2
AcDbTableStyle
  3
ObjectDBX Classes
 90
     4095
 91
        4
280
     0
281
     0
  0
CLASS
  1
MLEADERSTYLE
  2
AcDbMLeaderStyle
  3
ACDB_MLEADERSTYLE_CLASS
 90
     4095
 91
        4
280
     0
281
     0
  0
CLASS
  1
SUN
  2
AcDbSun
  3
SCENEOE
 90
     1153
 91
        4
280
     0
281
     0
  0
CLASS
  1
DICTIONARYVAR
  2
AcDbDictionaryVar
  3
ObjectDBX Classes
 90
        0
 91
        4
280
     0
281
     0
  0
CLASS
  1
CELLSTYLEMAP
  2
AcDbCellStyleMap
  3
ObjectDBX Classes
 90
     1152
 91
        4
280
     0
281
     0
  0
ENDSEC
  0
SECTION
  2
TABLES
  0
TABLE
  2
VPORT
  5
8
330
0
100
AcDbSymbolTable
 70
     1
  0
VPORT
  5
29
330
8
100
AcDbSymbolTableRecord
100
AcDbViewportTableRecord
  2
*Active
 70
     0
 10
0.0
 20
0.0
 11
1.0
 21
1.0
 12
344.186916
 22
148.5
 13
0.0
 23
0.0
 14
10.0
 24
10.0
 15
10.0
 25
10.0
 16
0.0
 26
0.0
 36
1.0
 17
0.0
 27
0.0
 37
0.0
 40
297.0
 41
1.972973
 42
50.0
 43
0.0
 44
0.0
 50
0.0
 51
0.0
 71
     0
 72
   100
 73
     1
 74
     3
 75
     0
 76
     0
 77
     0
 78
     0
281
     0
 65
     1
110
0.0
120
0.0
130
0.0
111
1.0
121
0.0
131
0.0
112
0.0
122
1.0
132
0.0
 79
     0
146
0.0
348
2F
 60
     3
 61
     5
292
     1
282
     1
141
0.0
142
0.0
 63
   250
361
6D
  0
ENDTAB
  0
TABLE
  2
LTYPE
  5
5
330
0
100
AcDbSymbolTable
 70
     1
  0
LTYPE
  5
14
330
5
100
AcDbSymbolTableRecord
100
AcDbLinetypeTableRecord
  2
ByBlock
 70
     0
  3

 72
    65
 73
     0
 40
0.0
  0
LTYPE
  5
15
330
5
100
AcDbSymbolTableRecord
100
AcDbLinetypeTableRecord
  2
ByLayer
 70
     0
  3

 72
    65
 73
     0
 40
0.0
  0
LTYPE
  5
16
330
5
100
AcDbSymbolTableRecord
100
AcDbLinetypeTableRecord
  2
Continuous
 70
     0
  3
Solid line
 72
    65
 73
     0
 40
0.0
  0
ENDTAB
  0
TABLE
  2
LAYER
  5
2
330
0
100
AcDbSymbolTable
 70
     1
  0
LAYER
  5
10
330
2
100
AcDbSymbolTableRecord
100
AcDbLayerTableRecord
  2
0
 70
     0
 62
   106
  6
Continuous
370
     0
390
F
347
46
  0
ENDTAB
  0
TABLE
  2
STYLE
  5
3
330
0
100
AcDbSymbolTable
 70
     4
  0
STYLE
  5
11
330
3
100
AcDbSymbolTableRecord
100
AcDbTextStyleTableRecord
  2
Standard
 70
     0
 40
0.0
 41
1.0
 50
0.0
 71
     0
 42
2.5
  3
txt
  4

  0
STYLE
  5
6E
330
3
100
AcDbSymbolTableRecord
100
AcDbTextStyleTableRecord
  2
Default
 70
     0
 40
0.0
 41
1.0
 50
0.0
 71
     0
 42
2.5
  3

  4

1001
ACAD
1000
txt
1071
        0
  0
STYLE
  5
6F
330
3
100
AcDbSymbolTableRecord
100
AcDbTextStyleTableRecord
  2
ISO
 70
     0
 40
0.0
 41
1.0
 50
0.0
 71
     0
 42
2.5
  3

  4

1001
ACAD
1000
txt
1071
        0
  0
STYLE
  5
70
330
3
100
AcDbSymbolTableRecord
100
AcDbTextStyleTableRecord
  2
zucchetti
 70
     0
 40
0.0
 41
1.0
 50
0.0
 71
     0
 42
2.5
  3

  4

1001
ACAD
1000
Arial
1071
        0
  0
ENDTAB
  0
TABLE
  2
VIEW
  5
6
330
0
100
AcDbSymbolTable
 70
     0
  0
ENDTAB
  0
TABLE
  2
UCS
  5
7
330
0
100
AcDbSymbolTable
 70
     0
  0
ENDTAB
  0
TABLE
  2
APPID
  5
9
330
0
100
AcDbSymbolTable
 70
     1
  0
APPID
  5
12
330
9
100
AcDbSymbolTableRecord
100
AcDbRegAppTableRecord
  2
ACAD
 70
     0
  0
ENDTAB
  0
TABLE
  2
DIMSTYLE
  5
A
330
0
100
AcDbSymbolTable
 70
     4
100
AcDbDimStyleTable
  0
DIMSTYLE
105
27
330
A
100
AcDbSymbolTableRecord
100
AcDbDimStyleTableRecord
  2
ISO-25
 70
     0
 41
2.5
 42
0.625
 43
3.75
 44
1.25
 73
     0
 74
     0
 77
     1
 78
     8
140
2.5
141
2.5
143
0.03937
147
0.625
171
     3
172
     1
178
     0
271
     2
272
     2
274
     3
278
    44
283
     0
284
     8
340
11
  0
DIMSTYLE
105
71
330
A
100
AcDbSymbolTableRecord
100
AcDbDimStyleTableRecord
  2
Default
 70
     0
  3
<>
 41
4.375
 42
1.05
 44
2.1
 49
10.01
 73
     0
 74
     0
 77
     1
 78
     8
140
3.5
146
0.4
147
1.75
172
     1
271
     2
178
     3
271
     2
272
     3
284
     8
340
6E
341
72
342
72
  0
DIMSTYLE
105
79
330
A
100
AcDbSymbolTableRecord
100
AcDbDimStyleTableRecord
  2
ISO
 70
     0
  3
<>
 41
4.375
 42
1.05
 44
2.1
 49
10.01
 73
     0
 74
     0
 77
     1
 78
     8
140
3.5
146
0.4
147
1.75
172
     1
271
     2
178
     3
271
     2
272
     3
284
     8
340
6F
341
72
342
72
  0
DIMSTYLE
105
7A
330
A
100
AcDbSymbolTableRecord
100
AcDbDimStyleTableRecord
  2
zucchetti
 70
     0
  3
<>
 41
3.0
 42
0.9
 44
1.8
 49
8.58
 73
     0
 74
     0
 77
     1
 78
     8
140
3.0
146
0.6
147
1.5
172
     1
176
     3
177
     3
271
     2
178
     3
271
     2
272
     2
284
     8
340
70
  0
ENDTAB
  0
TABLE
  2
BLOCK_RECORD
  5
1
330
0
100
AcDbSymbolTable
 70
     6
  0
BLOCK_RECORD
  5
1F
330
1
100
AcDbSymbolTableRecord
100
AcDbBlockTableRecord
  2
*Model_Space
340
22
 70
     0
280
     1
281
     0
  0
BLOCK_RECORD
  5
1B
330
1
100
AcDbSymbolTableRecord
100
AcDbBlockTableRecord
  2
*Paper_Space
340
1E
 70
     0
280
     1
281
     0
  0
BLOCK_RECORD
  5
23
330
1
100
AcDbSymbolTableRecord
100
AcDbBlockTableRecord
  2
*Paper_Space0
340
26
 70
     0
280
     1
281
     0
  0
BLOCK_RECORD
  5
72
330
1
100
AcDbSymbolTableRecord
100
AcDbBlockTableRecord
  2
_CLOSED
340
0
 70
     0
280
     1
281
     0
  0
BLOCK_RECORD
  5
7B
330
1
100
AcDbSymbolTableRecord
100
AcDbBlockTableRecord
  2
a
340
0
102
{BLKREFS
331
F8
102
}
 70
     0
280
     1
281
     0
  0
BLOCK_RECORD
  5
F9
330
1
100
AcDbSymbolTableRecord
100
AcDbBlockTableRecord
  2
b
340
0
102
{BLKREFS
331
181
102
}
 70
     0
280
     1
281
     0
  0
BLOCK_RECORD
  5
182
330
1
100
AcDbSymbolTableRecord
100
AcDbBlockTableRecord
  2
c
340
0
102
{BLKREFS
331
1D8
102
}
 70
     0
280
     1
281
     0
  0
BLOCK_RECORD
  5
1D9
330
1
100
AcDbSymbolTableRecord
100
AcDbBlockTableRecord
  2
d
340
0
102
{BLKREFS
331
240
102
}
 70
     0
280
     1
281
     0
  0
ENDTAB
  0
ENDSEC
  0
SECTION
  2
BLOCKS
  0
BLOCK
  5
20
330
1F
100
AcDbEntity
  8
0
100
AcDbBlockBegin
  2
*Model_Space
 70
     0
 10
0.0
 20
0.0
 30
0.0
  3
*Model_Space
  1

  0
ENDBLK
  5
21
330
1F
100
AcDbEntity
  8
0
100
AcDbBlockEnd
  0
BLOCK
  5
1C
330
1B
100
AcDbEntity
 67
     1
  8
0
100
AcDbBlockBegin
  2
*Paper_Space
 70
     0
 10
0.0
 20
0.0
 30
0.0
  3
*Paper_Space
  1

  0
ENDBLK
  5
1D
330
1B
100
AcDbEntity
 67
     1
  8
0
100
AcDbBlockEnd
  0
BLOCK
  5
24
330
23
100
AcDbEntity
  8
0
100
AcDbBlockBegin
  2
*Paper_Space0
 70
     0
 10
0.0
 20
0.0
 30
0.0
  3
*Paper_Space0
  1

  0
ENDBLK
  5
25
330
23
100
AcDbEntity
  8
0
100
AcDbBlockEnd
  0
BLOCK
  5
73
330
72
100
AcDbEntity
  8
0
100
AcDbBlockBegin
  2
_CLOSED
 70
     0
 10
0.0
 20
0.0
 30
0.0
  3
_CLOSED
  1

  0
LINE
  5
75
330
72
100
AcDbEntity
  8
0
  6
ByBlock
 62
     0
370
    -2
100
AcDbLine
 10
-1.0
 20
0.166667
 30
0.0
 11
0.0
 21
0.0
 31
0.0
  0
LINE
  5
76
330
72
100
AcDbEntity
  8
0
  6
ByBlock
 62
     0
370
    -2
100
AcDbLine
 10
0.0
 20
0.0
 30
0.0
 11
-1.0
 21
-0.166667
 31
0.0
  0
LINE
  5
77
330
72
100
AcDbEntity
  8
0
  6
ByBlock
 62
     0
370
    -2
100
AcDbLine
 10
-1.0
 20
0.166667
 30
0.0
 11
-1.0
 21
-0.166667
 31
0.0
  0
LINE
  5
78
330
72
100
AcDbEntity
  8
0
  6
ByBlock
 62
     0
370
    -2
100
AcDbLine
 10
0.0
 20
0.0
 30
0.0
 11
-1.0
 21
0.0
 31
0.0
  0
ENDBLK
  5
74
330
72
100
AcDbEntity
  8
0
100
AcDbBlockEnd
  0
BLOCK
  5
F6
330
7B
100
AcDbEntity
  8
0
100
AcDbBlockBegin
  2
a
 70
     0
 10
248.836487
 20
268.897583
 30
0.0
  3
a
  1

  0
ELLIPSE
  5
7C
330
7B
100
AcDbEntity
  8
0
  6
Continuous
 62
     0
370
     0
100
AcDbEllipse
 10
267.934015
 20
321.541725
 30
0.0
 11
-1.0
 21
-2.837565168570336E-17
 31
0.0
210
0.0
220
0.0
230
1.0
 40
0.207912
 41
1.570796326794881
 42
3.106653605081144
  0
LINE
  5
7D
330
7B
100
AcDbEntity
  8
0
  6
Continuous
 62
     0
370
    30
100
AcDbLine
 10
268.934015
 20
321.541852
 30
0.0
 11
268.934015
 21
335.724599
 31
0.0
  0
LINE
  5
7E
330
7B
100
AcDbEntity
  8
0
  6
Continuous
 62
     0
370
    30
100
AcDbLine
 10
268.934015
 20
335.724599
 30
0.0
 11
268.934014
 21
335.741732
 31
0.0
  0
LWPOLYLINE
  5
7F
330
7B
100
AcDbEntity
  8
0
  6
Continuous
 62
     0
370
    30
100
AcDbPolyline
 90
        8
 70
     0
 43
0.0
 10
268.934021
 20
335.741547
 10
268.929718
 20
335.875488
 10
268.905762
 20
335.9505
 10
268.855133
 20
335.99823
 10
268.775909
 20
336.026978
 10
268.668579
 20
336.040131
 10
268.535889
 20
336.039795
 10
268.380219
 20
336.027863
  0
ELLIPSE
  5
80
330
7B
100
AcDbEntity
  8
0
  6
Continuous
 62
     0
370
     0
100
AcDbEllipse
 10
267.934015
 20
336.213939
 30
0.0
 11
1.0
 21
2.837565168570336E-17
 31
0.0
210
0.0
220
0.0
230
-1.0
 40
0.207912
 41
1.108277639993081
 42
1.570796826794911
  0
LINE
  5
81
330
7B
100
AcDbEntity
  8
0
  6
Continuous
 62
     0
370
     0
100
AcDbLine
 10
267.934015
 20
336.006027
 30
0.0
 11
267.934015
 21
321.333813
 31
0.0
  0
ELLIPSE
  5
82
330
7B
100
AcDbEntity
  8
0
  6
Continuous
 62
     0
370
     0
100
AcDbEllipse
 10
286.934015
 20
336.213939
 30
0.0
 11
1.0
 21
0.0
 31
0.0
210
0.0
220
0.0
230
-1.0
 40
0.207912
 41
1.570796326794898
 42
2.03331551359673
  0
LWPOLYLINE
  5
83
330
7B
100
AcDbEntity
  8
0
  6
Continuous
 62
     0
370
    30
100
AcDbPolyline
 90
        8
 70
     0
 43
0.0
 10
286.487823
 20
336.027863
 10
286.334167
 20
336.039703
 10
286.201172
 20
336.040192
 10
286.093445
 20
336.027252
 10
286.013824
 20
335.998749
 10
285.962799
 20
335.951324
 10
285.938477
 20
335.876892
 10
285.934021
 20
335.741547
  0
LINE
  5
84
330
7B
100
AcDbEntity
  8
0
  6
Continuous
 62
     0
370
    30
100
AcDbLine
 10
285.934015
 20
335.741732
 30
0.0
 11
285.934015
 21
335.724599
 31
0.0
  0
LINE
  5
85
330
7B
100
AcDbEntity
  8
0
  6
Continuous
 62
     0
370
    30
100
AcDbLine
 10
285.934015
 20
335.724599
 30
0.0
 11
285.934015
 21
321.541852
 31
0.0
  0
ELLIPSE
  5
86
330
7B
100
AcDbEntity
  8
0
  6
Continuous
 62
     0
370
     0
100
AcDbEllipse
 10
286.934015
 20
321.541725
 30
0.0
 11
-1.0
 21
0.0
 31
0.0
210
0.0
220
0.0
230
1.0
 40
0.207912
 41
0.0349395485086506
 42
1.570796826794895
  0
LINE
  5
87
330
7B
100
AcDbEntity
  8
0
  6
Continuous
 62
     0
370
     0
100
AcDbLine
 10
286.934015
 20
321.333813
 30
0.0
 11
286.934015
 21
336.006027
 31
0.0
  0
LINE
  5
88
330
7B
100
AcDbEntity
  8
0
  6
Continuous
 62
     0
370
     0
100
AcDbLine
 10
287.023835
 20
336.006027
 30
0.0
 11
287.023835
 21
321.333813
 31
0.0
  0
ELLIPSE
  5
89
330
7B
100
AcDbEntity
  8
0
  6
Continuous
 62
     0
370
     0
100
AcDbEllipse
 10
287.023835
 20
321.437769
 30
0.0
 11
-0.500000000000001
 21
-3.901652106784221E-17
 31
0.0
210
0.0
220
0.0
230
1.0
 40
0.207912
 41
1.570796326794893
 42
1.884779371558999
  0
LINE
  5
8A
330
7B
100
AcDbEntity
  8
0
  6
Continuous
 62
     0
370
     0
100
AcDbLine
 10
287.178259
 20
321.338895
 30
0.0
 11
287.178259
 21
336.011109
 31
0.0
  0
ELLIPSE
  5
8B
330
7B
100
AcDbEntity
  8
0
  6
Continuous
 62
     0
370
     0
100
AcDbEllipse
 10
287.023835
 20
336.109983
 30
0.0
 11
0.500000000000001
 21
3.901652106784221E-17
 31
0.0
210
0.0
220
0.0
230
-1.0
 40
0.207912
 41
1.256813782030791
 42
1.5707963267949
  0
LINE
  5
8C
330
7B
100
AcDbEntity
  8
0
  6
Continuous
 62
     0
370
     0
100
AcDbLine
 10
286.934015
 20
336.599057
 30
0.0
 11
287.023835
 21
336.599057
 31
0.0
  0
LWPOLYLINE
  5
8D
330
7B
100
AcDbEntity
  8
0
  6
Continuous
 62
     0
370
    30
100
AcDbPolyline
 90
        8
 70
     0
 43
0.0
 10
287.023834
 20
336.59906
 10
287.532837
 20
336.640686
 10
288.023041
 20
336.696045
 10
288.481842
 20
336.764496
 10
288.897491
 20
336.844727
 10
289.260132
 20
336.934875
 10
289.562408
 20
337.032562
 10
289.820648
 20
337.145905
  0
LINE
  5
8E
330
7B
100
AcDbEntity
  8
0
  6
Continuous
 62
     0
370
     0
100
AcDbLine
 10
289.820661
 20
337.145897
 30
0.0
 11
289.832613
 21
337.151923
 31
0.0
  0
LWPOLYLINE
  5
8F
330
7B
100
AcDbEntity
  8
0
  6
Continuous
 62
     0
370
    30
100
AcDbPolyline
 90
       55
 70
     0
 43
0.0
 10
289.832611
 20
337.151917
 10
290.173035
 20
337.333282
 10
290.45752
 20
337.523224
 10
290.680206
 20
337.720642
 10
290.835754
 20
337.924316
 10
290.919617
 20
338.132751
 10
290.928253
 20
338.34433
 10
290.859283
 20
338.557281
 10
290.711578
 20
338.769775
 10
290.485413
 20
338.979889
 10
290.182465
 20
339.185791
 10
289.805664
 20
339.385681
 10
289.359344
 20
339.577911
 10
288.848785
 20
339.760956
 10
288.280304
 20
339.933533
 10
287.660858
 20
340.094574
 10
286.997864
 20
340.243317
 10
286.29895
 20
340.379211
 10
285.571777
 20
340.501892
 10
284.805542
 20
340.61377
 10
283.986023
 20
340.716431
 10
283.11676
 20
340.80838
 10
282.202362
 20
340.888245
 10
281.248627
 20
340.954773
 10
280.262329
 20
341.006866
 10
279.251099
 20
341.04361
 10
278.223328
 20
341.064362
 10
277.187897
 20
341.068695
 10
276.1539
 20
341.056519
 10
275.130432
 20
341.027985
 10
274.126251
 20
340.983612
 10
273.149658
 20
340.924072
 10
272.20813
 20
340.850342
 10
271.308258
 20
340.76355
 10
270.455566
 20
340.66507
 10
269.65448
 20
340.556244
 10
268.908264
 20
340.438599
 10
268.203247
 20
340.310486
 10
267.528778
 20
340.169434
 10
266.892426
 20
340.015778
 10
266.301727
 20
339.850159
 10
265.763977
 20
339.673401
 10
265.285919
 20
339.486633
 10
264.873596
 20
339.291168
 10
264.532135
 20
339.088562
 10
264.265472
 20
338.880493
 10
264.076294
 20
338.668793
 10
263.965973
 20
338.455322
 10
263.934357
 20
338.241974
 10
263.980103
 20
338.030579
 10
264.100494
 20
337.822906
 10
264.291687
 20
337.620514
 10
264.54892
 20
337.424896
 10
264.866638
 20
337.237213
 10
265.242065
 20
337.057068
  0
LWPOLYLINE
  5
90
330
7B
100
AcDbEntity
  8
0
  6
Continuous
 62
     0
370
    30
100
AcDbPolyline
 90
        7
 70
     0
 43
0.0
 10
265.242065
 20
337.057068
 10
265.534515
 20
336.956268
 10
265.891937
 20
336.862396
 10
266.307861
 20
336.778137
 10
266.772705
 20
336.705658
 10
267.274445
 20
336.646667
 10
267.844208
 20
336.59906
  0
LINE
  5
91
330
7B
100
AcDbEntity
  8
0
  6
Continuous
 62
     0
370
     0
100
AcDbLine
 10
267.844195
 20
336.599057
 30
0.0
 11
267.934015
 21
336.599057
 31
0.0
  0
ARC
  5
92
330
7B
100
AcDbEntity
  8
0
  6
Continuous
 62
     0
370
    30
100
AcDbCircle
 10
267.938316
 20
338.795199
 30
0.0
 40
2.196147037561687
100
AcDbArc
 50
269.887796
 51
275.717841
  0
LWPOLYLINE
  5
93
330
7B
100
AcDbEntity
  8
0
  6
Continuous
 62
     0
370
    30
100
AcDbPolyline
 90
       61
 70
     0
 43
0.0
 10
268.157104
 20
336.609985
 10
267.625519
 20
336.748505
 10
267.129883
 20
336.898224
 10
266.677307
 20
337.058685
 10
266.274811
 20
337.229156
 10
265.929108
 20
337.40863
 10
265.646301
 20
337.595978
 10
265.431732
 20
337.789703
 10
265.289703
 20
337.98819
 10
265.223328
 20
338.189667
 10
265.234314
 20
338.392242
 10
265.322906
 20
338.593994
 10
265.487946
 20
338.792999
 10
265.726746
 20
338.987457
 10
266.0354
 20
339.175598
 10
266.408783
 20
339.355957
 10
266.840942
 20
339.527191
 10
267.325134
 20
339.688232
 10
267.854248
 20
339.838257
 10
268.420959
 20
339.976685
 10
269.017914
 20
340.10318
 10
269.655701
 20
340.220703
 10
270.349213
 20
340.331329
 10
271.096466
 20
340.433594
 10
271.894379
 20
340.52597
 10
272.738617
 20
340.607025
 10
273.623749
 20
340.675415
 10
274.543121
 20
340.72998
 10
275.489136
 20
340.769745
 10
276.45343
 20
340.793945
 10
277.427032
 20
340.802124
 10
278.400696
 20
340.794159
 10
279.365204
 20
340.770203
 10
280.311554
 20
340.730652
 10
281.231354
 20
340.6763
 10
282.117004
 20
340.608093
 10
282.961884
 20
340.527222
 10
283.760498
 20
340.434998
 10
284.508484
 20
340.332886
 10
285.202789
 20
340.222351
 10
285.84137
 20
340.104919
 10
286.438721
 20
339.978577
 10
287.00592
 20
339.840302
 10
287.535614
 20
339.69046
 10
288.020508
 20
339.529572
 10
288.453461
 20
339.35849
 10
288.827728
 20
339.178253
 10
289.13736
 20
338.990204
 10
289.377197
 20
338.795837
 10
289.543274
 20
338.596863
 10
289.632996
 20
338.395142
 10
289.645081
 20
338.192566
 10
289.579803
 20
337.991058
 10
289.438843
 20
337.792511
 10
289.225311
 20
337.598694
 10
288.94342
 20
337.411285
 10
288.598572
 20
337.231659
 10
288.196838
 20
337.061066
 10
287.744934
 20
336.900452
 10
287.249878
 20
336.750549
 10
286.710907
 20
336.609985
  0
ARC
  5
94
330
7B
100
AcDbEntity
  8
0
  6
Continuous
 62
     0
370
    30
100
AcDbCircle
 10
286.929714
 20
338.7952
 30
0.0
 40
2.196147783976379
100
AcDbArc
 50
264.282166
 51
270.11221
  0
ELLIPSE
  5
95
330
7B
100
AcDbEntity
  8
0
  6
Continuous
 62
     0
370
     0
100
AcDbEllipse
 10
285.634015
 20
322.327631
 30
0.0
 11
-5.0
 21
0.0
 31
0.0
210
0.0
220
0.0
230
1.0
 40
0.207912
 41
1.884778871559011
 42
2.766206536231418
  0
LINE
  5
96
330
7B
100
AcDbEntity
  8
0
  6
Continuous
 62
     0
370
     0
100
AcDbLine
 10
290.285844
 20
321.946495
 30
0.0
 11
290.285844
 21
336.618709
 31
0.0
  0
ELLIPSE
  5
97
330
7B
100
AcDbEntity
  8
0
  6
Continuous
 62
     0
370
     0
100
AcDbEllipse
 10
285.634015
 20
336.999845
 30
0.0
 11
5.0
 21
0.0
 31
0.0
210
0.0
220
0.0
230
-1.0
 40
0.207912
 41
0.3753866173583748
 42
1.256814282030784
  0
LINE
  5
98
330
7B
100
AcDbEntity
  8
0
  6
Continuous
 62
     0
370
     0
100
AcDbLine
 10
290.29182
 20
336.621723
 30
0.0
 11
290.29182
 21
321.949508
 31
0.0
  0
LINE
  5
99
330
7B
100
AcDbEntity
  8
0
  6
Continuous
 62
     0
370
     0
100
AcDbLine
 10
264.790505
 20
321.85114
 30
0.0
 11
264.790505
 21
336.523354
 31
0.0
  0
ELLIPSE
  5
9A
330
7B
100
AcDbEntity
  8
0
  6
Continuous
 62
     0
370
     0
100
AcDbEllipse
 10
277.434015
 20
337.773276
 30
0.0
 11
14.0
 21
7.945182471996940E-16
 31
0.0
210
0.0
220
0.0
230
-1.0
 40
0.207912
 41
2.697749064769669
 42
3.141622268021343
  0
ELLIPSE
  5
9B
330
7B
100
AcDbEntity
  8
0
  6
Continuous
 62
     0
370
     0
100
AcDbEllipse
 10
277.434015
 20
323.101062
 30
0.0
 11
-14.0
 21
-7.945182471996940E-16
 31
0.0
210
0.0
220
0.0
230
1.0
 40
0.207912
 41
0.0
 42
0.4438440888201249
  0
ELLIPSE
  5
9C
330
7B
100
AcDbEntity
  8
0
  6
Continuous
 62
     0
370
     0
100
AcDbEllipse
 10
277.434015
 20
323.101062
 30
0.0
 11
-14.0
 21
-7.945182471996940E-16
 31
0.0
210
0.0
220
0.0
230
1.0
 40
0.207912
 41
2.734850771174856
 42
3.141592653589794
  0
ELLIPSE
  5
9D
330
7B
100
AcDbEntity
  8
0
  6
Continuous
 62
     0
370
     0
100
AcDbEllipse
 10
277.434015
 20
337.773276
 30
0.0
 11
14.0
 21
7.945182471996940E-16
 31
0.0
210
0.0
220
0.0
230
-1.0
 40
0.207912
 41
6.28316936637772
 42
6.689927189594521
  0
ELLIPSE
  5
9E
330
7B
100
AcDbEntity
  8
0
  6
Continuous
 62
     0
370
     0
100
AcDbEllipse
 10
265.242059
 20
321.89578
 30
0.0
 11
-0.499999999999999
 21
1.418782584285165E-17
 31
0.0
210
0.0
220
0.0
230
1.0
 40
0.207912
 41
0.4438430888201434
 42
0.4797695375669129
  0
LINE
  5
9F
330
7B
100
AcDbEntity
  8
0
  6
Continuous
 62
     0
370
     0
100
AcDbLine
 10
264.798508
 20
321.847797
 30
0.0
 11
264.798508
 21
336.520011
 31
0.0
  0
ELLIPSE
  5
A0
330
7B
100
AcDbEntity
  8
0
  6
Continuous
 62
     0
370
     0
100
AcDbEllipse
 10
265.242059
 20
336.567994
 30
0.0
 11
0.499999999999999
 21
-1.418782584285165E-17
 31
0.0
210
0.0
220
0.0
230
-1.0
 40
0.207912
 41
2.661823116022848
 42
2.697749064769614
  0
ELLIPSE
  5
A1
330
7B
100
AcDbEntity
  8
0
  6
Continuous
 62
     0
370
     0
100
AcDbEllipse
 10
269.234015
 20
322.327631
 30
0.0
 11
-5.0
 21
0.0
 31
0.0
210
0.0
220
0.0
230
1.0
 40
0.207912
 41
0.4797695375668676
 42
1.256814282030781
  0
LINE
  5
A2
330
7B
100
AcDbEntity
  8
0
  6
Continuous
 62
     0
370
     0
100
AcDbLine
 10
267.68977
 20
321.338895
 30
0.0
 11
267.68977
 21
336.011109
 31
0.0
  0
ELLIPSE
  5
A3
330
7B
100
AcDbEntity
  8
0
  6
Continuous
 62
     0
370
     0
100
AcDbEllipse
 10
269.234015
 20
336.999845
 30
0.0
 11
5.0
 21
0.0
 31
0.0
210
0.0
220
0.0
230
-1.0
 40
0.207912
 41
1.884778871559009
 42
2.661823616022925
  0
ELLIPSE
  5
A4
330
7B
100
AcDbEntity
  8
0
  6
Continuous
 62
     0
370
     0
100
AcDbEllipse
 10
267.844195
 20
321.437769
 30
0.0
 11
-0.5
 21
-2.482869522499044E-17
 31
0.0
210
0.0
220
0.0
230
1.0
 40
0.207912
 41
1.256813282030776
 42
1.570796326794897
  0
LINE
  5
A5
330
7B
100
AcDbEntity
  8
0
  6
Continuous
 62
     0
370
     0
100
AcDbLine
 10
267.844195
 20
321.333813
 30
0.0
 11
267.844195
 21
336.006027
 31
0.0
  0
ELLIPSE
  5
A6
330
7B
100
AcDbEntity
  8
0
  6
Continuous
 62
     0
370
     0
100
AcDbEllipse
 10
267.844195
 20
336.109983
 30
0.0
 11
0.5
 21
2.482869522499044E-17
 31
0.0
210
0.0
220
0.0
230
-1.0
 40
0.207912
 41
1.570796326794907
 42
1.884778871559013
  0
LINE
  5
A7
330
7B
100
AcDbEntity
  8
0
  6
Continuous
 62
     0
370
     0
100
AcDbLine
 10
267.844195
 20
321.333813
 30
0.0
 11
267.934015
 21
321.333813
 31
0.0
  0
LINE
  5
A8
330
7B
100
AcDbEntity
  8
0
  6
Continuous
 62
     0
370
     0
100
AcDbLine
 10
267.934015
 20
336.006027
 30
0.0
 11
267.844195
 21
336.006027
 31
0.0
  0
LWPOLYLINE
  5
A9
330
7B
100
AcDbEntity
  8
0
  6
Continuous
 62
     0
370
    30
100
AcDbPolyline
 90
       38
 70
     0
 43
0.0
 10
288.637085
 20
337.430115
 10
288.555298
 20
337.621185
 10
288.39798
 20
337.810181
 10
288.166504
 20
337.995819
 10
287.86261
 20
338.176819
 10
287.488129
 20
338.352051
 10
287.045532
 20
338.520264
 10
286.538116
 20
338.680389
 10
285.969238
 20
338.831329
 10
285.342468
 20
338.971985
 10
284.662201
 20
339.101471
 10
283.933228
 20
339.218933
 10
283.160248
 20
339.323517
 10
282.34845
 20
339.41452
 10
281.50351
 20
339.491394
 10
280.631104
 20
339.553589
 10
279.73703
 20
339.600616
 10
278.827332
 20
339.632233
 10
277.908295
 20
339.648254
 10
276.986023
 20
339.648468
 10
276.066803
 20
339.632904
 10
275.156769
 20
339.601746
 10
274.262146
 20
339.555145
 10
273.389038
 20
339.493378
 10
272.543243
 20
339.416931
 10
271.730408
 20
339.326324
 10
270.956268
 20
339.222107
 10
270.225952
 20
339.10498
 10
269.54425
 20
338.97583
 10
268.915894
 20
338.83548
 10
268.345306
 20
338.684814
 10
267.83609
 20
338.524933
 10
267.391571
 20
338.356934
 10
267.015137
 20
338.181915
 10
266.709198
 20
338.001038
 10
266.475616
 20
337.815521
 10
266.316193
 20
337.626617
 10
266.230988
 20
337.430237
  0
LWPOLYLINE
  5
AA
330
7B
100
AcDbEntity
  8
0
  6
Continuous
 62
     0
370
    30
100
AcDbPolyline
 90
       39
 70
     0
 43
0.0
 10
288.63736
 20
337.430328
 10
288.552551
 20
337.62558
 10
288.38974
 20
337.818054
 10
288.151825
 20
338.005829
 10
287.843018
 20
338.187073
 10
287.468903
 20
338.360107
 10
287.036072
 20
338.523621
 10
286.55188
 20
338.676453
 10
286.024048
 20
338.817841
 10
285.46051
 20
338.947235
 10
284.865906
 20
339.064941
 10
284.219421
 20
339.175201
 10
283.517151
 20
339.277588
 10
282.761932
 20
339.370453
 10
281.957916
 20
339.45224
 10
281.110626
 20
339.521484
 10
280.226898
 20
339.576874
 10
279.314667
 20
339.61731
 10
278.382874
 20
339.641968
 10
277.441101
 20
339.65033
 10
276.499207
 20
339.642212
 10
275.5672
 20
339.617798
 10
274.654633
 20
339.577606
 10
273.770416
 20
339.52243
 10
272.922516
 20
339.453369
 10
272.117798
 20
339.371765
 10
271.361816
 20
339.279053
 10
270.658722
 20
339.176819
 10
270.011414
 20
339.06665
 10
269.416199
 20
338.949097
 10
268.852173
 20
338.819885
 10
268.323761
 20
338.67868
 10
267.838837
 20
338.52597
 10
267.405212
 20
338.36264
 10
267.030182
 20
338.189728
 10
266.720337
 20
338.008606
 10
266.481293
 20
337.820923
 10
266.317352
 20
337.628479
 10
266.230682
 20
337.43045
  0
LWPOLYLINE
  5
AB
330
7B
100
AcDbEntity
  8
0
  6
Continuous
 62
     0
370
    30
100
AcDbPolyline
 90
       21
 70
     0
 43
0.0
 10
268.934021
 20
324.984894
 10
269.538055
 20
325.134033
 10
270.182098
 20
325.267792
 10
270.884827
 20
325.390717
 10
271.658783
 20
325.503815
 10
272.499847
 20
325.604706
 10
273.401611
 20
325.69104
 10
274.355408
 20
325.760803
 10
275.350433
 20
325.812164
 10
276.374176
 20
325.843719
 10
277.41272
 20
325.854614
 10
278.451569
 20
325.844574
 10
279.476166
 20
325.813843
 10
280.472626
 20
325.763275
 10
281.428345
 20
325.694244
 10
282.332428
 20
325.608521
 10
283.176117
 20
325.508209
 10
283.952911
 20
325.395569
 10
284.6586
 20
325.27298
 10
285.304352
 20
325.139832
 10
285.934021
 20
324.984894
  0
LINE
  5
AC
330
7B
100
AcDbEntity
  8
0
  6
Continuous
 62
     0
370
     0
100
AcDbLine
 10
286.934015
 20
321.333813
 30
0.0
 11
287.023835
 21
321.333813
 31
0.0
  0
LINE
  5
AD
330
7B
100
AcDbEntity
  8
0
  6
Continuous
 62
     0
370
     0
100
AcDbLine
 10
287.023835
 20
336.006027
 30
0.0
 11
286.934015
 21
336.006027
 31
0.0
  0
LINE
  5
AE
330
7B
100
AcDbEntity
  8
0
  6
Continuous
 62
     0
370
     0
100
AcDbLine
 10
287.023835
 20
336.006027
 30
0.0
 11
287.023835
 21
336.599057
 31
0.0
  0
LINE
  5
AF
330
7B
100
AcDbEntity
  8
0
  6
Continuous
 62
     0
370
     0
100
AcDbLine
 10
286.934015
 20
336.599057
 30
0.0
 11
286.934015
 21
336.006027
 31
0.0
  0
LWPOLYLINE
  5
B0
330
7B
100
AcDbEntity
  8
0
  6
Continuous
 62
     0
370
     0
100
AcDbPolyline
 90
        5
 70
     0
 43
0.0
 10
286.487823
 20
336.027863
 10
286.504486
 20
336.220276
 10
286.551971
 20
336.397858
 10
286.62323
 20
336.534058
 10
286.710907
 20
336.609985
  0
LWPOLYLINE
  5
B1
330
7B
100
AcDbEntity
  8
0
  6
Continuous
 62
     0
370
    30
100
AcDbPolyline
 90
        3
 70
     0
 43
0.0
 10
286.710907
 20
336.609985
 10
286.664459
 20
336.615082
 10
286.465973
 20
336.601135
  0
ARC
  5
B2
330
7B
100
AcDbEntity
  8
0
  6
Continuous
 62
     0
370
     0
100
AcDbCircle
 10
286.411542
 20
321.534725
 30
0.0
 40
0.4769166450272077
100
AcDbArc
 50
180.03161
 51
189.566391
  0
LINE
  5
B3
330
7B
100
AcDbEntity
  8
0
  6
Continuous
 62
     0
370
     0
100
AcDbLine
 10
286.934015
 20
320.937837
 30
0.0
 11
286.934015
 21
321.333813
 31
0.0
  0
LINE
  5
B4
330
7B
100
AcDbEntity
  8
0
  6
Continuous
 62
     0
370
     0
100
AcDbLine
 10
287.023835
 20
320.937769
 30
0.0
 11
287.023835
 21
321.333813
 31
0.0
  0
LWPOLYLINE
  5
B5
330
7B
100
AcDbEntity
  8
0
  6
Continuous
 62
     0
370
     0
100
AcDbPolyline
 90
        5
 70
     0
 43
0.0
 10
287.057526
 20
320.938965
 10
287.102905
 20
320.967041
 10
287.140289
 20
321.042053
 10
287.166107
 20
321.156525
 10
287.178253
 20
321.338898
  0
LWPOLYLINE
  5
B6
330
7B
100
AcDbEntity
  8
0
  6
Continuous
 62
     0
370
     0
100
AcDbPolyline
 90
        4
 70
     0
 43
0.0
 10
290.053833
 20
321.542328
 10
290.169525
 20
321.632507
 10
290.249176
 20
321.759155
 10
290.285858
 20
321.946503
  0
LWPOLYLINE
  5
B7
330
7B
100
AcDbEntity
  8
0
  6
Continuous
 62
     0
370
     0
100
AcDbPolyline
 90
        4
 70
     0
 43
0.0
 10
290.291809
 20
321.949493
 10
290.266449
 20
321.791565
 10
290.193146
 20
321.655457
 10
290.053864
 20
321.542267
  0
LWPOLYLINE
  5
B8
330
7B
100
AcDbEntity
  8
0
  6
Continuous
 62
     0
370
     0
100
AcDbPolyline
 90
        4
 70
     0
 43
0.0
 10
265.041809
 20
321.437622
 10
264.913361
 20
321.527954
 10
264.82605
 20
321.664429
 10
264.790497
 20
321.851135
  0
LWPOLYLINE
  5
B9
330
7B
100
AcDbEntity
  8
0
  6
Continuous
 62
     0
370
     0
100
AcDbPolyline
 90
        4
 70
     0
 43
0.0
 10
264.798523
 20
321.847809
 10
264.828552
 20
321.674103
 10
264.914673
 20
321.530396
 10
265.056519
 20
321.431488
  0
LWPOLYLINE
  5
BA
330
7B
100
AcDbEntity
  8
0
  6
Continuous
 62
     0
370
     0
100
AcDbPolyline
 90
        5
 70
     0
 43
0.0
 10
267.810486
 20
320.938965
 10
267.765137
 20
320.967041
 10
267.727722
 20
321.042053
 10
267.701904
 20
321.156525
 10
267.689758
 20
321.338898
  0
LINE
  5
BB
330
7B
100
AcDbEntity
  8
0
  6
Continuous
 62
     0
370
     0
100
AcDbLine
 10
267.844195
 20
321.333813
 30
0.0
 11
267.844195
 21
320.937837
 31
0.0
  0
LINE
  5
BC
330
7B
100
AcDbEntity
  8
0
  6
Continuous
 62
     0
370
     0
100
AcDbLine
 10
267.934015
 20
320.937769
 30
0.0
 11
267.934015
 21
321.333813
 31
0.0
  0
ARC
  5
BD
330
7B
100
AcDbEntity
  8
0
  6
Continuous
 62
     0
370
     0
100
AcDbCircle
 10
268.456488
 20
321.534725
 30
0.0
 40
0.4769166822370272
100
AcDbArc
 50
350.433561
 51
359.96839
  0
LWPOLYLINE
  5
BE
330
7B
100
AcDbEntity
  8
0
  6
Continuous
 62
     0
370
    30
100
AcDbPolyline
 90
        3
 70
     0
 43
0.0
 10
268.402039
 20
336.601135
 10
268.360809
 20
336.609589
 10
268.157104
 20
336.609985
  0
LWPOLYLINE
  5
BF
330
7B
100
AcDbEntity
  8
0
  6
Continuous
 62
     0
370
     0
100
AcDbPolyline
 90
        5
 70
     0
 43
0.0
 10
268.157104
 20
336.609985
 10
268.24173
 20
336.538177
 10
268.31369
 20
336.403992
 10
268.362274
 20
336.22757
 10
268.380219
 20
336.027863
  0
LINE
  5
C0
330
7B
100
AcDbEntity
  8
0
  6
Continuous
 62
     0
370
     0
100
AcDbLine
 10
267.934015
 20
336.006027
 30
0.0
 11
267.934015
 21
336.599057
 31
0.0
  0
LINE
  5
C1
330
7B
100
AcDbEntity
  8
0
  6
Continuous
 62
     0
370
     0
100
AcDbLine
 10
267.844195
 20
336.599057
 30
0.0
 11
267.844195
 21
336.006027
 31
0.0
  0
LWPOLYLINE
  5
C2
330
7B
100
AcDbEntity
  8
0
  6
Continuous
 62
     0
370
     0
100
AcDbPolyline
 90
        5
 70
     0
 43
0.0
 10
267.844208
 20
336.59906
 10
267.785645
 20
336.525024
 10
267.735809
 20
336.389008
 10
267.702209
 20
336.211304
 10
267.689758
 20
336.011108
  0
LWPOLYLINE
  5
C3
330
7B
100
AcDbEntity
  8
0
  6
Continuous
 62
     0
370
     0
100
AcDbPolyline
 90
        5
 70
     0
 43
0.0
 10
264.798523
 20
336.52002
 10
264.831635
 20
336.709076
 10
264.926086
 20
336.877045
 10
265.067749
 20
336.998871
 10
265.242065
 20
337.057068
  0
LWPOLYLINE
  5
C4
330
7B
100
AcDbEntity
  8
0
  6
Continuous
 62
     0
370
     0
100
AcDbPolyline
 90
        5
 70
     0
 43
0.0
 10
265.242065
 20
337.057068
 10
265.070831
 20
337.003601
 10
264.92514
 20
336.885071
 10
264.826843
 20
336.719147
 10
264.790497
 20
336.523346
  0
LWPOLYLINE
  5
C5
330
7B
100
AcDbEntity
  8
0
  6
Continuous
 62
     0
370
     0
100
AcDbPolyline
 90
        5
 70
     0
 43
0.0
 10
290.291809
 20
336.621735
 10
290.257507
 20
336.810272
 10
290.159729
 20
336.976807
 10
290.013092
 20
337.096405
 10
289.832611
 20
337.151917
  0
LWPOLYLINE
  5
C6
330
7B
100
AcDbEntity
  8
0
  6
Continuous
 62
     0
370
     0
100
AcDbPolyline
 90
        5
 70
     0
 43
0.0
 10
289.820648
 20
337.145905
 10
289.99707
 20
337.09491
 10
290.147125
 20
336.978455
 10
290.248413
 20
336.813995
 10
290.285858
 20
336.618713
  0
LWPOLYLINE
  5
C7
330
7B
100
AcDbEntity
  8
0
  6
Continuous
 62
     0
370
     0
100
AcDbPolyline
 90
        5
 70
     0
 43
0.0
 10
287.178253
 20
336.011108
 10
287.166718
 20
336.203949
 10
287.13385
 20
336.382782
 10
287.084534
 20
336.520844
 10
287.023834
 20
336.59906
  0
LWPOLYLINE
  5
C8
330
7B
100
AcDbEntity
  8
0
  6
Continuous
 62
     0
370
    30
100
AcDbPolyline
 90
        8
 70
     0
 43
0.0
 10
287.023834
 20
336.59906
 10
287.54187
 20
336.641571
 10
288.031281
 20
336.697113
 10
288.483582
 20
336.764801
 10
288.89209
 20
336.843567
 10
289.250732
 20
336.93222
 10
289.554047
 20
337.02948
 10
289.820648
 20
337.145905
  0
LINE
  5
C9
330
7B
100
AcDbEntity
  8
0
  6
Continuous
 62
     0
370
     0
100
AcDbLine
 10
277.434015
 20
320.816673
 30
0.0
 11
277.567472
 21
325.028206
 31
0.0
  0
LINE
  5
CA
330
7B
100
AcDbEntity
  8
0
  6
Continuous
 62
     0
370
     0
100
AcDbLine
 10
277.300558
 20
325.028196
 30
0.0
 11
277.434015
 21
320.816673
 31
0.0
  0
LWPOLYLINE
  5
CB
330
7B
100
AcDbEntity
  8
0
  6
Continuous
 62
     0
370
    30
100
AcDbPolyline
 90
       13
 70
     0
 43
0.0
 10
277.434021
 20
320.816681
 10
278.01416
 20
320.849243
 10
278.587189
 20
320.945709
 10
279.144409
 20
321.104309
 10
279.678253
 20
321.323303
 10
280.18161
 20
321.60025
 10
280.647736
 20
321.931
 10
281.070374
 20
322.310883
 10
281.44397
 20
322.734741
 10
281.763397
 20
323.19696
 10
282.024048
 20
323.691254
 10
282.222443
 20
324.21109
 10
282.365448
 20
324.797607
  0
LWPOLYLINE
  5
CC
330
7B
100
AcDbEntity
  8
0
  6
Continuous
 62
     0
370
    30
100
AcDbPolyline
 90
       13
 70
     0
 43
0.0
 10
277.434021
 20
320.816681
 10
276.853455
 20
320.848877
 10
276.280396
 20
320.945221
 10
275.723206
 20
321.104279
 10
275.18927
 20
321.323639
 10
274.68576
 20
321.600647
 10
274.219482
 20
321.931458
 10
273.796783
 20
322.311523
 10
273.423248
 20
322.735657
 10
273.104034
 20
323.198151
 10
272.843506
 20
323.692688
 10
272.644653
 20
324.212585
 10
272.502014
 20
324.797485
  0
ARC
  5
CD
330
7B
100
AcDbEntity
  8
0
  6
Continuous
 62
     0
370
    30
100
AcDbCircle
 10
277.438569
 20
323.096147
 30
0.0
 40
9.784160591591522
100
AcDbArc
 50
216.123673
 51
323.882542
  0
LWPOLYLINE
  5
CE
330
7B
100
AcDbEntity
  8
0
  6
Continuous
 62
     0
370
    30
100
AcDbPolyline
 90
        3
 70
     0
 43
0.0
 10
271.677887
 20
324.707428
 10
271.748718
 20
324.353668
 10
271.935944
 20
323.73172
  0
LWPOLYLINE
  5
CF
330
7B
100
AcDbEntity
  8
0
  6
Continuous
 62
     0
370
    30
100
AcDbPolyline
 90
       24
 70
     0
 43
0.0
 10
271.935944
 20
323.73172
 10
272.19339
 20
323.143951
 10
272.520996
 20
322.588257
 10
272.913055
 20
322.07193
 10
273.363251
 20
321.600891
 10
273.868256
 20
321.183716
 10
274.420441
 20
320.824585
 10
275.011353
 20
320.525513
 10
275.634888
 20
320.29422
 10
276.282471
 20
320.133087
 10
276.945129
 20
320.042145
 10
277.615906
 20
320.024841
 10
278.285675
 20
320.08136
 10
278.944366
 20
320.210571
 10
279.582092
 20
320.41098
 10
280.190643
 20
320.679291
 10
280.762482
 20
321.011444
 10
281.290436
 20
321.403564
 10
281.767731
 20
321.851959
 10
282.188232
 20
322.351105
 10
282.546448
 20
322.893341
 10
282.836975
 20
323.470856
 10
283.055176
 20
324.075775
 10
283.199646
 20
324.706268
  0
LWPOLYLINE
  5
D0
330
7B
100
AcDbEntity
  8
0
  6
Continuous
 62
     0
370
    30
100
AcDbPolyline
 90
        3
 70
     0
 43
0.0
 10
271.677521
 20
324.707367
 10
271.748413
 20
324.353851
 10
271.935944
 20
323.73172
  0
LWPOLYLINE
  5
D1
330
7B
100
AcDbEntity
  8
0
  6
Continuous
 62
     0
370
    30
100
AcDbPolyline
 90
       24
 70
     0
 43
0.0
 10
271.935944
 20
323.73172
 10
272.19397
 20
323.143372
 10
272.521454
 20
322.586761
 10
272.913849
 20
322.069763
 10
273.365875
 20
321.598999
 10
273.871857
 20
321.180725
 10
274.424988
 20
320.820374
 10
275.017944
 20
320.522858
 10
275.642853
 20
320.291931
 10
276.291504
 20
320.130798
 10
276.955353
 20
320.041534
 10
277.625549
 20
320.02533
 10
278.293274
 20
320.082336
 10
278.949738
 20
320.211884
 10
279.586182
 20
320.412262
 10
280.194275
 20
320.680756
 10
280.76593
 20
321.013855
 10
281.29364
 20
321.407135
 10
281.770386
 20
321.855438
 10
282.18985
 20
322.352814
 10
282.5466
 20
322.89267
 10
282.835815
 20
323.467896
 10
283.053619
 20
324.070923
 10
283.199402
 20
324.706299
  0
LWPOLYLINE
  5
D2
330
7B
100
AcDbEntity
  8
0
  6
Continuous
 62
     0
370
    30
100
AcDbPolyline
 90
       25
 70
     0
 43
0.0
 10
282.621216
 20
324.771545
 10
282.493469
 20
324.220276
 10
282.29425
 20
323.670288
 10
282.022003
 20
323.133942
 10
281.678375
 20
322.624146
 10
281.268219
 20
322.153473
 10
280.799713
 20
321.733185
 10
280.2836
 20
321.372498
 10
279.732574
 20
321.077667
 10
279.160126
 20
320.851868
 10
278.579651
 20
320.695129
 10
278.00351
 20
320.604767
 10
277.442444
 20
320.575775
 10
276.881622
 20
320.603943
 10
276.305634
 20
320.69342
 10
275.725128
 20
320.849182
 10
275.152496
 20
321.074005
 10
274.601044
 20
321.367889
 10
274.084381
 20
321.727692
 10
273.615112
 20
322.147186
 10
273.204071
 20
322.617249
 10
272.859467
 20
323.126587
 10
272.586212
 20
323.662628
 10
272.385986
 20
324.212494
 10
272.255768
 20
324.77243
  0
CIRCLE
  5
D3
330
7B
100
AcDbEntity
  8
0
  6
Continuous
 62
     0
370
    30
100
AcDbCircle
 10
277.438568
 20
322.134495
 30
0.0
 40
27.5
  0
LINE
  5
D4
330
7B
100
AcDbEntity
  8
0
  6
Continuous
 62
     0
370
    30
100
AcDbLine
 10
304.938568
 20
322.134495
 30
0.0
 11
304.438568
 21
322.134495
 31
0.0
  0
CIRCLE
  5
D5
330
7B
100
AcDbEntity
  8
0
  6
Continuous
 62
     0
370
    30
100
AcDbCircle
 10
277.438568
 20
322.134495
 30
0.0
 40
27.0
  0
ARC
  5
D6
330
7B
100
AcDbEntity
  8
0
  6
Continuous
 62
     0
370
    30
100
AcDbCircle
 10
277.438568
 20
322.134495
 30
0.0
 40
12.65
100
AcDbArc
 50
182.657228
 51
191.55297
  0
ARC
  5
D7
330
7B
100
AcDbEntity
  8
0
  6
Continuous
 62
     0
370
    30
100
AcDbCircle
 10
277.438568
 20
322.134495
 30
0.0
 40
12.65
100
AcDbArc
 50
228.447001
 51
251.55297
  0
ARC
  5
D8
330
7B
100
AcDbEntity
  8
0
  6
Continuous
 62
     0
370
    30
100
AcDbCircle
 10
277.438568
 20
322.134495
 30
0.0
 40
12.65
100
AcDbArc
 50
288.447001
 51
311.55297
  0
ARC
  5
D9
330
7B
100
AcDbEntity
  8
0
  6
Continuous
 62
     0
370
    30
100
AcDbCircle
 10
277.438568
 20
322.134495
 30
0.0
 40
11.65
100
AcDbArc
 50
184.583879
 51
355.426417
  0
ARC
  5
DA
330
7B
100
AcDbEntity
  8
0
  6
Continuous
 62
     0
370
    30
100
AcDbCircle
 10
277.438568
 20
322.134495
 30
0.0
 40
9.25
100
AcDbArc
 50
187.30816
 51
352.684732
  0
LINE
  5
DB
330
7B
100
AcDbEntity
  8
0
  6
Continuous
 62
     0
370
    30
100
AcDbLine
 10
265.044858
 20
319.601031
 30
0.0
 11
269.047693
 21
312.667985
 31
0.0
  0
LINE
  5
DC
330
7B
100
AcDbEntity
  8
0
  6
Continuous
 62
     0
370
    30
100
AcDbLine
 10
273.43577
 20
310.134535
 30
0.0
 11
281.441366
 21
310.134535
 31
0.0
  0
LINE
  5
DD
330
7B
100
AcDbEntity
  8
0
  6
Continuous
 62
     0
370
    30
100
AcDbLine
 10
285.829442
 20
312.667987
 30
0.0
 11
289.832284
 21
319.60103
 31
0.0
  0
ARC
  5
DE
330
7B
100
AcDbEntity
  8
0
  6
Continuous
 62
     0
370
    30
100
AcDbCircle
 10
277.412076
 20
322.137418
 30
0.0
 40
12.67654560758344
100
AcDbArc
 50
348.458065
 51
357.355629
  0
ARC
  5
DF
330
7B
100
AcDbEntity
  8
0
  6
Continuous
 62
     0
370
    30
100
AcDbCircle
 10
277.438568
 20
323.096697
 30
0.0
 40
9.784485302562434
100
AcDbArc
 50
216.120056
 51
323.879944
  0
LINE
  5
E0
330
7B
100
AcDbEntity
  8
0
  6
Continuous
 62
     0
370
    30
100
AcDbLine
 10
267.405813
 20
270.482698
 30
0.0
 11
287.471323
 21
270.482698
 31
0.0
  0
LINE
  5
E1
330
7B
100
AcDbEntity
  8
0
  6
Continuous
 62
     0
370
    30
100
AcDbLine
 10
267.405813
 20
270.482698
 30
0.0
 11
266.105063
 21
297.078472
 31
0.0
  0
LINE
  5
E2
330
7B
100
AcDbEntity
  8
0
  6
Continuous
 62
     0
370
    30
100
AcDbLine
 10
287.471323
 20
270.482698
 30
0.0
 11
288.77207
 21
297.078405
 31
0.0
  0
LWPOLYLINE
  5
E3
330
7B
100
AcDbEntity
  8
0
  6
Continuous
 62
     0
370
    30
100
AcDbPolyline
 90
       19
 70
     0
 43
0.0
 10
270.387573
 20
316.147339
 10
271.025421
 20
315.554688
 10
271.712891
 20
315.020386
 10
272.444672
 20
314.548645
 10
273.215057
 20
314.142914
 10
274.018066
 20
313.806366
 10
274.847565
 20
313.54184
 10
275.697083
 20
313.351105
 10
276.560089
 20
313.235718
 10
277.429901
 20
313.196686
 10
278.299774
 20
313.234283
 10
279.162994
 20
313.348053
 10
280.012878
 20
313.537231
 10
280.842834
 20
313.800415
 10
281.646484
 20
314.135468
 10
282.417542
 20
314.539825
 10
283.150116
 20
315.010406
 10
283.838531
 20
315.543457
 10
284.489258
 20
316.147003
  0
LWPOLYLINE
  5
E4
330
7B
100
AcDbEntity
  8
0
  6
Continuous
 62
     0
370
    30
100
AcDbPolyline
 90
       50
 70
     0
 43
0.0
 10
263.434021
 20
337.773376
 10
263.48111
 20
338.091003
 10
263.610168
 20
338.379517
 10
263.800934
 20
338.632874
 10
264.040466
 20
338.857361
 10
264.325439
 20
339.061951
 10
264.655518
 20
339.252289
 10
265.030579
 20
339.431732
 10
265.450958
 20
339.602173
 10
265.916504
 20
339.764313
 10
266.426514
 20
339.918457
 10
266.979675
 20
340.064575
 10
267.574219
 20
340.202362
 10
268.20813
 20
340.331482
 10
268.879089
 20
340.451569
 10
269.584656
 20
340.562225
 10
270.322052
 20
340.663025
 10
271.088531
 20
340.753632
 10
271.880981
 20
340.833649
 10
272.696075
 20
340.902893
 10
273.530457
 20
340.961029
 10
274.380859
 20
341.007843
 10
275.243866
 20
341.043121
 10
276.115936
 20
341.066681
 10
276.993439
 20
341.078522
 10
277.872742
 20
341.078522
 10
278.750214
 20
341.066711
 10
279.622284
 20
341.043152
 10
280.485382
 20
341.007935
 10
281.335938
 20
340.961182
 10
282.170441
 20
340.903076
 10
282.985535
 20
340.833893
 10
283.777924
 20
340.753815
 10
284.544342
 20
340.663208
 10
285.28183
 20
340.562408
 10
285.987518
 20
340.451813
 10
286.65863
 20
340.331757
 10
287.292542
 20
340.202667
 10
287.887115
 20
340.06488
 10
288.440399
 20
339.918762
 10
288.950562
 20
339.764587
 10
289.416168
 20
339.602509
 10
289.836609
 20
339.432129
 10
290.211792
 20
339.252655
 10
290.541901
 20
339.062347
 10
290.826965
 20
338.857788
 10
291.066528
 20
338.633545
 10
291.25766
 20
338.379974
 10
291.38678
 20
338.091461
 10
291.434021
 20
337.773315
  0
LWPOLYLINE
  5
E5
330
7B
100
AcDbEntity
  8
0
  6
Continuous
 62
     0
370
    30
100
AcDbPolyline
 90
        7
 70
     0
 43
0.0
 10
268.934021
 20
335.741791
 10
268.930878
 20
335.91626
 10
268.907654
 20
336.085449
 10
268.848053
 20
336.251038
 10
268.746887
 20
336.399017
 10
268.607758
 20
336.515289
 10
268.400269
 20
336.601593
  0
LWPOLYLINE
  5
E6
330
7B
100
AcDbEntity
  8
0
  6
Continuous
 62
     0
370
    30
100
AcDbPolyline
 90
        8
 70
     0
 43
0.0
 10
267.934021
 20
320.937836
 10
268.118896
 20
320.943848
 10
268.292816
 20
320.961853
 10
268.4505
 20
320.99295
 10
268.597321
 20
321.044067
 10
268.738678
 20
321.132141
 10
268.855164
 20
321.265533
 10
268.926758
 20
321.455475
  0
LINE
  5
E7
330
7B
100
AcDbEntity
  8
0
  6
Continuous
 62
     0
370
    30
100
AcDbLine
 10
267.844194
 20
320.937769
 30
0.0
 11
267.934015
 21
320.937769
 31
0.0
  0
LINE
  5
E8
330
7B
100
AcDbEntity
  8
0
  6
Continuous
 62
     0
370
    30
100
AcDbLine
 10
267.844195
 20
320.937837
 30
0.0
 11
267.810493
 21
320.938973
 31
0.0
  0
LWPOLYLINE
  5
E9
330
7B
100
AcDbEntity
  8
0
  6
Continuous
 62
     0
370
    30
100
AcDbPolyline
 90
        6
 70
     0
 43
0.0
 10
265.056519
 20
321.431488
 10
265.469849
 20
321.292999
 10
265.958527
 20
321.174866
 10
266.517487
 20
321.075897
 10
267.137238
 20
320.996979
 10
267.810486
 20
320.938965
  0
LWPOLYLINE
  5
EA
330
7B
100
AcDbEntity
  8
0
  6
Continuous
 62
     0
370
    30
100
AcDbPolyline
 90
        9
 70
     0
 43
0.0
 10
263.434021
 20
323.101166
 10
263.470062
 20
322.822906
 10
263.570496
 20
322.565033
 10
263.721893
 20
322.333954
 10
263.913025
 20
322.127441
 10
264.139954
 20
321.940002
 10
264.40094
 20
321.765564
 10
264.695801
 20
321.601135
 10
265.041809
 20
321.437622
  0
LWPOLYLINE
  5
EB
330
7B
100
AcDbEntity
  8
0
  6
Continuous
 62
     0
370
    30
100
AcDbPolyline
 90
        9
 70
     0
 43
0.0
 10
290.051636
 20
321.541168
 10
290.331757
 20
321.686493
 10
290.583679
 20
321.839264
 10
290.807617
 20
322.001099
 10
291.003479
 20
322.174744
 10
291.17038
 20
322.365448
 10
291.303558
 20
322.57663
 10
291.394531
 20
322.809998
 10
291.434021
 20
323.101105
  0
LWPOLYLINE
  5
EC
330
7B
100
AcDbEntity
  8
0
  6
Continuous
 62
     0
370
    30
100
AcDbPolyline
 90
        7
 70
     0
 43
0.0
 10
287.057526
 20
320.938965
 10
287.685883
 20
320.992279
 10
288.272919
 20
321.064453
 10
288.807739
 20
321.154419
 10
289.281708
 20
321.261414
 10
289.689911
 20
321.385468
 10
290.053833
 20
321.542328
  0
LINE
  5
ED
330
7B
100
AcDbEntity
  8
0
  6
Continuous
 62
     0
370
    30
100
AcDbLine
 10
287.023835
 20
320.937837
 30
0.0
 11
287.057537
 21
320.938973
 31
0.0
  0
LINE
  5
EE
330
7B
100
AcDbEntity
  8
0
  6
Continuous
 62
     0
370
    30
100
AcDbLine
 10
286.934014
 20
320.937769
 30
0.0
 11
287.023835
 21
320.937769
 31
0.0
  0
LWPOLYLINE
  5
EF
330
7B
100
AcDbEntity
  8
0
  6
Continuous
 62
     0
370
    30
100
AcDbPolyline
 90
        8
 70
     0
 43
0.0
 10
285.941254
 20
321.455475
 10
286.002014
 20
321.283905
 10
286.113892
 20
321.145416
 10
286.253754
 20
321.052124
 10
286.400116
 20
320.99765
 10
286.556122
 20
320.964722
 10
286.728394
 20
320.945312
 10
286.934021
 20
320.937836
  0
LWPOLYLINE
  5
F0
330
7B
100
AcDbEntity
  8
0
  6
Continuous
 62
     0
370
    30
100
AcDbPolyline
 90
        6
 70
     0
 43
0.0
 10
286.467743
 20
336.601593
 10
286.26062
 20
336.515564
 10
286.09314
 20
336.365845
 10
285.986115
 20
336.172546
 10
285.940704
 20
335.962708
 10
285.934021
 20
335.747314
  0
LWPOLYLINE
  5
F1
330
7B
100
AcDbEntity
  8
0
  6
Continuous
 62
     0
370
    30
100
AcDbPolyline
 90
       19
 70
     0
 43
0.0
 10
285.934021
 20
324.244904
 10
285.200684
 20
324.399475
 10
284.393951
 20
324.540344
 10
283.522614
 20
324.665771
 10
282.595398
 20
324.774231
 10
281.621185
 20
324.864471
 10
280.609131
 20
324.935577
 10
279.568512
 20
324.986877
 10
278.50882
 20
325.017944
 10
277.439514
 20
325.028351
 10
276.370117
 20
325.018097
 10
275.310242
 20
324.987335
 10
274.269409
 20
324.936218
 10
273.25705
 20
324.865265
 10
272.28244
 20
324.775208
 10
271.354614
 20
324.667023
 10
270.482605
 20
324.541809
 10
269.675201
 20
324.401001
 10
268.934021
 20
324.244873
  0
LWPOLYLINE
  5
F2
330
7B
100
AcDbEntity
  8
0
  6
Continuous
 62
     0
370
    30
100
AcDbPolyline
 90
       11
 70
     0
 43
0.0
 10
286.465912
 20
336.601349
 10
286.857422
 20
336.701569
 10
287.218109
 20
336.804932
 10
287.546173
 20
336.910522
 10
287.839081
 20
337.016937
 10
288.093964
 20
337.122467
 10
288.307892
 20
337.224609
 10
288.477905
 20
337.319794
 10
288.601471
 20
337.402527
 10
288.676636
 20
337.46463
 10
288.703583
 20
337.49234
  0
LWPOLYLINE
  5
F3
330
7B
100
AcDbEntity
  8
0
  6
Continuous
 62
     0
370
    30
100
AcDbPolyline
 90
       11
 70
     0
 43
0.0
 10
266.164307
 20
337.492645
 10
266.186035
 20
337.469543
 10
266.255646
 20
337.410858
 10
266.373779
 20
337.329834
 10
266.538391
 20
337.235962
 10
266.747101
 20
337.134521
 10
266.996979
 20
337.02948
 10
267.285156
 20
336.923218
 10
267.608856
 20
336.817505
 10
267.965302
 20
336.713898
 10
268.4021
 20
336.601349
  0
LINE
  5
F4
330
7B
100
AcDbEntity
  8
0
  6
Continuous
 62
     0
370
    30
100
AcDbLine
 10
291.434015
 20
323.101062
 30
0.0
 11
291.434015
 21
337.773276
 31
0.0
  0
LINE
  5
F5
330
7B
100
AcDbEntity
  8
0
  6
Continuous
 62
     0
370
    30
100
AcDbLine
 10
263.434015
 20
323.101062
 30
0.0
 11
263.434015
 21
337.773276
 31
0.0
  0
ENDBLK
  5
F7
330
7B
100
AcDbEntity
  8
0
100
AcDbBlockEnd
  0
BLOCK
  5
17F
330
F9
100
AcDbEntity
  8
0
100
AcDbBlockBegin
  2
b
 70
     0
 10
0.0
 20
226.634445
 30
0.0
  3
b
  1

  0
ARC
  5
FA
330
F9
100
AcDbEntity
  8
0
  6
Continuous
 62
     0
370
     0
100
AcDbCircle
 10
268.463085
 20
103.054368
 30
0.0
 40
0.4709309865245989
100
AcDbArc
 50
0.102942
 51
37.920256
  0
LINE
  5
FB
330
F9
100
AcDbEntity
  8
0
  6
Continuous
 62
     0
370
    30
100
AcDbLine
 10
268.934015
 20
103.055214
 30
0.0
 11
268.934015
 21
99.377129
 31
0.0
  0
ARC
  5
FC
330
F9
100
AcDbEntity
  8
0
  6
Continuous
 62
     0
370
    30
100
AcDbCircle
 10
268.461333
 20
99.371462
 30
0.0
 40
0.4726831765084709
100
AcDbArc
 50
0.125534
 51
41.036958
  0
LINE
  5
FD
330
F9
100
AcDbEntity
  8
0
  6
Continuous
 62
     0
370
     0
100
AcDbLine
 10
268.817871
 20
99.6818
 30
0.0
 11
268.834586
 21
103.343785
 31
0.0
  0
ARC
  5
FE
330
F9
100
AcDbEntity
  8
0
  6
Continuous
 62
     0
370
    30
100
AcDbCircle
 10
286.406697
 20
99.371462
 30
0.0
 40
0.4726831765118686
100
AcDbArc
 50
138.963042
 51
179.874466
  0
LINE
  5
FF
330
F9
100
AcDbEntity
  8
0
  6
Continuous
 62
     0
370
    30
100
AcDbLine
 10
285.934015
 20
99.377129
 30
0.0
 11
285.934015
 21
103.055214
 31
0.0
  0
ARC
  5
100
330
F9
100
AcDbEntity
  8
0
  6
Continuous
 62
     0
370
     0
100
AcDbCircle
 10
286.404945
 20
103.054368
 30
0.0
 40
0.4709309865256801
100
AcDbArc
 50
142.079744
 51
179.897058
  0
LINE
  5
101
330
F9
100
AcDbEntity
  8
0
  6
Continuous
 62
     0
370
     0
100
AcDbLine
 10
286.033443
 20
103.343785
 30
0.0
 11
286.050158
 21
99.6818
 31
0.0
  0
LINE
  5
102
330
F9
100
AcDbEntity
  8
0
  6
Continuous
 62
     0
370
     0
100
AcDbLine
 10
286.934015
 20
98.680085
 30
0.0
 11
287.023835
 21
98.680085
 31
0.0
  0
LWPOLYLINE
  5
103
330
F9
100
AcDbEntity
  8
0
  6
Continuous
 62
     0
370
    30
100
AcDbPolyline
 90
        8
 70
     0
 43
0.0
 10
287.023834
 20
98.680084
 10
287.536102
 20
98.877434
 10
288.029236
 20
99.140228
 10
288.490417
 20
99.465324
 10
288.907654
 20
99.846413
 10
289.270935
 20
100.274399
 10
289.572906
 20
100.738091
 10
289.820648
 20
101.252769
  0
LINE
  5
104
330
F9
100
AcDbEntity
  8
0
  6
Continuous
 62
     0
370
     0
100
AcDbLine
 10
289.820661
 20
101.252765
 30
0.0
 11
289.832613
 21
101.281118
 31
0.0
  0
ARC
  5
105
330
F9
100
AcDbEntity
  8
0
  6
Continuous
 62
     0
370
    30
100
AcDbCircle
 10
269.186226
 20
102.949316
 30
0.0
 40
4.47519585398031
100
AcDbArc
 50
208.195623
 51
252.549505
  0
LINE
  5
106
330
F9
100
AcDbEntity
  8
0
  6
Continuous
 62
     0
370
     0
100
AcDbLine
 10
267.844195
 20
98.680085
 30
0.0
 11
267.934015
 21
98.680085
 31
0.0
  0
ARC
  5
107
330
F9
100
AcDbEntity
  8
0
  6
Continuous
 62
     0
370
    30
100
AcDbCircle
 10
267.934209
 20
99.189251
 30
0.0
 40
0.5091658818104048
100
AcDbArc
 50
269.978134
 51
295.962955
  0
ARC
  5
108
330
F9
100
AcDbEntity
  8
0
  6
Continuous
 62
     0
370
    30
100
AcDbCircle
 10
286.93382
 20
99.189251
 30
0.0
 40
0.5091658890696407
100
AcDbArc
 50
244.037073
 51
270.021894
  0
ELLIPSE
  5
109
330
F9
100
AcDbEntity
  8
0
  6
Continuous
 62
     0
370
     0
100
AcDbEllipse
 10
277.434015
 20
106.609222
 30
0.0
 11
-14.0
 21
4.672392124523825E-15
 31
0.0
210
0.0
220
0.0
230
-1.0
 40
0.978148
 41
5.83934171835946
 42
7.735503663060872
  0
LWPOLYLINE
  5
10A
330
F9
100
AcDbEntity
  8
0
  6
Continuous
 62
     0
370
    30
100
AcDbPolyline
 90
       10
 70
     0
 43
0.0
 10
275.779205
 20
120.207291
 10
275.29071
 20
120.177887
 10
274.825653
 20
120.146164
 10
274.38916
 20
120.114922
 10
273.986084
 20
120.087234
 10
273.62207
 20
120.06691
 10
273.302002
 20
120.057861
 10
273.030243
 20
120.063782
 10
272.809845
 20
120.087593
 10
272.625488
 20
120.140045
  0
LWPOLYLINE
  5
10B
330
F9
100
AcDbEntity
  8
0
  6
Continuous
 62
     0
370
    30
100
AcDbPolyline
 90
        4
 70
     0
 43
0.0
 10
272.625488
 20
120.140045
 10
272.529358
 20
120.197937
 10
272.467041
 20
120.269226
 10
272.434021
 20
120.395027
  0
ELLIPSE
  5
10C
330
F9
100
AcDbEntity
  8
0
  6
Continuous
 62
     0
370
     0
100
AcDbEllipse
 10
277.434015
 20
109.727898
 30
0.0
 11
14.0
 21
-4.672392124523825E-15
 31
0.0
210
0.0
220
0.0
230
1.0
 40
0.978148
 41
1.936003548085264
 42
3.141592653589793
  0
ELLIPSE
  5
10D
330
F9
100
AcDbEntity
  8
0
  6
Continuous
 62
     0
370
     0
100
AcDbEllipse
 10
277.434015
 20
109.727898
 30
0.0
 11
14.0
 21
-4.672392124523825E-15
 31
0.0
210
0.0
220
0.0
230
1.0
 40
0.978148
 41
-0.0000000000000009
 42
1.20558910550453
  0
LWPOLYLINE
  5
10E
330
F9
100
AcDbEntity
  8
0
  6
Continuous
 62
     0
370
    30
100
AcDbPolyline
 90
        4
 70
     0
 43
0.0
 10
282.434021
 20
120.395027
 10
282.418518
 20
120.305885
 10
282.371155
 20
120.228798
 10
282.242554
 20
120.140045
  0
LWPOLYLINE
  5
10F
330
F9
100
AcDbEntity
  8
0
  6
Continuous
 62
     0
370
    30
100
AcDbPolyline
 90
       10
 70
     0
 43
0.0
 10
282.242554
 20
120.140045
 10
282.084778
 20
120.092545
 10
281.871826
 20
120.065994
 10
281.607117
 20
120.057709
 10
281.293488
 20
120.064888
 10
280.935272
 20
120.083878
 10
280.537323
 20
120.110748
 10
280.105194
 20
120.14167
 10
279.64389
 20
120.173447
 10
279.088837
 20
120.207291
  0
ELLIPSE
  5
110
330
F9
100
AcDbEntity
  8
0
  6
Continuous
 62
     0
370
     0
100
AcDbEllipse
 10
277.434015
 20
106.609222
 30
0.0
 11
-14.0
 21
4.672392124523825E-15
 31
0.0
210
0.0
220
0.0
230
-1.0
 40
0.978148
 41
1.689274797708774
 42
3.548334536004728
  0
LWPOLYLINE
  5
111
330
F9
100
AcDbEntity
  8
0
  6
Continuous
 62
     0
370
    30
100
AcDbPolyline
 90
        7
 70
     0
 43
0.0
 10
286.710907
 20
98.731468
 10
286.509949
 20
98.88797
 10
286.338989
 20
99.070435
 10
286.209076
 20
99.25853
 10
286.120239
 20
99.434799
 10
286.069153
 20
99.58181
 10
286.05014
 20
99.681816
  0
LWPOLYLINE
  5
112
330
F9
100
AcDbEntity
  8
0
  6
Continuous
 62
     0
370
    30
100
AcDbPolyline
 90
       13
 70
     0
 43
0.0
 10
266.594391
 20
109.525024
 10
266.400238
 20
108.677269
 10
266.275513
 20
107.816879
 10
266.220886
 20
106.949402
 10
266.236237
 20
106.08075
 10
266.321533
 20
105.216812
 10
266.476379
 20
104.363327
 10
266.699432
 20
103.525154
 10
266.989319
 20
102.706749
 10
267.345245
 20
101.91214
 10
267.765289
 20
101.146072
 10
268.245728
 20
100.41449
 10
268.817871
 20
99.681816
  0
LWPOLYLINE
  5
113
330
F9
100
AcDbEntity
  8
0
  6
Continuous
 62
     0
370
    30
100
AcDbPolyline
 90
       12
 70
     0
 43
0.0
 10
286.05014
 20
99.681816
 10
286.580322
 20
100.356163
 10
287.056519
 20
101.069939
 10
287.475098
 20
101.817444
 10
287.832458
 20
102.59304
 10
288.126434
 20
103.392052
 10
288.356384
 20
104.210709
 10
288.521027
 20
105.044876
 10
288.619019
 20
105.890091
 10
288.649841
 20
106.741096
 10
288.613434
 20
107.592323
 10
288.497864
 20
108.508774
  0
LWPOLYLINE
  5
114
330
F9
100
AcDbEntity
  8
0
  6
Continuous
 62
     0
370
    30
100
AcDbPolyline
 90
        7
 70
     0
 43
0.0
 10
268.817871
 20
99.681816
 10
268.800354
 20
99.587341
 10
268.750824
 20
99.442093
 10
268.663757
 20
99.266739
 10
268.535736
 20
99.078819
 10
268.366425
 20
98.895691
 10
268.157104
 20
98.731468
  0
LWPOLYLINE
  5
115
330
F9
100
AcDbEntity
  8
0
  6
Continuous
 62
     0
370
    30
100
AcDbPolyline
 90
       58
 70
     0
 43
0.0
 10
268.157104
 20
98.731468
 10
267.552979
 20
99.480408
 10
267.010559
 20
100.275864
 10
266.534271
 20
101.111069
 10
266.128448
 20
101.979279
 10
265.795776
 20
102.874817
 10
265.53714
 20
103.793159
 10
265.353973
 20
104.729408
 10
265.247894
 20
105.678215
 10
265.219482
 20
106.633286
 10
265.268768
 20
107.58799
 10
265.395966
 20
108.535706
 10
265.600433
 20
109.470116
 10
265.880432
 20
110.385437
 10
266.234192
 20
111.275909
 10
266.65979
 20
112.135826
 10
267.154266
 20
112.959824
 10
267.714294
 20
113.742699
 10
268.336456
 20
114.479279
 10
269.016998
 20
115.16468
 10
269.751312
 20
115.794815
 10
270.534607
 20
116.365669
 10
271.362091
 20
116.873306
 10
272.228485
 20
117.31459
 10
273.128082
 20
117.686943
 10
274.055176
 20
117.987839
 10
275.003937
 20
118.21505
 10
275.968262
 20
118.367485
 10
276.941925
 20
118.444267
 10
277.918701
 20
118.444557
 10
278.892395
 20
118.368355
 10
279.856812
 20
118.216492
 10
280.805725
 20
117.989845
 10
281.733002
 20
117.689507
 10
282.632812
 20
117.31768
 10
283.499481
 20
116.876915
 10
284.327301
 20
116.369774
 10
285.110962
 20
115.799377
 10
285.845642
 20
115.169685
 10
286.526611
 20
114.48468
 10
287.149231
 20
113.748474
 10
287.709747
 20
112.965927
 10
288.204742
 20
112.142227
 10
288.630859
 20
111.282562
 10
288.985168
 20
110.392303
 10
289.265778
 20
109.47715
 10
289.470795
 20
108.542854
 10
289.598572
 20
107.595222
 10
289.648468
 20
106.640541
 10
289.620636
 20
105.685455
 10
289.515167
 20
104.736572
 10
289.33255
 20
103.800209
 10
289.074493
 20
102.881714
 10
288.742371
 20
101.985985
 10
288.337097
 20
101.117546
 10
287.861328
 20
100.282066
 10
287.319427
 20
99.486282
 10
286.710907
 20
98.731468
  0
LWPOLYLINE
  5
116
330
F9
100
AcDbEntity
  8
0
  6
Continuous
 62
     0
370
    30
100
AcDbPolyline
 90
        9
 70
     0
 43
0.0
 10
266.711609
 20
109.924751
 10
266.722595
 20
109.048607
 10
266.808014
 20
108.177322
 10
266.967377
 20
107.317207
 10
267.199127
 20
106.47364
 10
267.501953
 20
105.651497
 10
267.874939
 20
104.85537
 10
268.315063
 20
104.091232
 10
268.834747
 20
103.343903
  0
LWPOLYLINE
  5
117
330
F9
100
AcDbEntity
  8
0
  6
Continuous
 62
     0
370
    30
100
AcDbPolyline
 90
        9
 70
     0
 43
0.0
 10
286.033295
 20
103.343903
 10
286.538116
 20
104.067825
 10
286.980225
 20
104.83078
 10
287.355347
 20
105.625938
 10
287.6604
 20
106.447266
 10
287.894409
 20
107.290154
 10
288.056091
 20
108.14975
 10
288.14386
 20
109.020699
 10
288.156433
 20
109.924248
  0
LWPOLYLINE
  5
118
330
F9
100
AcDbEntity
  8
0
  6
Continuous
 62
     0
370
    30
100
AcDbPolyline
 90
        3
 70
     0
 43
0.0
 10
268.834747
 20
103.343903
 10
268.834839
 20
103.356903
 10
268.81781
 20
103.366188
  0
LWPOLYLINE
  5
119
330
F9
100
AcDbEntity
  8
0
  6
Continuous
 62
     0
370
    30
100
AcDbPolyline
 90
        3
 70
     0
 43
0.0
 10
286.050201
 20
103.366188
 10
286.043762
 20
103.370674
 10
286.033295
 20
103.343903
  0
LINE
  5
11A
330
F9
100
AcDbEntity
  8
0
  6
Continuous
 62
     0
370
     0
100
AcDbLine
 10
287.023835
 20
98.284041
 30
0.0
 11
287.023835
 21
98.680085
 31
0.0
  0
LINE
  5
11B
330
F9
100
AcDbEntity
  8
0
  6
Continuous
 62
     0
370
     0
100
AcDbLine
 10
286.934015
 20
98.680086
 30
0.0
 11
286.934015
 21
98.284041
 31
0.0
  0
LWPOLYLINE
  5
11C
330
F9
100
AcDbEntity
  8
0
  6
Continuous
 62
     0
370
     0
100
AcDbPolyline
 90
        5
 70
     0
 43
0.0
 10
286.487823
 20
98.397743
 10
286.504578
 20
98.391083
 10
286.552307
 20
98.451157
 10
286.623871
 20
98.568932
 10
286.710907
 20
98.731468
  0
LWPOLYLINE
  5
11D
330
F9
100
AcDbEntity
  8
0
  6
Continuous
 62
     0
370
    30
100
AcDbPolyline
 90
        9
 70
     0
 43
0.0
 10
286.710907
 20
98.731468
 10
286.577362
 20
98.828964
 10
286.453522
 20
98.942062
 10
286.340912
 20
99.068054
 10
286.243439
 20
99.202217
 10
286.164093
 20
99.339531
 10
286.104523
 20
99.473007
 10
286.066315
 20
99.592163
 10
286.050171
 20
99.681801
  0
LINE
  5
11E
330
F9
100
AcDbEntity
  8
0
  6
Continuous
 62
     0
370
    30
100
AcDbLine
 10
285.934017
 20
99.371554
 30
0.0
 11
285.93427
 21
99.337272
 31
0.0
  0
LWPOLYLINE
  5
11F
330
F9
100
AcDbEntity
  8
0
  6
Continuous
 62
     0
370
    30
100
AcDbPolyline
 90
        9
 70
     0
 43
0.0
 10
268.817871
 20
99.681801
 10
268.802948
 20
99.597015
 10
268.765717
 20
99.478851
 10
268.707123
 20
99.345779
 10
268.628632
 20
99.208458
 10
268.531952
 20
99.074043
 10
268.419922
 20
98.947563
 10
268.296509
 20
98.833794
 10
268.157104
 20
98.731468
  0
LWPOLYLINE
  5
120
330
F9
100
AcDbEntity
  8
0
  6
Continuous
 62
     0
370
     0
100
AcDbPolyline
 90
        5
 70
     0
 43
0.0
 10
268.157104
 20
98.731468
 10
268.241943
 20
98.572876
 10
268.314026
 20
98.453705
 10
268.362549
 20
98.391869
 10
268.380219
 20
98.397743
  0
LWPOLYLINE
  5
121
330
F9
100
AcDbEntity
  8
0
  6
Continuous
 62
     0
370
     0
100
AcDbPolyline
 90
        5
 70
     0
 43
0.0
 10
267.934021
 20
98.284111
 10
267.934021
 20
98.309555
 10
267.934021
 20
98.38327
 10
267.934021
 20
98.497787
 10
267.934021
 20
98.680084
  0
LINE
  5
122
330
F9
100
AcDbEntity
  8
0
  6
Continuous
 62
     0
370
     0
100
AcDbLine
 10
267.844195
 20
98.680086
 30
0.0
 11
267.844195
 21
98.284041
 31
0.0
  0
LWPOLYLINE
  5
123
330
F9
100
AcDbEntity
  8
0
  6
Continuous
 62
     0
370
     0
100
AcDbPolyline
 90
        5
 70
     0
 43
0.0
 10
267.844208
 20
98.680084
 10
267.785461
 20
98.510986
 10
267.735565
 20
98.382919
 10
267.701996
 20
98.315147
 10
267.689758
 20
98.318878
  0
LWPOLYLINE
  5
124
330
F9
100
AcDbEntity
  8
0
  6
Continuous
 62
     0
370
     0
100
AcDbPolyline
 90
        5
 70
     0
 43
0.0
 10
264.798523
 20
100.713074
 10
264.831848
 20
100.690498
 10
264.926849
 20
100.705246
 10
265.069214
 20
100.755104
 10
265.242065
 20
100.834862
  0
LWPOLYLINE
  5
125
330
F9
100
AcDbEntity
  8
0
  6
Continuous
 62
     0
370
     0
100
AcDbPolyline
 90
        5
 70
     0
 43
0.0
 10
265.242065
 20
100.834862
 10
265.070312
 20
100.762787
 10
264.924347
 20
100.717178
 10
264.826172
 20
100.704895
 10
264.790497
 20
100.728798
  0
LWPOLYLINE
  5
126
330
F9
100
AcDbEntity
  8
0
  6
Continuous
 62
     0
370
     0
100
AcDbPolyline
 90
        5
 70
     0
 43
0.0
 10
290.291809
 20
101.191589
 10
290.257294
 20
101.166588
 10
290.158905
 20
101.174438
 10
290.011475
 20
101.213966
 10
289.832611
 20
101.28112
  0
LWPOLYLINE
  5
127
330
F9
100
AcDbEntity
  8
0
  6
Continuous
 62
     0
370
    30
100
AcDbPolyline
 90
       54
 70
     0
 43
0.0
 10
289.832611
 20
101.28112
 10
290.198608
 20
102.206985
 10
290.492981
 20
103.158714
 10
290.713745
 20
104.129936
 10
290.858948
 20
105.114326
 10
290.927856
 20
106.106148
 10
290.920319
 20
107.099998
 10
290.836334
 20
108.090469
 10
290.676331
 20
109.072098
 10
290.441437
 20
110.039291
 10
290.132904
 20
110.986473
 10
289.752197
 20
111.908165
 10
289.301758
 20
112.799255
 10
288.784149
 20
113.654724
 10
288.202118
 20
114.469582
 10
287.559021
 20
115.239319
 10
286.858673
 20
115.959671
 10
286.104889
 20
116.626381
 10
285.30188
 20
117.235641
 10
284.454346
 20
117.784225
 10
283.567078
 20
118.268906
 10
282.644958
 20
118.68676
 10
281.693329
 20
119.035675
 10
280.717621
 20
119.31369
 10
279.723267
 20
119.518944
 10
278.715912
 20
119.650459
 10
277.701324
 20
119.707634
 10
276.685242
 20
119.689896
 10
275.67337
 20
119.597343
 10
274.671448
 20
119.430748
 10
273.685211
 20
119.190918
 10
272.720276
 20
118.879028
 10
271.781982
 20
118.497108
 10
270.875702
 20
118.04734
 10
270.006653
 20
117.531998
 10
269.179688
 20
116.954185
 10
268.399414
 20
116.317276
 10
267.670441
 20
115.624687
 10
266.996826
 20
114.880348
 10
266.382233
 20
114.088654
 10
265.830292
 20
113.253998
 10
265.344238
 20
112.381012
 10
264.926575
 20
111.474762
 10
264.579742
 20
110.540367
 10
264.305939
 20
109.583023
 10
264.106506
 20
108.608238
 10
263.982391
 20
107.621658
 10
263.934601
 20
106.628876
 10
263.963348
 20
105.635406
 10
264.068359
 20
104.646622
 10
264.24939
 20
103.667938
 10
264.505463
 20
102.70504
 10
264.834381
 20
101.764175
 10
265.242065
 20
100.834862
  0
LWPOLYLINE
  5
128
330
F9
100
AcDbEntity
  8
0
  6
Continuous
 62
     0
370
    30
100
AcDbPolyline
 90
        4
 70
     0
 43
0.0
 10
275.779205
 20
120.207161
 10
276.189026
 20
120.214882
 10
276.606903
 20
120.206566
 10
277.247375
 20
120.200562
  0
ARC
  5
129
330
F9
100
AcDbEntity
  8
0
  6
Continuous
 62
     0
370
    30
100
AcDbCircle
 10
277.433461
 20
109.280359
 30
0.0
 40
10.92178452223139
100
AcDbArc
 50
89.017947
 51
90.976243
  0
LWPOLYLINE
  5
12A
330
F9
100
AcDbEntity
  8
0
  6
Continuous
 62
     0
370
    30
100
AcDbPolyline
 90
        4
 70
     0
 43
0.0
 10
277.620667
 20
120.200539
 10
278.045013
 20
120.201721
 10
278.465881
 20
120.211441
 10
279.088806
 20
120.207153
  0
LWPOLYLINE
  5
12B
330
F9
100
AcDbEntity
  8
0
  6
Continuous
 62
     0
370
     0
100
AcDbPolyline
 90
        5
 70
     0
 43
0.0
 10
289.820648
 20
101.252762
 10
289.99765
 20
101.192368
 10
290.14801
 20
101.156685
 10
290.249115
 20
101.151085
 10
290.285858
 20
101.177414
  0
LWPOLYLINE
  5
12C
330
F9
100
AcDbEntity
  8
0
  6
Continuous
 62
     0
370
     0
100
AcDbPolyline
 90
        5
 70
     0
 43
0.0
 10
287.178253
 20
98.318878
 10
287.166656
 20
98.314293
 10
287.133575
 20
98.380318
 10
287.084015
 20
98.507004
 10
287.023834
 20
98.680084
  0
LINE
  5
12D
330
F9
100
AcDbEntity
  8
0
  6
Continuous
 62
     0
370
    30
100
AcDbLine
 10
282.434007
 20
146.603721
 30
0.0
 11
282.434015
 21
146.464052
 31
0.0
  0
LWPOLYLINE
  5
12E
330
F9
100
AcDbEntity
  8
0
  6
Continuous
 62
     0
370
    30
100
AcDbPolyline
 90
        8
 70
     0
 43
0.0
 10
282.43399
 20
146.60643
 10
282.399811
 20
146.780685
 10
282.302399
 20
146.952911
 10
282.143494
 20
147.120621
 10
281.924683
 20
147.281677
 10
281.648132
 20
147.434067
 10
281.317657
 20
147.575851
 10
280.891541
 20
147.719025
  0
LINE
  5
12F
330
F9
100
AcDbEntity
  8
0
  6
Continuous
 62
     0
370
     0
100
AcDbLine
 10
277.436889
 20
147.719032
 30
0.0
 11
277.613007
 21
121.385675
 31
0.0
  0
LWPOLYLINE
  5
130
330
F9
100
AcDbEntity
  8
0
  6
Continuous
 62
     0
370
     0
100
AcDbPolyline
 90
       11
 70
     0
 43
0.0
 10
277.613007
 20
121.385674
 10
278.228546
 20
121.371361
 10
278.836609
 20
121.328888
 10
279.425232
 20
121.258957
 10
279.983032
 20
121.162468
 10
280.501221
 20
121.041245
 10
280.971741
 20
120.897385
 10
281.38678
 20
120.733063
 10
281.73996
 20
120.551003
 10
282.025421
 20
120.35408
 10
282.242065
 20
120.139999
  0
LINE
  5
131
330
F9
100
AcDbEntity
  8
0
  6
Continuous
 62
     0
370
    30
100
AcDbLine
 10
282.434015
 20
120.395029
 30
0.0
 11
282.434015
 21
146.464052
 31
0.0
  0
LWPOLYLINE
  5
132
330
F9
100
AcDbEntity
  8
0
  6
Continuous
 62
     0
370
    30
100
AcDbPolyline
 90
        8
 70
     0
 43
0.0
 10
272.434052
 20
146.60643
 10
272.467773
 20
146.780548
 10
272.564697
 20
146.952576
 10
272.723724
 20
147.120071
 10
272.942444
 20
147.280945
 10
273.21817
 20
147.433212
 10
273.547821
 20
147.574921
 10
273.976288
 20
147.719025
  0
LINE
  5
133
330
F9
100
AcDbEntity
  8
0
  6
Continuous
 62
     0
370
     0
100
AcDbLine
 10
277.255022
 20
121.385675
 30
0.0
 11
277.431141
 21
147.719032
 31
0.0
  0
LINE
  5
134
330
F9
100
AcDbEntity
  8
0
  6
Continuous
 62
     0
370
    30
100
AcDbLine
 10
272.434023
 20
146.603721
 30
0.0
 11
272.434015
 21
146.464052
 31
0.0
  0
LINE
  5
135
330
F9
100
AcDbEntity
  8
0
  6
Continuous
 62
     0
370
    30
100
AcDbLine
 10
272.434015
 20
146.464052
 30
0.0
 11
272.434015
 21
120.395029
 31
0.0
  0
LWPOLYLINE
  5
136
330
F9
100
AcDbEntity
  8
0
  6
Continuous
 62
     0
370
     0
100
AcDbPolyline
 90
       11
 70
     0
 43
0.0
 10
272.625946
 20
120.139999
 10
272.836395
 20
120.349007
 10
273.120117
 20
120.546257
 10
273.47168
 20
120.728729
 10
273.885223
 20
120.893524
 10
274.354462
 20
121.037926
 10
274.871552
 20
121.159744
 10
275.428497
 20
121.256874
 10
276.016479
 20
121.327477
 10
276.624176
 20
121.370644
 10
277.255035
 20
121.385674
  0
LINE
  5
137
330
F9
100
AcDbEntity
  8
0
  6
Continuous
 62
     0
370
     0
100
AcDbLine
 10
277.255022
 20
121.385675
 30
0.0
 11
277.613007
 21
121.385675
 31
0.0
  0
LINE
  5
138
330
F9
100
AcDbEntity
  8
0
  6
Continuous
 62
     0
370
     0
100
AcDbLine
 10
277.620652
 20
120.200558
 30
0.0
 11
277.613007
 21
121.385675
 31
0.0
  0
LINE
  5
139
330
F9
100
AcDbEntity
  8
0
  6
Continuous
 62
     0
370
     0
100
AcDbLine
 10
277.255022
 20
121.385675
 30
0.0
 11
277.247378
 21
120.200562
 31
0.0
  0
LWPOLYLINE
  5
13A
330
F9
100
AcDbEntity
  8
0
  6
Continuous
 62
     0
370
    30
100
AcDbPolyline
 90
       10
 70
     0
 43
0.0
 10
272.860077
 20
147.719025
 10
272.488281
 20
147.55571
 10
272.177795
 20
147.380356
 10
271.931854
 20
147.195175
 10
271.753143
 20
147.002563
 10
271.644043
 20
146.804886
 10
271.606812
 20
146.604523
 10
271.642609
 20
146.404007
 10
271.749969
 20
146.206131
 10
271.935944
 20
146.005707
  0
LWPOLYLINE
  5
13B
330
F9
100
AcDbEntity
  8
0
  6
Continuous
 62
     0
370
    30
100
AcDbPolyline
 90
       12
 70
     0
 43
0.0
 10
282.434021
 20
145.673203
 10
282.733521
 20
145.847488
 10
282.969208
 20
146.030869
 10
283.138336
 20
146.221115
 10
283.239258
 20
146.415939
 10
283.270264
 20
146.613022
 10
283.23114
 20
146.809982
 10
283.12323
 20
147.004349
 10
282.947968
 20
147.193695
 10
282.707153
 20
147.375641
 10
282.403534
 20
147.548096
 10
282.015961
 20
147.719025
  0
LWPOLYLINE
  5
13C
330
F9
100
AcDbEntity
  8
0
  6
Continuous
 62
     0
370
    30
100
AcDbPolyline
 90
        3
 70
     0
 43
0.0
 10
271.935944
 20
146.005707
 10
272.114716
 20
145.867035
 10
272.434021
 20
145.677383
  0
LWPOLYLINE
  5
13D
330
F9
100
AcDbEntity
  8
0
  6
Continuous
 62
     0
370
    30
100
AcDbPolyline
 90
       10
 70
     0
 43
0.0
 10
272.860596
 20
147.719025
 10
272.488434
 20
147.555359
 10
272.177307
 20
147.379929
 10
271.930786
 20
147.194946
 10
271.752197
 20
147.002655
 10
271.643921
 20
146.80545
 10
271.606995
 20
146.605743
 10
271.641632
 20
146.405975
 10
271.747894
 20
146.208557
 10
271.935944
 20
146.005707
  0
LWPOLYLINE
  5
13E
330
F9
100
AcDbEntity
  8
0
  6
Continuous
 62
     0
370
    30
100
AcDbPolyline
 90
       12
 70
     0
 43
0.0
 10
282.434021
 20
145.672714
 10
282.732483
 20
145.84668
 10
282.967743
 20
146.029648
 10
283.136993
 20
146.219467
 10
283.238312
 20
146.413864
 10
283.270294
 20
146.610504
 10
283.232727
 20
146.807053
 10
283.125977
 20
147.00116
 10
282.951324
 20
147.190521
 10
282.710876
 20
147.372849
 10
282.407501
 20
147.54599
 10
282.016541
 20
147.719025
  0
LWPOLYLINE
  5
13F
330
F9
100
AcDbEntity
  8
0
  6
Continuous
 62
     0
370
    30
100
AcDbPolyline
 90
        3
 70
     0
 43
0.0
 10
271.935944
 20
146.005707
 10
272.111877
 20
145.869003
 10
272.434021
 20
145.677414
  0
LWPOLYLINE
  5
140
330
F9
100
AcDbEntity
  8
0
  6
Continuous
 62
     0
370
    30
100
AcDbPolyline
 90
        8
 70
     0
 43
0.0
 10
281.247833
 20
147.719025
 10
281.62796
 20
147.580383
 10
281.953247
 20
147.430664
 10
282.219421
 20
147.27298
 10
282.424622
 20
147.11055
 10
282.569275
 20
146.946487
 10
282.655762
 20
146.783707
 10
282.688568
 20
146.602631
  0
LWPOLYLINE
  5
141
330
F9
100
AcDbEntity
  8
0
  6
Continuous
 62
     0
370
    30
100
AcDbPolyline
 90
       10
 70
     0
 43
0.0
 10
272.434021
 20
146.112366
 10
272.282227
 20
146.297577
 10
272.203491
 20
146.480347
 10
272.19162
 20
146.65802
 10
272.244568
 20
146.838974
 10
272.3685
 20
147.023712
 10
272.568268
 20
147.208389
 10
272.845856
 20
147.388611
 10
273.199646
 20
147.559784
 10
273.629303
 20
147.719025
  0
LWPOLYLINE
  5
142
330
F9
100
AcDbEntity
  8
0
  6
Continuous
 62
     0
370
    30
100
AcDbPolyline
 90
        4
 70
     0
 43
0.0
 10
282.688568
 20
146.602631
 10
282.6651
 20
146.449371
 10
282.591553
 20
146.292175
 10
282.434021
 20
146.103577
  0
LINE
  5
143
330
F9
100
AcDbEntity
  8
0
  6
Continuous
 62
     0
370
    30
100
AcDbLine
 10
304.938568
 20
183.219032
 30
0.0
 11
249.938568
 21
183.219032
 31
0.0
  0
LINE
  5
144
330
F9
100
AcDbEntity
  8
0
  6
Continuous
 62
     0
370
    30
100
AcDbLine
 10
304.938568
 20
183.219032
 30
0.0
 11
304.938568
 21
151.719032
 31
0.0
  0
LINE
  5
145
330
F9
100
AcDbEntity
  8
0
  6
Continuous
 62
     0
370
     0
100
AcDbLine
 10
249.938568
 20
151.719032
 30
0.0
 11
304.938568
 21
151.719032
 31
0.0
  0
ARC
  5
146
330
F9
100
AcDbEntity
  8
0
  6
Continuous
 62
     0
370
    30
100
AcDbCircle
 10
304.438644
 20
151.719012
 30
0.0
 40
0.499924084646385
100
AcDbArc
 50
276.891148
 51
0.002359
  0
LINE
  5
147
330
F9
100
AcDbEntity
  8
0
  6
Continuous
 62
     0
370
    30
100
AcDbLine
 10
304.438568
 20
151.219032
 30
0.0
 11
250.438568
 21
151.219032
 31
0.0
  0
LINE
  5
148
330
F9
100
AcDbEntity
  8
0
  6
Continuous
 62
     0
370
    30
100
AcDbLine
 10
287.938568
 20
183.219032
 30
0.0
 11
287.938568
 21
201.719032
 31
0.0
  0
LINE
  5
149
330
F9
100
AcDbEntity
  8
0
  6
Continuous
 62
     0
370
    30
100
AcDbLine
 10
287.938568
 20
201.719032
 30
0.0
 11
266.938568
 21
201.719032
 31
0.0
  0
LINE
  5
14A
330
F9
100
AcDbEntity
  8
0
  6
Continuous
 62
     0
370
    30
100
AcDbLine
 10
286.938568
 20
202.719032
 30
0.0
 11
267.938568
 21
202.719032
 31
0.0
  0
LINE
  5
14B
330
F9
100
AcDbEntity
  8
0
  6
Continuous
 62
     0
370
    30
100
AcDbLine
 10
286.938568
 20
202.719032
 30
0.0
 11
287.938568
 21
201.719032
 31
0.0
  0
LINE
  5
14C
330
F9
100
AcDbEntity
  8
0
  6
Continuous
 62
     0
370
     0
100
AcDbLine
 10
264.788568
 20
148.719032
 30
0.0
 11
265.044859
 21
148.719032
 31
0.0
  0
LINE
  5
14D
330
F9
100
AcDbEntity
  8
0
  6
Continuous
 62
     0
370
    30
100
AcDbLine
 10
265.044858
 20
148.719032
 30
0.0
 11
265.044858
 21
151.219032
 31
0.0
  0
LINE
  5
14E
330
F9
100
AcDbEntity
  8
0
  6
Continuous
 62
     0
370
    30
100
AcDbLine
 10
269.047669
 20
151.219032
 30
0.0
 11
269.047669
 21
148.719032
 31
0.0
  0
LINE
  5
14F
330
F9
100
AcDbEntity
  8
0
  6
Continuous
 62
     0
370
     0
100
AcDbLine
 10
269.047669
 20
148.719032
 30
0.0
 11
273.435763
 21
148.719032
 31
0.0
  0
LINE
  5
150
330
F9
100
AcDbEntity
  8
0
  6
Continuous
 62
     0
370
    30
100
AcDbLine
 10
273.435757
 20
148.719032
 30
0.0
 11
273.435757
 21
151.219032
 31
0.0
  0
LINE
  5
151
330
F9
100
AcDbEntity
  8
0
  6
Continuous
 62
     0
370
    30
100
AcDbLine
 10
281.44138
 20
151.219032
 30
0.0
 11
281.44138
 21
148.719032
 31
0.0
  0
LINE
  5
152
330
F9
100
AcDbEntity
  8
0
  6
Continuous
 62
     0
370
     0
100
AcDbLine
 10
281.44138
 20
148.719032
 30
0.0
 11
285.829472
 21
148.719032
 31
0.0
  0
LINE
  5
153
330
F9
100
AcDbEntity
  8
0
  6
Continuous
 62
     0
370
    30
100
AcDbLine
 10
285.829467
 20
148.719032
 30
0.0
 11
285.829467
 21
151.219032
 31
0.0
  0
LINE
  5
154
330
F9
100
AcDbEntity
  8
0
  6
Continuous
 62
     0
370
    30
100
AcDbLine
 10
265.788568
 20
147.719032
 30
0.0
 11
289.088568
 21
147.719032
 31
0.0
  0
ARC
  5
155
330
F9
100
AcDbEntity
  8
0
  6
Continuous
 62
     0
370
    30
100
AcDbCircle
 10
289.088568
 20
148.719032
 30
0.0
 40
1.000000000000171
100
AcDbArc
 50
270.0
 51
360.0
  0
LWPOLYLINE
  5
156
330
F9
100
AcDbEntity
  8
0
  6
Continuous
 62
     0
370
    30
100
AcDbPolyline
 90
       36
 70
     0
 43
0.0
 10
289.832275
 20
148.719025
 10
289.790009
 20
148.490631
 10
289.699799
 20
148.323975
 10
289.592621
 20
148.202744
 10
289.478485
 20
148.111526
 10
289.360443
 20
148.039459
 10
289.240662
 20
147.982651
 10
289.119934
 20
147.937454
 10
288.998383
 20
147.901001
 10
288.87619
 20
147.871521
 10
288.753571
 20
147.8479
 10
288.630829
 20
147.829102
 10
288.507996
 20
147.814362
 10
288.385071
 20
147.802979
 10
288.262054
 20
147.794418
 10
288.138977
 20
147.78833
 10
288.015839
 20
147.784378
 10
287.892731
 20
147.78244
 10
287.769684
 20
147.78244
 10
287.646729
 20
147.784363
 10
287.523773
 20
147.788284
 10
287.400787
 20
147.794357
 10
287.277802
 20
147.802872
 10
287.154816
 20
147.814209
 10
287.031891
 20
147.828918
 10
286.90918
 20
147.847656
 10
286.786774
 20
147.871216
 10
286.664642
 20
147.90065
 10
286.542786
 20
147.937042
 10
286.42157
 20
147.982147
 10
286.301849
 20
148.038834
 10
286.18454
 20
148.110718
 10
286.069794
 20
148.201736
 10
285.962891
 20
148.322617
 10
285.872375
 20
148.488724
 10
285.829437
 20
148.719025
  0
LWPOLYLINE
  5
157
330
F9
100
AcDbEntity
  8
0
  6
Continuous
 62
     0
370
    30
100
AcDbPolyline
 90
       42
 70
     0
 43
0.0
 10
281.441376
 20
148.719025
 10
281.377625
 20
148.520264
 10
281.234283
 20
148.367203
 10
281.059052
 20
148.251541
 10
280.868927
 20
148.16217
 10
280.671204
 20
148.090622
 10
280.469574
 20
148.031876
 10
280.265045
 20
147.983963
 10
280.058685
 20
147.944565
 10
279.851196
 20
147.911804
 10
279.642944
 20
147.884445
 10
279.434082
 20
147.861725
 10
279.224823
 20
147.842972
 10
279.01532
 20
147.82756
 10
278.805664
 20
147.815048
 10
278.595825
 20
147.805008
 10
278.385925
 20
147.797073
 10
278.175964
 20
147.791031
 10
277.965973
 20
147.786652
 10
277.75592
 20
147.783783
 10
277.545868
 20
147.782364
 10
277.335815
 20
147.782349
 10
277.125793
 20
147.783752
 10
276.915741
 20
147.786591
 10
276.70575
 20
147.790939
 10
276.495789
 20
147.796936
 10
276.285858
 20
147.80481
 10
276.07605
 20
147.814774
 10
275.866364
 20
147.827209
 10
275.65686
 20
147.842545
 10
275.447601
 20
147.861221
 10
275.238739
 20
147.88385
 10
275.030457
 20
147.911118
 10
274.822968
 20
147.943756
 10
274.616577
 20
147.983002
 10
274.411987
 20
148.030701
 10
274.210266
 20
148.089188
 10
274.012451
 20
148.160431
 10
273.822083
 20
148.249344
 10
273.646423
 20
148.364319
 10
273.502014
 20
148.516403
 10
273.43576
 20
148.719025
  0
LWPOLYLINE
  5
158
330
F9
100
AcDbEntity
  8
0
  6
Continuous
 62
     0
370
    30
100
AcDbPolyline
 90
       36
 70
     0
 43
0.0
 10
269.047699
 20
148.719025
 10
269.005463
 20
148.490631
 10
268.915222
 20
148.323975
 10
268.808411
 20
148.202744
 10
268.693726
 20
148.111511
 10
268.576416
 20
148.039474
 10
268.456726
 20
147.982666
 10
268.33548
 20
147.937469
 10
268.213623
 20
147.901016
 10
268.091461
 20
147.871536
 10
267.969055
 20
147.847916
 10
267.846344
 20
147.829117
 10
267.72348
 20
147.814362
 10
267.600525
 20
147.802979
 10
267.47757
 20
147.794418
 10
267.354584
 20
147.788315
 10
267.231628
 20
147.784378
 10
267.108673
 20
147.78244
 10
266.985596
 20
147.78244
 10
266.862457
 20
147.784363
 10
266.739319
 20
147.788284
 10
266.616241
 20
147.794357
 10
266.493256
 20
147.802872
 10
266.370361
 20
147.814209
 10
266.247559
 20
147.828903
 10
266.124847
 20
147.847656
 10
266.002228
 20
147.871216
 10
265.880005
 20
147.90065
 10
265.758423
 20
147.937042
 10
265.637695
 20
147.982162
 10
265.517883
 20
148.038849
 10
265.399841
 20
148.110748
 10
265.285614
 20
148.201736
 10
265.178345
 20
148.322601
 10
265.087891
 20
148.488708
 10
265.044861
 20
148.719025
  0
LINE
  5
159
330
F9
100
AcDbEntity
  8
0
  6
Continuous
 62
     0
370
    30
100
AcDbLine
 10
289.832279
 20
148.719032
 30
0.0
 11
289.832279
 21
151.219032
 31
0.0
  0
LINE
  5
15A
330
F9
100
AcDbEntity
  8
0
  6
Continuous
 62
     0
370
    30
100
AcDbLine
 10
290.088568
 20
151.219033
 30
0.0
 11
290.088568
 21
148.719032
 31
0.0
  0
ARC
  5
15B
330
F9
100
AcDbEntity
  8
0
  6
Continuous
 62
     0
370
    30
100
AcDbCircle
 10
265.788594
 20
148.719058
 30
0.0
 40
1.000025415542771
100
AcDbArc
 50
180.001456
 51
269.992814
  0
LINE
  5
15C
330
F9
100
AcDbEntity
  8
0
  6
Continuous
 62
     0
370
    30
100
AcDbLine
 10
264.788568
 20
151.219033
 30
0.0
 11
264.788568
 21
148.719032
 31
0.0
  0
LINE
  5
15D
330
F9
100
AcDbEntity
  8
0
  6
Continuous
 62
     0
370
    30
100
AcDbLine
 10
267.938568
 20
202.719032
 30
0.0
 11
266.938568
 21
201.719032
 31
0.0
  0
LINE
  5
15E
330
F9
100
AcDbEntity
  8
0
  6
Continuous
 62
     0
370
    30
100
AcDbLine
 10
266.938568
 20
183.219032
 30
0.0
 11
266.938568
 21
201.719032
 31
0.0
  0
ARC
  5
15F
330
F9
100
AcDbEntity
  8
0
  6
Continuous
 62
     0
370
    30
100
AcDbCircle
 10
250.438572
 20
151.719036
 30
0.0
 40
0.5000034422821402
100
AcDbArc
 50
180.000394
 51
269.999606
  0
ARC
  5
160
330
F9
100
AcDbEntity
  8
0
  6
Continuous
 62
     0
370
    30
100
AcDbCircle
 10
304.438401
 20
151.715444
 30
0.0
 40
0.4964121543446279
100
AcDbArc
 50
270.019261
 51
276.968377
  0
LINE
  5
161
330
F9
100
AcDbEntity
  8
0
  6
Continuous
 62
     0
370
    30
100
AcDbLine
 10
249.938568
 20
183.219032
 30
0.0
 11
249.938568
 21
151.719032
 31
0.0
  0
LWPOLYLINE
  5
162
330
F9
100
AcDbEntity
  8
0
  6
Continuous
 62
     0
370
    30
100
AcDbPolyline
 90
        3
 70
     0
 43
0.0
 10
272.145813
 20
145.845627
 10
272.152344
 20
145.841171
 10
272.218353
 20
145.799225
  0
LWPOLYLINE
  5
163
330
F9
100
AcDbEntity
  8
0
  6
Continuous
 62
     0
370
    30
100
AcDbPolyline
 90
        9
 70
     0
 43
0.0
 10
269.964386
 20
147.719025
 10
270.201691
 20
147.455536
 10
270.448242
 20
147.200699
 10
270.703796
 20
146.954865
 10
270.967957
 20
146.718338
 10
271.240448
 20
146.491394
 10
271.520905
 20
146.274445
 10
271.808929
 20
146.067627
 10
272.14502
 20
145.846161
  0
LWPOLYLINE
  5
164
330
F9
100
AcDbEntity
  8
0
  6
Continuous
 62
     0
370
    30
100
AcDbPolyline
 90
        3
 70
     0
 43
0.0
 10
282.729309
 20
145.844284
 10
282.724854
 20
145.841202
 10
282.658966
 20
145.799332
  0
LWPOLYLINE
  5
165
330
F9
100
AcDbEntity
  8
0
  6
Continuous
 62
     0
370
    30
100
AcDbPolyline
 90
        9
 70
     0
 43
0.0
 10
284.91275
 20
147.719025
 10
284.675079
 20
147.455124
 10
284.428101
 20
147.199905
 10
284.172119
 20
146.95372
 10
283.907471
 20
146.716873
 10
283.634521
 20
146.489639
 10
283.353546
 20
146.27243
 10
283.064972
 20
146.065399
 10
282.730774
 20
145.845261
  0
LINE
  5
166
330
F9
100
AcDbEntity
  8
0
  6
Continuous
 62
     0
370
    30
100
AcDbLine
 10
273.465015
 20
147.542374
 30
0.0
 11
273.465015
 21
147.662935
 31
0.0
  0
LINE
  5
167
330
F9
100
AcDbEntity
  8
0
  6
Continuous
 62
     0
370
    30
100
AcDbLine
 10
281.403015
 20
147.542348
 30
0.0
 11
281.403015
 21
147.666185
 31
0.0
  0
ARC
  5
168
330
F9
100
AcDbEntity
  8
0
  6
Continuous
 62
     0
370
    30
100
AcDbCircle
 10
287.023829
 20
98.784084
 30
0.0
 40
0.4999745292548702
100
AcDbArc
 50
270.000706
 51
287.620838
  0
LWPOLYLINE
  5
169
330
F9
100
AcDbEntity
  8
0
  6
Continuous
 62
     0
370
    30
100
AcDbPolyline
 90
        8
 70
     0
 43
0.0
 10
287.175171
 20
98.307564
 10
287.759308
 20
98.533783
 10
288.310272
 20
98.830246
 10
288.818909
 20
99.192009
 10
289.277252
 20
99.613518
 10
289.678162
 20
100.08831
 10
290.015381
 20
100.60894
 10
290.284454
 20
101.169975
  0
LINE
  5
16A
330
F9
100
AcDbEntity
  8
0
  6
Continuous
 62
     0
370
    30
100
AcDbLine
 10
290.290222
 20
101.183665
 30
0.0
 11
290.284451
 21
101.169975
 31
0.0
  0
ARC
  5
16B
330
F9
100
AcDbEntity
  8
0
  6
Continuous
 62
     0
370
    30
100
AcDbCircle
 10
277.967242
 20
106.614873
 30
0.0
 40
13.46676819351395
100
AcDbArc
 50
336.215038
 51
359.976834
  0
ARC
  5
16C
330
F9
100
AcDbEntity
  8
0
  6
Continuous
 62
     0
370
    30
100
AcDbCircle
 10
276.903805
 20
106.615101
 30
0.0
 40
13.4697997752439
100
AcDbArc
 50
180.023609
 51
205.952726
  0
LINE
  5
16D
330
F9
100
AcDbEntity
  8
0
  6
Continuous
 62
     0
370
    30
100
AcDbLine
 10
264.800615
 20
100.704098
 30
0.0
 11
264.792361
 21
100.72032
 31
0.0
  0
ARC
  5
16E
330
F9
100
AcDbEntity
  8
0
  6
Continuous
 62
     0
370
    30
100
AcDbCircle
 10
269.186373
 20
103.053515
 30
0.0
 40
4.975402210820242
100
AcDbArc
 50
208.177615
 51
252.531509
  0
ARC
  5
16F
330
F9
100
AcDbEntity
  8
0
  6
Continuous
 62
     0
370
    30
100
AcDbCircle
 10
267.844201
 20
98.784084
 30
0.0
 40
0.4999745292610004
100
AcDbArc
 50
252.379162
 51
269.999294
  0
LINE
  5
170
330
F9
100
AcDbEntity
  8
0
  6
Continuous
 62
     0
370
    30
100
AcDbLine
 10
267.934015
 20
98.284041
 30
0.0
 11
267.844195
 21
98.284041
 31
0.0
  0
ARC
  5
171
330
F9
100
AcDbEntity
  8
0
  6
Continuous
 62
     0
370
    30
100
AcDbCircle
 10
267.934174
 20
99.293368
 30
0.0
 40
1.009258639841536
100
AcDbArc
 50
269.990939
 51
295.978813
  0
LWPOLYLINE
  5
172
330
F9
100
AcDbEntity
  8
0
  6
Continuous
 62
     0
370
    30
100
AcDbPolyline
 90
       11
 70
     0
 43
0.0
 10
268.934021
 20
99.372299
 10
268.932831
 20
99.302055
 10
268.924744
 20
99.197548
 10
268.905334
 20
99.082008
 10
268.872467
 20
98.963554
 10
268.825287
 20
98.846802
 10
268.763336
 20
98.734642
 10
268.686798
 20
98.629997
 10
268.596588
 20
98.535904
 10
268.494141
 20
98.45472
 10
268.376312
 20
98.386108
  0
ARC
  5
173
330
F9
100
AcDbEntity
  8
0
  6
Continuous
 62
     0
370
    30
100
AcDbCircle
 10
268.434173
 20
103.065464
 30
0.0
 40
0.4998417583109538
100
AcDbArc
 50
0.059505
 51
37.385036
  0
LWPOLYLINE
  5
174
330
F9
100
AcDbEntity
  8
0
  6
Continuous
 62
     0
370
    30
100
AcDbPolyline
 90
       17
 70
     0
 43
0.0
 10
272.434021
 20
122.528999
 10
271.464294
 20
122.124443
 10
270.528381
 20
121.649582
 10
269.631683
 20
121.106995
 10
268.779083
 20
120.499931
 10
267.975464
 20
119.831818
 10
267.225464
 20
119.106377
 10
266.533569
 20
118.327515
 10
265.903442
 20
117.499832
 10
265.33844
 20
116.628174
 10
264.841888
 20
115.717392
 10
264.416901
 20
114.772476
 10
264.065918
 20
113.798836
 10
263.790955
 20
112.802032
 10
263.593231
 20
111.787811
 10
263.473938
 20
110.761887
 10
263.434021
 20
109.728317
  0
LWPOLYLINE
  5
175
330
F9
100
AcDbEntity
  8
0
  6
Continuous
 62
     0
370
    30
100
AcDbPolyline
 90
       17
 70
     0
 43
0.0
 10
282.434021
 20
122.528992
 10
283.395905
 20
122.128036
 10
284.324585
 20
121.657913
 10
285.214844
 20
121.121147
 10
286.061737
 20
120.520821
 10
286.860565
 20
119.860268
 10
287.606934
 20
119.143265
 10
288.296509
 20
118.373642
 10
288.925385
 20
117.555626
 10
289.490356
 20
116.69397
 10
289.988129
 20
115.793427
 10
290.415802
 20
114.85894
 10
290.770874
 20
113.895737
 10
291.051422
 20
112.909195
 10
291.256104
 20
111.904938
 10
291.383728
 20
110.888496
 10
291.433411
 20
109.855934
  0
ARC
  5
176
330
F9
100
AcDbEntity
  8
0
  6
Continuous
 62
     0
370
    30
100
AcDbCircle
 10
286.433856
 20
103.065464
 30
0.0
 40
0.4998417582858014
100
AcDbArc
 50
142.614964
 51
179.940495
  0
LWPOLYLINE
  5
177
330
F9
100
AcDbEntity
  8
0
  6
Continuous
 62
     0
370
    30
100
AcDbPolyline
 90
       11
 70
     0
 43
0.0
 10
285.934021
 20
99.372299
 10
285.935181
 20
99.302055
 10
285.943298
 20
99.197548
 10
285.962708
 20
99.082008
 10
285.995575
 20
98.963554
 10
286.042755
 20
98.846802
 10
286.104706
 20
98.734642
 10
286.181213
 20
98.629997
 10
286.271454
 20
98.535904
 10
286.373871
 20
98.45472
 10
286.491699
 20
98.386108
  0
ARC
  5
178
330
F9
100
AcDbEntity
  8
0
  6
Continuous
 62
     0
370
    30
100
AcDbCircle
 10
286.933857
 20
99.293374
 30
0.0
 40
1.009265331632674
100
AcDbArc
 50
244.021275
 51
270.008974
  0
LINE
  5
179
330
F9
100
AcDbEntity
  8
0
  6
Continuous
 62
     0
370
    30
100
AcDbLine
 10
287.023835
 20
98.284041
 30
0.0
 11
286.934015
 21
98.284041
 31
0.0
  0
LWPOLYLINE
  5
17A
330
F9
100
AcDbEntity
  8
0
  6
Continuous
 62
     0
370
    30
100
AcDbPolyline
 90
       11
 70
     0
 43
0.0
 10
288.156006
 20
109.925629
 10
288.152863
 20
109.227745
 10
288.102234
 20
108.531647
 10
288.00412
 20
107.840378
 10
287.858887
 20
107.157013
 10
287.667389
 20
106.484528
 10
287.43042
 20
105.825958
 10
287.148743
 20
105.184311
 10
286.82373
 20
104.562355
 10
286.457062
 20
103.962753
 10
286.036407
 20
103.369186
  0
LWPOLYLINE
  5
17B
330
F9
100
AcDbEntity
  8
0
  6
Continuous
 62
     0
370
    30
100
AcDbPolyline
 90
       11
 70
     0
 43
0.0
 10
266.712036
 20
109.926125
 10
266.715149
 20
109.228195
 10
266.765778
 20
108.532043
 10
266.863861
 20
107.840714
 10
267.009094
 20
107.157295
 10
267.200562
 20
106.484756
 10
267.437531
 20
105.826134
 10
267.719238
 20
105.184433
 10
268.044281
 20
104.562424
 10
268.41095
 20
103.962776
 10
268.831604
 20
103.369186
  0
LWPOLYLINE
  5
17C
330
F9
100
AcDbEntity
  8
0
  6
Continuous
 62
     0
370
    30
100
AcDbPolyline
 90
       35
 70
     0
 43
0.0
 10
288.497864
 20
108.508774
 10
288.308502
 20
109.393097
 10
288.04483
 20
110.260025
 10
287.708649
 20
111.102661
 10
287.302521
 20
111.915245
 10
286.829224
 20
112.692451
 10
286.291687
 20
113.429001
 10
285.693512
 20
114.119911
 10
285.038879
 20
114.760414
 10
284.332062
 20
115.345894
 10
283.578064
 20
115.872559
 10
282.782043
 20
116.336884
 10
281.94931
 20
116.73542
 10
281.085541
 20
117.065453
 10
280.196716
 20
117.324646
 10
279.288849
 20
117.511124
 10
278.368286
 20
117.623886
 10
277.441315
 20
117.662041
 10
276.514313
 20
117.625038
 10
275.593597
 20
117.513466
 10
274.685486
 20
117.328148
 10
273.796295
 20
117.070061
 10
272.932098
 20
116.741135
 10
272.098846
 20
116.343636
 10
271.302216
 20
115.880325
 10
270.547485
 20
115.354652
 10
269.839874
 20
114.770081
 10
269.184357
 20
114.130447
 10
268.585266
 20
113.440308
 10
268.046814
 20
112.70433
 10
267.57254
 20
111.927574
 10
267.165314
 20
111.115494
 10
266.827911
 20
110.273575
 10
266.563171
 20
109.407341
 10
266.370178
 20
108.508766
  0
LINE
  5
17D
330
F9
100
AcDbEntity
  8
0
  6
Continuous
 62
     0
370
    30
100
AcDbLine
 10
291.434015
 20
109.727898
 30
0.0
 11
291.434015
 21
106.609222
 31
0.0
  0
LINE
  5
17E
330
F9
100
AcDbEntity
  8
0
  6
Continuous
 62
     0
370
    30
100
AcDbLine
 10
263.434015
 20
109.727898
 30
0.0
 11
263.434015
 21
106.609222
 31
0.0
  0
ENDBLK
  5
180
330
F9
100
AcDbEntity
  8
0
100
AcDbBlockEnd
  0
BLOCK
  5
1D6
330
182
100
AcDbEntity
  8
0
100
AcDbBlockBegin
  2
c
 70
     0
 10
229.427124
 20
0.0
 30
0.0
  3
c
  1

  0
LINE
  5
183
330
182
100
AcDbEntity
  8
0
  6
Continuous
 62
     0
370
    30
100
AcDbLine
 10
444.9705
 20
341.069158
 30
0.0
 11
463.845899
 21
337.057068
 31
0.0
  0
LINE
  5
184
330
182
100
AcDbEntity
  8
0
  6
Continuous
 62
     0
370
    30
100
AcDbLine
 10
463.845899
 20
337.057068
 30
0.0
 11
466.000675
 21
336.599056
 31
0.0
  0
LINE
  5
185
330
182
100
AcDbEntity
  8
0
  6
Continuous
 62
     0
370
     0
100
AcDbLine
 10
460.833283
 20
321.85114
 30
0.0
 11
463.951959
 21
336.523354
 31
0.0
  0
LINE
  5
186
330
182
100
AcDbEntity
  8
0
  6
Continuous
 62
     0
370
     0
100
AcDbLine
 10
463.951959
 20
336.523354
 30
0.0
 11
444.47347
 21
340.663635
 31
0.0
  0
LWPOLYLINE
  5
187
330
182
100
AcDbEntity
  8
0
  6
Continuous
 62
     0
370
    30
100
AcDbPolyline
 90
        9
 70
     0
 43
0.0
 10
444.47348
 20
340.663635
 10
444.50705
 20
340.451965
 10
444.54303
 20
340.172943
 10
444.577515
 20
339.831421
 10
444.605499
 20
339.432617
 10
444.621338
 20
338.981781
 10
444.619537
 20
338.48587
 10
444.59549
 20
337.953766
 10
444.54071
 20
337.355621
  0
ARC
  5
188
330
182
100
AcDbEntity
  8
0
  6
Continuous
 62
     0
370
    30
100
AcDbCircle
 10
427.851527
 20
339.318629
 30
0.0
 40
16.8042362243805
100
AcDbArc
 50
347.953848
 51
353.291637
  0
LINE
  5
189
330
182
100
AcDbEntity
  8
0
  6
Continuous
 62
     0
370
    30
100
AcDbLine
 10
444.285731
 20
335.811593
 30
0.0
 11
443.058062
 21
330.035869
 31
0.0
  0
LWPOLYLINE
  5
18A
330
182
100
AcDbEntity
  8
0
  6
Continuous
 62
     0
370
    30
100
AcDbPolyline
 90
       10
 70
     0
 43
0.0
 10
443.058075
 20
330.035858
 10
442.921814
 20
329.461884
 10
442.761566
 20
328.903351
 10
442.582336
 20
328.368561
 10
442.389801
 20
327.865295
 10
442.190582
 20
327.399872
 10
441.991791
 20
326.976868
 10
441.800446
 20
326.600433
 10
441.62326
 20
326.274689
 10
441.448242
 20
325.971558
  0
LINE
  5
18B
330
182
100
AcDbEntity
  8
0
  6
Continuous
 62
     0
370
     0
100
AcDbLine
 10
441.448244
 20
325.971557
 30
0.0
 11
460.833289
 21
321.851139
 31
0.0
  0
LINE
  5
18C
330
182
100
AcDbEntity
  8
0
  6
Continuous
 62
     0
370
     0
100
AcDbLine
 10
460.833283
 20
321.85114
 30
0.0
 11
460.849012
 21
321.847797
 31
0.0
  0
LINE
  5
18D
330
182
100
AcDbEntity
  8
0
  6
Continuous
 62
     0
370
     0
100
AcDbLine
 10
460.849012
 20
321.847797
 30
0.0
 11
463.967688
 21
336.520011
 31
0.0
  0
LINE
  5
18E
330
182
100
AcDbEntity
  8
0
  6
Continuous
 62
     0
370
     0
100
AcDbLine
 10
463.967688
 20
336.520011
 30
0.0
 11
463.951959
 21
336.523354
 31
0.0
  0
LINE
  5
18F
330
182
100
AcDbEntity
  8
0
  6
Continuous
 62
     0
370
     0
100
AcDbLine
 10
460.849012
 20
321.847797
 30
0.0
 11
463.243207
 21
321.338895
 31
0.0
  0
LINE
  5
190
330
182
100
AcDbEntity
  8
0
  6
Continuous
 62
     0
370
     0
100
AcDbLine
 10
463.243206
 20
321.338895
 30
0.0
 11
466.361882
 21
336.011109
 31
0.0
  0
LINE
  5
191
330
182
100
AcDbEntity
  8
0
  6
Continuous
 62
     0
370
     0
100
AcDbLine
 10
466.361882
 20
336.011109
 30
0.0
 11
463.967685
 21
336.520011
 31
0.0
  0
LINE
  5
192
330
182
100
AcDbEntity
  8
0
  6
Continuous
 62
     0
370
     0
100
AcDbLine
 10
463.243206
 20
321.338895
 30
0.0
 11
463.267117
 21
321.333813
 31
0.0
  0
LINE
  5
193
330
182
100
AcDbEntity
  8
0
  6
Continuous
 62
     0
370
    30
100
AcDbLine
 10
463.267117
 20
321.333813
 30
0.0
 11
466.385792
 21
336.006027
 31
0.0
  0
LINE
  5
194
330
182
100
AcDbEntity
  8
0
  6
Continuous
 62
     0
370
     0
100
AcDbLine
 10
466.385792
 20
336.006027
 30
0.0
 11
466.361882
 21
336.011109
 31
0.0
  0
LWPOLYLINE
  5
195
330
182
100
AcDbEntity
  8
0
  6
Continuous
 62
     0
370
    30
100
AcDbPolyline
 90
        7
 70
     0
 43
0.0
 10
441.448547
 20
325.971497
 10
441.389496
 20
325.832886
 10
441.376923
 20
325.709015
 10
441.400818
 20
325.604828
 10
441.453979
 20
325.522125
 10
441.530334
 20
325.461456
 10
441.645172
 20
325.418518
  0
LINE
  5
196
330
182
100
AcDbEntity
  8
0
  6
Continuous
 62
     0
370
    30
100
AcDbLine
 10
441.645171
 20
325.418529
 30
0.0
 11
460.519312
 21
321.406706
 31
0.0
  0
LWPOLYLINE
  5
197
330
182
100
AcDbEntity
  8
0
  6
Continuous
 62
     0
370
     0
100
AcDbPolyline
 90
        5
 70
     0
 43
0.0
 10
460.519318
 20
321.406708
 10
460.607056
 20
321.426514
 10
460.697266
 20
321.516998
 10
460.776337
 20
321.664459
 10
460.833282
 20
321.851135
  0
LWPOLYLINE
  5
198
330
182
100
AcDbEntity
  8
0
  6
Continuous
 62
     0
370
     0
100
AcDbPolyline
 90
        5
 70
     0
 43
0.0
 10
460.848999
 20
321.847809
 10
460.79245
 20
321.665253
 10
460.710419
 20
321.517426
 10
460.615295
 20
321.426544
 10
460.519318
 20
321.406708
  0
LINE
  5
199
330
182
100
AcDbEntity
  8
0
  6
Continuous
 62
     0
370
    30
100
AcDbLine
 10
460.519312
 20
321.406706
 30
0.0
 11
462.674087
 21
320.948695
 31
0.0
  0
LWPOLYLINE
  5
19A
330
182
100
AcDbEntity
  8
0
  6
Continuous
 62
     0
370
     0
100
AcDbPolyline
 90
        5
 70
     0
 43
0.0
 10
462.674072
 20
320.9487
 10
462.859253
 20
320.947937
 10
463.032135
 20
321.021118
 10
463.166656
 20
321.157227
 10
463.243195
 20
321.338898
  0
ARC
  5
19B
330
182
100
AcDbEntity
  8
0
  6
Continuous
 62
     0
370
    30
100
AcDbCircle
 10
462.778043
 20
321.437769
 30
0.0
 40
0.4999999999981442
100
AcDbArc
 50
258.0
 51
348.0
  0
ARC
  5
19C
330
182
100
AcDbEntity
  8
0
  6
Continuous
 62
     0
370
    30
100
AcDbCircle
 10
465.896718
 20
336.109983
 30
0.0
 40
0.4999999999988494
100
AcDbArc
 50
348.0
 51
78.0
  0
LWPOLYLINE
  5
19D
330
182
100
AcDbEntity
  8
0
  6
Continuous
 62
     0
370
     0
100
AcDbPolyline
 90
        5
 70
     0
 43
0.0
 10
466.000671
 20
336.59906
 10
466.170135
 20
336.524445
 10
466.298309
 20
336.387238
 10
466.365845
 20
336.208191
 10
466.361877
 20
336.011108
  0
LWPOLYLINE
  5
19E
330
182
100
AcDbEntity
  8
0
  6
Continuous
 62
     0
370
     0
100
AcDbPolyline
 90
        5
 70
     0
 43
0.0
 10
463.967682
 20
336.52002
 10
463.990265
 20
336.709778
 10
463.975464
 20
336.878204
 10
463.925507
 20
336.999908
 10
463.845886
 20
337.057068
  0
LWPOLYLINE
  5
19F
330
182
100
AcDbEntity
  8
0
  6
Continuous
 62
     0
370
     0
100
AcDbPolyline
 90
        5
 70
     0
 43
0.0
 10
463.845886
 20
337.057068
 10
463.917999
 20
337.003265
 10
463.963623
 20
336.883942
 10
463.975861
 20
336.717072
 10
463.951965
 20
336.523346
  0
LINE
  5
1A0
330
182
100
AcDbEntity
  8
0
  6
Continuous
 62
     0
370
    30
100
AcDbLine
 10
444.97051
 20
341.069156
 30
0.0
 11
463.845899
 21
337.057068
 31
0.0
  0
LWPOLYLINE
  5
1A1
330
182
100
AcDbEntity
  8
0
  6
Continuous
 62
     0
370
    30
100
AcDbPolyline
 90
        4
 70
     0
 43
0.0
 10
444.473602
 20
340.663605
 10
444.466278
 20
340.784271
 10
444.476105
 20
340.861969
 10
444.480194
 20
340.895721
  0
ARC
  5
1A2
330
182
100
AcDbEntity
  8
0
  6
Continuous
 62
     0
370
    30
100
AcDbCircle
 10
439.07599
 20
320.853198
 30
0.0
 40
4.999729946605333
100
AcDbArc
 50
77.999257
 51
105.000743
  0
LINE
  5
1A3
330
182
100
AcDbEntity
  8
0
  6
Continuous
 62
     0
370
    30
100
AcDbLine
 10
437.781902
 20
325.68255
 30
0.0
 11
419.622203
 21
320.816673
 31
0.0
  0
ARC
  5
1A4
330
182
100
AcDbEntity
  8
0
  6
Continuous
 62
     0
370
     0
100
AcDbCircle
 10
439.034606
 20
320.852554
 30
0.0
 40
9.835530293362662
100
AcDbArc
 50
77.764591
 51
104.766542
  0
LINE
  5
1A5
330
182
100
AcDbEntity
  8
0
  6
Continuous
 62
     0
370
     0
100
AcDbLine
 10
441.119039
 20
330.464672
 30
0.0
 11
440.115556
 21
325.743659
 31
0.0
  0
LWPOLYLINE
  5
1A6
330
182
100
AcDbEntity
  8
0
  6
Continuous
 62
     0
370
     0
100
AcDbPolyline
 90
       14
 70
     0
 43
0.0
 10
437.781891
 20
325.682556
 10
437.772797
 20
325.716522
 10
437.745758
 20
325.817413
 10
437.701233
 20
325.983643
 10
437.639648
 20
326.21347
 10
437.562012
 20
326.503235
 10
437.469543
 20
326.848328
 10
437.363495
 20
327.244019
 10
437.245392
 20
327.684845
 10
437.116882
 20
328.164459
 10
436.979706
 20
328.676422
 10
436.835785
 20
329.21347
 10
436.687653
 20
329.766357
 10
436.52771
 20
330.363251
  0
LINE
  5
1A7
330
182
100
AcDbEntity
  8
0
  6
Continuous
 62
     0
370
    30
100
AcDbLine
 10
443.295083
 20
340.600611
 30
0.0
 11
416.961727
 21
330.492182
 31
0.0
  0
LINE
  5
1A8
330
182
100
AcDbEntity
  8
0
  6
Continuous
 62
     0
370
     0
100
AcDbLine
 10
418.077039
 20
325.572199
 30
0.0
 11
418.216708
 21
325.61743
 31
0.0
  0
LINE
  5
1A9
330
182
100
AcDbEntity
  8
0
  6
Continuous
 62
     0
370
     0
100
AcDbLine
 10
418.216708
 20
325.61743
 30
0.0
 11
444.285731
 21
335.811593
 31
0.0
  0
LINE
  5
1AA
330
182
100
AcDbEntity
  8
0
  6
Continuous
 62
     0
370
     0
100
AcDbLine
 10
444.540763
 20
337.355504
 30
0.0
 11
443.295083
 21
340.600611
 31
0.0
  0
LINE
  5
1AB
330
182
100
AcDbEntity
  8
0
  6
Continuous
 62
     0
370
     0
100
AcDbLine
 10
436.527715
 20
330.363241
 30
0.0
 11
418.216708
 21
325.61743
 31
0.0
  0
ARC
  5
1AC
330
182
100
AcDbEntity
  8
0
  6
Continuous
 62
     0
370
    30
100
AcDbCircle
 10
445.091463
 20
335.914481
 30
0.0
 40
5.018644601518361
100
AcDbArc
 50
96.995941
 51
110.973808
  0
LINE
  5
1AD
330
182
100
AcDbEntity
  8
0
  6
Continuous
 62
     0
370
     0
100
AcDbLine
 10
441.119039
 20
330.464672
 30
0.0
 11
443.058062
 21
330.035869
 31
0.0
  0
LINE
  5
1AE
330
182
100
AcDbEntity
  8
0
  6
Continuous
 62
     0
370
    30
100
AcDbLine
 10
440.115556
 20
325.743659
 30
0.0
 11
441.645171
 21
325.418529
 31
0.0
  0
LINE
  5
1AF
330
182
100
AcDbEntity
  8
0
  6
Continuous
 62
     0
370
    30
100
AcDbLine
 10
441.645171
 20
325.418529
 30
0.0
 11
460.519318
 21
321.406705
 31
0.0
  0
LWPOLYLINE
  5
1B0
330
182
100
AcDbEntity
  8
0
  6
Continuous
 62
     0
370
    30
100
AcDbPolyline
 90
       12
 70
     0
 43
0.0
 10
418.675049
 20
323.73172
 10
418.860626
 20
323.159973
 10
419.037109
 20
322.618317
 10
419.201416
 20
322.113556
 10
419.350922
 20
321.651001
 10
419.485168
 20
321.238525
 10
419.602325
 20
320.880676
 10
419.699585
 20
320.578918
 10
419.776886
 20
320.339752
 10
419.833649
 20
320.167114
 10
419.868042
 20
320.060272
 10
419.880005
 20
320.022186
  0
LINE
  5
1B1
330
182
100
AcDbEntity
  8
0
  6
Continuous
 62
     0
370
    30
100
AcDbLine
 10
416.961727
 20
329.004775
 30
0.0
 11
418.675048
 21
323.731716
 31
0.0
  0
LINE
  5
1B2
330
182
100
AcDbEntity
  8
0
  6
Continuous
 62
     0
370
    30
100
AcDbLine
 10
381.461727
 20
349.634495
 30
0.0
 11
381.461727
 21
294.634495
 31
0.0
  0
LINE
  5
1B3
330
182
100
AcDbEntity
  8
0
  6
Continuous
 62
     0
370
     0
100
AcDbLine
 10
412.961727
 20
294.634495
 30
0.0
 11
412.961727
 21
349.634495
 31
0.0
  0
LWPOLYLINE
  5
1B4
330
182
100
AcDbEntity
  8
0
  6
Continuous
 62
     0
370
    30
100
AcDbPolyline
 90
       40
 70
     0
 43
0.0
 10
385.247742
 20
294.634491
 10
385.286133
 20
294.649872
 10
385.395294
 20
294.695374
 10
385.577026
 20
294.769806
 10
385.829468
 20
294.871277
 10
386.150024
 20
294.997253
 10
386.536102
 20
295.144562
 10
386.984436
 20
295.30957
 10
387.491821
 20
295.488342
 10
388.055206
 20
295.676605
 10
388.671875
 20
295.870087
 10
389.338745
 20
296.064209
 10
390.052216
 20
296.254059
 10
390.808533
 20
296.434814
 10
391.603882
 20
296.601593
 10
392.434235
 20
296.749725
 10
393.294617
 20
296.874664
 10
394.179504
 20
296.972351
 10
395.08252
 20
297.039642
 10
395.996735
 20
297.074066
 10
396.914764
 20
297.07428
 10
397.829102
 20
297.040283
 10
398.7323
 20
296.973419
 10
399.617462
 20
296.876099
 10
400.47821
 20
296.751465
 10
401.30899
 20
296.603668
 10
402.104828
 20
296.437073
 10
402.861694
 20
296.2565
 10
403.575745
 20
296.066711
 10
404.243225
 20
295.87262
 10
404.860535
 20
295.679108
 10
405.424652
 20
295.490723
 10
405.932861
 20
295.311829
 10
406.381989
 20
295.146606
 10
406.768799
 20
294.999023
 10
407.09024
 20
294.872742
 10
407.343597
 20
294.770996
 10
407.526672
 20
294.696289
 10
407.637878
 20
294.650299
 10
407.675598
 20
294.634491
  0
LINE
  5
1B5
330
182
100
AcDbEntity
  8
0
  6
Continuous
 62
     0
370
    30
100
AcDbLine
 10
413.461727
 20
349.134495
 30
0.0
 11
413.461727
 21
295.134495
 31
0.0
  0
LINE
  5
1B6
330
182
100
AcDbEntity
  8
0
  6
Continuous
 62
     0
370
    30
100
AcDbLine
 10
362.961727
 20
332.634495
 30
0.0
 11
362.961727
 21
311.634495
 31
0.0
  0
LINE
  5
1B7
330
182
100
AcDbEntity
  8
0
  6
Continuous
 62
     0
370
    30
100
AcDbLine
 10
361.961727
 20
331.634495
 30
0.0
 11
361.961727
 21
312.634495
 31
0.0
  0
LINE
  5
1B8
330
182
100
AcDbEntity
  8
0
  6
Continuous
 62
     0
370
    30
100
AcDbLine
 10
413.461728
 20
319.601031
 30
0.0
 11
415.961728
 21
319.601031
 31
0.0
  0
LINE
  5
1B9
330
182
100
AcDbEntity
  8
0
  6
Continuous
 62
     0
370
     0
100
AcDbLine
 10
415.961727
 20
319.601031
 30
0.0
 11
415.961727
 21
324.667965
 31
0.0
  0
LINE
  5
1BA
330
182
100
AcDbEntity
  8
0
  6
Continuous
 62
     0
370
    30
100
AcDbLine
 10
415.961728
 20
324.667958
 30
0.0
 11
413.461728
 21
324.667958
 31
0.0
  0
LINE
  5
1BB
330
182
100
AcDbEntity
  8
0
  6
Continuous
 62
     0
370
    30
100
AcDbLine
 10
413.461727
 20
310.134495
 30
0.0
 11
415.961727
 21
310.134495
 31
0.0
  0
LINE
  5
1BC
330
182
100
AcDbEntity
  8
0
  6
Continuous
 62
     0
370
     0
100
AcDbLine
 10
415.961727
 20
310.134495
 30
0.0
 11
415.961727
 21
312.667963
 31
0.0
  0
LINE
  5
1BD
330
182
100
AcDbEntity
  8
0
  6
Continuous
 62
     0
370
    30
100
AcDbLine
 10
415.961728
 20
312.667958
 30
0.0
 11
413.461728
 21
312.667958
 31
0.0
  0
LINE
  5
1BE
330
182
100
AcDbEntity
  8
0
  6
Continuous
 62
     0
370
    30
100
AcDbLine
 10
413.461728
 20
331.601031
 30
0.0
 11
415.961728
 21
331.601031
 31
0.0
  0
LINE
  5
1BF
330
182
100
AcDbEntity
  8
0
  6
Continuous
 62
     0
370
     0
100
AcDbLine
 10
415.961727
 20
331.601031
 30
0.0
 11
415.961727
 21
334.134497
 31
0.0
  0
LINE
  5
1C0
330
182
100
AcDbEntity
  8
0
  6
Continuous
 62
     0
370
    30
100
AcDbLine
 10
415.961727
 20
334.134495
 30
0.0
 11
413.461727
 21
334.134495
 31
0.0
  0
LINE
  5
1C1
330
182
100
AcDbEntity
  8
0
  6
Continuous
 62
     0
370
    30
100
AcDbLine
 10
416.961727
 20
310.484495
 30
0.0
 11
416.961727
 21
333.784495
 31
0.0
  0
LWPOLYLINE
  5
1C2
330
182
100
AcDbEntity
  8
0
  6
Continuous
 62
     0
370
    30
100
AcDbPolyline
 90
       40
 70
     0
 43
0.0
 10
415.961731
 20
331.601013
 10
416.169556
 20
331.540588
 10
416.326965
 20
331.406921
 10
416.44455
 20
331.244965
 10
416.534576
 20
331.070343
 10
416.606445
 20
330.889282
 10
416.664764
 20
330.70462
 10
416.711853
 20
330.517792
 10
416.750427
 20
330.329529
 10
416.782257
 20
330.14032
 10
416.808563
 20
329.950348
 10
416.830109
 20
329.759888
 10
416.847687
 20
329.569153
 10
416.861877
 20
329.378265
 10
416.873199
 20
329.187256
 10
416.88208
 20
328.996124
 10
416.888794
 20
328.804901
 10
416.893646
 20
328.613617
 10
416.89682
 20
328.422302
 10
416.898376
 20
328.230957
 10
416.898376
 20
328.039673
 10
416.89682
 20
327.84845
 10
416.893677
 20
327.657227
 10
416.888855
 20
327.466003
 10
416.882141
 20
327.274811
 10
416.873322
 20
327.083679
 10
416.862061
 20
326.892609
 10
416.8479
 20
326.70166
 10
416.830383
 20
326.510986
 10
416.808868
 20
326.320618
 10
416.782593
 20
326.130676
 10
416.750824
 20
325.941315
 10
416.712311
 20
325.752808
 10
416.665314
 20
325.565826
 10
416.607117
 20
325.3815
 10
416.53537
 20
325.2005
 10
416.445618
 20
325.025452
 10
416.328369
 20
324.863647
 10
416.171478
 20
324.729462
 10
415.961731
 20
324.667969
  0
LWPOLYLINE
  5
1C3
330
182
100
AcDbEntity
  8
0
  6
Continuous
 62
     0
370
    30
100
AcDbPolyline
 90
       40
 70
     0
 43
0.0
 10
415.961731
 20
319.601044
 10
416.169556
 20
319.540649
 10
416.326965
 20
319.406921
 10
416.44455
 20
319.2453
 10
416.534546
 20
319.070343
 10
416.606415
 20
318.889374
 10
416.664734
 20
318.705078
 10
416.711853
 20
318.518097
 10
416.750397
 20
318.32962
 10
416.782257
 20
318.140228
 10
416.808563
 20
317.950317
 10
416.830109
 20
317.759949
 10
416.847687
 20
317.569244
 10
416.861908
 20
317.378357
 10
416.873199
 20
317.187286
 10
416.88208
 20
316.996155
 10
416.888794
 20
316.804993
 10
416.893646
 20
316.61377
 10
416.89682
 20
316.422546
 10
416.898376
 20
316.231293
 10
416.898376
 20
316.040009
 10
416.89682
 20
315.848663
 10
416.893677
 20
315.657349
 10
416.888855
 20
315.466064
 10
416.882141
 20
315.274841
 10
416.873322
 20
315.08374
 10
416.862061
 20
314.892731
 10
416.8479
 20
314.701843
 10
416.830353
 20
314.511139
 10
416.808838
 20
314.320648
 10
416.782593
 20
314.130676
 10
416.750824
 20
313.941437
 10
416.712341
 20
313.753174
 10
416.665314
 20
313.566315
 10
416.607147
 20
313.381622
 10
416.5354
 20
313.2005
 10
416.445618
 20
313.025787
 10
416.328369
 20
312.863647
 10
416.171478
 20
312.729523
 10
415.961731
 20
312.667999
  0
LINE
  5
1C4
330
182
100
AcDbEntity
  8
0
  6
Continuous
 62
     0
370
    30
100
AcDbLine
 10
415.961727
 20
334.134495
 30
0.0
 11
416.898471
 21
334.134495
 31
0.0
  0
LWPOLYLINE
  5
1C5
330
182
100
AcDbEntity
  8
0
  6
Continuous
 62
     0
370
    30
100
AcDbPolyline
 90
       17
 70
     0
 43
0.0
 10
416.898468
 20
310.134491
 10
416.897369
 20
310.134491
 10
416.893921
 20
310.134491
 10
416.887878
 20
310.134491
 10
416.879028
 20
310.134491
 10
416.866821
 20
310.134491
 10
416.850586
 20
310.134491
 10
416.829559
 20
310.134491
 10
416.802582
 20
310.134491
 10
416.76825
 20
310.134491
 10
416.72464
 20
310.134491
 10
416.66925
 20
310.134491
 10
416.598358
 20
310.134491
 10
416.506073
 20
310.134491
 10
416.382446
 20
310.134491
 10
416.208893
 20
310.134491
 10
415.961731
 20
310.134491
  0
LINE
  5
1C6
330
182
100
AcDbEntity
  8
0
  6
Continuous
 62
     0
370
    30
100
AcDbLine
 10
386.428972
 20
270.482698
 30
0.0
 11
406.494482
 21
270.482698
 31
0.0
  0
LINE
  5
1C7
330
182
100
AcDbEntity
  8
0
  6
Continuous
 62
     0
370
    30
100
AcDbLine
 10
386.428972
 20
270.482698
 30
0.0
 11
385.247752
 21
294.634495
 31
0.0
  0
LINE
  5
1C8
330
182
100
AcDbEntity
  8
0
  6
Continuous
 62
     0
370
    30
100
AcDbLine
 10
406.494482
 20
270.482698
 30
0.0
 11
407.675705
 21
294.634545
 31
0.0
  0
ARC
  5
1C9
330
182
100
AcDbEntity
  8
0
  6
Continuous
 62
     0
370
    30
100
AcDbCircle
 10
415.957848
 20
310.485274
 30
0.0
 40
1.003879631764962
100
AcDbArc
 50
339.568322
 51
359.949816
  0
ARC
  5
1CA
330
182
100
AcDbEntity
  8
0
  6
Continuous
 62
     0
370
    30
100
AcDbCircle
 10
415.957848
 20
333.783716
 30
0.0
 40
1.003879631760423
100
AcDbArc
 50
0.050184
 51
20.431678
  0
LINE
  5
1CB
330
182
100
AcDbEntity
  8
0
  6
Continuous
 62
     0
370
    30
100
AcDbLine
 10
361.961727
 20
331.634495
 30
0.0
 11
362.961727
 21
332.634495
 31
0.0
  0
LINE
  5
1CC
330
182
100
AcDbEntity
  8
0
  6
Continuous
 62
     0
370
    30
100
AcDbLine
 10
361.961727
 20
312.634495
 30
0.0
 11
362.961727
 21
311.634495
 31
0.0
  0
LINE
  5
1CD
330
182
100
AcDbEntity
  8
0
  6
Continuous
 62
     0
370
    30
100
AcDbLine
 10
381.461727
 20
311.634495
 30
0.0
 11
362.961727
 21
311.634495
 31
0.0
  0
LINE
  5
1CE
330
182
100
AcDbEntity
  8
0
  6
Continuous
 62
     0
370
    30
100
AcDbLine
 10
381.461727
 20
332.634495
 30
0.0
 11
362.961727
 21
332.634495
 31
0.0
  0
ARC
  5
1CF
330
182
100
AcDbEntity
  8
0
  6
Continuous
 62
     0
370
    30
100
AcDbCircle
 10
412.961724
 20
295.134498
 30
0.0
 40
0.500003442282833
100
AcDbArc
 50
270.000394
 51
359.999606
  0
ARC
  5
1D0
330
182
100
AcDbEntity
  8
0
  6
Continuous
 62
     0
370
    30
100
AcDbCircle
 10
412.961724
 20
349.134491
 30
0.0
 40
0.5000034422824795
100
AcDbArc
 50
0.000394
 51
89.999606
  0
LINE
  5
1D1
330
182
100
AcDbEntity
  8
0
  6
Continuous
 62
     0
370
    30
100
AcDbLine
 10
381.461727
 20
349.634495
 30
0.0
 11
412.961727
 21
349.634495
 31
0.0
  0
LINE
  5
1D2
330
182
100
AcDbEntity
  8
0
  6
Continuous
 62
     0
370
    30
100
AcDbLine
 10
381.461727
 20
294.634495
 30
0.0
 11
385.247752
 21
294.634495
 31
0.0
  0
LINE
  5
1D3
330
182
100
AcDbEntity
  8
0
  6
Continuous
 62
     0
370
    30
100
AcDbLine
 10
407.675595
 20
294.634495
 30
0.0
 11
412.961727
 21
294.634495
 31
0.0
  0
LWPOLYLINE
  5
1D4
330
182
100
AcDbEntity
  8
0
  6
Continuous
 62
     0
370
    30
100
AcDbPolyline
 90
       15
 70
     0
 43
0.0
 10
416.961731
 20
315.622498
 10
417.244629
 20
315.87796
 10
417.517456
 20
316.144104
 10
417.779877
 20
316.420532
 10
418.031433
 20
316.706879
 10
418.27179
 20
317.002686
 10
418.50061
 20
317.307526
 10
418.717499
 20
317.620941
 10
418.92215
 20
317.942505
 10
419.114288
 20
318.271667
 10
419.29361
 20
318.608032
 10
419.459869
 20
318.950989
 10
419.612854
 20
319.30011
 10
419.750305
 20
319.655334
 10
419.880524
 20
320.023224
  0
LWPOLYLINE
  5
1D5
330
182
100
AcDbEntity
  8
0
  6
Continuous
 62
     0
370
    30
100
AcDbPolyline
 90
        7
 70
     0
 43
0.0
 10
444.970398
 20
341.069183
 10
444.880157
 20
341.079803
 10
444.789062
 20
341.074005
 10
444.700623
 20
341.051758
 10
444.617859
 20
341.013763
 10
444.543304
 20
340.961395
 10
444.478638
 20
340.895569
  0
ENDBLK
  5
1D7
330
182
100
AcDbEntity
  8
0
100
AcDbBlockEnd
  0
BLOCK
  5
23E
330
1D9
100
AcDbEntity
  8
0
100
AcDbBlockBegin
  2
d
 70
     0
 10
207.742935
 20
0.0
 30
0.0
  3
d
  1

  0
LINE
  5
1DA
330
1D9
100
AcDbEntity
  8
0
  6
Continuous
 62
     0
370
    30
100
AcDbLine
 10
79.403458
 20
336.006027
 30
0.0
 11
82.522133
 21
321.333813
 31
0.0
  0
LINE
  5
1DB
330
1D9
100
AcDbEntity
  8
0
  6
Continuous
 62
     0
370
     0
100
AcDbLine
 10
82.522133
 20
321.333813
 30
0.0
 11
82.546043
 21
321.338895
 31
0.0
  0
LINE
  5
1DC
330
1D9
100
AcDbEntity
  8
0
  6
Continuous
 62
     0
370
     0
100
AcDbLine
 10
82.546043
 20
321.338895
 30
0.0
 11
79.427368
 21
336.011109
 31
0.0
  0
LINE
  5
1DD
330
1D9
100
AcDbEntity
  8
0
  6
Continuous
 62
     0
370
     0
100
AcDbLine
 10
79.427368
 20
336.011109
 30
0.0
 11
79.403458
 21
336.006027
 31
0.0
  0
LINE
  5
1DE
330
1D9
100
AcDbEntity
  8
0
  6
Continuous
 62
     0
370
    30
100
AcDbLine
 10
79.788575
 20
336.599057
 30
0.0
 11
82.361257
 21
337.145897
 31
0.0
  0
LINE
  5
1DF
330
1D9
100
AcDbEntity
  8
0
  6
Continuous
 62
     0
370
    30
100
AcDbLine
 10
82.361255
 20
337.145897
 30
0.0
 11
82.389608
 21
337.151923
 31
0.0
  0
LINE
  5
1E0
330
1D9
100
AcDbEntity
  8
0
  6
Continuous
 62
     0
370
    30
100
AcDbLine
 10
82.389608
 20
337.151923
 30
0.0
 11
100.818749
 21
341.069158
 31
0.0
  0
LINE
  5
1E1
330
1D9
100
AcDbEntity
  8
0
  6
Continuous
 62
     0
370
     0
100
AcDbLine
 10
82.546043
 20
321.338895
 30
0.0
 11
85.404578
 21
321.946496
 31
0.0
  0
LINE
  5
1E2
330
1D9
100
AcDbEntity
  8
0
  6
Continuous
 62
     0
370
     0
100
AcDbLine
 10
85.404576
 20
321.946495
 30
0.0
 11
82.285901
 21
336.618709
 31
0.0
  0
LINE
  5
1E3
330
1D9
100
AcDbEntity
  8
0
  6
Continuous
 62
     0
370
     0
100
AcDbLine
 10
82.285901
 20
336.618709
 30
0.0
 11
79.427367
 21
336.011109
 31
0.0
  0
LINE
  5
1E4
330
1D9
100
AcDbEntity
  8
0
  6
Continuous
 62
     0
370
     0
100
AcDbLine
 10
82.285901
 20
336.618709
 30
0.0
 11
82.300077
 21
336.621723
 31
0.0
  0
LINE
  5
1E5
330
1D9
100
AcDbEntity
  8
0
  6
Continuous
 62
     0
370
     0
100
AcDbLine
 10
82.300077
 20
336.621723
 30
0.0
 11
85.418753
 21
321.949508
 31
0.0
  0
LINE
  5
1E6
330
1D9
100
AcDbEntity
  8
0
  6
Continuous
 62
     0
370
     0
100
AcDbLine
 10
85.418753
 20
321.949508
 30
0.0
 11
85.404576
 21
321.946495
 31
0.0
  0
LINE
  5
1E7
330
1D9
100
AcDbEntity
  8
0
  6
Continuous
 62
     0
370
     0
100
AcDbLine
 10
85.418753
 20
321.949508
 30
0.0
 11
104.341005
 21
325.971557
 31
0.0
  0
LWPOLYLINE
  5
1E8
330
1D9
100
AcDbEntity
  8
0
  6
Continuous
 62
     0
370
    30
100
AcDbPolyline
 90
       10
 70
     0
 43
0.0
 10
104.341003
 20
325.971558
 10
104.187843
 20
326.23587
 10
104.013016
 20
326.554688
 10
103.823143
 20
326.924713
 10
103.624939
 20
327.341827
 10
103.425362
 20
327.801941
 10
103.231544
 20
328.300568
 10
103.050255
 20
328.831635
 10
102.887215
 20
329.387482
 10
102.731186
 20
330.035858
  0
LINE
  5
1E9
330
1D9
100
AcDbEntity
  8
0
  6
Continuous
 62
     0
370
    30
100
AcDbLine
 10
102.731187
 20
330.035869
 30
0.0
 11
101.503519
 21
335.811593
 31
0.0
  0
ARC
  5
1EA
330
1D9
100
AcDbEntity
  8
0
  6
Continuous
 62
     0
370
    30
100
AcDbCircle
 10
117.937735
 20
339.318631
 30
0.0
 40
16.8042482941901
100
AcDbArc
 50
186.708365
 51
192.04615
  0
LWPOLYLINE
  5
1EB
330
1D9
100
AcDbEntity
  8
0
  6
Continuous
 62
     0
370
    30
100
AcDbPolyline
 90
        9
 70
     0
 43
0.0
 10
101.248535
 20
337.355621
 10
101.19635
 20
337.916138
 10
101.170601
 20
338.450592
 10
101.167404
 20
338.949432
 10
101.182266
 20
339.403687
 10
101.20961
 20
339.806366
 10
101.243782
 20
340.15213
 10
101.279762
 20
340.43573
 10
101.315781
 20
340.663635
  0
LINE
  5
1EC
330
1D9
100
AcDbEntity
  8
0
  6
Continuous
 62
     0
370
     0
100
AcDbLine
 10
101.315778
 20
340.663634
 30
0.0
 11
82.300077
 21
336.621722
 31
0.0
  0
ARC
  5
1ED
330
1D9
100
AcDbEntity
  8
0
  6
Continuous
 62
     0
370
    30
100
AcDbCircle
 10
83.011207
 20
321.437769
 30
0.0
 40
0.5
100
AcDbArc
 50
192.0
 51
282.0
  0
LWPOLYLINE
  5
1EE
330
1D9
100
AcDbEntity
  8
0
  6
Continuous
 62
     0
370
     0
100
AcDbPolyline
 90
        5
 70
     0
 43
0.0
 10
83.115166
 20
320.9487
 10
82.930008
 20
320.947937
 10
82.757111
 20
321.021118
 10
82.622581
 20
321.157227
 10
82.546043
 20
321.338898
  0
LINE
  5
1EF
330
1D9
100
AcDbEntity
  8
0
  6
Continuous
 62
     0
370
    30
100
AcDbLine
 10
83.115163
 20
320.948695
 30
0.0
 11
85.687842
 21
321.495535
 31
0.0
  0
LWPOLYLINE
  5
1F0
330
1D9
100
AcDbEntity
  8
0
  6
Continuous
 62
     0
370
     0
100
AcDbPolyline
 90
        5
 70
     0
 43
0.0
 10
85.687843
 20
321.495544
 10
85.611771
 20
321.517853
 10
85.531502
 20
321.610413
 10
85.459114
 20
321.759308
 10
85.404579
 20
321.946503
  0
LWPOLYLINE
  5
1F1
330
1D9
100
AcDbEntity
  8
0
  6
Continuous
 62
     0
370
     0
100
AcDbPolyline
 90
        5
 70
     0
 43
0.0
 10
85.418755
 20
321.949493
 10
85.472885
 20
321.766449
 10
85.547989
 20
321.617157
 10
85.632767
 20
321.524078
 10
85.716194
 20
321.501556
  0
LINE
  5
1F2
330
1D9
100
AcDbEntity
  8
0
  6
Continuous
 62
     0
370
    30
100
AcDbLine
 10
85.716196
 20
321.501562
 30
0.0
 11
85.687842
 21
321.495535
 31
0.0
  0
LINE
  5
1F3
330
1D9
100
AcDbEntity
  8
0
  6
Continuous
 62
     0
370
    30
100
AcDbLine
 10
85.716196
 20
321.501562
 30
0.0
 11
104.144078
 21
325.418529
 31
0.0
  0
LWPOLYLINE
  5
1F4
330
1D9
100
AcDbEntity
  8
0
  6
Continuous
 62
     0
370
    30
100
AcDbPolyline
 90
        7
 70
     0
 43
0.0
 10
104.144081
 20
325.418518
 10
104.241692
 20
325.452209
 10
104.321953
 20
325.508484
 10
104.380127
 20
325.586914
 10
104.410263
 20
325.68692
 10
104.405571
 20
325.807281
 10
104.340729
 20
325.971497
  0
LWPOLYLINE
  5
1F5
330
1D9
100
AcDbEntity
  8
0
  6
Continuous
 62
     0
370
     0
100
AcDbPolyline
 90
        5
 70
     0
 43
0.0
 10
82.300079
 20
336.621735
 10
82.27507
 20
336.810974
 10
82.282959
 20
336.977905
 10
82.322548
 20
337.097443
 10
82.38961
 20
337.151917
  0
LINE
  5
1F6
330
1D9
100
AcDbEntity
  8
0
  6
Continuous
 62
     0
370
    30
100
AcDbLine
 10
82.389608
 20
337.151923
 30
0.0
 11
100.818739
 21
341.069156
 31
0.0
  0
LWPOLYLINE
  5
1F7
330
1D9
100
AcDbEntity
  8
0
  6
Continuous
 62
     0
370
    30
100
AcDbPolyline
 90
        4
 70
     0
 43
0.0
 10
101.309029
 20
340.895721
 10
101.310966
 20
340.87262
 10
101.32151
 20
340.804291
 10
101.315643
 20
340.663605
  0
LWPOLYLINE
  5
1F8
330
1D9
100
AcDbEntity
  8
0
  6
Continuous
 62
     0
370
     0
100
AcDbPolyline
 90
        5
 70
     0
 43
0.0
 10
82.361252
 20
337.145905
 10
82.300835
 20
337.094574
 10
82.265152
 20
336.977356
 10
82.25959
 20
336.81192
 10
82.285904
 20
336.618713
  0
LWPOLYLINE
  5
1F9
330
1D9
100
AcDbEntity
  8
0
  6
Continuous
 62
     0
370
     0
100
AcDbPolyline
 90
        5
 70
     0
 43
0.0
 10
79.427368
 20
336.011108
 10
79.422859
 20
336.204987
 10
79.489273
 20
336.384552
 10
79.61657
 20
336.522614
 10
79.788574
 20
336.59906
  0
LINE
  5
1FA
330
1D9
100
AcDbEntity
  8
0
  6
Continuous
 62
     0
370
    30
100
AcDbLine
 10
79.788575
 20
336.599057
 30
0.0
 11
82.361255
 21
337.145897
 31
0.0
  0
ARC
  5
1FB
330
1D9
100
AcDbEntity
  8
0
  6
Continuous
 62
     0
370
    30
100
AcDbCircle
 10
79.892531
 20
336.109983
 30
0.0
 40
0.4999999999995043
100
AcDbArc
 50
102.0
 51
192.0
  0
ARC
  5
1FC
330
1D9
100
AcDbEntity
  8
0
  6
Continuous
 62
     0
370
    30
100
AcDbCircle
 10
106.713244
 20
320.85263
 30
0.0
 40
5.000282217514654
100
AcDbArc
 50
75.000776
 51
101.999224
  0
LINE
  5
1FD
330
1D9
100
AcDbEntity
  8
0
  6
Continuous
 62
     0
370
     0
100
AcDbLine
 10
105.673693
 20
325.743659
 30
0.0
 11
104.670211
 21
330.464672
 31
0.0
  0
ARC
  5
1FE
330
1D9
100
AcDbEntity
  8
0
  6
Continuous
 62
     0
370
     0
100
AcDbCircle
 10
106.754643
 20
320.852554
 30
0.0
 40
9.835530293362561
100
AcDbArc
 50
75.233458
 51
102.235409
  0
LINE
  5
1FF
330
1D9
100
AcDbEntity
  8
0
  6
Continuous
 62
     0
370
     0
100
AcDbLine
 10
109.261534
 20
330.363241
 30
0.0
 11
108.007347
 21
325.68255
 31
0.0
  0
LINE
  5
200
330
1D9
100
AcDbEntity
  8
0
  6
Continuous
 62
     0
370
    30
100
AcDbLine
 10
126.167047
 20
320.816673
 30
0.0
 11
108.007347
 21
325.68255
 31
0.0
  0
LINE
  5
201
330
1D9
100
AcDbEntity
  8
0
  6
Continuous
 62
     0
370
     0
100
AcDbLine
 10
127.572541
 20
325.61743
 30
0.0
 11
109.261534
 21
330.363241
 31
0.0
  0
LINE
  5
202
330
1D9
100
AcDbEntity
  8
0
  6
Continuous
 62
     0
370
     0
100
AcDbLine
 10
127.712211
 20
325.572199
 30
0.0
 11
127.572541
 21
325.61743
 31
0.0
  0
LINE
  5
203
330
1D9
100
AcDbEntity
  8
0
  6
Continuous
 62
     0
370
    30
100
AcDbLine
 10
128.827522
 20
330.492182
 30
0.0
 11
102.494166
 21
340.600611
 31
0.0
  0
LINE
  5
204
330
1D9
100
AcDbEntity
  8
0
  6
Continuous
 62
     0
370
     0
100
AcDbLine
 10
102.494166
 20
340.600611
 30
0.0
 11
101.248486
 21
337.355504
 31
0.0
  0
LINE
  5
205
330
1D9
100
AcDbEntity
  8
0
  6
Continuous
 62
     0
370
     0
100
AcDbLine
 10
101.503519
 20
335.811593
 30
0.0
 11
127.572541
 21
325.61743
 31
0.0
  0
ARC
  5
206
330
1D9
100
AcDbEntity
  8
0
  6
Continuous
 62
     0
370
    30
100
AcDbCircle
 10
100.703041
 20
335.934985
 30
0.0
 40
4.997618393711349
100
AcDbArc
 50
68.998297
 51
83.035217
  0
LINE
  5
207
330
1D9
100
AcDbEntity
  8
0
  6
Continuous
 62
     0
370
     0
100
AcDbLine
 10
104.670211
 20
330.464672
 30
0.0
 11
102.731187
 21
330.035869
 31
0.0
  0
LINE
  5
208
330
1D9
100
AcDbEntity
  8
0
  6
Continuous
 62
     0
370
    30
100
AcDbLine
 10
104.144078
 20
325.418529
 30
0.0
 11
105.673693
 21
325.743659
 31
0.0
  0
LINE
  5
209
330
1D9
100
AcDbEntity
  8
0
  6
Continuous
 62
     0
370
    30
100
AcDbLine
 10
83.115163
 20
320.948695
 30
0.0
 11
85.687844
 21
321.495535
 31
0.0
  0
LINE
  5
20A
330
1D9
100
AcDbEntity
  8
0
  6
Continuous
 62
     0
370
    30
100
AcDbLine
 10
125.909257
 20
320.022183
 30
0.0
 11
128.827522
 21
329.00521
 31
0.0
  0
LWPOLYLINE
  5
20B
330
1D9
100
AcDbEntity
  8
0
  6
Continuous
 62
     0
370
    30
100
AcDbPolyline
 90
       21
 70
     0
 43
0.0
 10
125.909004
 20
320.022491
 10
125.920227
 20
320.057037
 10
125.953773
 20
320.160278
 10
126.009209
 20
320.330902
 10
126.085854
 20
320.566803
 10
126.182724
 20
320.864929
 10
126.29866
 20
321.221741
 10
126.432167
 20
321.632629
 10
126.581627
 20
322.092621
 10
126.745132
 20
322.595856
 10
126.920685
 20
323.136139
 10
127.106079
 20
323.706726
 10
127.299019
 20
324.300537
 10
127.497078
 20
324.910095
 10
127.697815
 20
325.527893
 10
127.898712
 20
326.14621
 10
128.097275
 20
326.757294
 10
128.291031
 20
327.353607
 10
128.477554
 20
327.927704
 10
128.654541
 20
328.472382
 10
128.827515
 20
329.004761
  0
LINE
  5
20C
330
1D9
100
AcDbEntity
  8
0
  6
Continuous
 62
     0
370
    30
100
AcDbLine
 10
164.327522
 20
294.634495
 30
0.0
 11
164.327522
 21
322.134495
 31
0.0
  0
LINE
  5
20D
330
1D9
100
AcDbEntity
  8
0
  6
Continuous
 62
     0
370
    30
100
AcDbLine
 10
164.327522
 20
322.134495
 30
0.0
 11
164.327522
 21
349.634495
 31
0.0
  0
LINE
  5
20E
330
1D9
100
AcDbEntity
  8
0
  6
Continuous
 62
     0
370
     0
100
AcDbLine
 10
132.827522
 20
349.634495
 30
0.0
 11
132.827522
 21
322.134495
 31
0.0
  0
LINE
  5
20F
330
1D9
100
AcDbEntity
  8
0
  6
Continuous
 62
     0
370
     0
100
AcDbLine
 10
132.827522
 20
322.134495
 30
0.0
 11
132.827522
 21
294.634495
 31
0.0
  0
LWPOLYLINE
  5
210
330
1D9
100
AcDbEntity
  8
0
  6
Continuous
 62
     0
370
    30
100
AcDbPolyline
 90
       40
 70
     0
 43
0.0
 10
138.113647
 20
294.634491
 10
138.150909
 20
294.650085
 10
138.261612
 20
294.695923
 10
138.444244
 20
294.770416
 10
138.697159
 20
294.872009
 10
139.018173
 20
294.998169
 10
139.404587
 20
295.145599
 10
139.853302
 20
295.31073
 10
140.361145
 20
295.489563
 10
140.924911
 20
295.677856
 10
141.541885
 20
295.871368
 10
142.209076
 20
296.06546
 10
142.922836
 20
296.25531
 10
143.679428
 20
296.435974
 10
144.475037
 20
296.602631
 10
145.305603
 20
296.75061
 10
146.166153
 20
296.875397
 10
147.051193
 20
296.9729
 10
147.954315
 20
297.039948
 10
148.868591
 20
297.074127
 10
149.786621
 20
297.074127
 10
150.700897
 20
297.039917
 10
151.604004
 20
296.97287
 10
152.489044
 20
296.875366
 10
153.349594
 20
296.75058
 10
154.180161
 20
296.6026
 10
154.975754
 20
296.435913
 10
155.73233
 20
296.255249
 10
156.446106
 20
296.06543
 10
157.113327
 20
295.871338
 10
157.730331
 20
295.677856
 10
158.294022
 20
295.489502
 10
158.801666
 20
295.310669
 10
159.250305
 20
295.145538
 10
159.63678
 20
294.998108
 10
159.957886
 20
294.872009
 10
160.210938
 20
294.770355
 10
160.393188
 20
294.69574
 10
160.502731
 20
294.650085
 10
160.541504
 20
294.634491
  0
LWPOLYLINE
  5
211
330
1D9
100
AcDbEntity
  8
0
  6
Continuous
 62
     0
370
    30
100
AcDbPolyline
 90
       30
 70
     0
 43
0.0
 10
132.32753
 20
295.134491
 10
132.327515
 20
295.174133
 10
132.327515
 20
295.292816
 10
132.327515
 20
295.490082
 10
132.327515
 20
295.765503
 10
132.327515
 20
296.118347
 10
132.327515
 20
296.547363
 10
132.327515
 20
297.051361
 10
132.327515
 20
297.628998
 10
132.327515
 20
298.278503
 10
132.327515
 20
298.997864
 10
132.327515
 20
299.785034
 10
132.327515
 20
300.637878
 10
132.327515
 20
301.55368
 10
132.327515
 20
302.529755
 10
132.327515
 20
303.563354
 10
132.327515
 20
304.651428
 10
132.327515
 20
305.790741
 10
132.327515
 20
306.977966
 10
132.327515
 20
308.209717
 10
132.327515
 20
309.4823
 10
132.327515
 20
310.79187
 10
132.327515
 20
312.134583
 10
132.327515
 20
313.506561
 10
132.327515
 20
314.903931
 10
132.327515
 20
316.322784
 10
132.327515
 20
317.759155
 10
132.327515
 20
319.208466
 10
132.327515
 20
320.66571
 10
132.327515
 20
322.134491
  0
LINE
  5
212
330
1D9
100
AcDbEntity
  8
0
  6
Continuous
 62
     0
370
    30
100
AcDbLine
 10
132.327521
 20
322.134495
 30
0.0
 11
132.327522
 21
349.134495
 31
0.0
  0
LINE
  5
213
330
1D9
100
AcDbEntity
  8
0
  6
Continuous
 62
     0
370
    30
100
AcDbLine
 10
182.827522
 20
311.634495
 30
0.0
 11
182.827522
 21
322.134495
 31
0.0
  0
LINE
  5
214
330
1D9
100
AcDbEntity
  8
0
  6
Continuous
 62
     0
370
    30
100
AcDbLine
 10
182.827522
 20
322.134495
 30
0.0
 11
182.827522
 21
332.634495
 31
0.0
  0
LINE
  5
215
330
1D9
100
AcDbEntity
  8
0
  6
Continuous
 62
     0
370
    30
100
AcDbLine
 10
183.827522
 20
331.634495
 30
0.0
 11
183.827522
 21
322.134495
 31
0.0
  0
LINE
  5
216
330
1D9
100
AcDbEntity
  8
0
  6
Continuous
 62
     0
370
    30
100
AcDbLine
 10
183.827522
 20
322.134495
 30
0.0
 11
183.827522
 21
312.634495
 31
0.0
  0
LWPOLYLINE
  5
217
330
1D9
100
AcDbEntity
  8
0
  6
Continuous
 62
     0
370
    30
100
AcDbPolyline
 90
       19
 70
     0
 43
0.0
 10
183.827515
 20
312.634491
 10
183.827515
 20
312.670471
 10
183.827515
 20
312.777954
 10
183.827515
 20
312.956238
 10
183.827515
 20
313.203949
 10
183.827515
 20
313.519196
 10
183.827515
 20
313.899628
 10
183.827515
 20
314.342316
 10
183.827515
 20
314.843964
 10
183.827515
 20
315.400726
 10
183.827515
 20
316.008484
 10
183.827515
 20
316.662506
 10
183.827515
 20
317.358002
 10
183.827515
 20
318.089569
 10
183.827515
 20
318.851654
 10
183.827515
 20
319.63858
 10
183.827515
 20
320.444672
 10
183.827515
 20
321.263733
 10
183.827515
 20
322.134491
  0
LINE
  5
218
330
1D9
100
AcDbEntity
  8
0
  6
Continuous
 62
     0
370
    30
100
AcDbLine
 10
183.827522
 20
322.134495
 30
0.0
 11
183.827522
 21
331.634495
 31
0.0
  0
LINE
  5
219
330
1D9
100
AcDbEntity
  8
0
  6
Continuous
 62
     0
370
    30
100
AcDbLine
 10
183.827522
 20
322.134495
 30
0.0
 11
182.827522
 21
322.134495
 31
0.0
  0
LINE
  5
21A
330
1D9
100
AcDbEntity
  8
0
  6
Continuous
 62
     0
370
    30
100
AcDbLine
 10
132.327522
 20
334.134495
 30
0.0
 11
129.827522
 21
334.134495
 31
0.0
  0
LINE
  5
21B
330
1D9
100
AcDbEntity
  8
0
  6
Continuous
 62
     0
370
     0
100
AcDbLine
 10
129.827522
 20
334.134495
 30
0.0
 11
129.827522
 21
331.601027
 31
0.0
  0
LINE
  5
21C
330
1D9
100
AcDbEntity
  8
0
  6
Continuous
 62
     0
370
    30
100
AcDbLine
 10
129.827522
 20
331.601031
 30
0.0
 11
132.327522
 21
331.601031
 31
0.0
  0
LINE
  5
21D
330
1D9
100
AcDbEntity
  8
0
  6
Continuous
 62
     0
370
    30
100
AcDbLine
 10
132.327522
 20
312.667958
 30
0.0
 11
129.827522
 21
312.667958
 31
0.0
  0
LINE
  5
21E
330
1D9
100
AcDbEntity
  8
0
  6
Continuous
 62
     0
370
     0
100
AcDbLine
 10
129.827522
 20
312.667958
 30
0.0
 11
129.827522
 21
310.134493
 31
0.0
  0
LINE
  5
21F
330
1D9
100
AcDbEntity
  8
0
  6
Continuous
 62
     0
370
    30
100
AcDbLine
 10
129.827522
 20
310.134495
 30
0.0
 11
132.327522
 21
310.134495
 31
0.0
  0
LINE
  5
220
330
1D9
100
AcDbEntity
  8
0
  6
Continuous
 62
     0
370
    30
100
AcDbLine
 10
128.827522
 20
310.484495
 30
0.0
 11
128.827522
 21
322.134495
 31
0.0
  0
LINE
  5
221
330
1D9
100
AcDbEntity
  8
0
  6
Continuous
 62
     0
370
    30
100
AcDbLine
 10
128.827522
 20
322.134495
 30
0.0
 11
128.827522
 21
333.784495
 31
0.0
  0
LWPOLYLINE
  5
222
330
1D9
100
AcDbEntity
  8
0
  6
Continuous
 62
     0
370
    30
100
AcDbPolyline
 90
       20
 70
     0
 43
0.0
 10
128.82753
 20
333.784485
 10
128.827515
 20
333.74469
 10
128.827515
 20
333.625641
 10
128.827515
 20
333.428101
 10
128.827515
 20
333.153442
 10
128.827515
 20
332.803589
 10
128.827515
 20
332.380798
 10
128.827515
 20
331.888123
 10
128.827515
 20
331.328766
 10
128.827515
 20
330.706696
 10
128.827515
 20
330.026062
 10
128.827515
 20
329.291534
 10
128.827515
 20
328.508118
 10
128.827515
 20
327.681152
 10
128.827515
 20
326.816376
 10
128.827515
 20
325.919739
 10
128.827515
 20
324.997162
 10
128.827515
 20
324.054657
 10
128.827515
 20
323.098938
 10
128.827515
 20
322.134491
  0
LINE
  5
223
330
1D9
100
AcDbEntity
  8
0
  6
Continuous
 62
     0
370
    30
100
AcDbLine
 10
128.827522
 20
322.134495
 30
0.0
 11
128.827522
 21
310.484495
 31
0.0
  0
LINE
  5
224
330
1D9
100
AcDbEntity
  8
0
  6
Continuous
 62
     0
370
     0
100
AcDbLine
 10
129.827522
 20
322.134495
 30
0.0
 11
129.827522
 21
324.667959
 31
0.0
  0
LWPOLYLINE
  5
225
330
1D9
100
AcDbEntity
  8
0
  6
Continuous
 62
     0
370
    30
100
AcDbPolyline
 90
       40
 70
     0
 43
0.0
 10
129.827515
 20
324.667969
 10
129.61969
 20
324.728333
 10
129.46228
 20
324.862091
 10
129.344696
 20
325.023712
 10
129.254684
 20
325.198669
 10
129.1828
 20
325.379608
 10
129.124481
 20
325.563904
 10
129.077377
 20
325.750885
 10
129.038818
 20
325.939392
 10
129.006989
 20
326.128754
 10
128.980682
 20
326.318665
 10
128.959122
 20
326.509033
 10
128.941544
 20
326.699738
 10
128.927353
 20
326.890625
 10
128.916061
 20
327.081665
 10
128.907181
 20
327.272797
 10
128.900452
 20
327.463989
 10
128.895615
 20
327.655212
 10
128.892441
 20
327.846436
 10
128.890884
 20
328.037689
 10
128.890884
 20
328.228973
 10
128.892426
 20
328.420319
 10
128.895584
 20
328.611633
 10
128.900406
 20
328.802917
 10
128.907104
 20
328.994141
 10
128.915939
 20
329.185242
 10
128.9272
 20
329.376251
 10
128.941345
 20
329.567139
 10
128.958878
 20
329.757843
 10
128.980392
 20
329.948334
 10
129.006638
 20
330.138306
 10
129.038422
 20
330.327545
 10
129.076904
 20
330.515808
 10
129.123917
 20
330.702667
 10
129.182114
 20
330.88736
 10
129.253845
 20
331.068481
 10
129.343613
 20
331.243195
 10
129.460861
 20
331.405334
 10
129.617767
 20
331.539459
 10
129.827515
 20
331.601013
  0
LWPOLYLINE
  5
226
330
1D9
100
AcDbEntity
  8
0
  6
Continuous
 62
     0
370
    30
100
AcDbPolyline
 90
       40
 70
     0
 43
0.0
 10
129.827515
 20
312.667999
 10
129.61969
 20
312.728394
 10
129.46228
 20
312.862061
 10
129.344696
 20
313.024017
 10
129.254684
 20
313.198639
 10
129.1828
 20
313.37973
 10
129.124481
 20
313.564362
 10
129.077377
 20
313.751221
 10
129.038834
 20
313.939453
 10
129.006989
 20
314.128662
 10
128.980698
 20
314.318634
 10
128.959137
 20
314.509094
 10
128.941559
 20
314.699829
 10
128.927353
 20
314.890717
 10
128.916046
 20
315.081757
 10
128.907181
 20
315.272888
 10
128.900452
 20
315.464081
 10
128.895599
 20
315.655365
 10
128.892441
 20
315.84671
 10
128.890884
 20
316.038025
 10
128.890884
 20
316.229309
 10
128.892441
 20
316.420563
 10
128.895584
 20
316.611755
 10
128.900421
 20
316.802979
 10
128.90712
 20
316.994171
 10
128.915939
 20
317.185333
 10
128.9272
 20
317.376404
 10
128.941345
 20
317.567322
 10
128.958878
 20
317.757996
 10
128.980377
 20
317.948364
 10
129.006638
 20
318.138306
 10
129.038422
 20
318.327667
 10
129.076904
 20
318.516174
 10
129.123917
 20
318.703156
 10
129.182114
 20
318.887482
 10
129.253845
 20
319.068451
 10
129.343613
 20
319.24353
 10
129.460861
 20
319.405334
 10
129.617767
 20
319.53952
 10
129.827515
 20
319.601044
  0
LINE
  5
227
330
1D9
100
AcDbEntity
  8
0
  6
Continuous
 62
     0
370
     0
100
AcDbLine
 10
129.827522
 20
319.60103
 30
0.0
 11
129.827522
 21
322.134495
 31
0.0
  0
LWPOLYLINE
  5
228
330
1D9
100
AcDbEntity
  8
0
  6
Continuous
 62
     0
370
    30
100
AcDbPolyline
 90
       17
 70
     0
 43
0.0
 10
128.890778
 20
334.134491
 10
128.891876
 20
334.134491
 10
128.89534
 20
334.134491
 10
128.901367
 20
334.134491
 10
128.910233
 20
334.134491
 10
128.92244
 20
334.134491
 10
128.938644
 20
334.134491
 10
128.959686
 20
334.134491
 10
128.986679
 20
334.134491
 10
129.020996
 20
334.134491
 10
129.06459
 20
334.134491
 10
129.11998
 20
334.134491
 10
129.190903
 20
334.134491
 10
129.283188
 20
334.134491
 10
129.406799
 20
334.134491
 10
129.580338
 20
334.134491
 10
129.827515
 20
334.134491
  0
LINE
  5
229
330
1D9
100
AcDbEntity
  8
0
  6
Continuous
 62
     0
370
    30
100
AcDbLine
 10
129.827522
 20
324.667958
 30
0.0
 11
132.327522
 21
324.667958
 31
0.0
  0
LINE
  5
22A
330
1D9
100
AcDbEntity
  8
0
  6
Continuous
 62
     0
370
    30
100
AcDbLine
 10
132.327522
 20
319.601031
 30
0.0
 11
129.827522
 21
319.601031
 31
0.0
  0
LINE
  5
22B
330
1D9
100
AcDbEntity
  8
0
  6
Continuous
 62
     0
370
    30
100
AcDbLine
 10
129.827522
 20
310.134495
 30
0.0
 11
128.890778
 21
310.134495
 31
0.0
  0
LINE
  5
22C
330
1D9
100
AcDbEntity
  8
0
  6
Continuous
 62
     0
370
    30
100
AcDbLine
 10
132.327522
 20
295.134495
 30
0.0
 11
132.327521
 21
322.134495
 31
0.0
  0
LINE
  5
22D
330
1D9
100
AcDbEntity
  8
0
  6
Continuous
 62
     0
370
    30
100
AcDbLine
 10
132.327521
 20
322.134495
 30
0.0
 11
132.327522
 21
349.134495
 31
0.0
  0
LWPOLYLINE
  5
22E
330
1D9
100
AcDbEntity
  8
0
  6
Continuous
 62
     0
370
    30
100
AcDbPolyline
 90
       37
 70
     0
 43
0.0
 10
139.294769
 20
270.482697
 10
139.326691
 20
270.482697
 10
139.426163
 20
270.482697
 10
139.597977
 20
270.482697
 10
139.845734
 20
270.482697
 10
140.171539
 20
270.482697
 10
140.575684
 20
270.482697
 10
141.056564
 20
270.482697
 10
141.610489
 20
270.482697
 10
142.231827
 20
270.482697
 10
142.913147
 20
270.482697
 10
143.645477
 20
270.482697
 10
144.418732
 20
270.482697
 10
145.222153
 20
270.482697
 10
146.0448
 20
270.482697
 10
146.8759
 20
270.482697
 10
147.705383
 20
270.482697
 10
148.524094
 20
270.482697
 10
149.324005
 20
270.482697
 10
150.123703
 20
270.482697
 10
150.942276
 20
270.482697
 10
151.771698
 20
270.482697
 10
152.602844
 20
270.482697
 10
153.425598
 20
270.482697
 10
154.229248
 20
270.482697
 10
155.002823
 20
270.482697
 10
155.735565
 20
270.482697
 10
156.417374
 20
270.482697
 10
157.039291
 20
270.482697
 10
157.593857
 20
270.482697
 10
158.075394
 20
270.482697
 10
158.48024
 20
270.482697
 10
158.806732
 20
270.482697
 10
159.055191
 20
270.482697
 10
159.227661
 20
270.482697
 10
159.327759
 20
270.482697
 10
159.360275
 20
270.482697
  0
LINE
  5
22F
330
1D9
100
AcDbEntity
  8
0
  6
Continuous
 62
     0
370
    30
100
AcDbLine
 10
159.360277
 20
270.482698
 30
0.0
 11
160.541497
 21
294.634495
 31
0.0
  0
LINE
  5
230
330
1D9
100
AcDbEntity
  8
0
  6
Continuous
 62
     0
370
    30
100
AcDbLine
 10
139.294767
 20
270.482698
 30
0.0
 11
138.113545
 21
294.634545
 31
0.0
  0
ARC
  5
231
330
1D9
100
AcDbEntity
  8
0
  6
Continuous
 62
     0
370
    30
100
AcDbCircle
 10
129.831402
 20
310.485274
 30
0.0
 40
1.003879631770242
100
AcDbArc
 50
180.050184
 51
200.431678
  0
ARC
  5
232
330
1D9
100
AcDbEntity
  8
0
  6
Continuous
 62
     0
370
    30
100
AcDbCircle
 10
129.831402
 20
333.783716
 30
0.0
 40
1.003879631764014
100
AcDbArc
 50
159.568322
 51
179.949816
  0
LINE
  5
233
330
1D9
100
AcDbEntity
  8
0
  6
Continuous
 62
     0
370
    30
100
AcDbLine
 10
183.827522
 20
331.634495
 30
0.0
 11
182.827522
 21
332.634495
 31
0.0
  0
LINE
  5
234
330
1D9
100
AcDbEntity
  8
0
  6
Continuous
 62
     0
370
    30
100
AcDbLine
 10
183.827522
 20
312.634495
 30
0.0
 11
182.827522
 21
311.634495
 31
0.0
  0
LINE
  5
235
330
1D9
100
AcDbEntity
  8
0
  6
Continuous
 62
     0
370
    30
100
AcDbLine
 10
164.327522
 20
311.634495
 30
0.0
 11
182.827522
 21
311.634495
 31
0.0
  0
LINE
  5
236
330
1D9
100
AcDbEntity
  8
0
  6
Continuous
 62
     0
370
    30
100
AcDbLine
 10
164.327522
 20
332.634495
 30
0.0
 11
182.827522
 21
332.634495
 31
0.0
  0
ARC
  5
237
330
1D9
100
AcDbEntity
  8
0
  6
Continuous
 62
     0
370
    30
100
AcDbCircle
 10
132.827526
 20
295.134498
 30
0.0
 40
0.5000034422820514
100
AcDbArc
 50
180.000394
 51
269.999606
  0
ARC
  5
238
330
1D9
100
AcDbEntity
  8
0
  6
Continuous
 62
     0
370
    30
100
AcDbCircle
 10
132.827526
 20
349.134491
 30
0.0
 40
0.500003442281975
100
AcDbArc
 50
90.000394
 51
179.999606
  0
LINE
  5
239
330
1D9
100
AcDbEntity
  8
0
  6
Continuous
 62
     0
370
    30
100
AcDbLine
 10
164.327522
 20
349.634495
 30
0.0
 11
132.827522
 21
349.634495
 31
0.0
  0
LINE
  5
23A
330
1D9
100
AcDbEntity
  8
0
  6
Continuous
 62
     0
370
    30
100
AcDbLine
 10
164.327522
 20
294.634495
 30
0.0
 11
160.541497
 21
294.634495
 31
0.0
  0
LINE
  5
23B
330
1D9
100
AcDbEntity
  8
0
  6
Continuous
 62
     0
370
    30
100
AcDbLine
 10
138.113655
 20
294.634495
 30
0.0
 11
132.827522
 21
294.634495
 31
0.0
  0
LWPOLYLINE
  5
23C
330
1D9
100
AcDbEntity
  8
0
  6
Continuous
 62
     0
370
    30
100
AcDbPolyline
 90
       15
 70
     0
 43
0.0
 10
128.827515
 20
315.622498
 10
128.544632
 20
315.87796
 10
128.27179
 20
316.144104
 10
128.009384
 20
316.420532
 10
127.757812
 20
316.706879
 10
127.517448
 20
317.002686
 10
127.288651
 20
317.307526
 10
127.071762
 20
317.620941
 10
126.867096
 20
317.942505
 10
126.67495
 20
318.271667
 10
126.495651
 20
318.608032
 10
126.329369
 20
318.950989
 10
126.176392
 20
319.30011
 10
126.038948
 20
319.655334
 10
125.908737
 20
320.023224
  0
LWPOLYLINE
  5
23D
330
1D9
100
AcDbEntity
  8
0
  6
Continuous
 62
     0
370
    30
100
AcDbPolyline
 90
        7
 70
     0
 43
0.0
 10
100.81884
 20
341.069183
 10
100.909081
 20
341.079803
 10
101.000198
 20
341.074005
 10
101.088631
 20
341.051758
 10
101.171379
 20
341.013763
 10
101.245941
 20
340.961395
 10
101.310608
 20
340.895569
  0
ENDBLK
  5
23F
330
1D9
100
AcDbEntity
  8
0
100
AcDbBlockEnd
  0
ENDSEC
  0
SECTION
  2
ENTITIES
  0
INSERT
  5
F8
330
1F
100
AcDbEntity
  8
0
  6
Continuous
 62
     7
420
 16250871
370
     0
100
AcDbBlockReference
  2
a
 10
248.836487
 20
268.897583
 30
0.0
  0
INSERT
  5
181
330
1F
100
AcDbEntity
  8
0
  6
Continuous
 62
     7
420
 16250871
370
     0
100
AcDbBlockReference
  2
b
 10
0.0
 20
226.634445
 30
0.0
  0
INSERT
  5
1D8
330
1F
100
AcDbEntity
  8
0
  6
Continuous
 62
     7
420
 16250871
370
     0
100
AcDbBlockReference
  2
c
 10
229.427124
 20
0.0
 30
0.0
  0
INSERT
  5
240
330
1F
100
AcDbEntity
  8
0
  6
Continuous
 62
     7
420
 16250871
370
     0
100
AcDbBlockReference
  2
d
 10
207.742935
 20
0.0
 30
0.0
  0
ENDSEC
  0
SECTION
  2
OBJECTS
  0
DICTIONARY
  5
C
330
0
100
AcDbDictionary
281
     1
  3
ACAD_DETAILVIEWSTYLE
350
278
  3
ACAD_GROUP
350
D
  3
ACAD_LAYOUT
350
1A
  3
ACAD_MATERIAL
350
43
  3
ACAD_MLEADERSTYLE
350
6B
  3
ACAD_MLINESTYLE
350
17
  3
ACAD_PLOTSETTINGS
350
19
  3
ACAD_PLOTSTYLENAME
350
E
  3
ACAD_SCALELIST
350
47
  3
ACAD_SECTIONVIEWSTYLE
350
279
  3
ACAD_TABLESTYLE
350
69
  3
ACAD_VISUALSTYLE
350
2A
  3
ACDB_RECOMPOSE_DATA
350
275
  3
AcDbVariableDictionary
350
241
  0
SUN
  5
6D
330
29
100
AcDbSun
 90
        1
290
     0
 63
     7
421
 16777215
 40
1.0
291
     1
 91
  2455826
 92
 54000000
292
     0
 70
     2
 71
   256
280
     1
  0
DICTIONARY
  5
278
102
{ACAD_REACTORS
330
C
102
}
330
C
100
AcDbDictionary
281
     1
  0
DICTIONARY
  5
D
102
{ACAD_REACTORS
330
C
102
}
330
C
100
AcDbDictionary
281
     1
  0
DICTIONARY
  5
1A
102
{ACAD_REACTORS
330
C
102
}
330
C
100
AcDbDictionary
281
     1
  3
Layout1
350
1E
  3
Layout2
350
26
  3
Model
350
22
  0
DICTIONARY
  5
43
102
{ACAD_REACTORS
330
C
102
}
330
C
100
AcDbDictionary
281
     1
  3
ByBlock
350
45
  3
ByLayer
350
44
  3
Global
350
46
  0
DICTIONARY
  5
6B
102
{ACAD_REACTORS
330
C
102
}
330
C
100
AcDbDictionary
281
     1
  3
Standard
350
6C
  0
DICTIONARY
  5
17
102
{ACAD_REACTORS
330
C
102
}
330
C
100
AcDbDictionary
281
     1
  3
Standard
350
18
  0
DICTIONARY
  5
19
102
{ACAD_REACTORS
330
C
102
}
330
C
100
AcDbDictionary
281
     1
  0
ACDBDICTIONARYWDFLT
  5
E
102
{ACAD_REACTORS
330
C
102
}
330
C
100
AcDbDictionary
281
     1
  3
Normal
350
F
100
AcDbDictionaryWithDefault
340
F
  0
DICTIONARY
  5
47
102
{ACAD_REACTORS
330
C
102
}
330
C
100
AcDbDictionary
281
     1
  3
A0
350
48
  3
A1
350
49
  3
A2
350
4A
  3
A3
350
4B
  3
A4
350
4C
  3
A5
350
4D
  3
A6
350
4E
  3
A7
350
4F
  3
A8
350
50
  3
A9
350
51
  3
B0
350
52
  3
B1
350
53
  3
B2
350
54
  3
B3
350
55
  3
B4
350
56
  3
B5
350
57
  3
B6
350
58
  3
B7
350
59
  3
B8
350
5A
  3
B9
350
5B
  3
C0
350
5C
  3
C1
350
5D
  3
C2
350
5E
  3
C3
350
5F
  3
C4
350
60
  3
C5
350
61
  3
C6
350
62
  3
C7
350
63
  3
C8
350
64
  3
C9
350
65
  3
D0
350
66
  3
D1
350
67
  3
D2
350
68
  0
DICTIONARY
  5
279
102
{ACAD_REACTORS
330
C
102
}
330
C
100
AcDbDictionary
281
     1
  0
DICTIONARY
  5
69
102
{ACAD_REACTORS
330
C
102
}
330
C
100
AcDbDictionary
281
     1
  3
Standard
350
6A
  0
DICTIONARY
  5
2A
102
{ACAD_REACTORS
330
C
102
}
330
C
100
AcDbDictionary
281
     1
  3
2dWireframe
350
2F
  3
Basic
350
32
  3
Brighten
350
36
  3
ColorChange
350
3A
  3
Conceptual
350
34
  3
Dim
350
35
  3
EdgeColorOff
350
3D
  3
Facepattern
350
39
  3
Flat
350
2B
  3
FlatWithEdges
350
2C
  3
Gouraud
350
2D
  3
GouraudWithEdges
350
2E
  3
Hidden
350
31
  3
JitterOff
350
3B
  3
Linepattern
350
38
  3
OverhangOff
350
3C
  3
Realistic
350
33
  3
Shaded
350
42
  3
Shaded with edges
350
41
  3
Shades of Gray
350
3E
  3
Sketchy
350
3F
  3
Thicken
350
37
  3
Wireframe
350
30
  3
X-Ray
350
40
  0
XRECORD
  5
275
102
{ACAD_REACTORS
330
C
102
}
330
C
100
AcDbXrecord
280
     1
 90
        1
330
6A
  0
DICTIONARY
  5
241
102
{ACAD_REACTORS
330
C
102
}
330
C
100
AcDbDictionary
281
     1
  3
CANNOSCALE
350
242
  3
CMLEADERSTYLE
350
277
  3
CTABLESTYLE
350
276
  0
LAYOUT
  5
1E
102
{ACAD_REACTORS
330
1A
102
}
330
1A
100
AcDbPlotSettings
  1

  2
none_device
  4

  6

 40
0.0
 41
0.0
 42
0.0
 43
0.0
 44
0.0
 45
0.0
 46
0.0
 47
0.0
 48
0.0
 49
0.0
140
0.0
141
0.0
142
1.0
143
1.0
 70
   688
 72
     1
 73
     0
 74
     5
  7

 75
    16
 76
     0
 77
     2
 78
   300
147
1.0
148
0.0
149
0.0
100
AcDbLayout
  1
Layout1
 70
     1
 71
     1
 10
0.0
 20
0.0
 11
420.0
 21
297.0
 12
0.0
 22
0.0
 32
0.0
 14
1.000000E+20
 24
1.000000E+20
 34
1.000000E+20
 15
-1.000000E+20
 25
-1.000000E+20
 35
-1.000000E+20
146
0.0
 13
0.0
 23
0.0
 33
0.0
 16
1.0
 26
0.0
 36
0.0
 17
0.0
 27
1.0
 37
0.0
 76
     0
330
1B
  0
LAYOUT
  5
26
102
{ACAD_REACTORS
330
1A
102
}
330
1A
100
AcDbPlotSettings
  1

  2
none_device
  4

  6

 40
0.0
 41
0.0
 42
0.0
 43
0.0
 44
0.0
 45
0.0
 46
0.0
 47
0.0
 48
0.0
 49
0.0
140
0.0
141
0.0
142
1.0
143
1.0
 70
   688
 72
     1
 73
     0
 74
     5
  7

 75
    16
 76
     0
 77
     2
 78
   300
147
1.0
148
0.0
149
0.0
100
AcDbLayout
  1
Layout2
 70
     1
 71
     2
 10
0.0
 20
0.0
 11
0.0
 21
0.0
 12
0.0
 22
0.0
 32
0.0
 14
0.0
 24
0.0
 34
0.0
 15
0.0
 25
0.0
 35
0.0
146
0.0
 13
0.0
 23
0.0
 33
0.0
 16
1.0
 26
0.0
 36
0.0
 17
0.0
 27
1.0
 37
0.0
 76
     0
330
23
  0
LAYOUT
  5
22
102
{ACAD_REACTORS
330
1A
102
}
330
1A
100
AcDbPlotSettings
  1

  2
none_device
  4
Letter_(8.50_x_11.00_Inches)
  6

 40
6.35
 41
6.35
 42
6.350005
 43
6.350005
 44
215.9
 45
279.4
 46
0.0
 47
0.0
 48
0.0
 49
0.0
140
0.0
141
0.0
142
1.0
143
1.0
 70
  1712
 72
     1
 73
     0
 74
     0
  7

 75
     0
 76
     0
 77
     2
 78
   300
147
1.0
148
0.0
149
0.0
100
AcDbLayout
  1
Model
 70
     1
 71
     0
 10
0.0
 20
0.0
 11
420.0
 21
297.0
 12
0.0
 22
0.0
 32
0.0
 14
1.000000E+20
 24
1.000000E+20
 34
1.000000E+20
 15
-1.000000E+20
 25
-1.000000E+20
 35
-1.000000E+20
146
0.0
 13
0.0
 23
0.0
 33
0.0
 16
1.0
 26
0.0
 36
0.0
 17
0.0
 27
1.0
 37
0.0
 76
     0
330
1F
331
29
  0
MATERIAL
  5
45
102
{ACAD_REACTORS
330
43
102
}
330
43
100
AcDbMaterial
  1
ByBlock
 72
     1
 94
      127
  0
MATERIAL
  5
44
102
{ACAD_REACTORS
330
43
102
}
330
43
100
AcDbMaterial
  1
ByLayer
 72
     1
 94
      127
  0
MATERIAL
  5
46
102
{ACAD_REACTORS
330
43
102
}
330
43
100
AcDbMaterial
  1
Global
 72
     1
 94
      127
  0
MLEADERSTYLE
  5
6C
102
{ACAD_REACTORS
330
6B
102
}
330
6B
100
AcDbMLeaderStyle
179
     2
170
     2
171
     1
172
     0
 90
        2
 40
0.0
 41
0.0
173
     1
 91
-1056964608
340
14
 92
       -2
290
     1
 42
2.0
291
     1
 43
8.0
  3
Standard
341
0
 44
4.0
300

342
11
174
     1
178
     6
175
     1
176
     0
 93
-1056964608
 45
4.0
292
     0
297
     0
 46
4.0
343
0
 94
-1056964608
 47
1.0
 49
1.0
140
1.0
293
     1
141
0.0
294
     1
177
     0
142
1.0
295
     0
296
     0
143
3.75
271
     0
272
     9
273
     9
  0
MLINESTYLE
  5
18
102
{ACAD_REACTORS
330
17
102
}
330
17
100
AcDbMlineStyle
  2
Standard
 70
     0
  3

 62
   256
 51
90.0
 52
90.0
 71
     2
 49
0.5
 62
   256
  6
BYLAYER
 49
-0.5
 62
   256
  6
BYLAYER
  0
ACDBPLACEHOLDER
  5
F
102
{ACAD_REACTORS
330
E
102
}
330
E
  0
SCALE
  5
48
102
{ACAD_REACTORS
330
47
102
}
330
47
100
AcDbScale
 70
     0
300
1:1
140
1.0
141
1.0
290
     1
  0
SCALE
  5
49
102
{ACAD_REACTORS
330
47
102
}
330
47
100
AcDbScale
 70
     0
300
1:2
140
1.0
141
2.0
290
     0
  0
SCALE
  5
4A
102
{ACAD_REACTORS
330
47
102
}
330
47
100
AcDbScale
 70
     0
300
1:4
140
1.0
141
4.0
290
     0
  0
SCALE
  5
4B
102
{ACAD_REACTORS
330
47
102
}
330
47
100
AcDbScale
 70
     0
300
1:5
140
1.0
141
5.0
290
     0
  0
SCALE
  5
4C
102
{ACAD_REACTORS
330
47
102
}
330
47
100
AcDbScale
 70
     0
300
1:8
140
1.0
141
8.0
290
     0
  0
SCALE
  5
4D
102
{ACAD_REACTORS
330
47
102
}
330
47
100
AcDbScale
 70
     0
300
1:10
140
1.0
141
10.0
290
     0
  0
SCALE
  5
4E
102
{ACAD_REACTORS
330
47
102
}
330
47
100
AcDbScale
 70
     0
300
1:16
140
1.0
141
16.0
290
     0
  0
SCALE
  5
4F
102
{ACAD_REACTORS
330
47
102
}
330
47
100
AcDbScale
 70
     0
300
1:20
140
1.0
141
20.0
290
     0
  0
SCALE
  5
50
102
{ACAD_REACTORS
330
47
102
}
330
47
100
AcDbScale
 70
     0
300
1:30
140
1.0
141
30.0
290
     0
  0
SCALE
  5
51
102
{ACAD_REACTORS
330
47
102
}
330
47
100
AcDbScale
 70
     0
300
1:40
140
1.0
141
40.0
290
     0
  0
SCALE
  5
52
102
{ACAD_REACTORS
330
47
102
}
330
47
100
AcDbScale
 70
     0
300
1:50
140
1.0
141
50.0
290
     0
  0
SCALE
  5
53
102
{ACAD_REACTORS
330
47
102
}
330
47
100
AcDbScale
 70
     0
300
1:100
140
1.0
141
100.0
290
     0
  0
SCALE
  5
54
102
{ACAD_REACTORS
330
47
102
}
330
47
100
AcDbScale
 70
     0
300
2:1
140
2.0
141
1.0
290
     0
  0
SCALE
  5
55
102
{ACAD_REACTORS
330
47
102
}
330
47
100
AcDbScale
 70
     0
300
4:1
140
4.0
141
1.0
290
     0
  0
SCALE
  5
56
102
{ACAD_REACTORS
330
47
102
}
330
47
100
AcDbScale
 70
     0
300
8:1
140
8.0
141
1.0
290
     0
  0
SCALE
  5
57
102
{ACAD_REACTORS
330
47
102
}
330
47
100
AcDbScale
 70
     0
300
10:1
140
10.0
141
1.0
290
     0
  0
SCALE
  5
58
102
{ACAD_REACTORS
330
47
102
}
330
47
100
AcDbScale
 70
     0
300
100:1
140
100.0
141
1.0
290
     0
  0
SCALE
  5
59
102
{ACAD_REACTORS
330
47
102
}
330
47
100
AcDbScale
 70
     0
300
1/128" = 1'-0"
140
0.007812
141
12.0
290
     0
  0
SCALE
  5
5A
102
{ACAD_REACTORS
330
47
102
}
330
47
100
AcDbScale
 70
     0
300
1/64" = 1'-0"
140
0.015625
141
12.0
290
     0
  0
SCALE
  5
5B
102
{ACAD_REACTORS
330
47
102
}
330
47
100
AcDbScale
 70
     0
300
1/32" = 1'-0"
140
0.03125
141
12.0
290
     0
  0
SCALE
  5
5C
102
{ACAD_REACTORS
330
47
102
}
330
47
100
AcDbScale
 70
     0
300
1/16" = 1'-0"
140
0.0625
141
12.0
290
     0
  0
SCALE
  5
5D
102
{ACAD_REACTORS
330
47
102
}
330
47
100
AcDbScale
 70
     0
300
3/32" = 1'-0"
140
0.09375
141
12.0
290
     0
  0
SCALE
  5
5E
102
{ACAD_REACTORS
330
47
102
}
330
47
100
AcDbScale
 70
     0
300
1/8" = 1'-0"
140
0.125
141
12.0
290
     0
  0
SCALE
  5
5F
102
{ACAD_REACTORS
330
47
102
}
330
47
100
AcDbScale
 70
     0
300
3/16" = 1'-0"
140
0.1875
141
12.0
290
     0
  0
SCALE
  5
60
102
{ACAD_REACTORS
330
47
102
}
330
47
100
AcDbScale
 70
     0
300
1/4" = 1'-0"
140
0.25
141
12.0
290
     0
  0
SCALE
  5
61
102
{ACAD_REACTORS
330
47
102
}
330
47
100
AcDbScale
 70
     0
300
3/8" = 1'-0"
140
0.375
141
12.0
290
     0
  0
SCALE
  5
62
102
{ACAD_REACTORS
330
47
102
}
330
47
100
AcDbScale
 70
     0
300
1/2" = 1'-0"
140
0.5
141
12.0
290
     0
  0
SCALE
  5
63
102
{ACAD_REACTORS
330
47
102
}
330
47
100
AcDbScale
 70
     0
300
3/4" = 1'-0"
140
0.75
141
12.0
290
     0
  0
SCALE
  5
64
102
{ACAD_REACTORS
330
47
102
}
330
47
100
AcDbScale
 70
     0
300
1" = 1'-0"
140
1.0
141
12.0
290
     0
  0
SCALE
  5
65
102
{ACAD_REACTORS
330
47
102
}
330
47
100
AcDbScale
 70
     0
300
1-1/2" = 1'-0"
140
1.5
141
12.0
290
     0
  0
SCALE
  5
66
102
{ACAD_REACTORS
330
47
102
}
330
47
100
AcDbScale
 70
     0
300
3" = 1'-0"
140
3.0
141
12.0
290
     0
  0
SCALE
  5
67
102
{ACAD_REACTORS
330
47
102
}
330
47
100
AcDbScale
 70
     0
300
6" = 1'-0"
140
6.0
141
12.0
290
     0
  0
SCALE
  5
68
102
{ACAD_REACTORS
330
47
102
}
330
47
100
AcDbScale
 70
     0
300
1'-0" = 1'-0"
140
12.0
141
12.0
290
     0
  0
TABLESTYLE
  5
6A
102
{ACAD_REACTORS
330
69
102
}
102
{ACAD_XDICTIONARY
360
273
102
}
330
69
100
AcDbTableStyle
  3
Standard
 70
     0
 71
     0
 40
0.06
 41
0.06
280
     0
281
     0
  7
Standard
140
4.5
170
     2
 62
     0
 63
   257
283
     0
 90
        4
 91
        0
  1

274
    -2
284
     1
 64
     0
275
    -2
285
     1
 65
     0
276
    -2
286
     1
 66
     0
277
    -2
287
     1
 67
     0
278
    -2
288
     1
 68
     0
279
    -2
289
     1
 69
     0
  7
Standard
140
6.0
170
     5
 62
     0
 63
   257
283
     0
 90
        4
 91
        0
  1

274
    -2
284
     1
 64
     0
275
    -2
285
     1
 65
     0
276
    -2
286
     1
 66
     0
277
    -2
287
     1
 67
     0
278
    -2
288
     1
 68
     0
279
    -2
289
     1
 69
     0
  7
Standard
140
4.5
170
     5
 62
     0
 63
   257
283
     0
 90
        4
 91
        0
  1

274
    -2
284
     1
 64
     0
275
    -2
285
     1
 65
     0
276
    -2
286
     1
 66
     0
277
    -2
287
     1
 67
     0
278
    -2
288
     1
 68
     0
279
    -2
289
     1
 69
     0
  0
VISUALSTYLE
  5
2F
102
{ACAD_REACTORS
330
2A
102
}
102
{ACAD_XDICTIONARY
360
24B
102
}
330
2A
100
AcDbVisualStyle
  2
2dWireframe
 70
     4
177
     2
291
     0
 71
     0
176
     1
 72
     2
176
     1
 73
     0
176
     1
 90
        0
176
     1
 40
0.6
176
     1
 41
30.0
176
     1
 62
     5
 63
     7
421
 16777215
176
     1
 74
     1
176
     1
 91
        4
176
     1
 64
     7
176
     1
 65
   257
176
     1
 75
     1
176
     1
175
     1
176
     1
 42
1.0
176
     1
 92
        0
176
     1
 66
   257
176
     1
 43
1.0
176
     1
 76
     1
176
     1
 77
     6
176
     1
 78
     2
176
     1
 67
     7
176
     1
 79
     5
176
     1
170
     0
176
     1
171
     0
176
     1
290
     0
176
     1
 93
        1
176
     1
 44
0.0
176
     1
173
     0
176
     1
  0
VISUALSTYLE
  5
32
102
{ACAD_REACTORS
330
2A
102
}
102
{ACAD_XDICTIONARY
360
251
102
}
330
2A
100
AcDbVisualStyle
  2
Basic
 70
     7
177
     2
291
     1
 71
     1
176
     1
 72
     0
176
     1
 73
     1
176
     1
 90
        0
176
     1
 40
0.6
176
     1
 41
30.0
176
     1
 62
     5
 63
     7
421
 16777215
176
     1
 74
     0
176
     1
 91
        4
176
     1
 64
     7
176
     1
 65
   257
176
     1
 75
     1
176
     1
175
     1
176
     1
 42
1.0
176
     1
 92
        8
176
     1
 66
     7
176
     1
 43
1.0
176
     1
 76
     1
176
     1
 77
     6
176
     1
 78
     2
176
     1
 67
     7
176
     1
 79
     5
176
     1
170
     0
176
     1
171
     0
176
     1
290
     0
176
     1
 93
        1
176
     1
 44
0.0
176
     1
173
     0
176
     1
  0
VISUALSTYLE
  5
36
102
{ACAD_REACTORS
330
2A
102
}
102
{ACAD_XDICTIONARY
360
259
102
}
330
2A
100
AcDbVisualStyle
  2
Brighten
 70
    12
177
     2
291
     1
 71
     2
176
     1
 72
     2
176
     1
 73
     0
176
     1
 90
        0
176
     1
 40
0.6
176
     1
 41
30.0
176
     1
 62
     5
 63
     7
421
 16777215
176
     1
 74
     1
176
     1
 91
        4
176
     1
 64
     7
176
     1
 65
   257
176
     1
 75
     1
176
     1
175
     1
176
     1
 42
1.0
176
     1
 92
        8
176
     1
 66
     7
176
     1
 43
1.0
176
     1
 76
     1
176
     1
 77
     6
176
     1
 78
     2
176
     1
 67
     7
176
     1
 79
     5
176
     1
170
     0
176
     1
171
     0
176
     1
290
     0
176
     1
 93
        1
176
     1
 44
50.0
176
     1
173
     0
176
     1
  0
VISUALSTYLE
  5
3A
102
{ACAD_REACTORS
330
2A
102
}
102
{ACAD_XDICTIONARY
360
261
102
}
330
2A
100
AcDbVisualStyle
  2
ColorChange
 70
    16
177
     2
291
     1
 71
     2
176
     1
 72
     2
176
     1
 73
     3
176
     1
 90
        0
176
     1
 40
0.6
176
     1
 41
30.0
176
     1
 62
     5
 63
     8
421
  8421504
176
     1
 74
     1
176
     1
 91
        4
176
     1
 64
     7
176
     1
 65
   257
176
     1
 75
     1
176
     1
175
     1
176
     1
 42
1.0
176
     1
 92
        8
176
     1
 66
     8
424
  8421504
176
     1
 43
1.0
176
     1
 76
     1
176
     1
 77
     6
176
     1
 78
     2
176
     1
 67
     7
176
     1
 79
     5
176
     1
170
     0
176
     1
171
     0
176
     1
290
     0
176
     1
 93
        1
176
     1
 44
0.0
176
     1
173
     0
176
     1
  0
VISUALSTYLE
  5
34
102
{ACAD_REACTORS
330
2A
102
}
102
{ACAD_XDICTIONARY
360
255
102
}
330
2A
100
AcDbVisualStyle
  2
Conceptual
 70
     9
177
     2
291
     0
 71
     3
176
     1
 72
     2
176
     1
 73
     0
176
     1
 90
        0
176
     1
 40
0.6
176
     1
 41
30.0
176
     1
 62
     5
 63
     7
421
 16777215
176
     1
 74
     2
176
     1
 91
        2
176
     1
 64
     7
176
     1
 65
   257
176
     1
 75
     1
176
     1
175
     1
176
     1
 42
179.0
176
     1
 92
        8
176
     1
 66
     7
176
     1
 43
1.0
176
     1
 76
     1
176
     1
 77
     6
176
     1
 78
     2
176
     1
 67
     7
176
     1
 79
     3
176
     1
170
     0
176
     1
171
     0
176
     1
290
     0
176
     1
 93
        1
176
     1
 44
0.0
176
     1
173
     0
176
     1
  0
VISUALSTYLE
  5
35
102
{ACAD_REACTORS
330
2A
102
}
102
{ACAD_XDICTIONARY
360
257
102
}
330
2A
100
AcDbVisualStyle
  2
Dim
 70
    11
177
     2
291
     1
 71
     2
176
     1
 72
     2
176
     1
 73
     0
176
     1
 90
        0
176
     1
 40
0.6
176
     1
 41
30.0
176
     1
 62
     5
 63
     7
421
 16777215
176
     1
 74
     1
176
     1
 91
        4
176
     1
 64
     7
176
     1
 65
   257
176
     1
 75
     1
176
     1
175
     1
176
     1
 42
1.0
176
     1
 92
        8
176
     1
 66
     7
176
     1
 43
1.0
176
     1
 76
     1
176
     1
 77
     6
176
     1
 78
     2
176
     1
 67
     7
176
     1
 79
     5
176
     1
170
     0
176
     1
171
     0
176
     1
290
     0
176
     1
 93
        1
176
     1
 44
-50.0
176
     1
173
     0
176
     1
  0
VISUALSTYLE
  5
3D
102
{ACAD_REACTORS
330
2A
102
}
102
{ACAD_XDICTIONARY
360
267
102
}
330
2A
100
AcDbVisualStyle
  2
EdgeColorOff
 70
    22
177
     2
291
     1
 71
     2
176
     0
 72
     2
176
     0
 73
     0
176
     0
 90
        0
176
     0
 40
0.6
176
     0
 41
30.0
176
     0
 62
     5
 63
     7
421
 16777215
176
     0
 74
     1
176
     0
 91
        4
176
     0
 64
     7
176
     0
 65
   257
176
     0
 75
     1
176
     0
175
     1
176
     0
 42
1.0
176
     0
 92
        8
176
     2
 66
     7
176
     0
 43
1.0
176
     0
 76
     1
176
     0
 77
     6
176
     0
 78
     2
176
     0
 67
     7
176
     0
 79
     5
176
     0
170
     0
176
     0
171
     0
176
     0
290
     0
176
     0
 93
        1
176
     0
 44
0.0
176
     0
173
     0
176
     0
  0
VISUALSTYLE
  5
39
102
{ACAD_REACTORS
330
2A
102
}
102
{ACAD_XDICTIONARY
360
25F
102
}
330
2A
100
AcDbVisualStyle
  2
Facepattern
 70
    15
177
     2
291
     1
 71
     2
176
     1
 72
     2
176
     1
 73
     0
176
     1
 90
        0
176
     1
 40
0.6
176
     1
 41
30.0
176
     1
 62
     5
 63
     7
421
 16777215
176
     1
 74
     1
176
     1
 91
        4
176
     1
 64
     7
176
     1
 65
   257
176
     1
 75
     1
176
     1
175
     1
176
     1
 42
1.0
176
     1
 92
        8
176
     1
 66
     7
176
     1
 43
1.0
176
     1
 76
     1
176
     1
 77
     6
176
     1
 78
     2
176
     1
 67
     7
176
     1
 79
     5
176
     1
170
     0
176
     1
171
     0
176
     1
290
     0
176
     1
 93
        1
176
     1
 44
0.0
176
     1
173
     0
176
     1
  0
VISUALSTYLE
  5
2B
102
{ACAD_REACTORS
330
2A
102
}
102
{ACAD_XDICTIONARY
360
243
102
}
330
2A
100
AcDbVisualStyle
  2
Flat
 70
     0
177
     2
291
     1
 71
     2
176
     1
 72
     1
176
     1
 73
     1
176
     1
 90
        2
176
     1
 40
0.6
176
     1
 41
30.0
176
     1
 62
     5
 63
     7
421
 16777215
176
     1
 74
     0
176
     1
 91
        0
176
     1
 64
     7
176
     1
 65
   257
176
     1
 75
     1
176
     1
175
     1
176
     1
 42
1.0
176
     1
 92
        8
176
     1
 66
     7
176
     1
 43
1.0
176
     1
 76
     1
176
     1
 77
     6
176
     1
 78
     2
176
     1
 67
     7
176
     1
 79
     5
176
     1
170
     0
176
     1
171
     0
176
     1
290
     0
176
     1
 93
       13
176
     1
 44
0.0
176
     1
173
     0
176
     1
  0
VISUALSTYLE
  5
2C
102
{ACAD_REACTORS
330
2A
102
}
102
{ACAD_XDICTIONARY
360
245
102
}
330
2A
100
AcDbVisualStyle
  2
FlatWithEdges
 70
     1
177
     2
291
     1
 71
     2
176
     1
 72
     1
176
     1
 73
     1
176
     1
 90
        2
176
     1
 40
0.6
176
     1
 41
30.0
176
     1
 62
     5
 63
     7
421
 16777215
176
     1
 74
     1
176
     1
 91
        0
176
     1
 64
     7
176
     1
 65
   257
176
     1
 75
     1
176
     1
175
     1
176
     1
 42
1.0
176
     1
 92
        0
176
     1
 66
   257
176
     1
 43
1.0
176
     1
 76
     1
176
     1
 77
     6
176
     1
 78
     2
176
     1
 67
     7
176
     1
 79
     5
176
     1
170
     0
176
     1
171
     0
176
     1
290
     0
176
     1
 93
       13
176
     1
 44
0.0
176
     1
173
     0
176
     1
  0
VISUALSTYLE
  5
2D
102
{ACAD_REACTORS
330
2A
102
}
102
{ACAD_XDICTIONARY
360
247
102
}
330
2A
100
AcDbVisualStyle
  2
Gouraud
 70
     2
177
     2
291
     1
 71
     2
176
     1
 72
     2
176
     1
 73
     1
176
     1
 90
        2
176
     1
 40
0.6
176
     1
 41
30.0
176
     1
 62
     5
 63
     7
421
 16777215
176
     1
 74
     0
176
     1
 91
        0
176
     1
 64
     7
176
     1
 65
   257
176
     1
 75
     1
176
     1
175
     1
176
     1
 42
1.0
176
     1
 92
        0
176
     1
 66
     7
176
     1
 43
1.0
176
     1
 76
     1
176
     1
 77
     6
176
     1
 78
     2
176
     1
 67
     7
176
     1
 79
     5
176
     1
170
     0
176
     1
171
     0
176
     1
290
     0
176
     1
 93
       13
176
     1
 44
0.0
176
     1
173
     0
176
     1
  0
VISUALSTYLE
  5
2E
102
{ACAD_REACTORS
330
2A
102
}
102
{ACAD_XDICTIONARY
360
249
102
}
330
2A
100
AcDbVisualStyle
  2
GouraudWithEdges
 70
     3
177
     2
291
     1
 71
     2
176
     1
 72
     2
176
     1
 73
     1
176
     1
 90
        2
176
     1
 40
0.6
176
     1
 41
30.0
176
     1
 62
     5
 63
     7
421
 16777215
176
     1
 74
     1
176
     1
 91
        0
176
     1
 64
     7
176
     1
 65
   257
176
     1
 75
     1
176
     1
175
     1
176
     1
 42
1.0
176
     1
 92
        0
176
     1
 66
   257
176
     1
 43
1.0
176
     1
 76
     1
176
     1
 77
     6
176
     1
 78
     2
176
     1
 67
     7
176
     1
 79
     5
176
     1
170
     0
176
     1
171
     0
176
     1
290
     0
176
     1
 93
       13
176
     1
 44
0.0
176
     1
173
     0
176
     1
  0
VISUALSTYLE
  5
31
102
{ACAD_REACTORS
330
2A
102
}
102
{ACAD_XDICTIONARY
360
24F
102
}
330
2A
100
AcDbVisualStyle
  2
Hidden
 70
     6
177
     2
291
     0
 71
     1
176
     1
 72
     2
176
     1
 73
     2
176
     1
 90
        0
176
     1
 40
0.6
176
     1
 41
30.0
176
     1
 62
     5
 63
     7
421
 16777215
176
     1
 74
     2
176
     1
 91
        2
176
     1
 64
     7
176
     1
 65
   257
176
     1
 75
     2
176
     1
175
     1
176
     1
 42
40.0
176
     1
 92
        0
176
     1
 66
   257
176
     1
 43
1.0
176
     1
 76
     1
176
     1
 77
     6
176
     1
 78
     2
176
     1
 67
     7
176
     1
 79
     3
176
     1
170
     0
176
     1
171
     0
176
     1
290
     0
176
     1
 93
        1
176
     1
 44
0.0
176
     1
173
     0
176
     1
  0
VISUALSTYLE
  5
3B
102
{ACAD_REACTORS
330
2A
102
}
102
{ACAD_XDICTIONARY
360
263
102
}
330
2A
100
AcDbVisualStyle
  2
JitterOff
 70
    20
177
     2
291
     1
 71
     2
176
     0
 72
     2
176
     0
 73
     0
176
     0
 90
        0
176
     0
 40
0.6
176
     0
 41
30.0
176
     0
 62
     5
 63
     7
421
 16777215
176
     0
 74
     1
176
     0
 91
        4
176
     0
 64
     7
176
     0
 65
   257
176
     0
 75
     1
176
     0
175
     1
176
     0
 42
1.0
176
     0
 92
       10
176
     2
 66
     7
176
     0
 43
1.0
176
     0
 76
     1
176
     0
 77
     6
176
     0
 78
     2
176
     0
 67
     7
176
     0
 79
     5
176
     0
170
     0
176
     0
171
     0
176
     0
290
     0
176
     0
 93
        1
176
     0
 44
0.0
176
     0
173
     0
176
     0
  0
VISUALSTYLE
  5
38
102
{ACAD_REACTORS
330
2A
102
}
102
{ACAD_XDICTIONARY
360
25D
102
}
330
2A
100
AcDbVisualStyle
  2
Linepattern
 70
    14
177
     2
291
     1
 71
     2
176
     1
 72
     2
176
     1
 73
     0
176
     1
 90
        0
176
     1
 40
0.6
176
     1
 41
30.0
176
     1
 62
     5
 63
     7
421
 16777215
176
     1
 74
     1
176
     1
 91
        4
176
     1
 64
     7
176
     1
 65
   257
176
     1
 75
     7
176
     1
175
     7
176
     1
 42
1.0
176
     1
 92
        8
176
     1
 66
     7
176
     1
 43
1.0
176
     1
 76
     1
176
     1
 77
     6
176
     1
 78
     2
176
     1
 67
     7
176
     1
 79
     5
176
     1
170
     0
176
     1
171
     0
176
     1
290
     0
176
     1
 93
        1
176
     1
 44
0.0
176
     1
173
     0
176
     1
  0
VISUALSTYLE
  5
3C
102
{ACAD_REACTORS
330
2A
102
}
102
{ACAD_XDICTIONARY
360
265
102
}
330
2A
100
AcDbVisualStyle
  2
OverhangOff
 70
    21
177
     2
291
     1
 71
     2
176
     0
 72
     2
176
     0
 73
     0
176
     0
 90
        0
176
     0
 40
0.6
176
     0
 41
30.0
176
     0
 62
     5
 63
     7
421
 16777215
176
     0
 74
     1
176
     0
 91
        4
176
     0
 64
     7
176
     0
 65
   257
176
     0
 75
     1
176
     0
175
     1
176
     0
 42
1.0
176
     0
 92
        9
176
     2
 66
     7
176
     0
 43
1.0
176
     0
 76
     1
176
     0
 77
     6
176
     0
 78
     2
176
     0
 67
     7
176
     0
 79
     5
176
     0
170
     0
176
     0
171
     0
176
     0
290
     0
176
     0
 93
        1
176
     0
 44
0.0
176
     0
173
     0
176
     0
  0
VISUALSTYLE
  5
33
102
{ACAD_REACTORS
330
2A
102
}
102
{ACAD_XDICTIONARY
360
253
102
}
330
2A
100
AcDbVisualStyle
  2
Realistic
 70
     8
177
     2
291
     0
 71
     2
176
     1
 72
     3
176
     1
 73
     0
176
     1
 90
        2
176
     1
 40
0.6
176
     1
 41
30.0
176
     1
 62
     5
 63
     7
421
 16777215
176
     1
 74
     0
176
     1
 91
        0
176
     1
 64
     7
176
     1
 65
   257
176
     1
 75
     1
176
     1
175
     1
176
     1
 42
1.0
176
     1
 92
        8
176
     1
 66
   257
176
     1
 43
1.0
176
     1
 76
     1
176
     1
 77
     6
176
     1
 78
     2
176
     1
 67
     7
176
     1
 79
     3
176
     1
170
     0
176
     1
171
     0
176
     1
290
     0
176
     1
 93
       13
176
     1
 44
0.0
176
     1
173
     0
176
     1
  0
VISUALSTYLE
  5
42
102
{ACAD_REACTORS
330
2A
102
}
102
{ACAD_XDICTIONARY
360
271
102
}
330
2A
100
AcDbVisualStyle
  2
Shaded
 70
    27
177
     2
291
     0
 71
     2
176
     1
 72
     2
176
     1
 73
     1
176
     1
 90
        2
176
     1
 40
0.6
176
     1
 41
30.0
176
     1
 62
     5
 63
     7
421
 16777215
176
     1
 74
     0
176
     1
 91
        4
176
     1
 64
     7
176
     1
 65
   257
176
     1
 75
     1
176
     1
175
     1
176
     1
 42
1.0
176
     1
 92
        8
176
     1
 66
   257
176
     1
 43
1.0
176
     1
 76
     1
176
     1
 77
     6
176
     1
 78
     2
176
     1
 67
     8
425
  7895160
176
     1
 79
     3
176
     1
170
     0
176
     1
171
     0
176
     1
290
     0
176
     1
 93
        5
176
     1
 44
0.0
176
     1
173
     0
176
     1
  0
VISUALSTYLE
  5
41
102
{ACAD_REACTORS
330
2A
102
}
102
{ACAD_XDICTIONARY
360
26F
102
}
330
2A
100
AcDbVisualStyle
  2
Shaded with edges
 70
    26
177
     2
291
     0
 71
     2
176
     1
 72
     2
176
     1
 73
     1
176
     1
 90
        2
176
     1
 40
0.6
176
     1
 41
30.0
176
     1
 62
     5
 63
     7
421
 16777215
176
     1
 74
     1
176
     1
 91
       10
176
     1
 64
     7
176
     1
 65
   257
176
     1
 75
     2
176
     1
175
     1
176
     1
 42
1.0
176
     1
 92
        8
176
     1
 66
   257
176
     1
 43
1.0
176
     1
 76
     1
176
     1
 77
     6
176
     1
 78
     2
176
     1
 67
     7
176
     1
 79
     3
176
     1
170
     0
176
     1
171
     0
176
     1
290
     0
176
     1
 93
        5
176
     1
 44
0.0
176
     1
173
     0
176
     1
  0
VISUALSTYLE
  5
3E
102
{ACAD_REACTORS
330
2A
102
}
102
{ACAD_XDICTIONARY
360
269
102
}
330
2A
100
AcDbVisualStyle
  2
Shades of Gray
 70
    23
177
     2
291
     0
 71
     2
176
     1
 72
     2
176
     1
 73
     3
176
     1
 90
        0
176
     1
 40
0.6
176
     1
 41
30.0
176
     1
 62
     5
 63
     7
421
 16777215
176
     1
 74
     2
176
     1
 91
        2
176
     1
 64
     7
176
     1
 65
     7
176
     1
 75
     1
176
     1
175
     1
176
     1
 42
40.0
176
     1
 92
        8
176
     1
 66
     7
176
     1
 43
1.0
176
     1
 76
     1
176
     1
 77
     6
176
     1
 78
     2
176
     1
 67
     7
176
     1
 79
     3
176
     1
170
     0
176
     1
171
     0
176
     1
290
     0
176
     1
 93
        1
176
     1
 44
0.0
176
     1
173
     0
176
     1
  0
VISUALSTYLE
  5
3F
102
{ACAD_REACTORS
330
2A
102
}
102
{ACAD_XDICTIONARY
360
26B
102
}
330
2A
100
AcDbVisualStyle
  2
Sketchy
 70
    24
177
     2
291
     0
 71
     1
176
     1
 72
     2
176
     1
 73
     2
176
     1
 90
        0
176
     1
 40
0.6
176
     1
 41
30.0
176
     1
 62
     5
 63
     7
421
 16777215
176
     1
 74
     2
176
     1
 91
        2
176
     1
 64
     7
176
     1
 65
     7
176
     1
 75
     1
176
     1
175
     1
176
     1
 42
40.0
176
     1
 92
       11
176
     1
 66
     7
176
     1
 43
1.0
176
     1
 76
     1
176
     1
 77
     6
176
     1
 78
     2
176
     1
 67
     7
176
     1
 79
     6
176
     1
170
     0
176
     1
171
     0
176
     1
290
     0
176
     1
 93
        1
176
     1
 44
0.0
176
     1
173
     0
176
     1
  0
VISUALSTYLE
  5
37
102
{ACAD_REACTORS
330
2A
102
}
102
{ACAD_XDICTIONARY
360
25B
102
}
330
2A
100
AcDbVisualStyle
  2
Thicken
 70
    13
177
     2
291
     1
 71
     2
176
     1
 72
     2
176
     1
 73
     0
176
     1
 90
        0
176
     1
 40
0.6
176
     1
 41
30.0
176
     1
 62
     5
 63
     7
421
 16777215
176
     1
 74
     1
176
     1
 91
        4
176
     1
 64
     7
176
     1
 65
   257
176
     1
 75
     1
176
     1
175
     1
176
     1
 42
1.0
176
     1
 92
       12
176
     1
 66
     7
176
     1
 43
1.0
176
     1
 76
     1
176
     1
 77
     6
176
     1
 78
     2
176
     1
 67
     7
176
     1
 79
     5
176
     1
170
     0
176
     1
171
     0
176
     1
290
     0
176
     1
 93
        1
176
     1
 44
0.0
176
     1
173
     0
176
     1
  0
VISUALSTYLE
  5
30
102
{ACAD_REACTORS
330
2A
102
}
102
{ACAD_XDICTIONARY
360
24D
102
}
330
2A
100
AcDbVisualStyle
  2
Wireframe
 70
     5
177
     2
291
     0
 71
     0
176
     1
 72
     2
176
     1
 73
     0
176
     1
 90
        0
176
     1
 40
0.6
176
     1
 41
30.0
176
     1
 62
     5
 63
     7
421
 16777215
176
     1
 74
     1
176
     1
 91
        4
176
     1
 64
     7
176
     1
 65
   257
176
     1
 75
     1
176
     1
175
     1
176
     1
 42
1.0
176
     1
 92
        0
176
     1
 66
   257
176
     1
 43
1.0
176
     1
 76
     1
176
     1
 77
     6
176
     1
 78
     2
176
     1
 67
     7
176
     1
 79
     3
176
     1
170
     0
176
     1
171
     0
176
     1
290
     0
176
     1
 93
        1
176
     1
 44
0.0
176
     1
173
     0
176
     1
  0
VISUALSTYLE
  5
40
102
{ACAD_REACTORS
330
2A
102
}
102
{ACAD_XDICTIONARY
360
26D
102
}
330
2A
100
AcDbVisualStyle
  2
X-Ray
 70
    25
177
     2
291
     0
 71
     2
176
     1
 72
     2
176
     1
 73
     1
176
     1
 90
        1
176
     1
 40
0.5
176
     1
 41
30.0
176
     1
 62
     5
 63
     7
421
 16777215
176
     1
 74
     1
176
     1
 91
        0
176
     1
 64
     7
176
     1
 65
   257
176
     1
 75
     1
176
     1
175
     1
176
     1
 42
1.0
176
     1
 92
        8
176
     1
 66
     7
176
     1
 43
1.0
176
     1
 76
     1
176
     1
 77
     6
176
     1
 78
     2
176
     1
 67
     7
176
     1
 79
     3
176
     1
170
     0
176
     1
171
     0
176
     1
290
     0
176
     1
 93
       13
176
     1
 44
0.0
176
     1
173
     0
176
     1
  0
DICTIONARYVAR
  5
242
102
{ACAD_REACTORS
330
241
102
}
330
241
100
DictionaryVariables
280
     0
  1
1:1
  0
DICTIONARYVAR
  5
277
102
{ACAD_REACTORS
330
241
102
}
330
241
100
DictionaryVariables
280
     0
  1
Standard
  0
DICTIONARYVAR
  5
276
102
{ACAD_REACTORS
330
241
102
}
330
241
100
DictionaryVariables
280
     0
  1
Standard
  0
DICTIONARY
  5
273
330
6A
100
AcDbDictionary
280
     1
281
     1
  3
ACAD_ROUNDTRIP_2008_TABLESTYLE_CELLSTYLEMAP
360
274
  0
DICTIONARY
  5
24B
330
2F
100
AcDbDictionary
280
     1
281
     1
  3
ACAD_XREC_ROUNDTRIP
360
24C
  0
DICTIONARY
  5
251
330
32
100
AcDbDictionary
280
     1
281
     1
  3
ACAD_XREC_ROUNDTRIP
360
252
  0
DICTIONARY
  5
259
330
36
100
AcDbDictionary
280
     1
281
     1
  3
ACAD_XREC_ROUNDTRIP
360
25A
  0
DICTIONARY
  5
261
330
3A
100
AcDbDictionary
280
     1
281
     1
  3
ACAD_XREC_ROUNDTRIP
360
262
  0
DICTIONARY
  5
255
330
34
100
AcDbDictionary
280
     1
281
     1
  3
ACAD_XREC_ROUNDTRIP
360
256
  0
DICTIONARY
  5
257
330
35
100
AcDbDictionary
280
     1
281
     1
  3
ACAD_XREC_ROUNDTRIP
360
258
  0
DICTIONARY
  5
267
330
3D
100
AcDbDictionary
280
     1
281
     1
  3
ACAD_XREC_ROUNDTRIP
360
268
  0
DICTIONARY
  5
25F
330
39
100
AcDbDictionary
280
     1
281
     1
  3
ACAD_XREC_ROUNDTRIP
360
260
  0
DICTIONARY
  5
243
330
2B
100
AcDbDictionary
280
     1
281
     1
  3
ACAD_XREC_ROUNDTRIP
360
244
  0
DICTIONARY
  5
245
330
2C
100
AcDbDictionary
280
     1
281
     1
  3
ACAD_XREC_ROUNDTRIP
360
246
  0
DICTIONARY
  5
247
330
2D
100
AcDbDictionary
280
     1
281
     1
  3
ACAD_XREC_ROUNDTRIP
360
248
  0
DICTIONARY
  5
249
330
2E
100
AcDbDictionary
280
     1
281
     1
  3
ACAD_XREC_ROUNDTRIP
360
24A
  0
DICTIONARY
  5
24F
330
31
100
AcDbDictionary
280
     1
281
     1
  3
ACAD_XREC_ROUNDTRIP
360
250
  0
DICTIONARY
  5
263
330
3B
100
AcDbDictionary
280
     1
281
     1
  3
ACAD_XREC_ROUNDTRIP
360
264
  0
DICTIONARY
  5
25D
330
38
100
AcDbDictionary
280
     1
281
     1
  3
ACAD_XREC_ROUNDTRIP
360
25E
  0
DICTIONARY
  5
265
330
3C
100
AcDbDictionary
280
     1
281
     1
  3
ACAD_XREC_ROUNDTRIP
360
266
  0
DICTIONARY
  5
253
330
33
100
AcDbDictionary
280
     1
281
     1
  3
ACAD_XREC_ROUNDTRIP
360
254
  0
DICTIONARY
  5
271
330
42
100
AcDbDictionary
280
     1
281
     1
  3
ACAD_XREC_ROUNDTRIP
360
272
  0
DICTIONARY
  5
26F
330
41
100
AcDbDictionary
280
     1
281
     1
  3
ACAD_XREC_ROUNDTRIP
360
270
  0
DICTIONARY
  5
269
330
3E
100
AcDbDictionary
280
     1
281
     1
  3
ACAD_XREC_ROUNDTRIP
360
26A
  0
DICTIONARY
  5
26B
330
3F
100
AcDbDictionary
280
     1
281
     1
  3
ACAD_XREC_ROUNDTRIP
360
26C
  0
DICTIONARY
  5
25B
330
37
100
AcDbDictionary
280
     1
281
     1
  3
ACAD_XREC_ROUNDTRIP
360
25C
  0
DICTIONARY
  5
24D
330
30
100
AcDbDictionary
280
     1
281
     1
  3
ACAD_XREC_ROUNDTRIP
360
24E
  0
DICTIONARY
  5
26D
330
40
100
AcDbDictionary
280
     1
281
     1
  3
ACAD_XREC_ROUNDTRIP
360
26E
  0
CELLSTYLEMAP
  5
274
102
{ACAD_REACTORS
330
273
102
}
330
273
100
AcDbCellStyleMap
 90
        3
300
CELLSTYLE
  1
TABLEFORMAT_BEGIN
 90
        5
170
     1
 91
        0
 92
    32768
 62
   257
 93
        1
300
CONTENTFORMAT
  1
CONTENTFORMAT_BEGIN
 90
        0
 91
        0
 92
        4
 93
        0
300

 40
0.0
140
1.0
 94
        5
 62
     0
340
11
144
6.0
309
CONTENTFORMAT_END
171
     1
301
MARGIN
  1
CELLMARGIN_BEGIN
 40
1.5
 40
1.5
 40
1.5
 40
1.5
 40
1.5
 40
1.5
309
CELLMARGIN_END
 94
        6
 95
        1
302
GRIDFORMAT
  1
GRIDFORMAT_BEGIN
 90
        0
 91
        1
 62
     0
 92
       -2
340
14
 93
        0
 40
0.045
309
GRIDFORMAT_END
 95
        2
302
GRIDFORMAT
  1
GRIDFORMAT_BEGIN
 90
        0
 91
        1
 62
     0
 92
       -2
340
14
 93
        0
 40
0.045
309
GRIDFORMAT_END
 95
        4
302
GRIDFORMAT
  1
GRIDFORMAT_BEGIN
 90
        0
 91
        1
 62
     0
 92
       -2
340
14
 93
        0
 40
0.045
309
GRIDFORMAT_END
 95
        8
302
GRIDFORMAT
  1
GRIDFORMAT_BEGIN
 90
        0
 91
        1
 62
     0
 92
       -2
340
14
 93
        0
 40
0.045
309
GRIDFORMAT_END
 95
       16
302
GRIDFORMAT
  1
GRIDFORMAT_BEGIN
 90
        0
 91
        1
 62
     0
 92
       -2
340
14
 93
        0
 40
0.045
309
GRIDFORMAT_END
 95
       32
302
GRIDFORMAT
  1
GRIDFORMAT_BEGIN
 90
        0
 91
        1
 62
     0
 92
       -2
340
14
 93
        0
 40
0.045
309
GRIDFORMAT_END
309
TABLEFORMAT_END
  1
CELLSTYLE_BEGIN
 90
        1
 91
        1
300
_TITLE
309
CELLSTYLE_END
300
CELLSTYLE
  1
TABLEFORMAT_BEGIN
 90
        5
170
     1
 91
        0
 92
        0
 62
   257
 93
        1
300
CONTENTFORMAT
  1
CONTENTFORMAT_BEGIN
 90
        0
 91
        0
 92
        4
 93
        0
300

 40
0.0
140
1.0
 94
        5
 62
     0
340
11
144
4.5
309
CONTENTFORMAT_END
171
     1
301
MARGIN
  1
CELLMARGIN_BEGIN
 40
1.5
 40
1.5
 40
1.5
 40
1.5
 40
1.5
 40
1.5
309
CELLMARGIN_END
 94
        6
 95
        1
302
GRIDFORMAT
  1
GRIDFORMAT_BEGIN
 90
        0
 91
        1
 62
     0
 92
       -2
340
14
 93
        0
 40
0.045
309
GRIDFORMAT_END
 95
        2
302
GRIDFORMAT
  1
GRIDFORMAT_BEGIN
 90
        0
 91
        1
 62
     0
 92
       -2
340
14
 93
        0
 40
0.045
309
GRIDFORMAT_END
 95
        4
302
GRIDFORMAT
  1
GRIDFORMAT_BEGIN
 90
        0
 91
        1
 62
     0
 92
       -2
340
14
 93
        0
 40
0.045
309
GRIDFORMAT_END
 95
        8
302
GRIDFORMAT
  1
GRIDFORMAT_BEGIN
 90
        0
 91
        1
 62
     0
 92
       -2
340
14
 93
        0
 40
0.045
309
GRIDFORMAT_END
 95
       16
302
GRIDFORMAT
  1
GRIDFORMAT_BEGIN
 90
        0
 91
        1
 62
     0
 92
       -2
340
14
 93
        0
 40
0.045
309
GRIDFORMAT_END
 95
       32
302
GRIDFORMAT
  1
GRIDFORMAT_BEGIN
 90
        0
 91
        1
 62
     0
 92
       -2
340
14
 93
        0
 40
0.045
309
GRIDFORMAT_END
309
TABLEFORMAT_END
  1
CELLSTYLE_BEGIN
 90
        2
 91
        1
300
_HEADER
309
CELLSTYLE_END
300
CELLSTYLE
  1
TABLEFORMAT_BEGIN
 90
        5
170
     1
 91
        0
 92
        0
 62
   257
 93
        1
300
CONTENTFORMAT
  1
CONTENTFORMAT_BEGIN
 90
        0
 91
        0
 92
        4
 93
        0
300

 40
0.0
140
1.0
 94
        2
 62
     0
340
11
144
4.5
309
CONTENTFORMAT_END
171
     1
301
MARGIN
  1
CELLMARGIN_BEGIN
 40
1.5
 40
1.5
 40
1.5
 40
1.5
 40
1.5
 40
1.5
309
CELLMARGIN_END
 94
        6
 95
        1
302
GRIDFORMAT
  1
GRIDFORMAT_BEGIN
 90
        0
 91
        1
 62
     0
 92
       -2
340
14
 93
        0
 40
0.045
309
GRIDFORMAT_END
 95
        2
302
GRIDFORMAT
  1
GRIDFORMAT_BEGIN
 90
        0
 91
        1
 62
     0
 92
       -2
340
14
 93
        0
 40
0.045
309
GRIDFORMAT_END
 95
        4
302
GRIDFORMAT
  1
GRIDFORMAT_BEGIN
 90
        0
 91
        1
 62
     0
 92
       -2
340
14
 93
        0
 40
0.045
309
GRIDFORMAT_END
 95
        8
302
GRIDFORMAT
  1
GRIDFORMAT_BEGIN
 90
        0
 91
        1
 62
     0
 92
       -2
340
14
 93
        0
 40
0.045
309
GRIDFORMAT_END
 95
       16
302
GRIDFORMAT
  1
GRIDFORMAT_BEGIN
 90
        0
 91
        1
 62
     0
 92
       -2
340
14
 93
        0
 40
0.045
309
GRIDFORMAT_END
 95
       32
302
GRIDFORMAT
  1
GRIDFORMAT_BEGIN
 90
        0
 91
        1
 62
     0
 92
       -2
340
14
 93
        0
 40
0.045
309
GRIDFORMAT_END
309
TABLEFORMAT_END
  1
CELLSTYLE_BEGIN
 90
        3
 91
        2
300
_DATA
309
CELLSTYLE_END
  0
XRECORD
  5
24C
102
{ACAD_REACTORS
330
24B
102
}
330
24B
100
AcDbXrecord
280
     1
102
RTVSPost2010Prop28
280
     1
102
RTVSPost2010PropOp28
 70
     1
102
RTVSPost2010Prop29
280
     1
102
RTVSPost2010PropOp29
 70
     1
102
RTVSPost2010Prop30
280
     0
102
RTVSPost2010PropOp30
 70
     1
102
RTVSPost2010Prop31
280
     0
102
RTVSPost2010PropOp31
 70
     1
102
RTVSPost2010Prop32
280
     0
102
RTVSPost2010PropOp32
 70
     1
102
RTVSPost2010Prop33
280
     0
102
RTVSPost2010PropOp33
 70
     1
102
RTVSPost2010Prop34
280
     0
102
RTVSPost2010PropOp34
 70
     1
102
RTVSPost2010Prop35
280
     0
102
RTVSPost2010PropOp35
 70
     1
102
RTVSPost2010Prop36
280
     0
102
RTVSPost2010PropOp36
 70
     1
102
RTVSPost2010Prop37
 90
       50
102
RTVSPost2010PropOp37
 70
     1
102
RTVSPost2010Prop38
140
0.0
102
RTVSPost2010PropOp38
 70
     1
102
RTVSPost2010Prop39
140
1.0
102
RTVSPost2010PropOp39
 70
     1
102
RTVSPost2010Prop40
 90
        0
102
RTVSPost2010PropOp40
 70
     1
102
RTVSPost2010Prop41ColorIndex
 90
       18
102
RTVSPost2010Prop41ColorRGB
 90
        0
102
RTVSPost2010PropOp41
 70
     1
102
RTVSPost2010Prop42
 90
       50
102
RTVSPost2010PropOp42
 70
     1
102
RTVSPost2010Prop43
 90
        3
102
RTVSPost2010PropOp43
 70
     1
102
RTVSPost2010Prop44ColorIndex
 90
        5
102
RTVSPost2010Prop44ColorRGB
 90
      255
102
RTVSPost2010PropOp44
 70
     1
102
RTVSPost2010Prop45
280
     0
102
RTVSPost2010PropOp45
 70
     1
102
RTVSPost2010Prop46
 90
       50
102
RTVSPost2010PropOp46
 70
     1
102
RTVSPost2010Prop47
 90
       50
102
RTVSPost2010PropOp47
 70
     1
102
RTVSPost2010Prop48
 90
       50
102
RTVSPost2010PropOp48
 70
     1
102
RTVSPost2010Prop49
280
     0
102
RTVSPost2010PropOp49
 70
     1
102
RTVSPost2010Prop50
 90
       50
102
RTVSPost2010PropOp50
 70
     1
102
RTVSPost2010Prop51ColorIndex
 90
      256
102
RTVSPost2010Prop51ColorRGB
 90
-16777216
102
RTVSPost2010PropOp51
 70
     0
102
RTVSPost2010Prop52
140
1.0
102
RTVSPost2010PropOp52
 70
     0
102
RTVSPost2010Prop53
 90
        2
102
RTVSPost2010PropOp53
 70
     1
102
RTVSPost2010Prop54
  1
strokes_ogs.tif
102
RTVSPost2010PropOp54
 70
     1
102
RTVSPost2010Prop55
280
     0
102
RTVSPost2010PropOp55
 70
     1
102
RTVSPost2010Prop56
140
1.0
102
RTVSPost2010PropOp56
 70
     1
102
RTVSPost2010Prop57
140
1.0
102
RTVSPost2010PropOp57
 70
     1
  0
XRECORD
  5
252
102
{ACAD_REACTORS
330
251
102
}
330
251
100
AcDbXrecord
280
     1
102
RTVSPost2010Prop28
280
     0
102
RTVSPost2010PropOp28
 70
     1
102
RTVSPost2010Prop29
280
     1
102
RTVSPost2010PropOp29
 70
     1
102
RTVSPost2010Prop30
280
     1
102
RTVSPost2010PropOp30
 70
     1
102
RTVSPost2010Prop31
280
     0
102
RTVSPost2010PropOp31
 70
     1
102
RTVSPost2010Prop32
280
     0
102
RTVSPost2010PropOp32
 70
     1
102
RTVSPost2010Prop33
280
     0
102
RTVSPost2010PropOp33
 70
     1
102
RTVSPost2010Prop34
280
     0
102
RTVSPost2010PropOp34
 70
     1
102
RTVSPost2010Prop35
280
     0
102
RTVSPost2010PropOp35
 70
     1
102
RTVSPost2010Prop36
280
     0
102
RTVSPost2010PropOp36
 70
     1
102
RTVSPost2010Prop37
 90
       50
102
RTVSPost2010PropOp37
 70
     1
102
RTVSPost2010Prop38
140
0.0
102
RTVSPost2010PropOp38
 70
     1
102
RTVSPost2010Prop39
140
1.0
102
RTVSPost2010PropOp39
 70
     1
102
RTVSPost2010Prop40
 90
        0
102
RTVSPost2010PropOp40
 70
     1
102
RTVSPost2010Prop41ColorIndex
 90
       18
102
RTVSPost2010Prop41ColorRGB
 90
        0
102
RTVSPost2010PropOp41
 70
     1
102
RTVSPost2010Prop42
 90
       50
102
RTVSPost2010PropOp42
 70
     1
102
RTVSPost2010Prop43
 90
        3
102
RTVSPost2010PropOp43
 70
     1
102
RTVSPost2010Prop44ColorIndex
 90
        5
102
RTVSPost2010Prop44ColorRGB
 90
      255
102
RTVSPost2010PropOp44
 70
     1
102
RTVSPost2010Prop45
280
     0
102
RTVSPost2010PropOp45
 70
     1
102
RTVSPost2010Prop46
 90
       50
102
RTVSPost2010PropOp46
 70
     1
102
RTVSPost2010Prop47
 90
       50
102
RTVSPost2010PropOp47
 70
     1
102
RTVSPost2010Prop48
 90
       50
102
RTVSPost2010PropOp48
 70
     1
102
RTVSPost2010Prop49
280
     0
102
RTVSPost2010PropOp49
 70
     1
102
RTVSPost2010Prop50
 90
       50
102
RTVSPost2010PropOp50
 70
     1
102
RTVSPost2010Prop51ColorIndex
 90
      256
102
RTVSPost2010Prop51ColorRGB
 90
-16777216
102
RTVSPost2010PropOp51
 70
     0
102
RTVSPost2010Prop52
140
1.0
102
RTVSPost2010PropOp52
 70
     0
102
RTVSPost2010Prop53
 90
        2
102
RTVSPost2010PropOp53
 70
     1
102
RTVSPost2010Prop54
  1
strokes_ogs.tif
102
RTVSPost2010PropOp54
 70
     1
102
RTVSPost2010Prop55
280
     0
102
RTVSPost2010PropOp55
 70
     1
102
RTVSPost2010Prop56
140
1.0
102
RTVSPost2010PropOp56
 70
     1
102
RTVSPost2010Prop57
140
1.0
102
RTVSPost2010PropOp57
 70
     1
  0
XRECORD
  5
25A
102
{ACAD_REACTORS
330
259
102
}
330
259
100
AcDbXrecord
280
     1
102
RTVSPost2010Prop28
280
     0
102
RTVSPost2010PropOp28
 70
     1
102
RTVSPost2010Prop29
280
     1
102
RTVSPost2010PropOp29
 70
     1
102
RTVSPost2010Prop30
280
     1
102
RTVSPost2010PropOp30
 70
     1
102
RTVSPost2010Prop31
280
     0
102
RTVSPost2010PropOp31
 70
     1
102
RTVSPost2010Prop32
280
     0
102
RTVSPost2010PropOp32
 70
     1
102
RTVSPost2010Prop33
280
     0
102
RTVSPost2010PropOp33
 70
     1
102
RTVSPost2010Prop34
280
     0
102
RTVSPost2010PropOp34
 70
     1
102
RTVSPost2010Prop35
280
     0
102
RTVSPost2010PropOp35
 70
     1
102
RTVSPost2010Prop36
280
     0
102
RTVSPost2010PropOp36
 70
     1
102
RTVSPost2010Prop37
 90
       50
102
RTVSPost2010PropOp37
 70
     1
102
RTVSPost2010Prop38
140
0.0
102
RTVSPost2010PropOp38
 70
     1
102
RTVSPost2010Prop39
140
1.0
102
RTVSPost2010PropOp39
 70
     1
102
RTVSPost2010Prop40
 90
        0
102
RTVSPost2010PropOp40
 70
     1
102
RTVSPost2010Prop41ColorIndex
 90
       18
102
RTVSPost2010Prop41ColorRGB
 90
        0
102
RTVSPost2010PropOp41
 70
     1
102
RTVSPost2010Prop42
 90
       50
102
RTVSPost2010PropOp42
 70
     1
102
RTVSPost2010Prop43
 90
        3
102
RTVSPost2010PropOp43
 70
     1
102
RTVSPost2010Prop44ColorIndex
 90
        5
102
RTVSPost2010Prop44ColorRGB
 90
      255
102
RTVSPost2010PropOp44
 70
     1
102
RTVSPost2010Prop45
280
     0
102
RTVSPost2010PropOp45
 70
     1
102
RTVSPost2010Prop46
 90
       50
102
RTVSPost2010PropOp46
 70
     1
102
RTVSPost2010Prop47
 90
       50
102
RTVSPost2010PropOp47
 70
     1
102
RTVSPost2010Prop48
 90
       50
102
RTVSPost2010PropOp48
 70
     1
102
RTVSPost2010Prop49
280
     0
102
RTVSPost2010PropOp49
 70
     1
102
RTVSPost2010Prop50
 90
       50
102
RTVSPost2010PropOp50
 70
     1
102
RTVSPost2010Prop51ColorIndex
 90
      256
102
RTVSPost2010Prop51ColorRGB
 90
-16777216
102
RTVSPost2010PropOp51
 70
     0
102
RTVSPost2010Prop52
140
1.0
102
RTVSPost2010PropOp52
 70
     0
102
RTVSPost2010Prop53
 90
        2
102
RTVSPost2010PropOp53
 70
     1
102
RTVSPost2010Prop54
  1
strokes_ogs.tif
102
RTVSPost2010PropOp54
 70
     1
102
RTVSPost2010Prop55
280
     0
102
RTVSPost2010PropOp55
 70
     1
102
RTVSPost2010Prop56
140
1.0
102
RTVSPost2010PropOp56
 70
     1
102
RTVSPost2010Prop57
140
1.0
102
RTVSPost2010PropOp57
 70
     1
  0
XRECORD
  5
262
102
{ACAD_REACTORS
330
261
102
}
330
261
100
AcDbXrecord
280
     1
102
RTVSPost2010Prop28
280
     0
102
RTVSPost2010PropOp28
 70
     1
102
RTVSPost2010Prop29
280
     1
102
RTVSPost2010PropOp29
 70
     1
102
RTVSPost2010Prop30
280
     1
102
RTVSPost2010PropOp30
 70
     1
102
RTVSPost2010Prop31
280
     0
102
RTVSPost2010PropOp31
 70
     1
102
RTVSPost2010Prop32
280
     0
102
RTVSPost2010PropOp32
 70
     1
102
RTVSPost2010Prop33
280
     0
102
RTVSPost2010PropOp33
 70
     1
102
RTVSPost2010Prop34
280
     0
102
RTVSPost2010PropOp34
 70
     1
102
RTVSPost2010Prop35
280
     0
102
RTVSPost2010PropOp35
 70
     1
102
RTVSPost2010Prop36
280
     0
102
RTVSPost2010PropOp36
 70
     1
102
RTVSPost2010Prop37
 90
       50
102
RTVSPost2010PropOp37
 70
     1
102
RTVSPost2010Prop38
140
0.0
102
RTVSPost2010PropOp38
 70
     1
102
RTVSPost2010Prop39
140
1.0
102
RTVSPost2010PropOp39
 70
     1
102
RTVSPost2010Prop40
 90
        0
102
RTVSPost2010PropOp40
 70
     1
102
RTVSPost2010Prop41ColorIndex
 90
       18
102
RTVSPost2010Prop41ColorRGB
 90
        0
102
RTVSPost2010PropOp41
 70
     1
102
RTVSPost2010Prop42
 90
       50
102
RTVSPost2010PropOp42
 70
     1
102
RTVSPost2010Prop43
 90
        3
102
RTVSPost2010PropOp43
 70
     1
102
RTVSPost2010Prop44ColorIndex
 90
        5
102
RTVSPost2010Prop44ColorRGB
 90
      255
102
RTVSPost2010PropOp44
 70
     1
102
RTVSPost2010Prop45
280
     0
102
RTVSPost2010PropOp45
 70
     1
102
RTVSPost2010Prop46
 90
       50
102
RTVSPost2010PropOp46
 70
     1
102
RTVSPost2010Prop47
 90
       50
102
RTVSPost2010PropOp47
 70
     1
102
RTVSPost2010Prop48
 90
       50
102
RTVSPost2010PropOp48
 70
     1
102
RTVSPost2010Prop49
280
     0
102
RTVSPost2010PropOp49
 70
     1
102
RTVSPost2010Prop50
 90
       50
102
RTVSPost2010PropOp50
 70
     1
102
RTVSPost2010Prop51ColorIndex
 90
      256
102
RTVSPost2010Prop51ColorRGB
 90
-16777216
102
RTVSPost2010PropOp51
 70
     0
102
RTVSPost2010Prop52
140
1.0
102
RTVSPost2010PropOp52
 70
     0
102
RTVSPost2010Prop53
 90
        2
102
RTVSPost2010PropOp53
 70
     1
102
RTVSPost2010Prop54
  1
strokes_ogs.tif
102
RTVSPost2010PropOp54
 70
     1
102
RTVSPost2010Prop55
280
     0
102
RTVSPost2010PropOp55
 70
     1
102
RTVSPost2010Prop56
140
1.0
102
RTVSPost2010PropOp56
 70
     1
102
RTVSPost2010Prop57
140
1.0
102
RTVSPost2010PropOp57
 70
     1
  0
XRECORD
  5
256
102
{ACAD_REACTORS
330
255
102
}
330
255
100
AcDbXrecord
280
     1
102
RTVSPost2010Prop28
280
     0
102
RTVSPost2010PropOp28
 70
     1
102
RTVSPost2010Prop29
280
     1
102
RTVSPost2010PropOp29
 70
     1
102
RTVSPost2010Prop30
280
     1
102
RTVSPost2010PropOp30
 70
     1
102
RTVSPost2010Prop31
280
     0
102
RTVSPost2010PropOp31
 70
     1
102
RTVSPost2010Prop32
280
     0
102
RTVSPost2010PropOp32
 70
     1
102
RTVSPost2010Prop33
280
     0
102
RTVSPost2010PropOp33
 70
     1
102
RTVSPost2010Prop34
280
     0
102
RTVSPost2010PropOp34
 70
     1
102
RTVSPost2010Prop35
280
     0
102
RTVSPost2010PropOp35
 70
     1
102
RTVSPost2010Prop36
280
     0
102
RTVSPost2010PropOp36
 70
     1
102
RTVSPost2010Prop37
 90
       50
102
RTVSPost2010PropOp37
 70
     1
102
RTVSPost2010Prop38
140
0.0
102
RTVSPost2010PropOp38
 70
     1
102
RTVSPost2010Prop39
140
1.0
102
RTVSPost2010PropOp39
 70
     1
102
RTVSPost2010Prop40
 90
        0
102
RTVSPost2010PropOp40
 70
     1
102
RTVSPost2010Prop41ColorIndex
 90
       18
102
RTVSPost2010Prop41ColorRGB
 90
        0
102
RTVSPost2010PropOp41
 70
     1
102
RTVSPost2010Prop42
 90
       50
102
RTVSPost2010PropOp42
 70
     1
102
RTVSPost2010Prop43
 90
        3
102
RTVSPost2010PropOp43
 70
     1
102
RTVSPost2010Prop44ColorIndex
 90
        5
102
RTVSPost2010Prop44ColorRGB
 90
      255
102
RTVSPost2010PropOp44
 70
     1
102
RTVSPost2010Prop45
280
     0
102
RTVSPost2010PropOp45
 70
     1
102
RTVSPost2010Prop46
 90
       50
102
RTVSPost2010PropOp46
 70
     1
102
RTVSPost2010Prop47
 90
       50
102
RTVSPost2010PropOp47
 70
     1
102
RTVSPost2010Prop48
 90
       50
102
RTVSPost2010PropOp48
 70
     1
102
RTVSPost2010Prop49
280
     0
102
RTVSPost2010PropOp49
 70
     1
102
RTVSPost2010Prop50
 90
       50
102
RTVSPost2010PropOp50
 70
     1
102
RTVSPost2010Prop51ColorIndex
 90
      256
102
RTVSPost2010Prop51ColorRGB
 90
-16777216
102
RTVSPost2010PropOp51
 70
     0
102
RTVSPost2010Prop52
140
1.0
102
RTVSPost2010PropOp52
 70
     0
102
RTVSPost2010Prop53
 90
        2
102
RTVSPost2010PropOp53
 70
     1
102
RTVSPost2010Prop54
  1
strokes_ogs.tif
102
RTVSPost2010PropOp54
 70
     1
102
RTVSPost2010Prop55
280
     0
102
RTVSPost2010PropOp55
 70
     1
102
RTVSPost2010Prop56
140
1.0
102
RTVSPost2010PropOp56
 70
     1
102
RTVSPost2010Prop57
140
1.0
102
RTVSPost2010PropOp57
 70
     1
  0
XRECORD
  5
258
102
{ACAD_REACTORS
330
257
102
}
330
257
100
AcDbXrecord
280
     1
102
RTVSPost2010Prop28
280
     0
102
RTVSPost2010PropOp28
 70
     1
102
RTVSPost2010Prop29
280
     1
102
RTVSPost2010PropOp29
 70
     1
102
RTVSPost2010Prop30
280
     1
102
RTVSPost2010PropOp30
 70
     1
102
RTVSPost2010Prop31
280
     0
102
RTVSPost2010PropOp31
 70
     1
102
RTVSPost2010Prop32
280
     0
102
RTVSPost2010PropOp32
 70
     1
102
RTVSPost2010Prop33
280
     0
102
RTVSPost2010PropOp33
 70
     1
102
RTVSPost2010Prop34
280
     0
102
RTVSPost2010PropOp34
 70
     1
102
RTVSPost2010Prop35
280
     0
102
RTVSPost2010PropOp35
 70
     1
102
RTVSPost2010Prop36
280
     0
102
RTVSPost2010PropOp36
 70
     1
102
RTVSPost2010Prop37
 90
       50
102
RTVSPost2010PropOp37
 70
     1
102
RTVSPost2010Prop38
140
0.0
102
RTVSPost2010PropOp38
 70
     1
102
RTVSPost2010Prop39
140
1.0
102
RTVSPost2010PropOp39
 70
     1
102
RTVSPost2010Prop40
 90
        0
102
RTVSPost2010PropOp40
 70
     1
102
RTVSPost2010Prop41ColorIndex
 90
       18
102
RTVSPost2010Prop41ColorRGB
 90
        0
102
RTVSPost2010PropOp41
 70
     1
102
RTVSPost2010Prop42
 90
       50
102
RTVSPost2010PropOp42
 70
     1
102
RTVSPost2010Prop43
 90
        3
102
RTVSPost2010PropOp43
 70
     1
102
RTVSPost2010Prop44ColorIndex
 90
        5
102
RTVSPost2010Prop44ColorRGB
 90
      255
102
RTVSPost2010PropOp44
 70
     1
102
RTVSPost2010Prop45
280
     0
102
RTVSPost2010PropOp45
 70
     1
102
RTVSPost2010Prop46
 90
       50
102
RTVSPost2010PropOp46
 70
     1
102
RTVSPost2010Prop47
 90
       50
102
RTVSPost2010PropOp47
 70
     1
102
RTVSPost2010Prop48
 90
       50
102
RTVSPost2010PropOp48
 70
     1
102
RTVSPost2010Prop49
280
     0
102
RTVSPost2010PropOp49
 70
     1
102
RTVSPost2010Prop50
 90
       50
102
RTVSPost2010PropOp50
 70
     1
102
RTVSPost2010Prop51ColorIndex
 90
      256
102
RTVSPost2010Prop51ColorRGB
 90
-16777216
102
RTVSPost2010PropOp51
 70
     0
102
RTVSPost2010Prop52
140
1.0
102
RTVSPost2010PropOp52
 70
     0
102
RTVSPost2010Prop53
 90
        2
102
RTVSPost2010PropOp53
 70
     1
102
RTVSPost2010Prop54
  1
strokes_ogs.tif
102
RTVSPost2010PropOp54
 70
     1
102
RTVSPost2010Prop55
280
     0
102
RTVSPost2010PropOp55
 70
     1
102
RTVSPost2010Prop56
140
1.0
102
RTVSPost2010PropOp56
 70
     1
102
RTVSPost2010Prop57
140
1.0
102
RTVSPost2010PropOp57
 70
     1
  0
XRECORD
  5
268
102
{ACAD_REACTORS
330
267
102
}
330
267
100
AcDbXrecord
280
     1
102
RTVSPost2010Prop28
280
     0
102
RTVSPost2010PropOp28
 70
     0
102
RTVSPost2010Prop29
280
     1
102
RTVSPost2010PropOp29
 70
     0
102
RTVSPost2010Prop30
280
     1
102
RTVSPost2010PropOp30
 70
     0
102
RTVSPost2010Prop31
280
     0
102
RTVSPost2010PropOp31
 70
     0
102
RTVSPost2010Prop32
280
     0
102
RTVSPost2010PropOp32
 70
     0
102
RTVSPost2010Prop33
280
     0
102
RTVSPost2010PropOp33
 70
     0
102
RTVSPost2010Prop34
280
     0
102
RTVSPost2010PropOp34
 70
     0
102
RTVSPost2010Prop35
280
     0
102
RTVSPost2010PropOp35
 70
     0
102
RTVSPost2010Prop36
280
     0
102
RTVSPost2010PropOp36
 70
     0
102
RTVSPost2010Prop37
 90
       50
102
RTVSPost2010PropOp37
 70
     0
102
RTVSPost2010Prop38
140
0.0
102
RTVSPost2010PropOp38
 70
     0
102
RTVSPost2010Prop39
140
1.0
102
RTVSPost2010PropOp39
 70
     0
102
RTVSPost2010Prop40
 90
        0
102
RTVSPost2010PropOp40
 70
     0
102
RTVSPost2010Prop41ColorIndex
 90
       18
102
RTVSPost2010Prop41ColorRGB
 90
        0
102
RTVSPost2010PropOp41
 70
     0
102
RTVSPost2010Prop42
 90
       50
102
RTVSPost2010PropOp42
 70
     0
102
RTVSPost2010Prop43
 90
        3
102
RTVSPost2010PropOp43
 70
     0
102
RTVSPost2010Prop44ColorIndex
 90
        5
102
RTVSPost2010Prop44ColorRGB
 90
      255
102
RTVSPost2010PropOp44
 70
     0
102
RTVSPost2010Prop45
280
     0
102
RTVSPost2010PropOp45
 70
     0
102
RTVSPost2010Prop46
 90
       50
102
RTVSPost2010PropOp46
 70
     0
102
RTVSPost2010Prop47
 90
       50
102
RTVSPost2010PropOp47
 70
     0
102
RTVSPost2010Prop48
 90
       50
102
RTVSPost2010PropOp48
 70
     0
102
RTVSPost2010Prop49
280
     0
102
RTVSPost2010PropOp49
 70
     0
102
RTVSPost2010Prop50
 90
       50
102
RTVSPost2010PropOp50
 70
     0
102
RTVSPost2010Prop51ColorIndex
 90
      256
102
RTVSPost2010Prop51ColorRGB
 90
-16777216
102
RTVSPost2010PropOp51
 70
     0
102
RTVSPost2010Prop52
140
1.0
102
RTVSPost2010PropOp52
 70
     0
102
RTVSPost2010Prop53
 90
        2
102
RTVSPost2010PropOp53
 70
     0
102
RTVSPost2010Prop54
  1
strokes_ogs.tif
102
RTVSPost2010PropOp54
 70
     0
102
RTVSPost2010Prop55
280
     0
102
RTVSPost2010PropOp55
 70
     0
102
RTVSPost2010Prop56
140
1.0
102
RTVSPost2010PropOp56
 70
     0
102
RTVSPost2010Prop57
140
1.0
102
RTVSPost2010PropOp57
 70
     0
  0
XRECORD
  5
260
102
{ACAD_REACTORS
330
25F
102
}
330
25F
100
AcDbXrecord
280
     1
102
RTVSPost2010Prop28
280
     0
102
RTVSPost2010PropOp28
 70
     1
102
RTVSPost2010Prop29
280
     1
102
RTVSPost2010PropOp29
 70
     1
102
RTVSPost2010Prop30
280
     1
102
RTVSPost2010PropOp30
 70
     1
102
RTVSPost2010Prop31
280
     0
102
RTVSPost2010PropOp31
 70
     1
102
RTVSPost2010Prop32
280
     0
102
RTVSPost2010PropOp32
 70
     1
102
RTVSPost2010Prop33
280
     0
102
RTVSPost2010PropOp33
 70
     1
102
RTVSPost2010Prop34
280
     0
102
RTVSPost2010PropOp34
 70
     1
102
RTVSPost2010Prop35
280
     0
102
RTVSPost2010PropOp35
 70
     1
102
RTVSPost2010Prop36
280
     0
102
RTVSPost2010PropOp36
 70
     1
102
RTVSPost2010Prop37
 90
       50
102
RTVSPost2010PropOp37
 70
     1
102
RTVSPost2010Prop38
140
0.0
102
RTVSPost2010PropOp38
 70
     1
102
RTVSPost2010Prop39
140
1.0
102
RTVSPost2010PropOp39
 70
     1
102
RTVSPost2010Prop40
 90
        0
102
RTVSPost2010PropOp40
 70
     1
102
RTVSPost2010Prop41ColorIndex
 90
       18
102
RTVSPost2010Prop41ColorRGB
 90
        0
102
RTVSPost2010PropOp41
 70
     1
102
RTVSPost2010Prop42
 90
       50
102
RTVSPost2010PropOp42
 70
     1
102
RTVSPost2010Prop43
 90
        3
102
RTVSPost2010PropOp43
 70
     1
102
RTVSPost2010Prop44ColorIndex
 90
        5
102
RTVSPost2010Prop44ColorRGB
 90
      255
102
RTVSPost2010PropOp44
 70
     1
102
RTVSPost2010Prop45
280
     0
102
RTVSPost2010PropOp45
 70
     1
102
RTVSPost2010Prop46
 90
       50
102
RTVSPost2010PropOp46
 70
     1
102
RTVSPost2010Prop47
 90
       50
102
RTVSPost2010PropOp47
 70
     1
102
RTVSPost2010Prop48
 90
       50
102
RTVSPost2010PropOp48
 70
     1
102
RTVSPost2010Prop49
280
     0
102
RTVSPost2010PropOp49
 70
     1
102
RTVSPost2010Prop50
 90
       50
102
RTVSPost2010PropOp50
 70
     1
102
RTVSPost2010Prop51ColorIndex
 90
      256
102
RTVSPost2010Prop51ColorRGB
 90
-16777216
102
RTVSPost2010PropOp51
 70
     0
102
RTVSPost2010Prop52
140
1.0
102
RTVSPost2010PropOp52
 70
     0
102
RTVSPost2010Prop53
 90
        2
102
RTVSPost2010PropOp53
 70
     1
102
RTVSPost2010Prop54
  1
strokes_ogs.tif
102
RTVSPost2010PropOp54
 70
     1
102
RTVSPost2010Prop55
280
     0
102
RTVSPost2010PropOp55
 70
     1
102
RTVSPost2010Prop56
140
1.0
102
RTVSPost2010PropOp56
 70
     1
102
RTVSPost2010Prop57
140
1.0
102
RTVSPost2010PropOp57
 70
     1
  0
XRECORD
  5
244
102
{ACAD_REACTORS
330
243
102
}
330
243
100
AcDbXrecord
280
     1
102
RTVSPost2010Prop28
280
     0
102
RTVSPost2010PropOp28
 70
     1
102
RTVSPost2010Prop29
280
     1
102
RTVSPost2010PropOp29
 70
     1
102
RTVSPost2010Prop30
280
     1
102
RTVSPost2010PropOp30
 70
     1
102
RTVSPost2010Prop31
280
     0
102
RTVSPost2010PropOp31
 70
     1
102
RTVSPost2010Prop32
280
     0
102
RTVSPost2010PropOp32
 70
     1
102
RTVSPost2010Prop33
280
     0
102
RTVSPost2010PropOp33
 70
     1
102
RTVSPost2010Prop34
280
     0
102
RTVSPost2010PropOp34
 70
     1
102
RTVSPost2010Prop35
280
     0
102
RTVSPost2010PropOp35
 70
     1
102
RTVSPost2010Prop36
280
     0
102
RTVSPost2010PropOp36
 70
     1
102
RTVSPost2010Prop37
 90
       50
102
RTVSPost2010PropOp37
 70
     1
102
RTVSPost2010Prop38
140
0.0
102
RTVSPost2010PropOp38
 70
     1
102
RTVSPost2010Prop39
140
1.0
102
RTVSPost2010PropOp39
 70
     1
102
RTVSPost2010Prop40
 90
        0
102
RTVSPost2010PropOp40
 70
     1
102
RTVSPost2010Prop41ColorIndex
 90
       18
102
RTVSPost2010Prop41ColorRGB
 90
        0
102
RTVSPost2010PropOp41
 70
     1
102
RTVSPost2010Prop42
 90
       50
102
RTVSPost2010PropOp42
 70
     1
102
RTVSPost2010Prop43
 90
        3
102
RTVSPost2010PropOp43
 70
     1
102
RTVSPost2010Prop44ColorIndex
 90
        5
102
RTVSPost2010Prop44ColorRGB
 90
      255
102
RTVSPost2010PropOp44
 70
     1
102
RTVSPost2010Prop45
280
     0
102
RTVSPost2010PropOp45
 70
     1
102
RTVSPost2010Prop46
 90
       50
102
RTVSPost2010PropOp46
 70
     1
102
RTVSPost2010Prop47
 90
       50
102
RTVSPost2010PropOp47
 70
     1
102
RTVSPost2010Prop48
 90
       50
102
RTVSPost2010PropOp48
 70
     1
102
RTVSPost2010Prop49
280
     0
102
RTVSPost2010PropOp49
 70
     1
102
RTVSPost2010Prop50
 90
       50
102
RTVSPost2010PropOp50
 70
     1
102
RTVSPost2010Prop51ColorIndex
 90
      256
102
RTVSPost2010Prop51ColorRGB
 90
-16777216
102
RTVSPost2010PropOp51
 70
     0
102
RTVSPost2010Prop52
140
1.0
102
RTVSPost2010PropOp52
 70
     0
102
RTVSPost2010Prop53
 90
        2
102
RTVSPost2010PropOp53
 70
     1
102
RTVSPost2010Prop54
  1
strokes_ogs.tif
102
RTVSPost2010PropOp54
 70
     1
102
RTVSPost2010Prop55
280
     0
102
RTVSPost2010PropOp55
 70
     1
102
RTVSPost2010Prop56
140
1.0
102
RTVSPost2010PropOp56
 70
     1
102
RTVSPost2010Prop57
140
1.0
102
RTVSPost2010PropOp57
 70
     1
  0
XRECORD
  5
246
102
{ACAD_REACTORS
330
245
102
}
330
245
100
AcDbXrecord
280
     1
102
RTVSPost2010Prop28
280
     0
102
RTVSPost2010PropOp28
 70
     1
102
RTVSPost2010Prop29
280
     1
102
RTVSPost2010PropOp29
 70
     1
102
RTVSPost2010Prop30
280
     1
102
RTVSPost2010PropOp30
 70
     1
102
RTVSPost2010Prop31
280
     0
102
RTVSPost2010PropOp31
 70
     1
102
RTVSPost2010Prop32
280
     0
102
RTVSPost2010PropOp32
 70
     1
102
RTVSPost2010Prop33
280
     0
102
RTVSPost2010PropOp33
 70
     1
102
RTVSPost2010Prop34
280
     0
102
RTVSPost2010PropOp34
 70
     1
102
RTVSPost2010Prop35
280
     0
102
RTVSPost2010PropOp35
 70
     1
102
RTVSPost2010Prop36
280
     0
102
RTVSPost2010PropOp36
 70
     1
102
RTVSPost2010Prop37
 90
       50
102
RTVSPost2010PropOp37
 70
     1
102
RTVSPost2010Prop38
140
0.0
102
RTVSPost2010PropOp38
 70
     1
102
RTVSPost2010Prop39
140
1.0
102
RTVSPost2010PropOp39
 70
     1
102
RTVSPost2010Prop40
 90
        0
102
RTVSPost2010PropOp40
 70
     1
102
RTVSPost2010Prop41ColorIndex
 90
       18
102
RTVSPost2010Prop41ColorRGB
 90
        0
102
RTVSPost2010PropOp41
 70
     1
102
RTVSPost2010Prop42
 90
       50
102
RTVSPost2010PropOp42
 70
     1
102
RTVSPost2010Prop43
 90
        3
102
RTVSPost2010PropOp43
 70
     1
102
RTVSPost2010Prop44ColorIndex
 90
        5
102
RTVSPost2010Prop44ColorRGB
 90
      255
102
RTVSPost2010PropOp44
 70
     1
102
RTVSPost2010Prop45
280
     0
102
RTVSPost2010PropOp45
 70
     1
102
RTVSPost2010Prop46
 90
       50
102
RTVSPost2010PropOp46
 70
     1
102
RTVSPost2010Prop47
 90
       50
102
RTVSPost2010PropOp47
 70
     1
102
RTVSPost2010Prop48
 90
       50
102
RTVSPost2010PropOp48
 70
     1
102
RTVSPost2010Prop49
280
     0
102
RTVSPost2010PropOp49
 70
     1
102
RTVSPost2010Prop50
 90
       50
102
RTVSPost2010PropOp50
 70
     1
102
RTVSPost2010Prop51ColorIndex
 90
      256
102
RTVSPost2010Prop51ColorRGB
 90
-16777216
102
RTVSPost2010PropOp51
 70
     0
102
RTVSPost2010Prop52
140
1.0
102
RTVSPost2010PropOp52
 70
     0
102
RTVSPost2010Prop53
 90
        2
102
RTVSPost2010PropOp53
 70
     1
102
RTVSPost2010Prop54
  1
strokes_ogs.tif
102
RTVSPost2010PropOp54
 70
     1
102
RTVSPost2010Prop55
280
     0
102
RTVSPost2010PropOp55
 70
     1
102
RTVSPost2010Prop56
140
1.0
102
RTVSPost2010PropOp56
 70
     1
102
RTVSPost2010Prop57
140
1.0
102
RTVSPost2010PropOp57
 70
     1
  0
XRECORD
  5
248
102
{ACAD_REACTORS
330
247
102
}
330
247
100
AcDbXrecord
280
     1
102
RTVSPost2010Prop28
280
     0
102
RTVSPost2010PropOp28
 70
     1
102
RTVSPost2010Prop29
280
     1
102
RTVSPost2010PropOp29
 70
     1
102
RTVSPost2010Prop30
280
     1
102
RTVSPost2010PropOp30
 70
     1
102
RTVSPost2010Prop31
280
     0
102
RTVSPost2010PropOp31
 70
     1
102
RTVSPost2010Prop32
280
     0
102
RTVSPost2010PropOp32
 70
     1
102
RTVSPost2010Prop33
280
     0
102
RTVSPost2010PropOp33
 70
     1
102
RTVSPost2010Prop34
280
     0
102
RTVSPost2010PropOp34
 70
     1
102
RTVSPost2010Prop35
280
     0
102
RTVSPost2010PropOp35
 70
     1
102
RTVSPost2010Prop36
280
     0
102
RTVSPost2010PropOp36
 70
     1
102
RTVSPost2010Prop37
 90
       50
102
RTVSPost2010PropOp37
 70
     1
102
RTVSPost2010Prop38
140
0.0
102
RTVSPost2010PropOp38
 70
     1
102
RTVSPost2010Prop39
140
1.0
102
RTVSPost2010PropOp39
 70
     1
102
RTVSPost2010Prop40
 90
        0
102
RTVSPost2010PropOp40
 70
     1
102
RTVSPost2010Prop41ColorIndex
 90
       18
102
RTVSPost2010Prop41ColorRGB
 90
        0
102
RTVSPost2010PropOp41
 70
     1
102
RTVSPost2010Prop42
 90
       50
102
RTVSPost2010PropOp42
 70
     1
102
RTVSPost2010Prop43
 90
        3
102
RTVSPost2010PropOp43
 70
     1
102
RTVSPost2010Prop44ColorIndex
 90
        5
102
RTVSPost2010Prop44ColorRGB
 90
      255
102
RTVSPost2010PropOp44
 70
     1
102
RTVSPost2010Prop45
280
     0
102
RTVSPost2010PropOp45
 70
     1
102
RTVSPost2010Prop46
 90
       50
102
RTVSPost2010PropOp46
 70
     1
102
RTVSPost2010Prop47
 90
       50
102
RTVSPost2010PropOp47
 70
     1
102
RTVSPost2010Prop48
 90
       50
102
RTVSPost2010PropOp48
 70
     1
102
RTVSPost2010Prop49
280
     0
102
RTVSPost2010PropOp49
 70
     1
102
RTVSPost2010Prop50
 90
       50
102
RTVSPost2010PropOp50
 70
     1
102
RTVSPost2010Prop51ColorIndex
 90
      256
102
RTVSPost2010Prop51ColorRGB
 90
-16777216
102
RTVSPost2010PropOp51
 70
     0
102
RTVSPost2010Prop52
140
1.0
102
RTVSPost2010PropOp52
 70
     0
102
RTVSPost2010Prop53
 90
        2
102
RTVSPost2010PropOp53
 70
     1
102
RTVSPost2010Prop54
  1
strokes_ogs.tif
102
RTVSPost2010PropOp54
 70
     1
102
RTVSPost2010Prop55
280
     0
102
RTVSPost2010PropOp55
 70
     1
102
RTVSPost2010Prop56
140
1.0
102
RTVSPost2010PropOp56
 70
     1
102
RTVSPost2010Prop57
140
1.0
102
RTVSPost2010PropOp57
 70
     1
  0
XRECORD
  5
24A
102
{ACAD_REACTORS
330
249
102
}
330
249
100
AcDbXrecord
280
     1
102
RTVSPost2010Prop28
280
     0
102
RTVSPost2010PropOp28
 70
     1
102
RTVSPost2010Prop29
280
     1
102
RTVSPost2010PropOp29
 70
     1
102
RTVSPost2010Prop30
280
     1
102
RTVSPost2010PropOp30
 70
     1
102
RTVSPost2010Prop31
280
     0
102
RTVSPost2010PropOp31
 70
     1
102
RTVSPost2010Prop32
280
     0
102
RTVSPost2010PropOp32
 70
     1
102
RTVSPost2010Prop33
280
     0
102
RTVSPost2010PropOp33
 70
     1
102
RTVSPost2010Prop34
280
     0
102
RTVSPost2010PropOp34
 70
     1
102
RTVSPost2010Prop35
280
     0
102
RTVSPost2010PropOp35
 70
     1
102
RTVSPost2010Prop36
280
     0
102
RTVSPost2010PropOp36
 70
     1
102
RTVSPost2010Prop37
 90
       50
102
RTVSPost2010PropOp37
 70
     1
102
RTVSPost2010Prop38
140
0.0
102
RTVSPost2010PropOp38
 70
     1
102
RTVSPost2010Prop39
140
1.0
102
RTVSPost2010PropOp39
 70
     1
102
RTVSPost2010Prop40
 90
        0
102
RTVSPost2010PropOp40
 70
     1
102
RTVSPost2010Prop41ColorIndex
 90
       18
102
RTVSPost2010Prop41ColorRGB
 90
        0
102
RTVSPost2010PropOp41
 70
     1
102
RTVSPost2010Prop42
 90
       50
102
RTVSPost2010PropOp42
 70
     1
102
RTVSPost2010Prop43
 90
        3
102
RTVSPost2010PropOp43
 70
     1
102
RTVSPost2010Prop44ColorIndex
 90
        5
102
RTVSPost2010Prop44ColorRGB
 90
      255
102
RTVSPost2010PropOp44
 70
     1
102
RTVSPost2010Prop45
280
     0
102
RTVSPost2010PropOp45
 70
     1
102
RTVSPost2010Prop46
 90
       50
102
RTVSPost2010PropOp46
 70
     1
102
RTVSPost2010Prop47
 90
       50
102
RTVSPost2010PropOp47
 70
     1
102
RTVSPost2010Prop48
 90
       50
102
RTVSPost2010PropOp48
 70
     1
102
RTVSPost2010Prop49
280
     0
102
RTVSPost2010PropOp49
 70
     1
102
RTVSPost2010Prop50
 90
       50
102
RTVSPost2010PropOp50
 70
     1
102
RTVSPost2010Prop51ColorIndex
 90
      256
102
RTVSPost2010Prop51ColorRGB
 90
-16777216
102
RTVSPost2010PropOp51
 70
     0
102
RTVSPost2010Prop52
140
1.0
102
RTVSPost2010PropOp52
 70
     0
102
RTVSPost2010Prop53
 90
        2
102
RTVSPost2010PropOp53
 70
     1
102
RTVSPost2010Prop54
  1
strokes_ogs.tif
102
RTVSPost2010PropOp54
 70
     1
102
RTVSPost2010Prop55
280
     0
102
RTVSPost2010PropOp55
 70
     1
102
RTVSPost2010Prop56
140
1.0
102
RTVSPost2010PropOp56
 70
     1
102
RTVSPost2010Prop57
140
1.0
102
RTVSPost2010PropOp57
 70
     1
  0
XRECORD
  5
250
102
{ACAD_REACTORS
330
24F
102
}
330
24F
100
AcDbXrecord
280
     1
102
RTVSPost2010Prop28
280
     0
102
RTVSPost2010PropOp28
 70
     1
102
RTVSPost2010Prop29
280
     1
102
RTVSPost2010PropOp29
 70
     1
102
RTVSPost2010Prop30
280
     1
102
RTVSPost2010PropOp30
 70
     1
102
RTVSPost2010Prop31
280
     0
102
RTVSPost2010PropOp31
 70
     1
102
RTVSPost2010Prop32
280
     0
102
RTVSPost2010PropOp32
 70
     1
102
RTVSPost2010Prop33
280
     0
102
RTVSPost2010PropOp33
 70
     1
102
RTVSPost2010Prop34
280
     0
102
RTVSPost2010PropOp34
 70
     1
102
RTVSPost2010Prop35
280
     0
102
RTVSPost2010PropOp35
 70
     1
102
RTVSPost2010Prop36
280
     0
102
RTVSPost2010PropOp36
 70
     1
102
RTVSPost2010Prop37
 90
       50
102
RTVSPost2010PropOp37
 70
     1
102
RTVSPost2010Prop38
140
0.0
102
RTVSPost2010PropOp38
 70
     1
102
RTVSPost2010Prop39
140
1.0
102
RTVSPost2010PropOp39
 70
     1
102
RTVSPost2010Prop40
 90
        0
102
RTVSPost2010PropOp40
 70
     1
102
RTVSPost2010Prop41ColorIndex
 90
       18
102
RTVSPost2010Prop41ColorRGB
 90
        0
102
RTVSPost2010PropOp41
 70
     1
102
RTVSPost2010Prop42
 90
       50
102
RTVSPost2010PropOp42
 70
     1
102
RTVSPost2010Prop43
 90
        3
102
RTVSPost2010PropOp43
 70
     1
102
RTVSPost2010Prop44ColorIndex
 90
        5
102
RTVSPost2010Prop44ColorRGB
 90
      255
102
RTVSPost2010PropOp44
 70
     1
102
RTVSPost2010Prop45
280
     0
102
RTVSPost2010PropOp45
 70
     1
102
RTVSPost2010Prop46
 90
       50
102
RTVSPost2010PropOp46
 70
     1
102
RTVSPost2010Prop47
 90
       50
102
RTVSPost2010PropOp47
 70
     1
102
RTVSPost2010Prop48
 90
       50
102
RTVSPost2010PropOp48
 70
     1
102
RTVSPost2010Prop49
280
     0
102
RTVSPost2010PropOp49
 70
     1
102
RTVSPost2010Prop50
 90
       50
102
RTVSPost2010PropOp50
 70
     1
102
RTVSPost2010Prop51ColorIndex
 90
      256
102
RTVSPost2010Prop51ColorRGB
 90
-16777216
102
RTVSPost2010PropOp51
 70
     0
102
RTVSPost2010Prop52
140
1.0
102
RTVSPost2010PropOp52
 70
     0
102
RTVSPost2010Prop53
 90
        2
102
RTVSPost2010PropOp53
 70
     1
102
RTVSPost2010Prop54
  1
strokes_ogs.tif
102
RTVSPost2010PropOp54
 70
     1
102
RTVSPost2010Prop55
280
     0
102
RTVSPost2010PropOp55
 70
     1
102
RTVSPost2010Prop56
140
1.0
102
RTVSPost2010PropOp56
 70
     1
102
RTVSPost2010Prop57
140
1.0
102
RTVSPost2010PropOp57
 70
     1
  0
XRECORD
  5
264
102
{ACAD_REACTORS
330
263
102
}
330
263
100
AcDbXrecord
280
     1
102
RTVSPost2010Prop28
280
     0
102
RTVSPost2010PropOp28
 70
     0
102
RTVSPost2010Prop29
280
     1
102
RTVSPost2010PropOp29
 70
     0
102
RTVSPost2010Prop30
280
     1
102
RTVSPost2010PropOp30
 70
     0
102
RTVSPost2010Prop31
280
     0
102
RTVSPost2010PropOp31
 70
     0
102
RTVSPost2010Prop32
280
     0
102
RTVSPost2010PropOp32
 70
     0
102
RTVSPost2010Prop33
280
     0
102
RTVSPost2010PropOp33
 70
     0
102
RTVSPost2010Prop34
280
     0
102
RTVSPost2010PropOp34
 70
     0
102
RTVSPost2010Prop35
280
     0
102
RTVSPost2010PropOp35
 70
     0
102
RTVSPost2010Prop36
280
     0
102
RTVSPost2010PropOp36
 70
     0
102
RTVSPost2010Prop37
 90
       50
102
RTVSPost2010PropOp37
 70
     0
102
RTVSPost2010Prop38
140
0.0
102
RTVSPost2010PropOp38
 70
     0
102
RTVSPost2010Prop39
140
1.0
102
RTVSPost2010PropOp39
 70
     0
102
RTVSPost2010Prop40
 90
        0
102
RTVSPost2010PropOp40
 70
     0
102
RTVSPost2010Prop41ColorIndex
 90
       18
102
RTVSPost2010Prop41ColorRGB
 90
        0
102
RTVSPost2010PropOp41
 70
     0
102
RTVSPost2010Prop42
 90
       50
102
RTVSPost2010PropOp42
 70
     0
102
RTVSPost2010Prop43
 90
        3
102
RTVSPost2010PropOp43
 70
     0
102
RTVSPost2010Prop44ColorIndex
 90
        5
102
RTVSPost2010Prop44ColorRGB
 90
      255
102
RTVSPost2010PropOp44
 70
     0
102
RTVSPost2010Prop45
280
     0
102
RTVSPost2010PropOp45
 70
     0
102
RTVSPost2010Prop46
 90
       50
102
RTVSPost2010PropOp46
 70
     0
102
RTVSPost2010Prop47
 90
       50
102
RTVSPost2010PropOp47
 70
     0
102
RTVSPost2010Prop48
 90
       50
102
RTVSPost2010PropOp48
 70
     0
102
RTVSPost2010Prop49
280
     0
102
RTVSPost2010PropOp49
 70
     0
102
RTVSPost2010Prop50
 90
       50
102
RTVSPost2010PropOp50
 70
     0
102
RTVSPost2010Prop51ColorIndex
 90
      256
102
RTVSPost2010Prop51ColorRGB
 90
-16777216
102
RTVSPost2010PropOp51
 70
     0
102
RTVSPost2010Prop52
140
1.0
102
RTVSPost2010PropOp52
 70
     0
102
RTVSPost2010Prop53
 90
        2
102
RTVSPost2010PropOp53
 70
     0
102
RTVSPost2010Prop54
  1
strokes_ogs.tif
102
RTVSPost2010PropOp54
 70
     0
102
RTVSPost2010Prop55
280
     0
102
RTVSPost2010PropOp55
 70
     0
102
RTVSPost2010Prop56
140
1.0
102
RTVSPost2010PropOp56
 70
     0
102
RTVSPost2010Prop57
140
1.0
102
RTVSPost2010PropOp57
 70
     0
  0
XRECORD
  5
25E
102
{ACAD_REACTORS
330
25D
102
}
330
25D
100
AcDbXrecord
280
     1
102
RTVSPost2010Prop28
280
     0
102
RTVSPost2010PropOp28
 70
     1
102
RTVSPost2010Prop29
280
     1
102
RTVSPost2010PropOp29
 70
     1
102
RTVSPost2010Prop30
280
     1
102
RTVSPost2010PropOp30
 70
     1
102
RTVSPost2010Prop31
280
     0
102
RTVSPost2010PropOp31
 70
     1
102
RTVSPost2010Prop32
280
     0
102
RTVSPost2010PropOp32
 70
     1
102
RTVSPost2010Prop33
280
     0
102
RTVSPost2010PropOp33
 70
     1
102
RTVSPost2010Prop34
280
     0
102
RTVSPost2010PropOp34
 70
     1
102
RTVSPost2010Prop35
280
     0
102
RTVSPost2010PropOp35
 70
     1
102
RTVSPost2010Prop36
280
     0
102
RTVSPost2010PropOp36
 70
     1
102
RTVSPost2010Prop37
 90
       50
102
RTVSPost2010PropOp37
 70
     1
102
RTVSPost2010Prop38
140
0.0
102
RTVSPost2010PropOp38
 70
     1
102
RTVSPost2010Prop39
140
1.0
102
RTVSPost2010PropOp39
 70
     1
102
RTVSPost2010Prop40
 90
        0
102
RTVSPost2010PropOp40
 70
     1
102
RTVSPost2010Prop41ColorIndex
 90
       18
102
RTVSPost2010Prop41ColorRGB
 90
        0
102
RTVSPost2010PropOp41
 70
     1
102
RTVSPost2010Prop42
 90
       50
102
RTVSPost2010PropOp42
 70
     1
102
RTVSPost2010Prop43
 90
        3
102
RTVSPost2010PropOp43
 70
     1
102
RTVSPost2010Prop44ColorIndex
 90
        5
102
RTVSPost2010Prop44ColorRGB
 90
      255
102
RTVSPost2010PropOp44
 70
     1
102
RTVSPost2010Prop45
280
     0
102
RTVSPost2010PropOp45
 70
     1
102
RTVSPost2010Prop46
 90
       50
102
RTVSPost2010PropOp46
 70
     1
102
RTVSPost2010Prop47
 90
       50
102
RTVSPost2010PropOp47
 70
     1
102
RTVSPost2010Prop48
 90
       50
102
RTVSPost2010PropOp48
 70
     1
102
RTVSPost2010Prop49
280
     0
102
RTVSPost2010PropOp49
 70
     1
102
RTVSPost2010Prop50
 90
       50
102
RTVSPost2010PropOp50
 70
     1
102
RTVSPost2010Prop51ColorIndex
 90
      256
102
RTVSPost2010Prop51ColorRGB
 90
-16777216
102
RTVSPost2010PropOp51
 70
     0
102
RTVSPost2010Prop52
140
1.0
102
RTVSPost2010PropOp52
 70
     0
102
RTVSPost2010Prop53
 90
        2
102
RTVSPost2010PropOp53
 70
     1
102
RTVSPost2010Prop54
  1
strokes_ogs.tif
102
RTVSPost2010PropOp54
 70
     1
102
RTVSPost2010Prop55
280
     0
102
RTVSPost2010PropOp55
 70
     1
102
RTVSPost2010Prop56
140
1.0
102
RTVSPost2010PropOp56
 70
     1
102
RTVSPost2010Prop57
140
1.0
102
RTVSPost2010PropOp57
 70
     1
  0
XRECORD
  5
266
102
{ACAD_REACTORS
330
265
102
}
330
265
100
AcDbXrecord
280
     1
102
RTVSPost2010Prop28
280
     0
102
RTVSPost2010PropOp28
 70
     0
102
RTVSPost2010Prop29
280
     1
102
RTVSPost2010PropOp29
 70
     0
102
RTVSPost2010Prop30
280
     1
102
RTVSPost2010PropOp30
 70
     0
102
RTVSPost2010Prop31
280
     0
102
RTVSPost2010PropOp31
 70
     0
102
RTVSPost2010Prop32
280
     0
102
RTVSPost2010PropOp32
 70
     0
102
RTVSPost2010Prop33
280
     0
102
RTVSPost2010PropOp33
 70
     0
102
RTVSPost2010Prop34
280
     0
102
RTVSPost2010PropOp34
 70
     0
102
RTVSPost2010Prop35
280
     0
102
RTVSPost2010PropOp35
 70
     0
102
RTVSPost2010Prop36
280
     0
102
RTVSPost2010PropOp36
 70
     0
102
RTVSPost2010Prop37
 90
       50
102
RTVSPost2010PropOp37
 70
     0
102
RTVSPost2010Prop38
140
0.0
102
RTVSPost2010PropOp38
 70
     0
102
RTVSPost2010Prop39
140
1.0
102
RTVSPost2010PropOp39
 70
     0
102
RTVSPost2010Prop40
 90
        0
102
RTVSPost2010PropOp40
 70
     0
102
RTVSPost2010Prop41ColorIndex
 90
       18
102
RTVSPost2010Prop41ColorRGB
 90
        0
102
RTVSPost2010PropOp41
 70
     0
102
RTVSPost2010Prop42
 90
       50
102
RTVSPost2010PropOp42
 70
     0
102
RTVSPost2010Prop43
 90
        3
102
RTVSPost2010PropOp43
 70
     0
102
RTVSPost2010Prop44ColorIndex
 90
        5
102
RTVSPost2010Prop44ColorRGB
 90
      255
102
RTVSPost2010PropOp44
 70
     0
102
RTVSPost2010Prop45
280
     0
102
RTVSPost2010PropOp45
 70
     0
102
RTVSPost2010Prop46
 90
       50
102
RTVSPost2010PropOp46
 70
     0
102
RTVSPost2010Prop47
 90
       50
102
RTVSPost2010PropOp47
 70
     0
102
RTVSPost2010Prop48
 90
       50
102
RTVSPost2010PropOp48
 70
     0
102
RTVSPost2010Prop49
280
     0
102
RTVSPost2010PropOp49
 70
     0
102
RTVSPost2010Prop50
 90
       50
102
RTVSPost2010PropOp50
 70
     0
102
RTVSPost2010Prop51ColorIndex
 90
      256
102
RTVSPost2010Prop51ColorRGB
 90
-16777216
102
RTVSPost2010PropOp51
 70
     0
102
RTVSPost2010Prop52
140
1.0
102
RTVSPost2010PropOp52
 70
     0
102
RTVSPost2010Prop53
 90
        2
102
RTVSPost2010PropOp53
 70
     0
102
RTVSPost2010Prop54
  1
strokes_ogs.tif
102
RTVSPost2010PropOp54
 70
     0
102
RTVSPost2010Prop55
280
     0
102
RTVSPost2010PropOp55
 70
     0
102
RTVSPost2010Prop56
140
1.0
102
RTVSPost2010PropOp56
 70
     0
102
RTVSPost2010Prop57
140
1.0
102
RTVSPost2010PropOp57
 70
     0
  0
XRECORD
  5
254
102
{ACAD_REACTORS
330
253
102
}
330
253
100
AcDbXrecord
280
     1
102
RTVSPost2010Prop28
280
     0
102
RTVSPost2010PropOp28
 70
     1
102
RTVSPost2010Prop29
280
     1
102
RTVSPost2010PropOp29
 70
     1
102
RTVSPost2010Prop30
280
     1
102
RTVSPost2010PropOp30
 70
     1
102
RTVSPost2010Prop31
280
     0
102
RTVSPost2010PropOp31
 70
     1
102
RTVSPost2010Prop32
280
     0
102
RTVSPost2010PropOp32
 70
     1
102
RTVSPost2010Prop33
280
     0
102
RTVSPost2010PropOp33
 70
     1
102
RTVSPost2010Prop34
280
     0
102
RTVSPost2010PropOp34
 70
     1
102
RTVSPost2010Prop35
280
     0
102
RTVSPost2010PropOp35
 70
     1
102
RTVSPost2010Prop36
280
     0
102
RTVSPost2010PropOp36
 70
     1
102
RTVSPost2010Prop37
 90
       50
102
RTVSPost2010PropOp37
 70
     1
102
RTVSPost2010Prop38
140
0.0
102
RTVSPost2010PropOp38
 70
     1
102
RTVSPost2010Prop39
140
1.0
102
RTVSPost2010PropOp39
 70
     1
102
RTVSPost2010Prop40
 90
        0
102
RTVSPost2010PropOp40
 70
     1
102
RTVSPost2010Prop41ColorIndex
 90
       18
102
RTVSPost2010Prop41ColorRGB
 90
        0
102
RTVSPost2010PropOp41
 70
     1
102
RTVSPost2010Prop42
 90
       50
102
RTVSPost2010PropOp42
 70
     1
102
RTVSPost2010Prop43
 90
        3
102
RTVSPost2010PropOp43
 70
     1
102
RTVSPost2010Prop44ColorIndex
 90
        5
102
RTVSPost2010Prop44ColorRGB
 90
      255
102
RTVSPost2010PropOp44
 70
     1
102
RTVSPost2010Prop45
280
     0
102
RTVSPost2010PropOp45
 70
     1
102
RTVSPost2010Prop46
 90
       50
102
RTVSPost2010PropOp46
 70
     1
102
RTVSPost2010Prop47
 90
       50
102
RTVSPost2010PropOp47
 70
     1
102
RTVSPost2010Prop48
 90
       50
102
RTVSPost2010PropOp48
 70
     1
102
RTVSPost2010Prop49
280
     0
102
RTVSPost2010PropOp49
 70
     1
102
RTVSPost2010Prop50
 90
       50
102
RTVSPost2010PropOp50
 70
     1
102
RTVSPost2010Prop51ColorIndex
 90
      256
102
RTVSPost2010Prop51ColorRGB
 90
-16777216
102
RTVSPost2010PropOp51
 70
     0
102
RTVSPost2010Prop52
140
1.0
102
RTVSPost2010PropOp52
 70
     0
102
RTVSPost2010Prop53
 90
        2
102
RTVSPost2010PropOp53
 70
     1
102
RTVSPost2010Prop54
  1
strokes_ogs.tif
102
RTVSPost2010PropOp54
 70
     1
102
RTVSPost2010Prop55
280
     0
102
RTVSPost2010PropOp55
 70
     1
102
RTVSPost2010Prop56
140
1.0
102
RTVSPost2010PropOp56
 70
     1
102
RTVSPost2010Prop57
140
1.0
102
RTVSPost2010PropOp57
 70
     1
  0
XRECORD
  5
272
102
{ACAD_REACTORS
330
271
102
}
330
271
100
AcDbXrecord
280
     1
102
RTVSPost2010Prop28
280
     0
102
RTVSPost2010PropOp28
 70
     1
102
RTVSPost2010Prop29
280
     1
102
RTVSPost2010PropOp29
 70
     1
102
RTVSPost2010Prop30
280
     1
102
RTVSPost2010PropOp30
 70
     1
102
RTVSPost2010Prop31
280
     0
102
RTVSPost2010PropOp31
 70
     1
102
RTVSPost2010Prop32
280
     0
102
RTVSPost2010PropOp32
 70
     1
102
RTVSPost2010Prop33
280
     0
102
RTVSPost2010PropOp33
 70
     1
102
RTVSPost2010Prop34
280
     0
102
RTVSPost2010PropOp34
 70
     1
102
RTVSPost2010Prop35
280
     0
102
RTVSPost2010PropOp35
 70
     1
102
RTVSPost2010Prop36
280
     0
102
RTVSPost2010PropOp36
 70
     1
102
RTVSPost2010Prop37
 90
       50
102
RTVSPost2010PropOp37
 70
     1
102
RTVSPost2010Prop38
140
0.0
102
RTVSPost2010PropOp38
 70
     1
102
RTVSPost2010Prop39
140
1.0
102
RTVSPost2010PropOp39
 70
     1
102
RTVSPost2010Prop40
 90
        0
102
RTVSPost2010PropOp40
 70
     1
102
RTVSPost2010Prop41ColorIndex
 90
       18
102
RTVSPost2010Prop41ColorRGB
 90
        0
102
RTVSPost2010PropOp41
 70
     1
102
RTVSPost2010Prop42
 90
       50
102
RTVSPost2010PropOp42
 70
     1
102
RTVSPost2010Prop43
 90
        3
102
RTVSPost2010PropOp43
 70
     1
102
RTVSPost2010Prop44ColorIndex
 90
        5
102
RTVSPost2010Prop44ColorRGB
 90
      255
102
RTVSPost2010PropOp44
 70
     1
102
RTVSPost2010Prop45
280
     0
102
RTVSPost2010PropOp45
 70
     1
102
RTVSPost2010Prop46
 90
       50
102
RTVSPost2010PropOp46
 70
     1
102
RTVSPost2010Prop47
 90
       50
102
RTVSPost2010PropOp47
 70
     1
102
RTVSPost2010Prop48
 90
       50
102
RTVSPost2010PropOp48
 70
     1
102
RTVSPost2010Prop49
280
     0
102
RTVSPost2010PropOp49
 70
     1
102
RTVSPost2010Prop50
 90
       50
102
RTVSPost2010PropOp50
 70
     1
102
RTVSPost2010Prop51ColorIndex
 90
      256
102
RTVSPost2010Prop51ColorRGB
 90
-16777216
102
RTVSPost2010PropOp51
 70
     0
102
RTVSPost2010Prop52
140
1.0
102
RTVSPost2010PropOp52
 70
     0
102
RTVSPost2010Prop53
 90
        2
102
RTVSPost2010PropOp53
 70
     1
102
RTVSPost2010Prop54
  1
strokes_ogs.tif
102
RTVSPost2010PropOp54
 70
     1
102
RTVSPost2010Prop55
280
     0
102
RTVSPost2010PropOp55
 70
     1
102
RTVSPost2010Prop56
140
1.0
102
RTVSPost2010PropOp56
 70
     1
102
RTVSPost2010Prop57
140
1.0
102
RTVSPost2010PropOp57
 70
     1
  0
XRECORD
  5
270
102
{ACAD_REACTORS
330
26F
102
}
330
26F
100
AcDbXrecord
280
     1
102
RTVSPost2010Prop28
280
     0
102
RTVSPost2010PropOp28
 70
     1
102
RTVSPost2010Prop29
280
     1
102
RTVSPost2010PropOp29
 70
     1
102
RTVSPost2010Prop30
280
     1
102
RTVSPost2010PropOp30
 70
     1
102
RTVSPost2010Prop31
280
     0
102
RTVSPost2010PropOp31
 70
     1
102
RTVSPost2010Prop32
280
     0
102
RTVSPost2010PropOp32
 70
     1
102
RTVSPost2010Prop33
280
     0
102
RTVSPost2010PropOp33
 70
     1
102
RTVSPost2010Prop34
280
     0
102
RTVSPost2010PropOp34
 70
     1
102
RTVSPost2010Prop35
280
     0
102
RTVSPost2010PropOp35
 70
     1
102
RTVSPost2010Prop36
280
     0
102
RTVSPost2010PropOp36
 70
     1
102
RTVSPost2010Prop37
 90
       50
102
RTVSPost2010PropOp37
 70
     1
102
RTVSPost2010Prop38
140
0.0
102
RTVSPost2010PropOp38
 70
     1
102
RTVSPost2010Prop39
140
1.0
102
RTVSPost2010PropOp39
 70
     1
102
RTVSPost2010Prop40
 90
        0
102
RTVSPost2010PropOp40
 70
     1
102
RTVSPost2010Prop41ColorIndex
 90
       18
102
RTVSPost2010Prop41ColorRGB
 90
        0
102
RTVSPost2010PropOp41
 70
     1
102
RTVSPost2010Prop42
 90
       50
102
RTVSPost2010PropOp42
 70
     1
102
RTVSPost2010Prop43
 90
        3
102
RTVSPost2010PropOp43
 70
     1
102
RTVSPost2010Prop44ColorIndex
 90
        5
102
RTVSPost2010Prop44ColorRGB
 90
      255
102
RTVSPost2010PropOp44
 70
     1
102
RTVSPost2010Prop45
280
     0
102
RTVSPost2010PropOp45
 70
     1
102
RTVSPost2010Prop46
 90
       50
102
RTVSPost2010PropOp46
 70
     1
102
RTVSPost2010Prop47
 90
       50
102
RTVSPost2010PropOp47
 70
     1
102
RTVSPost2010Prop48
 90
       50
102
RTVSPost2010PropOp48
 70
     1
102
RTVSPost2010Prop49
280
     0
102
RTVSPost2010PropOp49
 70
     1
102
RTVSPost2010Prop50
 90
       50
102
RTVSPost2010PropOp50
 70
     1
102
RTVSPost2010Prop51ColorIndex
 90
      256
102
RTVSPost2010Prop51ColorRGB
 90
-16777216
102
RTVSPost2010PropOp51
 70
     0
102
RTVSPost2010Prop52
140
1.0
102
RTVSPost2010PropOp52
 70
     0
102
RTVSPost2010Prop53
 90
        2
102
RTVSPost2010PropOp53
 70
     1
102
RTVSPost2010Prop54
  1
strokes_ogs.tif
102
RTVSPost2010PropOp54
 70
     1
102
RTVSPost2010Prop55
280
     0
102
RTVSPost2010PropOp55
 70
     1
102
RTVSPost2010Prop56
140
1.0
102
RTVSPost2010PropOp56
 70
     1
102
RTVSPost2010Prop57
140
1.0
102
RTVSPost2010PropOp57
 70
     1
  0
XRECORD
  5
26A
102
{ACAD_REACTORS
330
269
102
}
330
269
100
AcDbXrecord
280
     1
102
RTVSPost2010Prop28
280
     0
102
RTVSPost2010PropOp28
 70
     1
102
RTVSPost2010Prop29
280
     1
102
RTVSPost2010PropOp29
 70
     1
102
RTVSPost2010Prop30
280
     1
102
RTVSPost2010PropOp30
 70
     1
102
RTVSPost2010Prop31
280
     0
102
RTVSPost2010PropOp31
 70
     1
102
RTVSPost2010Prop32
280
     0
102
RTVSPost2010PropOp32
 70
     1
102
RTVSPost2010Prop33
280
     0
102
RTVSPost2010PropOp33
 70
     1
102
RTVSPost2010Prop34
280
     0
102
RTVSPost2010PropOp34
 70
     1
102
RTVSPost2010Prop35
280
     0
102
RTVSPost2010PropOp35
 70
     1
102
RTVSPost2010Prop36
280
     0
102
RTVSPost2010PropOp36
 70
     1
102
RTVSPost2010Prop37
 90
       50
102
RTVSPost2010PropOp37
 70
     1
102
RTVSPost2010Prop38
140
0.0
102
RTVSPost2010PropOp38
 70
     1
102
RTVSPost2010Prop39
140
1.0
102
RTVSPost2010PropOp39
 70
     1
102
RTVSPost2010Prop40
 90
        0
102
RTVSPost2010PropOp40
 70
     1
102
RTVSPost2010Prop41ColorIndex
 90
       18
102
RTVSPost2010Prop41ColorRGB
 90
        0
102
RTVSPost2010PropOp41
 70
     1
102
RTVSPost2010Prop42
 90
       50
102
RTVSPost2010PropOp42
 70
     1
102
RTVSPost2010Prop43
 90
        3
102
RTVSPost2010PropOp43
 70
     1
102
RTVSPost2010Prop44ColorIndex
 90
        5
102
RTVSPost2010Prop44ColorRGB
 90
      255
102
RTVSPost2010PropOp44
 70
     1
102
RTVSPost2010Prop45
280
     0
102
RTVSPost2010PropOp45
 70
     1
102
RTVSPost2010Prop46
 90
       50
102
RTVSPost2010PropOp46
 70
     1
102
RTVSPost2010Prop47
 90
       50
102
RTVSPost2010PropOp47
 70
     1
102
RTVSPost2010Prop48
 90
       50
102
RTVSPost2010PropOp48
 70
     1
102
RTVSPost2010Prop49
280
     0
102
RTVSPost2010PropOp49
 70
     1
102
RTVSPost2010Prop50
 90
       50
102
RTVSPost2010PropOp50
 70
     1
102
RTVSPost2010Prop51ColorIndex
 90
      256
102
RTVSPost2010Prop51ColorRGB
 90
-16777216
102
RTVSPost2010PropOp51
 70
     0
102
RTVSPost2010Prop52
140
1.0
102
RTVSPost2010PropOp52
 70
     0
102
RTVSPost2010Prop53
 90
        2
102
RTVSPost2010PropOp53
 70
     1
102
RTVSPost2010Prop54
  1
strokes_ogs.tif
102
RTVSPost2010PropOp54
 70
     1
102
RTVSPost2010Prop55
280
     0
102
RTVSPost2010PropOp55
 70
     1
102
RTVSPost2010Prop56
140
1.0
102
RTVSPost2010PropOp56
 70
     1
102
RTVSPost2010Prop57
140
1.0
102
RTVSPost2010PropOp57
 70
     1
  0
XRECORD
  5
26C
102
{ACAD_REACTORS
330
26B
102
}
330
26B
100
AcDbXrecord
280
     1
102
RTVSPost2010Prop28
280
     0
102
RTVSPost2010PropOp28
 70
     1
102
RTVSPost2010Prop29
280
     1
102
RTVSPost2010PropOp29
 70
     1
102
RTVSPost2010Prop30
280
     1
102
RTVSPost2010PropOp30
 70
     1
102
RTVSPost2010Prop31
280
     0
102
RTVSPost2010PropOp31
 70
     1
102
RTVSPost2010Prop32
280
     0
102
RTVSPost2010PropOp32
 70
     1
102
RTVSPost2010Prop33
280
     0
102
RTVSPost2010PropOp33
 70
     1
102
RTVSPost2010Prop34
280
     0
102
RTVSPost2010PropOp34
 70
     1
102
RTVSPost2010Prop35
280
     0
102
RTVSPost2010PropOp35
 70
     1
102
RTVSPost2010Prop36
280
     0
102
RTVSPost2010PropOp36
 70
     1
102
RTVSPost2010Prop37
 90
       50
102
RTVSPost2010PropOp37
 70
     1
102
RTVSPost2010Prop38
140
0.0
102
RTVSPost2010PropOp38
 70
     1
102
RTVSPost2010Prop39
140
1.0
102
RTVSPost2010PropOp39
 70
     1
102
RTVSPost2010Prop40
 90
        0
102
RTVSPost2010PropOp40
 70
     1
102
RTVSPost2010Prop41ColorIndex
 90
       18
102
RTVSPost2010Prop41ColorRGB
 90
        0
102
RTVSPost2010PropOp41
 70
     1
102
RTVSPost2010Prop42
 90
       50
102
RTVSPost2010PropOp42
 70
     1
102
RTVSPost2010Prop43
 90
        3
102
RTVSPost2010PropOp43
 70
     1
102
RTVSPost2010Prop44ColorIndex
 90
        5
102
RTVSPost2010Prop44ColorRGB
 90
      255
102
RTVSPost2010PropOp44
 70
     1
102
RTVSPost2010Prop45
280
     0
102
RTVSPost2010PropOp45
 70
     1
102
RTVSPost2010Prop46
 90
       50
102
RTVSPost2010PropOp46
 70
     1
102
RTVSPost2010Prop47
 90
       50
102
RTVSPost2010PropOp47
 70
     1
102
RTVSPost2010Prop48
 90
       50
102
RTVSPost2010PropOp48
 70
     1
102
RTVSPost2010Prop49
280
     0
102
RTVSPost2010PropOp49
 70
     1
102
RTVSPost2010Prop50
 90
       50
102
RTVSPost2010PropOp50
 70
     1
102
RTVSPost2010Prop51ColorIndex
 90
      256
102
RTVSPost2010Prop51ColorRGB
 90
-16777216
102
RTVSPost2010PropOp51
 70
     0
102
RTVSPost2010Prop52
140
1.0
102
RTVSPost2010PropOp52
 70
     0
102
RTVSPost2010Prop53
 90
        2
102
RTVSPost2010PropOp53
 70
     1
102
RTVSPost2010Prop54
  1
strokes_ogs.tif
102
RTVSPost2010PropOp54
 70
     1
102
RTVSPost2010Prop55
280
     0
102
RTVSPost2010PropOp55
 70
     1
102
RTVSPost2010Prop56
140
1.0
102
RTVSPost2010PropOp56
 70
     1
102
RTVSPost2010Prop57
140
1.0
102
RTVSPost2010PropOp57
 70
     1
  0
XRECORD
  5
25C
102
{ACAD_REACTORS
330
25B
102
}
330
25B
100
AcDbXrecord
280
     1
102
RTVSPost2010Prop28
280
     0
102
RTVSPost2010PropOp28
 70
     1
102
RTVSPost2010Prop29
280
     1
102
RTVSPost2010PropOp29
 70
     1
102
RTVSPost2010Prop30
280
     1
102
RTVSPost2010PropOp30
 70
     1
102
RTVSPost2010Prop31
280
     0
102
RTVSPost2010PropOp31
 70
     1
102
RTVSPost2010Prop32
280
     0
102
RTVSPost2010PropOp32
 70
     1
102
RTVSPost2010Prop33
280
     0
102
RTVSPost2010PropOp33
 70
     1
102
RTVSPost2010Prop34
280
     0
102
RTVSPost2010PropOp34
 70
     1
102
RTVSPost2010Prop35
280
     0
102
RTVSPost2010PropOp35
 70
     1
102
RTVSPost2010Prop36
280
     0
102
RTVSPost2010PropOp36
 70
     1
102
RTVSPost2010Prop37
 90
       50
102
RTVSPost2010PropOp37
 70
     1
102
RTVSPost2010Prop38
140
0.0
102
RTVSPost2010PropOp38
 70
     1
102
RTVSPost2010Prop39
140
1.0
102
RTVSPost2010PropOp39
 70
     1
102
RTVSPost2010Prop40
 90
        0
102
RTVSPost2010PropOp40
 70
     1
102
RTVSPost2010Prop41ColorIndex
 90
       18
102
RTVSPost2010Prop41ColorRGB
 90
        0
102
RTVSPost2010PropOp41
 70
     1
102
RTVSPost2010Prop42
 90
       50
102
RTVSPost2010PropOp42
 70
     1
102
RTVSPost2010Prop43
 90
        3
102
RTVSPost2010PropOp43
 70
     1
102
RTVSPost2010Prop44ColorIndex
 90
        5
102
RTVSPost2010Prop44ColorRGB
 90
      255
102
RTVSPost2010PropOp44
 70
     1
102
RTVSPost2010Prop45
280
     0
102
RTVSPost2010PropOp45
 70
     1
102
RTVSPost2010Prop46
 90
       50
102
RTVSPost2010PropOp46
 70
     1
102
RTVSPost2010Prop47
 90
       50
102
RTVSPost2010PropOp47
 70
     1
102
RTVSPost2010Prop48
 90
       50
102
RTVSPost2010PropOp48
 70
     1
102
RTVSPost2010Prop49
280
     0
102
RTVSPost2010PropOp49
 70
     1
102
RTVSPost2010Prop50
 90
       50
102
RTVSPost2010PropOp50
 70
     1
102
RTVSPost2010Prop51ColorIndex
 90
      256
102
RTVSPost2010Prop51ColorRGB
 90
-16777216
102
RTVSPost2010PropOp51
 70
     0
102
RTVSPost2010Prop52
140
1.0
102
RTVSPost2010PropOp52
 70
     0
102
RTVSPost2010Prop53
 90
        2
102
RTVSPost2010PropOp53
 70
     1
102
RTVSPost2010Prop54
  1
strokes_ogs.tif
102
RTVSPost2010PropOp54
 70
     1
102
RTVSPost2010Prop55
280
     0
102
RTVSPost2010PropOp55
 70
     1
102
RTVSPost2010Prop56
140
1.0
102
RTVSPost2010PropOp56
 70
     1
102
RTVSPost2010Prop57
140
1.0
102
RTVSPost2010PropOp57
 70
     1
  0
XRECORD
  5
24E
102
{ACAD_REACTORS
330
24D
102
}
330
24D
100
AcDbXrecord
280
     1
102
RTVSPost2010Prop28
280
     0
102
RTVSPost2010PropOp28
 70
     1
102
RTVSPost2010Prop29
280
     1
102
RTVSPost2010PropOp29
 70
     1
102
RTVSPost2010Prop30
280
     1
102
RTVSPost2010PropOp30
 70
     1
102
RTVSPost2010Prop31
280
     0
102
RTVSPost2010PropOp31
 70
     1
102
RTVSPost2010Prop32
280
     0
102
RTVSPost2010PropOp32
 70
     1
102
RTVSPost2010Prop33
280
     0
102
RTVSPost2010PropOp33
 70
     1
102
RTVSPost2010Prop34
280
     0
102
RTVSPost2010PropOp34
 70
     1
102
RTVSPost2010Prop35
280
     0
102
RTVSPost2010PropOp35
 70
     1
102
RTVSPost2010Prop36
280
     0
102
RTVSPost2010PropOp36
 70
     1
102
RTVSPost2010Prop37
 90
       50
102
RTVSPost2010PropOp37
 70
     1
102
RTVSPost2010Prop38
140
0.0
102
RTVSPost2010PropOp38
 70
     1
102
RTVSPost2010Prop39
140
1.0
102
RTVSPost2010PropOp39
 70
     1
102
RTVSPost2010Prop40
 90
        0
102
RTVSPost2010PropOp40
 70
     1
102
RTVSPost2010Prop41ColorIndex
 90
       18
102
RTVSPost2010Prop41ColorRGB
 90
        0
102
RTVSPost2010PropOp41
 70
     1
102
RTVSPost2010Prop42
 90
       50
102
RTVSPost2010PropOp42
 70
     1
102
RTVSPost2010Prop43
 90
        3
102
RTVSPost2010PropOp43
 70
     1
102
RTVSPost2010Prop44ColorIndex
 90
        5
102
RTVSPost2010Prop44ColorRGB
 90
      255
102
RTVSPost2010PropOp44
 70
     1
102
RTVSPost2010Prop45
280
     0
102
RTVSPost2010PropOp45
 70
     1
102
RTVSPost2010Prop46
 90
       50
102
RTVSPost2010PropOp46
 70
     1
102
RTVSPost2010Prop47
 90
       50
102
RTVSPost2010PropOp47
 70
     1
102
RTVSPost2010Prop48
 90
       50
102
RTVSPost2010PropOp48
 70
     1
102
RTVSPost2010Prop49
280
     0
102
RTVSPost2010PropOp49
 70
     1
102
RTVSPost2010Prop50
 90
       50
102
RTVSPost2010PropOp50
 70
     1
102
RTVSPost2010Prop51ColorIndex
 90
      256
102
RTVSPost2010Prop51ColorRGB
 90
-16777216
102
RTVSPost2010PropOp51
 70
     0
102
RTVSPost2010Prop52
140
1.0
102
RTVSPost2010PropOp52
 70
     0
102
RTVSPost2010Prop53
 90
        2
102
RTVSPost2010PropOp53
 70
     1
102
RTVSPost2010Prop54
  1
strokes_ogs.tif
102
RTVSPost2010PropOp54
 70
     1
102
RTVSPost2010Prop55
280
     0
102
RTVSPost2010PropOp55
 70
     1
102
RTVSPost2010Prop56
140
1.0
102
RTVSPost2010PropOp56
 70
     1
102
RTVSPost2010Prop57
140
1.0
102
RTVSPost2010PropOp57
 70
     1
  0
XRECORD
  5
26E
102
{ACAD_REACTORS
330
26D
102
}
330
26D
100
AcDbXrecord
280
     1
102
RTVSPost2010Prop28
280
     0
102
RTVSPost2010PropOp28
 70
     1
102
RTVSPost2010Prop29
280
     1
102
RTVSPost2010PropOp29
 70
     1
102
RTVSPost2010Prop30
280
     1
102
RTVSPost2010PropOp30
 70
     1
102
RTVSPost2010Prop31
280
     0
102
RTVSPost2010PropOp31
 70
     1
102
RTVSPost2010Prop32
280
     0
102
RTVSPost2010PropOp32
 70
     1
102
RTVSPost2010Prop33
280
     0
102
RTVSPost2010PropOp33
 70
     1
102
RTVSPost2010Prop34
280
     0
102
RTVSPost2010PropOp34
 70
     1
102
RTVSPost2010Prop35
280
     0
102
RTVSPost2010PropOp35
 70
     1
102
RTVSPost2010Prop36
280
     0
102
RTVSPost2010PropOp36
 70
     1
102
RTVSPost2010Prop37
 90
       50
102
RTVSPost2010PropOp37
 70
     1
102
RTVSPost2010Prop38
140
0.0
102
RTVSPost2010PropOp38
 70
     1
102
RTVSPost2010Prop39
140
1.0
102
RTVSPost2010PropOp39
 70
     1
102
RTVSPost2010Prop40
 90
        0
102
RTVSPost2010PropOp40
 70
     1
102
RTVSPost2010Prop41ColorIndex
 90
       18
102
RTVSPost2010Prop41ColorRGB
 90
        0
102
RTVSPost2010PropOp41
 70
     1
102
RTVSPost2010Prop42
 90
       50
102
RTVSPost2010PropOp42
 70
     1
102
RTVSPost2010Prop43
 90
        3
102
RTVSPost2010PropOp43
 70
     1
102
RTVSPost2010Prop44ColorIndex
 90
        5
102
RTVSPost2010Prop44ColorRGB
 90
      255
102
RTVSPost2010PropOp44
 70
     1
102
RTVSPost2010Prop45
280
     0
102
RTVSPost2010PropOp45
 70
     1
102
RTVSPost2010Prop46
 90
       50
102
RTVSPost2010PropOp46
 70
     1
102
RTVSPost2010Prop47
 90
       50
102
RTVSPost2010PropOp47
 70
     1
102
RTVSPost2010Prop48
 90
       50
102
RTVSPost2010PropOp48
 70
     1
102
RTVSPost2010Prop49
280
     0
102
RTVSPost2010PropOp49
 70
     1
102
RTVSPost2010Prop50
 90
       50
102
RTVSPost2010PropOp50
 70
     1
102
RTVSPost2010Prop51ColorIndex
 90
      256
102
RTVSPost2010Prop51ColorRGB
 90
-16777216
102
RTVSPost2010PropOp51
 70
     0
102
RTVSPost2010Prop52
140
1.0
102
RTVSPost2010PropOp52
 70
     0
102
RTVSPost2010Prop53
 90
        2
102
RTVSPost2010PropOp53
 70
     1
102
RTVSPost2010Prop54
  1
strokes_ogs.tif
102
RTVSPost2010PropOp54
 70
     1
102
RTVSPost2010Prop55
280
     0
102
RTVSPost2010PropOp55
 70
     1
102
RTVSPost2010Prop56
140
1.0
102
RTVSPost2010PropOp56
 70
     1
102
RTVSPost2010Prop57
140
1.0
102
RTVSPost2010PropOp57
 70
     1
  0
ENDSEC
  0
EOF
