  0
SECTION
  2
HEADER
  9
$ACADVER
  1
AC1015
  9
$ACADMAINTVER
 70
    13
  9
$DWGCODEPAGE
  3
ANSI_1252
  9
$INSBASE
 10
0.0
 20
0.0
 30
0.0
  9
$EXTMIN
 10
-94.7470932556194
 20
67.25683801598129
 30
0.0
  9
$EXTMAX
 10
317.997900064091
 20
279.0081504805562
 30
0.0
  9
$LIMMIN
 10
-94.7470932006836
 20
59.52368545532227
  9
$LIMMAX
 10
317.9978942871093
 20
277.3512878417968
  9
$ORTHOMODE
 70
     0
  9
$REGENMODE
 70
     1
  9
$FILLMODE
 70
     1
  9
$QTEXTMODE
 70
     0
  9
$MIRRTEXT
 70
     1
  9
$LTSCALE
 40
1.0
  9
$ATTMODE
 70
     1
  9
$TEXTSIZE
 40
2.5
  9
$TRACEWID
 40
1.0
  9
$TEXTSTYLE
  7
Standard
  9
$CLAYER
  8
0
  9
$CELTYPE
  6
ByLayer
  9
$CECOLOR
 62
   256
  9
$CELTSCALE
 40
1.0
  9
$DISPSILH
 70
     0
  9
$DIMSCALE
 40
1.0
  9
$DIMASZ
 40
2.5
  9
$DIMEXO
 40
0.625
  9
$DIMDLI
 40
3.75
  9
$DIMRND
 40
0.0
  9
$DIMDLE
 40
0.0
  9
$DIMEXE
 40
1.25
  9
$DIMTP
 40
0.0
  9
$DIMTM
 40
0.0
  9
$DIMTXT
 40
2.5
  9
$DIMCEN
 40
2.5
  9
$DIMTSZ
 40
0.0
  9
$DIMTOL
 70
     0
  9
$DIMLIM
 70
     0
  9
$DIMTIH
 70
     0
  9
$DIMTOH
 70
     0
  9
$DIMSE1
 70
     0
  9
$DIMSE2
 70
     0
  9
$DIMTAD
 70
     1
  9
$DIMZIN
 70
     8
  9
$DIMBLK
  1

  9
$DIMASO
 70
     1
  9
$DIMSHO
 70
     1
  9
$DIMPOST
  1

  9
$DIMAPOST
  1

  9
$DIMALT
 70
     0
  9
$DIMALTD
 70
     3
  9
$DIMALTF
 40
0.03937007874016
  9
$DIMLFAC
 40
1.0
  9
$DIMTOFL
 70
     1
  9
$DIMTVP
 40
0.0
  9
$DIMTIX
 70
     0
  9
$DIMSOXD
 70
     0
  9
$DIMSAH
 70
     0
  9
$DIMBLK1
  1

  9
$DIMBLK2
  1

  9
$DIMSTYLE
  2
ISO-25
  9
$DIMCLRD
 70
     0
  9
$DIMCLRE
 70
     0
  9
$DIMCLRT
 70
     0
  9
$DIMTFAC
 40
1.0
  9
$DIMGAP
 40
0.625
  9
$DIMJUST
 70
     0
  9
$DIMSD1
 70
     0
  9
$DIMSD2
 70
     0
  9
$DIMTOLJ
 70
     0
  9
$DIMTZIN
 70
     8
  9
$DIMALTZ
 70
     0
  9
$DIMALTTZ
 70
     0
  9
$DIMUPT
 70
     0
  9
$DIMDEC
 70
     2
  9
$DIMTDEC
 70
     2
  9
$DIMALTU
 70
     2
  9
$DIMALTTD
 70
     3
  9
$DIMTXSTY
  7
Standard
  9
$DIMAUNIT
 70
     0
  9
$DIMADEC
 70
     0
  9
$DIMALTRND
 40
0.0
  9
$DIMAZIN
 70
     0
  9
$DIMDSEP
 70
    44
  9
$DIMATFIT
 70
     3
  9
$DIMFRAC
 70
     0
  9
$DIMLDRBLK
  1

  9
$DIMLUNIT
 70
     2
  9
$DIMLWD
 70
    -2
  9
$DIMLWE
 70
    -2
  9
$DIMTMOVE
 70
     0
  9
$LUNITS
 70
     2
  9
$LUPREC
 70
     4
  9
$SKETCHINC
 40
1.0
  9
$FILLETRAD
 40
10.0
  9
$AUNITS
 70
     0
  9
$AUPREC
 70
     0
  9
$MENU
  1
.
  9
$ELEVATION
 40
0.0
  9
$PELEVATION
 40
0.0
  9
$THICKNESS
 40
0.0
  9
$LIMCHECK
 70
     0
  9
$CHAMFERA
 40
10.0
  9
$CHAMFERB
 40
10.0
  9
$CHAMFERC
 40
20.0
  9
$CHAMFERD
 40
0.0
  9
$SKPOLY
 70
     0
  9
$TDCREATE
 40
2455520.494492650
  9
$TDUCREATE
 40
2455520.452825984
  9
$TDUPDATE
 40
2455523.586737685
  9
$TDUUPDATE
 40
2455523.545071018
  9
$TDINDWG
 40
0.0002186458
  9
$TDUSRTIMER
 40
0.0002186458
  9
$USRTIMER
 70
     1
  9
$ANGBASE
 50
0.0
  9
$ANGDIR
 70
     0
  9
$PDMODE
 70
     0
  9
$PDSIZE
 40
0.0
  9
$PLINEWID
 40
0.0
  9
$SPLFRAME
 70
     0
  9
$SPLINETYPE
 70
     6
  9
$SPLINESEGS
 70
     8
  9
$HANDSEED
  5
FA
  9
$SURFTAB1
 70
     6
  9
$SURFTAB2
 70
     6
  9
$SURFTYPE
 70
     6
  9
$SURFU
 70
     6
  9
$SURFV
 70
     6
  9
$UCSBASE
  2

  9
$UCSNAME
  2

  9
$UCSORG
 10
0.0
 20
0.0
 30
0.0
  9
$UCSXDIR
 10
1.0
 20
0.0
 30
0.0
  9
$UCSYDIR
 10
0.0
 20
1.0
 30
0.0
  9
$UCSORTHOREF
  2

  9
$UCSORTHOVIEW
 70
     0
  9
$UCSORGTOP
 10
0.0
 20
0.0
 30
0.0
  9
$UCSORGBOTTOM
 10
0.0
 20
0.0
 30
0.0
  9
$UCSORGLEFT
 10
0.0
 20
0.0
 30
0.0
  9
$UCSORGRIGHT
 10
0.0
 20
0.0
 30
0.0
  9
$UCSORGFRONT
 10
0.0
 20
0.0
 30
0.0
  9
$UCSORGBACK
 10
0.0
 20
0.0
 30
0.0
  9
$PUCSBASE
  2

  9
$PUCSNAME
  2

  9
$PUCSORG
 10
0.0
 20
0.0
 30
0.0
  9
$PUCSXDIR
 10
1.0
 20
0.0
 30
0.0
  9
$PUCSYDIR
 10
0.0
 20
1.0
 30
0.0
  9
$PUCSORTHOREF
  2

  9
$PUCSORTHOVIEW
 70
     0
  9
$PUCSORGTOP
 10
0.0
 20
0.0
 30
0.0
  9
$PUCSORGBOTTOM
 10
0.0
 20
0.0
 30
0.0
  9
$PUCSORGLEFT
 10
0.0
 20
0.0
 30
0.0
  9
$PUCSORGRIGHT
 10
0.0
 20
0.0
 30
0.0
  9
$PUCSORGFRONT
 10
0.0
 20
0.0
 30
0.0
  9
$PUCSORGBACK
 10
0.0
 20
0.0
 30
0.0
  9
$USERI1
 70
     0
  9
$USERI2
 70
     0
  9
$USERI3
 70
     0
  9
$USERI4
 70
     0
  9
$USERI5
 70
     0
  9
$USERR1
 40
0.0
  9
$USERR2
 40
0.0
  9
$USERR3
 40
0.0
  9
$USERR4
 40
0.0
  9
$USERR5
 40
0.0
  9
$WORLDVIEW
 70
     1
  9
$SHADEDGE
 70
     3
  9
$SHADEDIF
 70
    70
  9
$TILEMODE
 70
     1
  9
$MAXACTVP
 70
    64
  9
$PINSBASE
 10
0.0
 20
0.0
 30
0.0
  9
$PLIMCHECK
 70
     0
  9
$PEXTMIN
 10
1.000000000000000E+20
 20
1.000000000000000E+20
 30
1.000000000000000E+20
  9
$PEXTMAX
 10
-1.000000000000000E+20
 20
-1.000000000000000E+20
 30
-1.000000000000000E+20
  9
$PLIMMIN
 10
0.0
 20
0.0
  9
$PLIMMAX
 10
420.0
 20
297.0
  9
$UNITMODE
 70
     0
  9
$VISRETAIN
 70
     1
  9
$PLINEGEN
 70
     0
  9
$PSLTSCALE
 70
     1
  9
$TREEDEPTH
 70
  3020
  9
$CMLSTYLE
  2
Standard
  9
$CMLJUST
 70
     0
  9
$CMLSCALE
 40
20.0
  9
$PROXYGRAPHICS
 70
     1
  9
$MEASUREMENT
 70
     1
  9
$CELWEIGHT
370
    -1
  9
$ENDCAPS
280
     0
  9
$JOINSTYLE
280
     0
  9
$LWDISPLAY
290
     0
  9
$INSUNITS
 70
     4
  9
$HYPERLINKBASE
  1

  9
$STYLESHEET
  1

  9
$XEDIT
290
     1
  9
$CEPSNTYPE
380
     0
  9
$PSTYLEMODE
290
     1
  9
$FINGERPRINTGUID
  2
{898D4372-B6E7-45E6-86F4-429952C6FD72}
  9
$VERSIONGUID
  2
{F8AF38FF-B22E-432B-8327-550AB0CB8FA1}
  9
$EXTNAMES
290
     1
  9
$PSVPSCALE
 40
0.0
  9
$OLESTARTUP
290
     0
  0
ENDSEC
  0
SECTION
  2
CLASSES
  0
CLASS
  1
ACDBDICTIONARYWDFLT
  2
AcDbDictionaryWithDefault
  3
AutoCAD 2000
 90
        0
280
     0
281
     0
  0
CLASS
  1
VISUALSTYLE
  2
AcDbVisualStyle
  3
ObjectDBX Classes
 90
     4095
280
     0
281
     0
  0
CLASS
  1
DICTIONARYVAR
  2
AcDbDictionaryVar
  3
AutoCAD 2000
 90
        0
280
     0
281
     0
  0
CLASS
  1
ACDBPLACEHOLDER
  2
AcDbPlaceHolder
  3
AutoCAD 2000
 90
        0
280
     0
281
     0
  0
CLASS
  1
LAYOUT
  2
AcDbLayout
  3
AutoCAD 2000
 90
        0
280
     0
281
     0
  0
ENDSEC
  0
SECTION
  2
TABLES
  0
TABLE
  2
VPORT
  5
8
330
0
100
AcDbSymbolTable
 70
     2
  0
VPORT
  5
F9
330
8
100
AcDbSymbolTableRecord
100
AcDbViewportTableRecord
  2
*Active
 70
     0
 10
0.0
 20
0.0
 11
1.0
 21
1.0
 12
111.6254015042096
 22
173.132334090682
 13
0.0
 23
0.0
 14
10.0
 24
10.0
 15
10.0
 25
10.0
 16
0.0
 26
0.0
 36
1.0
 17
0.0
 27
0.0
 37
0.0
 40
217.1734335039493
 41
1.906832298136645
 42
50.0
 43
0.0
 44
0.0
 50
0.0
 51
0.0
 71
     0
 72
   100
 73
     1
 74
     3
 75
     0
 76
     0
 77
     0
 78
     0
281
     0
 65
     1
110
0.0
120
0.0
130
0.0
111
1.0
121
0.0
131
0.0
112
0.0
122
1.0
132
0.0
 79
     0
146
0.0
  0
ENDTAB
  0
TABLE
  2
LTYPE
  5
5
330
0
100
AcDbSymbolTable
 70
     1
  0
LTYPE
  5
14
330
5
100
AcDbSymbolTableRecord
100
AcDbLinetypeTableRecord
  2
ByBlock
 70
     0
  3

 72
    65
 73
     0
 40
0.0
  0
LTYPE
  5
15
330
5
100
AcDbSymbolTableRecord
100
AcDbLinetypeTableRecord
  2
ByLayer
 70
     0
  3

 72
    65
 73
     0
 40
0.0
  0
LTYPE
  5
16
330
5
100
AcDbSymbolTableRecord
100
AcDbLinetypeTableRecord
  2
Continuous
 70
     0
  3
Solid line
 72
    65
 73
     0
 40
0.0
  0
ENDTAB
  0
TABLE
  2
LAYER
  5
2
330
0
100
AcDbSymbolTable
 70
     1
  0
LAYER
  5
10
330
2
100
AcDbSymbolTableRecord
100
AcDbLayerTableRecord
  2
0
 70
     0
 62
   106
  6
Continuous
370
     0
390
F
  0
ENDTAB
  0
TABLE
  2
STYLE
  5
3
330
0
100
AcDbSymbolTable
 70
     4
  0
STYLE
  5
11
330
3
100
AcDbSymbolTableRecord
100
AcDbTextStyleTableRecord
  2
Standard
 70
     0
 40
0.0
 41
1.0
 50
0.0
 71
     0
 42
2.5
  3
txt
  4

  0
STYLE
  5
3B
330
3
100
AcDbSymbolTableRecord
100
AcDbTextStyleTableRecord
  2
Default
 70
     0
 40
0.0
 41
1.0
 50
0.0
 71
     0
 42
0.2
  3
txt_____.ttf
  4

1001
ACAD
1000
txt
1071
        0
  0
STYLE
  5
3C
330
3
100
AcDbSymbolTableRecord
100
AcDbTextStyleTableRecord
  2
ISO
 70
     0
 40
0.0
 41
1.0
 50
0.0
 71
     0
 42
0.2
  3
txt_____.ttf
  4

1001
ACAD
1000
txt
1071
        0
  0
STYLE
  5
3D
330
3
100
AcDbSymbolTableRecord
100
AcDbTextStyleTableRecord
  2
GIANLU
 70
     0
 40
0.0
 41
1.0
 50
0.0
 71
     0
 42
0.2
  3
ARIAL.TTF
  4

1001
ACAD
1000
Arial
1071
        0
  0
ENDTAB
  0
TABLE
  2
VIEW
  5
6
330
0
100
AcDbSymbolTable
 70
     0
  0
ENDTAB
  0
TABLE
  2
UCS
  5
7
330
0
100
AcDbSymbolTable
 70
     0
  0
ENDTAB
  0
TABLE
  2
APPID
  5
9
330
0
100
AcDbSymbolTable
 70
     1
  0
APPID
  5
12
330
9
100
AcDbSymbolTableRecord
100
AcDbRegAppTableRecord
  2
ACAD
 70
     0
  0
ENDTAB
  0
TABLE
  2
DIMSTYLE
  5
A
330
0
100
AcDbSymbolTable
 70
     4
100
AcDbDimStyleTable
 71
     0
  0
DIMSTYLE
105
27
330
A
100
AcDbSymbolTableRecord
100
AcDbDimStyleTableRecord
  2
ISO-25
 70
     0
 41
2.5
 42
0.625
 43
3.75
 44
1.25
 73
     0
 74
     0
 77
     1
 78
     8
140
2.5
141
2.5
143
0.03937007874016
147
0.625
171
     3
172
     1
271
     2
272
     2
274
     3
278
    44
283
     0
284
     8
340
11
  0
DIMSTYLE
105
3E
330
A
100
AcDbSymbolTableRecord
100
AcDbDimStyleTableRecord
  2
Default
 70
     0
  3
<>
 41
4.375
 42
1.05
 44
2.1
 73
     0
 74
     0
 77
     1
 78
     8
140
3.5
146
0.4
147
1.75
178
     3
271
     2
272
     3
284
     8
340
3B
341
3F
342
3F
  0
DIMSTYLE
105
46
330
A
100
AcDbSymbolTableRecord
100
AcDbDimStyleTableRecord
  2
ISO
 70
     0
  3
<>
 41
4.375
 42
1.05
 44
2.1
 73
     0
 74
     0
 77
     1
 78
     8
140
3.5
146
0.4
147
1.75
178
     3
271
     2
272
     3
284
     8
340
3C
341
3F
342
3F
  0
DIMSTYLE
105
47
330
A
100
AcDbSymbolTableRecord
100
AcDbDimStyleTableRecord
  2
zucchetti_unico
 70
     0
  3
<>
 41
3.0
 42
0.9
 44
1.799999999999999
 73
     0
 74
     0
 77
     1
 78
     8
140
3.0
146
0.6
147
1.5
176
   104
177
     3
178
     3
271
     2
272
     2
284
     8
340
3D
  0
ENDTAB
  0
TABLE
  2
BLOCK_RECORD
  5
1
330
0
100
AcDbSymbolTable
 70
     6
  0
BLOCK_RECORD
  5
1F
330
1
100
AcDbSymbolTableRecord
100
AcDbBlockTableRecord
  2
*Model_Space
340
22
  0
BLOCK_RECORD
  5
1B
330
1
100
AcDbSymbolTableRecord
100
AcDbBlockTableRecord
  2
*Paper_Space
340
1E
  0
BLOCK_RECORD
  5
23
330
1
100
AcDbSymbolTableRecord
100
AcDbBlockTableRecord
  2
*Paper_Space0
340
26
  0
BLOCK_RECORD
  5
3F
330
1
100
AcDbSymbolTableRecord
100
AcDbBlockTableRecord
  2
_CLOSED
340
0
  0
BLOCK_RECORD
  5
48
330
1
100
AcDbSymbolTableRecord
100
AcDbBlockTableRecord
  2
a
340
0
102
{BLKREFS
331
77
102
}
  0
BLOCK_RECORD
  5
78
330
1
100
AcDbSymbolTableRecord
100
AcDbBlockTableRecord
  2
b
340
0
102
{BLKREFS
331
91
102
}
  0
BLOCK_RECORD
  5
92
330
1
100
AcDbSymbolTableRecord
100
AcDbBlockTableRecord
  2
c
340
0
102
{BLKREFS
331
BC
102
}
  0
BLOCK_RECORD
  5
BD
330
1
100
AcDbSymbolTableRecord
100
AcDbBlockTableRecord
  2
d
340
0
102
{BLKREFS
331
E7
102
}
  0
ENDTAB
  0
ENDSEC
  0
SECTION
  2
BLOCKS
  0
BLOCK
  5
20
330
1F
100
AcDbEntity
  8
0
100
AcDbBlockBegin
  2
*Model_Space
 70
     0
 10
0.0
 20
0.0
 30
0.0
  3
*Model_Space
  1

  0
ENDBLK
  5
21
330
1F
100
AcDbEntity
  8
0
100
AcDbBlockEnd
  0
BLOCK
  5
1C
330
1B
100
AcDbEntity
 67
     1
  8
0
100
AcDbBlockBegin
  2
*Paper_Space
 70
     0
 10
0.0
 20
0.0
 30
0.0
  3
*Paper_Space
  1

  0
ENDBLK
  5
1D
330
1B
100
AcDbEntity
 67
     1
  8
0
100
AcDbBlockEnd
  0
BLOCK
  5
24
330
23
100
AcDbEntity
  8
0
100
AcDbBlockBegin
  2
*Paper_Space0
 70
     0
 10
0.0
 20
0.0
 30
0.0
  3
*Paper_Space0
  1

  0
ENDBLK
  5
25
330
23
100
AcDbEntity
  8
0
100
AcDbBlockEnd
  0
BLOCK
  5
40
330
3F
100
AcDbEntity
  8
0
100
AcDbBlockBegin
  2
_CLOSED
 70
     0
 10
0.0
 20
0.0
 30
0.0
  3
_CLOSED
  1

  0
LINE
  5
42
330
3F
100
AcDbEntity
  8
0
  6
ByBlock
 62
     0
370
    -2
100
AcDbLine
 10
-1.0
 20
0.166667
 30
0.0
 11
0.0
 21
0.0
 31
0.0
  0
LINE
  5
43
330
3F
100
AcDbEntity
  8
0
  6
ByBlock
 62
     0
370
    -2
100
AcDbLine
 10
0.0
 20
0.0
 30
0.0
 11
-1.0
 21
-0.166667
 31
0.0
  0
LINE
  5
44
330
3F
100
AcDbEntity
  8
0
  6
ByBlock
 62
     0
370
    -2
100
AcDbLine
 10
-1.0
 20
0.166667
 30
0.0
 11
-1.0
 21
-0.166667
 31
0.0
  0
LINE
  5
45
330
3F
100
AcDbEntity
  8
0
  6
ByBlock
 62
     0
370
    -2
100
AcDbLine
 10
0.0
 20
0.0
 30
0.0
 11
-1.0
 21
0.0
 31
0.0
  0
ENDBLK
  5
41
330
3F
100
AcDbEntity
  8
0
100
AcDbBlockEnd
  0
BLOCK
  5
75
330
48
100
AcDbEntity
  8
0
100
AcDbBlockBegin
  2
a
 70
     0
 10
50.45655059814453
 20
66.55362701416016
 30
0.0
  3
a
  1

  0
LINE
  5
49
330
48
100
AcDbEntity
  8
0
  6
Continuous
 62
     0
370
    30
100
AcDbLine
 10
87.63469696044934
 20
237.3512962311507
 30
0.0
 11
87.63469696044934
 21
257.3512962311507
 31
0.0
  0
LINE
  5
4A
330
48
100
AcDbEntity
  8
0
  6
Continuous
 62
     0
370
    30
100
AcDbLine
 10
87.63469696044934
 20
237.3512962311507
 30
0.0
 11
97.6346969604493
 21
237.3512962311507
 31
0.0
  0
LINE
  5
4B
330
48
100
AcDbEntity
  8
0
  6
Continuous
 62
     0
370
     0
100
AcDbLine
 10
97.63469696044928
 20
237.3512962311507
 30
0.0
 11
97.63469696044928
 21
257.3512962311507
 31
0.0
  0
LINE
  5
4C
330
48
100
AcDbEntity
  8
0
  6
Continuous
 62
     0
370
    30
100
AcDbLine
 10
97.6346969604493
 20
257.3512962311507
 30
0.0
 11
87.63469696044934
 21
257.3512962311507
 31
0.0
  0
LINE
  5
4D
330
48
100
AcDbEntity
  8
0
  6
Continuous
 62
     0
370
    30
100
AcDbLine
 10
97.63469696044932
 20
237.3512962311507
 30
0.0
 11
99.13469696044934
 21
237.3512962311507
 31
0.0
  0
LINE
  5
4E
330
48
100
AcDbEntity
  8
0
  6
Continuous
 62
     0
370
    30
100
AcDbLine
 10
99.13469696044934
 20
237.3512962311507
 30
0.0
 11
99.13469696044934
 21
257.3512962311507
 31
0.0
  0
LINE
  5
4F
330
48
100
AcDbEntity
  8
0
  6
Continuous
 62
     0
370
    30
100
AcDbLine
 10
99.13469696044934
 20
257.3512962311507
 30
0.0
 11
97.63469696044934
 21
257.3512962311507
 31
0.0
  0
LINE
  5
50
330
48
100
AcDbEntity
  8
0
  6
Continuous
 62
     0
370
    30
100
AcDbLine
 10
116.1346969604493
 20
237.3512962311507
 30
0.0
 11
116.1346969604493
 21
257.3512962311507
 31
0.0
  0
LINE
  5
51
330
48
100
AcDbEntity
  8
0
  6
Continuous
 62
     0
370
    30
100
AcDbLine
 10
116.1346969604493
 20
237.3512962311507
 30
0.0
 11
117.6346969604493
 21
237.3512962311507
 31
0.0
  0
LINE
  5
52
330
48
100
AcDbEntity
  8
0
  6
Continuous
 62
     0
370
     0
100
AcDbLine
 10
117.6346969604493
 20
237.3512962311507
 30
0.0
 11
117.6346969604493
 21
257.3512962311507
 31
0.0
  0
LINE
  5
53
330
48
100
AcDbEntity
  8
0
  6
Continuous
 62
     0
370
    30
100
AcDbLine
 10
117.6346969604493
 20
257.3512962311507
 30
0.0
 11
116.1346969604493
 21
257.3512962311507
 31
0.0
  0
LINE
  5
54
330
48
100
AcDbEntity
  8
0
  6
Continuous
 62
     0
370
    30
100
AcDbLine
 10
117.6346969604493
 20
237.3512962311507
 30
0.0
 11
127.6346969604493
 21
237.3512962311507
 31
0.0
  0
LINE
  5
55
330
48
100
AcDbEntity
  8
0
  6
Continuous
 62
     0
370
    30
100
AcDbLine
 10
127.6346969604493
 20
237.3512962311507
 30
0.0
 11
127.6346969604493
 21
257.3512962311507
 31
0.0
  0
LINE
  5
56
330
48
100
AcDbEntity
  8
0
  6
Continuous
 62
     0
370
    30
100
AcDbLine
 10
127.6346969604493
 20
257.3512962311507
 30
0.0
 11
117.6346969604493
 21
257.3512962311507
 31
0.0
  0
LINE
  5
57
330
48
100
AcDbEntity
  8
0
  6
Continuous
 62
     0
370
    30
100
AcDbLine
 10
99.13469696044934
 20
237.3512962311507
 30
0.0
 11
116.1346969604493
 21
237.3512962311507
 31
0.0
  0
LINE
  5
58
330
48
100
AcDbEntity
  8
0
  6
Continuous
 62
     0
370
    30
100
AcDbLine
 10
99.13469696044934
 20
257.3512962311507
 30
0.0
 11
116.1346969604493
 21
257.3512962311507
 31
0.0
  0
LINE
  5
59
330
48
100
AcDbEntity
  8
0
  6
Continuous
 62
     0
370
    30
100
AcDbLine
 10
116.4952751153414
 20
227.6512964218856
 30
0.0
 11
97.13469751163184
 21
227.6512964218856
 31
0.0
  0
LWPOLYLINE
  5
5A
330
48
100
AcDbEntity
  8
0
  6
Continuous
 62
     0
370
    30
100
AcDbPolyline
 90
        6
 70
     0
 43
0.0
 10
118.1346969604492
 20
227.6512908935547
 10
118.0600509643554
 20
227.6512908935547
 10
117.8430404663086
 20
227.6512908935547
 10
117.4977416992187
 20
227.6512908935547
 10
117.0419006347656
 20
227.6512908935547
 10
116.4952774047851
 20
227.6512908935547
  0
LINE
  5
5B
330
48
100
AcDbEntity
  8
0
  6
Continuous
 62
     0
370
    30
100
AcDbLine
 10
116.4952751153414
 20
222.0512964218856
 30
0.0
 11
118.1346975116318
 21
222.0512964218856
 31
0.0
  0
LINE
  5
5C
330
48
100
AcDbEntity
  8
0
  6
Continuous
 62
     0
370
    30
100
AcDbLine
 10
97.13469751163183
 20
222.0512964218856
 30
0.0
 11
116.4952751153414
 21
222.0512964218856
 31
0.0
  0
LINE
  5
5D
330
48
100
AcDbEntity
  8
0
  6
Continuous
 62
     0
370
    30
100
AcDbLine
 10
115.6514105816548
 20
221.0512964218856
 30
0.0
 11
98.1347036970183
 21
221.0512964218856
 31
0.0
  0
LINE
  5
5E
330
48
100
AcDbEntity
  8
0
  6
Continuous
 62
     0
370
    30
100
AcDbLine
 10
117.1346872011751
 20
221.0512964218856
 30
0.0
 11
115.6514105816548
 21
221.0512964218856
 31
0.0
  0
LINE
  5
5F
330
48
100
AcDbEntity
  8
0
  6
Continuous
 62
     0
370
     0
100
AcDbLine
 10
117.2547531956594
 20
231.3512964248658
 30
0.0
 11
119.0346975116318
 21
231.3512964248658
 31
0.0
  0
LINE
  5
60
330
48
100
AcDbEntity
  8
0
  6
Continuous
 62
     0
370
     0
100
AcDbLine
 10
96.23469751163183
 20
231.3512964248658
 30
0.0
 11
117.2547531956594
 21
231.3512964248658
 31
0.0
  0
LINE
  5
61
330
48
100
AcDbEntity
  8
0
  6
Continuous
 62
     0
370
    30
100
AcDbLine
 10
117.0859802864208
 20
231.1512964218856
 30
0.0
 11
118.8346975086677
 21
231.1512964218856
 31
0.0
  0
LINE
  5
62
330
48
100
AcDbEntity
  8
0
  6
Continuous
 62
     0
370
    30
100
AcDbLine
 10
96.43469751459589
 20
231.1512964218856
 30
0.0
 11
117.0859802864208
 21
231.1512964218856
 31
0.0
  0
LINE
  5
63
330
48
100
AcDbEntity
  8
0
  6
Continuous
 62
     0
370
    30
100
AcDbLine
 10
129.6346899603624
 20
217.3512962313151
 30
0.0
 11
85.63468996053831
 21
217.3512962313151
 31
0.0
  0
ARC
  5
64
330
48
100
AcDbEntity
  8
0
  6
Continuous
 62
     0
370
    30
100
AcDbCircle
 10
85.63468996053831
 20
225.3512962312831
 30
0.0
 40
7.999999999968004
100
AcDbArc
 50
179.9999999999999
 51
269.9999999997766
  0
LINE
  5
65
330
48
100
AcDbEntity
  8
0
  6
Continuous
 62
     0
370
    30
100
AcDbLine
 10
77.63468996057032
 20
225.3512962312831
 30
0.0
 11
77.6346899605706
 21
269.351296231107
 31
0.0
  0
ARC
  5
66
330
48
100
AcDbEntity
  8
0
  6
Continuous
 62
     0
370
    30
100
AcDbCircle
 10
85.6346899605386
 20
269.351296231107
 30
0.0
 40
7.999999999968
100
AcDbArc
 50
90.00000000000005
 51
179.9999999997766
  0
LINE
  5
67
330
48
100
AcDbEntity
  8
0
  6
Continuous
 62
     0
370
    30
100
AcDbLine
 10
85.6346899605386
 20
277.351296231075
 30
0.0
 11
129.6346899603625
 21
277.351296231075
 31
0.0
  0
ARC
  5
68
330
48
100
AcDbEntity
  8
0
  6
Continuous
 62
     0
370
    30
100
AcDbCircle
 10
129.6346899603625
 20
269.351296231107
 30
0.0
 40
7.999999999968004
100
AcDbArc
 50
0.0
 51
89.99999999977671
  0
LINE
  5
69
330
48
100
AcDbEntity
  8
0
  6
Continuous
 62
     0
370
    30
100
AcDbLine
 10
137.6346899603305
 20
269.351296231107
 30
0.0
 11
137.6346899603304
 21
225.3512962312831
 31
0.0
  0
ARC
  5
6A
330
48
100
AcDbEntity
  8
0
  6
Continuous
 62
     0
370
    30
100
AcDbCircle
 10
129.6346899603624
 20
225.3512962312831
 30
0.0
 40
7.999999999968004
100
AcDbArc
 50
270.0
 51
359.9999999997767
  0
ARC
  5
6B
330
48
100
AcDbEntity
  8
0
  6
Continuous
 62
     0
370
    30
100
AcDbCircle
 10
96.43473707169434
 20
231.3513285556922
 30
0.0
 40
0.2000321401792947
100
AcDbArc
 50
180.0092033250106
 51
269.983999456765
  0
ARC
  5
6C
330
48
100
AcDbEntity
  8
0
  6
Continuous
 62
     0
370
    30
100
AcDbCircle
 10
118.8346530433761
 20
231.351328513465
 30
0.0
 40
0.2000320982814649
100
AcDbArc
 50
270.0165864487861
 51
359.9908087683323
  0
LINE
  5
6D
330
48
100
AcDbEntity
  8
0
  6
Continuous
 62
     0
370
    30
100
AcDbLine
 10
119.0346975116318
 20
231.3512964148658
 30
0.0
 11
119.0346975116318
 21
237.3512962311507
 31
0.0
  0
LINE
  5
6E
330
48
100
AcDbEntity
  8
0
  6
Continuous
 62
     0
370
    30
100
AcDbLine
 10
96.23469751163183
 20
231.3512964148658
 30
0.0
 11
96.23469751163183
 21
237.3512962311507
 31
0.0
  0
LINE
  5
6F
330
48
100
AcDbEntity
  8
0
  6
Continuous
 62
     0
370
    30
100
AcDbLine
 10
98.1347036970183
 20
221.0512964218856
 30
0.0
 11
97.1347043481116
 21
222.0512964218856
 31
0.0
  0
LINE
  5
70
330
48
100
AcDbEntity
  8
0
  6
Continuous
 62
     0
370
    30
100
AcDbLine
 10
117.1346872011751
 20
221.0512964218856
 30
0.0
 11
118.1346861158639
 21
222.0512964218856
 31
0.0
  0
LINE
  5
71
330
48
100
AcDbEntity
  8
0
  6
Continuous
 62
     0
370
    30
100
AcDbLine
 10
118.1346975116318
 20
222.0512964118856
 30
0.0
 11
118.1346975116318
 21
227.6512964218856
 31
0.0
  0
LINE
  5
72
330
48
100
AcDbEntity
  8
0
  6
Continuous
 62
     0
370
    30
100
AcDbLine
 10
97.13469751163183
 20
222.0512964118856
 30
0.0
 11
97.13469751163183
 21
227.6512964218856
 31
0.0
  0
LINE
  5
73
330
48
100
AcDbEntity
  8
0
  6
Continuous
 62
     0
370
    30
100
AcDbLine
 10
116.7346975116318
 20
227.6512964118856
 30
0.0
 11
116.7346975116318
 21
231.1512964218856
 31
0.0
  0
LINE
  5
74
330
48
100
AcDbEntity
  8
0
  6
Continuous
 62
     0
370
    30
100
AcDbLine
 10
98.53469751163181
 20
227.6512964118856
 30
0.0
 11
98.53469751163181
 21
231.1512964218856
 31
0.0
  0
ENDBLK
  5
76
330
48
100
AcDbEntity
  8
0
100
AcDbBlockEnd
  0
BLOCK
  5
8F
330
78
100
AcDbEntity
  8
0
100
AcDbBlockBegin
  2
b
 70
     0
 10
33.49874114990234
 20
62.38271331787109
 30
0.0
  3
b
  1

  0
LINE
  5
79
330
78
100
AcDbEntity
  8
0
  6
Continuous
 62
     0
370
    30
100
AcDbLine
 10
87.63469696044934
 20
85.91709205382475
 30
0.0
 11
87.63469696044934
 21
150.9170920538243
 31
0.0
  0
ARC
  5
7A
330
78
100
AcDbEntity
  8
0
  6
Continuous
 62
     0
370
    30
100
AcDbCircle
 10
107.6346969604493
 20
85.91709205382475
 30
0.0
 40
20.0
100
AcDbArc
 50
179.9999999996279
 51
239.9999999994789
  0
ARC
  5
7B
330
78
100
AcDbEntity
  8
0
  6
Continuous
 62
     0
370
    30
100
AcDbCircle
 10
98.13469696044933
 20
69.46260938192044
 30
0.0
 40
1.0
100
AcDbArc
 50
239.9999999997019
 51
359.9999999993859
  0
LINE
  5
7C
330
78
100
AcDbEntity
  8
0
  6
Continuous
 62
     0
370
    30
100
AcDbLine
 10
99.13469696044934
 20
79.66522062762999
 30
0.0
 11
99.13469696044934
 21
78.54739277536889
 31
0.0
  0
LINE
  5
7D
330
78
100
AcDbEntity
  8
0
  6
Continuous
 62
     0
370
    30
100
AcDbLine
 10
99.13469696044934
 20
78.54739277536889
 30
0.0
 11
99.13469696044934
 21
69.46260938192006
 31
0.0
  0
LINE
  5
7E
330
78
100
AcDbEntity
  8
0
  6
Continuous
 62
     0
370
    30
100
AcDbLine
 10
116.1346969604493
 20
69.46260938192044
 30
0.0
 11
116.1346969604493
 21
78.54739277536892
 31
0.0
  0
LINE
  5
7F
330
78
100
AcDbEntity
  8
0
  6
Continuous
 62
     0
370
    30
100
AcDbLine
 10
116.1346969604493
 20
78.54739277536889
 30
0.0
 11
116.1346969604493
 21
79.66522062762988
 31
0.0
  0
ARC
  5
80
330
78
100
AcDbEntity
  8
0
  6
Continuous
 62
     0
370
    30
100
AcDbCircle
 10
117.1346969604493
 20
69.46260938192044
 30
0.0
 40
1.0
100
AcDbArc
 50
179.9999999997023
 51
299.999999999405
  0
ARC
  5
81
330
78
100
AcDbEntity
  8
0
  6
Continuous
 62
     0
370
    30
100
AcDbCircle
 10
107.6346969604493
 20
85.91709205382475
 30
0.0
 40
20.0
100
AcDbArc
 50
299.999999999988
 51
359.9999999998381
  0
LINE
  5
82
330
78
100
AcDbEntity
  8
0
  6
Continuous
 62
     0
370
    30
100
AcDbLine
 10
127.6346969604493
 20
150.9170920538246
 30
0.0
 11
127.6346969604493
 21
85.91709205382439
 31
0.0
  0
ARC
  5
83
330
78
100
AcDbEntity
  8
0
  6
Continuous
 62
     0
370
    30
100
AcDbCircle
 10
107.6346969604493
 20
85.9170929280525
 30
0.0
 40
10.55158316371466
100
AcDbArc
 50
323.6649832262781
 51
216.3350167743486
  0
ARC
  5
84
330
78
100
AcDbEntity
  8
0
  6
Continuous
 62
     0
370
    30
100
AcDbCircle
 10
107.6346969604493
 20
85.9170920538245
 30
0.0
 40
11.24999855354964
100
AcDbArc
 50
319.0739451875978
 51
220.9260548130517
  0
LINE
  5
85
330
78
100
AcDbEntity
  8
0
  6
Continuous
 62
     0
370
    30
100
AcDbLine
 10
77.6346899605706
 20
150.9170915292879
 30
0.0
 11
85.63468996053858
 21
150.9170915292879
 31
0.0
  0
LINE
  5
86
330
78
100
AcDbEntity
  8
0
  6
Continuous
 62
     0
370
    30
100
AcDbLine
 10
85.6346899605386
 20
150.9170911795968
 30
0.0
 11
129.6346899603625
 21
150.9170911795968
 31
0.0
  0
LINE
  5
87
330
78
100
AcDbEntity
  8
0
  6
Continuous
 62
     0
370
    30
100
AcDbLine
 10
129.6346899603625
 20
150.9170915292879
 30
0.0
 11
137.6346899603305
 21
150.9170915292879
 31
0.0
  0
LINE
  5
88
330
78
100
AcDbEntity
  8
0
  6
Continuous
 62
     0
370
    30
100
AcDbLine
 10
77.6346899605706
 20
160.9170915292879
 30
0.0
 11
85.63468996053858
 21
160.9170915292879
 31
0.0
  0
LINE
  5
89
330
78
100
AcDbEntity
  8
0
  6
Continuous
 62
     0
370
    30
100
AcDbLine
 10
85.6346899605386
 20
160.9170911795968
 30
0.0
 11
129.6346899603625
 21
160.9170911795968
 31
0.0
  0
LINE
  5
8A
330
78
100
AcDbEntity
  8
0
  6
Continuous
 62
     0
370
    30
100
AcDbLine
 10
129.6346899603625
 20
160.9170915292879
 30
0.0
 11
137.6346899603305
 21
160.9170915292879
 31
0.0
  0
LINE
  5
8B
330
78
100
AcDbEntity
  8
0
  6
Continuous
 62
     0
370
    30
100
AcDbLine
 10
77.6346899605706
 20
150.9170915292879
 30
0.0
 11
77.6346899605706
 21
160.9170915292879
 31
0.0
  0
LINE
  5
8C
330
78
100
AcDbEntity
  8
0
  6
Continuous
 62
     0
370
     0
100
AcDbLine
 10
85.6346899605386
 20
150.9170911795968
 30
0.0
 11
85.6346899605386
 21
160.9170911795968
 31
0.0
  0
LINE
  5
8D
330
78
100
AcDbEntity
  8
0
  6
Continuous
 62
     0
370
     0
100
AcDbLine
 10
129.6346899603625
 20
150.9170911795968
 30
0.0
 11
129.6346899603625
 21
160.9170911795968
 31
0.0
  0
LINE
  5
8E
330
78
100
AcDbEntity
  8
0
  6
Continuous
 62
     0
370
    30
100
AcDbLine
 10
137.6346899603305
 20
150.9170915292879
 30
0.0
 11
137.6346899603305
 21
160.9170915292879
 31
0.0
  0
ENDBLK
  5
90
330
78
100
AcDbEntity
  8
0
100
AcDbBlockEnd
  0
BLOCK
  5
BA
330
92
100
AcDbEntity
  8
0
100
AcDbBlockBegin
  2
c
 70
     0
 10
26.08914947509765
 20
26.75362396240234
 30
0.0
  3
c
  1

  0
LINE
  5
93
330
92
100
AcDbEntity
  8
0
  6
Continuous
 62
     0
370
     0
100
AcDbLine
 10
300.5434178511563
 20
237.3512962311507
 30
0.0
 11
300.5434178511563
 21
257.3512962311507
 31
0.0
  0
LINE
  5
94
330
92
100
AcDbEntity
  8
0
  6
Continuous
 62
     0
370
    30
100
AcDbLine
 10
300.5434178511563
 20
257.3512962311507
 30
0.0
 11
235.5434178511567
 21
257.3512962311507
 31
0.0
  0
LINE
  5
95
330
92
100
AcDbEntity
  8
0
  6
Continuous
 62
     0
370
    30
100
AcDbLine
 10
235.5434178511567
 20
237.3512962311507
 30
0.0
 11
300.5434178511563
 21
237.3512962311507
 31
0.0
  0
LINE
  5
96
330
92
100
AcDbEntity
  8
0
  6
Continuous
 62
     0
370
    30
100
AcDbLine
 10
300.5434178511563
 20
237.3512962311507
 30
0.0
 11
317.8639254897312
 21
237.3512962311507
 31
0.0
  0
LINE
  5
97
330
92
100
AcDbEntity
  8
0
  6
Continuous
 62
     0
370
     0
100
AcDbLine
 10
317.8639254897313
 20
237.3512962311507
 30
0.0
 11
317.8639254897313
 21
257.3512962311507
 31
0.0
  0
LINE
  5
98
330
92
100
AcDbEntity
  8
0
  6
Continuous
 62
     0
370
    30
100
AcDbLine
 10
317.8639254897312
 20
257.3512962311507
 30
0.0
 11
300.5434178511563
 21
257.3512962311507
 31
0.0
  0
LINE
  5
99
330
92
100
AcDbEntity
  8
0
  6
Continuous
 62
     0
370
    30
100
AcDbLine
 10
317.8639254897312
 20
237.3512962311507
 30
0.0
 11
317.997900064091
 21
237.3512962311507
 31
0.0
  0
LINE
  5
9A
330
92
100
AcDbEntity
  8
0
  6
Continuous
 62
     0
370
    30
100
AcDbLine
 10
317.997900064091
 20
257.3512962311507
 30
0.0
 11
317.8639254897312
 21
257.3512962311507
 31
0.0
  0
LWPOLYLINE
  5
9B
330
92
100
AcDbEntity
  8
0
  6
Continuous
 62
     0
370
    30
100
AcDbPolyline
 90
       19
 70
     0
 43
0.0
 10
275.8434143066406
 20
227.6512908935547
 10
275.7636413574218
 20
227.6512908935547
 10
275.5320739746093
 20
227.6512908935547
 10
275.1645507812499
 20
227.6512908935547
 10
274.680908203125
 20
227.6512908935547
 10
274.1023864746093
 20
227.6512908935547
 10
273.4103393554687
 20
227.6512908935547
 10
272.5870666503906
 20
227.6512908935547
 10
271.6366577148437
 20
227.6512908935547
 10
270.5696105957031
 20
227.6512908935547
 10
269.4030151367187
 20
227.6512908935547
 10
268.1600646972656
 20
227.6512908935547
 10
266.8685913085937
 20
227.6512908935547
 10
265.55908203125
 20
227.6512908935547
 10
264.2622375488281
 20
227.6512908935547
 10
263.0068664550781
 20
227.6512908935547
 10
261.8176574707031
 20
227.6512908935547
 10
260.7140197753906
 20
227.6512908935547
 10
259.7095642089843
 20
227.6512908935547
  0
LINE
  5
9C
330
92
100
AcDbEntity
  8
0
  6
Continuous
 62
     0
370
    30
100
AcDbLine
 10
259.709576339222
 20
227.6512964218856
 30
0.0
 11
254.8434169621518
 21
227.6512964218856
 31
0.0
  0
LINE
  5
9D
330
92
100
AcDbEntity
  8
0
  6
Continuous
 62
     0
370
    30
100
AcDbLine
 10
254.8434169621518
 20
222.0512964218856
 30
0.0
 11
259.7095763392221
 21
222.0512964218856
 31
0.0
  0
LINE
  5
9E
330
92
100
AcDbEntity
  8
0
  6
Continuous
 62
     0
370
    30
100
AcDbLine
 10
259.7095763392221
 20
222.0512964218856
 30
0.0
 11
275.8434169621518
 21
222.0512964218856
 31
0.0
  0
LWPOLYLINE
  5
9F
330
92
100
AcDbEntity
  8
0
  6
Continuous
 62
     0
370
    30
100
AcDbPolyline
 90
       18
 70
     0
 43
0.0
 10
274.8434143066406
 20
221.0513000488281
 10
274.7684936523437
 20
221.0513000488281
 10
274.5447998046874
 20
221.0513000488281
 10
274.1759033203125
 20
221.0513000488281
 10
273.6675415039062
 20
221.0513000488281
 10
273.0278320312499
 20
221.0513000488281
 10
272.266845703125
 20
221.0513000488281
 10
271.3965148925781
 20
221.0513000488281
 10
270.4306945800781
 20
221.0513000488281
 10
269.3845825195312
 20
221.0513000488281
 10
268.274658203125
 20
221.0513000488281
 10
267.1184692382812
 20
221.0513000488281
 10
265.9342651367187
 20
221.0513000488281
 10
264.7407531738281
 20
221.0513000488281
 10
263.5567321777343
 20
221.0513000488281
 10
262.4009094238281
 20
221.0513000488281
 10
261.2915649414062
 20
221.0513000488281
 10
260.2461242675781
 20
221.0513000488281
  0
LINE
  5
A0
330
92
100
AcDbEntity
  8
0
  6
Continuous
 62
     0
370
    30
100
AcDbLine
 10
260.2461325890248
 20
221.0512964218856
 30
0.0
 11
255.843423147737
 21
221.0512964218856
 31
0.0
  0
LINE
  5
A1
330
92
100
AcDbEntity
  8
0
  6
Continuous
 62
     0
370
     0
100
AcDbLine
 10
253.9434169621518
 20
231.3512964248658
 30
0.0
 11
259.2266757143995
 21
231.3512964248658
 31
0.0
  0
LINE
  5
A2
330
92
100
AcDbEntity
  8
0
  6
Continuous
 62
     0
370
     0
100
AcDbLine
 10
259.2266757143995
 20
231.3512964248658
 30
0.0
 11
276.7434169621519
 21
231.3512964248658
 31
0.0
  0
LINE
  5
A3
330
92
100
AcDbEntity
  8
0
  6
Continuous
 62
     0
370
    30
100
AcDbLine
 10
254.1434169651159
 20
231.1512964218856
 30
0.0
 11
259.3339869659505
 21
231.1512964218856
 31
0.0
  0
LINE
  5
A4
330
92
100
AcDbEntity
  8
0
  6
Continuous
 62
     0
370
    30
100
AcDbLine
 10
259.3339869659505
 20
231.1512964218856
 30
0.0
 11
276.5434169591878
 21
231.1512964218856
 31
0.0
  0
LINE
  5
A5
330
92
100
AcDbEntity
  8
0
  6
Continuous
 62
     0
370
    30
100
AcDbLine
 10
235.5434179385795
 20
217.3512962313151
 30
0.0
 11
235.5434179385795
 21
225.3512962312831
 31
0.0
  0
LINE
  5
A6
330
92
100
AcDbEntity
  8
0
  6
Continuous
 62
     0
370
    30
100
AcDbLine
 10
235.5434182882707
 20
225.3512962312831
 30
0.0
 11
235.5434182882707
 21
269.351296231107
 31
0.0
  0
LINE
  5
A7
330
92
100
AcDbEntity
  8
0
  6
Continuous
 62
     0
370
    30
100
AcDbLine
 10
235.5434179385795
 20
269.351296231107
 30
0.0
 11
235.5434179385795
 21
277.351296231075
 31
0.0
  0
LINE
  5
A8
330
92
100
AcDbEntity
  8
0
  6
Continuous
 62
     0
370
    30
100
AcDbLine
 10
225.5434179385795
 20
217.3512962313151
 30
0.0
 11
225.5434179385795
 21
225.3512962312831
 31
0.0
  0
LINE
  5
A9
330
92
100
AcDbEntity
  8
0
  6
Continuous
 62
     0
370
    30
100
AcDbLine
 10
225.5434182882706
 20
225.3512962312831
 30
0.0
 11
225.5434182882706
 21
269.351296231107
 31
0.0
  0
LINE
  5
AA
330
92
100
AcDbEntity
  8
0
  6
Continuous
 62
     0
370
    30
100
AcDbLine
 10
225.5434179385795
 20
269.351296231107
 30
0.0
 11
225.5434179385795
 21
277.351296231075
 31
0.0
  0
LINE
  5
AB
330
92
100
AcDbEntity
  8
0
  6
Continuous
 62
     0
370
    30
100
AcDbLine
 10
235.5434179385795
 20
217.3512962313151
 30
0.0
 11
225.5434179385795
 21
217.3512962313151
 31
0.0
  0
LINE
  5
AC
330
92
100
AcDbEntity
  8
0
  6
Continuous
 62
     0
370
     0
100
AcDbLine
 10
235.5434182882707
 20
225.3512962312831
 30
0.0
 11
225.5434182882706
 21
225.3512962312831
 31
0.0
  0
LINE
  5
AD
330
92
100
AcDbEntity
  8
0
  6
Continuous
 62
     0
370
     0
100
AcDbLine
 10
235.5434182882707
 20
269.351296231107
 30
0.0
 11
225.5434182882706
 21
269.351296231107
 31
0.0
  0
LINE
  5
AE
330
92
100
AcDbEntity
  8
0
  6
Continuous
 62
     0
370
    30
100
AcDbLine
 10
235.5434179385795
 20
277.351296231075
 30
0.0
 11
225.5434179385795
 21
277.351296231075
 31
0.0
  0
ARC
  5
AF
330
92
100
AcDbEntity
  8
0
  6
Continuous
 62
     0
370
    30
100
AcDbCircle
 10
276.5433777928338
 20
231.3513285553101
 30
0.0
 40
0.2000321387436798
100
AcDbArc
 50
270.0141011200094
 51
359.9907967843738
  0
ARC
  5
B0
330
92
100
AcDbEntity
  8
0
  6
Continuous
 62
     0
370
    30
100
AcDbCircle
 10
254.1434565214994
 20
231.351328554945
 30
0.0
 40
0.2000321392256703
100
AcDbArc
 50
180.0092031110177
 51
269.9843726875568
  0
LINE
  5
B1
330
92
100
AcDbEntity
  8
0
  6
Continuous
 62
     0
370
    30
100
AcDbLine
 10
253.9434169621519
 20
231.3512964148658
 30
0.0
 11
253.9434169621519
 21
237.3512962311507
 31
0.0
  0
LINE
  5
B2
330
92
100
AcDbEntity
  8
0
  6
Continuous
 62
     0
370
    30
100
AcDbLine
 10
276.7434169621518
 20
231.3512964148658
 30
0.0
 11
276.7434169621518
 21
237.3512962311507
 31
0.0
  0
LINE
  5
B3
330
92
100
AcDbEntity
  8
0
  6
Continuous
 62
     0
370
    30
100
AcDbLine
 10
274.8434111011893
 20
221.0512964218856
 30
0.0
 11
275.8434104842458
 21
222.0512964218856
 31
0.0
  0
LINE
  5
B4
330
92
100
AcDbEntity
  8
0
  6
Continuous
 62
     0
370
    30
100
AcDbLine
 10
255.843423147737
 20
221.0512964218856
 30
0.0
 11
254.8434237988512
 21
222.0512964218856
 31
0.0
  0
LINE
  5
B5
330
92
100
AcDbEntity
  8
0
  6
Continuous
 62
     0
370
    30
100
AcDbLine
 10
254.8434169621518
 20
222.0512964118856
 30
0.0
 11
254.8434169621518
 21
227.6512964218856
 31
0.0
  0
LINE
  5
B6
330
92
100
AcDbEntity
  8
0
  6
Continuous
 62
     0
370
    30
100
AcDbLine
 10
275.8434169621518
 20
222.0512964118856
 30
0.0
 11
275.8434169621518
 21
227.6512964218856
 31
0.0
  0
LINE
  5
B7
330
92
100
AcDbEntity
  8
0
  6
Continuous
 62
     0
370
    30
100
AcDbLine
 10
256.2434169621518
 20
227.6512964118856
 30
0.0
 11
256.2434169621518
 21
231.1512964218856
 31
0.0
  0
LINE
  5
B8
330
92
100
AcDbEntity
  8
0
  6
Continuous
 62
     0
370
    30
100
AcDbLine
 10
274.4434169621519
 20
227.6512964118856
 30
0.0
 11
274.4434169621519
 21
231.1512964218856
 31
0.0
  0
LINE
  5
B9
330
92
100
AcDbEntity
  8
0
  6
Continuous
 62
     0
370
    30
100
AcDbLine
 10
317.997900064091
 20
237.3512962211507
 30
0.0
 11
317.997900064091
 21
257.3512962311507
 31
0.0
  0
ENDBLK
  5
BB
330
92
100
AcDbEntity
  8
0
100
AcDbBlockEnd
  0
BLOCK
  5
E5
330
BD
100
AcDbEntity
  8
0
100
AcDbBlockBegin
  2
d
 70
     0
 10
14.99166870117187
 20
0.0
 30
0.0
  3
d
  1

  0
LINE
  5
BE
330
BD
100
AcDbEntity
  8
0
  6
Continuous
 62
     0
370
    30
100
AcDbLine
 10
-94.7470932556194
 20
237.3512886017562
 30
0.0
 11
-94.61311868125953
 21
237.3512886017562
 31
0.0
  0
LINE
  5
BF
330
BD
100
AcDbEntity
  8
0
  6
Continuous
 62
     0
370
     0
100
AcDbLine
 10
-94.61311868125958
 20
237.3512886017562
 30
0.0
 11
-94.61311868125958
 21
257.3512886017562
 31
0.0
  0
LINE
  5
C0
330
BD
100
AcDbEntity
  8
0
  6
Continuous
 62
     0
370
    30
100
AcDbLine
 10
-94.61311868125953
 20
257.3512886017562
 30
0.0
 11
-94.7470932556194
 21
257.3512886017562
 31
0.0
  0
LINE
  5
C1
330
BD
100
AcDbEntity
  8
0
  6
Continuous
 62
     0
370
    30
100
AcDbLine
 10
-94.61311868125957
 20
237.3512886017562
 30
0.0
 11
-77.29261104268504
 21
237.3512886017562
 31
0.0
  0
LINE
  5
C2
330
BD
100
AcDbEntity
  8
0
  6
Continuous
 62
     0
370
     0
100
AcDbLine
 10
-77.29261104268502
 20
237.3512886017562
 30
0.0
 11
-77.29261104268502
 21
257.3512886017562
 31
0.0
  0
LINE
  5
C3
330
BD
100
AcDbEntity
  8
0
  6
Continuous
 62
     0
370
    30
100
AcDbLine
 10
-77.29261104268504
 20
257.3512886017562
 30
0.0
 11
-94.61311868125955
 21
257.3512886017562
 31
0.0
  0
LINE
  5
C4
330
BD
100
AcDbEntity
  8
0
  6
Continuous
 62
     0
370
    30
100
AcDbLine
 10
-77.29261104268502
 20
237.3512886017562
 30
0.0
 11
-12.29261104268472
 21
237.3512886017562
 31
0.0
  0
LINE
  5
C5
330
BD
100
AcDbEntity
  8
0
  6
Continuous
 62
     0
370
    30
100
AcDbLine
 10
-12.29261104268473
 20
257.3512886017562
 30
0.0
 11
-77.29261104268502
 21
257.3512886017562
 31
0.0
  0
LINE
  5
C6
330
BD
100
AcDbEntity
  8
0
  6
Continuous
 62
     0
370
    30
100
AcDbLine
 10
-47.72645155122629
 20
227.6512887924911
 30
0.0
 11
-52.59261015368019
 21
227.6512887924911
 31
0.0
  0
LINE
  5
C7
330
BD
100
AcDbEntity
  8
0
  6
Continuous
 62
     0
370
    30
100
AcDbLine
 10
-31.59261015368025
 20
227.6512887924911
 30
0.0
 11
-47.72645155122629
 21
227.6512887924911
 31
0.0
  0
LINE
  5
C8
330
BD
100
AcDbEntity
  8
0
  6
Continuous
 62
     0
370
    30
100
AcDbLine
 10
-47.72645155122634
 20
222.051288792491
 30
0.0
 11
-31.59261015368025
 21
222.051288792491
 31
0.0
  0
LINE
  5
C9
330
BD
100
AcDbEntity
  8
0
  6
Continuous
 62
     0
370
    30
100
AcDbLine
 10
-52.59261015368025
 20
222.051288792491
 30
0.0
 11
-47.72645155122634
 21
222.051288792491
 31
0.0
  0
LINE
  5
CA
330
BD
100
AcDbEntity
  8
0
  6
Continuous
 62
     0
370
    30
100
AcDbLine
 10
-47.18989522765051
 20
221.051288792491
 30
0.0
 11
-51.59260429275816
 21
221.051288792491
 31
0.0
  0
LINE
  5
CB
330
BD
100
AcDbEntity
  8
0
  6
Continuous
 62
     0
370
    30
100
AcDbLine
 10
-32.59261633922393
 20
221.051288792491
 30
0.0
 11
-47.1898952276505
 21
221.051288792491
 31
0.0
  0
LINE
  5
CC
330
BD
100
AcDbEntity
  8
0
  6
Continuous
 62
     0
370
     0
100
AcDbLine
 10
-48.20935224244458
 20
231.3512887954713
 30
0.0
 11
-30.69261015368024
 21
231.3512887954713
 31
0.0
  0
LINE
  5
CD
330
BD
100
AcDbEntity
  8
0
  6
Continuous
 62
     0
370
     0
100
AcDbLine
 10
-53.49261015368025
 20
231.3512887954713
 30
0.0
 11
-48.20935224244459
 21
231.3512887954713
 31
0.0
  0
LINE
  5
CE
330
BD
100
AcDbEntity
  8
0
  6
Continuous
 62
     0
370
    30
100
AcDbLine
 10
-48.10204097613901
 20
231.151288792491
 30
0.0
 11
-30.89261015664431
 21
231.151288792491
 31
0.0
  0
LWPOLYLINE
  5
CF
330
BD
100
AcDbEntity
  8
0
  6
Continuous
 62
     0
370
    30
100
AcDbPolyline
 90
       10
 70
     0
 43
0.0
 10
-53.29261016845703
 20
231.1512908935546
 10
-53.21773529052734
 20
231.1512908935546
 10
-52.9923210144043
 20
231.1512908935546
 10
-52.6197509765625
 20
231.1512908935546
 10
-52.10930252075195
 20
231.1512908935546
 10
-51.47541427612305
 20
231.1512908935546
 10
-50.73649215698242
 20
231.1512908935546
 10
-49.9134407043457
 20
231.1512908935546
 10
-49.02814102172851
 20
231.1512908935546
 10
-48.1020393371582
 20
231.1512908935546
  0
LINE
  5
D0
330
BD
100
AcDbEntity
  8
0
  6
Continuous
 62
     0
370
    30
100
AcDbLine
 10
-12.29261113010726
 20
277.3512886016805
 30
0.0
 11
-12.29261113010726
 21
269.3512886017125
 31
0.0
  0
LINE
  5
D1
330
BD
100
AcDbEntity
  8
0
  6
Continuous
 62
     0
370
    30
100
AcDbLine
 10
-12.29261147979836
 20
269.3512886017125
 30
0.0
 11
-12.29261147979837
 21
225.3512886018885
 31
0.0
  0
LINE
  5
D2
330
BD
100
AcDbEntity
  8
0
  6
Continuous
 62
     0
370
    30
100
AcDbLine
 10
-12.29261113010726
 20
225.3512886018885
 30
0.0
 11
-12.29261113010726
 21
217.3512886019206
 31
0.0
  0
LINE
  5
D3
330
BD
100
AcDbEntity
  8
0
  6
Continuous
 62
     0
370
    30
100
AcDbLine
 10
-2.29261113010727
 20
277.3512886016805
 30
0.0
 11
-2.292611130107271
 21
269.3512886017125
 31
0.0
  0
LINE
  5
D4
330
BD
100
AcDbEntity
  8
0
  6
Continuous
 62
     0
370
    30
100
AcDbLine
 10
-2.292611479798374
 20
269.3512886017125
 30
0.0
 11
-2.292611479798379
 21
225.3512886018885
 31
0.0
  0
LINE
  5
D5
330
BD
100
AcDbEntity
  8
0
  6
Continuous
 62
     0
370
    30
100
AcDbLine
 10
-2.292611130107275
 20
225.3512886018885
 30
0.0
 11
-2.292611130107276
 21
217.3512886019206
 31
0.0
  0
LINE
  5
D6
330
BD
100
AcDbEntity
  8
0
  6
Continuous
 62
     0
370
    30
100
AcDbLine
 10
-12.29261113010726
 20
217.3512886019206
 30
0.0
 11
-2.292611130107278
 21
217.3512886019206
 31
0.0
  0
LINE
  5
D7
330
BD
100
AcDbEntity
  8
0
  6
Continuous
 62
     0
370
    30
100
AcDbLine
 10
-12.29261113010726
 20
277.3512886016805
 30
0.0
 11
-2.292611130107271
 21
277.3512886016805
 31
0.0
  0
LINE
  5
D8
330
BD
100
AcDbEntity
  8
0
  6
Continuous
 62
     0
370
     0
100
AcDbLine
 10
-12.29261147979836
 20
269.3512886017125
 30
0.0
 11
-2.292611479798377
 21
269.3512886017125
 31
0.0
  0
LINE
  5
D9
330
BD
100
AcDbEntity
  8
0
  6
Continuous
 62
     0
370
     0
100
AcDbLine
 10
-12.29261147979837
 20
225.3512886018885
 30
0.0
 11
-2.292611479798384
 21
225.3512886018885
 31
0.0
  0
ARC
  5
DA
330
BD
100
AcDbEntity
  8
0
  6
Continuous
 62
     0
370
    30
100
AcDbCircle
 10
-53.29257098440807
 20
231.3513209259177
 30
0.0
 40
0.2000321387461209
100
AcDbArc
 50
180.0092032162407
 51
269.9858988794514
  0
ARC
  5
DB
330
BD
100
AcDbEntity
  8
0
  6
Continuous
 62
     0
370
    30
100
AcDbCircle
 10
-30.89264971297803
 20
231.3513209255511
 30
0.0
 40
0.2000321392259686
100
AcDbArc
 50
270.0156273121948
 51
359.9907968888133
  0
LINE
  5
DC
330
BD
100
AcDbEntity
  8
0
  6
Continuous
 62
     0
370
    30
100
AcDbLine
 10
-30.69261015368025
 20
231.3512887854713
 30
0.0
 11
-30.69261015368025
 21
237.3512886017562
 31
0.0
  0
LINE
  5
DD
330
BD
100
AcDbEntity
  8
0
  6
Continuous
 62
     0
370
    30
100
AcDbLine
 10
-53.49261015368025
 20
231.3512887854713
 30
0.0
 11
-53.49261015368025
 21
237.3512886017562
 31
0.0
  0
LINE
  5
DE
330
BD
100
AcDbEntity
  8
0
  6
Continuous
 62
     0
370
    30
100
AcDbLine
 10
-51.59260429275815
 20
221.051288792491
 30
0.0
 11
-52.59260367581894
 21
222.051288792491
 31
0.0
  0
LINE
  5
DF
330
BD
100
AcDbEntity
  8
0
  6
Continuous
 62
     0
370
    30
100
AcDbLine
 10
-32.59261633922392
 20
221.051288792491
 30
0.0
 11
-31.59261699033379
 21
222.0512887924911
 31
0.0
  0
LINE
  5
E0
330
BD
100
AcDbEntity
  8
0
  6
Continuous
 62
     0
370
    30
100
AcDbLine
 10
-31.59261015368025
 20
222.051288782491
 30
0.0
 11
-31.59261015368025
 21
227.651288792491
 31
0.0
  0
LINE
  5
E1
330
BD
100
AcDbEntity
  8
0
  6
Continuous
 62
     0
370
    30
100
AcDbLine
 10
-52.59261015368025
 20
222.051288782491
 30
0.0
 11
-52.59261015368025
 21
227.651288792491
 31
0.0
  0
LINE
  5
E2
330
BD
100
AcDbEntity
  8
0
  6
Continuous
 62
     0
370
    30
100
AcDbLine
 10
-32.99261015368024
 20
227.651288782491
 30
0.0
 11
-32.99261015368024
 21
231.151288792491
 31
0.0
  0
LINE
  5
E3
330
BD
100
AcDbEntity
  8
0
  6
Continuous
 62
     0
370
    30
100
AcDbLine
 10
-51.19261015368024
 20
227.651288782491
 30
0.0
 11
-51.19261015368024
 21
231.151288792491
 31
0.0
  0
LINE
  5
E4
330
BD
100
AcDbEntity
  8
0
  6
Continuous
 62
     0
370
    30
100
AcDbLine
 10
-94.7470932556194
 20
237.3512885917562
 30
0.0
 11
-94.7470932556194
 21
257.3512886017562
 31
0.0
  0
ENDBLK
  5
E6
330
BD
100
AcDbEntity
  8
0
100
AcDbBlockEnd
  0
ENDSEC
  0
SECTION
  2
ENTITIES
  0
INSERT
  5
77
330
1F
100
AcDbEntity
  8
0
  6
Continuous
 62
   250
370
     0
100
AcDbBlockReference
  2
a
 10
50.45655059814453
 20
66.55362701416016
 30
0.0
  0
INSERT
  5
91
330
1F
100
AcDbEntity
  8
0
  6
Continuous
 62
   250
370
     0
100
AcDbBlockReference
  2
b
 10
33.49874114990234
 20
62.38271331787109
 30
0.0
  0
INSERT
  5
BC
330
1F
100
AcDbEntity
  8
0
  6
Continuous
 62
   250
370
     0
100
AcDbBlockReference
  2
c
 10
26.08914947509765
 20
26.75362396240234
 30
0.0
  0
INSERT
  5
E7
330
1F
100
AcDbEntity
  8
0
  6
Continuous
 62
   250
370
     0
100
AcDbBlockReference
  2
d
 10
14.99166870117187
 20
0.0
 30
0.0
  0
ENDSEC
  0
SECTION
  2
OBJECTS
  0
DICTIONARY
  5
C
330
0
100
AcDbDictionary
281
     1
  3
ACAD_GROUP
350
D
  3
ACAD_LAYOUT
350
1A
  3
ACAD_MLEADERSTYLE
350
EA
  3
ACAD_MLINESTYLE
350
17
  3
ACAD_PLOTSETTINGS
350
19
  3
ACAD_PLOTSTYLENAME
350
E
  3
ACAD_VISUALSTYLE
350
2A
  3
AcDbVariableDictionary
350
E8
  0
DICTIONARY
  5
D
102
{ACAD_REACTORS
330
C
102
}
330
C
100
AcDbDictionary
281
     1
  0
DICTIONARY
  5
1A
102
{ACAD_REACTORS
330
C
102
}
330
C
100
AcDbDictionary
281
     1
  3
Layout1
350
1E
  3
Layout2
350
26
  3
Model
350
22
  0
DICTIONARY
  5
EA
102
{ACAD_REACTORS
330
C
102
}
330
C
100
AcDbDictionary
281
     1
  0
DICTIONARY
  5
17
102
{ACAD_REACTORS
330
C
102
}
330
C
100
AcDbDictionary
281
     1
  3
Standard
350
18
  0
DICTIONARY
  5
19
102
{ACAD_REACTORS
330
C
102
}
330
C
100
AcDbDictionary
281
     1
  0
ACDBDICTIONARYWDFLT
  5
E
102
{ACAD_REACTORS
330
C
102
}
330
C
100
AcDbDictionary
281
     1
  3
Normal
350
F
100
AcDbDictionaryWithDefault
340
F
  0
DICTIONARY
  5
2A
102
{ACAD_REACTORS
330
C
102
}
330
C
100
AcDbDictionary
281
     1
  3
2dWireframe
350
2F
  3
3D Hidden
350
31
  3
3dWireframe
350
30
  3
Basic
350
32
  3
Brighten
350
36
  3
ColorChange
350
3A
  3
Conceptual
350
34
  3
Dim
350
35
  3
Facepattern
350
39
  3
Flat
350
2B
  3
FlatWithEdges
350
2C
  3
Gouraud
350
2D
  3
GouraudWithEdges
350
2E
  3
Linepattern
350
38
  3
Realistic
350
33
  3
Thicken
350
37
  0
DICTIONARY
  5
E8
102
{ACAD_REACTORS
330
C
102
}
330
C
100
AcDbDictionary
281
     1
  3
DIMASSOC
350
F3
  3
PSOLHEIGHT
350
EC
  3
PSOLWIDTH
350
EB
  0
LAYOUT
  5
1E
102
{ACAD_REACTORS
330
1A
102
}
330
1A
100
AcDbPlotSettings
  1

  2
none_device
  4

  6

 40
0.0
 41
0.0
 42
0.0
 43
0.0
 44
0.0
 45
0.0
 46
0.0
 47
0.0
 48
0.0
 49
0.0
140
0.0
141
0.0
142
1.0
143
1.0
 70
   688
 72
     0
 73
     0
 74
     5
  7

 75
    16
147
1.0
148
0.0
149
0.0
100
AcDbLayout
  1
Layout1
 70
     1
 71
     1
 10
0.0
 20
0.0
 11
420.0
 21
297.0
 12
0.0
 22
0.0
 32
0.0
 14
1.000000000000000E+20
 24
1.000000000000000E+20
 34
1.000000000000000E+20
 15
-1.000000000000000E+20
 25
-1.000000000000000E+20
 35
-1.000000000000000E+20
146
0.0
 13
0.0
 23
0.0
 33
0.0
 16
1.0
 26
0.0
 36
0.0
 17
0.0
 27
1.0
 37
0.0
 76
     0
330
1B
  0
LAYOUT
  5
26
102
{ACAD_REACTORS
330
1A
102
}
330
1A
100
AcDbPlotSettings
  1

  2
none_device
  4

  6

 40
0.0
 41
0.0
 42
0.0
 43
0.0
 44
0.0
 45
0.0
 46
0.0
 47
0.0
 48
0.0
 49
0.0
140
0.0
141
0.0
142
1.0
143
1.0
 70
   688
 72
     0
 73
     0
 74
     5
  7

 75
    16
147
1.0
148
0.0
149
0.0
100
AcDbLayout
  1
Layout2
 70
     1
 71
     2
 10
0.0
 20
0.0
 11
0.0
 21
0.0
 12
0.0
 22
0.0
 32
0.0
 14
0.0
 24
0.0
 34
0.0
 15
0.0
 25
0.0
 35
0.0
146
0.0
 13
0.0
 23
0.0
 33
0.0
 16
1.0
 26
0.0
 36
0.0
 17
0.0
 27
1.0
 37
0.0
 76
     0
330
23
  0
LAYOUT
  5
22
102
{ACAD_REACTORS
330
1A
102
}
330
1A
100
AcDbPlotSettings
  1

  2
none_device
  4

  6

 40
0.0
 41
0.0
 42
0.0
 43
0.0
 44
0.0
 45
0.0
 46
0.0
 47
0.0
 48
0.0
 49
0.0
140
0.0
141
0.0
142
1.0
143
1.0
 70
  1712
 72
     0
 73
     0
 74
     0
  7

 75
     0
147
1.0
148
0.0
149
0.0
100
AcDbLayout
  1
Model
 70
     1
 71
     0
 10
-94.7470932006836
 20
59.52368545532227
 11
317.9978942871093
 21
277.3512878417968
 12
0.0
 22
0.0
 32
0.0
 14
-94.7470932006836
 24
59.52368545532227
 34
0.0
 15
317.9978942871093
 25
277.3512878417968
 35
0.0
146
0.0
 13
0.0
 23
0.0
 33
0.0
 16
1.0
 26
0.0
 36
0.0
 17
0.0
 27
1.0
 37
0.0
 76
     0
330
1F
  0
MLINESTYLE
  5
18
102
{ACAD_REACTORS
330
17
102
}
330
17
100
AcDbMlineStyle
  2
STANDARD
 70
     0
  3

 62
   256
 51
90.0
 52
90.0
 71
     2
 49
0.5
 62
   256
  6
BYLAYER
 49
-0.5
 62
   256
  6
BYLAYER
  0
ACDBPLACEHOLDER
  5
F
102
{ACAD_REACTORS
330
E
102
}
330
E
  0
ACAD_PROXY_OBJECT
  5
2F
102
{ACAD_REACTORS
330
2A
102
}
330
2A
100
AcDbProxyObject
 90
      499
 91
      501
 95
   851991
 70
     0
 93
      436
310
42CC9915DA5C99599C985B595049028333333333333E3BF0000000000000FB0107901411070040501600405405064090741402480A0340
 94
        0
1001
ACAD
1000
AcDbSavedByObjectVersion
1070
     0
  0
ACAD_PROXY_OBJECT
  5
31
102
{ACAD_REACTORS
330
2A
102
}
330
2A
100
AcDbProxyObject
 90
      499
 91
      501
 95
   851991
 70
     0
 93
      500
310
424CD108121A5919195B90640502408333333333333E3BF0000000000000FB01079024090700405020000000000001110200405405064090740C02480A034D
 94
        0
1001
ACAD
1000
AcDbSavedByObjectVersion
1070
     0
  0
ACAD_PROXY_OBJECT
  5
30
102
{ACAD_REACTORS
330
2A
102
}
330
2A
100
AcDbProxyObject
 90
      499
 91
      501
 95
   851991
 70
     0
 93
      436
310
42CCD915DA5C99599C985B595059028333333333333E3BF0000000000000FB0107901411070040501600405405064090741402480A0340
 94
        0
1001
ACAD
1000
AcDbSavedByObjectVersion
1070
     0
  0
ACAD_PROXY_OBJECT
  5
32
102
{ACAD_REACTORS
330
2A
102
}
330
2A
100
AcDbProxyObject
 90
      499
 91
      501
 95
   851991
 70
     0
 93
      388
310
4150985CDA58D07406404333333333333E3BF0000000000000FB0107A41107004050150841D405064090741402480A0352
 94
        0
1001
ACAD
1000
AcDbSavedByObjectVersion
1070
     0
  0
ACAD_PROXY_OBJECT
  5
36
102
{ACAD_REACTORS
330
2A
102
}
330
2A
100
AcDbProxyObject
 90
      499
 91
      501
 95
   851991
 70
     0
 93
      428
310
42109C9A59DA1D195B90C409028333333333333E3BF0000000000000FB010790141107004050150841D405064090741402480A029956
 94
        0
1001
ACAD
1000
AcDbSavedByObjectVersion
1070
     0
  0
ACAD_PROXY_OBJECT
  5
3A
102
{ACAD_REACTORS
330
2A
102
}
330
2A
100
AcDbProxyObject
 90
      499
 91
      501
 95
   851991
 70
     0
 93
      452
310
42D0DBDB1BDC90DA185B99D95104090240C333333333333E3BF0000000000000FB0108901411070040501508421405064090741402480A0354
 94
        0
1001
ACAD
1000
AcDbSavedByObjectVersion
1070
     0
  0
ACAD_PROXY_OBJECT
  5
34
102
{ACAD_REACTORS
330
2A
102
}
330
2A
100
AcDbProxyObject
 90
      499
 91
      501
 95
   851991
 70
     0
 93
      500
310
4290DBDB98D95C1D1D585B10940D028333333333333E3BF0000000000000FB0107902409070040501000000000000111010841D405064090740C02480A034D
 94
        0
1001
ACAD
1000
AcDbSavedByObjectVersion
1070
     0
  0
ACAD_PROXY_OBJECT
  5
35
102
{ACAD_REACTORS
330
2A
102
}
330
2A
100
AcDbProxyObject
 90
      499
 91
      501
 95
   851991
 70
     0
 93
      412
310
40D11A5B50B409028333333333333E3BF0000000000000FB010790141107004050150841D405064090741402480A02677FFFFFD4
 94
        0
1001
ACAD
1000
AcDbSavedByObjectVersion
1070
     0
  0
ACAD_PROXY_OBJECT
  5
39
102
{ACAD_REACTORS
330
2A
102
}
330
2A
100
AcDbProxyObject
 90
      499
 91
      501
 95
   851991
 70
     0
 93
      444
310
42D19858D95C185D1D195C9B90F409028333333333333E3BF0000000000000FB010790141107004050150841D405064090741402480A0350
 94
        0
1001
ACAD
1000
AcDbSavedByObjectVersion
1070
     0
  0
ACAD_PROXY_OBJECT
  5
2B
102
{ACAD_REACTORS
330
2A
102
}
330
2A
100
AcDbProxyObject
 90
      499
 91
      501
 95
   851991
 70
     0
 93
      388
310
41119B185D240901404333333333333E3BF0000000000000F9010740A41107004050150841D405064090741402480A1B5D
 94
        0
1001
ACAD
1000
AcDbSavedByObjectVersion
1070
     0
  0
ACAD_PROXY_OBJECT
  5
2C
102
{ACAD_REACTORS
330
2A
102
}
330
2A
100
AcDbProxyObject
 90
      499
 91
      501
 95
   851991
 70
     0
 93
      476
310
43519B185D15DA5D1A115919D95CD0140901404333333333333E3BF0000000000000F9010740901411070040501600405405064090741402480A1B50
 94
        0
1001
ACAD
1000
AcDbSavedByObjectVersion
1070
     0
  0
ACAD_PROXY_OBJECT
  5
2D
102
{ACAD_REACTORS
330
2A
102
}
330
2A
100
AcDbProxyObject
 90
      499
 91
      501
 95
   851991
 70
     0
 93
      412
310
41D1DBDD5C985D5910240902404333333333333E3BF0000000000000F9010740A411070040501641D405064090741402480A1B50
 94
        0
1001
ACAD
1000
AcDbSavedByObjectVersion
1070
     0
  0
ACAD_PROXY_OBJECT
  5
2E
102
{ACAD_REACTORS
330
2A
102
}
330
2A
100
AcDbProxyObject
 90
      499
 91
      501
 95
   851991
 70
     0
 93
      500
310
4411DBDD5C985D5915DA5D1A115919D95CD0340902404333333333333E3BF0000000000000F9010740901411070040501600405405064090741402480A1B5D
 94
        0
1001
ACAD
1000
AcDbSavedByObjectVersion
1070
     0
  0
ACAD_PROXY_OBJECT
  5
38
102
{ACAD_REACTORS
330
2A
102
}
330
2A
100
AcDbProxyObject
 90
      499
 91
      501
 95
   851991
 70
     0
 93
      444
310
42D31A5B995C185D1D195C9B90E409028333333333333E3BF0000000000000FB010790141107004050750841D405064090741402483A0350
 94
        0
1001
ACAD
1000
AcDbSavedByObjectVersion
1070
     0
  0
ACAD_PROXY_OBJECT
  5
33
102
{ACAD_REACTORS
330
2A
102
}
330
2A
100
AcDbProxyObject
 90
      499
 91
      501
 95
   851991
 70
     0
 93
      420
310
425499585B1A5CDD1A58D08409028333333333333E3BF0000000000000FB01079019070040501508421405064090741402480A1B45
 94
        0
1001
ACAD
1000
AcDbSavedByObjectVersion
1070
     0
  0
ACAD_PROXY_OBJECT
  5
37
102
{ACAD_REACTORS
330
2A
102
}
330
2A
100
AcDbProxyObject
 90
      499
 91
      501
 95
   851991
 70
     0
 93
      412
310
41D51A1A58DAD95B90D409028333333333333E3BF0000000000000FB010790141107004050150C41D405064090741402480A0352
 94
        0
1001
ACAD
1000
AcDbSavedByObjectVersion
1070
     0
  0
DICTIONARYVAR
  5
F3
102
{ACAD_REACTORS
330
E8
102
}
330
E8
100
DictionaryVariables
280
     0
  1
1
  0
DICTIONARYVAR
  5
EC
102
{ACAD_REACTORS
330
E8
102
}
330
E8
100
DictionaryVariables
280
     0
  1
80.000000
  0
DICTIONARYVAR
  5
EB
102
{ACAD_REACTORS
330
E8
102
}
330
E8
100
DictionaryVariables
280
     0
  1
5.000000
  0
ENDSEC
  0
EOF
