  0
SECTION
  2
HEADER
  9
$ACADVER
  1
AC1024
  9
$ACADMAINTVER
 70
     6
  9
$DWGCODEPAGE
  3
ANSI_1252
  9
$INSBASE
 10
0.0
 20
0.0
 30
0.0
  9
$EXTMIN
 10
1.000000E+20
 20
1.000000E+20
 30
1.000000E+20
  9
$EXTMAX
 10
-1.000000E+20
 20
-1.000000E+20
 30
-1.000000E+20
  9
$LIMMIN
 10
0.0
 20
0.0
  9
$LIMMAX
 10
420.0
 20
297.0
  9
$ORTHOMODE
 70
     0
  9
$REGENMODE
 70
     1
  9
$FILLMODE
 70
     1
  9
$QTEXTMODE
 70
     0
  9
$MIRRTEXT
 70
     1
  9
$LTSCALE
 40
1.0
  9
$ATTMODE
 70
     1
  9
$TEXTSIZE
 40
2.5
  9
$TRACEWID
 40
1.0
  9
$TEXTSTYLE
  7
Standard
  9
$CLAYER
  8
0
  9
$CELTYPE
  6
ByLayer
  9
$CECOLOR
 62
   256
  9
$CELTSCALE
 40
1.0
  9
$DISPSILH
 70
     0
  9
$DIMSCALE
 40
1.0
  9
$DIMASZ
 40
2.5
  9
$DIMEXO
 40
0.625
  9
$DIMDLI
 40
3.75
  9
$DIMRND
 40
0.0
  9
$DIMDLE
 40
0.0
  9
$DIMEXE
 40
1.25
  9
$DIMTP
 40
0.0
  9
$DIMTM
 40
0.0
  9
$DIMTXT
 40
2.5
  9
$DIMCEN
 40
2.5
  9
$DIMTSZ
 40
0.0
  9
$DIMTOL
 70
     0
  9
$DIMLIM
 70
     0
  9
$DIMTIH
 70
     0
  9
$DIMTOH
 70
     0
  9
$DIMSE1
 70
     0
  9
$DIMSE2
 70
     0
  9
$DIMTAD
 70
     1
  9
$DIMZIN
 70
     8
  9
$DIMBLK
  1

  9
$DIMASO
 70
     1
  9
$DIMSHO
 70
     1
  9
$DIMPOST
  1

  9
$DIMAPOST
  1

  9
$DIMALT
 70
     0
  9
$DIMALTD
 70
     3
  9
$DIMALTF
 40
0.03937
  9
$DIMLFAC
 40
1.0
  9
$DIMTOFL
 70
     1
  9
$DIMTVP
 40
0.0
  9
$DIMTIX
 70
     0
  9
$DIMSOXD
 70
     0
  9
$DIMSAH
 70
     0
  9
$DIMBLK1
  1

  9
$DIMBLK2
  1

  9
$DIMSTYLE
  2
ISO-25
  9
$DIMCLRD
 70
     0
  9
$DIMCLRE
 70
     0
  9
$DIMCLRT
 70
     0
  9
$DIMTFAC
 40
1.0
  9
$DIMGAP
 40
0.625
  9
$DIMJUST
 70
     0
  9
$DIMSD1
 70
     0
  9
$DIMSD2
 70
     0
  9
$DIMTOLJ
 70
     0
  9
$DIMTZIN
 70
     8
  9
$DIMALTZ
 70
     0
  9
$DIMALTTZ
 70
     0
  9
$DIMUPT
 70
     0
  9
$DIMDEC
 70
     2
  9
$DIMTDEC
 70
     2
  9
$DIMALTU
 70
     2
  9
$DIMALTTD
 70
     3
  9
$DIMTXSTY
  7
Standard
  9
$DIMAUNIT
 70
     0
  9
$DIMADEC
 70
     0
  9
$DIMALTRND
 40
0.0
  9
$DIMAZIN
 70
     0
  9
$DIMDSEP
 70
    44
  9
$DIMATFIT
 70
     3
  9
$DIMFRAC
 70
     0
  9
$DIMLDRBLK
  1

  9
$DIMLUNIT
 70
     2
  9
$DIMLWD
 70
    -2
  9
$DIMLWE
 70
    -2
  9
$DIMTMOVE
 70
     0
  9
$DIMFXL
 40
1.0
  9
$DIMFXLON
 70
     0
  9
$DIMJOGANG
 40
0.785398
  9
$DIMTFILL
 70
     0
  9
$DIMTFILLCLR
 70
     0
  9
$DIMARCSYM
 70
     0
  9
$DIMLTYPE
  6

  9
$DIMLTEX1
  6

  9
$DIMLTEX2
  6

  9
$DIMTXTDIRECTION
 70
     0
  9
$LUNITS
 70
     2
  9
$LUPREC
 70
     4
  9
$SKETCHINC
 40
1.0
  9
$FILLETRAD
 40
10.0
  9
$AUNITS
 70
     0
  9
$AUPREC
 70
     0
  9
$MENU
  1
.
  9
$ELEVATION
 40
0.0
  9
$PELEVATION
 40
0.0
  9
$THICKNESS
 40
0.0
  9
$LIMCHECK
 70
     0
  9
$CHAMFERA
 40
0.0
  9
$CHAMFERB
 40
0.0
  9
$CHAMFERC
 40
0.0
  9
$CHAMFERD
 40
0.0
  9
$SKPOLY
 70
     0
  9
$TDCREATE
 40
2457809.477678067
  9
$TDUCREATE
 40
2457809.436011401
  9
$TDUPDATE
 40
2457809.477678611
  9
$TDUUPDATE
 40
2457809.436011944
  9
$TDINDWG
 40
0.0000000116
  9
$TDUSRTIMER
 40
0.0000000116
  9
$USRTIMER
 70
     1
  9
$ANGBASE
 50
0.0
  9
$ANGDIR
 70
     0
  9
$PDMODE
 70
     0
  9
$PDSIZE
 40
0.0
  9
$PLINEWID
 40
0.0
  9
$SPLFRAME
 70
     0
  9
$SPLINETYPE
 70
     6
  9
$SPLINESEGS
 70
     8
  9
$HANDSEED
  5
19C
  9
$SURFTAB1
 70
     6
  9
$SURFTAB2
 70
     6
  9
$SURFTYPE
 70
     6
  9
$SURFU
 70
     6
  9
$SURFV
 70
     6
  9
$UCSBASE
  2

  9
$UCSNAME
  2

  9
$UCSORG
 10
0.0
 20
0.0
 30
0.0
  9
$UCSXDIR
 10
1.0
 20
0.0
 30
0.0
  9
$UCSYDIR
 10
0.0
 20
1.0
 30
0.0
  9
$UCSORTHOREF
  2

  9
$UCSORTHOVIEW
 70
     0
  9
$UCSORGTOP
 10
0.0
 20
0.0
 30
0.0
  9
$UCSORGBOTTOM
 10
0.0
 20
0.0
 30
0.0
  9
$UCSORGLEFT
 10
0.0
 20
0.0
 30
0.0
  9
$UCSORGRIGHT
 10
0.0
 20
0.0
 30
0.0
  9
$UCSORGFRONT
 10
0.0
 20
0.0
 30
0.0
  9
$UCSORGBACK
 10
0.0
 20
0.0
 30
0.0
  9
$PUCSBASE
  2

  9
$PUCSNAME
  2

  9
$PUCSORG
 10
0.0
 20
0.0
 30
0.0
  9
$PUCSXDIR
 10
1.0
 20
0.0
 30
0.0
  9
$PUCSYDIR
 10
0.0
 20
1.0
 30
0.0
  9
$PUCSORTHOREF
  2

  9
$PUCSORTHOVIEW
 70
     0
  9
$PUCSORGTOP
 10
0.0
 20
0.0
 30
0.0
  9
$PUCSORGBOTTOM
 10
0.0
 20
0.0
 30
0.0
  9
$PUCSORGLEFT
 10
0.0
 20
0.0
 30
0.0
  9
$PUCSORGRIGHT
 10
0.0
 20
0.0
 30
0.0
  9
$PUCSORGFRONT
 10
0.0
 20
0.0
 30
0.0
  9
$PUCSORGBACK
 10
0.0
 20
0.0
 30
0.0
  9
$USERI1
 70
     0
  9
$USERI2
 70
     0
  9
$USERI3
 70
     0
  9
$USERI4
 70
     0
  9
$USERI5
 70
     0
  9
$USERR1
 40
0.0
  9
$USERR2
 40
0.0
  9
$USERR3
 40
0.0
  9
$USERR4
 40
0.0
  9
$USERR5
 40
0.0
  9
$WORLDVIEW
 70
     1
  9
$SHADEDGE
 70
     3
  9
$SHADEDIF
 70
    70
  9
$TILEMODE
 70
     1
  9
$MAXACTVP
 70
    64
  9
$PINSBASE
 10
0.0
 20
0.0
 30
0.0
  9
$PLIMCHECK
 70
     0
  9
$PEXTMIN
 10
1.000000E+20
 20
1.000000E+20
 30
1.000000E+20
  9
$PEXTMAX
 10
-1.000000E+20
 20
-1.000000E+20
 30
-1.000000E+20
  9
$PLIMMIN
 10
0.0
 20
0.0
  9
$PLIMMAX
 10
420.0
 20
297.0
  9
$UNITMODE
 70
     0
  9
$VISRETAIN
 70
     1
  9
$PLINEGEN
 70
     0
  9
$PSLTSCALE
 70
     1
  9
$TREEDEPTH
 70
  3020
  9
$CMLSTYLE
  2
Standard
  9
$CMLJUST
 70
     0
  9
$CMLSCALE
 40
20.0
  9
$PROXYGRAPHICS
 70
     1
  9
$MEASUREMENT
 70
     1
  9
$CELWEIGHT
370
    -1
  9
$ENDCAPS
280
     0
  9
$JOINSTYLE
280
     0
  9
$LWDISPLAY
290
     0
  9
$INSUNITS
 70
     4
  9
$HYPERLINKBASE
  1

  9
$STYLESHEET
  1

  9
$XEDIT
290
     1
  9
$CEPSNTYPE
380
     0
  9
$PSTYLEMODE
290
     1
  9
$FINGERPRINTGUID
  2
{951DFC86-987E-4844-B6EE-FA1716E5452A}
  9
$VERSIONGUID
  2
{FAEB1C32-E019-11D5-929B-00C0DF256EC4}
  9
$EXTNAMES
290
     1
  9
$PSVPSCALE
 40
0.0
  9
$OLESTARTUP
290
     0
  9
$SORTENTS
280
   127
  9
$INDEXCTL
280
     0
  9
$HIDETEXT
280
     1
  9
$XCLIPFRAME
280
     2
  9
$HALOGAP
280
     0
  9
$OBSCOLOR
 70
   257
  9
$OBSLTYPE
280
     0
  9
$INTERSECTIONDISPLAY
280
     0
  9
$INTERSECTIONCOLOR
 70
   257
  9
$DIMASSOC
280
     2
  9
$PROJECTNAME
  1

  9
$CAMERADISPLAY
290
     0
  9
$LENSLENGTH
 40
50.0
  9
$CAMERAHEIGHT
 40
0.0
  9
$STEPSPERSEC
 40
2.0
  9
$STEPSIZE
 40
6.0
  9
$3DDWFPREC
 40
2.0
  9
$PSOLWIDTH
 40
5.0
  9
$PSOLHEIGHT
 40
80.0
  9
$LOFTANG1
 40
1.570796
  9
$LOFTANG2
 40
1.570796
  9
$LOFTMAG1
 40
0.0
  9
$LOFTMAG2
 40
0.0
  9
$LOFTPARAM
 70
     7
  9
$LOFTNORMALS
280
     1
  9
$LATITUDE
 40
37.795
  9
$LONGITUDE
 40
-122.394
  9
$NORTHDIRECTION
 40
0.0
  9
$TIMEZONE
 70
 -8000
  9
$LIGHTGLYPHDISPLAY
280
     1
  9
$TILEMODELIGHTSYNCH
280
     1
  9
$CMATERIAL
347
44
  9
$SOLIDHIST
280
     0
  9
$SHOWHIST
280
     1
  9
$DWFFRAME
280
     2
  9
$DGNFRAME
280
     2
  9
$REALWORLDSCALE
290
     1
  9
$INTERFERECOLOR
 62
   256
  9
$CSHADOW
280
     0
  9
$SHADOWPLANELOCATION
 40
0.0
  0
ENDSEC
  0
SECTION
  2
CLASSES
  0
CLASS
  1
ACDBDICTIONARYWDFLT
  2
AcDbDictionaryWithDefault
  3
ObjectDBX Classes
 90
        0
 91
        4
280
     0
281
     0
  0
CLASS
  1
VISUALSTYLE
  2
AcDbVisualStyle
  3
ObjectDBX Classes
 90
     4095
 91
        4
280
     0
281
     0
  0
CLASS
  1
MATERIAL
  2
AcDbMaterial
  3
ObjectDBX Classes
 90
     1153
 91
        4
280
     0
281
     0
  0
CLASS
  1
SCALE
  2
AcDbScale
  3
ObjectDBX Classes
 90
     1153
 91
        4
280
     0
281
     0
  0
CLASS
  1
TABLESTYLE
  2
AcDbTableStyle
  3
ObjectDBX Classes
 90
     4095
 91
        4
280
     0
281
     0
  0
CLASS
  1
MLEADERSTYLE
  2
AcDbMLeaderStyle
  3
ACDB_MLEADERSTYLE_CLASS
 90
     4095
 91
        4
280
     0
281
     0
  0
CLASS
  1
SUN
  2
AcDbSun
  3
SCENEOE
 90
     1153
 91
        4
280
     0
281
     0
  0
CLASS
  1
DICTIONARYVAR
  2
AcDbDictionaryVar
  3
ObjectDBX Classes
 90
        0
 91
        4
280
     0
281
     0
  0
CLASS
  1
CELLSTYLEMAP
  2
AcDbCellStyleMap
  3
ObjectDBX Classes
 90
     1152
 91
        4
280
     0
281
     0
  0
ENDSEC
  0
SECTION
  2
TABLES
  0
TABLE
  2
VPORT
  5
8
330
0
100
AcDbSymbolTable
 70
     1
  0
VPORT
  5
29
330
8
100
AcDbSymbolTableRecord
100
AcDbViewportTableRecord
  2
*Active
 70
     0
 10
0.0
 20
0.0
 11
1.0
 21
1.0
 12
344.186916
 22
148.5
 13
0.0
 23
0.0
 14
10.0
 24
10.0
 15
10.0
 25
10.0
 16
0.0
 26
0.0
 36
1.0
 17
0.0
 27
0.0
 37
0.0
 40
297.0
 41
1.972973
 42
50.0
 43
0.0
 44
0.0
 50
0.0
 51
0.0
 71
     0
 72
   100
 73
     1
 74
     3
 75
     0
 76
     0
 77
     0
 78
     0
281
     0
 65
     1
110
0.0
120
0.0
130
0.0
111
1.0
121
0.0
131
0.0
112
0.0
122
1.0
132
0.0
 79
     0
146
0.0
348
2F
 60
     3
 61
     5
292
     1
282
     1
141
0.0
142
0.0
 63
   250
361
6D
  0
ENDTAB
  0
TABLE
  2
LTYPE
  5
5
330
0
100
AcDbSymbolTable
 70
     1
  0
LTYPE
  5
14
330
5
100
AcDbSymbolTableRecord
100
AcDbLinetypeTableRecord
  2
ByBlock
 70
     0
  3

 72
    65
 73
     0
 40
0.0
  0
LTYPE
  5
15
330
5
100
AcDbSymbolTableRecord
100
AcDbLinetypeTableRecord
  2
ByLayer
 70
     0
  3

 72
    65
 73
     0
 40
0.0
  0
LTYPE
  5
16
330
5
100
AcDbSymbolTableRecord
100
AcDbLinetypeTableRecord
  2
Continuous
 70
     0
  3
Solid line
 72
    65
 73
     0
 40
0.0
  0
ENDTAB
  0
TABLE
  2
LAYER
  5
2
330
0
100
AcDbSymbolTable
 70
     1
  0
LAYER
  5
10
330
2
100
AcDbSymbolTableRecord
100
AcDbLayerTableRecord
  2
0
 70
     0
 62
   106
  6
Continuous
370
     0
390
F
347
46
  0
ENDTAB
  0
TABLE
  2
STYLE
  5
3
330
0
100
AcDbSymbolTable
 70
     4
  0
STYLE
  5
11
330
3
100
AcDbSymbolTableRecord
100
AcDbTextStyleTableRecord
  2
Standard
 70
     0
 40
0.0
 41
1.0
 50
0.0
 71
     0
 42
2.5
  3
txt
  4

  0
STYLE
  5
6E
330
3
100
AcDbSymbolTableRecord
100
AcDbTextStyleTableRecord
  2
Default
 70
     0
 40
0.0
 41
1.0
 50
0.0
 71
     0
 42
2.5
  3

  4

1001
ACAD
1000
txt
1071
        0
  0
STYLE
  5
6F
330
3
100
AcDbSymbolTableRecord
100
AcDbTextStyleTableRecord
  2
ISO
 70
     0
 40
0.0
 41
1.0
 50
0.0
 71
     0
 42
2.5
  3

  4

1001
ACAD
1000
txt
1071
        0
  0
STYLE
  5
70
330
3
100
AcDbSymbolTableRecord
100
AcDbTextStyleTableRecord
  2
zucchetti
 70
     0
 40
0.0
 41
1.0
 50
0.0
 71
     0
 42
2.5
  3

  4

1001
ACAD
1000
Arial
1071
        0
  0
ENDTAB
  0
TABLE
  2
VIEW
  5
6
330
0
100
AcDbSymbolTable
 70
     0
  0
ENDTAB
  0
TABLE
  2
UCS
  5
7
330
0
100
AcDbSymbolTable
 70
     0
  0
ENDTAB
  0
TABLE
  2
APPID
  5
9
330
0
100
AcDbSymbolTable
 70
     1
  0
APPID
  5
12
330
9
100
AcDbSymbolTableRecord
100
AcDbRegAppTableRecord
  2
ACAD
 70
     0
  0
ENDTAB
  0
TABLE
  2
DIMSTYLE
  5
A
330
0
100
AcDbSymbolTable
 70
     4
100
AcDbDimStyleTable
  0
DIMSTYLE
105
27
330
A
100
AcDbSymbolTableRecord
100
AcDbDimStyleTableRecord
  2
ISO-25
 70
     0
 41
2.5
 42
0.625
 43
3.75
 44
1.25
 73
     0
 74
     0
 77
     1
 78
     8
140
2.5
141
2.5
143
0.03937
147
0.625
171
     3
172
     1
178
     0
271
     2
272
     2
274
     3
278
    44
283
     0
284
     8
340
11
  0
DIMSTYLE
105
71
330
A
100
AcDbSymbolTableRecord
100
AcDbDimStyleTableRecord
  2
Default
 70
     0
  3
<>
 41
4.375
 42
1.05
 44
2.1
 49
10.01
 73
     0
 74
     0
 77
     1
 78
     8
140
3.5
146
0.4
147
1.75
172
     1
271
     2
178
     3
271
     2
272
     3
284
     8
340
6E
341
72
342
72
  0
DIMSTYLE
105
79
330
A
100
AcDbSymbolTableRecord
100
AcDbDimStyleTableRecord
  2
ISO
 70
     0
  3
<>
 41
4.375
 42
1.05
 44
2.1
 49
10.01
 73
     0
 74
     0
 77
     1
 78
     8
140
3.5
146
0.4
147
1.75
172
     1
271
     2
178
     3
271
     2
272
     3
284
     8
340
6F
341
72
342
72
  0
DIMSTYLE
105
7A
330
A
100
AcDbSymbolTableRecord
100
AcDbDimStyleTableRecord
  2
zucchetti
 70
     0
  3
<>
 41
3.0
 42
0.9
 44
1.8
 49
8.58
 73
     0
 74
     0
 77
     1
 78
     8
140
3.0
146
0.6
147
1.5
172
     1
176
     3
177
     3
271
     2
178
     3
271
     2
272
     2
284
     8
340
70
  0
ENDTAB
  0
TABLE
  2
BLOCK_RECORD
  5
1
330
0
100
AcDbSymbolTable
 70
     7
  0
BLOCK_RECORD
  5
1F
330
1
100
AcDbSymbolTableRecord
100
AcDbBlockTableRecord
  2
*Model_Space
340
22
 70
     0
280
     1
281
     0
  0
BLOCK_RECORD
  5
1B
330
1
100
AcDbSymbolTableRecord
100
AcDbBlockTableRecord
  2
*Paper_Space
340
1E
 70
     0
280
     1
281
     0
  0
BLOCK_RECORD
  5
23
330
1
100
AcDbSymbolTableRecord
100
AcDbBlockTableRecord
  2
*Paper_Space0
340
26
 70
     0
280
     1
281
     0
  0
BLOCK_RECORD
  5
72
330
1
100
AcDbSymbolTableRecord
100
AcDbBlockTableRecord
  2
_CLOSED
340
0
 70
     0
280
     1
281
     0
  0
BLOCK_RECORD
  5
7B
330
1
100
AcDbSymbolTableRecord
100
AcDbBlockTableRecord
  2
a
340
0
102
{BLKREFS
331
A5
102
}
 70
     0
280
     1
281
     0
  0
BLOCK_RECORD
  5
A6
330
1
100
AcDbSymbolTableRecord
100
AcDbBlockTableRecord
  2
b
340
0
102
{BLKREFS
331
D6
102
}
 70
     0
280
     1
281
     0
  0
BLOCK_RECORD
  5
D7
330
1
100
AcDbSymbolTableRecord
100
AcDbBlockTableRecord
  2
c
340
0
102
{BLKREFS
331
FC
102
}
 70
     0
280
     1
281
     0
  0
BLOCK_RECORD
  5
FD
330
1
100
AcDbSymbolTableRecord
100
AcDbBlockTableRecord
  2
d
340
0
102
{BLKREFS
331
138
102
}
 70
     0
280
     1
281
     0
  0
BLOCK_RECORD
  5
139
330
1
100
AcDbSymbolTableRecord
100
AcDbBlockTableRecord
  2
e
340
0
102
{BLKREFS
331
162
102
}
 70
     0
280
     1
281
     0
  0
ENDTAB
  0
ENDSEC
  0
SECTION
  2
BLOCKS
  0
BLOCK
  5
20
330
1F
100
AcDbEntity
  8
0
100
AcDbBlockBegin
  2
*Model_Space
 70
     0
 10
0.0
 20
0.0
 30
0.0
  3
*Model_Space
  1

  0
ENDBLK
  5
21
330
1F
100
AcDbEntity
  8
0
100
AcDbBlockEnd
  0
BLOCK
  5
1C
330
1B
100
AcDbEntity
 67
     1
  8
0
100
AcDbBlockBegin
  2
*Paper_Space
 70
     0
 10
0.0
 20
0.0
 30
0.0
  3
*Paper_Space
  1

  0
ENDBLK
  5
1D
330
1B
100
AcDbEntity
 67
     1
  8
0
100
AcDbBlockEnd
  0
BLOCK
  5
24
330
23
100
AcDbEntity
  8
0
100
AcDbBlockBegin
  2
*Paper_Space0
 70
     0
 10
0.0
 20
0.0
 30
0.0
  3
*Paper_Space0
  1

  0
ENDBLK
  5
25
330
23
100
AcDbEntity
  8
0
100
AcDbBlockEnd
  0
BLOCK
  5
73
330
72
100
AcDbEntity
  8
0
100
AcDbBlockBegin
  2
_CLOSED
 70
     0
 10
0.0
 20
0.0
 30
0.0
  3
_CLOSED
  1

  0
LINE
  5
75
330
72
100
AcDbEntity
  8
0
  6
ByBlock
 62
     0
370
    -2
100
AcDbLine
 10
-1.0
 20
0.166667
 30
0.0
 11
0.0
 21
0.0
 31
0.0
  0
LINE
  5
76
330
72
100
AcDbEntity
  8
0
  6
ByBlock
 62
     0
370
    -2
100
AcDbLine
 10
0.0
 20
0.0
 30
0.0
 11
-1.0
 21
-0.166667
 31
0.0
  0
LINE
  5
77
330
72
100
AcDbEntity
  8
0
  6
ByBlock
 62
     0
370
    -2
100
AcDbLine
 10
-1.0
 20
0.166667
 30
0.0
 11
-1.0
 21
-0.166667
 31
0.0
  0
LINE
  5
78
330
72
100
AcDbEntity
  8
0
  6
ByBlock
 62
     0
370
    -2
100
AcDbLine
 10
0.0
 20
0.0
 30
0.0
 11
-1.0
 21
0.0
 31
0.0
  0
ENDBLK
  5
74
330
72
100
AcDbEntity
  8
0
100
AcDbBlockEnd
  0
BLOCK
  5
A3
330
7B
100
AcDbEntity
  8
0
100
AcDbBlockBegin
  2
a
 70
     0
 10
62.794861
 20
65.557709
 30
0.0
  3
a
  1

  0
LWPOLYLINE
  5
7C
330
7B
100
AcDbEntity
  8
0
  6
Continuous
 62
     0
370
    30
100
AcDbPolyline
 90
       21
 70
     0
 43
0.0
 10
131.391327
 20
254.276825
 10
131.391312
 20
255.198486
 10
131.391312
 20
256.092651
 10
131.391296
 20
256.953613
 10
131.391281
 20
257.775726
 10
131.391266
 20
258.553528
 10
131.391235
 20
259.282318
 10
131.39122
 20
259.957458
 10
131.391205
 20
260.574371
 10
131.391174
 20
261.128876
 10
131.391159
 20
261.617767
 10
131.391129
 20
262.038025
 10
131.391098
 20
262.386627
 10
131.391083
 20
262.661102
 10
131.391052
 20
262.860138
 10
131.391022
 20
262.982574
 10
131.390991
 20
263.027191
 10
131.390976
 20
262.993591
 10
131.390945
 20
262.882446
 10
131.390915
 20
262.694519
 10
131.390884
 20
262.427887
  0
LWPOLYLINE
  5
7D
330
7B
100
AcDbEntity
  8
0
  6
Continuous
 62
     0
370
    30
100
AcDbPolyline
 90
       28
 70
     0
 43
0.0
 10
131.390884
 20
239.426651
 10
131.390915
 20
239.162369
 10
131.390945
 20
238.973602
 10
131.390976
 20
238.861526
 10
131.390991
 20
238.827301
 10
131.391022
 20
238.87117
 10
131.391052
 20
238.992416
 10
131.391083
 20
239.190247
 10
131.391098
 20
239.463837
 10
131.391129
 20
239.811386
 10
131.391159
 20
240.23024
 10
131.391174
 20
240.717773
 10
131.391205
 20
241.271225
 10
131.39122
 20
241.886948
 10
131.391235
 20
242.560669
 10
131.391266
 20
243.288101
 10
131.391281
 20
244.06488
 10
131.391296
 20
244.88591
 10
131.391312
 20
245.745682
 10
131.391312
 20
246.638718
 10
131.391327
 20
247.559448
 10
131.391327
 20
248.501907
 10
131.391342
 20
249.45993
 10
131.391342
 20
250.427353
 10
131.391342
 20
251.39801
 10
131.391342
 20
252.365646
 10
131.391327
 20
253.324066
 10
131.391327
 20
254.276825
  0
LINE
  5
7E
330
7B
100
AcDbEntity
  8
0
  6
Continuous
 62
     0
370
     0
100
AcDbLine
 10
131.891338
 20
254.415239
 30
0.0
 11
131.890995
 21
263.527269
 31
0.0
  0
LWPOLYLINE
  5
7F
330
7B
100
AcDbEntity
  8
0
  6
Continuous
 62
     0
370
     0
100
AcDbPolyline
 90
       25
 70
     0
 43
0.0
 10
131.890991
 20
238.327286
 10
131.891022
 20
238.362473
 10
131.891052
 20
238.467194
 10
131.891068
 20
238.635742
 10
131.891098
 20
238.862122
 10
131.891129
 20
239.151489
 10
131.891144
 20
239.510864
 10
131.891174
 20
239.942368
 10
131.89119
 20
240.447037
 10
131.89122
 20
241.024521
 10
131.891235
 20
241.67305
 10
131.891251
 20
242.389313
 10
131.891281
 20
243.168442
 10
131.891296
 20
244.004181
 10
131.891312
 20
244.888901
 10
131.891327
 20
245.813934
 10
131.891327
 20
246.769775
 10
131.891342
 20
247.74649
 10
131.891342
 20
248.733978
 10
131.891357
 20
249.722305
 10
131.891357
 20
250.702072
 10
131.891357
 20
251.664612
 10
131.891342
 20
252.602203
 10
131.891342
 20
253.508209
 10
131.891342
 20
254.415237
  0
LWPOLYLINE
  5
80
330
7B
100
AcDbEntity
  8
0
  6
Continuous
 62
     0
370
    30
100
AcDbPolyline
 90
       20
 70
     0
 43
0.0
 10
132.891373
 20
254.728043
 10
132.891357
 20
255.717636
 10
132.891342
 20
256.679626
 10
132.891342
 20
257.608582
 10
132.891312
 20
258.499054
 10
132.891296
 20
259.345734
 10
132.891281
 20
260.143951
 10
132.891266
 20
260.889252
 10
132.891235
 20
261.577271
 10
132.89122
 20
262.203705
 10
132.89119
 20
262.765076
 10
132.891159
 20
263.258514
 10
132.891144
 20
263.681091
 10
132.891113
 20
264.029938
 10
132.891083
 20
264.303162
 10
132.891052
 20
264.499542
 10
132.891022
 20
264.618011
 10
132.890991
 20
264.65741
 10
132.890961
 20
264.617462
 10
132.89093
 20
264.498535
  0
LWPOLYLINE
  5
81
330
7B
100
AcDbEntity
  8
0
  6
Continuous
 62
     0
370
    30
100
AcDbPolyline
 90
       28
 70
     0
 43
0.0
 10
132.89093
 20
237.356018
 10
132.890961
 20
237.238937
 10
132.890991
 20
237.197235
 10
132.891022
 20
237.231216
 10
132.891052
 20
237.340256
 10
132.891083
 20
237.523666
 10
132.891113
 20
237.780762
 10
132.891129
 20
238.110397
 10
132.891159
 20
238.510361
 10
132.89119
 20
238.978271
 10
132.891205
 20
239.511749
 10
132.891235
 20
240.108231
 10
132.891251
 20
240.764175
 10
132.891281
 20
241.475754
 10
132.891296
 20
242.23912
 10
132.891312
 20
243.0504
 10
132.891327
 20
243.905045
 10
132.891342
 20
244.798157
 10
132.891357
 20
245.724808
 10
132.891357
 20
246.680099
 10
132.891373
 20
247.658813
 10
132.891373
 20
248.655457
 10
132.891388
 20
249.664536
 10
132.891388
 20
250.680527
 10
132.891388
 20
251.697876
 10
132.891388
 20
252.711044
 10
132.891373
 20
253.714417
 10
132.891373
 20
254.728043
  0
LINE
  5
82
330
7B
100
AcDbEntity
  8
0
  6
Continuous
 62
     0
370
     0
100
AcDbLine
 10
133.245196
 20
254.860411
 30
0.0
 11
133.244801
 21
265.13228
 31
0.0
  0
LWPOLYLINE
  5
83
330
7B
100
AcDbEntity
  8
0
  6
Continuous
 62
     0
370
     0
100
AcDbPolyline
 90
       26
 70
     0
 43
0.0
 10
133.244812
 20
236.719116
 10
133.244843
 20
236.757019
 10
133.244873
 20
236.86731
 10
133.244888
 20
237.044373
 10
133.244919
 20
237.282013
 10
133.244949
 20
237.583298
 10
133.24498
 20
237.956848
 10
133.244995
 20
238.404999
 10
133.245026
 20
238.929047
 10
133.245056
 20
239.529083
 10
133.245071
 20
240.203781
 10
133.245102
 20
240.950394
 10
133.245117
 20
241.764709
 10
133.245132
 20
242.641068
 10
133.245148
 20
243.572479
 10
133.245163
 20
244.550781
 10
133.245178
 20
245.566956
 10
133.245193
 20
246.611282
 10
133.245193
 20
247.673737
 10
133.245209
 20
248.744232
 10
133.245209
 20
249.813019
 10
133.245209
 20
250.870834
 10
133.245209
 20
251.90921
 10
133.245209
 20
252.920609
 10
133.245209
 20
253.898529
 10
133.245193
 20
254.860413
  0
LINE
  5
84
330
7B
100
AcDbEntity
  8
0
  6
Continuous
 62
     0
370
     0
100
AcDbLine
 10
143.107552
 20
255.695088
 30
0.0
 11
143.107084
 21
268.150615
 31
0.0
  0
LWPOLYLINE
  5
85
330
7B
100
AcDbEntity
  8
0
  6
Continuous
 62
     0
370
     0
100
AcDbPolyline
 90
       28
 70
     0
 43
0.0
 10
143.107086
 20
233.703918
 10
143.107117
 20
233.743423
 10
143.107147
 20
233.858719
 10
143.107178
 20
234.044434
 10
143.107208
 20
234.294647
 10
143.107239
 20
234.607651
 10
143.107269
 20
234.994141
 10
143.1073
 20
235.457367
 10
143.10733
 20
235.999084
 10
143.107361
 20
236.620026
 10
143.107376
 20
237.319763
 10
143.107407
 20
238.096649
 10
143.107437
 20
238.947693
 10
143.107452
 20
239.868591
 10
143.107483
 20
240.853775
 10
143.107498
 20
241.896484
 10
143.107513
 20
242.988937
 10
143.107529
 20
244.122482
 10
143.107544
 20
245.287888
 10
143.107559
 20
246.47551
 10
143.107559
 20
247.675613
 10
143.107574
 20
248.878616
 10
143.107574
 20
250.075287
 10
143.107574
 20
251.257019
 10
143.107574
 20
252.415924
 10
143.107559
 20
253.544998
 10
143.107559
 20
254.638199
 10
143.107559
 20
255.695084
  0
LINE
  5
86
330
7B
100
AcDbEntity
  8
0
  6
Continuous
 62
     0
370
     0
100
AcDbLine
 10
150.868766
 20
258.410429
 30
0.0
 11
150.868032
 21
277.959558
 31
0.0
  0
LWPOLYLINE
  5
87
330
7B
100
AcDbEntity
  8
0
  6
Continuous
 62
     0
370
     0
100
AcDbPolyline
 90
       35
 70
     0
 43
0.0
 10
150.868027
 20
223.894974
 10
150.868073
 20
223.93367
 10
150.868118
 20
224.048462
 10
150.868149
 20
224.23526
 10
150.868195
 20
224.489639
 10
150.868225
 20
224.806839
 10
150.868271
 20
225.184952
 10
150.868301
 20
225.634521
 10
150.868332
 20
226.158997
 10
150.868378
 20
226.760178
 10
150.868408
 20
227.439255
 10
150.868439
 20
228.196793
 10
150.868484
 20
229.032608
 10
150.868515
 20
229.945786
 10
150.868546
 20
230.934555
 10
150.868576
 20
231.996368
 10
150.868607
 20
233.127823
 10
150.868637
 20
234.324738
 10
150.868668
 20
235.582153
 10
150.868683
 20
236.894409
 10
150.868713
 20
238.255234
 10
150.868729
 20
239.657852
 10
150.868744
 20
241.095078
 10
150.868759
 20
242.559402
 10
150.868774
 20
244.043228
 10
150.868774
 20
245.538879
 10
150.86879
 20
247.038803
 10
150.86879
 20
248.535645
 10
150.86879
 20
250.0224
 10
150.86879
 20
251.492447
 10
150.86879
 20
252.939667
 10
150.86879
 20
254.358521
 10
150.86879
 20
255.744019
 10
150.868774
 20
257.091827
 10
150.868759
 20
258.410431
  0
LINE
  5
88
330
7B
100
AcDbEntity
  8
0
  6
Continuous
 62
     0
370
     0
100
AcDbLine
 10
151.367735
 20
258.539902
 30
0.0
 11
151.366987
 21
278.427269
 31
0.0
  0
LWPOLYLINE
  5
89
330
7B
100
AcDbEntity
  8
0
  6
Continuous
 62
     0
370
     0
100
AcDbPolyline
 90
       36
 70
     0
 43
0.0
 10
151.366989
 20
223.427536
 10
151.36702
 20
223.459061
 10
151.367065
 20
223.564255
 10
151.367111
 20
223.739349
 10
151.367142
 20
223.980194
 10
151.367188
 20
224.28241
 10
151.367218
 20
224.642487
 10
151.367249
 20
225.069321
 10
151.367294
 20
225.56778
 10
151.367325
 20
226.139664
 10
151.367355
 20
226.786285
 10
151.367401
 20
227.508362
 10
151.367432
 20
228.306
 10
151.367462
 20
229.178574
 10
151.367493
 20
230.124786
 10
151.367523
 20
231.142563
 10
151.367554
 20
232.229095
 10
151.367584
 20
233.380798
 10
151.367615
 20
234.593414
 10
151.367645
 20
235.861984
 10
151.367661
 20
237.180954
 10
151.367676
 20
238.544235
 10
151.367706
 20
239.945312
 10
151.367722
 20
241.37735
 10
151.367737
 20
242.833267
 10
151.367737
 20
244.305908
 10
151.367752
 20
245.788086
 10
151.367752
 20
247.272781
 10
151.367767
 20
248.753128
 10
151.367767
 20
250.222641
 10
151.367767
 20
251.675186
 10
151.367767
 20
253.105103
 10
151.367752
 20
254.507233
 10
151.367752
 20
255.876953
 10
151.367752
 20
257.210236
 10
151.367737
 20
258.539917
  0
LWPOLYLINE
  5
8A
330
7B
100
AcDbEntity
  8
0
  6
Continuous
 62
     0
370
    30
100
AcDbPolyline
 90
       35
 70
     0
 43
0.0
 10
157.890991
 20
223.427261
 10
157.891037
 20
223.467224
 10
157.891083
 20
223.584579
 10
157.891113
 20
223.775162
 10
157.891159
 20
224.034439
 10
157.89119
 20
224.35762
 10
157.891235
 20
224.742798
 10
157.891266
 20
225.200729
 10
157.891312
 20
225.734909
 10
157.891342
 20
226.347122
 10
157.891388
 20
227.038605
 10
157.891418
 20
227.809891
 10
157.891449
 20
228.660828
 10
157.891479
 20
229.590454
 10
157.891525
 20
230.59697
 10
157.891556
 20
231.677765
 10
157.891586
 20
232.829391
 10
157.891617
 20
234.047562
 10
157.891632
 20
235.327255
 10
157.891663
 20
236.662689
 10
157.891678
 20
238.047485
 10
157.891708
 20
239.474747
 10
157.891724
 20
240.937134
 10
157.891739
 20
242.427048
 10
157.891754
 20
243.936722
 10
157.891754
 20
245.458374
 10
157.891769
 20
246.984314
 10
157.891769
 20
248.50705
 10
157.891769
 20
250.019455
 10
157.891769
 20
251.514816
 10
157.891769
 20
252.986908
 10
157.891769
 20
254.430084
 10
157.891754
 20
255.839279
 10
157.891754
 20
257.210114
 10
157.891739
 20
258.539917
  0
ARC
  5
8B
330
7B
100
AcDbEntity
  8
0
  6
Continuous
 62
     0
370
    30
100
AcDbCircle
 10
101.834044
 20
250.930204
 30
0.0
 40
9.00136843873894
100
AcDbArc
 50
180.018682
 51
359.981318
  0
ARC
  5
8C
330
7B
100
AcDbEntity
  8
0
  6
Continuous
 62
     0
370
    30
100
AcDbCircle
 10
101.834044
 20
250.924334
 30
0.0
 40
9.001368438738933
100
AcDbArc
 50
0.018682
 51
179.981318
  0
ARC
  5
8D
330
7B
100
AcDbEntity
  8
0
  6
Continuous
 62
     0
370
    30
100
AcDbCircle
 10
101.832923
 20
250.927269
 30
0.0
 40
9.00024752599628
100
AcDbArc
 50
180.0
 51
0.0
  0
ARC
  5
8E
330
7B
100
AcDbEntity
  8
0
  6
Continuous
 62
     0
370
    30
100
AcDbCircle
 10
101.832923
 20
250.927269
 30
0.0
 40
9.00024752599628
100
AcDbArc
 50
360.0
 51
180.0
  0
LINE
  5
8F
330
7B
100
AcDbEntity
  8
0
  6
Continuous
 62
     0
370
    30
100
AcDbLine
 10
90.333215
 20
250.927269
 30
0.0
 11
90.336138
 21
251.18655
 31
0.0
  0
LINE
  5
90
330
7B
100
AcDbEntity
  8
0
  6
Continuous
 62
     0
370
    30
100
AcDbLine
 10
90.336138
 20
250.667988
 30
0.0
 11
90.333215
 21
250.927269
 31
0.0
  0
ARC
  5
91
330
7B
100
AcDbEntity
  8
0
  6
Continuous
 62
     0
370
    30
100
AcDbCircle
 10
101.832761
 20
250.927269
 30
0.0
 40
9.350052676364285
100
AcDbArc
 50
360.0
 51
180.0
  0
ARC
  5
92
330
7B
100
AcDbEntity
  8
0
  6
Continuous
 62
     0
370
    30
100
AcDbCircle
 10
101.832761
 20
250.927269
 30
0.0
 40
9.350052676364285
100
AcDbArc
 50
180.0
 51
0.0
  0
ARC
  5
93
330
7B
100
AcDbEntity
  8
0
  6
Continuous
 62
     0
370
    30
100
AcDbCircle
 10
101.832761
 20
250.927269
 30
0.0
 40
9.500128368358432
100
AcDbArc
 50
180.0
 51
0.0
  0
ARC
  5
94
330
7B
100
AcDbEntity
  8
0
  6
Continuous
 62
     0
370
    30
100
AcDbCircle
 10
101.832761
 20
250.927269
 30
0.0
 40
9.500128368358432
100
AcDbArc
 50
360.0
 51
180.0
  0
ARC
  5
95
330
7B
100
AcDbEntity
  8
0
  6
Continuous
 62
     0
370
    30
100
AcDbCircle
 10
101.832888
 20
250.927269
 30
0.0
 40
10.49999999579705
100
AcDbArc
 50
360.0
 51
180.0
  0
ARC
  5
96
330
7B
100
AcDbEntity
  8
0
  6
Continuous
 62
     0
370
    30
100
AcDbCircle
 10
101.832888
 20
250.927269
 30
0.0
 40
10.49999999579705
100
AcDbArc
 50
180.0
 51
0.0
  0
ARC
  5
97
330
7B
100
AcDbEntity
  8
0
  6
Continuous
 62
     0
370
    30
100
AcDbCircle
 10
101.832794
 20
250.925125
 30
0.0
 40
11.50061223289612
100
AcDbArc
 50
0.010649
 51
179.98932
  0
ARC
  5
98
330
7B
100
AcDbEntity
  8
0
  6
Continuous
 62
     0
370
    30
100
AcDbCircle
 10
101.832794
 20
250.929415
 30
0.0
 40
11.50061223439443
100
AcDbArc
 50
180.010689
 51
359.98928
  0
LINE
  5
99
330
7B
100
AcDbEntity
  8
0
  6
Continuous
 62
     0
370
    30
100
AcDbLine
 10
101.833293
 20
262.427881
 30
0.0
 11
131.390995
 21
262.427881
 31
0.0
  0
LINE
  5
9A
330
7B
100
AcDbEntity
  8
0
  6
Continuous
 62
     0
370
    30
100
AcDbLine
 10
101.833296
 20
239.426657
 30
0.0
 11
131.390995
 21
239.426657
 31
0.0
  0
LINE
  5
9B
330
7B
100
AcDbEntity
  8
0
  6
Continuous
 62
     0
370
    30
100
AcDbLine
 10
151.366987
 20
223.427269
 30
0.0
 11
157.890995
 21
223.427269
 31
0.0
  0
LINE
  5
9C
330
7B
100
AcDbEntity
  8
0
  6
Continuous
 62
     0
370
    30
100
AcDbLine
 10
151.366987
 20
278.427269
 30
0.0
 11
157.890995
 21
278.427269
 31
0.0
  0
ARC
  5
9D
330
7B
100
AcDbEntity
  8
0
  6
Continuous
 62
     0
370
    30
100
AcDbCircle
 10
139.889837
 20
223.183654
 30
0.0
 40
11.00121530388686
100
AcDbArc
 50
3.707267
 51
72.995625
  0
ARC
  5
9E
330
7B
100
AcDbEntity
  8
0
  6
Continuous
 62
     0
370
    30
100
AcDbCircle
 10
139.889837
 20
278.670884
 30
0.0
 40
11.00121530252346
100
AcDbArc
 50
287.004375
 51
356.292733
  0
LINE
  5
9F
330
7B
100
AcDbEntity
  8
0
  6
Continuous
 62
     0
370
    30
100
AcDbLine
 10
133.244809
 20
265.135415
 30
0.0
 11
143.107084
 21
268.150615
 31
0.0
  0
LINE
  5
A0
330
7B
100
AcDbEntity
  8
0
  6
Continuous
 62
     0
370
    30
100
AcDbLine
 10
143.107084
 20
233.703923
 30
0.0
 11
133.244809
 21
236.719123
 31
0.0
  0
ARC
  5
A1
330
7B
100
AcDbEntity
  8
0
  6
Continuous
 62
     0
370
    30
100
AcDbCircle
 10
131.890995
 20
237.327269
 30
0.0
 40
1.000000274391592
100
AcDbArc
 50
1.647132
 51
89.999974
  0
ARC
  5
A2
330
7B
100
AcDbEntity
  8
0
  6
Continuous
 62
     0
370
    30
100
AcDbCircle
 10
131.890995
 20
264.527269
 30
0.0
 40
1.000000274975669
100
AcDbArc
 50
270.000026
 51
358.352868
  0
ENDBLK
  5
A4
330
7B
100
AcDbEntity
  8
0
100
AcDbBlockEnd
  0
BLOCK
  5
D4
330
A6
100
AcDbEntity
  8
0
100
AcDbBlockBegin
  2
b
 70
     0
 10
62.794861
 20
65.557709
 30
0.0
  3
b
  1

  0
LINE
  5
A7
330
A6
100
AcDbEntity
  8
0
  6
Continuous
 62
     0
370
    30
100
AcDbLine
 10
131.391324
 20
93.44383
 30
0.0
 11
131.390653
 21
117.1711
 31
0.0
  0
LWPOLYLINE
  5
A8
330
A6
100
AcDbEntity
  8
0
  6
Continuous
 62
     0
370
    30
100
AcDbPolyline
 90
        5
 70
     0
 43
0.0
 10
131.391342
 20
92.970848
 10
131.391342
 20
92.997597
 10
131.391327
 20
93.077591
 10
131.391327
 20
93.210411
 10
131.391327
 20
93.443832
  0
LINE
  5
A9
330
A6
100
AcDbEntity
  8
0
  6
Continuous
 62
     0
370
     0
100
AcDbLine
 10
131.891338
 20
92.963383
 30
0.0
 11
131.890639
 21
117.670987
 31
0.0
  0
LWPOLYLINE
  5
AA
330
A6
100
AcDbEntity
  8
0
  6
Continuous
 62
     0
370
     0
100
AcDbPolyline
 90
        5
 70
     0
 43
0.0
 10
131.891357
 20
92.470985
 10
131.891357
 20
92.502144
 10
131.891342
 20
92.592941
 10
131.891342
 20
92.738953
 10
131.891342
 20
92.963387
  0
LINE
  5
AB
330
A6
100
AcDbEntity
  8
0
  6
Continuous
 62
     0
370
    30
100
AcDbLine
 10
132.891368
 20
91.877577
 30
0.0
 11
132.890607
 21
118.801154
 31
0.0
  0
LWPOLYLINE
  5
AC
330
A6
100
AcDbEntity
  8
0
  6
Continuous
 62
     0
370
    30
100
AcDbPolyline
 90
        5
 70
     0
 43
0.0
 10
132.891388
 20
91.340874
 10
132.891388
 20
91.372765
 10
132.891373
 20
91.468102
 10
132.891373
 20
91.626389
 10
132.891373
 20
91.877579
  0
LINE
  5
AD
330
A6
100
AcDbEntity
  8
0
  6
Continuous
 62
     0
370
     0
100
AcDbLine
 10
133.245196
 20
91.41812
 30
0.0
 11
133.244407
 21
119.279172
 31
0.0
  0
LWPOLYLINE
  5
AE
330
A6
100
AcDbEntity
  8
0
  6
Continuous
 62
     0
370
     0
100
AcDbPolyline
 90
        5
 70
     0
 43
0.0
 10
133.245209
 20
90.862877
 10
133.245209
 20
90.899551
 10
133.245209
 20
91.00634
 10
133.245209
 20
91.177895
 10
133.245193
 20
91.418121
  0
LINE
  5
AF
330
A6
100
AcDbEntity
  8
0
  6
Continuous
 62
     0
370
     0
100
AcDbLine
 10
143.107552
 20
88.521031
 30
0.0
 11
143.106597
 21
122.294651
 31
0.0
  0
LWPOLYLINE
  5
B0
330
A6
100
AcDbEntity
  8
0
  6
Continuous
 62
     0
370
     0
100
AcDbPolyline
 90
        6
 70
     0
 43
0.0
 10
143.107574
 20
87.847961
 10
143.107574
 20
87.874702
 10
143.107574
 20
87.953171
 10
143.107559
 20
88.080475
 10
143.107559
 20
88.253464
 10
143.107559
 20
88.521034
  0
LINE
  5
B1
330
A6
100
AcDbEntity
  8
0
  6
Continuous
 62
     0
370
     0
100
AcDbLine
 10
150.868766
 20
79.09563
 30
0.0
 11
150.867266
 21
132.103815
 31
0.0
  0
LWPOLYLINE
  5
B2
330
A6
100
AcDbEntity
  8
0
  6
Continuous
 62
     0
370
     0
100
AcDbPolyline
 90
        7
 70
     0
 43
0.0
 10
150.86879
 20
78.03923
 10
150.86879
 20
78.069572
 10
150.86879
 20
78.15892
 10
150.86879
 20
78.304573
 10
150.86879
 20
78.503571
 10
150.868774
 20
78.7528
 10
150.868759
 20
79.095627
  0
LINE
  5
B3
330
A6
100
AcDbEntity
  8
0
  6
Continuous
 62
     0
370
     0
100
AcDbLine
 10
151.367735
 20
78.646213
 30
0.0
 11
151.366209
 21
132.571538
 31
0.0
  0
LWPOLYLINE
  5
B4
330
A6
100
AcDbEntity
  8
0
  6
Continuous
 62
     0
370
     0
100
AcDbPolyline
 90
        7
 70
     0
 43
0.0
 10
151.367767
 20
77.571541
 10
151.367767
 20
77.602524
 10
151.367767
 20
77.693764
 10
151.367752
 20
77.842499
 10
151.367752
 20
78.0457
 10
151.367752
 20
78.300171
 10
151.367737
 20
78.64621
  0
LINE
  5
B5
330
A6
100
AcDbEntity
  8
0
  6
Continuous
 62
     0
370
    30
100
AcDbLine
 10
157.891743
 20
78.646397
 30
0.0
 11
157.890217
 21
132.571723
 31
0.0
  0
LWPOLYLINE
  5
B6
330
A6
100
AcDbEntity
  8
0
  6
Continuous
 62
     0
370
    30
100
AcDbPolyline
 90
        7
 70
     0
 43
0.0
 10
157.891769
 20
77.571724
 10
157.891769
 20
77.602707
 10
157.891769
 20
77.693954
 10
157.891769
 20
77.842682
 10
157.891754
 20
78.045891
 10
157.891754
 20
78.300354
 10
157.891739
 20
78.6464
  0
LWPOLYLINE
  5
B7
330
A6
100
AcDbEntity
  8
0
  6
Continuous
 62
     0
370
    30
100
AcDbPolyline
 90
       35
 70
     0
 43
0.0
 10
92.832672
 20
71.572716
 10
92.870293
 20
71.572723
 10
92.985771
 20
71.572723
 10
93.176727
 20
71.572731
 10
93.440773
 20
71.572739
 10
93.775513
 20
71.572746
 10
94.178574
 20
71.572754
 10
94.647545
 20
71.572769
 10
95.179085
 20
71.572784
 10
95.767693
 20
71.5728
 10
96.407585
 20
71.572823
 10
97.092964
 20
71.572838
 10
97.818031
 20
71.572861
 10
98.577011
 20
71.572884
 10
99.364075
 20
71.572906
 10
100.172844
 20
71.572929
 10
100.99614
 20
71.572952
 10
101.826729
 20
71.572975
 10
102.657394
 20
71.572998
 10
103.480904
 20
71.573021
 10
104.290024
 20
71.573044
 10
105.077591
 20
71.573067
 10
105.837166
 20
71.57309
 10
106.56292
 20
71.573105
 10
107.249016
 20
71.573128
 10
107.889641
 20
71.573143
 10
108.478973
 20
71.573158
 10
109.011185
 20
71.573174
 10
109.480759
 20
71.573189
 10
109.884399
 20
71.573204
 10
110.219872
 20
71.573212
 10
110.484947
 20
71.573219
 10
110.677383
 20
71.573227
 10
110.794945
 20
71.573227
 10
110.835411
 20
71.573227
  0
LINE
  5
B8
330
A6
100
AcDbEntity
  8
0
  6
Continuous
 62
     0
370
    30
100
AcDbLine
 10
92.832676
 20
72.322738
 30
0.0
 11
92.832697
 21
71.572719
 31
0.0
  0
LINE
  5
B9
330
A6
100
AcDbEntity
  8
0
  6
Continuous
 62
     0
370
     0
100
AcDbLine
 10
110.833171
 20
72.323247
 30
0.0
 11
92.832676
 21
72.322738
 31
0.0
  0
LINE
  5
BA
330
A6
100
AcDbEntity
  8
0
  6
Continuous
 62
     0
370
    30
100
AcDbLine
 10
90.336138
 20
116.5675
 30
0.0
 11
113.333788
 21
93.56985
 31
0.0
  0
LINE
  5
BB
330
A6
100
AcDbEntity
  8
0
  6
Continuous
 62
     0
370
    30
100
AcDbLine
 10
131.39067
 20
116.571585
 30
0.0
 11
90.333215
 21
116.570423
 31
0.0
  0
LINE
  5
BC
330
A6
100
AcDbEntity
  8
0
  6
Continuous
 62
     0
370
    30
100
AcDbLine
 10
92.482708
 20
78.072738
 30
0.0
 11
92.482651
 21
80.072742
 31
0.0
  0
LINE
  5
BD
330
A6
100
AcDbEntity
  8
0
  6
Continuous
 62
     0
370
    30
100
AcDbLine
 10
92.332632
 20
78.072738
 30
0.0
 11
91.332789
 21
77.072894
 31
0.0
  0
LINE
  5
BE
330
A6
100
AcDbEntity
  8
0
  6
Continuous
 62
     0
370
    30
100
AcDbLine
 10
112.332789
 20
77.073489
 30
0.0
 11
91.332789
 21
77.072894
 31
0.0
  0
LWPOLYLINE
  5
BF
330
A6
100
AcDbEntity
  8
0
  6
Continuous
 62
     0
370
    30
100
AcDbPolyline
 90
       36
 70
     0
 43
0.0
 10
92.332634
 20
78.072739
 10
92.364647
 20
78.072739
 10
92.464478
 20
78.072739
 10
92.637016
 20
78.072746
 10
92.885872
 20
78.072754
 10
93.213036
 20
78.072762
 10
93.618568
 20
78.072777
 10
94.100479
 20
78.072784
 10
94.654587
 20
78.0728
 10
95.274673
 20
78.072823
 10
95.952652
 20
78.072838
 10
96.67894
 20
78.072861
 10
97.442894
 20
78.072884
 10
98.233307
 20
78.072906
 10
99.03891
 20
78.072929
 10
99.848869
 20
78.072952
 10
100.653137
 20
78.072975
 10
101.44278
 20
78.072998
 10
102.216484
 20
78.073013
 10
103.005981
 20
78.073036
 10
103.810165
 20
78.073059
 10
104.620117
 20
78.073082
 10
105.425804
 20
78.073105
 10
106.216377
 20
78.073128
 10
106.980583
 20
78.073151
 10
107.707222
 20
78.073174
 10
108.385628
 20
78.073189
 10
109.00621
 20
78.073212
 10
109.560883
 20
78.073227
 10
110.043381
 20
78.073242
 10
110.449547
 20
78.07325
 10
110.777336
 20
78.073257
 10
111.026817
 20
78.073265
 10
111.199959
 20
78.073273
 10
111.300346
 20
78.073273
 10
111.332886
 20
78.073273
  0
LINE
  5
C0
330
A6
100
AcDbEntity
  8
0
  6
Continuous
 62
     0
370
    30
100
AcDbLine
 10
91.332789
 20
77.072894
 30
0.0
 11
91.332888
 21
73.572482
 31
0.0
  0
LWPOLYLINE
  5
C1
330
A6
100
AcDbEntity
  8
0
  6
Continuous
 62
     0
370
    30
100
AcDbPolyline
 90
       38
 70
     0
 43
0.0
 10
91.332886
 20
73.572479
 10
91.364494
 20
73.572479
 10
91.462852
 20
73.572487
 10
91.632645
 20
73.572487
 10
91.877434
 20
73.572495
 10
92.199387
 20
73.57251
 10
92.599022
 20
73.572517
 10
93.075066
 20
73.572533
 10
93.624321
 20
73.572548
 10
94.241737
 20
73.572563
 10
94.920517
 20
73.572586
 10
95.652367
 20
73.572601
 10
96.427834
 20
73.572624
 10
97.236702
 20
73.572647
 10
98.06842
 20
73.57267
 10
98.912529
 20
73.572693
 10
99.758995
 20
73.572723
 10
100.598579
 20
73.572746
 10
101.42305
 20
73.572769
 10
102.231522
 20
73.572792
 10
103.055733
 20
73.572815
 10
103.895164
 20
73.572838
 10
104.7416
 20
73.572861
 10
105.5858
 20
73.572884
 10
106.417763
 20
73.572906
 10
107.22702
 20
73.572929
 10
108.003014
 20
73.572952
 10
108.735527
 20
73.572975
 10
109.4151
 20
73.57299
 10
110.033409
 20
73.573013
 10
110.583641
 20
73.573029
 10
111.060715
 20
73.573036
 10
111.461418
 20
73.573051
 10
111.784439
 20
73.573059
 10
112.030273
 20
73.573067
 10
112.20108
 20
73.573074
 10
112.3004
 20
73.573074
 10
112.332886
 20
73.573074
  0
LINE
  5
C2
330
A6
100
AcDbEntity
  8
0
  6
Continuous
 62
     0
370
    30
100
AcDbLine
 10
91.332888
 20
73.572482
 30
0.0
 11
92.332676
 21
72.572694
 31
0.0
  0
LINE
  5
C3
330
A6
100
AcDbEntity
  8
0
  6
Continuous
 62
     0
370
    30
100
AcDbLine
 10
111.333157
 20
72.573232
 30
0.0
 11
92.332676
 21
72.572694
 31
0.0
  0
LINE
  5
C4
330
A6
100
AcDbEntity
  8
0
  6
Continuous
 62
     0
370
    30
100
AcDbLine
 10
90.332182
 20
80.072681
 30
0.0
 11
90.333215
 21
116.570423
 31
0.0
  0
LINE
  5
C5
330
A6
100
AcDbEntity
  8
0
  6
Continuous
 62
     0
370
    30
100
AcDbLine
 10
90.332182
 20
80.072681
 30
0.0
 11
113.333406
 21
80.073332
 31
0.0
  0
LINE
  5
C6
330
A6
100
AcDbEntity
  8
0
  6
Continuous
 62
     0
370
    30
100
AcDbLine
 10
113.333788
 20
93.56985
 30
0.0
 11
113.333406
 21
80.073332
 31
0.0
  0
LINE
  5
C7
330
A6
100
AcDbEntity
  8
0
  6
Continuous
 62
     0
370
    30
100
AcDbLine
 10
112.332888
 20
73.573076
 30
0.0
 11
111.333157
 21
72.573232
 31
0.0
  0
LINE
  5
C8
330
A6
100
AcDbEntity
  8
0
  6
Continuous
 62
     0
370
    30
100
AcDbLine
 10
112.332789
 20
77.073489
 30
0.0
 11
112.332888
 21
73.573076
 31
0.0
  0
LINE
  5
C9
330
A6
100
AcDbEntity
  8
0
  6
Continuous
 62
     0
370
    30
100
AcDbLine
 10
111.332889
 20
78.073275
 30
0.0
 11
112.332789
 21
77.073489
 31
0.0
  0
LINE
  5
CA
330
A6
100
AcDbEntity
  8
0
  6
Continuous
 62
     0
370
    30
100
AcDbLine
 10
111.182757
 20
80.073271
 30
0.0
 11
111.182813
 21
78.073267
 31
0.0
  0
LINE
  5
CB
330
A6
100
AcDbEntity
  8
0
  6
Continuous
 62
     0
370
    30
100
AcDbLine
 10
113.333788
 20
93.56985
 30
0.0
 11
131.391321
 21
93.570361
 31
0.0
  0
LINE
  5
CC
330
A6
100
AcDbEntity
  8
0
  6
Continuous
 62
     0
370
    30
100
AcDbLine
 10
151.367765
 20
77.571538
 30
0.0
 11
157.891773
 21
77.571723
 31
0.0
  0
LINE
  5
CD
330
A6
100
AcDbEntity
  8
0
  6
Continuous
 62
     0
370
    30
100
AcDbLine
 10
151.366209
 20
132.571538
 30
0.0
 11
157.890217
 21
132.571723
 31
0.0
  0
ARC
  5
CE
330
A6
100
AcDbEntity
  8
0
  6
Continuous
 62
     0
370
    30
100
AcDbCircle
 10
139.890237
 20
77.327301
 30
0.0
 40
11.00161222239676
100
AcDbArc
 50
5.765186
 51
72.995785
  0
ARC
  5
CF
330
A6
100
AcDbEntity
  8
0
  6
Continuous
 62
     0
370
    30
100
AcDbCircle
 10
139.889063
 20
132.81482
 30
0.0
 40
11.00120331667107
100
AcDbArc
 50
287.005952
 51
356.294409
  0
LINE
  5
D0
330
A6
100
AcDbEntity
  8
0
  6
Continuous
 62
     0
370
    30
100
AcDbLine
 10
133.244407
 20
119.279172
 30
0.0
 11
143.106597
 21
122.294651
 31
0.0
  0
LINE
  5
D1
330
A6
100
AcDbEntity
  8
0
  6
Continuous
 62
     0
370
    30
100
AcDbLine
 10
143.107571
 20
87.847958
 30
0.0
 11
133.245211
 21
90.862879
 31
0.0
  0
ARC
  5
D2
330
A6
100
AcDbEntity
  8
0
  6
Continuous
 62
     0
370
    30
100
AcDbCircle
 10
131.890322
 20
91.471981
 30
0.0
 40
0.99900666509055
100
AcDbArc
 50
22.046192
 51
89.940928
  0
ARC
  5
D3
330
A6
100
AcDbEntity
  8
0
  6
Continuous
 62
     0
370
    30
100
AcDbCircle
 10
131.890609
 20
118.670988
 30
0.0
 40
1.00000116882643
100
AcDbArc
 50
270.001686
 51
358.354816
  0
ENDBLK
  5
D5
330
A6
100
AcDbEntity
  8
0
100
AcDbBlockEnd
  0
BLOCK
  5
FA
330
D7
100
AcDbEntity
  8
0
100
AcDbBlockBegin
  2
c
 70
     0
 10
62.794861
 20
65.557709
 30
0.0
  3
c
  1

  0
ARC
  5
D8
330
D7
100
AcDbEntity
  8
0
  6
Continuous
 62
     0
370
    30
100
AcDbCircle
 10
296.168986
 20
250.927254
 30
0.0
 40
27.49999998966821
100
AcDbArc
 50
24.721255
 51
196.070683
  0
LINE
  5
D9
330
D7
100
AcDbEntity
  8
0
  6
Continuous
 62
     0
370
    30
100
AcDbLine
 10
322.030667
 20
260.277306
 30
0.0
 11
321.167545
 21
262.386838
 31
0.0
  0
LINE
  5
DA
330
D7
100
AcDbEntity
  8
0
  6
Continuous
 62
     0
370
    30
100
AcDbLine
 10
321.167491
 20
239.467552
 30
0.0
 11
322.030667
 21
241.577201
 31
0.0
  0
ARC
  5
DB
330
D7
100
AcDbEntity
  8
0
  6
Continuous
 62
     0
370
    30
100
AcDbCircle
 10
296.168986
 20
250.927254
 30
0.0
 40
27.4999999852088
100
AcDbArc
 50
196.070683
 51
335.278745
  0
ARC
  5
DC
330
D7
100
AcDbEntity
  8
0
  6
Continuous
 62
     0
370
     0
100
AcDbCircle
 10
296.168867
 20
250.927068
 30
0.0
 40
24.00001183466008
100
AcDbArc
 50
28.633143
 51
196.070215
  0
ARC
  5
DD
330
D7
100
AcDbEntity
  8
0
  6
Continuous
 62
     0
370
     0
100
AcDbCircle
 10
296.168633
 20
250.927057
 30
0.0
 40
23.99978401381921
100
AcDbArc
 50
196.070343
 51
331.367599
  0
LWPOLYLINE
  5
DE
330
D7
100
AcDbEntity
  8
0
  6
Continuous
 62
     0
370
    30
100
AcDbPolyline
 90
       35
 70
     0
 43
0.0
 10
329.667297
 20
250.927246
 10
329.667297
 20
250.098053
 10
329.667297
 20
249.275696
 10
329.667297
 20
248.467041
 10
329.667328
 20
247.678925
 10
329.667328
 20
246.918198
 10
329.667328
 20
246.191711
 10
329.667358
 20
245.506302
 10
329.667358
 20
244.868103
 10
329.667389
 20
244.281555
 10
329.667389
 20
243.750885
 10
329.667419
 20
243.280319
 10
329.66745
 20
242.874115
 10
329.66745
 20
242.536469
 10
329.66748
 20
242.271591
 10
329.667511
 20
242.08194
 10
329.667542
 20
241.967682
 10
329.667542
 20
241.928833
 10
329.667572
 20
241.965378
 10
329.667603
 20
242.077347
 10
329.667633
 20
242.264725
 10
329.667633
 20
242.52739
 10
329.667664
 20
242.862976
 10
329.667694
 20
243.267258
 10
329.667694
 20
243.736008
 10
329.667725
 20
244.264984
 10
329.667755
 20
244.84996
 10
329.667755
 20
245.486664
 10
329.667755
 20
246.17067
 10
329.667786
 20
246.89592
 10
329.667786
 20
247.655609
 10
329.667786
 20
248.442932
 10
329.667816
 20
249.251038
 10
329.667816
 20
250.073151
 10
329.667816
 20
250.927246
  0
LWPOLYLINE
  5
DF
330
D7
100
AcDbEntity
  8
0
  6
Continuous
 62
     0
370
    30
100
AcDbPolyline
 90
       35
 70
     0
 43
0.0
 10
329.667816
 20
250.927246
 10
329.667816
 20
251.756638
 10
329.667816
 20
252.579071
 10
329.667786
 20
253.387695
 10
329.667786
 20
254.175735
 10
329.667786
 20
254.936356
 10
329.667755
 20
255.662735
 10
329.667755
 20
256.348053
 10
329.667755
 20
256.986267
 10
329.667725
 20
257.572815
 10
329.667694
 20
258.103546
 10
329.667694
 20
258.574158
 10
329.667664
 20
258.980438
 10
329.667633
 20
259.318115
 10
329.667633
 20
259.583008
 10
329.667603
 20
259.772644
 10
329.667572
 20
259.886871
 10
329.667542
 20
259.92569
 10
329.667542
 20
259.889069
 10
329.667511
 20
259.777069
 10
329.66748
 20
259.589661
 10
329.66745
 20
259.327026
 10
329.66745
 20
258.991486
 10
329.667419
 20
258.58728
 10
329.667389
 20
258.118591
 10
329.667389
 20
257.589661
 10
329.667358
 20
257.0047
 10
329.667358
 20
256.367981
 10
329.667328
 20
255.683914
 10
329.667328
 20
254.958557
 10
329.667328
 20
254.198746
 10
329.667297
 20
253.411346
 10
329.667297
 20
252.60321
 10
329.667297
 20
251.781158
 10
329.667297
 20
250.927261
  0
LWPOLYLINE
  5
E0
330
D7
100
AcDbEntity
  8
0
  6
Continuous
 62
     0
370
     0
100
AcDbPolyline
 90
       35
 70
     0
 43
0.0
 10
328.917786
 20
250.927246
 10
328.917786
 20
250.166901
 10
328.917786
 20
249.388077
 10
328.917786
 20
248.599396
 10
328.917786
 20
247.810776
 10
328.917755
 20
247.033142
 10
328.917755
 20
246.27803
 10
328.917725
 20
245.557083
 10
328.917725
 20
244.881531
 10
328.917694
 20
244.261658
 10
328.917694
 20
243.706238
 10
328.917664
 20
243.222153
 10
328.917633
 20
242.814148
 10
328.917633
 20
242.484665
 10
328.917603
 20
242.233902
 10
328.917572
 20
242.059998
 10
328.917542
 20
241.959381
 10
328.917542
 20
241.927002
 10
328.917511
 20
241.958984
 10
328.91748
 20
242.059189
 10
328.91748
 20
242.23262
 10
328.91745
 20
242.482925
 10
328.917419
 20
242.811935
 10
328.917389
 20
243.219482
 10
328.917389
 20
243.70311
 10
328.917358
 20
244.258133
 10
328.917358
 20
244.87764
 10
328.917328
 20
245.552887
 10
328.917328
 20
246.27359
 10
328.917297
 20
247.028534
 10
328.917297
 20
247.806076
 10
328.917297
 20
248.59465
 10
328.917297
 20
249.383362
 10
328.917267
 20
250.162277
 10
328.917267
 20
250.927246
  0
LWPOLYLINE
  5
E1
330
D7
100
AcDbEntity
  8
0
  6
Continuous
 62
     0
370
     0
100
AcDbPolyline
 90
       35
 70
     0
 43
0.0
 10
328.917267
 20
250.927246
 10
328.917267
 20
251.687607
 10
328.917297
 20
252.466431
 10
328.917297
 20
253.255112
 10
328.917297
 20
254.043732
 10
328.917297
 20
254.821365
 10
328.917328
 20
255.576477
 10
328.917328
 20
256.297424
 10
328.917358
 20
256.972961
 10
328.917358
 20
257.592865
 10
328.917389
 20
258.148285
 10
328.917389
 20
258.632355
 10
328.917419
 20
259.040344
 10
328.91745
 20
259.369843
 10
328.91748
 20
259.620605
 10
328.91748
 20
259.794495
 10
328.917511
 20
259.895142
 10
328.917542
 20
259.92749
 10
328.917542
 20
259.895508
 10
328.917572
 20
259.795319
 10
328.917603
 20
259.621887
 10
328.917633
 20
259.371582
 10
328.917633
 20
259.042572
 10
328.917664
 20
258.63504
 10
328.917694
 20
258.151398
 10
328.917694
 20
257.596375
 10
328.917725
 20
256.976868
 10
328.917725
 20
256.301636
 10
328.917755
 20
255.580917
 10
328.917755
 20
254.825974
 10
328.917786
 20
254.048431
 10
328.917786
 20
253.259857
 10
328.917786
 20
252.471146
 10
328.917786
 20
251.69223
 10
328.917786
 20
250.927246
  0
LINE
  5
E2
330
D7
100
AcDbEntity
  8
0
  6
Continuous
 62
     0
370
    30
100
AcDbLine
 10
284.670104
 20
250.927254
 30
0.0
 11
284.673027
 21
251.186534
 31
0.0
  0
ARC
  5
E3
330
D7
100
AcDbEntity
  8
0
  6
Continuous
 62
     0
370
    30
100
AcDbCircle
 10
296.171819
 20
250.926773
 30
0.0
 40
11.5017256483749
100
AcDbArc
 50
89.398791
 51
178.705891
  0
ARC
  5
E4
330
D7
100
AcDbEntity
  8
0
  6
Continuous
 62
     0
370
    30
100
AcDbCircle
 10
296.17119
 20
250.927485
 30
0.0
 40
11.50109147509723
100
AcDbArc
 50
181.292936
 51
275.897706
  0
LINE
  5
E5
330
D7
100
AcDbEntity
  8
0
  6
Continuous
 62
     0
370
    30
100
AcDbLine
 10
284.673027
 20
250.667973
 30
0.0
 11
284.670104
 21
250.927254
 31
0.0
  0
LWPOLYLINE
  5
E6
330
D7
100
AcDbEntity
  8
0
  6
Continuous
 62
     0
370
    30
100
AcDbPolyline
 90
       20
 70
     0
 43
0.0
 10
324.167328
 20
261.427246
 10
324.167358
 20
261.397461
 10
324.167389
 20
261.304718
 10
324.167389
 20
261.144745
 10
324.167419
 20
260.914185
 10
324.16745
 20
260.610901
 10
324.16748
 20
260.234161
 10
324.16748
 20
259.784943
 10
324.167511
 20
259.265839
 10
324.167542
 20
258.681091
 10
324.167542
 20
258.036621
 10
324.167572
 20
257.339691
 10
324.167572
 20
256.598724
 10
324.167603
 20
255.822845
 10
324.167603
 20
255.021744
 10
324.167633
 20
254.205078
 10
324.167633
 20
253.382248
 10
324.167633
 20
252.562103
 10
324.167633
 20
251.75264
 10
324.167633
 20
250.927246
  0
LINE
  5
E7
330
D7
100
AcDbEntity
  8
0
  6
Continuous
 62
     0
370
    30
100
AcDbLine
 10
324.167633
 20
250.927254
 30
0.0
 11
324.167335
 21
240.427254
 31
0.0
  0
LWPOLYLINE
  5
E8
330
D7
100
AcDbEntity
  8
0
  6
Continuous
 62
     0
370
    30
100
AcDbPolyline
 90
       21
 70
     0
 43
0.0
 10
323.16748
 20
241.577194
 10
323.16748
 20
241.469635
 10
323.167511
 20
241.428024
 10
323.167542
 20
241.448059
 10
323.167572
 20
241.532272
 10
323.167572
 20
241.685471
 10
323.167603
 20
241.911377
 10
323.167633
 20
242.212204
 10
323.167664
 20
242.588547
 10
323.167664
 20
243.039062
 10
323.167694
 20
243.56041
 10
323.167694
 20
244.147339
 10
323.167725
 20
244.792786
 10
323.167755
 20
245.488174
 10
323.167755
 20
246.223785
 10
323.167755
 20
246.989243
 10
323.167786
 20
247.77388
 10
323.167786
 20
248.567261
 10
323.167786
 20
249.359528
 10
323.167786
 20
250.141754
 10
323.167786
 20
250.927246
  0
LWPOLYLINE
  5
E9
330
D7
100
AcDbEntity
  8
0
  6
Continuous
 62
     0
370
    30
100
AcDbPolyline
 90
       19
 70
     0
 43
0.0
 10
323.167786
 20
250.927246
 10
323.167786
 20
251.697052
 10
323.167786
 20
252.485138
 10
323.167786
 20
253.283539
 10
323.167786
 20
254.083099
 10
323.167755
 20
254.873749
 10
323.167755
 20
255.644791
 10
323.167755
 20
256.385345
 10
323.167725
 20
257.084778
 10
323.167694
 20
257.733124
 10
323.167694
 20
258.321747
 10
323.167664
 20
258.843445
 10
323.167633
 20
259.292908
 10
323.167633
 20
259.666931
 10
323.167603
 20
259.964233
 10
323.167572
 20
260.185547
 10
323.167572
 20
260.333313
 10
323.167542
 20
260.411469
 10
323.167511
 20
260.424561
  0
LINE
  5
EA
330
D7
100
AcDbEntity
  8
0
  6
Continuous
 62
     0
370
    30
100
AcDbLine
 10
327.668045
 20
250.927254
 30
0.0
 11
327.667748
 21
261.427254
 31
0.0
  0
LWPOLYLINE
  5
EB
330
D7
100
AcDbEntity
  8
0
  6
Continuous
 62
     0
370
    30
100
AcDbPolyline
 90
       20
 70
     0
 43
0.0
 10
327.667755
 20
240.430359
 10
327.667755
 20
240.441422
 10
327.667786
 20
240.516205
 10
327.667816
 20
240.6595
 10
327.667847
 20
240.875137
 10
327.667847
 20
241.165726
 10
327.667877
 20
241.532379
 10
327.667908
 20
241.974533
 10
327.667938
 20
242.489807
 10
327.667938
 20
243.074005
 10
327.667969
 20
243.721222
 10
327.667969
 20
244.423981
 10
327.667999
 20
245.173553
 10
327.667999
 20
245.960342
 10
327.66803
 20
246.7742
 10
327.66803
 20
247.604919
 10
327.66803
 20
248.44252
 10
327.66803
 20
249.277664
 10
327.66803
 20
250.101898
 10
327.66806
 20
250.927246
  0
LWPOLYLINE
  5
EC
330
D7
100
AcDbEntity
  8
0
  6
Continuous
 62
     0
370
    30
100
AcDbPolyline
 90
       22
 70
     0
 43
0.0
 10
328.667511
 20
260.175598
 10
328.667511
 20
260.324158
 10
328.667542
 20
260.406372
 10
328.667572
 20
260.426819
 10
328.667603
 20
260.388
 10
328.667603
 20
260.285919
 10
328.667633
 20
260.116302
 10
328.667664
 20
259.876007
 10
328.667664
 20
259.563293
 10
328.667694
 20
259.17807
 10
328.667725
 20
258.721954
 10
328.667725
 20
258.198486
 10
328.667755
 20
257.612946
 10
328.667786
 20
256.972229
 10
328.667786
 20
256.284668
 10
328.667786
 20
255.559494
 10
328.667816
 20
254.80658
 10
328.667816
 20
254.035965
 10
328.667816
 20
253.257507
 10
328.667816
 20
252.480453
 10
328.667847
 20
251.713211
 10
328.667847
 20
250.927246
  0
LWPOLYLINE
  5
ED
330
D7
100
AcDbEntity
  8
0
  6
Continuous
 62
     0
370
    30
100
AcDbPolyline
 90
       22
 70
     0
 43
0.0
 10
328.667847
 20
250.927246
 10
328.667847
 20
250.178207
 10
328.667816
 20
249.411652
 10
328.667816
 20
248.634888
 10
328.667816
 20
247.856293
 10
328.667816
 20
247.085068
 10
328.667786
 20
246.33107
 10
328.667786
 20
245.604309
 10
328.667786
 20
244.914688
 10
328.667755
 20
244.271515
 10
328.667725
 20
243.683121
 10
328.667725
 20
243.156494
 10
328.667694
 20
242.697006
 10
328.667664
 20
242.308273
 10
328.667664
 20
241.99202
 10
328.667633
 20
241.74823
 10
328.667603
 20
241.575241
 10
328.667603
 20
241.469971
 10
328.667572
 20
241.428192
 10
328.667542
 20
241.445755
 10
328.667511
 20
241.524857
 10
328.667511
 20
241.678894
  0
LINE
  5
EE
330
D7
100
AcDbEntity
  8
0
  6
Continuous
 62
     0
370
    30
100
AcDbLine
 10
321.167846
 20
250.927254
 30
0.0
 11
321.16752
 21
262.425722
 31
0.0
  0
LWPOLYLINE
  5
EF
330
D7
100
AcDbEntity
  8
0
  6
Continuous
 62
     0
370
    30
100
AcDbPolyline
 90
       20
 70
     0
 43
0.0
 10
321.167511
 20
239.428787
 10
321.167542
 20
239.467346
 10
321.167572
 20
239.584198
 10
321.167603
 20
239.779678
 10
321.167633
 20
240.052902
 10
321.167664
 20
240.400726
 10
321.167664
 20
240.819839
 10
321.167694
 20
241.3069
 10
321.167725
 20
241.858566
 10
321.167755
 20
242.471313
 10
321.167755
 20
243.140533
 10
321.167786
 20
243.861221
 10
321.167786
 20
244.628998
 10
321.167816
 20
245.441147
 10
321.167816
 20
246.295135
 10
321.167816
 20
247.185287
 10
321.167847
 20
248.102005
 10
321.167847
 20
249.035431
 10
321.167847
 20
249.976379
 10
321.167847
 20
250.927246
  0
LINE
  5
F0
330
D7
100
AcDbEntity
  8
0
  6
Continuous
 62
     0
370
    30
100
AcDbLine
 10
296.16971
 20
239.426642
 30
0.0
 11
321.16752
 21
239.426642
 31
0.0
  0
LINE
  5
F1
330
D7
100
AcDbEntity
  8
0
  6
Continuous
 62
     0
370
    30
100
AcDbLine
 10
296.169711
 20
262.427866
 30
0.0
 11
321.16752
 21
262.427866
 31
0.0
  0
LINE
  5
F2
330
D7
100
AcDbEntity
  8
0
  6
Continuous
 62
     0
370
    30
100
AcDbLine
 10
327.667748
 20
261.427254
 30
0.0
 11
328.667564
 21
260.427494
 31
0.0
  0
LINE
  5
F3
330
D7
100
AcDbEntity
  8
0
  6
Continuous
 62
     0
370
    30
100
AcDbLine
 10
327.667748
 20
240.427254
 30
0.0
 11
328.667564
 21
241.427013
 31
0.0
  0
LINE
  5
F4
330
D7
100
AcDbEntity
  8
0
  6
Continuous
 62
     0
370
    30
100
AcDbLine
 10
324.167335
 20
240.427254
 30
0.0
 11
327.667748
 21
240.427254
 31
0.0
  0
LINE
  5
F5
330
D7
100
AcDbEntity
  8
0
  6
Continuous
 62
     0
370
    30
100
AcDbLine
 10
324.167335
 20
261.427254
 30
0.0
 11
327.667748
 21
261.427254
 31
0.0
  0
LINE
  5
F6
330
D7
100
AcDbEntity
  8
0
  6
Continuous
 62
     0
370
    30
100
AcDbLine
 10
323.16752
 20
260.427382
 30
0.0
 11
324.167335
 21
261.427254
 31
0.0
  0
LINE
  5
F7
330
D7
100
AcDbEntity
  8
0
  6
Continuous
 62
     0
370
    30
100
AcDbLine
 10
323.16752
 20
241.427125
 30
0.0
 11
324.167335
 21
240.427254
 31
0.0
  0
LINE
  5
F8
330
D7
100
AcDbEntity
  8
0
  6
Continuous
 62
     0
370
    30
100
AcDbLine
 10
321.16752
 20
241.577201
 30
0.0
 11
323.167524
 21
241.577201
 31
0.0
  0
LINE
  5
F9
330
D7
100
AcDbEntity
  8
0
  6
Continuous
 62
     0
370
    30
100
AcDbLine
 10
321.16752
 20
260.277306
 30
0.0
 11
323.167524
 21
260.277306
 31
0.0
  0
ENDBLK
  5
FB
330
D7
100
AcDbEntity
  8
0
100
AcDbBlockEnd
  0
BLOCK
  5
136
330
FD
100
AcDbEntity
  8
0
100
AcDbBlockBegin
  2
d
 70
     0
 10
62.794861
 20
65.557709
 30
0.0
  3
d
  1

  0
LWPOLYLINE
  5
FE
330
FD
100
AcDbEntity
  8
0
  6
Continuous
 62
     0
370
     0
100
AcDbPolyline
 90
       34
 70
     0
 43
0.0
 10
283.233978
 20
111.001793
 10
283.044037
 20
111.78479
 10
282.8078
 20
112.594933
 10
282.523773
 20
113.427246
 10
282.191101
 20
114.275887
 10
281.809723
 20
115.134171
 10
281.380554
 20
115.99472
 10
280.905365
 20
116.849617
 10
280.386932
 20
117.69062
 10
279.82901
 20
118.509369
 10
279.236115
 20
119.297707
 10
278.613647
 20
120.047874
 10
277.967438
 20
120.752815
 10
277.303864
 20
121.406372
 10
276.629395
 20
122.003456
 10
275.950531
 20
122.540192
 10
275.273621
 20
123.013947
 10
274.604553
 20
123.423355
 10
273.948761
 20
123.768272
 10
273.311005
 20
124.049644
 10
272.695374
 20
124.269409
 10
272.104675
 20
124.430405
 10
271.521118
 20
124.538818
 10
270.938049
 20
124.59317
 10
270.360626
 20
124.588844
 10
269.794342
 20
124.52182
 10
269.245087
 20
124.388855
 10
268.718842
 20
124.187691
 10
268.221497
 20
123.917183
 10
267.758759
 20
123.577438
 10
267.335938
 20
123.169876
 10
266.957703
 20
122.69725
 10
266.62793
 20
122.163589
 10
266.348083
 20
121.57029
  0
LWPOLYLINE
  5
FF
330
FD
100
AcDbEntity
  8
0
  6
Continuous
 62
     0
370
     0
100
AcDbPolyline
 90
       21
 70
     0
 43
0.0
 10
277.849182
 20
101.650925
 10
278.419952
 20
101.599548
 10
278.985199
 20
101.604507
 10
279.539734
 20
101.669586
 10
280.078064
 20
101.797813
 10
280.594604
 20
101.991348
 10
281.08374
 20
102.251328
 10
281.540131
 20
102.577728
 10
281.958771
 20
102.969337
 10
282.335205
 20
103.423714
 10
282.665649
 20
103.937225
 10
282.947174
 20
104.505173
 10
283.177734
 20
105.121887
 10
283.356201
 20
105.780952
 10
283.482422
 20
106.475395
 10
283.55722
 20
107.197922
 10
283.582184
 20
107.941139
 10
283.559601
 20
108.697777
 10
283.492462
 20
109.460861
 10
283.384186
 20
110.223885
 10
283.233978
 20
111.001793
  0
LWPOLYLINE
  5
100
330
FD
100
AcDbEntity
  8
0
  6
Continuous
 62
     0
370
     0
100
AcDbPolyline
 90
       34
 70
     0
 43
0.0
 10
285.283966
 20
111.287132
 10
285.088318
 20
112.10006
 10
284.84845
 20
112.939346
 10
284.562927
 20
113.800705
 10
284.230896
 20
114.6791
 10
283.852081
 20
115.568832
 10
283.427002
 20
116.463577
 10
282.956879
 20
117.356506
 10
282.443726
 20
118.240463
 10
281.89035
 20
119.10807
 10
281.300323
 20
119.951996
 10
280.677856
 20
120.765068
 10
280.027771
 20
121.540535
 10
279.355316
 20
122.272232
 10
278.666138
 20
122.954727
 10
277.965942
 20
123.583473
 10
277.260498
 20
124.154892
 10
276.55542
 20
124.666428
 10
275.85611
 20
125.11657
 10
275.16748
 20
125.504791
 10
274.494019
 20
125.83152
 10
273.839691
 20
126.098038
 10
273.207794
 20
126.306343
 10
272.59845
 20
126.459641
 10
271.991455
 20
126.563324
 10
271.385468
 20
126.614578
 10
270.785187
 20
126.60936
 10
270.195435
 20
126.544128
 10
269.621399
 20
126.415955
 10
269.068329
 20
126.22271
 10
268.541534
 20
125.96315
 10
268.046143
 20
125.637032
 10
267.586914
 20
125.245163
 10
267.15741
 20
124.776016
  0
LWPOLYLINE
  5
101
330
FD
100
AcDbEntity
  8
0
  6
Continuous
 62
     0
370
     0
100
AcDbPolyline
 90
       25
 70
     0
 43
0.0
 10
277.208588
 20
101.281059
 10
277.861023
 20
101.049965
 10
278.488281
 20
100.877602
 10
279.1073
 20
100.757874
 10
279.72641
 20
100.691566
 10
280.34082
 20
100.68309
 10
280.945435
 20
100.736359
 10
281.53476
 20
100.854614
 10
282.10321
 20
101.040298
 10
282.645233
 20
101.294914
 10
283.155304
 20
101.618881
 10
283.628235
 20
102.011482
 10
284.059326
 20
102.470833
 10
284.444427
 20
102.993881
 10
284.780121
 20
103.576469
 10
285.063873
 20
104.213448
 10
285.293945
 20
104.898834
 10
285.469635
 20
105.625977
 10
285.591064
 20
106.387764
 10
285.65921
 20
107.176849
 10
285.675903
 20
107.985832
 10
285.643616
 20
108.80748
 10
285.565369
 20
109.634872
 10
285.444611
 20
110.461555
 10
285.283966
 20
111.287132
  0
LWPOLYLINE
  5
102
330
FD
100
AcDbEntity
  8
0
  6
Continuous
 62
     0
370
     0
100
AcDbPolyline
 90
       37
 70
     0
 43
0.0
 10
294.306274
 20
114.812202
 10
294.09079
 20
115.714546
 10
293.830383
 20
116.644104
 10
293.523651
 20
117.596947
 10
293.169647
 20
118.568512
 10
292.767975
 20
119.55365
 10
292.318817
 20
120.546638
 10
291.823029
 20
121.541313
 10
291.282074
 20
122.531113
 10
290.69812
 20
123.509254
 10
290.074036
 20
124.468842
 10
289.413239
 20
125.403008
 10
288.719757
 20
126.305122
 10
287.998138
 20
127.168869
 10
287.253326
 20
127.988457
 10
286.490448
 20
128.758728
 10
285.714935
 20
129.47525
 10
284.932159
 20
130.134399
 10
284.14743
 20
130.733459
 10
283.365906
 20
131.270554
 10
282.592438
 20
131.74469
 10
281.831482
 20
132.155762
 10
281.087097
 20
132.504395
 10
280.362793
 20
132.791931
 10
279.661713
 20
133.02037
 10
278.984161
 20
133.192642
 10
278.30954
 20
133.314423
 10
277.635315
 20
133.383469
 10
276.965668
 20
133.395889
 10
276.305145
 20
133.348236
 10
275.658447
 20
133.237564
 10
275.030518
 20
133.061493
 10
274.42627
 20
132.818436
 10
273.850586
 20
132.507553
 10
273.308228
 20
132.128922
 10
272.803589
 20
131.683533
 10
272.332947
 20
131.163651
  0
LWPOLYLINE
  5
103
330
FD
100
AcDbEntity
  8
0
  6
Continuous
 62
     0
370
     0
100
AcDbPolyline
 90
       21
 70
     0
 43
0.0
 10
289.142456
 20
102.036705
 10
289.778656
 20
102.170273
 10
290.394592
 20
102.369034
 10
290.985413
 20
102.634315
 10
291.546356
 20
102.966606
 10
292.072876
 20
103.36554
 10
292.56076
 20
103.829842
 10
293.006165
 20
104.35733
 10
293.405792
 20
104.944962
 10
293.756927
 20
105.588852
 10
294.057556
 20
106.284386
 10
294.306244
 20
107.026329
 10
294.502411
 20
107.808937
 10
294.646057
 20
108.626114
 10
294.737915
 20
109.471535
 10
294.779297
 20
110.338821
 10
294.772156
 20
111.221649
 10
294.718842
 20
112.113892
 10
294.622101
 20
113.009705
 10
294.485046
 20
113.903641
 10
294.306274
 20
114.812202
  0
LWPOLYLINE
  5
104
330
FD
100
AcDbEntity
  8
0
  6
Continuous
 62
     0
370
     0
100
AcDbPolyline
 90
       41
 70
     0
 43
0.0
 10
307.129639
 20
116.475815
 10
306.853302
 20
117.651711
 10
306.529175
 20
118.857422
 10
306.155975
 20
120.089668
 10
305.732697
 20
121.344696
 10
305.258636
 20
122.618332
 10
304.733551
 20
123.905952
 10
304.157623
 20
125.202553
 10
303.531494
 20
126.502792
 10
302.856201
 20
127.801033
 10
302.133331
 20
129.091431
 10
301.36499
 20
130.368011
 10
300.55365
 20
131.624695
 10
299.702362
 20
132.855484
 10
298.814484
 20
134.054489
 10
297.893829
 20
135.216019
 10
296.944489
 20
136.334717
 10
295.970795
 20
137.405609
 10
294.977356
 20
138.424149
 10
293.968811
 20
139.386337
 10
292.949921
 20
140.288773
 10
291.925385
 20
141.128616
 10
290.899872
 20
141.903687
 10
289.877808
 20
142.612427
 10
288.863464
 20
143.253937
 10
287.860901
 20
143.827881
 10
286.873779
 20
144.334564
 10
285.905548
 20
144.774765
 10
284.959198
 20
145.14978
 10
284.037384
 20
145.461349
 10
283.142456
 20
145.711578
 10
282.262451
 20
145.905533
 10
281.38031
 20
146.045761
 10
280.49942
 20
146.128738
 10
279.623505
 20
146.151077
 10
278.756439
 20
146.109741
 10
277.902405
 20
146.001999
 10
277.065613
 20
145.825546
 10
276.250366
 20
145.578552
 10
275.461029
 20
145.259735
 10
274.693024
 20
144.863266
  0
LWPOLYLINE
  5
105
330
FD
100
AcDbEntity
  8
0
  6
Continuous
 62
     0
370
     0
100
AcDbPolyline
 90
       22
 70
     0
 43
0.0
 10
302.194183
 20
97.232552
 10
302.889954
 20
97.677155
 10
303.550537
 20
98.188118
 10
304.172577
 20
98.764366
 10
304.753082
 20
99.404266
 10
305.289215
 20
100.105629
 10
305.778656
 20
100.865738
 10
306.21933
 20
101.681389
 10
306.60968
 20
102.548897
 10
306.948517
 20
103.464218
 10
307.235107
 20
104.422943
 10
307.469177
 20
105.42041
 10
307.650879
 20
106.451767
 10
307.780762
 20
107.512016
 10
307.859802
 20
108.596123
 10
307.889282
 20
109.699059
 10
307.870911
 20
110.815872
 10
307.80658
 20
111.941757
 10
307.698456
 20
113.072105
 10
307.54892
 20
114.202507
 10
307.360504
 20
115.328857
 10
307.129639
 20
116.475815
  0
LWPOLYLINE
  5
106
330
FD
100
AcDbEntity
  8
0
  6
Continuous
 62
     0
370
    30
100
AcDbPolyline
 90
       45
 70
     0
 43
0.0
 10
311.742676
 20
119.139305
 10
311.472473
 20
120.290787
 10
311.156464
 20
121.47094
 10
310.793396
 20
122.676689
 10
310.382324
 20
123.904541
 10
309.922607
 20
125.150574
 10
309.41391
 20
126.410507
 10
308.856415
 20
127.679665
 10
308.25061
 20
128.953064
 10
307.597443
 20
130.225464
 10
306.898315
 20
131.491379
 10
306.15509
 20
132.745209
 10
305.370087
 20
133.981262
 10
304.545959
 20
135.193893
 10
303.685822
 20
136.377518
 10
302.793182
 20
137.526718
 10
301.871735
 20
138.636383
 10
300.925568
 20
139.701691
 10
299.958923
 20
140.718231
 10
298.976105
 20
141.682053
 10
297.981567
 20
142.589767
 10
296.979797
 20
143.438446
 10
295.975159
 20
144.225815
 10
294.971924
 20
144.95015
 10
293.974243
 20
145.610306
 10
292.985962
 20
146.205719
 10
292.010712
 20
146.736389
 10
291.05188
 20
147.202789
 10
290.112488
 20
147.605927
 10
289.195221
 20
147.947189
 10
288.30249
 20
148.228348
 10
287.434998
 20
148.451797
 10
286.571991
 20
148.623535
 10
285.707977
 20
148.742538
 10
284.846252
 20
148.805542
 10
283.990387
 20
148.809464
 10
283.144165
 20
148.751511
 10
282.311493
 20
148.629227
 10
281.496368
 20
148.440552
 10
280.70282
 20
148.183868
 10
279.934967
 20
147.858093
 10
279.196777
 20
147.462662
 10
278.492188
 20
146.997604
 10
277.82489
 20
146.463562
 10
277.194366
 20
145.857559
  0
LWPOLYLINE
  5
107
330
FD
100
AcDbEntity
  8
0
  6
Continuous
 62
     0
370
    30
100
AcDbPolyline
 90
       25
 70
     0
 43
0.0
 10
304.305847
 20
98.901749
 10
305.102173
 20
99.130119
 10
305.874786
 20
99.426186
 10
306.619751
 20
99.790703
 10
307.33316
 20
100.223877
 10
308.011322
 20
100.725327
 10
308.650726
 20
101.294098
 10
309.248169
 20
101.928612
 10
309.800659
 20
102.626732
 10
310.305634
 20
103.385735
 10
310.760925
 20
104.20237
 10
311.164825
 20
105.072914
 10
311.515991
 20
105.993202
 10
311.813629
 20
106.958702
 10
312.057373
 20
107.964615
 10
312.247345
 20
109.005898
 10
312.384033
 20
110.07737
 10
312.468445
 20
111.173805
 10
312.501892
 20
112.28997
 10
312.486053
 20
113.420708
 10
312.422974
 20
114.561012
 10
312.31485
 20
115.70607
 10
312.164154
 20
116.851311
 10
311.973541
 20
117.992439
 10
311.742676
 20
119.139305
  0
LWPOLYLINE
  5
108
330
FD
100
AcDbEntity
  8
0
  6
Continuous
 62
     0
370
    30
100
AcDbPolyline
 90
       30
 70
     0
 43
0.0
 10
268.568359
 20
122.852066
 10
269.053497
 20
123.088623
 10
269.573456
 20
123.257759
 10
270.124634
 20
123.358765
 10
270.703339
 20
123.390976
 10
271.305939
 20
123.353813
 10
271.928375
 20
123.247673
 10
272.566559
 20
123.073578
 10
273.216248
 20
122.832573
 10
273.87323
 20
122.52594
 10
274.533173
 20
122.155861
 10
275.19165
 20
121.724739
 10
275.844299
 20
121.235016
 10
276.486847
 20
120.690025
 10
277.115204
 20
120.093918
 10
277.725342
 20
119.450905
 10
278.31311
 20
118.765167
 10
278.874481
 20
118.040901
 10
279.405396
 20
117.282349
 10
279.902496
 20
116.494461
 10
280.363007
 20
115.682747
 10
280.784149
 20
114.852737
 10
281.163177
 20
114.009979
 10
281.497314
 20
113.160004
 10
281.783813
 20
112.308342
 10
282.020508
 20
111.460503
 10
282.20639
 20
110.621971
 10
282.340698
 20
109.798225
 10
282.422546
 20
108.994736
 10
282.451172
 20
108.197403
  0
LWPOLYLINE
  5
109
330
FD
100
AcDbEntity
  8
0
  6
Continuous
 62
     0
370
    30
100
AcDbPolyline
 90
       11
 70
     0
 43
0.0
 10
282.451172
 20
108.197403
 10
282.426361
 20
107.48024
 10
282.351715
 20
106.796318
 10
282.228302
 20
106.149345
 10
282.05719
 20
105.542976
 10
281.839508
 20
104.980865
 10
281.576355
 20
104.466675
 10
281.268829
 20
104.004059
 10
280.918457
 20
103.596245
 10
280.52771
 20
103.245102
 10
280.068329
 20
102.934128
  0
LWPOLYLINE
  5
10A
330
FD
100
AcDbEntity
  8
0
  6
Continuous
 62
     0
370
    30
100
AcDbPolyline
 90
       35
 70
     0
 43
0.0
 10
283.470337
 20
90.82534
 10
283.442535
 20
90.13195
 10
283.360199
 20
89.412674
 10
283.224884
 20
88.674019
 10
283.038208
 20
87.922485
 10
282.801697
 20
87.164589
 10
282.516998
 20
86.406845
 10
282.185669
 20
85.655762
 10
281.809967
 20
84.917656
 10
281.393829
 20
84.198425
 10
280.941345
 20
83.503899
 10
280.456665
 20
82.839912
 10
279.943909
 20
82.212303
 10
279.407166
 20
81.6269
 10
278.850555
 20
81.089516
 10
278.278625
 20
80.604759
 10
277.696442
 20
80.175713
 10
277.109161
 20
79.805313
 10
276.52182
 20
79.496529
 10
275.939575
 20
79.252296
 10
275.367523
 20
79.075592
 10
274.81073
 20
78.969223
 10
274.273773
 20
78.93383
 10
273.760681
 20
78.968361
 10
273.275635
 20
79.071716
 10
272.822662
 20
79.242783
 10
272.405914
 20
79.480469
 10
272.029419
 20
79.783653
 10
271.697144
 20
80.150963
 10
271.411438
 20
80.578804
 10
271.174011
 20
81.062599
 10
270.986542
 20
81.59774
 10
270.850739
 20
82.179626
 10
270.76825
 20
82.803673
 10
270.740814
 20
83.47554
  0
LWPOLYLINE
  5
10B
330
FD
100
AcDbEntity
  8
0
  6
Continuous
 62
     0
370
    30
100
AcDbPolyline
 90
       35
 70
     0
 43
0.0
 10
270.740814
 20
83.47554
 10
270.767426
 20
84.168404
 10
270.849091
 20
84.88736
 10
270.9841
 20
85.625862
 10
271.170807
 20
86.377357
 10
271.407501
 20
87.1353
 10
271.692505
 20
87.893135
 10
272.024139
 20
88.644325
 10
272.399994
 20
89.382515
 10
272.816193
 20
90.101807
 10
273.268646
 20
90.796371
 10
273.753296
 20
91.460381
 10
274.265991
 20
92.08799
 10
274.802643
 20
92.673363
 10
275.359192
 20
93.210709
 10
275.931061
 20
93.695396
 10
276.513214
 20
94.124382
 10
277.100525
 20
94.494713
 10
277.687897
 20
94.803452
 10
278.270172
 20
95.047638
 10
278.842316
 20
95.224335
 10
279.3992
 20
95.330742
 10
279.936279
 20
95.366188
 10
280.449432
 20
95.331718
 10
280.93457
 20
95.228409
 10
281.387543
 20
95.057343
 10
281.80426
 20
94.819595
 10
282.180573
 20
94.516251
 10
282.512573
 20
94.148689
 10
282.797974
 20
93.720543
 10
283.035156
 20
93.236488
 10
283.222565
 20
92.70121
 10
283.358643
 20
92.119408
 10
283.441742
 20
91.495758
 10
283.470337
 20
90.82534
  0
LWPOLYLINE
  5
10C
330
FD
100
AcDbEntity
  8
0
  6
Continuous
 62
     0
370
     0
100
AcDbPolyline
 90
       37
 70
     0
 43
0.0
 10
270.21048
 20
83.781738
 10
270.230713
 20
83.207848
 10
270.293762
 20
82.644897
 10
270.402649
 20
82.100494
 10
270.559662
 20
81.582642
 10
270.766113
 20
81.099503
 10
271.022247
 20
80.659035
 10
271.326996
 20
80.268669
 10
271.67807
 20
79.934937
 10
272.071869
 20
79.663155
 10
272.503693
 20
79.457161
 10
272.967865
 20
79.319145
 10
273.458038
 20
79.249565
 10
273.967346
 20
79.247162
 10
274.488892
 20
79.309158
 10
275.015808
 20
79.431389
 10
275.541779
 20
79.60865
 10
276.060913
 20
79.834969
 10
276.568207
 20
80.103905
 10
277.075134
 20
80.419373
 10
277.594055
 20
80.791138
 10
278.119904
 20
81.21981
 10
278.646881
 20
81.704689
 10
279.16864
 20
82.243629
 10
279.678345
 20
82.83297
 10
280.169067
 20
83.467522
 10
280.633972
 20
84.140694
 10
281.066681
 20
84.844688
 10
281.461487
 20
85.570778
 10
281.81366
 20
86.309708
 10
282.119629
 20
87.052032
 10
282.376984
 20
87.788521
 10
282.584686
 20
88.510544
 10
282.74292
 20
89.21035
 10
282.852966
 20
89.881287
 10
282.917114
 20
90.517944
 10
282.938385
 20
91.130615
  0
LWPOLYLINE
  5
10D
330
FD
100
AcDbEntity
  8
0
  6
Continuous
 62
     0
370
     0
100
AcDbPolyline
 90
       37
 70
     0
 43
0.0
 10
282.938385
 20
91.130615
 10
282.918152
 20
91.704506
 10
282.855133
 20
92.267456
 10
282.746246
 20
92.811859
 10
282.589233
 20
93.329712
 10
282.382751
 20
93.812851
 10
282.126648
 20
94.253319
 10
281.821899
 20
94.643684
 10
281.470825
 20
94.977417
 10
281.077026
 20
95.249199
 10
280.645203
 20
95.455193
 10
280.181
 20
95.593208
 10
279.690857
 20
95.662788
 10
279.181519
 20
95.665192
 10
278.660004
 20
95.603195
 10
278.133057
 20
95.480965
 10
277.607117
 20
95.303703
 10
277.087952
 20
95.077385
 10
276.580688
 20
94.808449
 10
276.073761
 20
94.492981
 10
275.55484
 20
94.121216
 10
275.028992
 20
93.692543
 10
274.501984
 20
93.207664
 10
273.980255
 20
92.668724
 10
273.470551
 20
92.079384
 10
272.979828
 20
91.444832
 10
272.514923
 20
90.77166
 10
272.082214
 20
90.067665
 10
271.687378
 20
89.341576
 10
271.335205
 20
88.602646
 10
271.029266
 20
87.860321
 10
270.771912
 20
87.123833
 10
270.564209
 20
86.40181
 10
270.405975
 20
85.702003
 10
270.295898
 20
85.031067
 10
270.23175
 20
84.394409
 10
270.21048
 20
83.781738
  0
LINE
  5
10E
330
FD
100
AcDbEntity
  8
0
  6
Continuous
 62
     0
370
    30
100
AcDbLine
 10
237.155262
 20
100.825379
 30
0.0
 11
237.159395
 21
101.03708
 31
0.0
  0
LWPOLYLINE
  5
10F
330
FD
100
AcDbEntity
  8
0
  6
Continuous
 62
     0
370
    30
100
AcDbPolyline
 90
       44
 70
     0
 43
0.0
 10
237.159393
 20
101.037079
 10
237.219803
 20
101.675072
 10
237.359146
 20
102.309608
 10
237.571548
 20
102.933609
 10
237.850952
 20
103.539856
 10
238.191406
 20
104.122009
 10
238.587585
 20
104.677979
 10
239.034393
 20
105.206993
 10
239.526657
 20
105.708275
 10
240.059357
 20
106.181122
 10
240.628006
 20
106.62542
 10
241.228455
 20
107.041359
 10
241.856552
 20
107.429138
 10
242.508224
 20
107.788979
 10
243.180557
 20
108.121414
 10
243.87146
 20
108.427223
 10
244.578842
 20
108.707191
 10
245.300659
 20
108.962067
 10
246.035202
 20
109.192375
 10
246.781036
 20
109.398453
 10
247.536713
 20
109.58062
 10
248.300797
 20
109.739212
 10
249.071838
 20
109.874565
 10
249.848419
 20
109.987007
 10
250.629059
 20
110.076866
 10
251.41246
 20
110.144432
 10
252.197739
 20
110.189781
 10
252.984146
 20
110.212936
 10
253.77095
 20
110.213921
 10
254.557388
 20
110.192749
 10
255.342728
 20
110.149452
 10
256.126221
 20
110.084053
 10
256.907104
 20
109.996544
 10
257.684174
 20
109.886711
 10
258.455994
 20
109.754128
 10
259.2211
 20
109.598381
 10
259.977966
 20
109.419052
 10
260.725128
 20
109.215721
 10
261.46109
 20
108.987968
 10
262.184418
 20
108.735382
 10
262.893524
 20
108.45752
 10
263.586334
 20
108.153877
 10
264.260712
 20
107.823936
 10
264.925781
 20
107.460625
  0
LWPOLYLINE
  5
110
330
FD
100
AcDbEntity
  8
0
  6
Continuous
 62
     0
370
    30
100
AcDbPolyline
 90
       14
 70
     0
 43
0.0
 10
241.919922
 20
94.185776
 10
241.33493
 20
94.540672
 10
240.773041
 20
94.919548
 10
240.237564
 20
95.322922
 10
239.731781
 20
95.75135
 10
239.259094
 20
96.20517
 10
238.82338
 20
96.683624
 10
238.428696
 20
97.185524
 10
238.079132
 20
97.709694
 10
237.778763
 20
98.254906
 10
237.531937
 20
98.818649
 10
237.34346
 20
99.396385
 10
237.21814
 20
99.983444
 10
237.159393
 20
100.613678
  0
LWPOLYLINE
  5
111
330
FD
100
AcDbEntity
  8
0
  6
Continuous
 62
     0
370
    30
100
AcDbPolyline
 90
        9
 70
     0
 43
0.0
 10
269.264923
 20
98.713356
 10
269.006927
 20
98.148697
 10
268.695587
 20
97.604935
 10
268.335175
 20
97.083305
 10
267.92984
 20
96.584641
 10
267.483856
 20
96.109764
 10
267.001312
 20
95.659462
 10
266.485992
 20
95.233932
 10
265.851349
 20
94.770958
  0
LINE
  5
112
330
FD
100
AcDbEntity
  8
0
  6
Continuous
 62
     0
370
    30
100
AcDbLine
 10
237.159395
 20
100.613677
 30
0.0
 11
237.155262
 21
100.825379
 31
0.0
  0
ARC
  5
113
330
FD
100
AcDbEntity
  8
0
  6
Continuous
 62
     0
370
    30
100
AcDbCircle
 10
263.216404
 20
95.195478
 30
0.0
 40
14.5089179445891
100
AcDbArc
 50
301.364413
 51
357.004465
  0
ARC
  5
114
330
FD
100
AcDbEntity
  8
0
  6
Continuous
 62
     0
370
    30
100
AcDbCircle
 10
269.382949
 20
86.400254
 30
0.0
 40
4.916552594645758
100
AcDbArc
 50
175.304005
 51
228.786338
  0
LWPOLYLINE
  5
115
330
FD
100
AcDbEntity
  8
0
  6
Continuous
 62
     0
370
    30
100
AcDbPolyline
 90
       27
 70
     0
 43
0.0
 10
275.475922
 20
98.86673
 10
274.997498
 20
99.035439
 10
274.489105
 20
99.131073
 10
273.958038
 20
99.154411
 10
273.411804
 20
99.108002
 10
272.857788
 20
98.995941
 10
272.30307
 20
98.823586
 10
271.75415
 20
98.597221
 10
271.216705
 20
98.323723
 10
270.685303
 20
98.003601
 10
270.141052
 20
97.624214
 10
269.588257
 20
97.184113
 10
269.033081
 20
96.683769
 10
268.48233
 20
96.125237
 10
267.943268
 20
95.512199
 10
267.423462
 20
94.850029
 10
266.930267
 20
94.145676
 10
266.470703
 20
93.407425
 10
266.050995
 20
92.644615
 10
265.676422
 20
91.867241
 10
265.350952
 20
91.085518
 10
265.07724
 20
90.309448
 10
264.856476
 20
89.548409
 10
264.688568
 20
88.810829
 10
264.572083
 20
88.103943
 10
264.504608
 20
87.433624
 10
264.48291
 20
86.802765
  0
LINE
  5
116
330
FD
100
AcDbEntity
  8
0
  6
Continuous
 62
     0
370
    30
100
AcDbLine
 10
277.705497
 20
94.437268
 30
0.0
 11
277.697502
 21
94.807987
 31
0.0
  0
LINE
  5
117
330
FD
100
AcDbEntity
  8
0
  6
Continuous
 62
     0
370
    30
100
AcDbLine
 10
278.948164
 20
95.249745
 30
0.0
 11
279.119754
 21
93.620793
 31
0.0
  0
ARC
  5
118
330
FD
100
AcDbEntity
  8
0
  6
Continuous
 62
     0
370
    30
100
AcDbCircle
 10
265.170726
 20
94.182505
 30
0.0
 40
13.96033307608343
100
AcDbArc
 50
294.746399
 51
357.694009
  0
LWPOLYLINE
  5
119
330
FD
100
AcDbEntity
  8
0
  6
Continuous
 62
     0
370
    30
100
AcDbPolyline
 90
       33
 70
     0
 43
0.0
 10
279.554871
 20
97.51799
 10
279.207245
 20
97.917397
 10
278.814453
 20
98.258362
 10
278.380066
 20
98.536369
 10
277.908722
 20
98.748184
 10
277.405701
 20
98.892029
 10
276.876984
 20
98.967583
 10
276.328857
 20
98.975998
 10
275.7677
 20
98.919739
 10
275.19986
 20
98.802452
 10
274.631348
 20
98.628761
 10
274.067688
 20
98.403992
 10
273.513855
 20
98.133965
 10
272.970825
 20
97.822708
 10
272.418213
 20
97.458717
 10
271.855316
 20
97.038193
 10
271.287048
 20
96.560928
 10
270.718872
 20
96.02787
 10
270.156799
 20
95.441238
 10
269.607086
 20
94.804543
 10
269.076172
 20
94.122589
 10
268.570374
 20
93.40139
 10
268.095642
 20
92.64801
 10
267.65741
 20
91.870354
 10
267.260345
 20
91.076874
 10
266.908142
 20
90.27626
 10
266.603455
 20
89.477173
 10
266.347931
 20
88.687897
 10
266.142029
 20
87.916092
 10
265.985199
 20
87.168594
 10
265.876038
 20
86.451256
 10
265.812256
 20
85.768837
 10
265.791046
 20
85.108658
  0
LINE
  5
11A
330
FD
100
AcDbEntity
  8
0
  6
Continuous
 62
     0
370
    30
100
AcDbLine
 10
280.63986
 20
93.682111
 30
0.0
 11
280.486641
 21
95.326375
 31
0.0
  0
ARC
  5
11B
330
FD
100
AcDbEntity
  8
0
  6
Continuous
 62
     0
370
    30
100
AcDbCircle
 10
264.877859
 20
94.350784
 30
0.0
 40
15.77617802688966
100
AcDbArc
 50
295.671002
 51
357.570793
  0
LWPOLYLINE
  5
11C
330
FD
100
AcDbEntity
  8
0
  6
Continuous
 62
     0
370
    30
100
AcDbPolyline
 90
       14
 70
     0
 43
0.0
 10
265.791046
 20
85.108658
 10
265.809601
 20
84.513596
 10
265.867188
 20
83.927841
 10
265.9664
 20
83.357529
 10
266.109314
 20
82.809143
 10
266.297302
 20
82.289345
 10
266.531036
 20
81.804749
 10
266.810303
 20
81.361748
 10
267.133972
 20
80.96624
 10
267.499969
 20
80.623436
 10
267.905365
 20
80.337616
 10
268.346313
 20
80.112022
 10
268.818298
 20
79.948669
 10
269.351257
 20
79.843773
  0
LINE
  5
11D
330
FD
100
AcDbEntity
  8
0
  6
Continuous
 62
     0
370
    30
100
AcDbLine
 10
279.065324
 20
95.275085
 30
0.0
 11
279.225868
 21
93.682065
 31
0.0
  0
ARC
  5
11E
330
FD
100
AcDbEntity
  8
0
  6
Continuous
 62
     0
370
    30
100
AcDbCircle
 10
280.617939
 20
85.121794
 30
0.0
 40
14.84864223264329
100
AcDbArc
 50
123.103672
 51
176.899105
  0
LWPOLYLINE
  5
11F
330
FD
100
AcDbEntity
  8
0
  6
Continuous
 62
     0
370
    30
100
AcDbPolyline
 90
       38
 70
     0
 43
0.0
 10
268.266266
 20
83.679657
 10
268.286987
 20
84.331375
 10
268.351318
 20
85.022774
 10
268.462341
 20
85.750046
 10
268.622284
 20
86.508202
 10
268.832703
 20
87.291145
 10
269.094116
 20
88.091728
 10
269.405914
 20
88.901932
 10
269.766388
 20
89.713104
 10
270.172668
 20
90.516228
 10
270.620819
 20
91.302246
 10
271.105865
 20
92.062408
 10
271.622131
 20
92.788582
 10
272.1633
 20
93.473549
 10
272.722809
 20
94.111206
 10
273.293945
 20
94.69677
 10
273.870239
 20
95.226799
 10
274.445526
 20
95.699249
 10
275.014221
 20
96.113365
 10
275.571381
 20
96.469604
 10
276.122894
 20
96.77462
 10
276.687134
 20
97.037369
 10
277.260193
 20
97.25206
 10
277.836792
 20
97.412743
 10
278.41095
 20
97.514053
 10
278.976349
 20
97.551453
 10
279.526337
 20
97.5215
 10
280.05423
 20
97.422043
 10
280.553619
 20
97.252388
 10
281.018463
 20
97.01339
 10
281.443512
 20
96.707443
 10
281.824371
 20
96.338448
 10
282.157623
 20
95.911575
 10
282.441101
 20
95.433121
 10
282.673737
 20
94.910179
 10
282.85553
 20
94.350357
 10
282.98761
 20
93.761475
 10
283.072693
 20
93.1436
  0
LWPOLYLINE
  5
120
330
FD
100
AcDbEntity
  8
0
  6
Continuous
 62
     0
370
    30
100
AcDbPolyline
 90
       19
 70
     0
 43
0.0
 10
274.887695
 20
78.979836
 10
274.325073
 20
78.750961
 10
273.757111
 20
78.572609
 10
273.189301
 20
78.450142
 10
272.627625
 20
78.388252
 10
272.078369
 20
78.390663
 10
271.547943
 20
78.459969
 10
271.042633
 20
78.597435
 10
270.56839
 20
78.802887
 10
270.130615
 20
79.074669
 10
269.733978
 20
79.409706
 10
269.382172
 20
79.803581
 10
269.07785
 20
80.250748
 10
268.822601
 20
80.744759
 10
268.616913
 20
81.278534
 10
268.460266
 20
81.84465
 10
268.351227
 20
82.435593
 10
268.287506
 20
83.044014
 10
268.266266
 20
83.679657
  0
LWPOLYLINE
  5
121
330
FD
100
AcDbEntity
  8
0
  6
Continuous
 62
     0
370
    30
100
AcDbPolyline
 90
       33
 70
     0
 43
0.0
 10
282.699341
 20
93.883484
 10
282.470612
 20
94.380196
 10
282.190308
 20
94.830612
 10
281.859802
 20
95.227242
 10
281.481781
 20
95.563583
 10
281.060181
 20
95.834427
 10
280.600159
 20
96.036163
 10
280.107697
 20
96.166885
 10
279.589508
 20
96.226471
 10
279.052704
 20
96.216515
 10
278.504456
 20
96.140198
 10
277.951782
 20
96.001999
 10
277.401154
 20
95.807487
 10
276.858459
 20
95.56292
 10
276.328583
 20
95.274834
 10
275.795105
 20
94.935951
 10
275.249817
 20
94.538292
 10
274.698029
 20
94.08139
 10
274.145844
 20
93.566154
 10
273.599945
 20
92.994987
 10
273.067352
 20
92.371864
 10
272.555267
 20
91.702293
 10
272.070709
 20
90.99324
 10
271.620239
 20
90.252869
 10
271.209656
 20
89.490257
 10
270.843811
 20
88.715012
 10
270.526306
 20
87.936905
 10
270.259521
 20
87.165443
 10
270.044434
 20
86.409508
 10
269.880798
 20
85.677063
 10
269.767273
 20
84.97493
 10
269.701447
 20
84.30867
 10
269.680176
 20
83.679657
  0
LWPOLYLINE
  5
122
330
FD
100
AcDbEntity
  8
0
  6
Continuous
 62
     0
370
    30
100
AcDbPolyline
 90
       15
 70
     0
 43
0.0
 10
269.680176
 20
83.679657
 10
269.700836
 20
83.083855
 10
269.765137
 20
82.499084
 10
269.876129
 20
81.932976
 10
270.036163
 20
81.39357
 10
270.246643
 20
80.889053
 10
270.507843
 20
80.427444
 10
270.818848
 20
80.016258
 10
271.17749
 20
79.662178
 10
271.580322
 20
79.370712
 10
272.022766
 20
79.145935
 10
272.499237
 20
78.990311
 10
273.003448
 20
78.904594
 10
273.528656
 20
78.887856
 10
274.075684
 20
78.938774
  0
LWPOLYLINE
  5
123
330
FD
100
AcDbEntity
  8
0
  6
Continuous
 62
     0
370
    30
100
AcDbPolyline
 90
       35
 70
     0
 43
0.0
 10
262.962341
 20
85.92482
 10
262.989197
 20
86.701477
 10
263.070374
 20
87.507324
 10
263.205872
 20
88.338791
 10
263.394135
 20
89.187714
 10
263.633179
 20
90.04525
 10
263.921112
 20
90.902672
 10
264.255859
 20
91.754005
 10
264.635254
 20
92.59594
 10
265.057068
 20
93.425125
 10
265.518982
 20
94.236938
 10
266.018677
 20
95.026054
 10
266.553406
 20
95.787224
 10
267.119354
 20
96.51535
 10
267.712372
 20
97.205406
 10
268.328217
 20
97.852356
 10
268.962799
 20
98.451157
 10
269.611877
 20
98.996834
 10
270.270996
 20
99.485634
 10
270.935394
 20
99.915054
 10
271.600311
 20
100.282631
 10
272.260986
 20
100.585899
 10
272.912628
 20
100.822403
 10
273.55072
 20
100.990128
 10
274.171631
 20
101.088791
 10
274.771973
 20
101.118546
 10
275.348236
 20
101.079361
 10
275.896942
 20
100.970932
 10
276.41449
 20
100.792961
 10
276.897552
 20
100.546471
 10
277.342987
 20
100.23381
 10
277.74762
 20
99.857391
 10
278.108246
 20
99.419624
 10
278.421783
 20
98.92292
 10
278.689941
 20
98.359047
  0
LWPOLYLINE
  5
124
330
FD
100
AcDbEntity
  8
0
  6
Continuous
 62
     0
370
    30
100
AcDbPolyline
 90
       16
 70
     0
 43
0.0
 10
268.188721
 20
80.173225
 10
267.587921
 20
80.124802
 10
267.010071
 20
80.143478
 10
266.459076
 20
80.229057
 10
265.938934
 20
80.381317
 10
265.453156
 20
80.599464
 10
265.00412
 20
80.881279
 10
264.594116
 20
81.224327
 10
264.225311
 20
81.626892
 10
263.899811
 20
82.088257
 10
263.619659
 20
82.607651
 10
263.386841
 20
83.181381
 10
263.203125
 20
83.803238
 10
263.070374
 20
84.466919
 10
262.990143
 20
85.166489
 10
262.962341
 20
85.92482
  0
LINE
  5
125
330
FD
100
AcDbEntity
  8
0
  6
Continuous
 62
     0
370
    30
100
AcDbLine
 10
241.919531
 20
94.185096
 30
0.0
 11
265.343943
 21
80.66024
 31
0.0
  0
LINE
  5
126
330
FD
100
AcDbEntity
  8
0
  6
Continuous
 62
     0
370
    30
100
AcDbLine
 10
264.918965
 20
107.465517
 30
0.0
 11
276.844583
 21
100.579868
 31
0.0
  0
LWPOLYLINE
  5
127
330
FD
100
AcDbEntity
  8
0
  6
Continuous
 62
     0
370
    30
100
AcDbPolyline
 90
       26
 70
     0
 43
0.0
 10
272.074432
 20
79.661674
 10
272.493225
 20
79.463318
 10
272.948578
 20
79.331291
 10
273.437805
 20
79.267929
 10
273.95755
 20
79.274971
 10
274.50293
 20
79.352364
 10
275.068573
 20
79.499718
 10
275.6492
 20
79.71666
 10
276.239532
 20
80.002785
 10
276.834106
 20
80.356308
 10
277.427338
 20
80.773216
 10
278.013489
 20
81.249306
 10
278.586945
 20
81.780365
 10
279.142059
 20
82.362167
 10
279.673645
 20
82.989799
 10
280.177338
 20
83.65731
 10
280.648743
 20
84.358688
 10
281.083557
 20
85.087891
 10
281.477814
 20
85.838585
 10
281.828278
 20
86.603928
 10
282.131653
 20
87.377045
 10
282.384796
 20
88.151047
 10
282.585419
 20
88.919029
 10
282.732635
 20
89.674088
 10
282.825653
 20
90.409286
 10
282.863861
 20
91.131599
  0
LINE
  5
128
330
FD
100
AcDbEntity
  8
0
  6
Continuous
 62
     0
370
    30
100
AcDbLine
 10
267.965671
 20
80.301987
 30
0.0
 11
270.440907
 21
78.87299
 31
0.0
  0
LINE
  5
129
330
FD
100
AcDbEntity
  8
0
  6
Continuous
 62
     0
370
    30
100
AcDbLine
 10
278.465226
 20
98.488778
 30
0.0
 11
280.940461
 21
97.059781
 31
0.0
  0
LINE
  5
12A
330
FD
100
AcDbEntity
  8
0
  6
Continuous
 62
     0
370
    30
100
AcDbLine
 10
241.919318
 20
107.465538
 30
0.0
 11
268.568285
 21
122.852197
 31
0.0
  0
LINE
  5
12B
330
FD
100
AcDbEntity
  8
0
  6
Continuous
 62
     0
370
    30
100
AcDbLine
 10
276.41937
 20
100.825378
 30
0.0
 11
280.069386
 21
102.932835
 31
0.0
  0
LINE
  5
12C
330
FD
100
AcDbEntity
  8
0
  6
Continuous
 62
     0
370
    30
100
AcDbLine
 10
302.19418
 20
97.23255
 30
0.0
 11
306.807219
 21
99.896041
 31
0.0
  0
LINE
  5
12D
330
FD
100
AcDbEntity
  8
0
  6
Continuous
 62
     0
370
    30
100
AcDbLine
 10
274.693011
 20
144.863273
 30
0.0
 11
279.306051
 21
147.526763
 31
0.0
  0
LWPOLYLINE
  5
12E
330
FD
100
AcDbEntity
  8
0
  6
Continuous
 62
     0
370
    30
100
AcDbPolyline
 90
       20
 70
     0
 43
0.0
 10
284.308319
 20
101.269432
 10
285.30191
 20
100.492874
 10
286.304047
 20
99.770592
 10
287.312164
 20
99.104568
 10
288.3237
 20
98.496819
 10
289.33606
 20
97.949348
 10
290.34668
 20
97.464149
 10
291.352997
 20
97.0429
 10
292.352509
 20
96.686462
 10
293.342743
 20
96.395569
 10
294.321198
 20
96.170944
 10
295.285431
 20
96.013321
 10
296.23291
 20
95.923439
 10
297.161194
 20
95.902039
 10
298.067749
 20
95.949837
 10
298.950073
 20
96.067429
 10
299.805237
 20
96.254387
 10
300.630096
 20
96.509804
 10
301.4216
 20
96.832787
 10
302.194183
 20
97.232552
  0
LWPOLYLINE
  5
12F
330
FD
100
AcDbEntity
  8
0
  6
Continuous
 62
     0
370
    30
100
AcDbPolyline
 90
       20
 70
     0
 43
0.0
 10
274.693024
 20
144.863266
 10
273.977386
 20
144.405853
 10
273.301178
 20
143.883392
 10
272.666626
 20
143.298172
 10
272.07605
 20
142.652466
 10
271.531647
 20
141.948563
 10
271.035522
 20
141.188782
 10
270.588531
 20
140.37558
 10
270.191345
 20
139.511444
 10
269.844513
 20
138.598892
 10
269.548706
 20
137.640396
 10
269.304443
 20
136.638458
 10
269.112427
 20
135.595581
 10
268.973206
 20
134.514267
 10
268.887207
 20
133.397125
 10
268.854218
 20
132.247269
 10
268.873749
 20
131.067932
 10
268.945374
 20
129.86235
 10
269.068665
 20
128.633774
 10
269.247833
 20
127.356003
  0
LINE
  5
130
330
FD
100
AcDbEntity
  8
0
  6
Continuous
 62
     0
370
    30
100
AcDbLine
 10
267.157407
 20
124.776014
 30
0.0
 11
272.332945
 21
131.163643
 31
0.0
  0
LINE
  5
131
330
FD
100
AcDbEntity
  8
0
  6
Continuous
 62
     0
370
    30
100
AcDbLine
 10
289.149683
 20
102.037848
 30
0.0
 11
281.030128
 21
100.749117
 31
0.0
  0
LWPOLYLINE
  5
132
330
FD
100
AcDbEntity
  8
0
  6
Continuous
 62
     0
370
    30
100
AcDbPolyline
 90
        7
 70
     0
 43
0.0
 10
277.165924
 20
101.256424
 10
277.822601
 20
101.030724
 10
278.472443
 20
100.859329
 10
279.113129
 20
100.743416
 10
279.741974
 20
100.68399
 10
280.355804
 20
100.681702
 10
281.030121
 20
100.749115
  0
LWPOLYLINE
  5
133
330
FD
100
AcDbEntity
  8
0
  6
Continuous
 62
     0
370
    30
100
AcDbPolyline
 90
        7
 70
     0
 43
0.0
 10
267.15741
 20
124.776016
 10
266.806122
 20
124.294273
 10
266.495636
 20
123.767563
 10
266.227142
 20
123.198936
 10
266.001648
 20
122.591408
 10
265.819519
 20
121.947777
 10
265.665253
 20
121.176041
  0
LWPOLYLINE
  5
134
330
FD
100
AcDbEntity
  8
0
  6
Continuous
 62
     0
370
    30
100
AcDbPolyline
 90
        7
 70
     0
 43
0.0
 10
277.755157
 20
101.596642
 10
278.32428
 20
101.553329
 10
278.879608
 20
101.563599
 10
279.418732
 20
101.628311
 10
279.938507
 20
101.747551
 10
280.435181
 20
101.920563
 10
280.972656
 20
102.184883
  0
LWPOLYLINE
  5
135
330
FD
100
AcDbEntity
  8
0
  6
Continuous
 62
     0
370
    30
100
AcDbPolyline
 90
        7
 70
     0
 43
0.0
 10
268.372101
 20
124.008415
 10
267.937134
 20
123.722336
 10
267.534119
 20
123.38588
 10
267.165527
 20
123.001968
 10
266.83371
 20
122.573532
 10
266.540894
 20
122.103455
 10
266.253693
 20
121.515793
  0
ENDBLK
  5
137
330
FD
100
AcDbEntity
  8
0
100
AcDbBlockEnd
  0
BLOCK
  5
160
330
139
100
AcDbEntity
  8
0
100
AcDbBlockBegin
  2
e
 70
     0
 10
66.24144
 20
0.0
 30
0.0
  3
e
  1

  0
ARC
  5
13A
330
139
100
AcDbEntity
  8
0
  6
Continuous
 62
     0
370
     0
100
AcDbCircle
 10
15.201217
 20
250.927427
 30
0.0
 40
12.09999999666187
100
AcDbArc
 50
343.928537
 51
163.930096
  0
ARC
  5
13B
330
139
100
AcDbEntity
  8
0
  6
Continuous
 62
     0
370
     0
100
AcDbCircle
 10
15.201126
 20
250.927111
 30
0.0
 40
12.09999999666186
100
AcDbArc
 50
163.928537
 51
343.930096
  0
ARC
  5
13C
330
139
100
AcDbEntity
  8
0
  6
Continuous
 62
     0
370
     0
100
AcDbCircle
 10
15.201127
 20
250.927115
 30
0.0
 40
11.74999999675843
100
AcDbArc
 50
163.928537
 51
343.930096
  0
ARC
  5
13D
330
139
100
AcDbEntity
  8
0
  6
Continuous
 62
     0
370
     0
100
AcDbCircle
 10
15.201216
 20
250.927423
 30
0.0
 40
11.74999999675843
100
AcDbArc
 50
343.928537
 51
163.930096
  0
ARC
  5
13E
330
139
100
AcDbEntity
  8
0
  6
Continuous
 62
     0
370
    30
100
AcDbCircle
 10
15.201186
 20
250.927269
 30
0.0
 40
12.5999999953573
100
AcDbArc
 50
343.929317
 51
163.929317
  0
ARC
  5
13F
330
139
100
AcDbEntity
  8
0
  6
Continuous
 62
     0
370
    30
100
AcDbCircle
 10
15.201186
 20
250.927269
 30
0.0
 40
12.5999999953573
100
AcDbArc
 50
163.929317
 51
343.929317
  0
ARC
  5
140
330
139
100
AcDbEntity
  8
0
  6
Continuous
 62
     0
370
     0
100
AcDbCircle
 10
15.201214
 20
250.927269
 30
0.0
 40
13.59999999498883
100
AcDbArc
 50
343.929317
 51
163.929317
  0
ARC
  5
141
330
139
100
AcDbEntity
  8
0
  6
Continuous
 62
     0
370
     0
100
AcDbCircle
 10
15.201214
 20
250.927269
 30
0.0
 40
13.59999999498883
100
AcDbArc
 50
163.929317
 51
343.929317
  0
ARC
  5
142
330
139
100
AcDbEntity
  8
0
  6
Continuous
 62
     0
370
     0
100
AcDbCircle
 10
15.201266
 20
250.927449
 30
0.0
 40
13.72999396275399
100
AcDbArc
 50
343.928537
 51
163.930096
  0
ARC
  5
143
330
139
100
AcDbEntity
  8
0
  6
Continuous
 62
     0
370
     0
100
AcDbCircle
 10
15.201162
 20
250.927089
 30
0.0
 40
13.72999396275399
100
AcDbArc
 50
163.928537
 51
343.930096
  0
ARC
  5
144
330
139
100
AcDbEntity
  8
0
  6
Continuous
 62
     0
370
     0
100
AcDbCircle
 10
15.201224
 20
250.927269
 30
0.0
 40
14.20814633928807
100
AcDbArc
 50
343.929317
 51
163.929317
  0
ARC
  5
145
330
139
100
AcDbEntity
  8
0
  6
Continuous
 62
     0
370
     0
100
AcDbCircle
 10
15.201224
 20
250.927269
 30
0.0
 40
14.20814633928807
100
AcDbArc
 50
163.929317
 51
343.929317
  0
ARC
  5
146
330
139
100
AcDbEntity
  8
0
  6
Continuous
 62
     0
370
     0
100
AcDbCircle
 10
15.201503
 20
250.927269
 30
0.0
 40
17.22334626853477
100
AcDbArc
 50
343.929317
 51
163.929317
  0
ARC
  5
147
330
139
100
AcDbEntity
  8
0
  6
Continuous
 62
     0
370
     0
100
AcDbCircle
 10
15.201503
 20
250.927269
 30
0.0
 40
17.22334626853477
100
AcDbArc
 50
163.929317
 51
343.929317
  0
ARC
  5
148
330
139
100
AcDbEntity
  8
0
  6
Continuous
 62
     0
370
     0
100
AcDbCircle
 10
15.201722
 20
250.927269
 30
0.0
 40
27.03229123310356
100
AcDbArc
 50
343.929317
 51
163.929317
  0
ARC
  5
149
330
139
100
AcDbEntity
  8
0
  6
Continuous
 62
     0
370
     0
100
AcDbCircle
 10
15.201722
 20
250.927269
 30
0.0
 40
27.03229123310356
100
AcDbArc
 50
163.929317
 51
343.929317
  0
ARC
  5
14A
330
139
100
AcDbEntity
  8
0
  6
Continuous
 62
     0
370
    30
100
AcDbCircle
 10
15.20192
 20
250.927269
 30
0.0
 40
27.49999998986713
100
AcDbArc
 50
343.929317
 51
163.929317
  0
ARC
  5
14B
330
139
100
AcDbEntity
  8
0
  6
Continuous
 62
     0
370
    30
100
AcDbCircle
 10
15.20192
 20
250.927269
 30
0.0
 40
27.49999998986713
100
AcDbArc
 50
163.929317
 51
343.929317
  0
ARC
  5
14C
330
139
100
AcDbEntity
  8
0
  6
Continuous
 62
     0
370
    30
100
AcDbCircle
 10
15.201215
 20
250.927447
 30
0.0
 40
11.50056882148676
100
AcDbArc
 50
359.999114
 51
180.001973
  0
ARC
  5
14D
330
139
100
AcDbEntity
  8
0
  6
Continuous
 62
     0
370
    30
100
AcDbCircle
 10
15.201215
 20
250.927039
 30
0.0
 40
11.50056881853993
100
AcDbArc
 50
179.999943
 51
0.001144
  0
LWPOLYLINE
  5
14E
330
139
100
AcDbEntity
  8
0
  6
Continuous
 62
     0
370
     0
100
AcDbPolyline
 90
       35
 70
     0
 43
0.0
 10
-17.547062
 20
250.927277
 10
-17.54706
 20
250.166916
 10
-17.547058
 20
249.388092
 10
-17.547052
 20
248.599411
 10
-17.547047
 20
247.810791
 10
-17.547037
 20
247.033157
 10
-17.547026
 20
246.278046
 10
-17.547012
 20
245.557098
 10
-17.546995
 20
244.881546
 10
-17.546978
 20
244.261673
 10
-17.546959
 20
243.706253
 10
-17.54694
 20
243.222168
 10
-17.546917
 20
242.814163
 10
-17.546896
 20
242.48468
 10
-17.546873
 20
242.233917
 10
-17.546852
 20
242.060013
 10
-17.546829
 20
241.959396
 10
-17.546808
 20
241.927017
 10
-17.546785
 20
241.959
 10
-17.546764
 20
242.059204
 10
-17.546741
 20
242.232635
 10
-17.546721
 20
242.482941
 10
-17.546698
 20
242.811951
 10
-17.546677
 20
243.219498
 10
-17.546656
 20
243.703125
 10
-17.546637
 20
244.258148
 10
-17.546619
 20
244.877655
 10
-17.546604
 20
245.552902
 10
-17.546591
 20
246.273605
 10
-17.546579
 20
247.028549
 10
-17.54657
 20
247.806091
 10
-17.546562
 20
248.594666
 10
-17.546556
 20
249.383377
 10
-17.546555
 20
250.162292
 10
-17.546553
 20
250.927277
  0
LWPOLYLINE
  5
14F
330
139
100
AcDbEntity
  8
0
  6
Continuous
 62
     0
370
     0
100
AcDbPolyline
 90
       35
 70
     0
 43
0.0
 10
-17.546553
 20
250.927277
 10
-17.546555
 20
251.687622
 10
-17.546556
 20
252.466446
 10
-17.546562
 20
253.255127
 10
-17.54657
 20
254.043747
 10
-17.546577
 20
254.821381
 10
-17.546591
 20
255.576492
 10
-17.546604
 20
256.297455
 10
-17.546619
 20
256.972992
 10
-17.546637
 20
257.592865
 10
-17.546656
 20
258.148285
 10
-17.546677
 20
258.632355
 10
-17.546698
 20
259.040375
 10
-17.546719
 20
259.369873
 10
-17.546741
 20
259.620636
 10
-17.546764
 20
259.794525
 10
-17.546785
 20
259.895142
 10
-17.546808
 20
259.927521
 10
-17.546829
 20
259.895538
 10
-17.54685
 20
259.795349
 10
-17.546873
 20
259.621887
 10
-17.546896
 20
259.371613
 10
-17.546917
 20
259.042572
 10
-17.546938
 20
258.63504
 10
-17.546959
 20
258.151398
 10
-17.546978
 20
257.596405
 10
-17.546995
 20
256.976868
 10
-17.547012
 20
256.301636
 10
-17.547026
 20
255.580933
 10
-17.547037
 20
254.825989
 10
-17.547047
 20
254.048447
 10
-17.547052
 20
253.259872
 10
-17.547058
 20
252.471161
 10
-17.54706
 20
251.692245
 10
-17.547062
 20
250.927277
  0
LINE
  5
150
330
139
100
AcDbEntity
  8
0
  6
Continuous
 62
     0
370
    30
100
AcDbLine
 10
-12.796312
 20
250.927269
 30
0.0
 11
-12.796608
 21
261.427269
 31
0.0
  0
LWPOLYLINE
  5
151
330
139
100
AcDbEntity
  8
0
  6
Continuous
 62
     0
370
    30
100
AcDbPolyline
 90
       20
 70
     0
 43
0.0
 10
-12.796616
 20
240.430374
 10
-12.796593
 20
240.441437
 10
-12.79657
 20
240.51622
 10
-12.796546
 20
240.659515
 10
-12.796523
 20
240.875153
 10
-12.796499
 20
241.165741
 10
-12.796476
 20
241.532394
 10
-12.796453
 20
241.974548
 10
-12.796432
 20
242.489822
 10
-12.796412
 20
243.07402
 10
-12.796392
 20
243.721237
 10
-12.796375
 20
244.423996
 10
-12.79636
 20
245.173569
 10
-12.796348
 20
245.960358
 10
-12.796336
 20
246.774216
 10
-12.796327
 20
247.604935
 10
-12.79632
 20
248.442535
 10
-12.796315
 20
249.277679
 10
-12.796312
 20
250.101913
 10
-12.796312
 20
250.927277
  0
LINE
  5
152
330
139
100
AcDbEntity
  8
0
  6
Continuous
 62
     0
370
    30
100
AcDbLine
 10
-11.796569
 20
245.699321
 30
0.0
 11
-11.796793
 21
241.427141
 31
0.0
  0
LWPOLYLINE
  5
153
330
139
100
AcDbEntity
  8
0
  6
Continuous
 62
     0
370
    30
100
AcDbPolyline
 90
       21
 70
     0
 43
0.0
 10
-11.796841
 20
260.277313
 10
-11.796819
 20
260.384888
 10
-11.796797
 20
260.426514
 10
-11.796776
 20
260.406464
 10
-11.796754
 20
260.322266
 10
-11.796731
 20
260.169037
 10
-11.796709
 20
259.943146
 10
-11.796686
 20
259.642303
 10
-11.796665
 20
259.265991
 10
-11.796644
 20
258.81546
 10
-11.796624
 20
258.294128
 10
-11.796605
 20
257.707184
 10
-11.796589
 20
257.061737
 10
-11.796574
 20
256.366364
 10
-11.79656
 20
255.630737
 10
-11.796549
 20
254.86528
 10
-11.79654
 20
254.080643
 10
-11.796534
 20
253.287262
 10
-11.796529
 20
252.494995
 10
-11.796526
 20
251.712769
 10
-11.796525
 20
250.927277
  0
LWPOLYLINE
  5
154
330
139
100
AcDbEntity
  8
0
  6
Continuous
 62
     0
370
    30
100
AcDbPolyline
 90
       20
 70
     0
 43
0.0
 10
-16.297022
 20
261.427277
 10
-16.296999
 20
261.397461
 10
-16.296976
 20
261.304749
 10
-16.296953
 20
261.144775
 10
-16.29693
 20
260.914215
 10
-16.296906
 20
260.610901
 10
-16.296885
 20
260.234192
 10
-16.296862
 20
259.784973
 10
-16.296841
 20
259.265839
 10
-16.296822
 20
258.681122
 10
-16.296803
 20
258.036652
 10
-16.296785
 20
257.339722
 10
-16.296772
 20
256.598724
 10
-16.296759
 20
255.822861
 10
-16.296747
 20
255.021759
 10
-16.29674
 20
254.205078
 10
-16.296732
 20
253.382263
 10
-16.296728
 20
252.562119
 10
-16.296724
 20
251.752655
 10
-16.296724
 20
250.927277
  0
LINE
  5
155
330
139
100
AcDbEntity
  8
0
  6
Continuous
 62
     0
370
    30
100
AcDbLine
 10
-16.296724
 20
250.927269
 30
0.0
 11
-16.297021
 21
240.427269
 31
0.0
  0
LWPOLYLINE
  5
156
330
139
100
AcDbEntity
  8
0
  6
Continuous
 62
     0
370
    30
100
AcDbPolyline
 90
       19
 70
     0
 43
0.0
 10
-17.29657
 20
250.927277
 10
-17.29657
 20
251.697083
 10
-17.296572
 20
252.485168
 10
-17.296577
 20
253.283569
 10
-17.296583
 20
254.083145
 10
-17.296593
 20
254.87381
 10
-17.296604
 20
255.644867
 10
-17.296618
 20
256.385437
 10
-17.296633
 20
257.084869
 10
-17.29665
 20
257.733246
 10
-17.296669
 20
258.321838
 10
-17.296688
 20
258.843536
 10
-17.296711
 20
259.29303
 10
-17.296732
 20
259.667053
 10
-17.296755
 20
259.964355
 10
-17.296778
 20
260.185669
 10
-17.296799
 20
260.333466
 10
-17.296822
 20
260.411591
 10
-17.296844
 20
260.424713
  0
LWPOLYLINE
  5
157
330
139
100
AcDbEntity
  8
0
  6
Continuous
 62
     0
370
    30
100
AcDbPolyline
 90
       19
 70
     0
 43
0.0
 10
-17.296837
 20
241.427032
 10
-17.296816
 20
241.457123
 10
-17.296795
 20
241.550934
 10
-17.296772
 20
241.712952
 10
-17.296749
 20
241.946625
 10
-17.296728
 20
242.253891
 10
-17.296707
 20
242.635071
 10
-17.296686
 20
243.088669
 10
-17.296665
 20
243.611252
 10
-17.296648
 20
244.19751
 10
-17.296631
 20
244.8405
 10
-17.296616
 20
245.531769
 10
-17.296604
 20
246.261856
 10
-17.296593
 20
247.02066
 10
-17.296583
 20
247.797821
 10
-17.296577
 20
248.583252
 10
-17.296572
 20
249.367401
 10
-17.29657
 20
250.141632
 10
-17.29657
 20
250.927277
  0
LINE
  5
158
330
139
100
AcDbEntity
  8
0
  6
Continuous
 62
     0
370
    30
100
AcDbLine
 10
-16.297021
 20
261.427269
 30
0.0
 11
-17.296837
 21
260.427509
 31
0.0
  0
LINE
  5
159
330
139
100
AcDbEntity
  8
0
  6
Continuous
 62
     0
370
    30
100
AcDbLine
 10
-16.297021
 20
240.427269
 30
0.0
 11
-17.296837
 21
241.427029
 31
0.0
  0
LINE
  5
15A
330
139
100
AcDbEntity
  8
0
  6
Continuous
 62
     0
370
    30
100
AcDbLine
 10
-12.796608
 20
240.427269
 30
0.0
 11
-16.297021
 21
240.427269
 31
0.0
  0
LINE
  5
15B
330
139
100
AcDbEntity
  8
0
  6
Continuous
 62
     0
370
    30
100
AcDbLine
 10
-12.796608
 20
261.427269
 30
0.0
 11
-16.297021
 21
261.427269
 31
0.0
  0
LINE
  5
15C
330
139
100
AcDbEntity
  8
0
  6
Continuous
 62
     0
370
    30
100
AcDbLine
 10
-11.796793
 20
260.427397
 30
0.0
 11
-12.796608
 21
261.427269
 31
0.0
  0
LINE
  5
15D
330
139
100
AcDbEntity
  8
0
  6
Continuous
 62
     0
370
    30
100
AcDbLine
 10
-11.796793
 20
241.427141
 30
0.0
 11
-12.796608
 21
240.427269
 31
0.0
  0
LINE
  5
15E
330
139
100
AcDbEntity
  8
0
  6
Continuous
 62
     0
370
    30
100
AcDbLine
 10
-10.659758
 20
241.577216
 30
0.0
 11
-11.796798
 21
241.577216
 31
0.0
  0
LINE
  5
15F
330
139
100
AcDbEntity
  8
0
  6
Continuous
 62
     0
370
    30
100
AcDbLine
 10
-10.659758
 20
260.277322
 30
0.0
 11
-11.796798
 21
260.277322
 31
0.0
  0
ENDBLK
  5
161
330
139
100
AcDbEntity
  8
0
100
AcDbBlockEnd
  0
ENDSEC
  0
SECTION
  2
ENTITIES
  0
INSERT
  5
A5
330
1F
100
AcDbEntity
  8
0
  6
Continuous
 62
     7
420
 16250871
370
     0
100
AcDbBlockReference
  2
a
 10
62.794861
 20
65.557709
 30
0.0
  0
INSERT
  5
D6
330
1F
100
AcDbEntity
  8
0
  6
Continuous
 62
     7
420
 16250871
370
     0
100
AcDbBlockReference
  2
b
 10
62.794861
 20
65.557709
 30
0.0
  0
INSERT
  5
FC
330
1F
100
AcDbEntity
  8
0
  6
Continuous
 62
     7
420
 16250871
370
     0
100
AcDbBlockReference
  2
c
 10
62.794861
 20
65.557709
 30
0.0
  0
INSERT
  5
138
330
1F
100
AcDbEntity
  8
0
  6
Continuous
 62
     7
420
 16250871
370
     0
100
AcDbBlockReference
  2
d
 10
62.794861
 20
65.557709
 30
0.0
  0
INSERT
  5
162
330
1F
100
AcDbEntity
  8
0
  6
Continuous
 62
     7
420
 16250871
370
     0
100
AcDbBlockReference
  2
e
 10
66.24144
 20
0.0
 30
0.0
  0
ENDSEC
  0
SECTION
  2
OBJECTS
  0
DICTIONARY
  5
C
330
0
100
AcDbDictionary
281
     1
  3
ACAD_DETAILVIEWSTYLE
350
19A
  3
ACAD_GROUP
350
D
  3
ACAD_LAYOUT
350
1A
  3
ACAD_MATERIAL
350
43
  3
ACAD_MLEADERSTYLE
350
6B
  3
ACAD_MLINESTYLE
350
17
  3
ACAD_PLOTSETTINGS
350
19
  3
ACAD_PLOTSTYLENAME
350
E
  3
ACAD_SCALELIST
350
47
  3
ACAD_SECTIONVIEWSTYLE
350
19B
  3
ACAD_TABLESTYLE
350
69
  3
ACAD_VISUALSTYLE
350
2A
  3
ACDB_RECOMPOSE_DATA
350
197
  3
AcDbVariableDictionary
350
163
  0
SUN
  5
6D
330
29
100
AcDbSun
 90
        1
290
     0
 63
     7
421
 16777215
 40
1.0
291
     1
 91
  2455826
 92
 54000000
292
     0
 70
     2
 71
   256
280
     1
  0
DICTIONARY
  5
19A
102
{ACAD_REACTORS
330
C
102
}
330
C
100
AcDbDictionary
281
     1
  0
DICTIONARY
  5
D
102
{ACAD_REACTORS
330
C
102
}
330
C
100
AcDbDictionary
281
     1
  0
DICTIONARY
  5
1A
102
{ACAD_REACTORS
330
C
102
}
330
C
100
AcDbDictionary
281
     1
  3
Layout1
350
1E
  3
Layout2
350
26
  3
Model
350
22
  0
DICTIONARY
  5
43
102
{ACAD_REACTORS
330
C
102
}
330
C
100
AcDbDictionary
281
     1
  3
ByBlock
350
45
  3
ByLayer
350
44
  3
Global
350
46
  0
DICTIONARY
  5
6B
102
{ACAD_REACTORS
330
C
102
}
330
C
100
AcDbDictionary
281
     1
  3
Standard
350
6C
  0
DICTIONARY
  5
17
102
{ACAD_REACTORS
330
C
102
}
330
C
100
AcDbDictionary
281
     1
  3
Standard
350
18
  0
DICTIONARY
  5
19
102
{ACAD_REACTORS
330
C
102
}
330
C
100
AcDbDictionary
281
     1
  0
ACDBDICTIONARYWDFLT
  5
E
102
{ACAD_REACTORS
330
C
102
}
330
C
100
AcDbDictionary
281
     1
  3
Normal
350
F
100
AcDbDictionaryWithDefault
340
F
  0
DICTIONARY
  5
47
102
{ACAD_REACTORS
330
C
102
}
330
C
100
AcDbDictionary
281
     1
  3
A0
350
48
  3
A1
350
49
  3
A2
350
4A
  3
A3
350
4B
  3
A4
350
4C
  3
A5
350
4D
  3
A6
350
4E
  3
A7
350
4F
  3
A8
350
50
  3
A9
350
51
  3
B0
350
52
  3
B1
350
53
  3
B2
350
54
  3
B3
350
55
  3
B4
350
56
  3
B5
350
57
  3
B6
350
58
  3
B7
350
59
  3
B8
350
5A
  3
B9
350
5B
  3
C0
350
5C
  3
C1
350
5D
  3
C2
350
5E
  3
C3
350
5F
  3
C4
350
60
  3
C5
350
61
  3
C6
350
62
  3
C7
350
63
  3
C8
350
64
  3
C9
350
65
  3
D0
350
66
  3
D1
350
67
  3
D2
350
68
  0
DICTIONARY
  5
19B
102
{ACAD_REACTORS
330
C
102
}
330
C
100
AcDbDictionary
281
     1
  0
DICTIONARY
  5
69
102
{ACAD_REACTORS
330
C
102
}
330
C
100
AcDbDictionary
281
     1
  3
Standard
350
6A
  0
DICTIONARY
  5
2A
102
{ACAD_REACTORS
330
C
102
}
330
C
100
AcDbDictionary
281
     1
  3
2dWireframe
350
2F
  3
Basic
350
32
  3
Brighten
350
36
  3
ColorChange
350
3A
  3
Conceptual
350
34
  3
Dim
350
35
  3
EdgeColorOff
350
3D
  3
Facepattern
350
39
  3
Flat
350
2B
  3
FlatWithEdges
350
2C
  3
Gouraud
350
2D
  3
GouraudWithEdges
350
2E
  3
Hidden
350
31
  3
JitterOff
350
3B
  3
Linepattern
350
38
  3
OverhangOff
350
3C
  3
Realistic
350
33
  3
Shaded
350
42
  3
Shaded with edges
350
41
  3
Shades of Gray
350
3E
  3
Sketchy
350
3F
  3
Thicken
350
37
  3
Wireframe
350
30
  3
X-Ray
350
40
  0
XRECORD
  5
197
102
{ACAD_REACTORS
330
C
102
}
330
C
100
AcDbXrecord
280
     1
 90
        1
330
6A
  0
DICTIONARY
  5
163
102
{ACAD_REACTORS
330
C
102
}
330
C
100
AcDbDictionary
281
     1
  3
CANNOSCALE
350
164
  3
CMLEADERSTYLE
350
199
  3
CTABLESTYLE
350
198
  0
LAYOUT
  5
1E
102
{ACAD_REACTORS
330
1A
102
}
330
1A
100
AcDbPlotSettings
  1

  2
none_device
  4

  6

 40
0.0
 41
0.0
 42
0.0
 43
0.0
 44
0.0
 45
0.0
 46
0.0
 47
0.0
 48
0.0
 49
0.0
140
0.0
141
0.0
142
1.0
143
1.0
 70
   688
 72
     1
 73
     0
 74
     5
  7

 75
    16
 76
     0
 77
     2
 78
   300
147
1.0
148
0.0
149
0.0
100
AcDbLayout
  1
Layout1
 70
     1
 71
     1
 10
0.0
 20
0.0
 11
420.0
 21
297.0
 12
0.0
 22
0.0
 32
0.0
 14
1.000000E+20
 24
1.000000E+20
 34
1.000000E+20
 15
-1.000000E+20
 25
-1.000000E+20
 35
-1.000000E+20
146
0.0
 13
0.0
 23
0.0
 33
0.0
 16
1.0
 26
0.0
 36
0.0
 17
0.0
 27
1.0
 37
0.0
 76
     0
330
1B
  0
LAYOUT
  5
26
102
{ACAD_REACTORS
330
1A
102
}
330
1A
100
AcDbPlotSettings
  1

  2
none_device
  4

  6

 40
0.0
 41
0.0
 42
0.0
 43
0.0
 44
0.0
 45
0.0
 46
0.0
 47
0.0
 48
0.0
 49
0.0
140
0.0
141
0.0
142
1.0
143
1.0
 70
   688
 72
     1
 73
     0
 74
     5
  7

 75
    16
 76
     0
 77
     2
 78
   300
147
1.0
148
0.0
149
0.0
100
AcDbLayout
  1
Layout2
 70
     1
 71
     2
 10
0.0
 20
0.0
 11
0.0
 21
0.0
 12
0.0
 22
0.0
 32
0.0
 14
0.0
 24
0.0
 34
0.0
 15
0.0
 25
0.0
 35
0.0
146
0.0
 13
0.0
 23
0.0
 33
0.0
 16
1.0
 26
0.0
 36
0.0
 17
0.0
 27
1.0
 37
0.0
 76
     0
330
23
  0
LAYOUT
  5
22
102
{ACAD_REACTORS
330
1A
102
}
330
1A
100
AcDbPlotSettings
  1

  2
none_device
  4
Letter_(8.50_x_11.00_Inches)
  6

 40
6.35
 41
6.35
 42
6.350005
 43
6.350005
 44
215.9
 45
279.4
 46
0.0
 47
0.0
 48
0.0
 49
0.0
140
0.0
141
0.0
142
1.0
143
1.0
 70
  1712
 72
     1
 73
     0
 74
     0
  7

 75
     0
 76
     0
 77
     2
 78
   300
147
1.0
148
0.0
149
0.0
100
AcDbLayout
  1
Model
 70
     1
 71
     0
 10
0.0
 20
0.0
 11
420.0
 21
297.0
 12
0.0
 22
0.0
 32
0.0
 14
1.000000E+20
 24
1.000000E+20
 34
1.000000E+20
 15
-1.000000E+20
 25
-1.000000E+20
 35
-1.000000E+20
146
0.0
 13
0.0
 23
0.0
 33
0.0
 16
1.0
 26
0.0
 36
0.0
 17
0.0
 27
1.0
 37
0.0
 76
     0
330
1F
331
29
  0
MATERIAL
  5
45
102
{ACAD_REACTORS
330
43
102
}
330
43
100
AcDbMaterial
  1
ByBlock
 72
     1
 94
      127
  0
MATERIAL
  5
44
102
{ACAD_REACTORS
330
43
102
}
330
43
100
AcDbMaterial
  1
ByLayer
 72
     1
 94
      127
  0
MATERIAL
  5
46
102
{ACAD_REACTORS
330
43
102
}
330
43
100
AcDbMaterial
  1
Global
 72
     1
 94
      127
  0
MLEADERSTYLE
  5
6C
102
{ACAD_REACTORS
330
6B
102
}
330
6B
100
AcDbMLeaderStyle
179
     2
170
     2
171
     1
172
     0
 90
        2
 40
0.0
 41
0.0
173
     1
 91
-1056964608
340
14
 92
       -2
290
     1
 42
2.0
291
     1
 43
8.0
  3
Standard
341
0
 44
4.0
300

342
11
174
     1
178
     6
175
     1
176
     0
 93
-1056964608
 45
4.0
292
     0
297
     0
 46
4.0
343
0
 94
-1056964608
 47
1.0
 49
1.0
140
1.0
293
     1
141
0.0
294
     1
177
     0
142
1.0
295
     0
296
     0
143
3.75
271
     0
272
     9
273
     9
  0
MLINESTYLE
  5
18
102
{ACAD_REACTORS
330
17
102
}
330
17
100
AcDbMlineStyle
  2
Standard
 70
     0
  3

 62
   256
 51
90.0
 52
90.0
 71
     2
 49
0.5
 62
   256
  6
BYLAYER
 49
-0.5
 62
   256
  6
BYLAYER
  0
ACDBPLACEHOLDER
  5
F
102
{ACAD_REACTORS
330
E
102
}
330
E
  0
SCALE
  5
48
102
{ACAD_REACTORS
330
47
102
}
330
47
100
AcDbScale
 70
     0
300
1:1
140
1.0
141
1.0
290
     1
  0
SCALE
  5
49
102
{ACAD_REACTORS
330
47
102
}
330
47
100
AcDbScale
 70
     0
300
1:2
140
1.0
141
2.0
290
     0
  0
SCALE
  5
4A
102
{ACAD_REACTORS
330
47
102
}
330
47
100
AcDbScale
 70
     0
300
1:4
140
1.0
141
4.0
290
     0
  0
SCALE
  5
4B
102
{ACAD_REACTORS
330
47
102
}
330
47
100
AcDbScale
 70
     0
300
1:5
140
1.0
141
5.0
290
     0
  0
SCALE
  5
4C
102
{ACAD_REACTORS
330
47
102
}
330
47
100
AcDbScale
 70
     0
300
1:8
140
1.0
141
8.0
290
     0
  0
SCALE
  5
4D
102
{ACAD_REACTORS
330
47
102
}
330
47
100
AcDbScale
 70
     0
300
1:10
140
1.0
141
10.0
290
     0
  0
SCALE
  5
4E
102
{ACAD_REACTORS
330
47
102
}
330
47
100
AcDbScale
 70
     0
300
1:16
140
1.0
141
16.0
290
     0
  0
SCALE
  5
4F
102
{ACAD_REACTORS
330
47
102
}
330
47
100
AcDbScale
 70
     0
300
1:20
140
1.0
141
20.0
290
     0
  0
SCALE
  5
50
102
{ACAD_REACTORS
330
47
102
}
330
47
100
AcDbScale
 70
     0
300
1:30
140
1.0
141
30.0
290
     0
  0
SCALE
  5
51
102
{ACAD_REACTORS
330
47
102
}
330
47
100
AcDbScale
 70
     0
300
1:40
140
1.0
141
40.0
290
     0
  0
SCALE
  5
52
102
{ACAD_REACTORS
330
47
102
}
330
47
100
AcDbScale
 70
     0
300
1:50
140
1.0
141
50.0
290
     0
  0
SCALE
  5
53
102
{ACAD_REACTORS
330
47
102
}
330
47
100
AcDbScale
 70
     0
300
1:100
140
1.0
141
100.0
290
     0
  0
SCALE
  5
54
102
{ACAD_REACTORS
330
47
102
}
330
47
100
AcDbScale
 70
     0
300
2:1
140
2.0
141
1.0
290
     0
  0
SCALE
  5
55
102
{ACAD_REACTORS
330
47
102
}
330
47
100
AcDbScale
 70
     0
300
4:1
140
4.0
141
1.0
290
     0
  0
SCALE
  5
56
102
{ACAD_REACTORS
330
47
102
}
330
47
100
AcDbScale
 70
     0
300
8:1
140
8.0
141
1.0
290
     0
  0
SCALE
  5
57
102
{ACAD_REACTORS
330
47
102
}
330
47
100
AcDbScale
 70
     0
300
10:1
140
10.0
141
1.0
290
     0
  0
SCALE
  5
58
102
{ACAD_REACTORS
330
47
102
}
330
47
100
AcDbScale
 70
     0
300
100:1
140
100.0
141
1.0
290
     0
  0
SCALE
  5
59
102
{ACAD_REACTORS
330
47
102
}
330
47
100
AcDbScale
 70
     0
300
1/128" = 1'-0"
140
0.007812
141
12.0
290
     0
  0
SCALE
  5
5A
102
{ACAD_REACTORS
330
47
102
}
330
47
100
AcDbScale
 70
     0
300
1/64" = 1'-0"
140
0.015625
141
12.0
290
     0
  0
SCALE
  5
5B
102
{ACAD_REACTORS
330
47
102
}
330
47
100
AcDbScale
 70
     0
300
1/32" = 1'-0"
140
0.03125
141
12.0
290
     0
  0
SCALE
  5
5C
102
{ACAD_REACTORS
330
47
102
}
330
47
100
AcDbScale
 70
     0
300
1/16" = 1'-0"
140
0.0625
141
12.0
290
     0
  0
SCALE
  5
5D
102
{ACAD_REACTORS
330
47
102
}
330
47
100
AcDbScale
 70
     0
300
3/32" = 1'-0"
140
0.09375
141
12.0
290
     0
  0
SCALE
  5
5E
102
{ACAD_REACTORS
330
47
102
}
330
47
100
AcDbScale
 70
     0
300
1/8" = 1'-0"
140
0.125
141
12.0
290
     0
  0
SCALE
  5
5F
102
{ACAD_REACTORS
330
47
102
}
330
47
100
AcDbScale
 70
     0
300
3/16" = 1'-0"
140
0.1875
141
12.0
290
     0
  0
SCALE
  5
60
102
{ACAD_REACTORS
330
47
102
}
330
47
100
AcDbScale
 70
     0
300
1/4" = 1'-0"
140
0.25
141
12.0
290
     0
  0
SCALE
  5
61
102
{ACAD_REACTORS
330
47
102
}
330
47
100
AcDbScale
 70
     0
300
3/8" = 1'-0"
140
0.375
141
12.0
290
     0
  0
SCALE
  5
62
102
{ACAD_REACTORS
330
47
102
}
330
47
100
AcDbScale
 70
     0
300
1/2" = 1'-0"
140
0.5
141
12.0
290
     0
  0
SCALE
  5
63
102
{ACAD_REACTORS
330
47
102
}
330
47
100
AcDbScale
 70
     0
300
3/4" = 1'-0"
140
0.75
141
12.0
290
     0
  0
SCALE
  5
64
102
{ACAD_REACTORS
330
47
102
}
330
47
100
AcDbScale
 70
     0
300
1" = 1'-0"
140
1.0
141
12.0
290
     0
  0
SCALE
  5
65
102
{ACAD_REACTORS
330
47
102
}
330
47
100
AcDbScale
 70
     0
300
1-1/2" = 1'-0"
140
1.5
141
12.0
290
     0
  0
SCALE
  5
66
102
{ACAD_REACTORS
330
47
102
}
330
47
100
AcDbScale
 70
     0
300
3" = 1'-0"
140
3.0
141
12.0
290
     0
  0
SCALE
  5
67
102
{ACAD_REACTORS
330
47
102
}
330
47
100
AcDbScale
 70
     0
300
6" = 1'-0"
140
6.0
141
12.0
290
     0
  0
SCALE
  5
68
102
{ACAD_REACTORS
330
47
102
}
330
47
100
AcDbScale
 70
     0
300
1'-0" = 1'-0"
140
12.0
141
12.0
290
     0
  0
TABLESTYLE
  5
6A
102
{ACAD_REACTORS
330
69
102
}
102
{ACAD_XDICTIONARY
360
195
102
}
330
69
100
AcDbTableStyle
  3
Standard
 70
     0
 71
     0
 40
0.06
 41
0.06
280
     0
281
     0
  7
Standard
140
4.5
170
     2
 62
     0
 63
   257
283
     0
 90
        4
 91
        0
  1

274
    -2
284
     1
 64
     0
275
    -2
285
     1
 65
     0
276
    -2
286
     1
 66
     0
277
    -2
287
     1
 67
     0
278
    -2
288
     1
 68
     0
279
    -2
289
     1
 69
     0
  7
Standard
140
6.0
170
     5
 62
     0
 63
   257
283
     0
 90
        4
 91
        0
  1

274
    -2
284
     1
 64
     0
275
    -2
285
     1
 65
     0
276
    -2
286
     1
 66
     0
277
    -2
287
     1
 67
     0
278
    -2
288
     1
 68
     0
279
    -2
289
     1
 69
     0
  7
Standard
140
4.5
170
     5
 62
     0
 63
   257
283
     0
 90
        4
 91
        0
  1

274
    -2
284
     1
 64
     0
275
    -2
285
     1
 65
     0
276
    -2
286
     1
 66
     0
277
    -2
287
     1
 67
     0
278
    -2
288
     1
 68
     0
279
    -2
289
     1
 69
     0
  0
VISUALSTYLE
  5
2F
102
{ACAD_REACTORS
330
2A
102
}
102
{ACAD_XDICTIONARY
360
16D
102
}
330
2A
100
AcDbVisualStyle
  2
2dWireframe
 70
     4
177
     2
291
     0
 71
     0
176
     1
 72
     2
176
     1
 73
     0
176
     1
 90
        0
176
     1
 40
0.6
176
     1
 41
30.0
176
     1
 62
     5
 63
     7
421
 16777215
176
     1
 74
     1
176
     1
 91
        4
176
     1
 64
     7
176
     1
 65
   257
176
     1
 75
     1
176
     1
175
     1
176
     1
 42
1.0
176
     1
 92
        0
176
     1
 66
   257
176
     1
 43
1.0
176
     1
 76
     1
176
     1
 77
     6
176
     1
 78
     2
176
     1
 67
     7
176
     1
 79
     5
176
     1
170
     0
176
     1
171
     0
176
     1
290
     0
176
     1
 93
        1
176
     1
 44
0.0
176
     1
173
     0
176
     1
  0
VISUALSTYLE
  5
32
102
{ACAD_REACTORS
330
2A
102
}
102
{ACAD_XDICTIONARY
360
173
102
}
330
2A
100
AcDbVisualStyle
  2
Basic
 70
     7
177
     2
291
     1
 71
     1
176
     1
 72
     0
176
     1
 73
     1
176
     1
 90
        0
176
     1
 40
0.6
176
     1
 41
30.0
176
     1
 62
     5
 63
     7
421
 16777215
176
     1
 74
     0
176
     1
 91
        4
176
     1
 64
     7
176
     1
 65
   257
176
     1
 75
     1
176
     1
175
     1
176
     1
 42
1.0
176
     1
 92
        8
176
     1
 66
     7
176
     1
 43
1.0
176
     1
 76
     1
176
     1
 77
     6
176
     1
 78
     2
176
     1
 67
     7
176
     1
 79
     5
176
     1
170
     0
176
     1
171
     0
176
     1
290
     0
176
     1
 93
        1
176
     1
 44
0.0
176
     1
173
     0
176
     1
  0
VISUALSTYLE
  5
36
102
{ACAD_REACTORS
330
2A
102
}
102
{ACAD_XDICTIONARY
360
17B
102
}
330
2A
100
AcDbVisualStyle
  2
Brighten
 70
    12
177
     2
291
     1
 71
     2
176
     1
 72
     2
176
     1
 73
     0
176
     1
 90
        0
176
     1
 40
0.6
176
     1
 41
30.0
176
     1
 62
     5
 63
     7
421
 16777215
176
     1
 74
     1
176
     1
 91
        4
176
     1
 64
     7
176
     1
 65
   257
176
     1
 75
     1
176
     1
175
     1
176
     1
 42
1.0
176
     1
 92
        8
176
     1
 66
     7
176
     1
 43
1.0
176
     1
 76
     1
176
     1
 77
     6
176
     1
 78
     2
176
     1
 67
     7
176
     1
 79
     5
176
     1
170
     0
176
     1
171
     0
176
     1
290
     0
176
     1
 93
        1
176
     1
 44
50.0
176
     1
173
     0
176
     1
  0
VISUALSTYLE
  5
3A
102
{ACAD_REACTORS
330
2A
102
}
102
{ACAD_XDICTIONARY
360
183
102
}
330
2A
100
AcDbVisualStyle
  2
ColorChange
 70
    16
177
     2
291
     1
 71
     2
176
     1
 72
     2
176
     1
 73
     3
176
     1
 90
        0
176
     1
 40
0.6
176
     1
 41
30.0
176
     1
 62
     5
 63
     8
421
  8421504
176
     1
 74
     1
176
     1
 91
        4
176
     1
 64
     7
176
     1
 65
   257
176
     1
 75
     1
176
     1
175
     1
176
     1
 42
1.0
176
     1
 92
        8
176
     1
 66
     8
424
  8421504
176
     1
 43
1.0
176
     1
 76
     1
176
     1
 77
     6
176
     1
 78
     2
176
     1
 67
     7
176
     1
 79
     5
176
     1
170
     0
176
     1
171
     0
176
     1
290
     0
176
     1
 93
        1
176
     1
 44
0.0
176
     1
173
     0
176
     1
  0
VISUALSTYLE
  5
34
102
{ACAD_REACTORS
330
2A
102
}
102
{ACAD_XDICTIONARY
360
177
102
}
330
2A
100
AcDbVisualStyle
  2
Conceptual
 70
     9
177
     2
291
     0
 71
     3
176
     1
 72
     2
176
     1
 73
     0
176
     1
 90
        0
176
     1
 40
0.6
176
     1
 41
30.0
176
     1
 62
     5
 63
     7
421
 16777215
176
     1
 74
     2
176
     1
 91
        2
176
     1
 64
     7
176
     1
 65
   257
176
     1
 75
     1
176
     1
175
     1
176
     1
 42
179.0
176
     1
 92
        8
176
     1
 66
     7
176
     1
 43
1.0
176
     1
 76
     1
176
     1
 77
     6
176
     1
 78
     2
176
     1
 67
     7
176
     1
 79
     3
176
     1
170
     0
176
     1
171
     0
176
     1
290
     0
176
     1
 93
        1
176
     1
 44
0.0
176
     1
173
     0
176
     1
  0
VISUALSTYLE
  5
35
102
{ACAD_REACTORS
330
2A
102
}
102
{ACAD_XDICTIONARY
360
179
102
}
330
2A
100
AcDbVisualStyle
  2
Dim
 70
    11
177
     2
291
     1
 71
     2
176
     1
 72
     2
176
     1
 73
     0
176
     1
 90
        0
176
     1
 40
0.6
176
     1
 41
30.0
176
     1
 62
     5
 63
     7
421
 16777215
176
     1
 74
     1
176
     1
 91
        4
176
     1
 64
     7
176
     1
 65
   257
176
     1
 75
     1
176
     1
175
     1
176
     1
 42
1.0
176
     1
 92
        8
176
     1
 66
     7
176
     1
 43
1.0
176
     1
 76
     1
176
     1
 77
     6
176
     1
 78
     2
176
     1
 67
     7
176
     1
 79
     5
176
     1
170
     0
176
     1
171
     0
176
     1
290
     0
176
     1
 93
        1
176
     1
 44
-50.0
176
     1
173
     0
176
     1
  0
VISUALSTYLE
  5
3D
102
{ACAD_REACTORS
330
2A
102
}
102
{ACAD_XDICTIONARY
360
189
102
}
330
2A
100
AcDbVisualStyle
  2
EdgeColorOff
 70
    22
177
     2
291
     1
 71
     2
176
     0
 72
     2
176
     0
 73
     0
176
     0
 90
        0
176
     0
 40
0.6
176
     0
 41
30.0
176
     0
 62
     5
 63
     7
421
 16777215
176
     0
 74
     1
176
     0
 91
        4
176
     0
 64
     7
176
     0
 65
   257
176
     0
 75
     1
176
     0
175
     1
176
     0
 42
1.0
176
     0
 92
        8
176
     2
 66
     7
176
     0
 43
1.0
176
     0
 76
     1
176
     0
 77
     6
176
     0
 78
     2
176
     0
 67
     7
176
     0
 79
     5
176
     0
170
     0
176
     0
171
     0
176
     0
290
     0
176
     0
 93
        1
176
     0
 44
0.0
176
     0
173
     0
176
     0
  0
VISUALSTYLE
  5
39
102
{ACAD_REACTORS
330
2A
102
}
102
{ACAD_XDICTIONARY
360
181
102
}
330
2A
100
AcDbVisualStyle
  2
Facepattern
 70
    15
177
     2
291
     1
 71
     2
176
     1
 72
     2
176
     1
 73
     0
176
     1
 90
        0
176
     1
 40
0.6
176
     1
 41
30.0
176
     1
 62
     5
 63
     7
421
 16777215
176
     1
 74
     1
176
     1
 91
        4
176
     1
 64
     7
176
     1
 65
   257
176
     1
 75
     1
176
     1
175
     1
176
     1
 42
1.0
176
     1
 92
        8
176
     1
 66
     7
176
     1
 43
1.0
176
     1
 76
     1
176
     1
 77
     6
176
     1
 78
     2
176
     1
 67
     7
176
     1
 79
     5
176
     1
170
     0
176
     1
171
     0
176
     1
290
     0
176
     1
 93
        1
176
     1
 44
0.0
176
     1
173
     0
176
     1
  0
VISUALSTYLE
  5
2B
102
{ACAD_REACTORS
330
2A
102
}
102
{ACAD_XDICTIONARY
360
165
102
}
330
2A
100
AcDbVisualStyle
  2
Flat
 70
     0
177
     2
291
     1
 71
     2
176
     1
 72
     1
176
     1
 73
     1
176
     1
 90
        2
176
     1
 40
0.6
176
     1
 41
30.0
176
     1
 62
     5
 63
     7
421
 16777215
176
     1
 74
     0
176
     1
 91
        0
176
     1
 64
     7
176
     1
 65
   257
176
     1
 75
     1
176
     1
175
     1
176
     1
 42
1.0
176
     1
 92
        8
176
     1
 66
     7
176
     1
 43
1.0
176
     1
 76
     1
176
     1
 77
     6
176
     1
 78
     2
176
     1
 67
     7
176
     1
 79
     5
176
     1
170
     0
176
     1
171
     0
176
     1
290
     0
176
     1
 93
       13
176
     1
 44
0.0
176
     1
173
     0
176
     1
  0
VISUALSTYLE
  5
2C
102
{ACAD_REACTORS
330
2A
102
}
102
{ACAD_XDICTIONARY
360
167
102
}
330
2A
100
AcDbVisualStyle
  2
FlatWithEdges
 70
     1
177
     2
291
     1
 71
     2
176
     1
 72
     1
176
     1
 73
     1
176
     1
 90
        2
176
     1
 40
0.6
176
     1
 41
30.0
176
     1
 62
     5
 63
     7
421
 16777215
176
     1
 74
     1
176
     1
 91
        0
176
     1
 64
     7
176
     1
 65
   257
176
     1
 75
     1
176
     1
175
     1
176
     1
 42
1.0
176
     1
 92
        0
176
     1
 66
   257
176
     1
 43
1.0
176
     1
 76
     1
176
     1
 77
     6
176
     1
 78
     2
176
     1
 67
     7
176
     1
 79
     5
176
     1
170
     0
176
     1
171
     0
176
     1
290
     0
176
     1
 93
       13
176
     1
 44
0.0
176
     1
173
     0
176
     1
  0
VISUALSTYLE
  5
2D
102
{ACAD_REACTORS
330
2A
102
}
102
{ACAD_XDICTIONARY
360
169
102
}
330
2A
100
AcDbVisualStyle
  2
Gouraud
 70
     2
177
     2
291
     1
 71
     2
176
     1
 72
     2
176
     1
 73
     1
176
     1
 90
        2
176
     1
 40
0.6
176
     1
 41
30.0
176
     1
 62
     5
 63
     7
421
 16777215
176
     1
 74
     0
176
     1
 91
        0
176
     1
 64
     7
176
     1
 65
   257
176
     1
 75
     1
176
     1
175
     1
176
     1
 42
1.0
176
     1
 92
        0
176
     1
 66
     7
176
     1
 43
1.0
176
     1
 76
     1
176
     1
 77
     6
176
     1
 78
     2
176
     1
 67
     7
176
     1
 79
     5
176
     1
170
     0
176
     1
171
     0
176
     1
290
     0
176
     1
 93
       13
176
     1
 44
0.0
176
     1
173
     0
176
     1
  0
VISUALSTYLE
  5
2E
102
{ACAD_REACTORS
330
2A
102
}
102
{ACAD_XDICTIONARY
360
16B
102
}
330
2A
100
AcDbVisualStyle
  2
GouraudWithEdges
 70
     3
177
     2
291
     1
 71
     2
176
     1
 72
     2
176
     1
 73
     1
176
     1
 90
        2
176
     1
 40
0.6
176
     1
 41
30.0
176
     1
 62
     5
 63
     7
421
 16777215
176
     1
 74
     1
176
     1
 91
        0
176
     1
 64
     7
176
     1
 65
   257
176
     1
 75
     1
176
     1
175
     1
176
     1
 42
1.0
176
     1
 92
        0
176
     1
 66
   257
176
     1
 43
1.0
176
     1
 76
     1
176
     1
 77
     6
176
     1
 78
     2
176
     1
 67
     7
176
     1
 79
     5
176
     1
170
     0
176
     1
171
     0
176
     1
290
     0
176
     1
 93
       13
176
     1
 44
0.0
176
     1
173
     0
176
     1
  0
VISUALSTYLE
  5
31
102
{ACAD_REACTORS
330
2A
102
}
102
{ACAD_XDICTIONARY
360
171
102
}
330
2A
100
AcDbVisualStyle
  2
Hidden
 70
     6
177
     2
291
     0
 71
     1
176
     1
 72
     2
176
     1
 73
     2
176
     1
 90
        0
176
     1
 40
0.6
176
     1
 41
30.0
176
     1
 62
     5
 63
     7
421
 16777215
176
     1
 74
     2
176
     1
 91
        2
176
     1
 64
     7
176
     1
 65
   257
176
     1
 75
     2
176
     1
175
     1
176
     1
 42
40.0
176
     1
 92
        0
176
     1
 66
   257
176
     1
 43
1.0
176
     1
 76
     1
176
     1
 77
     6
176
     1
 78
     2
176
     1
 67
     7
176
     1
 79
     3
176
     1
170
     0
176
     1
171
     0
176
     1
290
     0
176
     1
 93
        1
176
     1
 44
0.0
176
     1
173
     0
176
     1
  0
VISUALSTYLE
  5
3B
102
{ACAD_REACTORS
330
2A
102
}
102
{ACAD_XDICTIONARY
360
185
102
}
330
2A
100
AcDbVisualStyle
  2
JitterOff
 70
    20
177
     2
291
     1
 71
     2
176
     0
 72
     2
176
     0
 73
     0
176
     0
 90
        0
176
     0
 40
0.6
176
     0
 41
30.0
176
     0
 62
     5
 63
     7
421
 16777215
176
     0
 74
     1
176
     0
 91
        4
176
     0
 64
     7
176
     0
 65
   257
176
     0
 75
     1
176
     0
175
     1
176
     0
 42
1.0
176
     0
 92
       10
176
     2
 66
     7
176
     0
 43
1.0
176
     0
 76
     1
176
     0
 77
     6
176
     0
 78
     2
176
     0
 67
     7
176
     0
 79
     5
176
     0
170
     0
176
     0
171
     0
176
     0
290
     0
176
     0
 93
        1
176
     0
 44
0.0
176
     0
173
     0
176
     0
  0
VISUALSTYLE
  5
38
102
{ACAD_REACTORS
330
2A
102
}
102
{ACAD_XDICTIONARY
360
17F
102
}
330
2A
100
AcDbVisualStyle
  2
Linepattern
 70
    14
177
     2
291
     1
 71
     2
176
     1
 72
     2
176
     1
 73
     0
176
     1
 90
        0
176
     1
 40
0.6
176
     1
 41
30.0
176
     1
 62
     5
 63
     7
421
 16777215
176
     1
 74
     1
176
     1
 91
        4
176
     1
 64
     7
176
     1
 65
   257
176
     1
 75
     7
176
     1
175
     7
176
     1
 42
1.0
176
     1
 92
        8
176
     1
 66
     7
176
     1
 43
1.0
176
     1
 76
     1
176
     1
 77
     6
176
     1
 78
     2
176
     1
 67
     7
176
     1
 79
     5
176
     1
170
     0
176
     1
171
     0
176
     1
290
     0
176
     1
 93
        1
176
     1
 44
0.0
176
     1
173
     0
176
     1
  0
VISUALSTYLE
  5
3C
102
{ACAD_REACTORS
330
2A
102
}
102
{ACAD_XDICTIONARY
360
187
102
}
330
2A
100
AcDbVisualStyle
  2
OverhangOff
 70
    21
177
     2
291
     1
 71
     2
176
     0
 72
     2
176
     0
 73
     0
176
     0
 90
        0
176
     0
 40
0.6
176
     0
 41
30.0
176
     0
 62
     5
 63
     7
421
 16777215
176
     0
 74
     1
176
     0
 91
        4
176
     0
 64
     7
176
     0
 65
   257
176
     0
 75
     1
176
     0
175
     1
176
     0
 42
1.0
176
     0
 92
        9
176
     2
 66
     7
176
     0
 43
1.0
176
     0
 76
     1
176
     0
 77
     6
176
     0
 78
     2
176
     0
 67
     7
176
     0
 79
     5
176
     0
170
     0
176
     0
171
     0
176
     0
290
     0
176
     0
 93
        1
176
     0
 44
0.0
176
     0
173
     0
176
     0
  0
VISUALSTYLE
  5
33
102
{ACAD_REACTORS
330
2A
102
}
102
{ACAD_XDICTIONARY
360
175
102
}
330
2A
100
AcDbVisualStyle
  2
Realistic
 70
     8
177
     2
291
     0
 71
     2
176
     1
 72
     3
176
     1
 73
     0
176
     1
 90
        2
176
     1
 40
0.6
176
     1
 41
30.0
176
     1
 62
     5
 63
     7
421
 16777215
176
     1
 74
     0
176
     1
 91
        0
176
     1
 64
     7
176
     1
 65
   257
176
     1
 75
     1
176
     1
175
     1
176
     1
 42
1.0
176
     1
 92
        8
176
     1
 66
   257
176
     1
 43
1.0
176
     1
 76
     1
176
     1
 77
     6
176
     1
 78
     2
176
     1
 67
     7
176
     1
 79
     3
176
     1
170
     0
176
     1
171
     0
176
     1
290
     0
176
     1
 93
       13
176
     1
 44
0.0
176
     1
173
     0
176
     1
  0
VISUALSTYLE
  5
42
102
{ACAD_REACTORS
330
2A
102
}
102
{ACAD_XDICTIONARY
360
193
102
}
330
2A
100
AcDbVisualStyle
  2
Shaded
 70
    27
177
     2
291
     0
 71
     2
176
     1
 72
     2
176
     1
 73
     1
176
     1
 90
        2
176
     1
 40
0.6
176
     1
 41
30.0
176
     1
 62
     5
 63
     7
421
 16777215
176
     1
 74
     0
176
     1
 91
        4
176
     1
 64
     7
176
     1
 65
   257
176
     1
 75
     1
176
     1
175
     1
176
     1
 42
1.0
176
     1
 92
        8
176
     1
 66
   257
176
     1
 43
1.0
176
     1
 76
     1
176
     1
 77
     6
176
     1
 78
     2
176
     1
 67
     8
425
  7895160
176
     1
 79
     3
176
     1
170
     0
176
     1
171
     0
176
     1
290
     0
176
     1
 93
        5
176
     1
 44
0.0
176
     1
173
     0
176
     1
  0
VISUALSTYLE
  5
41
102
{ACAD_REACTORS
330
2A
102
}
102
{ACAD_XDICTIONARY
360
191
102
}
330
2A
100
AcDbVisualStyle
  2
Shaded with edges
 70
    26
177
     2
291
     0
 71
     2
176
     1
 72
     2
176
     1
 73
     1
176
     1
 90
        2
176
     1
 40
0.6
176
     1
 41
30.0
176
     1
 62
     5
 63
     7
421
 16777215
176
     1
 74
     1
176
     1
 91
       10
176
     1
 64
     7
176
     1
 65
   257
176
     1
 75
     2
176
     1
175
     1
176
     1
 42
1.0
176
     1
 92
        8
176
     1
 66
   257
176
     1
 43
1.0
176
     1
 76
     1
176
     1
 77
     6
176
     1
 78
     2
176
     1
 67
     7
176
     1
 79
     3
176
     1
170
     0
176
     1
171
     0
176
     1
290
     0
176
     1
 93
        5
176
     1
 44
0.0
176
     1
173
     0
176
     1
  0
VISUALSTYLE
  5
3E
102
{ACAD_REACTORS
330
2A
102
}
102
{ACAD_XDICTIONARY
360
18B
102
}
330
2A
100
AcDbVisualStyle
  2
Shades of Gray
 70
    23
177
     2
291
     0
 71
     2
176
     1
 72
     2
176
     1
 73
     3
176
     1
 90
        0
176
     1
 40
0.6
176
     1
 41
30.0
176
     1
 62
     5
 63
     7
421
 16777215
176
     1
 74
     2
176
     1
 91
        2
176
     1
 64
     7
176
     1
 65
     7
176
     1
 75
     1
176
     1
175
     1
176
     1
 42
40.0
176
     1
 92
        8
176
     1
 66
     7
176
     1
 43
1.0
176
     1
 76
     1
176
     1
 77
     6
176
     1
 78
     2
176
     1
 67
     7
176
     1
 79
     3
176
     1
170
     0
176
     1
171
     0
176
     1
290
     0
176
     1
 93
        1
176
     1
 44
0.0
176
     1
173
     0
176
     1
  0
VISUALSTYLE
  5
3F
102
{ACAD_REACTORS
330
2A
102
}
102
{ACAD_XDICTIONARY
360
18D
102
}
330
2A
100
AcDbVisualStyle
  2
Sketchy
 70
    24
177
     2
291
     0
 71
     1
176
     1
 72
     2
176
     1
 73
     2
176
     1
 90
        0
176
     1
 40
0.6
176
     1
 41
30.0
176
     1
 62
     5
 63
     7
421
 16777215
176
     1
 74
     2
176
     1
 91
        2
176
     1
 64
     7
176
     1
 65
     7
176
     1
 75
     1
176
     1
175
     1
176
     1
 42
40.0
176
     1
 92
       11
176
     1
 66
     7
176
     1
 43
1.0
176
     1
 76
     1
176
     1
 77
     6
176
     1
 78
     2
176
     1
 67
     7
176
     1
 79
     6
176
     1
170
     0
176
     1
171
     0
176
     1
290
     0
176
     1
 93
        1
176
     1
 44
0.0
176
     1
173
     0
176
     1
  0
VISUALSTYLE
  5
37
102
{ACAD_REACTORS
330
2A
102
}
102
{ACAD_XDICTIONARY
360
17D
102
}
330
2A
100
AcDbVisualStyle
  2
Thicken
 70
    13
177
     2
291
     1
 71
     2
176
     1
 72
     2
176
     1
 73
     0
176
     1
 90
        0
176
     1
 40
0.6
176
     1
 41
30.0
176
     1
 62
     5
 63
     7
421
 16777215
176
     1
 74
     1
176
     1
 91
        4
176
     1
 64
     7
176
     1
 65
   257
176
     1
 75
     1
176
     1
175
     1
176
     1
 42
1.0
176
     1
 92
       12
176
     1
 66
     7
176
     1
 43
1.0
176
     1
 76
     1
176
     1
 77
     6
176
     1
 78
     2
176
     1
 67
     7
176
     1
 79
     5
176
     1
170
     0
176
     1
171
     0
176
     1
290
     0
176
     1
 93
        1
176
     1
 44
0.0
176
     1
173
     0
176
     1
  0
VISUALSTYLE
  5
30
102
{ACAD_REACTORS
330
2A
102
}
102
{ACAD_XDICTIONARY
360
16F
102
}
330
2A
100
AcDbVisualStyle
  2
Wireframe
 70
     5
177
     2
291
     0
 71
     0
176
     1
 72
     2
176
     1
 73
     0
176
     1
 90
        0
176
     1
 40
0.6
176
     1
 41
30.0
176
     1
 62
     5
 63
     7
421
 16777215
176
     1
 74
     1
176
     1
 91
        4
176
     1
 64
     7
176
     1
 65
   257
176
     1
 75
     1
176
     1
175
     1
176
     1
 42
1.0
176
     1
 92
        0
176
     1
 66
   257
176
     1
 43
1.0
176
     1
 76
     1
176
     1
 77
     6
176
     1
 78
     2
176
     1
 67
     7
176
     1
 79
     3
176
     1
170
     0
176
     1
171
     0
176
     1
290
     0
176
     1
 93
        1
176
     1
 44
0.0
176
     1
173
     0
176
     1
  0
VISUALSTYLE
  5
40
102
{ACAD_REACTORS
330
2A
102
}
102
{ACAD_XDICTIONARY
360
18F
102
}
330
2A
100
AcDbVisualStyle
  2
X-Ray
 70
    25
177
     2
291
     0
 71
     2
176
     1
 72
     2
176
     1
 73
     1
176
     1
 90
        1
176
     1
 40
0.5
176
     1
 41
30.0
176
     1
 62
     5
 63
     7
421
 16777215
176
     1
 74
     1
176
     1
 91
        0
176
     1
 64
     7
176
     1
 65
   257
176
     1
 75
     1
176
     1
175
     1
176
     1
 42
1.0
176
     1
 92
        8
176
     1
 66
     7
176
     1
 43
1.0
176
     1
 76
     1
176
     1
 77
     6
176
     1
 78
     2
176
     1
 67
     7
176
     1
 79
     3
176
     1
170
     0
176
     1
171
     0
176
     1
290
     0
176
     1
 93
       13
176
     1
 44
0.0
176
     1
173
     0
176
     1
  0
DICTIONARYVAR
  5
164
102
{ACAD_REACTORS
330
163
102
}
330
163
100
DictionaryVariables
280
     0
  1
1:1
  0
DICTIONARYVAR
  5
199
102
{ACAD_REACTORS
330
163
102
}
330
163
100
DictionaryVariables
280
     0
  1
Standard
  0
DICTIONARYVAR
  5
198
102
{ACAD_REACTORS
330
163
102
}
330
163
100
DictionaryVariables
280
     0
  1
Standard
  0
DICTIONARY
  5
195
330
6A
100
AcDbDictionary
280
     1
281
     1
  3
ACAD_ROUNDTRIP_2008_TABLESTYLE_CELLSTYLEMAP
360
196
  0
DICTIONARY
  5
16D
330
2F
100
AcDbDictionary
280
     1
281
     1
  3
ACAD_XREC_ROUNDTRIP
360
16E
  0
DICTIONARY
  5
173
330
32
100
AcDbDictionary
280
     1
281
     1
  3
ACAD_XREC_ROUNDTRIP
360
174
  0
DICTIONARY
  5
17B
330
36
100
AcDbDictionary
280
     1
281
     1
  3
ACAD_XREC_ROUNDTRIP
360
17C
  0
DICTIONARY
  5
183
330
3A
100
AcDbDictionary
280
     1
281
     1
  3
ACAD_XREC_ROUNDTRIP
360
184
  0
DICTIONARY
  5
177
330
34
100
AcDbDictionary
280
     1
281
     1
  3
ACAD_XREC_ROUNDTRIP
360
178
  0
DICTIONARY
  5
179
330
35
100
AcDbDictionary
280
     1
281
     1
  3
ACAD_XREC_ROUNDTRIP
360
17A
  0
DICTIONARY
  5
189
330
3D
100
AcDbDictionary
280
     1
281
     1
  3
ACAD_XREC_ROUNDTRIP
360
18A
  0
DICTIONARY
  5
181
330
39
100
AcDbDictionary
280
     1
281
     1
  3
ACAD_XREC_ROUNDTRIP
360
182
  0
DICTIONARY
  5
165
330
2B
100
AcDbDictionary
280
     1
281
     1
  3
ACAD_XREC_ROUNDTRIP
360
166
  0
DICTIONARY
  5
167
330
2C
100
AcDbDictionary
280
     1
281
     1
  3
ACAD_XREC_ROUNDTRIP
360
168
  0
DICTIONARY
  5
169
330
2D
100
AcDbDictionary
280
     1
281
     1
  3
ACAD_XREC_ROUNDTRIP
360
16A
  0
DICTIONARY
  5
16B
330
2E
100
AcDbDictionary
280
     1
281
     1
  3
ACAD_XREC_ROUNDTRIP
360
16C
  0
DICTIONARY
  5
171
330
31
100
AcDbDictionary
280
     1
281
     1
  3
ACAD_XREC_ROUNDTRIP
360
172
  0
DICTIONARY
  5
185
330
3B
100
AcDbDictionary
280
     1
281
     1
  3
ACAD_XREC_ROUNDTRIP
360
186
  0
DICTIONARY
  5
17F
330
38
100
AcDbDictionary
280
     1
281
     1
  3
ACAD_XREC_ROUNDTRIP
360
180
  0
DICTIONARY
  5
187
330
3C
100
AcDbDictionary
280
     1
281
     1
  3
ACAD_XREC_ROUNDTRIP
360
188
  0
DICTIONARY
  5
175
330
33
100
AcDbDictionary
280
     1
281
     1
  3
ACAD_XREC_ROUNDTRIP
360
176
  0
DICTIONARY
  5
193
330
42
100
AcDbDictionary
280
     1
281
     1
  3
ACAD_XREC_ROUNDTRIP
360
194
  0
DICTIONARY
  5
191
330
41
100
AcDbDictionary
280
     1
281
     1
  3
ACAD_XREC_ROUNDTRIP
360
192
  0
DICTIONARY
  5
18B
330
3E
100
AcDbDictionary
280
     1
281
     1
  3
ACAD_XREC_ROUNDTRIP
360
18C
  0
DICTIONARY
  5
18D
330
3F
100
AcDbDictionary
280
     1
281
     1
  3
ACAD_XREC_ROUNDTRIP
360
18E
  0
DICTIONARY
  5
17D
330
37
100
AcDbDictionary
280
     1
281
     1
  3
ACAD_XREC_ROUNDTRIP
360
17E
  0
DICTIONARY
  5
16F
330
30
100
AcDbDictionary
280
     1
281
     1
  3
ACAD_XREC_ROUNDTRIP
360
170
  0
DICTIONARY
  5
18F
330
40
100
AcDbDictionary
280
     1
281
     1
  3
ACAD_XREC_ROUNDTRIP
360
190
  0
CELLSTYLEMAP
  5
196
102
{ACAD_REACTORS
330
195
102
}
330
195
100
AcDbCellStyleMap
 90
        3
300
CELLSTYLE
  1
TABLEFORMAT_BEGIN
 90
        5
170
     1
 91
        0
 92
    32768
 62
   257
 93
        1
300
CONTENTFORMAT
  1
CONTENTFORMAT_BEGIN
 90
        0
 91
        0
 92
        4
 93
        0
300

 40
0.0
140
1.0
 94
        5
 62
     0
340
11
144
6.0
309
CONTENTFORMAT_END
171
     1
301
MARGIN
  1
CELLMARGIN_BEGIN
 40
1.5
 40
1.5
 40
1.5
 40
1.5
 40
1.5
 40
1.5
309
CELLMARGIN_END
 94
        6
 95
        1
302
GRIDFORMAT
  1
GRIDFORMAT_BEGIN
 90
        0
 91
        1
 62
     0
 92
       -2
340
14
 93
        0
 40
0.045
309
GRIDFORMAT_END
 95
        2
302
GRIDFORMAT
  1
GRIDFORMAT_BEGIN
 90
        0
 91
        1
 62
     0
 92
       -2
340
14
 93
        0
 40
0.045
309
GRIDFORMAT_END
 95
        4
302
GRIDFORMAT
  1
GRIDFORMAT_BEGIN
 90
        0
 91
        1
 62
     0
 92
       -2
340
14
 93
        0
 40
0.045
309
GRIDFORMAT_END
 95
        8
302
GRIDFORMAT
  1
GRIDFORMAT_BEGIN
 90
        0
 91
        1
 62
     0
 92
       -2
340
14
 93
        0
 40
0.045
309
GRIDFORMAT_END
 95
       16
302
GRIDFORMAT
  1
GRIDFORMAT_BEGIN
 90
        0
 91
        1
 62
     0
 92
       -2
340
14
 93
        0
 40
0.045
309
GRIDFORMAT_END
 95
       32
302
GRIDFORMAT
  1
GRIDFORMAT_BEGIN
 90
        0
 91
        1
 62
     0
 92
       -2
340
14
 93
        0
 40
0.045
309
GRIDFORMAT_END
309
TABLEFORMAT_END
  1
CELLSTYLE_BEGIN
 90
        1
 91
        1
300
_TITLE
309
CELLSTYLE_END
300
CELLSTYLE
  1
TABLEFORMAT_BEGIN
 90
        5
170
     1
 91
        0
 92
        0
 62
   257
 93
        1
300
CONTENTFORMAT
  1
CONTENTFORMAT_BEGIN
 90
        0
 91
        0
 92
        4
 93
        0
300

 40
0.0
140
1.0
 94
        5
 62
     0
340
11
144
4.5
309
CONTENTFORMAT_END
171
     1
301
MARGIN
  1
CELLMARGIN_BEGIN
 40
1.5
 40
1.5
 40
1.5
 40
1.5
 40
1.5
 40
1.5
309
CELLMARGIN_END
 94
        6
 95
        1
302
GRIDFORMAT
  1
GRIDFORMAT_BEGIN
 90
        0
 91
        1
 62
     0
 92
       -2
340
14
 93
        0
 40
0.045
309
GRIDFORMAT_END
 95
        2
302
GRIDFORMAT
  1
GRIDFORMAT_BEGIN
 90
        0
 91
        1
 62
     0
 92
       -2
340
14
 93
        0
 40
0.045
309
GRIDFORMAT_END
 95
        4
302
GRIDFORMAT
  1
GRIDFORMAT_BEGIN
 90
        0
 91
        1
 62
     0
 92
       -2
340
14
 93
        0
 40
0.045
309
GRIDFORMAT_END
 95
        8
302
GRIDFORMAT
  1
GRIDFORMAT_BEGIN
 90
        0
 91
        1
 62
     0
 92
       -2
340
14
 93
        0
 40
0.045
309
GRIDFORMAT_END
 95
       16
302
GRIDFORMAT
  1
GRIDFORMAT_BEGIN
 90
        0
 91
        1
 62
     0
 92
       -2
340
14
 93
        0
 40
0.045
309
GRIDFORMAT_END
 95
       32
302
GRIDFORMAT
  1
GRIDFORMAT_BEGIN
 90
        0
 91
        1
 62
     0
 92
       -2
340
14
 93
        0
 40
0.045
309
GRIDFORMAT_END
309
TABLEFORMAT_END
  1
CELLSTYLE_BEGIN
 90
        2
 91
        1
300
_HEADER
309
CELLSTYLE_END
300
CELLSTYLE
  1
TABLEFORMAT_BEGIN
 90
        5
170
     1
 91
        0
 92
        0
 62
   257
 93
        1
300
CONTENTFORMAT
  1
CONTENTFORMAT_BEGIN
 90
        0
 91
        0
 92
        4
 93
        0
300

 40
0.0
140
1.0
 94
        2
 62
     0
340
11
144
4.5
309
CONTENTFORMAT_END
171
     1
301
MARGIN
  1
CELLMARGIN_BEGIN
 40
1.5
 40
1.5
 40
1.5
 40
1.5
 40
1.5
 40
1.5
309
CELLMARGIN_END
 94
        6
 95
        1
302
GRIDFORMAT
  1
GRIDFORMAT_BEGIN
 90
        0
 91
        1
 62
     0
 92
       -2
340
14
 93
        0
 40
0.045
309
GRIDFORMAT_END
 95
        2
302
GRIDFORMAT
  1
GRIDFORMAT_BEGIN
 90
        0
 91
        1
 62
     0
 92
       -2
340
14
 93
        0
 40
0.045
309
GRIDFORMAT_END
 95
        4
302
GRIDFORMAT
  1
GRIDFORMAT_BEGIN
 90
        0
 91
        1
 62
     0
 92
       -2
340
14
 93
        0
 40
0.045
309
GRIDFORMAT_END
 95
        8
302
GRIDFORMAT
  1
GRIDFORMAT_BEGIN
 90
        0
 91
        1
 62
     0
 92
       -2
340
14
 93
        0
 40
0.045
309
GRIDFORMAT_END
 95
       16
302
GRIDFORMAT
  1
GRIDFORMAT_BEGIN
 90
        0
 91
        1
 62
     0
 92
       -2
340
14
 93
        0
 40
0.045
309
GRIDFORMAT_END
 95
       32
302
GRIDFORMAT
  1
GRIDFORMAT_BEGIN
 90
        0
 91
        1
 62
     0
 92
       -2
340
14
 93
        0
 40
0.045
309
GRIDFORMAT_END
309
TABLEFORMAT_END
  1
CELLSTYLE_BEGIN
 90
        3
 91
        2
300
_DATA
309
CELLSTYLE_END
  0
XRECORD
  5
16E
102
{ACAD_REACTORS
330
16D
102
}
330
16D
100
AcDbXrecord
280
     1
102
RTVSPost2010Prop28
280
     1
102
RTVSPost2010PropOp28
 70
     1
102
RTVSPost2010Prop29
280
     1
102
RTVSPost2010PropOp29
 70
     1
102
RTVSPost2010Prop30
280
     0
102
RTVSPost2010PropOp30
 70
     1
102
RTVSPost2010Prop31
280
     0
102
RTVSPost2010PropOp31
 70
     1
102
RTVSPost2010Prop32
280
     0
102
RTVSPost2010PropOp32
 70
     1
102
RTVSPost2010Prop33
280
     0
102
RTVSPost2010PropOp33
 70
     1
102
RTVSPost2010Prop34
280
     0
102
RTVSPost2010PropOp34
 70
     1
102
RTVSPost2010Prop35
280
     0
102
RTVSPost2010PropOp35
 70
     1
102
RTVSPost2010Prop36
280
     0
102
RTVSPost2010PropOp36
 70
     1
102
RTVSPost2010Prop37
 90
       50
102
RTVSPost2010PropOp37
 70
     1
102
RTVSPost2010Prop38
140
0.0
102
RTVSPost2010PropOp38
 70
     1
102
RTVSPost2010Prop39
140
1.0
102
RTVSPost2010PropOp39
 70
     1
102
RTVSPost2010Prop40
 90
        0
102
RTVSPost2010PropOp40
 70
     1
102
RTVSPost2010Prop41ColorIndex
 90
       18
102
RTVSPost2010Prop41ColorRGB
 90
        0
102
RTVSPost2010PropOp41
 70
     1
102
RTVSPost2010Prop42
 90
       50
102
RTVSPost2010PropOp42
 70
     1
102
RTVSPost2010Prop43
 90
        3
102
RTVSPost2010PropOp43
 70
     1
102
RTVSPost2010Prop44ColorIndex
 90
        5
102
RTVSPost2010Prop44ColorRGB
 90
      255
102
RTVSPost2010PropOp44
 70
     1
102
RTVSPost2010Prop45
280
     0
102
RTVSPost2010PropOp45
 70
     1
102
RTVSPost2010Prop46
 90
       50
102
RTVSPost2010PropOp46
 70
     1
102
RTVSPost2010Prop47
 90
       50
102
RTVSPost2010PropOp47
 70
     1
102
RTVSPost2010Prop48
 90
       50
102
RTVSPost2010PropOp48
 70
     1
102
RTVSPost2010Prop49
280
     0
102
RTVSPost2010PropOp49
 70
     1
102
RTVSPost2010Prop50
 90
       50
102
RTVSPost2010PropOp50
 70
     1
102
RTVSPost2010Prop51ColorIndex
 90
      256
102
RTVSPost2010Prop51ColorRGB
 90
-16777216
102
RTVSPost2010PropOp51
 70
     0
102
RTVSPost2010Prop52
140
1.0
102
RTVSPost2010PropOp52
 70
     0
102
RTVSPost2010Prop53
 90
        2
102
RTVSPost2010PropOp53
 70
     1
102
RTVSPost2010Prop54
  1
strokes_ogs.tif
102
RTVSPost2010PropOp54
 70
     1
102
RTVSPost2010Prop55
280
     0
102
RTVSPost2010PropOp55
 70
     1
102
RTVSPost2010Prop56
140
1.0
102
RTVSPost2010PropOp56
 70
     1
102
RTVSPost2010Prop57
140
1.0
102
RTVSPost2010PropOp57
 70
     1
  0
XRECORD
  5
174
102
{ACAD_REACTORS
330
173
102
}
330
173
100
AcDbXrecord
280
     1
102
RTVSPost2010Prop28
280
     0
102
RTVSPost2010PropOp28
 70
     1
102
RTVSPost2010Prop29
280
     1
102
RTVSPost2010PropOp29
 70
     1
102
RTVSPost2010Prop30
280
     1
102
RTVSPost2010PropOp30
 70
     1
102
RTVSPost2010Prop31
280
     0
102
RTVSPost2010PropOp31
 70
     1
102
RTVSPost2010Prop32
280
     0
102
RTVSPost2010PropOp32
 70
     1
102
RTVSPost2010Prop33
280
     0
102
RTVSPost2010PropOp33
 70
     1
102
RTVSPost2010Prop34
280
     0
102
RTVSPost2010PropOp34
 70
     1
102
RTVSPost2010Prop35
280
     0
102
RTVSPost2010PropOp35
 70
     1
102
RTVSPost2010Prop36
280
     0
102
RTVSPost2010PropOp36
 70
     1
102
RTVSPost2010Prop37
 90
       50
102
RTVSPost2010PropOp37
 70
     1
102
RTVSPost2010Prop38
140
0.0
102
RTVSPost2010PropOp38
 70
     1
102
RTVSPost2010Prop39
140
1.0
102
RTVSPost2010PropOp39
 70
     1
102
RTVSPost2010Prop40
 90
        0
102
RTVSPost2010PropOp40
 70
     1
102
RTVSPost2010Prop41ColorIndex
 90
       18
102
RTVSPost2010Prop41ColorRGB
 90
        0
102
RTVSPost2010PropOp41
 70
     1
102
RTVSPost2010Prop42
 90
       50
102
RTVSPost2010PropOp42
 70
     1
102
RTVSPost2010Prop43
 90
        3
102
RTVSPost2010PropOp43
 70
     1
102
RTVSPost2010Prop44ColorIndex
 90
        5
102
RTVSPost2010Prop44ColorRGB
 90
      255
102
RTVSPost2010PropOp44
 70
     1
102
RTVSPost2010Prop45
280
     0
102
RTVSPost2010PropOp45
 70
     1
102
RTVSPost2010Prop46
 90
       50
102
RTVSPost2010PropOp46
 70
     1
102
RTVSPost2010Prop47
 90
       50
102
RTVSPost2010PropOp47
 70
     1
102
RTVSPost2010Prop48
 90
       50
102
RTVSPost2010PropOp48
 70
     1
102
RTVSPost2010Prop49
280
     0
102
RTVSPost2010PropOp49
 70
     1
102
RTVSPost2010Prop50
 90
       50
102
RTVSPost2010PropOp50
 70
     1
102
RTVSPost2010Prop51ColorIndex
 90
      256
102
RTVSPost2010Prop51ColorRGB
 90
-16777216
102
RTVSPost2010PropOp51
 70
     0
102
RTVSPost2010Prop52
140
1.0
102
RTVSPost2010PropOp52
 70
     0
102
RTVSPost2010Prop53
 90
        2
102
RTVSPost2010PropOp53
 70
     1
102
RTVSPost2010Prop54
  1
strokes_ogs.tif
102
RTVSPost2010PropOp54
 70
     1
102
RTVSPost2010Prop55
280
     0
102
RTVSPost2010PropOp55
 70
     1
102
RTVSPost2010Prop56
140
1.0
102
RTVSPost2010PropOp56
 70
     1
102
RTVSPost2010Prop57
140
1.0
102
RTVSPost2010PropOp57
 70
     1
  0
XRECORD
  5
17C
102
{ACAD_REACTORS
330
17B
102
}
330
17B
100
AcDbXrecord
280
     1
102
RTVSPost2010Prop28
280
     0
102
RTVSPost2010PropOp28
 70
     1
102
RTVSPost2010Prop29
280
     1
102
RTVSPost2010PropOp29
 70
     1
102
RTVSPost2010Prop30
280
     1
102
RTVSPost2010PropOp30
 70
     1
102
RTVSPost2010Prop31
280
     0
102
RTVSPost2010PropOp31
 70
     1
102
RTVSPost2010Prop32
280
     0
102
RTVSPost2010PropOp32
 70
     1
102
RTVSPost2010Prop33
280
     0
102
RTVSPost2010PropOp33
 70
     1
102
RTVSPost2010Prop34
280
     0
102
RTVSPost2010PropOp34
 70
     1
102
RTVSPost2010Prop35
280
     0
102
RTVSPost2010PropOp35
 70
     1
102
RTVSPost2010Prop36
280
     0
102
RTVSPost2010PropOp36
 70
     1
102
RTVSPost2010Prop37
 90
       50
102
RTVSPost2010PropOp37
 70
     1
102
RTVSPost2010Prop38
140
0.0
102
RTVSPost2010PropOp38
 70
     1
102
RTVSPost2010Prop39
140
1.0
102
RTVSPost2010PropOp39
 70
     1
102
RTVSPost2010Prop40
 90
        0
102
RTVSPost2010PropOp40
 70
     1
102
RTVSPost2010Prop41ColorIndex
 90
       18
102
RTVSPost2010Prop41ColorRGB
 90
        0
102
RTVSPost2010PropOp41
 70
     1
102
RTVSPost2010Prop42
 90
       50
102
RTVSPost2010PropOp42
 70
     1
102
RTVSPost2010Prop43
 90
        3
102
RTVSPost2010PropOp43
 70
     1
102
RTVSPost2010Prop44ColorIndex
 90
        5
102
RTVSPost2010Prop44ColorRGB
 90
      255
102
RTVSPost2010PropOp44
 70
     1
102
RTVSPost2010Prop45
280
     0
102
RTVSPost2010PropOp45
 70
     1
102
RTVSPost2010Prop46
 90
       50
102
RTVSPost2010PropOp46
 70
     1
102
RTVSPost2010Prop47
 90
       50
102
RTVSPost2010PropOp47
 70
     1
102
RTVSPost2010Prop48
 90
       50
102
RTVSPost2010PropOp48
 70
     1
102
RTVSPost2010Prop49
280
     0
102
RTVSPost2010PropOp49
 70
     1
102
RTVSPost2010Prop50
 90
       50
102
RTVSPost2010PropOp50
 70
     1
102
RTVSPost2010Prop51ColorIndex
 90
      256
102
RTVSPost2010Prop51ColorRGB
 90
-16777216
102
RTVSPost2010PropOp51
 70
     0
102
RTVSPost2010Prop52
140
1.0
102
RTVSPost2010PropOp52
 70
     0
102
RTVSPost2010Prop53
 90
        2
102
RTVSPost2010PropOp53
 70
     1
102
RTVSPost2010Prop54
  1
strokes_ogs.tif
102
RTVSPost2010PropOp54
 70
     1
102
RTVSPost2010Prop55
280
     0
102
RTVSPost2010PropOp55
 70
     1
102
RTVSPost2010Prop56
140
1.0
102
RTVSPost2010PropOp56
 70
     1
102
RTVSPost2010Prop57
140
1.0
102
RTVSPost2010PropOp57
 70
     1
  0
XRECORD
  5
184
102
{ACAD_REACTORS
330
183
102
}
330
183
100
AcDbXrecord
280
     1
102
RTVSPost2010Prop28
280
     0
102
RTVSPost2010PropOp28
 70
     1
102
RTVSPost2010Prop29
280
     1
102
RTVSPost2010PropOp29
 70
     1
102
RTVSPost2010Prop30
280
     1
102
RTVSPost2010PropOp30
 70
     1
102
RTVSPost2010Prop31
280
     0
102
RTVSPost2010PropOp31
 70
     1
102
RTVSPost2010Prop32
280
     0
102
RTVSPost2010PropOp32
 70
     1
102
RTVSPost2010Prop33
280
     0
102
RTVSPost2010PropOp33
 70
     1
102
RTVSPost2010Prop34
280
     0
102
RTVSPost2010PropOp34
 70
     1
102
RTVSPost2010Prop35
280
     0
102
RTVSPost2010PropOp35
 70
     1
102
RTVSPost2010Prop36
280
     0
102
RTVSPost2010PropOp36
 70
     1
102
RTVSPost2010Prop37
 90
       50
102
RTVSPost2010PropOp37
 70
     1
102
RTVSPost2010Prop38
140
0.0
102
RTVSPost2010PropOp38
 70
     1
102
RTVSPost2010Prop39
140
1.0
102
RTVSPost2010PropOp39
 70
     1
102
RTVSPost2010Prop40
 90
        0
102
RTVSPost2010PropOp40
 70
     1
102
RTVSPost2010Prop41ColorIndex
 90
       18
102
RTVSPost2010Prop41ColorRGB
 90
        0
102
RTVSPost2010PropOp41
 70
     1
102
RTVSPost2010Prop42
 90
       50
102
RTVSPost2010PropOp42
 70
     1
102
RTVSPost2010Prop43
 90
        3
102
RTVSPost2010PropOp43
 70
     1
102
RTVSPost2010Prop44ColorIndex
 90
        5
102
RTVSPost2010Prop44ColorRGB
 90
      255
102
RTVSPost2010PropOp44
 70
     1
102
RTVSPost2010Prop45
280
     0
102
RTVSPost2010PropOp45
 70
     1
102
RTVSPost2010Prop46
 90
       50
102
RTVSPost2010PropOp46
 70
     1
102
RTVSPost2010Prop47
 90
       50
102
RTVSPost2010PropOp47
 70
     1
102
RTVSPost2010Prop48
 90
       50
102
RTVSPost2010PropOp48
 70
     1
102
RTVSPost2010Prop49
280
     0
102
RTVSPost2010PropOp49
 70
     1
102
RTVSPost2010Prop50
 90
       50
102
RTVSPost2010PropOp50
 70
     1
102
RTVSPost2010Prop51ColorIndex
 90
      256
102
RTVSPost2010Prop51ColorRGB
 90
-16777216
102
RTVSPost2010PropOp51
 70
     0
102
RTVSPost2010Prop52
140
1.0
102
RTVSPost2010PropOp52
 70
     0
102
RTVSPost2010Prop53
 90
        2
102
RTVSPost2010PropOp53
 70
     1
102
RTVSPost2010Prop54
  1
strokes_ogs.tif
102
RTVSPost2010PropOp54
 70
     1
102
RTVSPost2010Prop55
280
     0
102
RTVSPost2010PropOp55
 70
     1
102
RTVSPost2010Prop56
140
1.0
102
RTVSPost2010PropOp56
 70
     1
102
RTVSPost2010Prop57
140
1.0
102
RTVSPost2010PropOp57
 70
     1
  0
XRECORD
  5
178
102
{ACAD_REACTORS
330
177
102
}
330
177
100
AcDbXrecord
280
     1
102
RTVSPost2010Prop28
280
     0
102
RTVSPost2010PropOp28
 70
     1
102
RTVSPost2010Prop29
280
     1
102
RTVSPost2010PropOp29
 70
     1
102
RTVSPost2010Prop30
280
     1
102
RTVSPost2010PropOp30
 70
     1
102
RTVSPost2010Prop31
280
     0
102
RTVSPost2010PropOp31
 70
     1
102
RTVSPost2010Prop32
280
     0
102
RTVSPost2010PropOp32
 70
     1
102
RTVSPost2010Prop33
280
     0
102
RTVSPost2010PropOp33
 70
     1
102
RTVSPost2010Prop34
280
     0
102
RTVSPost2010PropOp34
 70
     1
102
RTVSPost2010Prop35
280
     0
102
RTVSPost2010PropOp35
 70
     1
102
RTVSPost2010Prop36
280
     0
102
RTVSPost2010PropOp36
 70
     1
102
RTVSPost2010Prop37
 90
       50
102
RTVSPost2010PropOp37
 70
     1
102
RTVSPost2010Prop38
140
0.0
102
RTVSPost2010PropOp38
 70
     1
102
RTVSPost2010Prop39
140
1.0
102
RTVSPost2010PropOp39
 70
     1
102
RTVSPost2010Prop40
 90
        0
102
RTVSPost2010PropOp40
 70
     1
102
RTVSPost2010Prop41ColorIndex
 90
       18
102
RTVSPost2010Prop41ColorRGB
 90
        0
102
RTVSPost2010PropOp41
 70
     1
102
RTVSPost2010Prop42
 90
       50
102
RTVSPost2010PropOp42
 70
     1
102
RTVSPost2010Prop43
 90
        3
102
RTVSPost2010PropOp43
 70
     1
102
RTVSPost2010Prop44ColorIndex
 90
        5
102
RTVSPost2010Prop44ColorRGB
 90
      255
102
RTVSPost2010PropOp44
 70
     1
102
RTVSPost2010Prop45
280
     0
102
RTVSPost2010PropOp45
 70
     1
102
RTVSPost2010Prop46
 90
       50
102
RTVSPost2010PropOp46
 70
     1
102
RTVSPost2010Prop47
 90
       50
102
RTVSPost2010PropOp47
 70
     1
102
RTVSPost2010Prop48
 90
       50
102
RTVSPost2010PropOp48
 70
     1
102
RTVSPost2010Prop49
280
     0
102
RTVSPost2010PropOp49
 70
     1
102
RTVSPost2010Prop50
 90
       50
102
RTVSPost2010PropOp50
 70
     1
102
RTVSPost2010Prop51ColorIndex
 90
      256
102
RTVSPost2010Prop51ColorRGB
 90
-16777216
102
RTVSPost2010PropOp51
 70
     0
102
RTVSPost2010Prop52
140
1.0
102
RTVSPost2010PropOp52
 70
     0
102
RTVSPost2010Prop53
 90
        2
102
RTVSPost2010PropOp53
 70
     1
102
RTVSPost2010Prop54
  1
strokes_ogs.tif
102
RTVSPost2010PropOp54
 70
     1
102
RTVSPost2010Prop55
280
     0
102
RTVSPost2010PropOp55
 70
     1
102
RTVSPost2010Prop56
140
1.0
102
RTVSPost2010PropOp56
 70
     1
102
RTVSPost2010Prop57
140
1.0
102
RTVSPost2010PropOp57
 70
     1
  0
XRECORD
  5
17A
102
{ACAD_REACTORS
330
179
102
}
330
179
100
AcDbXrecord
280
     1
102
RTVSPost2010Prop28
280
     0
102
RTVSPost2010PropOp28
 70
     1
102
RTVSPost2010Prop29
280
     1
102
RTVSPost2010PropOp29
 70
     1
102
RTVSPost2010Prop30
280
     1
102
RTVSPost2010PropOp30
 70
     1
102
RTVSPost2010Prop31
280
     0
102
RTVSPost2010PropOp31
 70
     1
102
RTVSPost2010Prop32
280
     0
102
RTVSPost2010PropOp32
 70
     1
102
RTVSPost2010Prop33
280
     0
102
RTVSPost2010PropOp33
 70
     1
102
RTVSPost2010Prop34
280
     0
102
RTVSPost2010PropOp34
 70
     1
102
RTVSPost2010Prop35
280
     0
102
RTVSPost2010PropOp35
 70
     1
102
RTVSPost2010Prop36
280
     0
102
RTVSPost2010PropOp36
 70
     1
102
RTVSPost2010Prop37
 90
       50
102
RTVSPost2010PropOp37
 70
     1
102
RTVSPost2010Prop38
140
0.0
102
RTVSPost2010PropOp38
 70
     1
102
RTVSPost2010Prop39
140
1.0
102
RTVSPost2010PropOp39
 70
     1
102
RTVSPost2010Prop40
 90
        0
102
RTVSPost2010PropOp40
 70
     1
102
RTVSPost2010Prop41ColorIndex
 90
       18
102
RTVSPost2010Prop41ColorRGB
 90
        0
102
RTVSPost2010PropOp41
 70
     1
102
RTVSPost2010Prop42
 90
       50
102
RTVSPost2010PropOp42
 70
     1
102
RTVSPost2010Prop43
 90
        3
102
RTVSPost2010PropOp43
 70
     1
102
RTVSPost2010Prop44ColorIndex
 90
        5
102
RTVSPost2010Prop44ColorRGB
 90
      255
102
RTVSPost2010PropOp44
 70
     1
102
RTVSPost2010Prop45
280
     0
102
RTVSPost2010PropOp45
 70
     1
102
RTVSPost2010Prop46
 90
       50
102
RTVSPost2010PropOp46
 70
     1
102
RTVSPost2010Prop47
 90
       50
102
RTVSPost2010PropOp47
 70
     1
102
RTVSPost2010Prop48
 90
       50
102
RTVSPost2010PropOp48
 70
     1
102
RTVSPost2010Prop49
280
     0
102
RTVSPost2010PropOp49
 70
     1
102
RTVSPost2010Prop50
 90
       50
102
RTVSPost2010PropOp50
 70
     1
102
RTVSPost2010Prop51ColorIndex
 90
      256
102
RTVSPost2010Prop51ColorRGB
 90
-16777216
102
RTVSPost2010PropOp51
 70
     0
102
RTVSPost2010Prop52
140
1.0
102
RTVSPost2010PropOp52
 70
     0
102
RTVSPost2010Prop53
 90
        2
102
RTVSPost2010PropOp53
 70
     1
102
RTVSPost2010Prop54
  1
strokes_ogs.tif
102
RTVSPost2010PropOp54
 70
     1
102
RTVSPost2010Prop55
280
     0
102
RTVSPost2010PropOp55
 70
     1
102
RTVSPost2010Prop56
140
1.0
102
RTVSPost2010PropOp56
 70
     1
102
RTVSPost2010Prop57
140
1.0
102
RTVSPost2010PropOp57
 70
     1
  0
XRECORD
  5
18A
102
{ACAD_REACTORS
330
189
102
}
330
189
100
AcDbXrecord
280
     1
102
RTVSPost2010Prop28
280
     0
102
RTVSPost2010PropOp28
 70
     0
102
RTVSPost2010Prop29
280
     1
102
RTVSPost2010PropOp29
 70
     0
102
RTVSPost2010Prop30
280
     1
102
RTVSPost2010PropOp30
 70
     0
102
RTVSPost2010Prop31
280
     0
102
RTVSPost2010PropOp31
 70
     0
102
RTVSPost2010Prop32
280
     0
102
RTVSPost2010PropOp32
 70
     0
102
RTVSPost2010Prop33
280
     0
102
RTVSPost2010PropOp33
 70
     0
102
RTVSPost2010Prop34
280
     0
102
RTVSPost2010PropOp34
 70
     0
102
RTVSPost2010Prop35
280
     0
102
RTVSPost2010PropOp35
 70
     0
102
RTVSPost2010Prop36
280
     0
102
RTVSPost2010PropOp36
 70
     0
102
RTVSPost2010Prop37
 90
       50
102
RTVSPost2010PropOp37
 70
     0
102
RTVSPost2010Prop38
140
0.0
102
RTVSPost2010PropOp38
 70
     0
102
RTVSPost2010Prop39
140
1.0
102
RTVSPost2010PropOp39
 70
     0
102
RTVSPost2010Prop40
 90
        0
102
RTVSPost2010PropOp40
 70
     0
102
RTVSPost2010Prop41ColorIndex
 90
       18
102
RTVSPost2010Prop41ColorRGB
 90
        0
102
RTVSPost2010PropOp41
 70
     0
102
RTVSPost2010Prop42
 90
       50
102
RTVSPost2010PropOp42
 70
     0
102
RTVSPost2010Prop43
 90
        3
102
RTVSPost2010PropOp43
 70
     0
102
RTVSPost2010Prop44ColorIndex
 90
        5
102
RTVSPost2010Prop44ColorRGB
 90
      255
102
RTVSPost2010PropOp44
 70
     0
102
RTVSPost2010Prop45
280
     0
102
RTVSPost2010PropOp45
 70
     0
102
RTVSPost2010Prop46
 90
       50
102
RTVSPost2010PropOp46
 70
     0
102
RTVSPost2010Prop47
 90
       50
102
RTVSPost2010PropOp47
 70
     0
102
RTVSPost2010Prop48
 90
       50
102
RTVSPost2010PropOp48
 70
     0
102
RTVSPost2010Prop49
280
     0
102
RTVSPost2010PropOp49
 70
     0
102
RTVSPost2010Prop50
 90
       50
102
RTVSPost2010PropOp50
 70
     0
102
RTVSPost2010Prop51ColorIndex
 90
      256
102
RTVSPost2010Prop51ColorRGB
 90
-16777216
102
RTVSPost2010PropOp51
 70
     0
102
RTVSPost2010Prop52
140
1.0
102
RTVSPost2010PropOp52
 70
     0
102
RTVSPost2010Prop53
 90
        2
102
RTVSPost2010PropOp53
 70
     0
102
RTVSPost2010Prop54
  1
strokes_ogs.tif
102
RTVSPost2010PropOp54
 70
     0
102
RTVSPost2010Prop55
280
     0
102
RTVSPost2010PropOp55
 70
     0
102
RTVSPost2010Prop56
140
1.0
102
RTVSPost2010PropOp56
 70
     0
102
RTVSPost2010Prop57
140
1.0
102
RTVSPost2010PropOp57
 70
     0
  0
XRECORD
  5
182
102
{ACAD_REACTORS
330
181
102
}
330
181
100
AcDbXrecord
280
     1
102
RTVSPost2010Prop28
280
     0
102
RTVSPost2010PropOp28
 70
     1
102
RTVSPost2010Prop29
280
     1
102
RTVSPost2010PropOp29
 70
     1
102
RTVSPost2010Prop30
280
     1
102
RTVSPost2010PropOp30
 70
     1
102
RTVSPost2010Prop31
280
     0
102
RTVSPost2010PropOp31
 70
     1
102
RTVSPost2010Prop32
280
     0
102
RTVSPost2010PropOp32
 70
     1
102
RTVSPost2010Prop33
280
     0
102
RTVSPost2010PropOp33
 70
     1
102
RTVSPost2010Prop34
280
     0
102
RTVSPost2010PropOp34
 70
     1
102
RTVSPost2010Prop35
280
     0
102
RTVSPost2010PropOp35
 70
     1
102
RTVSPost2010Prop36
280
     0
102
RTVSPost2010PropOp36
 70
     1
102
RTVSPost2010Prop37
 90
       50
102
RTVSPost2010PropOp37
 70
     1
102
RTVSPost2010Prop38
140
0.0
102
RTVSPost2010PropOp38
 70
     1
102
RTVSPost2010Prop39
140
1.0
102
RTVSPost2010PropOp39
 70
     1
102
RTVSPost2010Prop40
 90
        0
102
RTVSPost2010PropOp40
 70
     1
102
RTVSPost2010Prop41ColorIndex
 90
       18
102
RTVSPost2010Prop41ColorRGB
 90
        0
102
RTVSPost2010PropOp41
 70
     1
102
RTVSPost2010Prop42
 90
       50
102
RTVSPost2010PropOp42
 70
     1
102
RTVSPost2010Prop43
 90
        3
102
RTVSPost2010PropOp43
 70
     1
102
RTVSPost2010Prop44ColorIndex
 90
        5
102
RTVSPost2010Prop44ColorRGB
 90
      255
102
RTVSPost2010PropOp44
 70
     1
102
RTVSPost2010Prop45
280
     0
102
RTVSPost2010PropOp45
 70
     1
102
RTVSPost2010Prop46
 90
       50
102
RTVSPost2010PropOp46
 70
     1
102
RTVSPost2010Prop47
 90
       50
102
RTVSPost2010PropOp47
 70
     1
102
RTVSPost2010Prop48
 90
       50
102
RTVSPost2010PropOp48
 70
     1
102
RTVSPost2010Prop49
280
     0
102
RTVSPost2010PropOp49
 70
     1
102
RTVSPost2010Prop50
 90
       50
102
RTVSPost2010PropOp50
 70
     1
102
RTVSPost2010Prop51ColorIndex
 90
      256
102
RTVSPost2010Prop51ColorRGB
 90
-16777216
102
RTVSPost2010PropOp51
 70
     0
102
RTVSPost2010Prop52
140
1.0
102
RTVSPost2010PropOp52
 70
     0
102
RTVSPost2010Prop53
 90
        2
102
RTVSPost2010PropOp53
 70
     1
102
RTVSPost2010Prop54
  1
strokes_ogs.tif
102
RTVSPost2010PropOp54
 70
     1
102
RTVSPost2010Prop55
280
     0
102
RTVSPost2010PropOp55
 70
     1
102
RTVSPost2010Prop56
140
1.0
102
RTVSPost2010PropOp56
 70
     1
102
RTVSPost2010Prop57
140
1.0
102
RTVSPost2010PropOp57
 70
     1
  0
XRECORD
  5
166
102
{ACAD_REACTORS
330
165
102
}
330
165
100
AcDbXrecord
280
     1
102
RTVSPost2010Prop28
280
     0
102
RTVSPost2010PropOp28
 70
     1
102
RTVSPost2010Prop29
280
     1
102
RTVSPost2010PropOp29
 70
     1
102
RTVSPost2010Prop30
280
     1
102
RTVSPost2010PropOp30
 70
     1
102
RTVSPost2010Prop31
280
     0
102
RTVSPost2010PropOp31
 70
     1
102
RTVSPost2010Prop32
280
     0
102
RTVSPost2010PropOp32
 70
     1
102
RTVSPost2010Prop33
280
     0
102
RTVSPost2010PropOp33
 70
     1
102
RTVSPost2010Prop34
280
     0
102
RTVSPost2010PropOp34
 70
     1
102
RTVSPost2010Prop35
280
     0
102
RTVSPost2010PropOp35
 70
     1
102
RTVSPost2010Prop36
280
     0
102
RTVSPost2010PropOp36
 70
     1
102
RTVSPost2010Prop37
 90
       50
102
RTVSPost2010PropOp37
 70
     1
102
RTVSPost2010Prop38
140
0.0
102
RTVSPost2010PropOp38
 70
     1
102
RTVSPost2010Prop39
140
1.0
102
RTVSPost2010PropOp39
 70
     1
102
RTVSPost2010Prop40
 90
        0
102
RTVSPost2010PropOp40
 70
     1
102
RTVSPost2010Prop41ColorIndex
 90
       18
102
RTVSPost2010Prop41ColorRGB
 90
        0
102
RTVSPost2010PropOp41
 70
     1
102
RTVSPost2010Prop42
 90
       50
102
RTVSPost2010PropOp42
 70
     1
102
RTVSPost2010Prop43
 90
        3
102
RTVSPost2010PropOp43
 70
     1
102
RTVSPost2010Prop44ColorIndex
 90
        5
102
RTVSPost2010Prop44ColorRGB
 90
      255
102
RTVSPost2010PropOp44
 70
     1
102
RTVSPost2010Prop45
280
     0
102
RTVSPost2010PropOp45
 70
     1
102
RTVSPost2010Prop46
 90
       50
102
RTVSPost2010PropOp46
 70
     1
102
RTVSPost2010Prop47
 90
       50
102
RTVSPost2010PropOp47
 70
     1
102
RTVSPost2010Prop48
 90
       50
102
RTVSPost2010PropOp48
 70
     1
102
RTVSPost2010Prop49
280
     0
102
RTVSPost2010PropOp49
 70
     1
102
RTVSPost2010Prop50
 90
       50
102
RTVSPost2010PropOp50
 70
     1
102
RTVSPost2010Prop51ColorIndex
 90
      256
102
RTVSPost2010Prop51ColorRGB
 90
-16777216
102
RTVSPost2010PropOp51
 70
     0
102
RTVSPost2010Prop52
140
1.0
102
RTVSPost2010PropOp52
 70
     0
102
RTVSPost2010Prop53
 90
        2
102
RTVSPost2010PropOp53
 70
     1
102
RTVSPost2010Prop54
  1
strokes_ogs.tif
102
RTVSPost2010PropOp54
 70
     1
102
RTVSPost2010Prop55
280
     0
102
RTVSPost2010PropOp55
 70
     1
102
RTVSPost2010Prop56
140
1.0
102
RTVSPost2010PropOp56
 70
     1
102
RTVSPost2010Prop57
140
1.0
102
RTVSPost2010PropOp57
 70
     1
  0
XRECORD
  5
168
102
{ACAD_REACTORS
330
167
102
}
330
167
100
AcDbXrecord
280
     1
102
RTVSPost2010Prop28
280
     0
102
RTVSPost2010PropOp28
 70
     1
102
RTVSPost2010Prop29
280
     1
102
RTVSPost2010PropOp29
 70
     1
102
RTVSPost2010Prop30
280
     1
102
RTVSPost2010PropOp30
 70
     1
102
RTVSPost2010Prop31
280
     0
102
RTVSPost2010PropOp31
 70
     1
102
RTVSPost2010Prop32
280
     0
102
RTVSPost2010PropOp32
 70
     1
102
RTVSPost2010Prop33
280
     0
102
RTVSPost2010PropOp33
 70
     1
102
RTVSPost2010Prop34
280
     0
102
RTVSPost2010PropOp34
 70
     1
102
RTVSPost2010Prop35
280
     0
102
RTVSPost2010PropOp35
 70
     1
102
RTVSPost2010Prop36
280
     0
102
RTVSPost2010PropOp36
 70
     1
102
RTVSPost2010Prop37
 90
       50
102
RTVSPost2010PropOp37
 70
     1
102
RTVSPost2010Prop38
140
0.0
102
RTVSPost2010PropOp38
 70
     1
102
RTVSPost2010Prop39
140
1.0
102
RTVSPost2010PropOp39
 70
     1
102
RTVSPost2010Prop40
 90
        0
102
RTVSPost2010PropOp40
 70
     1
102
RTVSPost2010Prop41ColorIndex
 90
       18
102
RTVSPost2010Prop41ColorRGB
 90
        0
102
RTVSPost2010PropOp41
 70
     1
102
RTVSPost2010Prop42
 90
       50
102
RTVSPost2010PropOp42
 70
     1
102
RTVSPost2010Prop43
 90
        3
102
RTVSPost2010PropOp43
 70
     1
102
RTVSPost2010Prop44ColorIndex
 90
        5
102
RTVSPost2010Prop44ColorRGB
 90
      255
102
RTVSPost2010PropOp44
 70
     1
102
RTVSPost2010Prop45
280
     0
102
RTVSPost2010PropOp45
 70
     1
102
RTVSPost2010Prop46
 90
       50
102
RTVSPost2010PropOp46
 70
     1
102
RTVSPost2010Prop47
 90
       50
102
RTVSPost2010PropOp47
 70
     1
102
RTVSPost2010Prop48
 90
       50
102
RTVSPost2010PropOp48
 70
     1
102
RTVSPost2010Prop49
280
     0
102
RTVSPost2010PropOp49
 70
     1
102
RTVSPost2010Prop50
 90
       50
102
RTVSPost2010PropOp50
 70
     1
102
RTVSPost2010Prop51ColorIndex
 90
      256
102
RTVSPost2010Prop51ColorRGB
 90
-16777216
102
RTVSPost2010PropOp51
 70
     0
102
RTVSPost2010Prop52
140
1.0
102
RTVSPost2010PropOp52
 70
     0
102
RTVSPost2010Prop53
 90
        2
102
RTVSPost2010PropOp53
 70
     1
102
RTVSPost2010Prop54
  1
strokes_ogs.tif
102
RTVSPost2010PropOp54
 70
     1
102
RTVSPost2010Prop55
280
     0
102
RTVSPost2010PropOp55
 70
     1
102
RTVSPost2010Prop56
140
1.0
102
RTVSPost2010PropOp56
 70
     1
102
RTVSPost2010Prop57
140
1.0
102
RTVSPost2010PropOp57
 70
     1
  0
XRECORD
  5
16A
102
{ACAD_REACTORS
330
169
102
}
330
169
100
AcDbXrecord
280
     1
102
RTVSPost2010Prop28
280
     0
102
RTVSPost2010PropOp28
 70
     1
102
RTVSPost2010Prop29
280
     1
102
RTVSPost2010PropOp29
 70
     1
102
RTVSPost2010Prop30
280
     1
102
RTVSPost2010PropOp30
 70
     1
102
RTVSPost2010Prop31
280
     0
102
RTVSPost2010PropOp31
 70
     1
102
RTVSPost2010Prop32
280
     0
102
RTVSPost2010PropOp32
 70
     1
102
RTVSPost2010Prop33
280
     0
102
RTVSPost2010PropOp33
 70
     1
102
RTVSPost2010Prop34
280
     0
102
RTVSPost2010PropOp34
 70
     1
102
RTVSPost2010Prop35
280
     0
102
RTVSPost2010PropOp35
 70
     1
102
RTVSPost2010Prop36
280
     0
102
RTVSPost2010PropOp36
 70
     1
102
RTVSPost2010Prop37
 90
       50
102
RTVSPost2010PropOp37
 70
     1
102
RTVSPost2010Prop38
140
0.0
102
RTVSPost2010PropOp38
 70
     1
102
RTVSPost2010Prop39
140
1.0
102
RTVSPost2010PropOp39
 70
     1
102
RTVSPost2010Prop40
 90
        0
102
RTVSPost2010PropOp40
 70
     1
102
RTVSPost2010Prop41ColorIndex
 90
       18
102
RTVSPost2010Prop41ColorRGB
 90
        0
102
RTVSPost2010PropOp41
 70
     1
102
RTVSPost2010Prop42
 90
       50
102
RTVSPost2010PropOp42
 70
     1
102
RTVSPost2010Prop43
 90
        3
102
RTVSPost2010PropOp43
 70
     1
102
RTVSPost2010Prop44ColorIndex
 90
        5
102
RTVSPost2010Prop44ColorRGB
 90
      255
102
RTVSPost2010PropOp44
 70
     1
102
RTVSPost2010Prop45
280
     0
102
RTVSPost2010PropOp45
 70
     1
102
RTVSPost2010Prop46
 90
       50
102
RTVSPost2010PropOp46
 70
     1
102
RTVSPost2010Prop47
 90
       50
102
RTVSPost2010PropOp47
 70
     1
102
RTVSPost2010Prop48
 90
       50
102
RTVSPost2010PropOp48
 70
     1
102
RTVSPost2010Prop49
280
     0
102
RTVSPost2010PropOp49
 70
     1
102
RTVSPost2010Prop50
 90
       50
102
RTVSPost2010PropOp50
 70
     1
102
RTVSPost2010Prop51ColorIndex
 90
      256
102
RTVSPost2010Prop51ColorRGB
 90
-16777216
102
RTVSPost2010PropOp51
 70
     0
102
RTVSPost2010Prop52
140
1.0
102
RTVSPost2010PropOp52
 70
     0
102
RTVSPost2010Prop53
 90
        2
102
RTVSPost2010PropOp53
 70
     1
102
RTVSPost2010Prop54
  1
strokes_ogs.tif
102
RTVSPost2010PropOp54
 70
     1
102
RTVSPost2010Prop55
280
     0
102
RTVSPost2010PropOp55
 70
     1
102
RTVSPost2010Prop56
140
1.0
102
RTVSPost2010PropOp56
 70
     1
102
RTVSPost2010Prop57
140
1.0
102
RTVSPost2010PropOp57
 70
     1
  0
XRECORD
  5
16C
102
{ACAD_REACTORS
330
16B
102
}
330
16B
100
AcDbXrecord
280
     1
102
RTVSPost2010Prop28
280
     0
102
RTVSPost2010PropOp28
 70
     1
102
RTVSPost2010Prop29
280
     1
102
RTVSPost2010PropOp29
 70
     1
102
RTVSPost2010Prop30
280
     1
102
RTVSPost2010PropOp30
 70
     1
102
RTVSPost2010Prop31
280
     0
102
RTVSPost2010PropOp31
 70
     1
102
RTVSPost2010Prop32
280
     0
102
RTVSPost2010PropOp32
 70
     1
102
RTVSPost2010Prop33
280
     0
102
RTVSPost2010PropOp33
 70
     1
102
RTVSPost2010Prop34
280
     0
102
RTVSPost2010PropOp34
 70
     1
102
RTVSPost2010Prop35
280
     0
102
RTVSPost2010PropOp35
 70
     1
102
RTVSPost2010Prop36
280
     0
102
RTVSPost2010PropOp36
 70
     1
102
RTVSPost2010Prop37
 90
       50
102
RTVSPost2010PropOp37
 70
     1
102
RTVSPost2010Prop38
140
0.0
102
RTVSPost2010PropOp38
 70
     1
102
RTVSPost2010Prop39
140
1.0
102
RTVSPost2010PropOp39
 70
     1
102
RTVSPost2010Prop40
 90
        0
102
RTVSPost2010PropOp40
 70
     1
102
RTVSPost2010Prop41ColorIndex
 90
       18
102
RTVSPost2010Prop41ColorRGB
 90
        0
102
RTVSPost2010PropOp41
 70
     1
102
RTVSPost2010Prop42
 90
       50
102
RTVSPost2010PropOp42
 70
     1
102
RTVSPost2010Prop43
 90
        3
102
RTVSPost2010PropOp43
 70
     1
102
RTVSPost2010Prop44ColorIndex
 90
        5
102
RTVSPost2010Prop44ColorRGB
 90
      255
102
RTVSPost2010PropOp44
 70
     1
102
RTVSPost2010Prop45
280
     0
102
RTVSPost2010PropOp45
 70
     1
102
RTVSPost2010Prop46
 90
       50
102
RTVSPost2010PropOp46
 70
     1
102
RTVSPost2010Prop47
 90
       50
102
RTVSPost2010PropOp47
 70
     1
102
RTVSPost2010Prop48
 90
       50
102
RTVSPost2010PropOp48
 70
     1
102
RTVSPost2010Prop49
280
     0
102
RTVSPost2010PropOp49
 70
     1
102
RTVSPost2010Prop50
 90
       50
102
RTVSPost2010PropOp50
 70
     1
102
RTVSPost2010Prop51ColorIndex
 90
      256
102
RTVSPost2010Prop51ColorRGB
 90
-16777216
102
RTVSPost2010PropOp51
 70
     0
102
RTVSPost2010Prop52
140
1.0
102
RTVSPost2010PropOp52
 70
     0
102
RTVSPost2010Prop53
 90
        2
102
RTVSPost2010PropOp53
 70
     1
102
RTVSPost2010Prop54
  1
strokes_ogs.tif
102
RTVSPost2010PropOp54
 70
     1
102
RTVSPost2010Prop55
280
     0
102
RTVSPost2010PropOp55
 70
     1
102
RTVSPost2010Prop56
140
1.0
102
RTVSPost2010PropOp56
 70
     1
102
RTVSPost2010Prop57
140
1.0
102
RTVSPost2010PropOp57
 70
     1
  0
XRECORD
  5
172
102
{ACAD_REACTORS
330
171
102
}
330
171
100
AcDbXrecord
280
     1
102
RTVSPost2010Prop28
280
     0
102
RTVSPost2010PropOp28
 70
     1
102
RTVSPost2010Prop29
280
     1
102
RTVSPost2010PropOp29
 70
     1
102
RTVSPost2010Prop30
280
     1
102
RTVSPost2010PropOp30
 70
     1
102
RTVSPost2010Prop31
280
     0
102
RTVSPost2010PropOp31
 70
     1
102
RTVSPost2010Prop32
280
     0
102
RTVSPost2010PropOp32
 70
     1
102
RTVSPost2010Prop33
280
     0
102
RTVSPost2010PropOp33
 70
     1
102
RTVSPost2010Prop34
280
     0
102
RTVSPost2010PropOp34
 70
     1
102
RTVSPost2010Prop35
280
     0
102
RTVSPost2010PropOp35
 70
     1
102
RTVSPost2010Prop36
280
     0
102
RTVSPost2010PropOp36
 70
     1
102
RTVSPost2010Prop37
 90
       50
102
RTVSPost2010PropOp37
 70
     1
102
RTVSPost2010Prop38
140
0.0
102
RTVSPost2010PropOp38
 70
     1
102
RTVSPost2010Prop39
140
1.0
102
RTVSPost2010PropOp39
 70
     1
102
RTVSPost2010Prop40
 90
        0
102
RTVSPost2010PropOp40
 70
     1
102
RTVSPost2010Prop41ColorIndex
 90
       18
102
RTVSPost2010Prop41ColorRGB
 90
        0
102
RTVSPost2010PropOp41
 70
     1
102
RTVSPost2010Prop42
 90
       50
102
RTVSPost2010PropOp42
 70
     1
102
RTVSPost2010Prop43
 90
        3
102
RTVSPost2010PropOp43
 70
     1
102
RTVSPost2010Prop44ColorIndex
 90
        5
102
RTVSPost2010Prop44ColorRGB
 90
      255
102
RTVSPost2010PropOp44
 70
     1
102
RTVSPost2010Prop45
280
     0
102
RTVSPost2010PropOp45
 70
     1
102
RTVSPost2010Prop46
 90
       50
102
RTVSPost2010PropOp46
 70
     1
102
RTVSPost2010Prop47
 90
       50
102
RTVSPost2010PropOp47
 70
     1
102
RTVSPost2010Prop48
 90
       50
102
RTVSPost2010PropOp48
 70
     1
102
RTVSPost2010Prop49
280
     0
102
RTVSPost2010PropOp49
 70
     1
102
RTVSPost2010Prop50
 90
       50
102
RTVSPost2010PropOp50
 70
     1
102
RTVSPost2010Prop51ColorIndex
 90
      256
102
RTVSPost2010Prop51ColorRGB
 90
-16777216
102
RTVSPost2010PropOp51
 70
     0
102
RTVSPost2010Prop52
140
1.0
102
RTVSPost2010PropOp52
 70
     0
102
RTVSPost2010Prop53
 90
        2
102
RTVSPost2010PropOp53
 70
     1
102
RTVSPost2010Prop54
  1
strokes_ogs.tif
102
RTVSPost2010PropOp54
 70
     1
102
RTVSPost2010Prop55
280
     0
102
RTVSPost2010PropOp55
 70
     1
102
RTVSPost2010Prop56
140
1.0
102
RTVSPost2010PropOp56
 70
     1
102
RTVSPost2010Prop57
140
1.0
102
RTVSPost2010PropOp57
 70
     1
  0
XRECORD
  5
186
102
{ACAD_REACTORS
330
185
102
}
330
185
100
AcDbXrecord
280
     1
102
RTVSPost2010Prop28
280
     0
102
RTVSPost2010PropOp28
 70
     0
102
RTVSPost2010Prop29
280
     1
102
RTVSPost2010PropOp29
 70
     0
102
RTVSPost2010Prop30
280
     1
102
RTVSPost2010PropOp30
 70
     0
102
RTVSPost2010Prop31
280
     0
102
RTVSPost2010PropOp31
 70
     0
102
RTVSPost2010Prop32
280
     0
102
RTVSPost2010PropOp32
 70
     0
102
RTVSPost2010Prop33
280
     0
102
RTVSPost2010PropOp33
 70
     0
102
RTVSPost2010Prop34
280
     0
102
RTVSPost2010PropOp34
 70
     0
102
RTVSPost2010Prop35
280
     0
102
RTVSPost2010PropOp35
 70
     0
102
RTVSPost2010Prop36
280
     0
102
RTVSPost2010PropOp36
 70
     0
102
RTVSPost2010Prop37
 90
       50
102
RTVSPost2010PropOp37
 70
     0
102
RTVSPost2010Prop38
140
0.0
102
RTVSPost2010PropOp38
 70
     0
102
RTVSPost2010Prop39
140
1.0
102
RTVSPost2010PropOp39
 70
     0
102
RTVSPost2010Prop40
 90
        0
102
RTVSPost2010PropOp40
 70
     0
102
RTVSPost2010Prop41ColorIndex
 90
       18
102
RTVSPost2010Prop41ColorRGB
 90
        0
102
RTVSPost2010PropOp41
 70
     0
102
RTVSPost2010Prop42
 90
       50
102
RTVSPost2010PropOp42
 70
     0
102
RTVSPost2010Prop43
 90
        3
102
RTVSPost2010PropOp43
 70
     0
102
RTVSPost2010Prop44ColorIndex
 90
        5
102
RTVSPost2010Prop44ColorRGB
 90
      255
102
RTVSPost2010PropOp44
 70
     0
102
RTVSPost2010Prop45
280
     0
102
RTVSPost2010PropOp45
 70
     0
102
RTVSPost2010Prop46
 90
       50
102
RTVSPost2010PropOp46
 70
     0
102
RTVSPost2010Prop47
 90
       50
102
RTVSPost2010PropOp47
 70
     0
102
RTVSPost2010Prop48
 90
       50
102
RTVSPost2010PropOp48
 70
     0
102
RTVSPost2010Prop49
280
     0
102
RTVSPost2010PropOp49
 70
     0
102
RTVSPost2010Prop50
 90
       50
102
RTVSPost2010PropOp50
 70
     0
102
RTVSPost2010Prop51ColorIndex
 90
      256
102
RTVSPost2010Prop51ColorRGB
 90
-16777216
102
RTVSPost2010PropOp51
 70
     0
102
RTVSPost2010Prop52
140
1.0
102
RTVSPost2010PropOp52
 70
     0
102
RTVSPost2010Prop53
 90
        2
102
RTVSPost2010PropOp53
 70
     0
102
RTVSPost2010Prop54
  1
strokes_ogs.tif
102
RTVSPost2010PropOp54
 70
     0
102
RTVSPost2010Prop55
280
     0
102
RTVSPost2010PropOp55
 70
     0
102
RTVSPost2010Prop56
140
1.0
102
RTVSPost2010PropOp56
 70
     0
102
RTVSPost2010Prop57
140
1.0
102
RTVSPost2010PropOp57
 70
     0
  0
XRECORD
  5
180
102
{ACAD_REACTORS
330
17F
102
}
330
17F
100
AcDbXrecord
280
     1
102
RTVSPost2010Prop28
280
     0
102
RTVSPost2010PropOp28
 70
     1
102
RTVSPost2010Prop29
280
     1
102
RTVSPost2010PropOp29
 70
     1
102
RTVSPost2010Prop30
280
     1
102
RTVSPost2010PropOp30
 70
     1
102
RTVSPost2010Prop31
280
     0
102
RTVSPost2010PropOp31
 70
     1
102
RTVSPost2010Prop32
280
     0
102
RTVSPost2010PropOp32
 70
     1
102
RTVSPost2010Prop33
280
     0
102
RTVSPost2010PropOp33
 70
     1
102
RTVSPost2010Prop34
280
     0
102
RTVSPost2010PropOp34
 70
     1
102
RTVSPost2010Prop35
280
     0
102
RTVSPost2010PropOp35
 70
     1
102
RTVSPost2010Prop36
280
     0
102
RTVSPost2010PropOp36
 70
     1
102
RTVSPost2010Prop37
 90
       50
102
RTVSPost2010PropOp37
 70
     1
102
RTVSPost2010Prop38
140
0.0
102
RTVSPost2010PropOp38
 70
     1
102
RTVSPost2010Prop39
140
1.0
102
RTVSPost2010PropOp39
 70
     1
102
RTVSPost2010Prop40
 90
        0
102
RTVSPost2010PropOp40
 70
     1
102
RTVSPost2010Prop41ColorIndex
 90
       18
102
RTVSPost2010Prop41ColorRGB
 90
        0
102
RTVSPost2010PropOp41
 70
     1
102
RTVSPost2010Prop42
 90
       50
102
RTVSPost2010PropOp42
 70
     1
102
RTVSPost2010Prop43
 90
        3
102
RTVSPost2010PropOp43
 70
     1
102
RTVSPost2010Prop44ColorIndex
 90
        5
102
RTVSPost2010Prop44ColorRGB
 90
      255
102
RTVSPost2010PropOp44
 70
     1
102
RTVSPost2010Prop45
280
     0
102
RTVSPost2010PropOp45
 70
     1
102
RTVSPost2010Prop46
 90
       50
102
RTVSPost2010PropOp46
 70
     1
102
RTVSPost2010Prop47
 90
       50
102
RTVSPost2010PropOp47
 70
     1
102
RTVSPost2010Prop48
 90
       50
102
RTVSPost2010PropOp48
 70
     1
102
RTVSPost2010Prop49
280
     0
102
RTVSPost2010PropOp49
 70
     1
102
RTVSPost2010Prop50
 90
       50
102
RTVSPost2010PropOp50
 70
     1
102
RTVSPost2010Prop51ColorIndex
 90
      256
102
RTVSPost2010Prop51ColorRGB
 90
-16777216
102
RTVSPost2010PropOp51
 70
     0
102
RTVSPost2010Prop52
140
1.0
102
RTVSPost2010PropOp52
 70
     0
102
RTVSPost2010Prop53
 90
        2
102
RTVSPost2010PropOp53
 70
     1
102
RTVSPost2010Prop54
  1
strokes_ogs.tif
102
RTVSPost2010PropOp54
 70
     1
102
RTVSPost2010Prop55
280
     0
102
RTVSPost2010PropOp55
 70
     1
102
RTVSPost2010Prop56
140
1.0
102
RTVSPost2010PropOp56
 70
     1
102
RTVSPost2010Prop57
140
1.0
102
RTVSPost2010PropOp57
 70
     1
  0
XRECORD
  5
188
102
{ACAD_REACTORS
330
187
102
}
330
187
100
AcDbXrecord
280
     1
102
RTVSPost2010Prop28
280
     0
102
RTVSPost2010PropOp28
 70
     0
102
RTVSPost2010Prop29
280
     1
102
RTVSPost2010PropOp29
 70
     0
102
RTVSPost2010Prop30
280
     1
102
RTVSPost2010PropOp30
 70
     0
102
RTVSPost2010Prop31
280
     0
102
RTVSPost2010PropOp31
 70
     0
102
RTVSPost2010Prop32
280
     0
102
RTVSPost2010PropOp32
 70
     0
102
RTVSPost2010Prop33
280
     0
102
RTVSPost2010PropOp33
 70
     0
102
RTVSPost2010Prop34
280
     0
102
RTVSPost2010PropOp34
 70
     0
102
RTVSPost2010Prop35
280
     0
102
RTVSPost2010PropOp35
 70
     0
102
RTVSPost2010Prop36
280
     0
102
RTVSPost2010PropOp36
 70
     0
102
RTVSPost2010Prop37
 90
       50
102
RTVSPost2010PropOp37
 70
     0
102
RTVSPost2010Prop38
140
0.0
102
RTVSPost2010PropOp38
 70
     0
102
RTVSPost2010Prop39
140
1.0
102
RTVSPost2010PropOp39
 70
     0
102
RTVSPost2010Prop40
 90
        0
102
RTVSPost2010PropOp40
 70
     0
102
RTVSPost2010Prop41ColorIndex
 90
       18
102
RTVSPost2010Prop41ColorRGB
 90
        0
102
RTVSPost2010PropOp41
 70
     0
102
RTVSPost2010Prop42
 90
       50
102
RTVSPost2010PropOp42
 70
     0
102
RTVSPost2010Prop43
 90
        3
102
RTVSPost2010PropOp43
 70
     0
102
RTVSPost2010Prop44ColorIndex
 90
        5
102
RTVSPost2010Prop44ColorRGB
 90
      255
102
RTVSPost2010PropOp44
 70
     0
102
RTVSPost2010Prop45
280
     0
102
RTVSPost2010PropOp45
 70
     0
102
RTVSPost2010Prop46
 90
       50
102
RTVSPost2010PropOp46
 70
     0
102
RTVSPost2010Prop47
 90
       50
102
RTVSPost2010PropOp47
 70
     0
102
RTVSPost2010Prop48
 90
       50
102
RTVSPost2010PropOp48
 70
     0
102
RTVSPost2010Prop49
280
     0
102
RTVSPost2010PropOp49
 70
     0
102
RTVSPost2010Prop50
 90
       50
102
RTVSPost2010PropOp50
 70
     0
102
RTVSPost2010Prop51ColorIndex
 90
      256
102
RTVSPost2010Prop51ColorRGB
 90
-16777216
102
RTVSPost2010PropOp51
 70
     0
102
RTVSPost2010Prop52
140
1.0
102
RTVSPost2010PropOp52
 70
     0
102
RTVSPost2010Prop53
 90
        2
102
RTVSPost2010PropOp53
 70
     0
102
RTVSPost2010Prop54
  1
strokes_ogs.tif
102
RTVSPost2010PropOp54
 70
     0
102
RTVSPost2010Prop55
280
     0
102
RTVSPost2010PropOp55
 70
     0
102
RTVSPost2010Prop56
140
1.0
102
RTVSPost2010PropOp56
 70
     0
102
RTVSPost2010Prop57
140
1.0
102
RTVSPost2010PropOp57
 70
     0
  0
XRECORD
  5
176
102
{ACAD_REACTORS
330
175
102
}
330
175
100
AcDbXrecord
280
     1
102
RTVSPost2010Prop28
280
     0
102
RTVSPost2010PropOp28
 70
     1
102
RTVSPost2010Prop29
280
     1
102
RTVSPost2010PropOp29
 70
     1
102
RTVSPost2010Prop30
280
     1
102
RTVSPost2010PropOp30
 70
     1
102
RTVSPost2010Prop31
280
     0
102
RTVSPost2010PropOp31
 70
     1
102
RTVSPost2010Prop32
280
     0
102
RTVSPost2010PropOp32
 70
     1
102
RTVSPost2010Prop33
280
     0
102
RTVSPost2010PropOp33
 70
     1
102
RTVSPost2010Prop34
280
     0
102
RTVSPost2010PropOp34
 70
     1
102
RTVSPost2010Prop35
280
     0
102
RTVSPost2010PropOp35
 70
     1
102
RTVSPost2010Prop36
280
     0
102
RTVSPost2010PropOp36
 70
     1
102
RTVSPost2010Prop37
 90
       50
102
RTVSPost2010PropOp37
 70
     1
102
RTVSPost2010Prop38
140
0.0
102
RTVSPost2010PropOp38
 70
     1
102
RTVSPost2010Prop39
140
1.0
102
RTVSPost2010PropOp39
 70
     1
102
RTVSPost2010Prop40
 90
        0
102
RTVSPost2010PropOp40
 70
     1
102
RTVSPost2010Prop41ColorIndex
 90
       18
102
RTVSPost2010Prop41ColorRGB
 90
        0
102
RTVSPost2010PropOp41
 70
     1
102
RTVSPost2010Prop42
 90
       50
102
RTVSPost2010PropOp42
 70
     1
102
RTVSPost2010Prop43
 90
        3
102
RTVSPost2010PropOp43
 70
     1
102
RTVSPost2010Prop44ColorIndex
 90
        5
102
RTVSPost2010Prop44ColorRGB
 90
      255
102
RTVSPost2010PropOp44
 70
     1
102
RTVSPost2010Prop45
280
     0
102
RTVSPost2010PropOp45
 70
     1
102
RTVSPost2010Prop46
 90
       50
102
RTVSPost2010PropOp46
 70
     1
102
RTVSPost2010Prop47
 90
       50
102
RTVSPost2010PropOp47
 70
     1
102
RTVSPost2010Prop48
 90
       50
102
RTVSPost2010PropOp48
 70
     1
102
RTVSPost2010Prop49
280
     0
102
RTVSPost2010PropOp49
 70
     1
102
RTVSPost2010Prop50
 90
       50
102
RTVSPost2010PropOp50
 70
     1
102
RTVSPost2010Prop51ColorIndex
 90
      256
102
RTVSPost2010Prop51ColorRGB
 90
-16777216
102
RTVSPost2010PropOp51
 70
     0
102
RTVSPost2010Prop52
140
1.0
102
RTVSPost2010PropOp52
 70
     0
102
RTVSPost2010Prop53
 90
        2
102
RTVSPost2010PropOp53
 70
     1
102
RTVSPost2010Prop54
  1
strokes_ogs.tif
102
RTVSPost2010PropOp54
 70
     1
102
RTVSPost2010Prop55
280
     0
102
RTVSPost2010PropOp55
 70
     1
102
RTVSPost2010Prop56
140
1.0
102
RTVSPost2010PropOp56
 70
     1
102
RTVSPost2010Prop57
140
1.0
102
RTVSPost2010PropOp57
 70
     1
  0
XRECORD
  5
194
102
{ACAD_REACTORS
330
193
102
}
330
193
100
AcDbXrecord
280
     1
102
RTVSPost2010Prop28
280
     0
102
RTVSPost2010PropOp28
 70
     1
102
RTVSPost2010Prop29
280
     1
102
RTVSPost2010PropOp29
 70
     1
102
RTVSPost2010Prop30
280
     1
102
RTVSPost2010PropOp30
 70
     1
102
RTVSPost2010Prop31
280
     0
102
RTVSPost2010PropOp31
 70
     1
102
RTVSPost2010Prop32
280
     0
102
RTVSPost2010PropOp32
 70
     1
102
RTVSPost2010Prop33
280
     0
102
RTVSPost2010PropOp33
 70
     1
102
RTVSPost2010Prop34
280
     0
102
RTVSPost2010PropOp34
 70
     1
102
RTVSPost2010Prop35
280
     0
102
RTVSPost2010PropOp35
 70
     1
102
RTVSPost2010Prop36
280
     0
102
RTVSPost2010PropOp36
 70
     1
102
RTVSPost2010Prop37
 90
       50
102
RTVSPost2010PropOp37
 70
     1
102
RTVSPost2010Prop38
140
0.0
102
RTVSPost2010PropOp38
 70
     1
102
RTVSPost2010Prop39
140
1.0
102
RTVSPost2010PropOp39
 70
     1
102
RTVSPost2010Prop40
 90
        0
102
RTVSPost2010PropOp40
 70
     1
102
RTVSPost2010Prop41ColorIndex
 90
       18
102
RTVSPost2010Prop41ColorRGB
 90
        0
102
RTVSPost2010PropOp41
 70
     1
102
RTVSPost2010Prop42
 90
       50
102
RTVSPost2010PropOp42
 70
     1
102
RTVSPost2010Prop43
 90
        3
102
RTVSPost2010PropOp43
 70
     1
102
RTVSPost2010Prop44ColorIndex
 90
        5
102
RTVSPost2010Prop44ColorRGB
 90
      255
102
RTVSPost2010PropOp44
 70
     1
102
RTVSPost2010Prop45
280
     0
102
RTVSPost2010PropOp45
 70
     1
102
RTVSPost2010Prop46
 90
       50
102
RTVSPost2010PropOp46
 70
     1
102
RTVSPost2010Prop47
 90
       50
102
RTVSPost2010PropOp47
 70
     1
102
RTVSPost2010Prop48
 90
       50
102
RTVSPost2010PropOp48
 70
     1
102
RTVSPost2010Prop49
280
     0
102
RTVSPost2010PropOp49
 70
     1
102
RTVSPost2010Prop50
 90
       50
102
RTVSPost2010PropOp50
 70
     1
102
RTVSPost2010Prop51ColorIndex
 90
      256
102
RTVSPost2010Prop51ColorRGB
 90
-16777216
102
RTVSPost2010PropOp51
 70
     0
102
RTVSPost2010Prop52
140
1.0
102
RTVSPost2010PropOp52
 70
     0
102
RTVSPost2010Prop53
 90
        2
102
RTVSPost2010PropOp53
 70
     1
102
RTVSPost2010Prop54
  1
strokes_ogs.tif
102
RTVSPost2010PropOp54
 70
     1
102
RTVSPost2010Prop55
280
     0
102
RTVSPost2010PropOp55
 70
     1
102
RTVSPost2010Prop56
140
1.0
102
RTVSPost2010PropOp56
 70
     1
102
RTVSPost2010Prop57
140
1.0
102
RTVSPost2010PropOp57
 70
     1
  0
XRECORD
  5
192
102
{ACAD_REACTORS
330
191
102
}
330
191
100
AcDbXrecord
280
     1
102
RTVSPost2010Prop28
280
     0
102
RTVSPost2010PropOp28
 70
     1
102
RTVSPost2010Prop29
280
     1
102
RTVSPost2010PropOp29
 70
     1
102
RTVSPost2010Prop30
280
     1
102
RTVSPost2010PropOp30
 70
     1
102
RTVSPost2010Prop31
280
     0
102
RTVSPost2010PropOp31
 70
     1
102
RTVSPost2010Prop32
280
     0
102
RTVSPost2010PropOp32
 70
     1
102
RTVSPost2010Prop33
280
     0
102
RTVSPost2010PropOp33
 70
     1
102
RTVSPost2010Prop34
280
     0
102
RTVSPost2010PropOp34
 70
     1
102
RTVSPost2010Prop35
280
     0
102
RTVSPost2010PropOp35
 70
     1
102
RTVSPost2010Prop36
280
     0
102
RTVSPost2010PropOp36
 70
     1
102
RTVSPost2010Prop37
 90
       50
102
RTVSPost2010PropOp37
 70
     1
102
RTVSPost2010Prop38
140
0.0
102
RTVSPost2010PropOp38
 70
     1
102
RTVSPost2010Prop39
140
1.0
102
RTVSPost2010PropOp39
 70
     1
102
RTVSPost2010Prop40
 90
        0
102
RTVSPost2010PropOp40
 70
     1
102
RTVSPost2010Prop41ColorIndex
 90
       18
102
RTVSPost2010Prop41ColorRGB
 90
        0
102
RTVSPost2010PropOp41
 70
     1
102
RTVSPost2010Prop42
 90
       50
102
RTVSPost2010PropOp42
 70
     1
102
RTVSPost2010Prop43
 90
        3
102
RTVSPost2010PropOp43
 70
     1
102
RTVSPost2010Prop44ColorIndex
 90
        5
102
RTVSPost2010Prop44ColorRGB
 90
      255
102
RTVSPost2010PropOp44
 70
     1
102
RTVSPost2010Prop45
280
     0
102
RTVSPost2010PropOp45
 70
     1
102
RTVSPost2010Prop46
 90
       50
102
RTVSPost2010PropOp46
 70
     1
102
RTVSPost2010Prop47
 90
       50
102
RTVSPost2010PropOp47
 70
     1
102
RTVSPost2010Prop48
 90
       50
102
RTVSPost2010PropOp48
 70
     1
102
RTVSPost2010Prop49
280
     0
102
RTVSPost2010PropOp49
 70
     1
102
RTVSPost2010Prop50
 90
       50
102
RTVSPost2010PropOp50
 70
     1
102
RTVSPost2010Prop51ColorIndex
 90
      256
102
RTVSPost2010Prop51ColorRGB
 90
-16777216
102
RTVSPost2010PropOp51
 70
     0
102
RTVSPost2010Prop52
140
1.0
102
RTVSPost2010PropOp52
 70
     0
102
RTVSPost2010Prop53
 90
        2
102
RTVSPost2010PropOp53
 70
     1
102
RTVSPost2010Prop54
  1
strokes_ogs.tif
102
RTVSPost2010PropOp54
 70
     1
102
RTVSPost2010Prop55
280
     0
102
RTVSPost2010PropOp55
 70
     1
102
RTVSPost2010Prop56
140
1.0
102
RTVSPost2010PropOp56
 70
     1
102
RTVSPost2010Prop57
140
1.0
102
RTVSPost2010PropOp57
 70
     1
  0
XRECORD
  5
18C
102
{ACAD_REACTORS
330
18B
102
}
330
18B
100
AcDbXrecord
280
     1
102
RTVSPost2010Prop28
280
     0
102
RTVSPost2010PropOp28
 70
     1
102
RTVSPost2010Prop29
280
     1
102
RTVSPost2010PropOp29
 70
     1
102
RTVSPost2010Prop30
280
     1
102
RTVSPost2010PropOp30
 70
     1
102
RTVSPost2010Prop31
280
     0
102
RTVSPost2010PropOp31
 70
     1
102
RTVSPost2010Prop32
280
     0
102
RTVSPost2010PropOp32
 70
     1
102
RTVSPost2010Prop33
280
     0
102
RTVSPost2010PropOp33
 70
     1
102
RTVSPost2010Prop34
280
     0
102
RTVSPost2010PropOp34
 70
     1
102
RTVSPost2010Prop35
280
     0
102
RTVSPost2010PropOp35
 70
     1
102
RTVSPost2010Prop36
280
     0
102
RTVSPost2010PropOp36
 70
     1
102
RTVSPost2010Prop37
 90
       50
102
RTVSPost2010PropOp37
 70
     1
102
RTVSPost2010Prop38
140
0.0
102
RTVSPost2010PropOp38
 70
     1
102
RTVSPost2010Prop39
140
1.0
102
RTVSPost2010PropOp39
 70
     1
102
RTVSPost2010Prop40
 90
        0
102
RTVSPost2010PropOp40
 70
     1
102
RTVSPost2010Prop41ColorIndex
 90
       18
102
RTVSPost2010Prop41ColorRGB
 90
        0
102
RTVSPost2010PropOp41
 70
     1
102
RTVSPost2010Prop42
 90
       50
102
RTVSPost2010PropOp42
 70
     1
102
RTVSPost2010Prop43
 90
        3
102
RTVSPost2010PropOp43
 70
     1
102
RTVSPost2010Prop44ColorIndex
 90
        5
102
RTVSPost2010Prop44ColorRGB
 90
      255
102
RTVSPost2010PropOp44
 70
     1
102
RTVSPost2010Prop45
280
     0
102
RTVSPost2010PropOp45
 70
     1
102
RTVSPost2010Prop46
 90
       50
102
RTVSPost2010PropOp46
 70
     1
102
RTVSPost2010Prop47
 90
       50
102
RTVSPost2010PropOp47
 70
     1
102
RTVSPost2010Prop48
 90
       50
102
RTVSPost2010PropOp48
 70
     1
102
RTVSPost2010Prop49
280
     0
102
RTVSPost2010PropOp49
 70
     1
102
RTVSPost2010Prop50
 90
       50
102
RTVSPost2010PropOp50
 70
     1
102
RTVSPost2010Prop51ColorIndex
 90
      256
102
RTVSPost2010Prop51ColorRGB
 90
-16777216
102
RTVSPost2010PropOp51
 70
     0
102
RTVSPost2010Prop52
140
1.0
102
RTVSPost2010PropOp52
 70
     0
102
RTVSPost2010Prop53
 90
        2
102
RTVSPost2010PropOp53
 70
     1
102
RTVSPost2010Prop54
  1
strokes_ogs.tif
102
RTVSPost2010PropOp54
 70
     1
102
RTVSPost2010Prop55
280
     0
102
RTVSPost2010PropOp55
 70
     1
102
RTVSPost2010Prop56
140
1.0
102
RTVSPost2010PropOp56
 70
     1
102
RTVSPost2010Prop57
140
1.0
102
RTVSPost2010PropOp57
 70
     1
  0
XRECORD
  5
18E
102
{ACAD_REACTORS
330
18D
102
}
330
18D
100
AcDbXrecord
280
     1
102
RTVSPost2010Prop28
280
     0
102
RTVSPost2010PropOp28
 70
     1
102
RTVSPost2010Prop29
280
     1
102
RTVSPost2010PropOp29
 70
     1
102
RTVSPost2010Prop30
280
     1
102
RTVSPost2010PropOp30
 70
     1
102
RTVSPost2010Prop31
280
     0
102
RTVSPost2010PropOp31
 70
     1
102
RTVSPost2010Prop32
280
     0
102
RTVSPost2010PropOp32
 70
     1
102
RTVSPost2010Prop33
280
     0
102
RTVSPost2010PropOp33
 70
     1
102
RTVSPost2010Prop34
280
     0
102
RTVSPost2010PropOp34
 70
     1
102
RTVSPost2010Prop35
280
     0
102
RTVSPost2010PropOp35
 70
     1
102
RTVSPost2010Prop36
280
     0
102
RTVSPost2010PropOp36
 70
     1
102
RTVSPost2010Prop37
 90
       50
102
RTVSPost2010PropOp37
 70
     1
102
RTVSPost2010Prop38
140
0.0
102
RTVSPost2010PropOp38
 70
     1
102
RTVSPost2010Prop39
140
1.0
102
RTVSPost2010PropOp39
 70
     1
102
RTVSPost2010Prop40
 90
        0
102
RTVSPost2010PropOp40
 70
     1
102
RTVSPost2010Prop41ColorIndex
 90
       18
102
RTVSPost2010Prop41ColorRGB
 90
        0
102
RTVSPost2010PropOp41
 70
     1
102
RTVSPost2010Prop42
 90
       50
102
RTVSPost2010PropOp42
 70
     1
102
RTVSPost2010Prop43
 90
        3
102
RTVSPost2010PropOp43
 70
     1
102
RTVSPost2010Prop44ColorIndex
 90
        5
102
RTVSPost2010Prop44ColorRGB
 90
      255
102
RTVSPost2010PropOp44
 70
     1
102
RTVSPost2010Prop45
280
     0
102
RTVSPost2010PropOp45
 70
     1
102
RTVSPost2010Prop46
 90
       50
102
RTVSPost2010PropOp46
 70
     1
102
RTVSPost2010Prop47
 90
       50
102
RTVSPost2010PropOp47
 70
     1
102
RTVSPost2010Prop48
 90
       50
102
RTVSPost2010PropOp48
 70
     1
102
RTVSPost2010Prop49
280
     0
102
RTVSPost2010PropOp49
 70
     1
102
RTVSPost2010Prop50
 90
       50
102
RTVSPost2010PropOp50
 70
     1
102
RTVSPost2010Prop51ColorIndex
 90
      256
102
RTVSPost2010Prop51ColorRGB
 90
-16777216
102
RTVSPost2010PropOp51
 70
     0
102
RTVSPost2010Prop52
140
1.0
102
RTVSPost2010PropOp52
 70
     0
102
RTVSPost2010Prop53
 90
        2
102
RTVSPost2010PropOp53
 70
     1
102
RTVSPost2010Prop54
  1
strokes_ogs.tif
102
RTVSPost2010PropOp54
 70
     1
102
RTVSPost2010Prop55
280
     0
102
RTVSPost2010PropOp55
 70
     1
102
RTVSPost2010Prop56
140
1.0
102
RTVSPost2010PropOp56
 70
     1
102
RTVSPost2010Prop57
140
1.0
102
RTVSPost2010PropOp57
 70
     1
  0
XRECORD
  5
17E
102
{ACAD_REACTORS
330
17D
102
}
330
17D
100
AcDbXrecord
280
     1
102
RTVSPost2010Prop28
280
     0
102
RTVSPost2010PropOp28
 70
     1
102
RTVSPost2010Prop29
280
     1
102
RTVSPost2010PropOp29
 70
     1
102
RTVSPost2010Prop30
280
     1
102
RTVSPost2010PropOp30
 70
     1
102
RTVSPost2010Prop31
280
     0
102
RTVSPost2010PropOp31
 70
     1
102
RTVSPost2010Prop32
280
     0
102
RTVSPost2010PropOp32
 70
     1
102
RTVSPost2010Prop33
280
     0
102
RTVSPost2010PropOp33
 70
     1
102
RTVSPost2010Prop34
280
     0
102
RTVSPost2010PropOp34
 70
     1
102
RTVSPost2010Prop35
280
     0
102
RTVSPost2010PropOp35
 70
     1
102
RTVSPost2010Prop36
280
     0
102
RTVSPost2010PropOp36
 70
     1
102
RTVSPost2010Prop37
 90
       50
102
RTVSPost2010PropOp37
 70
     1
102
RTVSPost2010Prop38
140
0.0
102
RTVSPost2010PropOp38
 70
     1
102
RTVSPost2010Prop39
140
1.0
102
RTVSPost2010PropOp39
 70
     1
102
RTVSPost2010Prop40
 90
        0
102
RTVSPost2010PropOp40
 70
     1
102
RTVSPost2010Prop41ColorIndex
 90
       18
102
RTVSPost2010Prop41ColorRGB
 90
        0
102
RTVSPost2010PropOp41
 70
     1
102
RTVSPost2010Prop42
 90
       50
102
RTVSPost2010PropOp42
 70
     1
102
RTVSPost2010Prop43
 90
        3
102
RTVSPost2010PropOp43
 70
     1
102
RTVSPost2010Prop44ColorIndex
 90
        5
102
RTVSPost2010Prop44ColorRGB
 90
      255
102
RTVSPost2010PropOp44
 70
     1
102
RTVSPost2010Prop45
280
     0
102
RTVSPost2010PropOp45
 70
     1
102
RTVSPost2010Prop46
 90
       50
102
RTVSPost2010PropOp46
 70
     1
102
RTVSPost2010Prop47
 90
       50
102
RTVSPost2010PropOp47
 70
     1
102
RTVSPost2010Prop48
 90
       50
102
RTVSPost2010PropOp48
 70
     1
102
RTVSPost2010Prop49
280
     0
102
RTVSPost2010PropOp49
 70
     1
102
RTVSPost2010Prop50
 90
       50
102
RTVSPost2010PropOp50
 70
     1
102
RTVSPost2010Prop51ColorIndex
 90
      256
102
RTVSPost2010Prop51ColorRGB
 90
-16777216
102
RTVSPost2010PropOp51
 70
     0
102
RTVSPost2010Prop52
140
1.0
102
RTVSPost2010PropOp52
 70
     0
102
RTVSPost2010Prop53
 90
        2
102
RTVSPost2010PropOp53
 70
     1
102
RTVSPost2010Prop54
  1
strokes_ogs.tif
102
RTVSPost2010PropOp54
 70
     1
102
RTVSPost2010Prop55
280
     0
102
RTVSPost2010PropOp55
 70
     1
102
RTVSPost2010Prop56
140
1.0
102
RTVSPost2010PropOp56
 70
     1
102
RTVSPost2010Prop57
140
1.0
102
RTVSPost2010PropOp57
 70
     1
  0
XRECORD
  5
170
102
{ACAD_REACTORS
330
16F
102
}
330
16F
100
AcDbXrecord
280
     1
102
RTVSPost2010Prop28
280
     0
102
RTVSPost2010PropOp28
 70
     1
102
RTVSPost2010Prop29
280
     1
102
RTVSPost2010PropOp29
 70
     1
102
RTVSPost2010Prop30
280
     1
102
RTVSPost2010PropOp30
 70
     1
102
RTVSPost2010Prop31
280
     0
102
RTVSPost2010PropOp31
 70
     1
102
RTVSPost2010Prop32
280
     0
102
RTVSPost2010PropOp32
 70
     1
102
RTVSPost2010Prop33
280
     0
102
RTVSPost2010PropOp33
 70
     1
102
RTVSPost2010Prop34
280
     0
102
RTVSPost2010PropOp34
 70
     1
102
RTVSPost2010Prop35
280
     0
102
RTVSPost2010PropOp35
 70
     1
102
RTVSPost2010Prop36
280
     0
102
RTVSPost2010PropOp36
 70
     1
102
RTVSPost2010Prop37
 90
       50
102
RTVSPost2010PropOp37
 70
     1
102
RTVSPost2010Prop38
140
0.0
102
RTVSPost2010PropOp38
 70
     1
102
RTVSPost2010Prop39
140
1.0
102
RTVSPost2010PropOp39
 70
     1
102
RTVSPost2010Prop40
 90
        0
102
RTVSPost2010PropOp40
 70
     1
102
RTVSPost2010Prop41ColorIndex
 90
       18
102
RTVSPost2010Prop41ColorRGB
 90
        0
102
RTVSPost2010PropOp41
 70
     1
102
RTVSPost2010Prop42
 90
       50
102
RTVSPost2010PropOp42
 70
     1
102
RTVSPost2010Prop43
 90
        3
102
RTVSPost2010PropOp43
 70
     1
102
RTVSPost2010Prop44ColorIndex
 90
        5
102
RTVSPost2010Prop44ColorRGB
 90
      255
102
RTVSPost2010PropOp44
 70
     1
102
RTVSPost2010Prop45
280
     0
102
RTVSPost2010PropOp45
 70
     1
102
RTVSPost2010Prop46
 90
       50
102
RTVSPost2010PropOp46
 70
     1
102
RTVSPost2010Prop47
 90
       50
102
RTVSPost2010PropOp47
 70
     1
102
RTVSPost2010Prop48
 90
       50
102
RTVSPost2010PropOp48
 70
     1
102
RTVSPost2010Prop49
280
     0
102
RTVSPost2010PropOp49
 70
     1
102
RTVSPost2010Prop50
 90
       50
102
RTVSPost2010PropOp50
 70
     1
102
RTVSPost2010Prop51ColorIndex
 90
      256
102
RTVSPost2010Prop51ColorRGB
 90
-16777216
102
RTVSPost2010PropOp51
 70
     0
102
RTVSPost2010Prop52
140
1.0
102
RTVSPost2010PropOp52
 70
     0
102
RTVSPost2010Prop53
 90
        2
102
RTVSPost2010PropOp53
 70
     1
102
RTVSPost2010Prop54
  1
strokes_ogs.tif
102
RTVSPost2010PropOp54
 70
     1
102
RTVSPost2010Prop55
280
     0
102
RTVSPost2010PropOp55
 70
     1
102
RTVSPost2010Prop56
140
1.0
102
RTVSPost2010PropOp56
 70
     1
102
RTVSPost2010Prop57
140
1.0
102
RTVSPost2010PropOp57
 70
     1
  0
XRECORD
  5
190
102
{ACAD_REACTORS
330
18F
102
}
330
18F
100
AcDbXrecord
280
     1
102
RTVSPost2010Prop28
280
     0
102
RTVSPost2010PropOp28
 70
     1
102
RTVSPost2010Prop29
280
     1
102
RTVSPost2010PropOp29
 70
     1
102
RTVSPost2010Prop30
280
     1
102
RTVSPost2010PropOp30
 70
     1
102
RTVSPost2010Prop31
280
     0
102
RTVSPost2010PropOp31
 70
     1
102
RTVSPost2010Prop32
280
     0
102
RTVSPost2010PropOp32
 70
     1
102
RTVSPost2010Prop33
280
     0
102
RTVSPost2010PropOp33
 70
     1
102
RTVSPost2010Prop34
280
     0
102
RTVSPost2010PropOp34
 70
     1
102
RTVSPost2010Prop35
280
     0
102
RTVSPost2010PropOp35
 70
     1
102
RTVSPost2010Prop36
280
     0
102
RTVSPost2010PropOp36
 70
     1
102
RTVSPost2010Prop37
 90
       50
102
RTVSPost2010PropOp37
 70
     1
102
RTVSPost2010Prop38
140
0.0
102
RTVSPost2010PropOp38
 70
     1
102
RTVSPost2010Prop39
140
1.0
102
RTVSPost2010PropOp39
 70
     1
102
RTVSPost2010Prop40
 90
        0
102
RTVSPost2010PropOp40
 70
     1
102
RTVSPost2010Prop41ColorIndex
 90
       18
102
RTVSPost2010Prop41ColorRGB
 90
        0
102
RTVSPost2010PropOp41
 70
     1
102
RTVSPost2010Prop42
 90
       50
102
RTVSPost2010PropOp42
 70
     1
102
RTVSPost2010Prop43
 90
        3
102
RTVSPost2010PropOp43
 70
     1
102
RTVSPost2010Prop44ColorIndex
 90
        5
102
RTVSPost2010Prop44ColorRGB
 90
      255
102
RTVSPost2010PropOp44
 70
     1
102
RTVSPost2010Prop45
280
     0
102
RTVSPost2010PropOp45
 70
     1
102
RTVSPost2010Prop46
 90
       50
102
RTVSPost2010PropOp46
 70
     1
102
RTVSPost2010Prop47
 90
       50
102
RTVSPost2010PropOp47
 70
     1
102
RTVSPost2010Prop48
 90
       50
102
RTVSPost2010PropOp48
 70
     1
102
RTVSPost2010Prop49
280
     0
102
RTVSPost2010PropOp49
 70
     1
102
RTVSPost2010Prop50
 90
       50
102
RTVSPost2010PropOp50
 70
     1
102
RTVSPost2010Prop51ColorIndex
 90
      256
102
RTVSPost2010Prop51ColorRGB
 90
-16777216
102
RTVSPost2010PropOp51
 70
     0
102
RTVSPost2010Prop52
140
1.0
102
RTVSPost2010PropOp52
 70
     0
102
RTVSPost2010Prop53
 90
        2
102
RTVSPost2010PropOp53
 70
     1
102
RTVSPost2010Prop54
  1
strokes_ogs.tif
102
RTVSPost2010PropOp54
 70
     1
102
RTVSPost2010Prop55
280
     0
102
RTVSPost2010PropOp55
 70
     1
102
RTVSPost2010Prop56
140
1.0
102
RTVSPost2010PropOp56
 70
     1
102
RTVSPost2010Prop57
140
1.0
102
RTVSPost2010PropOp57
 70
     1
  0
ENDSEC
  0
EOF
