  0
SECTION
  2
HEADER
  9
$ACADVER
  1
AC1015
  9
$ACADMAINTVER
 70
     6
  9
$DWGCODEPAGE
  3
ANSI_1252
  9
$INSBASE
 10
0.0
 20
0.0
 30
0.0
  9
$EXTMIN
 10
26.020214
 20
114.497765
 30
0.0
  9
$EXTMAX
 10
420.64035
 20
350.07016
 30
0.0
  9
$LIMMIN
 10
26.020214
 20
114.497765
  9
$LIMMAX
 10
420.64035
 20
350.07016
  9
$ORTHOMODE
 70
     0
  9
$REGENMODE
 70
     1
  9
$FILLMODE
 70
     1
  9
$QTEXTMODE
 70
     0
  9
$MIRRTEXT
 70
     1
  9
$LTSCALE
 40
1.0
  9
$ATTMODE
 70
     1
  9
$TEXTSIZE
 40
2.5
  9
$TRACEWID
 40
1.0
  9
$TEXTSTYLE
  7
Standard
  9
$CLAYER
  8
0
  9
$CELTYPE
  6
ByLayer
  9
$CECOLOR
 62
   256
  9
$CELTSCALE
 40
1.0
  9
$DISPSILH
 70
     0
  9
$DIMSCALE
 40
1.0
  9
$DIMASZ
 40
2.5
  9
$DIMEXO
 40
0.625
  9
$DIMDLI
 40
3.75
  9
$DIMRND
 40
0.0
  9
$DIMDLE
 40
0.0
  9
$DIMEXE
 40
1.25
  9
$DIMTP
 40
0.0
  9
$DIMTM
 40
0.0
  9
$DIMTXT
 40
2.5
  9
$DIMCEN
 40
2.5
  9
$DIMTSZ
 40
0.0
  9
$DIMTOL
 70
     0
  9
$DIMLIM
 70
     0
  9
$DIMTIH
 70
     0
  9
$DIMTOH
 70
     0
  9
$DIMSE1
 70
     0
  9
$DIMSE2
 70
     0
  9
$DIMTAD
 70
     1
  9
$DIMZIN
 70
     8
  9
$DIMBLK
  1

  9
$DIMASO
 70
     1
  9
$DIMSHO
 70
     1
  9
$DIMPOST
  1

  9
$DIMAPOST
  1

  9
$DIMALT
 70
     0
  9
$DIMALTD
 70
     3
  9
$DIMALTF
 40
0.03937
  9
$DIMLFAC
 40
1.0
  9
$DIMTOFL
 70
     1
  9
$DIMTVP
 40
0.0
  9
$DIMTIX
 70
     0
  9
$DIMSOXD
 70
     0
  9
$DIMSAH
 70
     0
  9
$DIMBLK1
  1

  9
$DIMBLK2
  1

  9
$DIMSTYLE
  2
ISO-25
  9
$DIMCLRD
 70
     0
  9
$DIMCLRE
 70
     0
  9
$DIMCLRT
 70
     0
  9
$DIMTFAC
 40
1.0
  9
$DIMGAP
 40
0.625
  9
$DIMJUST
 70
     0
  9
$DIMSD1
 70
     0
  9
$DIMSD2
 70
     0
  9
$DIMTOLJ
 70
     0
  9
$DIMTZIN
 70
     8
  9
$DIMALTZ
 70
     0
  9
$DIMALTTZ
 70
     0
  9
$DIMUPT
 70
     0
  9
$DIMDEC
 70
     2
  9
$DIMTDEC
 70
     2
  9
$DIMALTU
 70
     2
  9
$DIMALTTD
 70
     3
  9
$DIMTXSTY
  7
Standard
  9
$DIMAUNIT
 70
     0
  9
$DIMADEC
 70
     0
  9
$DIMALTRND
 40
0.0
  9
$DIMAZIN
 70
     0
  9
$DIMDSEP
 70
    44
  9
$DIMATFIT
 70
     3
  9
$DIMFRAC
 70
     0
  9
$DIMLDRBLK
  1

  9
$DIMLUNIT
 70
     2
  9
$DIMLWD
 70
    -2
  9
$DIMLWE
 70
    -2
  9
$DIMTMOVE
 70
     0
  9
$LUNITS
 70
     2
  9
$LUPREC
 70
     4
  9
$SKETCHINC
 40
1.0
  9
$FILLETRAD
 40
10.0
  9
$AUNITS
 70
     0
  9
$AUPREC
 70
     0
  9
$MENU
  1
.
  9
$ELEVATION
 40
0.0
  9
$PELEVATION
 40
0.0
  9
$THICKNESS
 40
0.0
  9
$LIMCHECK
 70
     0
  9
$CHAMFERA
 40
10.0
  9
$CHAMFERB
 40
10.0
  9
$CHAMFERC
 40
20.0
  9
$CHAMFERD
 40
0.0
  9
$SKPOLY
 70
     0
  9
$TDCREATE
 40
2455554.619506655
  9
$TDUCREATE
 40
2455554.577839988
  9
$TDUPDATE
 40
2455554.619506666
  9
$TDUUPDATE
 40
2455554.57784
  9
$TDINDWG
 40
0.0000000116
  9
$TDUSRTIMER
 40
0.0000000116
  9
$USRTIMER
 70
     1
  9
$ANGBASE
 50
0.0
  9
$ANGDIR
 70
     0
  9
$PDMODE
 70
     0
  9
$PDSIZE
 40
0.0
  9
$PLINEWID
 40
0.0
  9
$SPLFRAME
 70
     0
  9
$SPLINETYPE
 70
     6
  9
$SPLINESEGS
 70
     8
  9
$HANDSEED
  5
144
  9
$SURFTAB1
 70
     6
  9
$SURFTAB2
 70
     6
  9
$SURFTYPE
 70
     6
  9
$SURFU
 70
     6
  9
$SURFV
 70
     6
  9
$UCSBASE
  2

  9
$UCSNAME
  2

  9
$UCSORG
 10
0.0
 20
0.0
 30
0.0
  9
$UCSXDIR
 10
1.0
 20
0.0
 30
0.0
  9
$UCSYDIR
 10
0.0
 20
1.0
 30
0.0
  9
$UCSORTHOREF
  2

  9
$UCSORTHOVIEW
 70
     0
  9
$UCSORGTOP
 10
0.0
 20
0.0
 30
0.0
  9
$UCSORGBOTTOM
 10
0.0
 20
0.0
 30
0.0
  9
$UCSORGLEFT
 10
0.0
 20
0.0
 30
0.0
  9
$UCSORGRIGHT
 10
0.0
 20
0.0
 30
0.0
  9
$UCSORGFRONT
 10
0.0
 20
0.0
 30
0.0
  9
$UCSORGBACK
 10
0.0
 20
0.0
 30
0.0
  9
$PUCSBASE
  2

  9
$PUCSNAME
  2

  9
$PUCSORG
 10
0.0
 20
0.0
 30
0.0
  9
$PUCSXDIR
 10
1.0
 20
0.0
 30
0.0
  9
$PUCSYDIR
 10
0.0
 20
1.0
 30
0.0
  9
$PUCSORTHOREF
  2

  9
$PUCSORTHOVIEW
 70
     0
  9
$PUCSORGTOP
 10
0.0
 20
0.0
 30
0.0
  9
$PUCSORGBOTTOM
 10
0.0
 20
0.0
 30
0.0
  9
$PUCSORGLEFT
 10
0.0
 20
0.0
 30
0.0
  9
$PUCSORGRIGHT
 10
0.0
 20
0.0
 30
0.0
  9
$PUCSORGFRONT
 10
0.0
 20
0.0
 30
0.0
  9
$PUCSORGBACK
 10
0.0
 20
0.0
 30
0.0
  9
$USERI1
 70
     0
  9
$USERI2
 70
     0
  9
$USERI3
 70
     0
  9
$USERI4
 70
     0
  9
$USERI5
 70
     0
  9
$USERR1
 40
0.0
  9
$USERR2
 40
0.0
  9
$USERR3
 40
0.0
  9
$USERR4
 40
0.0
  9
$USERR5
 40
0.0
  9
$WORLDVIEW
 70
     1
  9
$SHADEDGE
 70
     3
  9
$SHADEDIF
 70
    70
  9
$TILEMODE
 70
     1
  9
$MAXACTVP
 70
    64
  9
$PINSBASE
 10
0.0
 20
0.0
 30
0.0
  9
$PLIMCHECK
 70
     0
  9
$PEXTMIN
 10
1.000000E+20
 20
1.000000E+20
 30
1.000000E+20
  9
$PEXTMAX
 10
-1.000000E+20
 20
-1.000000E+20
 30
-1.000000E+20
  9
$PLIMMIN
 10
0.0
 20
0.0
  9
$PLIMMAX
 10
420.0
 20
297.0
  9
$UNITMODE
 70
     0
  9
$VISRETAIN
 70
     1
  9
$PLINEGEN
 70
     0
  9
$PSLTSCALE
 70
     1
  9
$TREEDEPTH
 70
  3020
  9
$CMLSTYLE
  2
Standard
  9
$CMLJUST
 70
     0
  9
$CMLSCALE
 40
20.0
  9
$PROXYGRAPHICS
 70
     1
  9
$MEASUREMENT
 70
     1
  9
$CELWEIGHT
370
    -1
  9
$ENDCAPS
280
     0
  9
$JOINSTYLE
280
     0
  9
$LWDISPLAY
290
     0
  9
$INSUNITS
 70
     4
  9
$HYPERLINKBASE
  1

  9
$STYLESHEET
  1

  9
$XEDIT
290
     1
  9
$CEPSNTYPE
380
     0
  9
$PSTYLEMODE
290
     1
  9
$FINGERPRINTGUID
  2
{5ED1BDE8-3C53-4271-AAEE-8C28B8CDD5CF}
  9
$VERSIONGUID
  2
{FAEB1C32-E019-11D5-929B-00C0DF256EC4}
  9
$EXTNAMES
290
     1
  9
$PSVPSCALE
 40
0.0
  9
$OLESTARTUP
290
     0
  0
ENDSEC
  0
SECTION
  2
CLASSES
  0
CLASS
  1
ACDBDICTIONARYWDFLT
  2
AcDbDictionaryWithDefault
  3
ObjectDBX Classes
 90
        0
280
     0
281
     0
  0
CLASS
  1
VISUALSTYLE
  2
AcDbVisualStyle
  3
ObjectDBX Classes
 90
     4095
280
     0
281
     0
  0
CLASS
  1
DICTIONARYVAR
  2
AcDbDictionaryVar
  3
ObjectDBX Classes
 90
        0
280
     0
281
     0
  0
CLASS
  1
ACDBPLACEHOLDER
  2
AcDbPlaceHolder
  3
ObjectDBX Classes
 90
        0
280
     0
281
     0
  0
CLASS
  1
LAYOUT
  2
AcDbLayout
  3
ObjectDBX Classes
 90
        0
280
     0
281
     0
  0
ENDSEC
  0
SECTION
  2
TABLES
  0
TABLE
  2
VPORT
  5
8
330
0
100
AcDbSymbolTable
 70
     1
  0
VPORT
  5
29
330
8
100
AcDbSymbolTableRecord
100
AcDbViewportTableRecord
  2
*Active
 70
     0
 10
0.0
 20
0.0
 11
1.0
 21
1.0
 12
344.186916
 22
148.5
 13
0.0
 23
0.0
 14
10.0
 24
10.0
 15
10.0
 25
10.0
 16
0.0
 26
0.0
 36
1.0
 17
0.0
 27
0.0
 37
0.0
 40
297.0
 41
1.972973
 42
50.0
 43
0.0
 44
0.0
 50
0.0
 51
0.0
 71
     0
 72
   100
 73
     1
 74
     3
 75
     0
 76
     0
 77
     0
 78
     0
281
     0
 65
     1
110
0.0
120
0.0
130
0.0
111
1.0
121
0.0
131
0.0
112
0.0
122
1.0
132
0.0
 79
     0
146
0.0
  0
ENDTAB
  0
TABLE
  2
LTYPE
  5
5
330
0
100
AcDbSymbolTable
 70
     1
  0
LTYPE
  5
14
330
5
100
AcDbSymbolTableRecord
100
AcDbLinetypeTableRecord
  2
ByBlock
 70
     0
  3

 72
    65
 73
     0
 40
0.0
  0
LTYPE
  5
15
330
5
100
AcDbSymbolTableRecord
100
AcDbLinetypeTableRecord
  2
ByLayer
 70
     0
  3

 72
    65
 73
     0
 40
0.0
  0
LTYPE
  5
16
330
5
100
AcDbSymbolTableRecord
100
AcDbLinetypeTableRecord
  2
Continuous
 70
     0
  3
Solid line
 72
    65
 73
     0
 40
0.0
  0
ENDTAB
  0
TABLE
  2
LAYER
  5
2
330
0
100
AcDbSymbolTable
 70
     1
  0
LAYER
  5
10
330
2
100
AcDbSymbolTableRecord
100
AcDbLayerTableRecord
  2
0
 70
     0
 62
   106
  6
Continuous
370
     0
390
F
  0
ENDTAB
  0
TABLE
  2
STYLE
  5
3
330
0
100
AcDbSymbolTable
 70
     4
  0
STYLE
  5
11
330
3
100
AcDbSymbolTableRecord
100
AcDbTextStyleTableRecord
  2
Standard
 70
     0
 40
0.0
 41
1.0
 50
0.0
 71
     0
 42
2.5
  3
txt
  4

  0
STYLE
  5
3B
330
3
100
AcDbSymbolTableRecord
100
AcDbTextStyleTableRecord
  2
Default
 70
     0
 40
0.0
 41
1.0
 50
0.0
 71
     0
 42
0.2
  3

  4

1001
ACAD
1000
txt
1071
        0
  0
STYLE
  5
3C
330
3
100
AcDbSymbolTableRecord
100
AcDbTextStyleTableRecord
  2
ISO
 70
     0
 40
0.0
 41
1.0
 50
0.0
 71
     0
 42
0.2
  3

  4

1001
ACAD
1000
txt
1071
        0
  0
STYLE
  5
3D
330
3
100
AcDbSymbolTableRecord
100
AcDbTextStyleTableRecord
  2
GIANLU
 70
     0
 40
0.0
 41
1.0
 50
0.0
 71
     0
 42
0.2
  3

  4

1001
ACAD
1000
Arial
1071
        0
  0
ENDTAB
  0
TABLE
  2
VIEW
  5
6
330
0
100
AcDbSymbolTable
 70
     0
  0
ENDTAB
  0
TABLE
  2
UCS
  5
7
330
0
100
AcDbSymbolTable
 70
     0
  0
ENDTAB
  0
TABLE
  2
APPID
  5
9
330
0
100
AcDbSymbolTable
 70
     1
  0
APPID
  5
12
330
9
100
AcDbSymbolTableRecord
100
AcDbRegAppTableRecord
  2
ACAD
 70
     0
  0
ENDTAB
  0
TABLE
  2
DIMSTYLE
  5
A
330
0
100
AcDbSymbolTable
 70
     4
100
AcDbDimStyleTable
  0
DIMSTYLE
105
27
330
A
100
AcDbSymbolTableRecord
100
AcDbDimStyleTableRecord
  2
ISO-25
 70
     0
 41
2.5
 42
0.625
 43
3.75
 44
1.25
 73
     0
 74
     0
 77
     1
 78
     8
140
2.5
141
2.5
143
0.03937
147
0.625
171
     3
172
     1
271
     2
272
     2
274
     3
278
    44
283
     0
284
     8
340
11
  0
DIMSTYLE
105
3E
330
A
100
AcDbSymbolTableRecord
100
AcDbDimStyleTableRecord
  2
Default
 70
     0
  3
<>
 41
4.375
 42
1.05
 44
2.1
 73
     0
 74
     0
 77
     1
 78
     8
140
3.5
146
0.4
147
1.75
178
     3
271
     2
272
     3
284
     8
340
3B
341
3F
342
3F
  0
DIMSTYLE
105
46
330
A
100
AcDbSymbolTableRecord
100
AcDbDimStyleTableRecord
  2
ISO
 70
     0
  3
<>
 41
4.375
 42
1.05
 44
2.1
 73
     0
 74
     0
 77
     1
 78
     8
140
3.5
146
0.4
147
1.75
178
     3
271
     2
272
     3
284
     8
340
3C
341
3F
342
3F
  0
DIMSTYLE
105
47
330
A
100
AcDbSymbolTableRecord
100
AcDbDimStyleTableRecord
  2
zucchetti_unico
 70
     0
  3
<>
 41
3.0
 42
0.9
 44
1.8
 73
     0
 74
     0
 77
     1
 78
     8
140
3.0
146
0.6
147
1.5
176
   104
177
     3
178
     3
271
     2
272
     2
284
     8
340
3D
  0
ENDTAB
  0
TABLE
  2
BLOCK_RECORD
  5
1
330
0
100
AcDbSymbolTable
 70
     7
  0
BLOCK_RECORD
  5
1F
330
1
100
AcDbSymbolTableRecord
100
AcDbBlockTableRecord
  2
*Model_Space
340
22
  0
BLOCK_RECORD
  5
1B
330
1
100
AcDbSymbolTableRecord
100
AcDbBlockTableRecord
  2
*Paper_Space
340
1E
  0
BLOCK_RECORD
  5
23
330
1
100
AcDbSymbolTableRecord
100
AcDbBlockTableRecord
  2
*Paper_Space0
340
26
  0
BLOCK_RECORD
  5
3F
330
1
100
AcDbSymbolTableRecord
100
AcDbBlockTableRecord
  2
_CLOSED
340
0
  0
BLOCK_RECORD
  5
48
330
1
100
AcDbSymbolTableRecord
100
AcDbBlockTableRecord
  2
a
340
0
102
{BLKREFS
331
83
102
}
  0
BLOCK_RECORD
  5
84
330
1
100
AcDbSymbolTableRecord
100
AcDbBlockTableRecord
  2
b
340
0
102
{BLKREFS
331
99
102
}
  0
BLOCK_RECORD
  5
9A
330
1
100
AcDbSymbolTableRecord
100
AcDbBlockTableRecord
  2
c
340
0
102
{BLKREFS
331
D2
102
}
  0
BLOCK_RECORD
  5
D3
330
1
100
AcDbSymbolTableRecord
100
AcDbBlockTableRecord
  2
d
340
0
102
{BLKREFS
331
105
102
}
  0
BLOCK_RECORD
  5
106
330
1
100
AcDbSymbolTableRecord
100
AcDbBlockTableRecord
  2
e
340
0
102
{BLKREFS
331
13E
102
}
  0
ENDTAB
  0
ENDSEC
  0
SECTION
  2
BLOCKS
  0
BLOCK
  5
20
330
1F
100
AcDbEntity
  8
0
100
AcDbBlockBegin
  2
*Model_Space
 70
     0
 10
0.0
 20
0.0
 30
0.0
  3
*Model_Space
  1

  0
ENDBLK
  5
21
330
1F
100
AcDbEntity
  8
0
100
AcDbBlockEnd
  0
BLOCK
  5
1C
330
1B
100
AcDbEntity
 67
     1
  8
0
100
AcDbBlockBegin
  2
*Paper_Space
 70
     0
 10
0.0
 20
0.0
 30
0.0
  3
*Paper_Space
  1

  0
ENDBLK
  5
1D
330
1B
100
AcDbEntity
 67
     1
  8
0
100
AcDbBlockEnd
  0
BLOCK
  5
24
330
23
100
AcDbEntity
  8
0
100
AcDbBlockBegin
  2
*Paper_Space0
 70
     0
 10
0.0
 20
0.0
 30
0.0
  3
*Paper_Space0
  1

  0
ENDBLK
  5
25
330
23
100
AcDbEntity
  8
0
100
AcDbBlockEnd
  0
BLOCK
  5
40
330
3F
100
AcDbEntity
  8
0
100
AcDbBlockBegin
  2
_CLOSED
 70
     0
 10
0.0
 20
0.0
 30
0.0
  3
_CLOSED
  1

  0
LINE
  5
42
330
3F
100
AcDbEntity
  8
0
  6
ByBlock
 62
     0
370
    -2
100
AcDbLine
 10
-1.0
 20
0.166667
 30
0.0
 11
0.0
 21
0.0
 31
0.0
  0
LINE
  5
43
330
3F
100
AcDbEntity
  8
0
  6
ByBlock
 62
     0
370
    -2
100
AcDbLine
 10
0.0
 20
0.0
 30
0.0
 11
-1.0
 21
-0.166667
 31
0.0
  0
LINE
  5
44
330
3F
100
AcDbEntity
  8
0
  6
ByBlock
 62
     0
370
    -2
100
AcDbLine
 10
-1.0
 20
0.166667
 30
0.0
 11
-1.0
 21
-0.166667
 31
0.0
  0
LINE
  5
45
330
3F
100
AcDbEntity
  8
0
  6
ByBlock
 62
     0
370
    -2
100
AcDbLine
 10
0.0
 20
0.0
 30
0.0
 11
-1.0
 21
0.0
 31
0.0
  0
ENDBLK
  5
41
330
3F
100
AcDbEntity
  8
0
100
AcDbBlockEnd
  0
BLOCK
  5
81
330
48
100
AcDbEntity
  8
0
100
AcDbBlockBegin
  2
a
 70
     0
 10
145.779434
 20
118.113609
 30
0.0
  3
a
  1

  0
LWPOLYLINE
  5
49
330
48
100
AcDbEntity
  8
0
  6
Continuous
 62
     0
370
    30
100
AcDbPolyline
 90
        6
 70
     0
 43
0.0
 10
223.859634
 20
288.870148
 10
223.786087
 20
288.870148
 10
223.572235
 20
288.870148
 10
223.23175
 20
288.870148
 10
222.781967
 20
288.870148
 10
222.220215
 20
288.870148
  0
LINE
  5
4A
330
48
100
AcDbEntity
  8
0
  6
Continuous
 62
     0
370
    30
100
AcDbLine
 10
222.220216
 20
288.870149
 30
0.0
 11
202.859638
 21
288.870149
 31
0.0
  0
LINE
  5
4B
330
48
100
AcDbEntity
  8
0
  6
Continuous
 62
     0
370
    30
100
AcDbLine
 10
222.220216
 20
283.270149
 30
0.0
 11
223.859638
 21
283.270149
 31
0.0
  0
LINE
  5
4C
330
48
100
AcDbEntity
  8
0
  6
Continuous
 62
     0
370
    30
100
AcDbLine
 10
202.859638
 20
283.270149
 30
0.0
 11
222.220216
 21
283.270149
 31
0.0
  0
LINE
  5
4D
330
48
100
AcDbEntity
  8
0
  6
Continuous
 62
     0
370
    30
100
AcDbLine
 10
203.859638
 20
282.270149
 30
0.0
 11
221.376351
 21
282.270149
 31
0.0
  0
LINE
  5
4E
330
48
100
AcDbEntity
  8
0
  6
Continuous
 62
     0
370
    30
100
AcDbLine
 10
221.376351
 20
282.270149
 30
0.0
 11
222.859638
 21
282.270149
 31
0.0
  0
LINE
  5
4F
330
48
100
AcDbEntity
  8
0
  6
Continuous
 62
     0
370
     0
100
AcDbLine
 10
221.165385
 20
282.020149
 30
0.0
 11
222.609638
 21
282.020149
 31
0.0
  0
LINE
  5
50
330
48
100
AcDbEntity
  8
0
  6
Continuous
 62
     0
370
     0
100
AcDbLine
 10
204.109638
 20
282.020149
 30
0.0
 11
221.165385
 21
282.020149
 31
0.0
  0
LINE
  5
51
330
48
100
AcDbEntity
  8
0
  6
Continuous
 62
     0
370
    30
100
AcDbLine
 10
222.359507
 20
281.770149
 30
0.0
 11
220.954419
 21
281.770149
 31
0.0
  0
LINE
  5
52
330
48
100
AcDbEntity
  8
0
  6
Continuous
 62
     0
370
    30
100
AcDbLine
 10
220.954419
 20
281.770149
 30
0.0
 11
204.359753
 21
281.770149
 31
0.0
  0
LINE
  5
53
330
48
100
AcDbEntity
  8
0
  6
Continuous
 62
     0
370
     0
100
AcDbLine
 10
222.979694
 20
292.570149
 30
0.0
 11
224.759638
 21
292.570149
 31
0.0
  0
LINE
  5
54
330
48
100
AcDbEntity
  8
0
  6
Continuous
 62
     0
370
     0
100
AcDbLine
 10
201.959638
 20
292.570149
 30
0.0
 11
222.979694
 21
292.570149
 31
0.0
  0
LINE
  5
55
330
48
100
AcDbEntity
  8
0
  6
Continuous
 62
     0
370
     0
100
AcDbLine
 10
222.979694
 20
299.870149
 30
0.0
 11
201.959638
 21
299.870149
 31
0.0
  0
LINE
  5
56
330
48
100
AcDbEntity
  8
0
  6
Continuous
 62
     0
370
     0
100
AcDbLine
 10
224.759638
 20
299.870149
 30
0.0
 11
222.979694
 21
299.870149
 31
0.0
  0
LINE
  5
57
330
48
100
AcDbEntity
  8
0
  6
Continuous
 62
     0
370
    30
100
AcDbLine
 10
202.159638
 20
292.370149
 30
0.0
 11
222.810921
 21
292.370149
 31
0.0
  0
LINE
  5
58
330
48
100
AcDbEntity
  8
0
  6
Continuous
 62
     0
370
    30
100
AcDbLine
 10
222.810921
 20
292.370149
 30
0.0
 11
224.559638
 21
292.370149
 31
0.0
  0
LINE
  5
59
330
48
100
AcDbEntity
  8
0
  6
Continuous
 62
     0
370
    30
100
AcDbLine
 10
193.359638
 20
300.070148
 30
0.0
 11
193.359638
 21
320.070148
 31
0.0
  0
LINE
  5
5A
330
48
100
AcDbEntity
  8
0
  6
Continuous
 62
     0
370
    30
100
AcDbLine
 10
193.359638
 20
300.070148
 30
0.0
 11
233.359638
 21
300.070148
 31
0.0
  0
LINE
  5
5B
330
48
100
AcDbEntity
  8
0
  6
Continuous
 62
     0
370
    30
100
AcDbLine
 10
233.359638
 20
300.070148
 30
0.0
 11
233.359638
 21
320.070148
 31
0.0
  0
LINE
  5
5C
330
48
100
AcDbEntity
  8
0
  6
Continuous
 62
     0
370
    30
100
AcDbLine
 10
233.359638
 20
320.070148
 30
0.0
 11
193.359638
 21
320.070148
 31
0.0
  0
ARC
  5
5D
330
48
100
AcDbEntity
  8
0
  6
Continuous
 62
     0
370
    30
100
AcDbCircle
 10
173.559638
 20
270.270148
 30
0.0
 40
0.200000002980232
100
AcDbArc
 50
180.0
 51
270.0
  0
LINE
  5
5E
330
48
100
AcDbEntity
  8
0
  6
Continuous
 62
     0
370
     0
100
AcDbLine
 10
253.159638
 20
270.070148
 30
0.0
 11
253.159638
 21
270.270148
 31
0.0
  0
LINE
  5
5F
330
48
100
AcDbEntity
  8
0
  6
Continuous
 62
     0
370
     0
100
AcDbLine
 10
253.159638
 20
270.270148
 30
0.0
 11
173.559638
 21
270.270148
 31
0.0
  0
LINE
  5
60
330
48
100
AcDbEntity
  8
0
  6
Continuous
 62
     0
370
     0
100
AcDbLine
 10
173.559638
 20
270.070148
 30
0.0
 11
173.559638
 21
270.270148
 31
0.0
  0
LINE
  5
61
330
48
100
AcDbEntity
  8
0
  6
Continuous
 62
     0
370
    30
100
AcDbLine
 10
253.159638
 20
270.070148
 30
0.0
 11
173.559638
 21
270.070148
 31
0.0
  0
LINE
  5
62
330
48
100
AcDbEntity
  8
0
  6
Continuous
 62
     0
370
     0
100
AcDbLine
 10
173.359638
 20
349.870148
 30
0.0
 11
173.559638
 21
349.870148
 31
0.0
  0
LINE
  5
63
330
48
100
AcDbEntity
  8
0
  6
Continuous
 62
     0
370
    30
100
AcDbLine
 10
173.359638
 20
270.270148
 30
0.0
 11
173.359638
 21
349.870148
 31
0.0
  0
LINE
  5
64
330
48
100
AcDbEntity
  8
0
  6
Continuous
 62
     0
370
     0
100
AcDbLine
 10
173.359638
 20
270.270148
 30
0.0
 11
173.559638
 21
270.270148
 31
0.0
  0
LINE
  5
65
330
48
100
AcDbEntity
  8
0
  6
Continuous
 62
     0
370
     0
100
AcDbLine
 10
173.559638
 20
270.270148
 30
0.0
 11
173.559638
 21
349.870148
 31
0.0
  0
ARC
  5
66
330
48
100
AcDbEntity
  8
0
  6
Continuous
 62
     0
370
    30
100
AcDbCircle
 10
253.159638
 20
270.270148
 30
0.0
 40
0.200000002980232
100
AcDbArc
 50
270.0
 51
360.0
  0
LINE
  5
67
330
48
100
AcDbEntity
  8
0
  6
Continuous
 62
     0
370
     0
100
AcDbLine
 10
253.359638
 20
349.870148
 30
0.0
 11
253.159638
 21
349.870148
 31
0.0
  0
LINE
  5
68
330
48
100
AcDbEntity
  8
0
  6
Continuous
 62
     0
370
     0
100
AcDbLine
 10
253.159638
 20
349.870148
 30
0.0
 11
253.159638
 21
270.270148
 31
0.0
  0
LINE
  5
69
330
48
100
AcDbEntity
  8
0
  6
Continuous
 62
     0
370
     0
100
AcDbLine
 10
253.359638
 20
270.270148
 30
0.0
 11
253.159638
 21
270.270148
 31
0.0
  0
LINE
  5
6A
330
48
100
AcDbEntity
  8
0
  6
Continuous
 62
     0
370
    30
100
AcDbLine
 10
253.359638
 20
349.870148
 30
0.0
 11
253.359638
 21
270.270148
 31
0.0
  0
ARC
  5
6B
330
48
100
AcDbEntity
  8
0
  6
Continuous
 62
     0
370
    30
100
AcDbCircle
 10
253.159638
 20
349.870148
 30
0.0
 40
0.200000002980239
100
AcDbArc
 50
0.0
 51
90.0
  0
LINE
  5
6C
330
48
100
AcDbEntity
  8
0
  6
Continuous
 62
     0
370
     0
100
AcDbLine
 10
173.559638
 20
350.070148
 30
0.0
 11
173.559638
 21
349.870148
 31
0.0
  0
LINE
  5
6D
330
48
100
AcDbEntity
  8
0
  6
Continuous
 62
     0
370
     0
100
AcDbLine
 10
173.559638
 20
349.870148
 30
0.0
 11
253.159638
 21
349.870148
 31
0.0
  0
LINE
  5
6E
330
48
100
AcDbEntity
  8
0
  6
Continuous
 62
     0
370
     0
100
AcDbLine
 10
253.159638
 20
350.070148
 30
0.0
 11
253.159638
 21
349.870148
 31
0.0
  0
LINE
  5
6F
330
48
100
AcDbEntity
  8
0
  6
Continuous
 62
     0
370
    30
100
AcDbLine
 10
173.559638
 20
350.070148
 30
0.0
 11
253.159638
 21
350.070148
 31
0.0
  0
ARC
  5
70
330
48
100
AcDbEntity
  8
0
  6
Continuous
 62
     0
370
    30
100
AcDbCircle
 10
173.559638
 20
349.870148
 30
0.0
 40
0.200000002980232
100
AcDbArc
 50
90.0
 51
180.0
  0
ARC
  5
71
330
48
100
AcDbEntity
  8
0
  6
Continuous
 62
     0
370
    30
100
AcDbCircle
 10
202.159678
 20
292.570181
 30
0.0
 40
0.2000321401785725
100
AcDbArc
 50
180.009203
 51
269.983999
  0
ARC
  5
72
330
48
100
AcDbEntity
  8
0
  6
Continuous
 62
     0
370
    30
100
AcDbCircle
 10
224.559594
 20
292.570181
 30
0.0
 40
0.2000320982817439
100
AcDbArc
 50
270.016586
 51
359.990809
  0
ARC
  5
73
330
48
100
AcDbEntity
  8
0
  6
Continuous
 62
     0
370
    30
100
AcDbCircle
 10
202.159678
 20
299.870116
 30
0.0
 40
0.2000327257992405
100
AcDbArc
 50
90.016688
 51
179.990629
  0
ARC
  5
74
330
48
100
AcDbEntity
  8
0
  6
Continuous
 62
     0
370
    30
100
AcDbCircle
 10
224.559593
 20
299.870116
 30
0.0
 40
0.2000326742965338
100
AcDbArc
 50
0.009357
 51
89.985571
  0
LINE
  5
75
330
48
100
AcDbEntity
  8
0
  6
Continuous
 62
     0
370
    30
100
AcDbLine
 10
224.759638
 20
292.570149
 30
0.0
 11
224.759638
 21
299.870149
 31
0.0
  0
LINE
  5
76
330
48
100
AcDbEntity
  8
0
  6
Continuous
 62
     0
370
    30
100
AcDbLine
 10
201.959638
 20
292.570149
 30
0.0
 11
201.959638
 21
299.870149
 31
0.0
  0
ARC
  5
77
330
48
100
AcDbEntity
  8
0
  6
Continuous
 62
     0
370
    30
100
AcDbCircle
 10
204.359657
 20
282.020161
 30
0.0
 40
0.2500125992298123
100
AcDbArc
 50
180.002887
 51
269.992311
  0
ARC
  5
78
330
48
100
AcDbEntity
  8
0
  6
Continuous
 62
     0
370
    30
100
AcDbCircle
 10
222.359616
 20
282.020161
 30
0.0
 40
0.2500125426333877
100
AcDbArc
 50
270.006198
 51
359.997126
  0
LINE
  5
79
330
48
100
AcDbEntity
  8
0
  6
Continuous
 62
     0
370
    30
100
AcDbLine
 10
222.609638
 20
282.020149
 30
0.0
 11
222.609638
 21
282.270149
 31
0.0
  0
LINE
  5
7A
330
48
100
AcDbEntity
  8
0
  6
Continuous
 62
     0
370
    30
100
AcDbLine
 10
204.109638
 20
282.020149
 30
0.0
 11
204.109638
 21
282.270149
 31
0.0
  0
LINE
  5
7B
330
48
100
AcDbEntity
  8
0
  6
Continuous
 62
     0
370
    30
100
AcDbLine
 10
203.859644
 20
282.270149
 30
0.0
 11
202.859645
 21
283.270149
 31
0.0
  0
LINE
  5
7C
330
48
100
AcDbEntity
  8
0
  6
Continuous
 62
     0
370
    30
100
AcDbLine
 10
222.859628
 20
282.270149
 30
0.0
 11
223.859627
 21
283.270149
 31
0.0
  0
LINE
  5
7D
330
48
100
AcDbEntity
  8
0
  6
Continuous
 62
     0
370
    30
100
AcDbLine
 10
223.859638
 20
283.270149
 30
0.0
 11
223.859638
 21
288.870149
 31
0.0
  0
LINE
  5
7E
330
48
100
AcDbEntity
  8
0
  6
Continuous
 62
     0
370
    30
100
AcDbLine
 10
202.859638
 20
283.270149
 30
0.0
 11
202.859638
 21
288.870149
 31
0.0
  0
LINE
  5
7F
330
48
100
AcDbEntity
  8
0
  6
Continuous
 62
     0
370
    30
100
AcDbLine
 10
222.459638
 20
288.870149
 30
0.0
 11
222.459638
 21
292.370149
 31
0.0
  0
LINE
  5
80
330
48
100
AcDbEntity
  8
0
  6
Continuous
 62
     0
370
    30
100
AcDbLine
 10
204.259638
 20
288.870149
 30
0.0
 11
204.259638
 21
292.370149
 31
0.0
  0
ENDBLK
  5
82
330
48
100
AcDbEntity
  8
0
100
AcDbBlockEnd
  0
BLOCK
  5
97
330
84
100
AcDbEntity
  8
0
100
AcDbBlockBegin
  2
b
 70
     0
 10
148.379429
 20
118.113609
 30
0.0
  3
b
  1

  0
LINE
  5
85
330
84
100
AcDbEntity
  8
0
  6
Continuous
 62
     0
370
    30
100
AcDbLine
 10
193.359638
 20
142.929847
 30
0.0
 11
193.359638
 21
182.929847
 31
0.0
  0
ARC
  5
86
330
84
100
AcDbEntity
  8
0
  6
Continuous
 62
     0
370
    30
100
AcDbCircle
 10
213.359638
 20
142.929847
 30
0.0
 40
20.0
100
AcDbArc
 50
180.0
 51
0.0
  0
LINE
  5
87
330
84
100
AcDbEntity
  8
0
  6
Continuous
 62
     0
370
    30
100
AcDbLine
 10
233.359638
 20
182.929847
 30
0.0
 11
233.359638
 21
142.929847
 31
0.0
  0
ARC
  5
88
330
84
100
AcDbEntity
  8
0
  6
Continuous
 62
     0
370
    30
100
AcDbCircle
 10
173.559638
 20
183.129846
 30
0.0
 40
0.200000002980232
100
AcDbArc
 50
180.0
 51
270.0
  0
ARC
  5
89
330
84
100
AcDbEntity
  8
0
  6
Continuous
 62
     0
370
    30
100
AcDbCircle
 10
253.159638
 20
183.129846
 30
0.0
 40
0.200000002980239
100
AcDbArc
 50
270.0
 51
0.0
  0
LINE
  5
8A
330
84
100
AcDbEntity
  8
0
  6
Continuous
 62
     0
370
    30
100
AcDbLine
 10
253.359638
 20
197.929846
 30
0.0
 11
253.159638
 21
197.929846
 31
0.0
  0
LINE
  5
8B
330
84
100
AcDbEntity
  8
0
  6
Continuous
 62
     0
370
     0
100
AcDbLine
 10
253.159638
 20
183.129846
 30
0.0
 11
253.159638
 21
197.929846
 31
0.0
  0
LINE
  5
8C
330
84
100
AcDbEntity
  8
0
  6
Continuous
 62
     0
370
     0
100
AcDbLine
 10
253.359638
 20
183.129846
 30
0.0
 11
253.159638
 21
183.129846
 31
0.0
  0
LINE
  5
8D
330
84
100
AcDbEntity
  8
0
  6
Continuous
 62
     0
370
    30
100
AcDbLine
 10
253.359638
 20
183.129846
 30
0.0
 11
253.359638
 21
197.929846
 31
0.0
  0
LINE
  5
8E
330
84
100
AcDbEntity
  8
0
  6
Continuous
 62
     0
370
     0
100
AcDbLine
 10
173.559638
 20
183.129846
 30
0.0
 11
173.559638
 21
182.929846
 31
0.0
  0
LINE
  5
8F
330
84
100
AcDbEntity
  8
0
  6
Continuous
 62
     0
370
    30
100
AcDbLine
 10
173.559638
 20
182.929846
 30
0.0
 11
253.159638
 21
182.929846
 31
0.0
  0
LINE
  5
90
330
84
100
AcDbEntity
  8
0
  6
Continuous
 62
     0
370
     0
100
AcDbLine
 10
253.159638
 20
183.129846
 30
0.0
 11
253.159638
 21
182.929846
 31
0.0
  0
LINE
  5
91
330
84
100
AcDbEntity
  8
0
  6
Continuous
 62
     0
370
     0
100
AcDbLine
 10
173.559638
 20
183.129846
 30
0.0
 11
253.159638
 21
183.129846
 31
0.0
  0
LINE
  5
92
330
84
100
AcDbEntity
  8
0
  6
Continuous
 62
     0
370
    30
100
AcDbLine
 10
173.559638
 20
197.929846
 30
0.0
 11
173.359638
 21
197.929846
 31
0.0
  0
LINE
  5
93
330
84
100
AcDbEntity
  8
0
  6
Continuous
 62
     0
370
    30
100
AcDbLine
 10
173.359638
 20
183.129846
 30
0.0
 11
173.359638
 21
197.929846
 31
0.0
  0
LINE
  5
94
330
84
100
AcDbEntity
  8
0
  6
Continuous
 62
     0
370
     0
100
AcDbLine
 10
173.559638
 20
183.129846
 30
0.0
 11
173.359638
 21
183.129846
 31
0.0
  0
LINE
  5
95
330
84
100
AcDbEntity
  8
0
  6
Continuous
 62
     0
370
     0
100
AcDbLine
 10
173.559638
 20
183.129846
 30
0.0
 11
173.559638
 21
197.929846
 31
0.0
  0
LINE
  5
96
330
84
100
AcDbEntity
  8
0
  6
Continuous
 62
     0
370
    30
100
AcDbLine
 10
173.559638
 20
197.929846
 30
0.0
 11
253.159638
 21
197.929846
 31
0.0
  0
ENDBLK
  5
98
330
84
100
AcDbEntity
  8
0
100
AcDbBlockEnd
  0
BLOCK
  5
D0
330
9A
100
AcDbEntity
  8
0
100
AcDbBlockBegin
  2
c
 70
     0
 10
145.779434
 20
118.113609
 30
0.0
  3
c
  1

  0
LINE
  5
9B
330
9A
100
AcDbEntity
  8
0
  6
Continuous
 62
     0
370
    30
100
AcDbLine
 10
395.006516
 20
288.870149
 30
0.0
 11
390.140357
 21
288.870149
 31
0.0
  0
LWPOLYLINE
  5
9C
330
9A
100
AcDbEntity
  8
0
  6
Continuous
 62
     0
370
    30
100
AcDbPolyline
 90
       19
 70
     0
 43
0.0
 10
411.14035
 20
288.870148
 10
411.060669
 20
288.870148
 10
410.829315
 20
288.870148
 10
410.462097
 20
288.870148
 10
409.978851
 20
288.870148
 10
409.400787
 20
288.870148
 10
408.709381
 20
288.870148
 10
407.886902
 20
288.870148
 10
406.937378
 20
288.870148
 10
405.871246
 20
288.870148
 10
404.705597
 20
288.870148
 10
403.463531
 20
288.870148
 10
402.172821
 20
288.870148
 10
400.863922
 20
288.870148
 10
399.567535
 20
288.870148
 10
398.312378
 20
288.870148
 10
397.123138
 20
288.870148
 10
396.019318
 20
288.870148
 10
395.006531
 20
288.870148
  0
LINE
  5
9D
330
9A
100
AcDbEntity
  8
0
  6
Continuous
 62
     0
370
    30
100
AcDbLine
 10
390.140357
 20
283.270149
 30
0.0
 11
395.006516
 21
283.270149
 31
0.0
  0
LINE
  5
9E
330
9A
100
AcDbEntity
  8
0
  6
Continuous
 62
     0
370
    30
100
AcDbLine
 10
395.006516
 20
283.270149
 30
0.0
 11
411.140357
 21
283.270149
 31
0.0
  0
LINE
  5
9F
330
9A
100
AcDbEntity
  8
0
  6
Continuous
 62
     0
370
    30
100
AcDbLine
 10
395.543072
 20
282.270149
 30
0.0
 11
410.140357
 21
282.270149
 31
0.0
  0
LINE
  5
A0
330
9A
100
AcDbEntity
  8
0
  6
Continuous
 62
     0
370
    30
100
AcDbLine
 10
391.140357
 20
282.270149
 30
0.0
 11
395.543072
 21
282.270149
 31
0.0
  0
LINE
  5
A1
330
9A
100
AcDbEntity
  8
0
  6
Continuous
 62
     0
370
     0
100
AcDbLine
 10
391.390357
 20
282.020149
 30
0.0
 11
395.677211
 21
282.020149
 31
0.0
  0
LINE
  5
A2
330
9A
100
AcDbEntity
  8
0
  6
Continuous
 62
     0
370
     0
100
AcDbLine
 10
395.677211
 20
282.020149
 30
0.0
 11
409.890357
 21
282.020149
 31
0.0
  0
LINE
  5
A3
330
9A
100
AcDbEntity
  8
0
  6
Continuous
 62
     0
370
    30
100
AcDbLine
 10
395.811351
 20
281.770149
 30
0.0
 11
391.640443
 21
281.770149
 31
0.0
  0
LWPOLYLINE
  5
A4
330
9A
100
AcDbEntity
  8
0
  6
Continuous
 62
     0
370
    30
100
AcDbPolyline
 90
       18
 70
     0
 43
0.0
 10
409.640259
 20
281.770142
 10
409.569855
 20
281.770142
 10
409.359497
 20
281.770142
 10
409.012665
 20
281.770142
 10
408.534637
 20
281.770142
 10
407.933014
 20
281.770142
 10
407.217133
 20
281.770142
 10
406.398254
 20
281.770142
 10
405.489258
 20
281.770142
 10
404.504242
 20
281.770142
 10
403.458771
 20
281.770142
 10
402.369141
 20
281.770142
 10
401.25238
 20
281.770142
 10
400.126038
 20
281.770142
 10
399.008057
 20
281.770142
 10
397.915375
 20
281.770142
 10
396.864349
 20
281.770142
 10
395.81134
 20
281.770142
  0
LINE
  5
A5
330
9A
100
AcDbEntity
  8
0
  6
Continuous
 62
     0
370
     0
100
AcDbLine
 10
389.240357
 20
292.570149
 30
0.0
 11
394.523616
 21
292.570149
 31
0.0
  0
LINE
  5
A6
330
9A
100
AcDbEntity
  8
0
  6
Continuous
 62
     0
370
     0
100
AcDbLine
 10
394.523616
 20
292.570149
 30
0.0
 11
412.040357
 21
292.570149
 31
0.0
  0
LINE
  5
A7
330
9A
100
AcDbEntity
  8
0
  6
Continuous
 62
     0
370
     0
100
AcDbLine
 10
412.040357
 20
299.870149
 30
0.0
 11
394.523616
 21
299.870149
 31
0.0
  0
LINE
  5
A8
330
9A
100
AcDbEntity
  8
0
  6
Continuous
 62
     0
370
     0
100
AcDbLine
 10
394.523616
 20
299.870149
 30
0.0
 11
389.240357
 21
299.870149
 31
0.0
  0
LINE
  5
A9
330
9A
100
AcDbEntity
  8
0
  6
Continuous
 62
     0
370
    30
100
AcDbLine
 10
394.630927
 20
292.370149
 30
0.0
 11
411.840357
 21
292.370149
 31
0.0
  0
LINE
  5
AA
330
9A
100
AcDbEntity
  8
0
  6
Continuous
 62
     0
370
    30
100
AcDbLine
 10
389.440357
 20
292.370149
 30
0.0
 11
394.630927
 21
292.370149
 31
0.0
  0
LINE
  5
AB
330
9A
100
AcDbEntity
  8
0
  6
Continuous
 62
     0
370
     0
100
AcDbLine
 10
400.640357
 20
300.070148
 30
0.0
 11
400.640357
 21
320.070148
 31
0.0
  0
LINE
  5
AC
330
9A
100
AcDbEntity
  8
0
  6
Continuous
 62
     0
370
    30
100
AcDbLine
 10
400.640357
 20
320.070148
 30
0.0
 11
360.640357
 21
320.070148
 31
0.0
  0
LINE
  5
AD
330
9A
100
AcDbEntity
  8
0
  6
Continuous
 62
     0
370
    30
100
AcDbLine
 10
360.640357
 20
300.070148
 30
0.0
 11
400.640357
 21
300.070148
 31
0.0
  0
LINE
  5
AE
330
9A
100
AcDbEntity
  8
0
  6
Continuous
 62
     0
370
    30
100
AcDbLine
 10
400.640357
 20
300.070148
 30
0.0
 11
420.640356
 21
300.070148
 31
0.0
  0
LINE
  5
AF
330
9A
100
AcDbEntity
  8
0
  6
Continuous
 62
     0
370
    30
100
AcDbLine
 10
420.640356
 20
320.070148
 30
0.0
 11
400.640357
 21
320.070148
 31
0.0
  0
LINE
  5
B0
330
9A
100
AcDbEntity
  8
0
  6
Continuous
 62
     0
370
    30
100
AcDbLine
 10
345.640358
 20
270.270148
 30
0.0
 11
345.640358
 21
270.070148
 31
0.0
  0
LINE
  5
B1
330
9A
100
AcDbEntity
  8
0
  6
Continuous
 62
     0
370
    30
100
AcDbLine
 10
360.440358
 20
270.070148
 30
0.0
 11
345.640358
 21
270.070148
 31
0.0
  0
LINE
  5
B2
330
9A
100
AcDbEntity
  8
0
  6
Continuous
 62
     0
370
     0
100
AcDbLine
 10
360.440358
 20
270.270148
 30
0.0
 11
360.440358
 21
270.070148
 31
0.0
  0
LINE
  5
B3
330
9A
100
AcDbEntity
  8
0
  6
Continuous
 62
     0
370
     0
100
AcDbLine
 10
360.440358
 20
270.270148
 30
0.0
 11
345.640358
 21
270.270148
 31
0.0
  0
ARC
  5
B4
330
9A
100
AcDbEntity
  8
0
  6
Continuous
 62
     0
370
    30
100
AcDbCircle
 10
360.440358
 20
270.270148
 30
0.0
 40
0.200000002980232
100
AcDbArc
 50
270.0
 51
360.0
  0
LINE
  5
B5
330
9A
100
AcDbEntity
  8
0
  6
Continuous
 62
     0
370
     0
100
AcDbLine
 10
360.440358
 20
349.870148
 30
0.0
 11
360.640358
 21
349.870148
 31
0.0
  0
LINE
  5
B6
330
9A
100
AcDbEntity
  8
0
  6
Continuous
 62
     0
370
     0
100
AcDbLine
 10
360.440358
 20
270.270148
 30
0.0
 11
360.440358
 21
349.870148
 31
0.0
  0
LINE
  5
B7
330
9A
100
AcDbEntity
  8
0
  6
Continuous
 62
     0
370
     0
100
AcDbLine
 10
360.440358
 20
270.270148
 30
0.0
 11
360.640358
 21
270.270148
 31
0.0
  0
LINE
  5
B8
330
9A
100
AcDbEntity
  8
0
  6
Continuous
 62
     0
370
    30
100
AcDbLine
 10
360.640358
 20
270.270148
 30
0.0
 11
360.640358
 21
349.870148
 31
0.0
  0
ARC
  5
B9
330
9A
100
AcDbEntity
  8
0
  6
Continuous
 62
     0
370
    30
100
AcDbCircle
 10
360.440358
 20
349.870148
 30
0.0
 40
0.200000002980232
100
AcDbArc
 50
0.0
 51
90.0
  0
LINE
  5
BA
330
9A
100
AcDbEntity
  8
0
  6
Continuous
 62
     0
370
    30
100
AcDbLine
 10
345.640358
 20
350.070148
 30
0.0
 11
345.640358
 21
349.870148
 31
0.0
  0
LINE
  5
BB
330
9A
100
AcDbEntity
  8
0
  6
Continuous
 62
     0
370
     0
100
AcDbLine
 10
360.440358
 20
349.870148
 30
0.0
 11
345.640358
 21
349.870148
 31
0.0
  0
LINE
  5
BC
330
9A
100
AcDbEntity
  8
0
  6
Continuous
 62
     0
370
     0
100
AcDbLine
 10
360.440358
 20
350.070148
 30
0.0
 11
360.440358
 21
349.870148
 31
0.0
  0
LINE
  5
BD
330
9A
100
AcDbEntity
  8
0
  6
Continuous
 62
     0
370
    30
100
AcDbLine
 10
360.440358
 20
350.070148
 30
0.0
 11
345.640358
 21
350.070148
 31
0.0
  0
LINE
  5
BE
330
9A
100
AcDbEntity
  8
0
  6
Continuous
 62
     0
370
    30
100
AcDbLine
 10
345.640358
 20
270.270148
 30
0.0
 11
345.640358
 21
349.870148
 31
0.0
  0
LINE
  5
BF
330
9A
100
AcDbEntity
  8
0
  6
Continuous
 62
     0
370
    30
100
AcDbLine
 10
420.640356
 20
300.070148
 30
0.0
 11
420.640356
 21
320.070148
 31
0.0
  0
ARC
  5
C0
330
9A
100
AcDbEntity
  8
0
  6
Continuous
 62
     0
370
    30
100
AcDbCircle
 10
411.840318
 20
292.570181
 30
0.0
 40
0.2000321387421892
100
AcDbArc
 50
270.014101
 51
359.990797
  0
ARC
  5
C1
330
9A
100
AcDbEntity
  8
0
  6
Continuous
 62
     0
370
    30
100
AcDbCircle
 10
389.440396
 20
292.570181
 30
0.0
 40
0.200032139225871
100
AcDbArc
 50
180.009203
 51
269.984373
  0
ARC
  5
C2
330
9A
100
AcDbEntity
  8
0
  6
Continuous
 62
     0
370
    30
100
AcDbCircle
 10
411.840317
 20
299.870116
 30
0.0
 40
0.2000327128032499
100
AcDbArc
 50
0.009368
 51
89.987931
  0
ARC
  5
C3
330
9A
100
AcDbEntity
  8
0
  6
Continuous
 62
     0
370
    30
100
AcDbCircle
 10
389.440397
 20
299.870116
 30
0.0
 40
0.2000327127765463
100
AcDbArc
 50
90.013023
 51
179.990632
  0
LINE
  5
C4
330
9A
100
AcDbEntity
  8
0
  6
Continuous
 62
     0
370
    30
100
AcDbLine
 10
389.240357
 20
292.570149
 30
0.0
 11
389.240357
 21
299.870149
 31
0.0
  0
LINE
  5
C5
330
9A
100
AcDbEntity
  8
0
  6
Continuous
 62
     0
370
    30
100
AcDbLine
 10
412.040357
 20
292.570149
 30
0.0
 11
412.040357
 21
299.870149
 31
0.0
  0
ARC
  5
C6
330
9A
100
AcDbEntity
  8
0
  6
Continuous
 62
     0
370
    30
100
AcDbCircle
 10
391.640377
 20
282.020163
 30
0.0
 40
0.2500145998280216
100
AcDbArc
 50
180.003346
 51
269.994408
  0
ARC
  5
C7
330
9A
100
AcDbEntity
  8
0
  6
Continuous
 62
     0
370
    30
100
AcDbCircle
 10
409.640337
 20
282.020163
 30
0.0
 40
0.2500146028231508
100
AcDbArc
 50
270.005029
 51
359.996654
  0
LINE
  5
C8
330
9A
100
AcDbEntity
  8
0
  6
Continuous
 62
     0
370
    30
100
AcDbLine
 10
391.390357
 20
282.020149
 30
0.0
 11
391.390357
 21
282.270149
 31
0.0
  0
LINE
  5
C9
330
9A
100
AcDbEntity
  8
0
  6
Continuous
 62
     0
370
    30
100
AcDbLine
 10
409.890357
 20
282.020149
 30
0.0
 11
409.890357
 21
282.270149
 31
0.0
  0
LINE
  5
CA
330
9A
100
AcDbEntity
  8
0
  6
Continuous
 62
     0
370
    30
100
AcDbLine
 10
410.140351
 20
282.270149
 30
0.0
 11
411.14035
 21
283.270149
 31
0.0
  0
LINE
  5
CB
330
9A
100
AcDbEntity
  8
0
  6
Continuous
 62
     0
370
    30
100
AcDbLine
 10
391.140363
 20
282.270149
 30
0.0
 11
390.140364
 21
283.270149
 31
0.0
  0
LINE
  5
CC
330
9A
100
AcDbEntity
  8
0
  6
Continuous
 62
     0
370
    30
100
AcDbLine
 10
390.140357
 20
283.270149
 30
0.0
 11
390.140357
 21
288.870149
 31
0.0
  0
LINE
  5
CD
330
9A
100
AcDbEntity
  8
0
  6
Continuous
 62
     0
370
    30
100
AcDbLine
 10
411.140357
 20
283.270149
 30
0.0
 11
411.140357
 21
288.870149
 31
0.0
  0
LINE
  5
CE
330
9A
100
AcDbEntity
  8
0
  6
Continuous
 62
     0
370
    30
100
AcDbLine
 10
391.540357
 20
288.870149
 30
0.0
 11
391.540357
 21
292.370149
 31
0.0
  0
LINE
  5
CF
330
9A
100
AcDbEntity
  8
0
  6
Continuous
 62
     0
370
    30
100
AcDbLine
 10
409.740357
 20
288.870149
 30
0.0
 11
409.740357
 21
292.370149
 31
0.0
  0
ENDBLK
  5
D1
330
9A
100
AcDbEntity
  8
0
100
AcDbBlockEnd
  0
BLOCK
  5
103
330
D3
100
AcDbEntity
  8
0
100
AcDbBlockBegin
  2
d
 70
     0
 10
145.779434
 20
118.113609
 30
0.0
  3
d
  1

  0
ELLIPSE
  5
D4
330
D3
100
AcDbEntity
  8
0
  6
Continuous
 62
     0
370
    30
100
AcDbEllipse
 10
349.178455
 20
145.22088
 30
0.0
 11
-9.100000000000009
 21
5.051514762044466E-16
 31
0.0
210
0.0
220
0.0
230
1.0
 40
0.707107
 41
1.789843584464892
 42
1.916936864000258
  0
ELLIPSE
  5
D5
330
D3
100
AcDbEntity
  8
0
  6
Continuous
 62
     0
370
    30
100
AcDbEllipse
 10
349.178455
 20
145.22088
 30
0.0
 11
-9.100000000000009
 21
5.051514762044466E-16
 31
0.0
210
0.0
220
0.0
230
1.0
 40
0.707107
 41
1.224655654578332
 42
1.78984358446489
  0
LWPOLYLINE
  5
D6
330
D3
100
AcDbEntity
  8
0
  6
Continuous
 62
     0
370
    30
100
AcDbPolyline
 90
        6
 70
     0
 43
0.0
 10
356.691376
 20
140.034058
 10
355.769073
 20
139.44101
 10
354.774078
 20
138.9384
 10
353.731323
 20
138.530533
 10
352.665253
 20
138.21759
 10
351.460114
 20
137.973663
  0
LWPOLYLINE
  5
D7
330
D3
100
AcDbEntity
  8
0
  6
Continuous
 62
     0
370
    30
100
AcDbPolyline
 90
       10
 70
     0
 43
0.0
 10
351.460114
 20
137.973663
 10
350.41449
 20
137.847885
 10
349.31665
 20
137.796906
 10
348.182007
 20
137.829773
 10
347.029358
 20
137.95343
 10
345.880371
 20
138.172028
 10
344.758331
 20
138.486176
 10
343.686829
 20
138.892685
 10
342.68808
 20
139.384567
 10
341.665558
 20
140.034058
  0
ELLIPSE
  5
D8
330
D3
100
AcDbEntity
  8
0
  6
Continuous
 62
     0
370
    30
100
AcDbEllipse
 10
349.178455
 20
141.261082
 30
0.0
 11
-10.5
 21
5.828670879282071E-16
 31
0.0
210
0.0
220
0.0
230
1.0
 40
0.707107
 41
1.789843584464894
 42
3.120303890615519
  0
ELLIPSE
  5
D9
330
D3
100
AcDbEntity
  8
0
  6
Continuous
 62
     0
370
    30
100
AcDbEllipse
 10
349.178455
 20
141.261082
 30
0.0
 11
-10.5
 21
5.828670879282071E-16
 31
0.0
210
0.0
220
0.0
230
1.0
 40
0.707107
 41
0.0212886573279372
 42
1.789843584464892
  0
LINE
  5
DA
330
D3
100
AcDbEntity
  8
0
  6
Continuous
 62
     0
370
    30
100
AcDbLine
 10
335.03632
 20
177.282611
 30
0.0
 11
363.320591
 21
197.282612
 31
0.0
  0
ELLIPSE
  5
DB
330
D3
100
AcDbEntity
  8
0
  6
Continuous
 62
     0
370
    30
100
AcDbEllipse
 10
349.178455
 20
153.140476
 30
0.0
 11
-20.0
 21
0.0
 31
0.0
210
0.0
220
0.0
230
1.0
 40
0.707107
 41
6.283185283721288
 42
8.63937979737193
  0
LINE
  5
DC
330
D3
100
AcDbEntity
  8
0
  6
Continuous
 62
     0
370
     0
100
AcDbLine
 10
363.320591
 20
143.140475
 30
0.0
 11
363.320591
 21
157.282611
 31
0.0
  0
ELLIPSE
  5
DD
330
D3
100
AcDbEntity
  8
0
  6
Continuous
 62
     0
370
    30
100
AcDbEllipse
 10
349.178455
 20
167.282611
 30
0.0
 11
20.0
 21
0.0
 31
0.0
210
0.0
220
0.0
230
-1.0
 40
0.707107
 41
0.7853981633974482
 42
3.926990816987241
  0
LINE
  5
DE
330
D3
100
AcDbEntity
  8
0
  6
Continuous
 62
     0
370
    30
100
AcDbLine
 10
363.320591
 20
143.140475
 30
0.0
 11
391.604862
 21
163.140476
 31
0.0
  0
LINE
  5
DF
330
D3
100
AcDbEntity
  8
0
  6
Continuous
 62
     0
370
    30
100
AcDbLine
 10
391.604862
 20
163.140476
 30
0.0
 11
391.604862
 21
177.282611
 31
0.0
  0
LINE
  5
E0
330
D3
100
AcDbEntity
  8
0
  6
Continuous
 62
     0
370
    30
100
AcDbLine
 10
391.604862
 20
177.282611
 30
0.0
 11
363.320591
 21
157.282611
 31
0.0
  0
LINE
  5
E1
330
D3
100
AcDbEntity
  8
0
  6
Continuous
 62
     0
370
    30
100
AcDbLine
 10
391.604862
 20
177.282611
 30
0.0
 11
363.320591
 21
197.282612
 31
0.0
  0
ELLIPSE
  5
E2
330
D3
100
AcDbEntity
  8
0
  6
Continuous
 62
     0
370
     0
100
AcDbEllipse
 10
405.746998
 20
132.268694
 30
0.0
 11
-0.1154700581443001
 21
-0.1632993167905021
 31
0.0
210
0.0
220
0.0
230
-0.9999999999999998
 40
0.5
 41
6.267082856549617
 42
6.898664984181232
  0
LINE
  5
E3
330
D3
100
AcDbEntity
  8
0
  6
Continuous
 62
     0
370
     0
100
AcDbLine
 10
405.605576
 20
132.168694
 30
0.0
 11
376.704865
 21
152.604584
 31
0.0
  0
ELLIPSE
  5
E4
330
D3
100
AcDbEntity
  8
0
  6
Continuous
 62
     0
370
     0
100
AcDbEllipse
 10
349.461298
 20
228.354394
 30
0.0
 11
-0.200000002980232
 21
0.0
 31
0.0
210
0.0
220
0.0
230
1.0
 40
0.707107
 41
6.283185283721321
 42
7.06858347057704
  0
LINE
  5
E5
330
D3
100
AcDbEntity
  8
0
  6
Continuous
 62
     0
370
     0
100
AcDbLine
 10
349.319877
 20
187.382609
 30
0.0
 11
349.319877
 21
228.254394
 31
0.0
  0
ELLIPSE
  5
E6
330
D3
100
AcDbEntity
  8
0
  6
Continuous
 62
     0
370
    30
100
AcDbEllipse
 10
416.212178
 20
139.668695
 30
0.0
 11
0.1154700581443001
 21
-0.1632993167905021
 31
0.0
210
0.0
220
0.0
230
0.9999999999999998
 40
0.5
 41
0.0000000636833928
 42
0.6154796770017317
  0
LINE
  5
E7
330
D3
100
AcDbEntity
  8
0
  6
Continuous
 62
     0
370
     0
100
AcDbLine
 10
405.888419
 20
132.168694
 30
0.0
 11
416.3536
 21
139.568695
 31
0.0
  0
ELLIPSE
  5
E8
330
D3
100
AcDbEntity
  8
0
  6
Continuous
 62
     0
370
     0
100
AcDbEllipse
 10
405.746998
 20
132.268694
 30
0.0
 11
0.1154700581443001
 21
-0.1632993167905021
 31
0.0
210
0.0
220
0.0
230
0.9999999999999998
 40
0.5
 41
5.327868657386407
 42
6.898664984181282
  0
ELLIPSE
  5
E9
330
D3
100
AcDbEntity
  8
0
  6
Continuous
 62
     0
370
     0
100
AcDbEllipse
 10
405.746998
 20
188.554392
 30
0.0
 11
0.200000002980239
 21
0.0
 31
0.0
210
0.0
220
0.0
230
-1.0
 40
0.707107
 41
0.7853981633974536
 42
2.356194490192347
  0
LINE
  5
EA
330
D3
100
AcDbEntity
  8
0
  6
Continuous
 62
     0
370
     0
100
AcDbLine
 10
405.605576
 20
188.454392
 30
0.0
 11
405.605576
 21
132.168694
 31
0.0
  0
ELLIPSE
  5
EB
330
D3
100
AcDbEntity
  8
0
  6
Continuous
 62
     0
370
     0
100
AcDbEllipse
 10
405.746998
 20
132.268694
 30
0.0
 11
0.200000002980232
 21
0.0
 31
0.0
210
0.0
220
0.0
230
-1.0
 40
0.707107
 41
0.7853981633974536
 42
2.356194490192304
  0
LINE
  5
EC
330
D3
100
AcDbEntity
  8
0
  6
Continuous
 62
     0
370
     0
100
AcDbLine
 10
405.888419
 20
188.454392
 30
0.0
 11
405.888419
 21
132.168694
 31
0.0
  0
ELLIPSE
  5
ED
330
D3
100
AcDbEntity
  8
0
  6
Continuous
 62
     0
370
    30
100
AcDbEllipse
 10
416.212178
 20
195.954393
 30
0.0
 11
0.1154700581443001
 21
-0.1632993167905021
 31
0.0
210
0.0
220
0.0
230
0.9999999999999998
 40
0.5
 41
0.6154796770017281
 42
2.186276003796582
  0
LINE
  5
EE
330
D3
100
AcDbEntity
  8
0
  6
Continuous
 62
     0
370
     0
100
AcDbLine
 10
405.746998
 20
188.695814
 30
0.0
 11
416.212178
 21
196.095814
 31
0.0
  0
ELLIPSE
  5
EF
330
D3
100
AcDbEntity
  8
0
  6
Continuous
 62
     0
370
     0
100
AcDbEllipse
 10
405.746998
 20
188.554392
 30
0.0
 11
0.1154700581443041
 21
-0.1632993167905078
 31
0.0
210
0.0
220
0.0
230
0.9999999999999998
 40
0.5
 41
0.6154796770016961
 42
2.186276003796529
  0
LINE
  5
F0
330
D3
100
AcDbEntity
  8
0
  6
Continuous
 62
     0
370
     0
100
AcDbLine
 10
405.888419
 20
188.454392
 30
0.0
 11
416.3536
 21
195.854393
 31
0.0
  0
ELLIPSE
  5
F1
330
D3
100
AcDbEntity
  8
0
  6
Continuous
 62
     0
370
     0
100
AcDbEllipse
 10
349.461298
 20
228.354394
 30
0.0
 11
0.1154700581443001
 21
0.1632993167905021
 31
0.0
210
0.0
220
0.0
230
0.9999999999999998
 40
0.5
 41
0.9553166497932057
 42
2.526112976588097
  0
LINE
  5
F2
330
D3
100
AcDbEntity
  8
0
  6
Continuous
 62
     0
370
     0
100
AcDbLine
 10
349.319877
 20
228.254394
 30
0.0
 11
405.605576
 21
188.454392
 31
0.0
  0
ELLIPSE
  5
F3
330
D3
100
AcDbEntity
  8
0
  6
Continuous
 62
     0
370
     0
100
AcDbEllipse
 10
405.746998
 20
188.554392
 30
0.0
 11
0.1154700581443041
 21
0.1632993167905078
 31
0.0
210
0.0
220
0.0
230
0.9999999999999998
 40
0.5
 41
0.9553166497931933
 42
2.526112976588087
  0
LINE
  5
F4
330
D3
100
AcDbEntity
  8
0
  6
Continuous
 62
     0
370
     0
100
AcDbLine
 10
349.461298
 20
228.495815
 30
0.0
 11
405.746998
 21
188.695814
 31
0.0
  0
ELLIPSE
  5
F5
330
D3
100
AcDbEntity
  8
0
  6
Continuous
 62
     0
370
    30
100
AcDbEllipse
 10
359.926478
 20
235.754394
 30
0.0
 11
0.1154700581443001
 21
-0.1632993167905021
 31
0.0
210
0.0
220
0.0
230
0.9999999999999998
 40
0.5
 41
2.186276003796591
 42
3.141592717273141
  0
ELLIPSE
  5
F6
330
D3
100
AcDbEntity
  8
0
  6
Continuous
 62
     0
370
     0
100
AcDbEllipse
 10
349.461298
 20
228.354394
 30
0.0
 11
0.1154700581443001
 21
-0.1632993167905021
 31
0.0
210
0.0
220
0.0
230
0.9999999999999998
 40
0.5
 41
2.186276003796614
 42
3.15072821824862
  0
LINE
  5
F7
330
D3
100
AcDbEntity
  8
0
  6
Continuous
 62
     0
370
     0
100
AcDbLine
 10
349.461298
 20
228.495815
 30
0.0
 11
359.926478
 21
235.895815
 31
0.0
  0
LINE
  5
F8
330
D3
100
AcDbEntity
  8
0
  6
Continuous
 62
     0
370
    30
100
AcDbLine
 10
359.926478
 20
235.895815
 30
0.0
 11
416.212178
 21
196.095814
 31
0.0
  0
LINE
  5
F9
330
D3
100
AcDbEntity
  8
0
  6
Continuous
 62
     0
370
    30
100
AcDbLine
 10
416.3536
 20
195.854393
 30
0.0
 11
416.3536
 21
139.568695
 31
0.0
  0
ARC
  5
FA
330
D3
100
AcDbEntity
  8
0
  6
Continuous
 62
     0
370
    30
100
AcDbCircle
 10
405.747009
 20
132.268613
 30
0.0
 40
0.1999204789050813
100
AcDbArc
 50
234.730242
 51
305.275689
  0
ARC
  5
FB
330
D3
100
AcDbEntity
  8
0
  6
Continuous
 62
     0
370
    30
100
AcDbCircle
 10
349.461561
 20
228.35425
 30
0.0
 40
0.2002631008377709
100
AcDbArc
 50
125.302467
 51
179.958853
  0
LINE
  5
FC
330
D3
100
AcDbEntity
  8
0
  6
Continuous
 62
     0
370
    30
100
AcDbLine
 10
359.811008
 20
235.917693
 30
0.0
 11
349.345828
 21
228.517693
 31
0.0
  0
LINE
  5
FD
330
D3
100
AcDbEntity
  8
0
  6
Continuous
 62
     0
370
    30
100
AcDbLine
 10
416.327648
 20
139.505395
 30
0.0
 11
405.862468
 21
132.105395
 31
0.0
  0
LINE
  5
FE
330
D3
100
AcDbEntity
  8
0
  6
Continuous
 62
     0
370
    30
100
AcDbLine
 10
349.261298
 20
187.341188
 30
0.0
 11
349.261298
 21
228.354394
 31
0.0
  0
LINE
  5
FF
330
D3
100
AcDbEntity
  8
0
  6
Continuous
 62
     0
370
    30
100
AcDbLine
 10
405.631528
 20
132.105395
 30
0.0
 11
376.673082
 21
152.58211
 31
0.0
  0
LINE
  5
100
330
D3
100
AcDbEntity
  8
0
  6
Continuous
 62
     0
370
    30
100
AcDbLine
 10
329.178455
 20
153.140476
 30
0.0
 11
329.178455
 21
167.282611
 31
0.0
  0
LWPOLYLINE
  5
101
330
D3
100
AcDbEntity
  8
0
  6
Continuous
 62
     0
370
    30
100
AcDbPolyline
 90
        3
 70
     0
 43
0.0
 10
351.173035
 20
133.91835
 10
351.538574
 20
133.981491
 10
352.852997
 20
134.305954
  0
LWPOLYLINE
  5
102
330
D3
100
AcDbEntity
  8
0
  6
Continuous
 62
     0
370
    30
100
AcDbPolyline
 90
        6
 70
     0
 43
0.0
 10
345.503052
 20
134.306183
 10
346.535309
 20
134.038223
 10
347.604767
 20
133.859619
 10
348.696228
 20
133.772324
 10
349.794434
 20
133.777878
 10
351.173035
 20
133.91835
  0
ENDBLK
  5
104
330
D3
100
AcDbEntity
  8
0
100
AcDbBlockEnd
  0
BLOCK
  5
13C
330
106
100
AcDbEntity
  8
0
100
AcDbBlockBegin
  2
e
 70
     0
 10
124.346878
 20
0.0
 30
0.0
  3
e
  1

  0
LINE
  5
107
330
106
100
AcDbEntity
  8
0
  6
Continuous
 62
     0
370
    30
100
AcDbLine
 10
56.520213
 20
288.870156
 30
0.0
 11
40.386372
 21
288.870156
 31
0.0
  0
LINE
  5
108
330
106
100
AcDbEntity
  8
0
  6
Continuous
 62
     0
370
    30
100
AcDbLine
 10
40.386372
 20
288.870156
 30
0.0
 11
35.520213
 21
288.870156
 31
0.0
  0
LINE
  5
109
330
106
100
AcDbEntity
  8
0
  6
Continuous
 62
     0
370
    30
100
AcDbLine
 10
40.386372
 20
283.270156
 30
0.0
 11
56.520213
 21
283.270156
 31
0.0
  0
LINE
  5
10A
330
106
100
AcDbEntity
  8
0
  6
Continuous
 62
     0
370
    30
100
AcDbLine
 10
35.520213
 20
283.270156
 30
0.0
 11
40.386372
 21
283.270156
 31
0.0
  0
LWPOLYLINE
  5
10B
330
106
100
AcDbEntity
  8
0
  6
Continuous
 62
     0
370
    30
100
AcDbPolyline
 90
       10
 70
     0
 43
0.0
 10
36.520214
 20
282.270142
 10
36.581863
 20
282.270142
 10
36.767494
 20
282.270142
 10
37.074467
 20
282.270142
 10
37.495419
 20
282.270142
 10
38.018829
 20
282.270142
 10
38.629936
 20
282.270142
 10
39.31189
 20
282.270142
 10
40.046955
 20
282.270142
 10
40.922928
 20
282.270142
  0
LINE
  5
10C
330
106
100
AcDbEntity
  8
0
  6
Continuous
 62
     0
370
    30
100
AcDbLine
 10
40.922928
 20
282.270156
 30
0.0
 11
55.520213
 21
282.270156
 31
0.0
  0
LINE
  5
10D
330
106
100
AcDbEntity
  8
0
  6
Continuous
 62
     0
370
     0
100
AcDbLine
 10
41.057067
 20
282.020156
 30
0.0
 11
55.270213
 21
282.020156
 31
0.0
  0
LINE
  5
10E
330
106
100
AcDbEntity
  8
0
  6
Continuous
 62
     0
370
     0
100
AcDbLine
 10
36.770213
 20
282.020156
 30
0.0
 11
41.057067
 21
282.020156
 31
0.0
  0
LINE
  5
10F
330
106
100
AcDbEntity
  8
0
  6
Continuous
 62
     0
370
    30
100
AcDbLine
 10
55.020127
 20
281.770156
 30
0.0
 11
41.191206
 21
281.770156
 31
0.0
  0
LINE
  5
110
330
106
100
AcDbEntity
  8
0
  6
Continuous
 62
     0
370
    30
100
AcDbLine
 10
41.191206
 20
281.770156
 30
0.0
 11
37.020304
 21
281.770156
 31
0.0
  0
LINE
  5
111
330
106
100
AcDbEntity
  8
0
  6
Continuous
 62
     0
370
     0
100
AcDbLine
 10
39.903471
 20
292.570156
 30
0.0
 11
57.420213
 21
292.570156
 31
0.0
  0
LINE
  5
112
330
106
100
AcDbEntity
  8
0
  6
Continuous
 62
     0
370
     0
100
AcDbLine
 10
34.620213
 20
292.570156
 30
0.0
 11
39.903471
 21
292.570156
 31
0.0
  0
LINE
  5
113
330
106
100
AcDbEntity
  8
0
  6
Continuous
 62
     0
370
     0
100
AcDbLine
 10
39.903471
 20
299.870156
 30
0.0
 11
34.620213
 21
299.870156
 31
0.0
  0
LINE
  5
114
330
106
100
AcDbEntity
  8
0
  6
Continuous
 62
     0
370
     0
100
AcDbLine
 10
57.420213
 20
299.870156
 30
0.0
 11
39.903471
 21
299.870156
 31
0.0
  0
LWPOLYLINE
  5
115
330
106
100
AcDbEntity
  8
0
  6
Continuous
 62
     0
370
    30
100
AcDbPolyline
 90
       10
 70
     0
 43
0.0
 10
34.820213
 20
292.370148
 10
34.894539
 20
292.370148
 10
35.118309
 20
292.370148
 10
35.488209
 20
292.370148
 10
35.995117
 20
292.370148
 10
36.624805
 20
292.370148
 10
37.359119
 20
292.370148
 10
38.177422
 20
292.370148
 10
39.058075
 20
292.370148
 10
40.010784
 20
292.370148
  0
LINE
  5
116
330
106
100
AcDbEntity
  8
0
  6
Continuous
 62
     0
370
    30
100
AcDbLine
 10
40.010783
 20
292.370156
 30
0.0
 11
57.220213
 21
292.370156
 31
0.0
  0
LINE
  5
117
330
106
100
AcDbEntity
  8
0
  6
Continuous
 62
     0
370
    30
100
AcDbLine
 10
26.020214
 20
300.070156
 30
0.0
 11
46.020213
 21
300.070156
 31
0.0
  0
LINE
  5
118
330
106
100
AcDbEntity
  8
0
  6
Continuous
 62
     0
370
     0
100
AcDbLine
 10
46.020213
 20
300.070156
 30
0.0
 11
46.020213
 21
320.070156
 31
0.0
  0
LINE
  5
119
330
106
100
AcDbEntity
  8
0
  6
Continuous
 62
     0
370
    30
100
AcDbLine
 10
46.020213
 20
320.070156
 30
0.0
 11
26.020214
 21
320.070156
 31
0.0
  0
LINE
  5
11A
330
106
100
AcDbEntity
  8
0
  6
Continuous
 62
     0
370
    30
100
AcDbLine
 10
46.020213
 20
300.070156
 30
0.0
 11
86.020213
 21
300.070156
 31
0.0
  0
LINE
  5
11B
330
106
100
AcDbEntity
  8
0
  6
Continuous
 62
     0
370
    30
100
AcDbLine
 10
86.020213
 20
320.070156
 30
0.0
 11
46.020213
 21
320.070156
 31
0.0
  0
ARC
  5
11C
330
106
100
AcDbEntity
  8
0
  6
Continuous
 62
     0
370
    30
100
AcDbCircle
 10
86.220212
 20
270.270156
 30
0.0
 40
0.200000002980232
100
AcDbArc
 50
180.0
 51
270.0
  0
LINE
  5
11D
330
106
100
AcDbEntity
  8
0
  6
Continuous
 62
     0
370
    30
100
AcDbLine
 10
101.020212
 20
270.070156
 30
0.0
 11
101.020212
 21
270.270156
 31
0.0
  0
LINE
  5
11E
330
106
100
AcDbEntity
  8
0
  6
Continuous
 62
     0
370
     0
100
AcDbLine
 10
86.220212
 20
270.270156
 30
0.0
 11
101.020212
 21
270.270156
 31
0.0
  0
LINE
  5
11F
330
106
100
AcDbEntity
  8
0
  6
Continuous
 62
     0
370
     0
100
AcDbLine
 10
86.220212
 20
270.070156
 30
0.0
 11
86.220212
 21
270.270156
 31
0.0
  0
LINE
  5
120
330
106
100
AcDbEntity
  8
0
  6
Continuous
 62
     0
370
    30
100
AcDbLine
 10
86.220212
 20
270.070156
 30
0.0
 11
101.020212
 21
270.070156
 31
0.0
  0
LINE
  5
121
330
106
100
AcDbEntity
  8
0
  6
Continuous
 62
     0
370
     0
100
AcDbLine
 10
86.220212
 20
349.870156
 30
0.0
 11
86.020212
 21
349.870156
 31
0.0
  0
LINE
  5
122
330
106
100
AcDbEntity
  8
0
  6
Continuous
 62
     0
370
    30
100
AcDbLine
 10
86.020212
 20
349.870156
 30
0.0
 11
86.020212
 21
270.270156
 31
0.0
  0
LINE
  5
123
330
106
100
AcDbEntity
  8
0
  6
Continuous
 62
     0
370
     0
100
AcDbLine
 10
86.220212
 20
270.270156
 30
0.0
 11
86.020212
 21
270.270156
 31
0.0
  0
LINE
  5
124
330
106
100
AcDbEntity
  8
0
  6
Continuous
 62
     0
370
     0
100
AcDbLine
 10
86.220212
 20
349.870156
 30
0.0
 11
86.220212
 21
270.270156
 31
0.0
  0
LINE
  5
125
330
106
100
AcDbEntity
  8
0
  6
Continuous
 62
     0
370
    30
100
AcDbLine
 10
101.020212
 20
349.870156
 30
0.0
 11
101.020212
 21
350.070156
 31
0.0
  0
LINE
  5
126
330
106
100
AcDbEntity
  8
0
  6
Continuous
 62
     0
370
    30
100
AcDbLine
 10
86.220212
 20
350.070156
 30
0.0
 11
101.020212
 21
350.070156
 31
0.0
  0
LINE
  5
127
330
106
100
AcDbEntity
  8
0
  6
Continuous
 62
     0
370
     0
100
AcDbLine
 10
86.220212
 20
349.870156
 30
0.0
 11
86.220212
 21
350.070156
 31
0.0
  0
LINE
  5
128
330
106
100
AcDbEntity
  8
0
  6
Continuous
 62
     0
370
     0
100
AcDbLine
 10
86.220212
 20
349.870156
 30
0.0
 11
101.020212
 21
349.870156
 31
0.0
  0
ARC
  5
129
330
106
100
AcDbEntity
  8
0
  6
Continuous
 62
     0
370
    30
100
AcDbCircle
 10
86.220212
 20
349.870156
 30
0.0
 40
0.200000002980239
100
AcDbArc
 50
90.0
 51
180.0
  0
LINE
  5
12A
330
106
100
AcDbEntity
  8
0
  6
Continuous
 62
     0
370
    30
100
AcDbLine
 10
101.020212
 20
349.870156
 30
0.0
 11
101.020212
 21
270.270156
 31
0.0
  0
LINE
  5
12B
330
106
100
AcDbEntity
  8
0
  6
Continuous
 62
     0
370
    30
100
AcDbLine
 10
26.020214
 20
300.070156
 30
0.0
 11
26.020214
 21
320.070156
 31
0.0
  0
ARC
  5
12C
330
106
100
AcDbEntity
  8
0
  6
Continuous
 62
     0
370
    30
100
AcDbCircle
 10
34.820253
 20
292.570188
 30
0.0
 40
0.2000321387417822
100
AcDbArc
 50
180.009203
 51
269.985899
  0
ARC
  5
12D
330
106
100
AcDbEntity
  8
0
  6
Continuous
 62
     0
370
    30
100
AcDbCircle
 10
57.220174
 20
292.570188
 30
0.0
 40
0.2000321392248831
100
AcDbArc
 50
270.015627
 51
359.990797
  0
ARC
  5
12E
330
106
100
AcDbEntity
  8
0
  6
Continuous
 62
     0
370
    30
100
AcDbCircle
 10
34.820253
 20
299.870124
 30
0.0
 40
0.2000327128014553
100
AcDbArc
 50
90.012069
 51
179.990632
  0
ARC
  5
12F
330
106
100
AcDbEntity
  8
0
  6
Continuous
 62
     0
370
    30
100
AcDbCircle
 10
57.220173
 20
299.870124
 30
0.0
 40
0.2000327127772684
100
AcDbArc
 50
0.009368
 51
89.986977
  0
LINE
  5
130
330
106
100
AcDbEntity
  8
0
  6
Continuous
 62
     0
370
    30
100
AcDbLine
 10
57.420213
 20
292.570156
 30
0.0
 11
57.420213
 21
299.870156
 31
0.0
  0
LINE
  5
131
330
106
100
AcDbEntity
  8
0
  6
Continuous
 62
     0
370
    30
100
AcDbLine
 10
34.620213
 20
292.570156
 30
0.0
 11
34.620213
 21
299.870156
 31
0.0
  0
ARC
  5
132
330
106
100
AcDbEntity
  8
0
  6
Continuous
 62
     0
370
    30
100
AcDbCircle
 10
55.020193
 20
282.020171
 30
0.0
 40
0.2500145998289631
100
AcDbArc
 50
270.005592
 51
359.996654
  0
ARC
  5
133
330
106
100
AcDbEntity
  8
0
  6
Continuous
 62
     0
370
    30
100
AcDbCircle
 10
37.020234
 20
282.020171
 30
0.0
 40
0.2500146028241242
100
AcDbArc
 50
180.003346
 51
269.994971
  0
LINE
  5
134
330
106
100
AcDbEntity
  8
0
  6
Continuous
 62
     0
370
    30
100
AcDbLine
 10
55.270213
 20
282.020156
 30
0.0
 11
55.270213
 21
282.270156
 31
0.0
  0
LINE
  5
135
330
106
100
AcDbEntity
  8
0
  6
Continuous
 62
     0
370
    30
100
AcDbLine
 10
36.770213
 20
282.020156
 30
0.0
 11
36.770213
 21
282.270156
 31
0.0
  0
LINE
  5
136
330
106
100
AcDbEntity
  8
0
  6
Continuous
 62
     0
370
    30
100
AcDbLine
 10
36.520219
 20
282.270156
 30
0.0
 11
35.52022
 21
283.270156
 31
0.0
  0
LINE
  5
137
330
106
100
AcDbEntity
  8
0
  6
Continuous
 62
     0
370
    30
100
AcDbLine
 10
55.520207
 20
282.270156
 30
0.0
 11
56.520206
 21
283.270156
 31
0.0
  0
LINE
  5
138
330
106
100
AcDbEntity
  8
0
  6
Continuous
 62
     0
370
    30
100
AcDbLine
 10
56.520213
 20
283.270156
 30
0.0
 11
56.520213
 21
288.870156
 31
0.0
  0
LINE
  5
139
330
106
100
AcDbEntity
  8
0
  6
Continuous
 62
     0
370
    30
100
AcDbLine
 10
35.520213
 20
283.270156
 30
0.0
 11
35.520213
 21
288.870156
 31
0.0
  0
LINE
  5
13A
330
106
100
AcDbEntity
  8
0
  6
Continuous
 62
     0
370
    30
100
AcDbLine
 10
55.120213
 20
288.870156
 30
0.0
 11
55.120213
 21
292.370156
 31
0.0
  0
LINE
  5
13B
330
106
100
AcDbEntity
  8
0
  6
Continuous
 62
     0
370
    30
100
AcDbLine
 10
36.920213
 20
288.870156
 30
0.0
 11
36.920213
 21
292.370156
 31
0.0
  0
ENDBLK
  5
13D
330
106
100
AcDbEntity
  8
0
100
AcDbBlockEnd
  0
ENDSEC
  0
SECTION
  2
ENTITIES
  0
INSERT
  5
83
330
1F
100
AcDbEntity
  8
0
  6
Continuous
 62
   250
370
     0
100
AcDbBlockReference
  2
a
 10
145.779434
 20
118.113609
 30
0.0
  0
INSERT
  5
99
330
1F
100
AcDbEntity
  8
0
  6
Continuous
 62
   250
370
     0
100
AcDbBlockReference
  2
b
 10
148.379429
 20
118.113609
 30
0.0
  0
INSERT
  5
D2
330
1F
100
AcDbEntity
  8
0
  6
Continuous
 62
   250
370
     0
100
AcDbBlockReference
  2
c
 10
145.779434
 20
118.113609
 30
0.0
  0
INSERT
  5
105
330
1F
100
AcDbEntity
  8
0
  6
Continuous
 62
   250
370
     0
100
AcDbBlockReference
  2
d
 10
145.779434
 20
118.113609
 30
0.0
  0
INSERT
  5
13E
330
1F
100
AcDbEntity
  8
0
  6
Continuous
 62
   250
370
     0
100
AcDbBlockReference
  2
e
 10
124.346878
 20
0.0
 30
0.0
  0
ENDSEC
  0
SECTION
  2
OBJECTS
  0
DICTIONARY
  5
C
330
0
100
AcDbDictionary
281
     1
  3
ACAD_GROUP
350
D
  3
ACAD_LAYOUT
350
1A
  3
ACAD_MLEADERSTYLE
350
141
  3
ACAD_MLINESTYLE
350
17
  3
ACAD_PLOTSETTINGS
350
19
  3
ACAD_PLOTSTYLENAME
350
E
  3
ACAD_VISUALSTYLE
350
2A
  3
AcDbVariableDictionary
350
13F
  0
DICTIONARY
  5
D
102
{ACAD_REACTORS
330
C
102
}
330
C
100
AcDbDictionary
281
     1
  0
DICTIONARY
  5
1A
102
{ACAD_REACTORS
330
C
102
}
330
C
100
AcDbDictionary
281
     1
  3
Layout1
350
1E
  3
Layout2
350
26
  3
Model
350
22
  0
DICTIONARY
  5
141
102
{ACAD_REACTORS
330
C
102
}
330
C
100
AcDbDictionary
281
     1
  0
DICTIONARY
  5
17
102
{ACAD_REACTORS
330
C
102
}
330
C
100
AcDbDictionary
281
     1
  3
Standard
350
18
  0
DICTIONARY
  5
19
102
{ACAD_REACTORS
330
C
102
}
330
C
100
AcDbDictionary
281
     1
  0
ACDBDICTIONARYWDFLT
  5
E
102
{ACAD_REACTORS
330
C
102
}
330
C
100
AcDbDictionary
281
     1
  3
Normal
350
F
100
AcDbDictionaryWithDefault
340
F
  0
DICTIONARY
  5
2A
102
{ACAD_REACTORS
330
C
102
}
330
C
100
AcDbDictionary
281
     1
  3
2dWireframe
350
2F
  3
3D Hidden
350
31
  3
3dWireframe
350
30
  3
Basic
350
32
  3
Brighten
350
36
  3
ColorChange
350
3A
  3
Conceptual
350
34
  3
Dim
350
35
  3
Facepattern
350
39
  3
Flat
350
2B
  3
FlatWithEdges
350
2C
  3
Gouraud
350
2D
  3
GouraudWithEdges
350
2E
  3
Linepattern
350
38
  3
Realistic
350
33
  3
Thicken
350
37
  0
DICTIONARY
  5
13F
102
{ACAD_REACTORS
330
C
102
}
330
C
100
AcDbDictionary
281
     1
  3
PSOLHEIGHT
350
143
  3
PSOLWIDTH
350
142
  0
LAYOUT
  5
1E
102
{ACAD_REACTORS
330
1A
102
}
330
1A
100
AcDbPlotSettings
  1

  2
none_device
  4

  6

 40
0.0
 41
0.0
 42
0.0
 43
0.0
 44
0.0
 45
0.0
 46
0.0
 47
0.0
 48
0.0
 49
0.0
140
0.0
141
0.0
142
1.0
143
1.0
 70
   688
 72
     0
 73
     0
 74
     5
  7

 75
    16
147
1.0
148
0.0
149
0.0
100
AcDbLayout
  1
Layout1
 70
     1
 71
     1
 10
0.0
 20
0.0
 11
420.0
 21
297.0
 12
0.0
 22
0.0
 32
0.0
 14
1.000000E+20
 24
1.000000E+20
 34
1.000000E+20
 15
-1.000000E+20
 25
-1.000000E+20
 35
-1.000000E+20
146
0.0
 13
0.0
 23
0.0
 33
0.0
 16
1.0
 26
0.0
 36
0.0
 17
0.0
 27
1.0
 37
0.0
 76
     0
330
1B
  0
LAYOUT
  5
26
102
{ACAD_REACTORS
330
1A
102
}
330
1A
100
AcDbPlotSettings
  1

  2
none_device
  4

  6

 40
0.0
 41
0.0
 42
0.0
 43
0.0
 44
0.0
 45
0.0
 46
0.0
 47
0.0
 48
0.0
 49
0.0
140
0.0
141
0.0
142
1.0
143
1.0
 70
   688
 72
     0
 73
     0
 74
     5
  7

 75
    16
147
1.0
148
0.0
149
0.0
100
AcDbLayout
  1
Layout2
 70
     1
 71
     2
 10
0.0
 20
0.0
 11
0.0
 21
0.0
 12
0.0
 22
0.0
 32
0.0
 14
0.0
 24
0.0
 34
0.0
 15
0.0
 25
0.0
 35
0.0
146
0.0
 13
0.0
 23
0.0
 33
0.0
 16
1.0
 26
0.0
 36
0.0
 17
0.0
 27
1.0
 37
0.0
 76
     0
330
23
  0
LAYOUT
  5
22
102
{ACAD_REACTORS
330
1A
102
}
330
1A
100
AcDbPlotSettings
  1

  2
none_device
  4

  6

 40
0.0
 41
0.0
 42
0.0
 43
0.0
 44
0.0
 45
0.0
 46
0.0
 47
0.0
 48
0.0
 49
0.0
140
0.0
141
0.0
142
1.0
143
1.0
 70
  1712
 72
     0
 73
     0
 74
     0
  7

 75
     0
147
1.0
148
0.0
149
0.0
100
AcDbLayout
  1
Model
 70
     1
 71
     0
 10
26.020214
 20
114.497765
 11
420.64035
 21
350.07016
 12
0.0
 22
0.0
 32
0.0
 14
26.020214
 24
114.497765
 34
0.0
 15
420.64035
 25
350.07016
 35
0.0
146
0.0
 13
0.0
 23
0.0
 33
0.0
 16
1.0
 26
0.0
 36
0.0
 17
0.0
 27
1.0
 37
0.0
 76
     0
330
1F
331
29
  0
MLINESTYLE
  5
18
102
{ACAD_REACTORS
330
17
102
}
330
17
100
AcDbMlineStyle
  2
Standard
 70
     0
  3

 62
   256
 51
90.0
 52
90.0
 71
     2
 49
0.5
 62
   256
  6
BYLAYER
 49
-0.5
 62
   256
  6
BYLAYER
  0
ACDBPLACEHOLDER
  5
F
102
{ACAD_REACTORS
330
E
102
}
330
E
  0
VISUALSTYLE
  5
2F
102
{ACAD_REACTORS
330
2A
102
}
330
2A
100
AcDbVisualStyle
  2
2dWireframe
 70
     4
 71
     0
 72
     2
 73
     0
 90
        0
 40
-0.6
 41
-30.0
 62
     5
 63
     7
 74
     1
 91
        4
 64
     7
 65
   257
 75
     1
175
     1
 42
1.0
 92
        0
 66
   257
 43
1.0
 76
     1
 77
     6
 78
     2
 67
     7
 79
     5
170
     0
171
     0
290
     0
174
     0
 93
        1
 44
0.0
173
     0
291
     0
 45
0.0
1001
ACAD
1000
AcDbSavedByObjectVersion
1070
     0
  0
VISUALSTYLE
  5
31
102
{ACAD_REACTORS
330
2A
102
}
330
2A
100
AcDbVisualStyle
  2
3D Hidden
 70
     6
 71
     1
 72
     2
 73
     2
 90
        0
 40
-0.6
 41
-30.0
 62
     5
 63
     7
 74
     2
 91
        2
 64
     7
 65
   257
 75
     2
175
     1
 42
40.0
 92
        0
 66
   257
 43
1.0
 76
     1
 77
     6
 78
     2
 67
     7
 79
     3
170
     0
171
     0
290
     0
174
     0
 93
        1
 44
0.0
173
     0
291
     0
 45
0.0
1001
ACAD
1000
AcDbSavedByObjectVersion
1070
     0
  0
VISUALSTYLE
  5
30
102
{ACAD_REACTORS
330
2A
102
}
330
2A
100
AcDbVisualStyle
  2
3dWireframe
 70
     5
 71
     0
 72
     2
 73
     0
 90
        0
 40
-0.6
 41
-30.0
 62
     5
 63
     7
 74
     1
 91
        4
 64
     7
 65
   257
 75
     1
175
     1
 42
1.0
 92
        0
 66
   257
 43
1.0
 76
     1
 77
     6
 78
     2
 67
     7
 79
     5
170
     0
171
     0
290
     0
174
     0
 93
        1
 44
0.0
173
     0
291
     0
 45
0.0
1001
ACAD
1000
AcDbSavedByObjectVersion
1070
     0
  0
VISUALSTYLE
  5
32
102
{ACAD_REACTORS
330
2A
102
}
330
2A
100
AcDbVisualStyle
  2
Basic
 70
     7
 71
     1
 72
     0
 73
     1
 90
        0
 40
-0.6
 41
-30.0
 62
     5
 63
     7
 74
     0
 91
        4
 64
     7
 65
   257
 75
     1
175
     1
 42
1.0
 92
        8
 66
     7
 43
1.0
 76
     1
 77
     6
 78
     2
 67
     7
 79
     5
170
     0
171
     0
290
     0
174
     0
 93
        1
 44
0.0
173
     0
291
     1
 45
0.0
1001
ACAD
1000
AcDbSavedByObjectVersion
1070
     0
  0
VISUALSTYLE
  5
36
102
{ACAD_REACTORS
330
2A
102
}
330
2A
100
AcDbVisualStyle
  2
Brighten
 70
    12
 71
     2
 72
     2
 73
     0
 90
        0
 40
-0.6
 41
-30.0
 62
     5
 63
     7
 74
     1
 91
        4
 64
     7
 65
   257
 75
     1
175
     1
 42
1.0
 92
        8
 66
     7
 43
1.0
 76
     1
 77
     6
 78
     2
 67
     7
 79
     5
170
     0
171
     0
290
     0
174
     0
 93
        1
 44
50.0
173
     0
291
     1
 45
0.0
1001
ACAD
1000
AcDbSavedByObjectVersion
1070
     0
  0
VISUALSTYLE
  5
3A
102
{ACAD_REACTORS
330
2A
102
}
330
2A
100
AcDbVisualStyle
  2
ColorChange
 70
    16
 71
     2
 72
     2
 73
     3
 90
        0
 40
-0.6
 41
-30.0
 62
     5
 63
     8
 74
     1
 91
        4
 64
     7
 65
   257
 75
     1
175
     1
 42
1.0
 92
        8
 66
     8
 43
1.0
 76
     1
 77
     6
 78
     2
 67
     7
 79
     5
170
     0
171
     0
290
     0
174
     0
 93
        1
 44
0.0
173
     0
291
     1
 45
0.0
1001
ACAD
1000
AcDbSavedByObjectVersion
1070
     0
  0
VISUALSTYLE
  5
34
102
{ACAD_REACTORS
330
2A
102
}
330
2A
100
AcDbVisualStyle
  2
Conceptual
 70
     9
 71
     3
 72
     2
 73
     0
 90
        0
 40
-0.6
 41
-30.0
 62
     5
 63
     7
 74
     2
 91
        2
 64
     7
 65
   257
 75
     1
175
     1
 42
40.0
 92
        8
 66
     7
 43
1.0
 76
     1
 77
     6
 78
     2
 67
     7
 79
     3
170
     0
171
     0
290
     0
174
     0
 93
        1
 44
0.0
173
     0
291
     0
 45
0.0
1001
ACAD
1000
AcDbSavedByObjectVersion
1070
     0
  0
VISUALSTYLE
  5
35
102
{ACAD_REACTORS
330
2A
102
}
330
2A
100
AcDbVisualStyle
  2
Dim
 70
    11
 71
     2
 72
     2
 73
     0
 90
        0
 40
-0.6
 41
-30.0
 62
     5
 63
     7
 74
     1
 91
        4
 64
     7
 65
   257
 75
     1
175
     1
 42
1.0
 92
        8
 66
     7
 43
1.0
 76
     1
 77
     6
 78
     2
 67
     7
 79
     5
170
     0
171
     0
290
     0
174
     0
 93
        1
 44
-50.0
173
     0
291
     1
 45
0.0
1001
ACAD
1000
AcDbSavedByObjectVersion
1070
     0
  0
VISUALSTYLE
  5
39
102
{ACAD_REACTORS
330
2A
102
}
330
2A
100
AcDbVisualStyle
  2
Facepattern
 70
    15
 71
     2
 72
     2
 73
     0
 90
        0
 40
-0.6
 41
-30.0
 62
     5
 63
     7
 74
     1
 91
        4
 64
     7
 65
   257
 75
     1
175
     1
 42
1.0
 92
        8
 66
     7
 43
1.0
 76
     1
 77
     6
 78
     2
 67
     7
 79
     5
170
     0
171
     0
290
     0
174
     0
 93
        1
 44
0.0
173
     0
291
     1
 45
0.0
1001
ACAD
1000
AcDbSavedByObjectVersion
1070
     0
  0
VISUALSTYLE
  5
2B
102
{ACAD_REACTORS
330
2A
102
}
330
2A
100
AcDbVisualStyle
  2
Flat
 70
     0
 71
     2
 72
     1
 73
     1
 90
        2
 40
-0.6
 41
30.0
 62
     5
 63
     7
 74
     0
 91
        4
 64
     7
 65
   257
 75
     1
175
     1
 42
1.0
 92
        8
 66
     7
 43
1.0
 76
     1
 77
     6
 78
     2
 67
     7
 79
     5
170
     0
171
     0
290
     0
174
     0
 93
       13
 44
0.0
173
     0
291
     1
 45
0.0
1001
ACAD
1000
AcDbSavedByObjectVersion
1070
     0
  0
VISUALSTYLE
  5
2C
102
{ACAD_REACTORS
330
2A
102
}
330
2A
100
AcDbVisualStyle
  2
FlatWithEdges
 70
     1
 71
     2
 72
     1
 73
     1
 90
        2
 40
-0.6
 41
30.0
 62
     5
 63
     7
 74
     1
 91
        4
 64
     7
 65
   257
 75
     1
175
     1
 42
1.0
 92
        0
 66
   257
 43
1.0
 76
     1
 77
     6
 78
     2
 67
     7
 79
     5
170
     0
171
     0
290
     0
174
     0
 93
       13
 44
0.0
173
     0
291
     1
 45
0.0
1001
ACAD
1000
AcDbSavedByObjectVersion
1070
     0
  0
VISUALSTYLE
  5
2D
102
{ACAD_REACTORS
330
2A
102
}
330
2A
100
AcDbVisualStyle
  2
Gouraud
 70
     2
 71
     2
 72
     2
 73
     1
 90
        2
 40
-0.6
 41
30.0
 62
     5
 63
     7
 74
     0
 91
        4
 64
     7
 65
   257
 75
     1
175
     1
 42
1.0
 92
        0
 66
     7
 43
1.0
 76
     1
 77
     6
 78
     2
 67
     7
 79
     5
170
     0
171
     0
290
     0
174
     0
 93
       13
 44
0.0
173
     0
291
     1
 45
0.0
1001
ACAD
1000
AcDbSavedByObjectVersion
1070
     0
  0
VISUALSTYLE
  5
2E
102
{ACAD_REACTORS
330
2A
102
}
330
2A
100
AcDbVisualStyle
  2
GouraudWithEdges
 70
     3
 71
     2
 72
     2
 73
     1
 90
        2
 40
-0.6
 41
30.0
 62
     5
 63
     7
 74
     1
 91
        4
 64
     7
 65
   257
 75
     1
175
     1
 42
1.0
 92
        0
 66
   257
 43
1.0
 76
     1
 77
     6
 78
     2
 67
     7
 79
     5
170
     0
171
     0
290
     0
174
     0
 93
       13
 44
0.0
173
     0
291
     1
 45
0.0
1001
ACAD
1000
AcDbSavedByObjectVersion
1070
     0
  0
VISUALSTYLE
  5
38
102
{ACAD_REACTORS
330
2A
102
}
330
2A
100
AcDbVisualStyle
  2
Linepattern
 70
    14
 71
     2
 72
     2
 73
     0
 90
        0
 40
-0.6
 41
-30.0
 62
     5
 63
     7
 74
     1
 91
        4
 64
     7
 65
   257
 75
     7
175
     7
 42
1.0
 92
        8
 66
     7
 43
1.0
 76
     1
 77
     6
 78
     2
 67
     7
 79
     5
170
     0
171
     0
290
     0
174
     0
 93
        1
 44
0.0
173
     0
291
     1
 45
0.0
1001
ACAD
1000
AcDbSavedByObjectVersion
1070
     0
  0
VISUALSTYLE
  5
33
102
{ACAD_REACTORS
330
2A
102
}
330
2A
100
AcDbVisualStyle
  2
Realistic
 70
     8
 71
     2
 72
     2
 73
     0
 90
        0
 40
-0.6
 41
-30.0
 62
     5
 63
     7
 74
     1
 91
        0
 64
     7
 65
   257
 75
     1
175
     1
 42
1.0
 92
        8
 66
     8
 43
1.0
 76
     1
 77
     6
 78
     2
 67
     7
 79
     5
170
     0
171
     0
290
     0
174
     0
 93
       13
 44
0.0
173
     0
291
     0
 45
0.0
1001
ACAD
1000
AcDbSavedByObjectVersion
1070
     0
  0
VISUALSTYLE
  5
37
102
{ACAD_REACTORS
330
2A
102
}
330
2A
100
AcDbVisualStyle
  2
Thicken
 70
    13
 71
     2
 72
     2
 73
     0
 90
        0
 40
-0.6
 41
-30.0
 62
     5
 63
     7
 74
     1
 91
        4
 64
     7
 65
   257
 75
     1
175
     1
 42
1.0
 92
       12
 66
     7
 43
1.0
 76
     1
 77
     6
 78
     2
 67
     7
 79
     5
170
     0
171
     0
290
     0
174
     0
 93
        1
 44
0.0
173
     0
291
     1
 45
0.0
1001
ACAD
1000
AcDbSavedByObjectVersion
1070
     0
  0
DICTIONARYVAR
  5
143
102
{ACAD_REACTORS
330
13F
102
}
330
13F
100
DictionaryVariables
280
     0
  1
80.000000
  0
DICTIONARYVAR
  5
142
102
{ACAD_REACTORS
330
13F
102
}
330
13F
100
DictionaryVariables
280
     0
  1
5.000000
  0
ENDSEC
  0
EOF
