  0
SECTION
  2
HEADER
  9
$ACADVER
  1
AC1015
  9
$ACADMAINTVER
 70
    13
  9
$DWGCODEPAGE
  3
ANSI_1252
  9
$INSBASE
 10
0.0
 20
0.0
 30
0.0
  9
$EXTMIN
 10
-59.26693487167361
 20
79.7885757683149
 30
0.0
  9
$EXTMAX
 10
316.7239532470703
 20
279.0851150526208
 30
0.0
  9
$LIMMIN
 10
-59.26693344116211
 20
71.45653533935547
  9
$LIMMAX
 10
316.7239379882812
 20
295.4282531738281
  9
$ORTHOMODE
 70
     0
  9
$REGENMODE
 70
     1
  9
$FILLMODE
 70
     1
  9
$QTEXTMODE
 70
     0
  9
$MIRRTEXT
 70
     1
  9
$LTSCALE
 40
1.0
  9
$ATTMODE
 70
     1
  9
$TEXTSIZE
 40
2.5
  9
$TRACEWID
 40
1.0
  9
$TEXTSTYLE
  7
Standard
  9
$CLAYER
  8
0
  9
$CELTYPE
  6
ByLayer
  9
$CECOLOR
 62
   256
  9
$CELTSCALE
 40
1.0
  9
$DISPSILH
 70
     0
  9
$DIMSCALE
 40
1.0
  9
$DIMASZ
 40
2.5
  9
$DIMEXO
 40
0.625
  9
$DIMDLI
 40
3.75
  9
$DIMRND
 40
0.0
  9
$DIMDLE
 40
0.0
  9
$DIMEXE
 40
1.25
  9
$DIMTP
 40
0.0
  9
$DIMTM
 40
0.0
  9
$DIMTXT
 40
2.5
  9
$DIMCEN
 40
2.5
  9
$DIMTSZ
 40
0.0
  9
$DIMTOL
 70
     0
  9
$DIMLIM
 70
     0
  9
$DIMTIH
 70
     0
  9
$DIMTOH
 70
     0
  9
$DIMSE1
 70
     0
  9
$DIMSE2
 70
     0
  9
$DIMTAD
 70
     1
  9
$DIMZIN
 70
     8
  9
$DIMBLK
  1

  9
$DIMASO
 70
     1
  9
$DIMSHO
 70
     1
  9
$DIMPOST
  1

  9
$DIMAPOST
  1

  9
$DIMALT
 70
     0
  9
$DIMALTD
 70
     3
  9
$DIMALTF
 40
0.03937007874016
  9
$DIMLFAC
 40
1.0
  9
$DIMTOFL
 70
     1
  9
$DIMTVP
 40
0.0
  9
$DIMTIX
 70
     0
  9
$DIMSOXD
 70
     0
  9
$DIMSAH
 70
     0
  9
$DIMBLK1
  1

  9
$DIMBLK2
  1

  9
$DIMSTYLE
  2
ISO-25
  9
$DIMCLRD
 70
     0
  9
$DIMCLRE
 70
     0
  9
$DIMCLRT
 70
     0
  9
$DIMTFAC
 40
1.0
  9
$DIMGAP
 40
0.625
  9
$DIMJUST
 70
     0
  9
$DIMSD1
 70
     0
  9
$DIMSD2
 70
     0
  9
$DIMTOLJ
 70
     0
  9
$DIMTZIN
 70
     8
  9
$DIMALTZ
 70
     0
  9
$DIMALTTZ
 70
     0
  9
$DIMUPT
 70
     0
  9
$DIMDEC
 70
     2
  9
$DIMTDEC
 70
     2
  9
$DIMALTU
 70
     2
  9
$DIMALTTD
 70
     3
  9
$DIMTXSTY
  7
Standard
  9
$DIMAUNIT
 70
     0
  9
$DIMADEC
 70
     0
  9
$DIMALTRND
 40
0.0
  9
$DIMAZIN
 70
     0
  9
$DIMDSEP
 70
    44
  9
$DIMATFIT
 70
     3
  9
$DIMFRAC
 70
     0
  9
$DIMLDRBLK
  1

  9
$DIMLUNIT
 70
     2
  9
$DIMLWD
 70
    -2
  9
$DIMLWE
 70
    -2
  9
$DIMTMOVE
 70
     0
  9
$LUNITS
 70
     2
  9
$LUPREC
 70
     4
  9
$SKETCHINC
 40
1.0
  9
$FILLETRAD
 40
10.0
  9
$AUNITS
 70
     0
  9
$AUPREC
 70
     0
  9
$MENU
  1
.
  9
$ELEVATION
 40
0.0
  9
$PELEVATION
 40
0.0
  9
$THICKNESS
 40
0.0
  9
$LIMCHECK
 70
     0
  9
$CHAMFERA
 40
10.0
  9
$CHAMFERB
 40
10.0
  9
$CHAMFERC
 40
20.0
  9
$CHAMFERD
 40
0.0
  9
$SKPOLY
 70
     0
  9
$TDCREATE
 40
2455520.494615451
  9
$TDUCREATE
 40
2455520.452948785
  9
$TDUPDATE
 40
2455523.586569861
  9
$TDUUPDATE
 40
2455523.544903194
  9
$TDINDWG
 40
0.0001795949
  9
$TDUSRTIMER
 40
0.0001795949
  9
$USRTIMER
 70
     1
  9
$ANGBASE
 50
0.0
  9
$ANGDIR
 70
     0
  9
$PDMODE
 70
     0
  9
$PDSIZE
 40
0.0
  9
$PLINEWID
 40
0.0
  9
$SPLFRAME
 70
     0
  9
$SPLINETYPE
 70
     6
  9
$SPLINESEGS
 70
     8
  9
$HANDSEED
  5
103
  9
$SURFTAB1
 70
     6
  9
$SURFTAB2
 70
     6
  9
$SURFTYPE
 70
     6
  9
$SURFU
 70
     6
  9
$SURFV
 70
     6
  9
$UCSBASE
  2

  9
$UCSNAME
  2

  9
$UCSORG
 10
0.0
 20
0.0
 30
0.0
  9
$UCSXDIR
 10
1.0
 20
0.0
 30
0.0
  9
$UCSYDIR
 10
0.0
 20
1.0
 30
0.0
  9
$UCSORTHOREF
  2

  9
$UCSORTHOVIEW
 70
     0
  9
$UCSORGTOP
 10
0.0
 20
0.0
 30
0.0
  9
$UCSORGBOTTOM
 10
0.0
 20
0.0
 30
0.0
  9
$UCSORGLEFT
 10
0.0
 20
0.0
 30
0.0
  9
$UCSORGRIGHT
 10
0.0
 20
0.0
 30
0.0
  9
$UCSORGFRONT
 10
0.0
 20
0.0
 30
0.0
  9
$UCSORGBACK
 10
0.0
 20
0.0
 30
0.0
  9
$PUCSBASE
  2

  9
$PUCSNAME
  2

  9
$PUCSORG
 10
0.0
 20
0.0
 30
0.0
  9
$PUCSXDIR
 10
1.0
 20
0.0
 30
0.0
  9
$PUCSYDIR
 10
0.0
 20
1.0
 30
0.0
  9
$PUCSORTHOREF
  2

  9
$PUCSORTHOVIEW
 70
     0
  9
$PUCSORGTOP
 10
0.0
 20
0.0
 30
0.0
  9
$PUCSORGBOTTOM
 10
0.0
 20
0.0
 30
0.0
  9
$PUCSORGLEFT
 10
0.0
 20
0.0
 30
0.0
  9
$PUCSORGRIGHT
 10
0.0
 20
0.0
 30
0.0
  9
$PUCSORGFRONT
 10
0.0
 20
0.0
 30
0.0
  9
$PUCSORGBACK
 10
0.0
 20
0.0
 30
0.0
  9
$USERI1
 70
     0
  9
$USERI2
 70
     0
  9
$USERI3
 70
     0
  9
$USERI4
 70
     0
  9
$USERI5
 70
     0
  9
$USERR1
 40
0.0
  9
$USERR2
 40
0.0
  9
$USERR3
 40
0.0
  9
$USERR4
 40
0.0
  9
$USERR5
 40
0.0
  9
$WORLDVIEW
 70
     1
  9
$SHADEDGE
 70
     3
  9
$SHADEDIF
 70
    70
  9
$TILEMODE
 70
     1
  9
$MAXACTVP
 70
    64
  9
$PINSBASE
 10
0.0
 20
0.0
 30
0.0
  9
$PLIMCHECK
 70
     0
  9
$PEXTMIN
 10
1.000000000000000E+20
 20
1.000000000000000E+20
 30
1.000000000000000E+20
  9
$PEXTMAX
 10
-1.000000000000000E+20
 20
-1.000000000000000E+20
 30
-1.000000000000000E+20
  9
$PLIMMIN
 10
0.0
 20
0.0
  9
$PLIMMAX
 10
420.0
 20
297.0
  9
$UNITMODE
 70
     0
  9
$VISRETAIN
 70
     1
  9
$PLINEGEN
 70
     0
  9
$PSLTSCALE
 70
     1
  9
$TREEDEPTH
 70
  3020
  9
$CMLSTYLE
  2
Standard
  9
$CMLJUST
 70
     0
  9
$CMLSCALE
 40
20.0
  9
$PROXYGRAPHICS
 70
     1
  9
$MEASUREMENT
 70
     1
  9
$CELWEIGHT
370
    -1
  9
$ENDCAPS
280
     0
  9
$JOINSTYLE
280
     0
  9
$LWDISPLAY
290
     0
  9
$INSUNITS
 70
     4
  9
$HYPERLINKBASE
  1

  9
$STYLESHEET
  1

  9
$XEDIT
290
     1
  9
$CEPSNTYPE
380
     0
  9
$PSTYLEMODE
290
     1
  9
$FINGERPRINTGUID
  2
{4DC89F0C-A6AF-43DE-80A3-D76D28B16B46}
  9
$VERSIONGUID
  2
{8172EB34-B764-49DF-9544-4B7433193D86}
  9
$EXTNAMES
290
     1
  9
$PSVPSCALE
 40
0.0
  9
$OLESTARTUP
290
     0
  0
ENDSEC
  0
SECTION
  2
CLASSES
  0
CLASS
  1
ACDBDICTIONARYWDFLT
  2
AcDbDictionaryWithDefault
  3
AutoCAD 2000
 90
        0
280
     0
281
     0
  0
CLASS
  1
VISUALSTYLE
  2
AcDbVisualStyle
  3
ObjectDBX Classes
 90
     4095
280
     0
281
     0
  0
CLASS
  1
DICTIONARYVAR
  2
AcDbDictionaryVar
  3
AutoCAD 2000
 90
        0
280
     0
281
     0
  0
CLASS
  1
ACDBPLACEHOLDER
  2
AcDbPlaceHolder
  3
AutoCAD 2000
 90
        0
280
     0
281
     0
  0
CLASS
  1
LAYOUT
  2
AcDbLayout
  3
AutoCAD 2000
 90
        0
280
     0
281
     0
  0
ENDSEC
  0
SECTION
  2
TABLES
  0
TABLE
  2
VPORT
  5
8
330
0
100
AcDbSymbolTable
 70
     2
  0
VPORT
  5
102
330
8
100
AcDbSymbolTableRecord
100
AcDbViewportTableRecord
  2
*Active
 70
     0
 10
0.0
 20
0.0
 11
1.0
 21
1.0
 12
128.7285031489814
 22
179.4438762512813
 13
0.0
 23
0.0
 14
10.0
 24
10.0
 15
10.0
 25
10.0
 16
0.0
 26
0.0
 36
1.0
 17
0.0
 27
0.0
 37
0.0
 40
200.5474442696776
 41
1.906832298136645
 42
50.0
 43
0.0
 44
0.0
 50
0.0
 51
0.0
 71
     0
 72
   100
 73
     1
 74
     3
 75
     0
 76
     0
 77
     0
 78
     0
281
     0
 65
     1
110
0.0
120
0.0
130
0.0
111
1.0
121
0.0
131
0.0
112
0.0
122
1.0
132
0.0
 79
     0
146
0.0
  0
ENDTAB
  0
TABLE
  2
LTYPE
  5
5
330
0
100
AcDbSymbolTable
 70
     1
  0
LTYPE
  5
14
330
5
100
AcDbSymbolTableRecord
100
AcDbLinetypeTableRecord
  2
ByBlock
 70
     0
  3

 72
    65
 73
     0
 40
0.0
  0
LTYPE
  5
15
330
5
100
AcDbSymbolTableRecord
100
AcDbLinetypeTableRecord
  2
ByLayer
 70
     0
  3

 72
    65
 73
     0
 40
0.0
  0
LTYPE
  5
16
330
5
100
AcDbSymbolTableRecord
100
AcDbLinetypeTableRecord
  2
Continuous
 70
     0
  3
Solid line
 72
    65
 73
     0
 40
0.0
  0
ENDTAB
  0
TABLE
  2
LAYER
  5
2
330
0
100
AcDbSymbolTable
 70
     1
  0
LAYER
  5
10
330
2
100
AcDbSymbolTableRecord
100
AcDbLayerTableRecord
  2
0
 70
     0
 62
   106
  6
Continuous
370
     0
390
F
  0
ENDTAB
  0
TABLE
  2
STYLE
  5
3
330
0
100
AcDbSymbolTable
 70
     4
  0
STYLE
  5
11
330
3
100
AcDbSymbolTableRecord
100
AcDbTextStyleTableRecord
  2
Standard
 70
     0
 40
0.0
 41
1.0
 50
0.0
 71
     0
 42
2.5
  3
txt
  4

  0
STYLE
  5
3B
330
3
100
AcDbSymbolTableRecord
100
AcDbTextStyleTableRecord
  2
Default
 70
     0
 40
0.0
 41
1.0
 50
0.0
 71
     0
 42
0.2
  3
txt_____.ttf
  4

1001
ACAD
1000
txt
1071
        0
  0
STYLE
  5
3C
330
3
100
AcDbSymbolTableRecord
100
AcDbTextStyleTableRecord
  2
ISO
 70
     0
 40
0.0
 41
1.0
 50
0.0
 71
     0
 42
0.2
  3
txt_____.ttf
  4

1001
ACAD
1000
txt
1071
        0
  0
STYLE
  5
3D
330
3
100
AcDbSymbolTableRecord
100
AcDbTextStyleTableRecord
  2
GIANLU
 70
     0
 40
0.0
 41
1.0
 50
0.0
 71
     0
 42
0.2
  3
ARIAL.TTF
  4

1001
ACAD
1000
Arial
1071
        0
  0
ENDTAB
  0
TABLE
  2
VIEW
  5
6
330
0
100
AcDbSymbolTable
 70
     0
  0
ENDTAB
  0
TABLE
  2
UCS
  5
7
330
0
100
AcDbSymbolTable
 70
     0
  0
ENDTAB
  0
TABLE
  2
APPID
  5
9
330
0
100
AcDbSymbolTable
 70
     1
  0
APPID
  5
12
330
9
100
AcDbSymbolTableRecord
100
AcDbRegAppTableRecord
  2
ACAD
 70
     0
  0
ENDTAB
  0
TABLE
  2
DIMSTYLE
  5
A
330
0
100
AcDbSymbolTable
 70
     4
100
AcDbDimStyleTable
 71
     0
  0
DIMSTYLE
105
27
330
A
100
AcDbSymbolTableRecord
100
AcDbDimStyleTableRecord
  2
ISO-25
 70
     0
 41
2.5
 42
0.625
 43
3.75
 44
1.25
 73
     0
 74
     0
 77
     1
 78
     8
140
2.5
141
2.5
143
0.03937007874016
147
0.625
171
     3
172
     1
271
     2
272
     2
274
     3
278
    44
283
     0
284
     8
340
11
  0
DIMSTYLE
105
3E
330
A
100
AcDbSymbolTableRecord
100
AcDbDimStyleTableRecord
  2
Default
 70
     0
  3
<>
 41
4.375
 42
1.05
 44
2.1
 73
     0
 74
     0
 77
     1
 78
     8
140
3.5
146
0.4
147
1.75
178
     3
271
     2
272
     3
284
     8
340
3B
341
3F
342
3F
  0
DIMSTYLE
105
46
330
A
100
AcDbSymbolTableRecord
100
AcDbDimStyleTableRecord
  2
ISO
 70
     0
  3
<>
 41
4.375
 42
1.05
 44
2.1
 73
     0
 74
     0
 77
     1
 78
     8
140
3.5
146
0.4
147
1.75
178
     3
271
     2
272
     3
284
     8
340
3C
341
3F
342
3F
  0
DIMSTYLE
105
47
330
A
100
AcDbSymbolTableRecord
100
AcDbDimStyleTableRecord
  2
zucchetti_unico
 70
     0
  3
<>
 41
3.0
 42
0.9
 44
1.799999999999999
 73
     0
 74
     0
 77
     1
 78
     8
140
3.0
146
0.6
147
1.5
176
   104
177
     3
178
     3
271
     2
272
     2
284
     8
340
3D
  0
ENDTAB
  0
TABLE
  2
BLOCK_RECORD
  5
1
330
0
100
AcDbSymbolTable
 70
     6
  0
BLOCK_RECORD
  5
1F
330
1
100
AcDbSymbolTableRecord
100
AcDbBlockTableRecord
  2
*Model_Space
340
22
  0
BLOCK_RECORD
  5
1B
330
1
100
AcDbSymbolTableRecord
100
AcDbBlockTableRecord
  2
*Paper_Space
340
1E
  0
BLOCK_RECORD
  5
23
330
1
100
AcDbSymbolTableRecord
100
AcDbBlockTableRecord
  2
*Paper_Space0
340
26
  0
BLOCK_RECORD
  5
3F
330
1
100
AcDbSymbolTableRecord
100
AcDbBlockTableRecord
  2
_CLOSED
340
0
  0
BLOCK_RECORD
  5
48
330
1
100
AcDbSymbolTableRecord
100
AcDbBlockTableRecord
  2
a
340
0
102
{BLKREFS
331
77
102
}
  0
BLOCK_RECORD
  5
78
330
1
100
AcDbSymbolTableRecord
100
AcDbBlockTableRecord
  2
b
340
0
102
{BLKREFS
331
88
102
}
  0
BLOCK_RECORD
  5
89
330
1
100
AcDbSymbolTableRecord
100
AcDbBlockTableRecord
  2
c
340
0
102
{BLKREFS
331
BC
102
}
  0
BLOCK_RECORD
  5
BD
330
1
100
AcDbSymbolTableRecord
100
AcDbBlockTableRecord
  2
d
340
0
102
{BLKREFS
331
F0
102
}
  0
ENDTAB
  0
ENDSEC
  0
SECTION
  2
BLOCKS
  0
BLOCK
  5
20
330
1F
100
AcDbEntity
  8
0
100
AcDbBlockBegin
  2
*Model_Space
 70
     0
 10
0.0
 20
0.0
 30
0.0
  3
*Model_Space
  1

  0
ENDBLK
  5
21
330
1F
100
AcDbEntity
  8
0
100
AcDbBlockEnd
  0
BLOCK
  5
1C
330
1B
100
AcDbEntity
 67
     1
  8
0
100
AcDbBlockBegin
  2
*Paper_Space
 70
     0
 10
0.0
 20
0.0
 30
0.0
  3
*Paper_Space
  1

  0
ENDBLK
  5
1D
330
1B
100
AcDbEntity
 67
     1
  8
0
100
AcDbBlockEnd
  0
BLOCK
  5
24
330
23
100
AcDbEntity
  8
0
100
AcDbBlockBegin
  2
*Paper_Space0
 70
     0
 10
0.0
 20
0.0
 30
0.0
  3
*Paper_Space0
  1

  0
ENDBLK
  5
25
330
23
100
AcDbEntity
  8
0
100
AcDbBlockEnd
  0
BLOCK
  5
40
330
3F
100
AcDbEntity
  8
0
100
AcDbBlockBegin
  2
_CLOSED
 70
     0
 10
0.0
 20
0.0
 30
0.0
  3
_CLOSED
  1

  0
LINE
  5
42
330
3F
100
AcDbEntity
  8
0
  6
ByBlock
 62
     0
370
    -2
100
AcDbLine
 10
-1.0
 20
0.166667
 30
0.0
 11
0.0
 21
0.0
 31
0.0
  0
LINE
  5
43
330
3F
100
AcDbEntity
  8
0
  6
ByBlock
 62
     0
370
    -2
100
AcDbLine
 10
0.0
 20
0.0
 30
0.0
 11
-1.0
 21
-0.166667
 31
0.0
  0
LINE
  5
44
330
3F
100
AcDbEntity
  8
0
  6
ByBlock
 62
     0
370
    -2
100
AcDbLine
 10
-1.0
 20
0.166667
 30
0.0
 11
-1.0
 21
-0.166667
 31
0.0
  0
LINE
  5
45
330
3F
100
AcDbEntity
  8
0
  6
ByBlock
 62
     0
370
    -2
100
AcDbLine
 10
0.0
 20
0.0
 30
0.0
 11
-1.0
 21
0.0
 31
0.0
  0
ENDBLK
  5
41
330
3F
100
AcDbEntity
  8
0
100
AcDbBlockEnd
  0
BLOCK
  5
75
330
48
100
AcDbEntity
  8
0
100
AcDbBlockBegin
  2
a
 70
     0
 10
62.02690887451172
 20
66.86466217041015
 30
0.0
  3
a
  1

  0
LWPOLYLINE
  5
49
330
48
100
AcDbEntity
  8
0
  6
Continuous
 62
     0
370
    30
100
AcDbPolyline
 90
        6
 70
     0
 43
0.0
 10
129.7050476074218
 20
226.2282562255859
 10
129.630386352539
 20
226.2282562255859
 10
129.4133758544921
 20
226.2282562255859
 10
129.0680847167968
 20
226.2282562255859
 10
128.6122436523437
 20
226.2282562255859
 10
128.0656127929687
 20
226.2282562255859
  0
LINE
  5
4A
330
48
100
AcDbEntity
  8
0
  6
Continuous
 62
     0
370
    30
100
AcDbLine
 10
128.0656195376756
 20
226.2282609939574
 30
0.0
 11
108.705041933966
 21
226.2282609939574
 31
0.0
  0
LINE
  5
4B
330
48
100
AcDbEntity
  8
0
  6
Continuous
 62
     0
370
    30
100
AcDbLine
 10
128.0656195376756
 20
220.6282609939574
 30
0.0
 11
129.705041933966
 21
220.6282609939574
 31
0.0
  0
LINE
  5
4C
330
48
100
AcDbEntity
  8
0
  6
Continuous
 62
     0
370
    30
100
AcDbLine
 10
108.705041933966
 20
220.6282609939574
 30
0.0
 11
128.0656195376756
 21
220.6282609939574
 31
0.0
  0
LINE
  5
4D
330
48
100
AcDbEntity
  8
0
  6
Continuous
 62
     0
370
    30
100
AcDbLine
 10
109.7050419339498
 20
219.6282609939574
 30
0.0
 11
127.2217550040027
 21
219.6282609939574
 31
0.0
  0
LINE
  5
4E
330
48
100
AcDbEntity
  8
0
  6
Continuous
 62
     0
370
    30
100
AcDbLine
 10
127.2217550040027
 20
219.6282609939574
 30
0.0
 11
128.7050419339822
 21
219.6282609939574
 31
0.0
  0
LINE
  5
4F
330
48
100
AcDbEntity
  8
0
  6
Continuous
 62
     0
370
     0
100
AcDbLine
 10
127.0107888705673
 20
219.3782609939574
 30
0.0
 11
128.455041933966
 21
219.3782609939574
 31
0.0
  0
LINE
  5
50
330
48
100
AcDbEntity
  8
0
  6
Continuous
 62
     0
370
     0
100
AcDbLine
 10
109.955041933966
 20
219.3782609939574
 30
0.0
 11
127.0107888705673
 21
219.3782609939574
 31
0.0
  0
LINE
  5
51
330
48
100
AcDbEntity
  8
0
  6
Continuous
 62
     0
370
    30
100
AcDbLine
 10
128.2049207230621
 20
219.1282609950109
 30
0.0
 11
126.7998227371456
 21
219.1282609939575
 31
0.0
  0
LINE
  5
52
330
48
100
AcDbEntity
  8
0
  6
Continuous
 62
     0
370
    30
100
AcDbLine
 10
126.7998227371457
 20
219.1282609939575
 30
0.0
 11
110.2051525468672
 21
219.1282609946493
 31
0.0
  0
LINE
  5
53
330
48
100
AcDbEntity
  8
0
  6
Continuous
 62
     0
370
     0
100
AcDbLine
 10
128.8250976179936
 20
229.9282609969377
 30
0.0
 11
130.605041933966
 21
229.9282609969377
 31
0.0
  0
LINE
  5
54
330
48
100
AcDbEntity
  8
0
  6
Continuous
 62
     0
370
     0
100
AcDbLine
 10
107.805041933966
 20
229.9282609969377
 30
0.0
 11
128.8250976179936
 21
229.9282609969377
 31
0.0
  0
LINE
  5
55
330
48
100
AcDbEntity
  8
0
  6
Continuous
 62
     0
370
     0
100
AcDbLine
 10
128.8250976179936
 20
237.2282609909772
 30
0.0
 11
107.805041933966
 21
237.2282609909772
 31
0.0
  0
LINE
  5
56
330
48
100
AcDbEntity
  8
0
  6
Continuous
 62
     0
370
     0
100
AcDbLine
 10
130.605041933966
 20
237.2282609909772
 30
0.0
 11
128.8250976179936
 21
237.2282609909772
 31
0.0
  0
LINE
  5
57
330
48
100
AcDbEntity
  8
0
  6
Continuous
 62
     0
370
    30
100
AcDbLine
 10
108.00504193693
 20
229.7282609939574
 30
0.0
 11
128.656324708755
 21
229.7282609939574
 31
0.0
  0
LINE
  5
58
330
48
100
AcDbEntity
  8
0
  6
Continuous
 62
     0
370
    30
100
AcDbLine
 10
128.656324708755
 20
229.7282609939574
 30
0.0
 11
130.4050419310019
 21
229.7282609939574
 31
0.0
  0
LINE
  5
59
330
48
100
AcDbEntity
  8
0
  6
Continuous
 62
     0
370
    30
100
AcDbLine
 10
99.20504188537599
 20
237.4282608032226
 30
0.0
 11
99.20504188537599
 21
257.4282608032226
 31
0.0
  0
LINE
  5
5A
330
48
100
AcDbEntity
  8
0
  6
Continuous
 62
     0
370
    30
100
AcDbLine
 10
99.20504188537599
 20
237.4282608032226
 30
0.0
 11
139.2050418853759
 21
237.4282608032226
 31
0.0
  0
LINE
  5
5B
330
48
100
AcDbEntity
  8
0
  6
Continuous
 62
     0
370
    30
100
AcDbLine
 10
139.2050418853759
 20
237.4282608032226
 30
0.0
 11
139.2050418853759
 21
257.4282608032226
 31
0.0
  0
LINE
  5
5C
330
48
100
AcDbEntity
  8
0
  6
Continuous
 62
     0
370
    30
100
AcDbLine
 10
139.2050418853759
 20
257.4282608032226
 30
0.0
 11
99.20504188537599
 21
257.4282608032226
 31
0.0
  0
ARC
  5
5D
330
48
100
AcDbEntity
  8
0
  6
Continuous
 62
     0
370
    30
100
AcDbCircle
 10
141.2050488852886
 20
269.4282608031717
 30
0.0
 40
7.999999999968002
100
AcDbArc
 50
0.0000000002236983
 51
90.0
  0
LINE
  5
5E
330
48
100
AcDbEntity
  8
0
  6
Continuous
 62
     0
370
    30
100
AcDbLine
 10
141.2050488852886
 20
277.4282608031397
 30
0.0
 11
97.2050488854647
 21
277.4282608031397
 31
0.0
  0
ARC
  5
5F
330
48
100
AcDbEntity
  8
0
  6
Continuous
 62
     0
370
    30
100
AcDbCircle
 10
97.20504888546471
 20
269.4282608031717
 30
0.0
 40
7.999999999968
100
AcDbArc
 50
90.00000000022325
 51
180.0
  0
LINE
  5
60
330
48
100
AcDbEntity
  8
0
  6
Continuous
 62
     0
370
    30
100
AcDbLine
 10
89.2050488854967
 20
269.4282608031717
 30
0.0
 11
89.20504888549684
 21
225.4282608033477
 31
0.0
  0
ARC
  5
61
330
48
100
AcDbEntity
  8
0
  6
Continuous
 62
     0
370
    30
100
AcDbCircle
 10
97.20504888546486
 20
225.4282608033478
 30
0.0
 40
7.999999999968
100
AcDbArc
 50
180.0000000002235
 51
270.0000000000001
  0
LINE
  5
62
330
48
100
AcDbEntity
  8
0
  6
Continuous
 62
     0
370
    30
100
AcDbLine
 10
97.20504888546486
 20
217.4282608033797
 30
0.0
 11
141.2050488852889
 21
217.4282608033797
 31
0.0
  0
ARC
  5
63
330
48
100
AcDbEntity
  8
0
  6
Continuous
 62
     0
370
    30
100
AcDbCircle
 10
141.2050488852889
 20
225.4282608033478
 30
0.0
 40
7.999999999968004
100
AcDbArc
 50
270.0000000002233
 51
0.0000000000002036
  0
LINE
  5
64
330
48
100
AcDbEntity
  8
0
  6
Continuous
 62
     0
370
    30
100
AcDbLine
 10
149.2050488852569
 20
225.4282608033478
 30
0.0
 11
149.2050488852566
 21
269.4282608031717
 31
0.0
  0
ARC
  5
65
330
48
100
AcDbEntity
  8
0
  6
Continuous
 62
     0
370
    30
100
AcDbCircle
 10
130.4049974657097
 20
229.9282930855374
 30
0.0
 40
0.2000320982820024
100
AcDbArc
 50
270.0165864489509
 51
359.9908087681675
  0
ARC
  5
66
330
48
100
AcDbEntity
  8
0
  6
Continuous
 62
     0
370
    30
100
AcDbCircle
 10
108.0050812086902
 20
229.9282928424599
 30
0.0
 40
0.2000318547954868
100
AcDbArc
 50
180.0091216172908
 51
269.9840811640886
  0
ARC
  5
67
330
48
100
AcDbEntity
  8
0
  6
Continuous
 62
     0
370
    30
100
AcDbCircle
 10
108.0050820691236
 20
237.2282282837606
 30
0.0
 40
0.2000327153680165
100
AcDbArc
 50
90.01375118827416
 51
179.9906316050462
  0
ARC
  5
68
330
48
100
AcDbEntity
  8
0
  6
Continuous
 62
     0
370
    30
100
AcDbCircle
 10
130.4049968994759
 20
237.2282283333616
 30
0.0
 40
0.2000326646078402
100
AcDbArc
 50
0.0093541900087177
 51
89.98829262899251
  0
LINE
  5
69
330
48
100
AcDbEntity
  8
0
  6
Continuous
 62
     0
370
    30
100
AcDbLine
 10
130.605041933966
 20
229.9282609869377
 30
0.0
 11
130.605041933966
 21
237.2282609909772
 31
0.0
  0
LINE
  5
6A
330
48
100
AcDbEntity
  8
0
  6
Continuous
 62
     0
370
    30
100
AcDbLine
 10
107.805041933966
 20
229.9282609869377
 30
0.0
 11
107.805041933966
 21
237.2282609909772
 31
0.0
  0
ARC
  5
6B
330
48
100
AcDbEntity
  8
0
  6
Continuous
 62
     0
370
    30
100
AcDbCircle
 10
110.2050605522161
 20
219.3782735889681
 30
0.0
 40
0.2500125959542979
100
AcDbArc
 50
180.0028864186121
 51
269.9942656514355
  0
ARC
  5
6C
330
48
100
AcDbEntity
  8
0
  6
Continuous
 62
     0
370
    30
100
AcDbCircle
 10
128.2050173515429
 20
219.3782755368571
 30
0.0
 40
0.2500145437172579
100
AcDbArc
 50
270.0048677638034
 51
359.9966672067861
  0
LINE
  5
6D
330
48
100
AcDbEntity
  8
0
  6
Continuous
 62
     0
370
    30
100
AcDbLine
 10
128.455041933966
 20
219.3782609839574
 30
0.0
 11
128.455041933966
 21
219.6282609939574
 31
0.0
  0
LINE
  5
6E
330
48
100
AcDbEntity
  8
0
  6
Continuous
 62
     0
370
    30
100
AcDbLine
 10
109.955041933966
 20
219.3782609839574
 30
0.0
 11
109.955041933966
 21
219.6282609939574
 31
0.0
  0
LINE
  5
6F
330
48
100
AcDbEntity
  8
0
  6
Continuous
 62
     0
370
    30
100
AcDbLine
 10
128.7050316235093
 20
219.6282609939574
 30
0.0
 11
129.7050305381981
 21
220.6282609939575
 31
0.0
  0
LINE
  5
70
330
48
100
AcDbEntity
  8
0
  6
Continuous
 62
     0
370
    30
100
AcDbLine
 10
108.7050487704457
 20
220.6282609939575
 30
0.0
 11
109.7050481193524
 21
219.6282609939574
 31
0.0
  0
LINE
  5
71
330
48
100
AcDbEntity
  8
0
  6
Continuous
 62
     0
370
    30
100
AcDbLine
 10
129.705041933966
 20
220.6282609839574
 30
0.0
 11
129.705041933966
 21
226.2282609939574
 31
0.0
  0
LINE
  5
72
330
48
100
AcDbEntity
  8
0
  6
Continuous
 62
     0
370
    30
100
AcDbLine
 10
108.705041933966
 20
220.6282609839574
 30
0.0
 11
108.705041933966
 21
226.2282609939574
 31
0.0
  0
LINE
  5
73
330
48
100
AcDbEntity
  8
0
  6
Continuous
 62
     0
370
    30
100
AcDbLine
 10
128.305041933966
 20
226.2282609839574
 30
0.0
 11
128.305041933966
 21
229.7282609939574
 31
0.0
  0
LINE
  5
74
330
48
100
AcDbEntity
  8
0
  6
Continuous
 62
     0
370
    30
100
AcDbLine
 10
110.105041933966
 20
226.2282609839574
 30
0.0
 11
110.105041933966
 21
229.7282609939574
 31
0.0
  0
ENDBLK
  5
76
330
48
100
AcDbEntity
  8
0
100
AcDbBlockEnd
  0
BLOCK
  5
86
330
78
100
AcDbEntity
  8
0
100
AcDbBlockBegin
  2
b
 70
     0
 10
56.82587814331054
 20
74.08150482177735
 30
0.0
  3
b
  1

  0
LINE
  5
79
330
78
100
AcDbEntity
  8
0
  6
Continuous
 62
     0
370
    30
100
AcDbLine
 10
99.20504188537599
 20
99.78857576847076
 30
0.0
 11
99.20504188537599
 21
139.7885757684703
 31
0.0
  0
ARC
  5
7A
330
78
100
AcDbEntity
  8
0
  6
Continuous
 62
     0
370
    30
100
AcDbCircle
 10
119.2050418853759
 20
99.78857576847076
 30
0.0
 40
20.0
100
AcDbArc
 50
180.0000000006697
 51
0.0000000002232495
  0
LINE
  5
7B
330
78
100
AcDbEntity
  8
0
  6
Continuous
 62
     0
370
    30
100
AcDbLine
 10
139.2050418853759
 20
139.7885757684706
 30
0.0
 11
139.2050418853759
 21
99.78857576847074
 31
0.0
  0
LINE
  5
7C
330
78
100
AcDbEntity
  8
0
  6
Continuous
 62
     0
370
    30
100
AcDbLine
 10
149.2050488852566
 20
139.7885752439339
 30
0.0
 11
141.2050488852886
 21
139.7885752439339
 31
0.0
  0
LINE
  5
7D
330
78
100
AcDbEntity
  8
0
  6
Continuous
 62
     0
370
    30
100
AcDbLine
 10
141.2050488852886
 20
139.7885748942428
 30
0.0
 11
97.2050488854647
 21
139.7885748942428
 31
0.0
  0
LINE
  5
7E
330
78
100
AcDbEntity
  8
0
  6
Continuous
 62
     0
370
    30
100
AcDbLine
 10
97.20504888546471
 20
139.7885752439339
 30
0.0
 11
89.2050488854967
 21
139.7885752439339
 31
0.0
  0
LINE
  5
7F
330
78
100
AcDbEntity
  8
0
  6
Continuous
 62
     0
370
    30
100
AcDbLine
 10
149.2050488852566
 20
149.7885752439339
 30
0.0
 11
141.2050488852886
 21
149.7885752439339
 31
0.0
  0
LINE
  5
80
330
78
100
AcDbEntity
  8
0
  6
Continuous
 62
     0
370
    30
100
AcDbLine
 10
141.2050488852886
 20
149.7885748942428
 30
0.0
 11
97.2050488854647
 21
149.7885748942428
 31
0.0
  0
LINE
  5
81
330
78
100
AcDbEntity
  8
0
  6
Continuous
 62
     0
370
    30
100
AcDbLine
 10
97.20504888546471
 20
149.7885752439339
 30
0.0
 11
89.2050488854967
 21
149.7885752439339
 31
0.0
  0
LINE
  5
82
330
78
100
AcDbEntity
  8
0
  6
Continuous
 62
     0
370
    30
100
AcDbLine
 10
149.2050488852566
 20
139.7885752439339
 30
0.0
 11
149.2050488852566
 21
149.7885752439339
 31
0.0
  0
LINE
  5
83
330
78
100
AcDbEntity
  8
0
  6
Continuous
 62
     0
370
     0
100
AcDbLine
 10
141.2050488852886
 20
139.7885748942428
 30
0.0
 11
141.2050488852886
 21
149.7885748942428
 31
0.0
  0
LINE
  5
84
330
78
100
AcDbEntity
  8
0
  6
Continuous
 62
     0
370
     0
100
AcDbLine
 10
97.20504888546471
 20
139.7885748942428
 30
0.0
 11
97.20504888546471
 21
149.7885748942428
 31
0.0
  0
LINE
  5
85
330
78
100
AcDbEntity
  8
0
  6
Continuous
 62
     0
370
    30
100
AcDbLine
 10
89.2050488854967
 20
139.7885752439339
 30
0.0
 11
89.2050488854967
 21
149.7885752439339
 31
0.0
  0
ENDBLK
  5
87
330
78
100
AcDbEntity
  8
0
100
AcDbBlockEnd
  0
BLOCK
  5
BA
330
89
100
AcDbEntity
  8
0
100
AcDbBlockBegin
  2
c
 70
     0
 10
47.95592498779297
 20
76.86466217041015
 30
0.0
  3
c
  1

  0
LINE
  5
8A
330
89
100
AcDbEntity
  8
0
  6
Continuous
 62
     0
370
    30
100
AcDbLine
 10
291.0901133704042
 20
226.2282609939574
 30
0.0
 11
286.223953993334
 21
226.2282609939574
 31
0.0
  0
LWPOLYLINE
  5
8B
330
89
100
AcDbEntity
  8
0
  6
Continuous
 62
     0
370
    30
100
AcDbPolyline
 90
       19
 70
     0
 43
0.0
 10
307.2239685058594
 20
226.2282562255859
 10
307.1441650390625
 20
226.2282562255859
 10
306.9126281738281
 20
226.2282562255859
 10
306.5451049804687
 20
226.2282562255859
 10
306.0614318847656
 20
226.2282562255859
 10
305.4829101562499
 20
226.2282562255859
 10
304.7908630371093
 20
226.2282562255859
 10
303.9676208496093
 20
226.2282562255859
 10
303.0172119140625
 20
226.2282562255859
 10
301.9501342773437
 20
226.2282562255859
 10
300.7835693359375
 20
226.2282562255859
 10
299.5406188964843
 20
226.2282562255859
 10
298.2491455078124
 20
226.2282562255859
 10
296.9396057128906
 20
226.2282562255859
 10
295.6427917480468
 20
226.2282562255859
 10
294.3873901367187
 20
226.2282562255859
 10
293.1981811523437
 20
226.2282562255859
 10
292.0945739746093
 20
226.2282562255859
 10
291.0901184082031
 20
226.2282562255859
  0
LINE
  5
8C
330
89
100
AcDbEntity
  8
0
  6
Continuous
 62
     0
370
    30
100
AcDbLine
 10
286.223953993334
 20
220.6282609939574
 30
0.0
 11
291.0901133704042
 21
220.6282609939574
 31
0.0
  0
LINE
  5
8D
330
89
100
AcDbEntity
  8
0
  6
Continuous
 62
     0
370
    30
100
AcDbLine
 10
291.0901133704042
 20
220.6282609939574
 30
0.0
 11
307.223953993334
 21
220.6282609939574
 31
0.0
  0
LINE
  5
8E
330
89
100
AcDbEntity
  8
0
  6
Continuous
 62
     0
370
    30
100
AcDbLine
 10
291.6266696201984
 20
219.6282609939574
 30
0.0
 11
306.2239539933501
 21
219.6282609939574
 31
0.0
  0
LINE
  5
8F
330
89
100
AcDbEntity
  8
0
  6
Continuous
 62
     0
370
    30
100
AcDbLine
 10
287.2239539933178
 20
219.6282609939574
 30
0.0
 11
291.6266696201983
 21
219.6282609939574
 31
0.0
  0
LINE
  5
90
330
89
100
AcDbEntity
  8
0
  6
Continuous
 62
     0
370
     0
100
AcDbLine
 10
287.473953993334
 20
219.3782609939574
 30
0.0
 11
291.7608086826577
 21
219.3782609939574
 31
0.0
  0
LINE
  5
91
330
89
100
AcDbEntity
  8
0
  6
Continuous
 62
     0
370
     0
100
AcDbLine
 10
291.7608086826577
 20
219.3782609939574
 30
0.0
 11
305.973953993334
 21
219.3782609939574
 31
0.0
  0
LINE
  5
92
330
89
100
AcDbEntity
  8
0
  6
Continuous
 62
     0
370
    30
100
AcDbLine
 10
291.8949477451084
 20
219.1282609939575
 30
0.0
 11
287.7240306380959
 21
219.128260994631
 31
0.0
  0
LWPOLYLINE
  5
93
330
89
100
AcDbEntity
  8
0
  6
Continuous
 62
     0
370
    30
100
AcDbPolyline
 90
       18
 70
     0
 43
0.0
 10
305.723876953125
 20
219.1282653808593
 10
305.6529235839843
 20
219.1282653808593
 10
305.44091796875
 20
219.1282653808593
 10
305.0914306640625
 20
219.1282653808593
 10
304.6098022460937
 20
219.1282653808593
 10
304.0037536621093
 20
219.1282653808593
 10
303.2828063964843
 20
219.1282653808593
 10
302.4582824707031
 20
219.1282653808593
 10
301.5433044433593
 20
219.1282653808593
 10
300.5522155761718
 20
219.1282653808593
 10
299.5007629394531
 20
219.1282653808593
 10
298.4054565429687
 20
219.1282653808593
 10
297.2835693359375
 20
219.1282653808593
 10
296.1528320312499
 20
219.1282653808593
 10
295.0314331054687
 20
219.1282653808593
 10
293.9364318847656
 20
219.1282653808593
 10
292.8844299316406
 20
219.1282653808593
 10
291.8949584960937
 20
219.1282653808593
  0
LINE
  5
94
330
89
100
AcDbEntity
  8
0
  6
Continuous
 62
     0
370
     0
100
AcDbLine
 10
285.323953993334
 20
229.9282609969377
 30
0.0
 11
290.6072127455816
 21
229.9282609969377
 31
0.0
  0
LINE
  5
95
330
89
100
AcDbEntity
  8
0
  6
Continuous
 62
     0
370
     0
100
AcDbLine
 10
290.6072127455816
 20
229.9282609969377
 30
0.0
 11
308.123953993334
 21
229.9282609969377
 31
0.0
  0
LINE
  5
96
330
89
100
AcDbEntity
  8
0
  6
Continuous
 62
     0
370
     0
100
AcDbLine
 10
308.123953993334
 20
237.2282609909772
 30
0.0
 11
290.6072127455816
 21
237.2282609909772
 31
0.0
  0
LINE
  5
97
330
89
100
AcDbEntity
  8
0
  6
Continuous
 62
     0
370
     0
100
AcDbLine
 10
290.6072127455816
 20
237.2282609909772
 30
0.0
 11
285.323953993334
 21
237.2282609909772
 31
0.0
  0
LINE
  5
98
330
89
100
AcDbEntity
  8
0
  6
Continuous
 62
     0
370
    30
100
AcDbLine
 10
290.7145239971326
 20
229.7282609939574
 30
0.0
 11
307.9239539903699
 21
229.7282609939574
 31
0.0
  0
LINE
  5
99
330
89
100
AcDbEntity
  8
0
  6
Continuous
 62
     0
370
    30
100
AcDbLine
 10
285.523953996298
 20
229.7282609939574
 30
0.0
 11
290.7145239971325
 21
229.7282609939574
 31
0.0
  0
LINE
  5
9A
330
89
100
AcDbEntity
  8
0
  6
Continuous
 62
     0
370
     0
100
AcDbLine
 10
296.7239541212981
 20
237.4282608032226
 30
0.0
 11
296.7239541212981
 21
257.4282608032226
 31
0.0
  0
LINE
  5
9B
330
89
100
AcDbEntity
  8
0
  6
Continuous
 62
     0
370
    30
100
AcDbLine
 10
296.7239541212981
 20
257.4282608032226
 30
0.0
 11
256.7239541212984
 21
257.4282608032226
 31
0.0
  0
LINE
  5
9C
330
89
100
AcDbEntity
  8
0
  6
Continuous
 62
     0
370
    30
100
AcDbLine
 10
256.7239541212984
 20
237.4282608032226
 30
0.0
 11
296.7239541212981
 21
237.4282608032226
 31
0.0
  0
LINE
  5
9D
330
89
100
AcDbEntity
  8
0
  6
Continuous
 62
     0
370
    30
100
AcDbLine
 10
296.7239541212981
 20
237.4282608032226
 30
0.0
 11
316.7239532470703
 21
237.4282608032226
 31
0.0
  0
LINE
  5
9E
330
89
100
AcDbEntity
  8
0
  6
Continuous
 62
     0
370
    30
100
AcDbLine
 10
316.7239532470703
 20
257.4282608032226
 30
0.0
 11
296.7239541212981
 21
257.4282608032226
 31
0.0
  0
LINE
  5
9F
330
89
100
AcDbEntity
  8
0
  6
Continuous
 62
     0
370
    30
100
AcDbLine
 10
256.7239542087206
 20
277.4282608031397
 30
0.0
 11
256.7239542087206
 21
269.4282608031717
 31
0.0
  0
LINE
  5
A0
330
89
100
AcDbEntity
  8
0
  6
Continuous
 62
     0
370
    30
100
AcDbLine
 10
256.7239545584117
 20
269.4282608031717
 30
0.0
 11
256.7239545584117
 21
225.4282608033477
 31
0.0
  0
LINE
  5
A1
330
89
100
AcDbEntity
  8
0
  6
Continuous
 62
     0
370
    30
100
AcDbLine
 10
256.7239542087206
 20
225.4282608033477
 30
0.0
 11
256.7239542087206
 21
217.4282608033798
 31
0.0
  0
LINE
  5
A2
330
89
100
AcDbEntity
  8
0
  6
Continuous
 62
     0
370
    30
100
AcDbLine
 10
246.7239542087206
 20
277.4282608031397
 30
0.0
 11
246.7239542087206
 21
269.4282608031717
 31
0.0
  0
LINE
  5
A3
330
89
100
AcDbEntity
  8
0
  6
Continuous
 62
     0
370
    30
100
AcDbLine
 10
246.7239545584118
 20
269.4282608031717
 30
0.0
 11
246.7239545584118
 21
225.4282608033477
 31
0.0
  0
LINE
  5
A4
330
89
100
AcDbEntity
  8
0
  6
Continuous
 62
     0
370
    30
100
AcDbLine
 10
246.7239542087206
 20
225.4282608033477
 30
0.0
 11
246.7239542087206
 21
217.4282608033798
 31
0.0
  0
LINE
  5
A5
330
89
100
AcDbEntity
  8
0
  6
Continuous
 62
     0
370
    30
100
AcDbLine
 10
256.7239542087206
 20
277.4282608031397
 30
0.0
 11
246.7239542087206
 21
277.4282608031397
 31
0.0
  0
LINE
  5
A6
330
89
100
AcDbEntity
  8
0
  6
Continuous
 62
     0
370
     0
100
AcDbLine
 10
256.7239545584117
 20
269.4282608031717
 30
0.0
 11
246.7239545584117
 21
269.4282608031717
 31
0.0
  0
LINE
  5
A7
330
89
100
AcDbEntity
  8
0
  6
Continuous
 62
     0
370
     0
100
AcDbLine
 10
256.7239545584117
 20
225.4282608033477
 30
0.0
 11
246.7239545584117
 21
225.4282608033477
 31
0.0
  0
LINE
  5
A8
330
89
100
AcDbEntity
  8
0
  6
Continuous
 62
     0
370
    30
100
AcDbLine
 10
256.7239542087206
 20
217.4282608033797
 30
0.0
 11
246.7239542087206
 21
217.4282608033797
 31
0.0
  0
LINE
  5
A9
330
89
100
AcDbEntity
  8
0
  6
Continuous
 62
     0
370
    30
100
AcDbLine
 10
316.7239532470703
 20
237.4282607932226
 30
0.0
 11
316.7239532470703
 21
257.4282608032226
 31
0.0
  0
ARC
  5
AA
330
89
100
AcDbEntity
  8
0
  6
Continuous
 62
     0
370
    30
100
AcDbCircle
 10
285.5239935526845
 20
229.9282931270204
 30
0.0
 40
0.2000321392289857
100
AcDbArc
 50
180.0092031120474
 51
269.9843726866829
  0
ARC
  5
AB
330
89
100
AcDbEntity
  8
0
  6
Continuous
 62
     0
370
    30
100
AcDbCircle
 10
307.9239150549679
 20
229.9282928964491
 30
0.0
 40
0.2000319077544873
100
AcDbArc
 50
270.014034984204
 51
359.9908629207989
  0
ARC
  5
AC
330
89
100
AcDbEntity
  8
0
  6
Continuous
 62
     0
370
    30
100
AcDbCircle
 10
307.9239142508167
 20
237.2282282860149
 30
0.0
 40
0.200032712035767
100
AcDbArc
 50
0.0093677494070821
 51
89.98814647512466
  0
ARC
  5
AD
330
89
100
AcDbEntity
  8
0
  6
Continuous
 62
     0
370
    30
100
AcDbCircle
 10
285.5239941252444
 20
237.2282282866913
 30
0.0
 40
0.2000327118817447
100
AcDbArc
 50
90.01277180572483
 51
179.9906324443368
  0
LINE
  5
AE
330
89
100
AcDbEntity
  8
0
  6
Continuous
 62
     0
370
    30
100
AcDbLine
 10
285.323953993334
 20
229.9282609869377
 30
0.0
 11
285.323953993334
 21
237.2282609909772
 31
0.0
  0
LINE
  5
AF
330
89
100
AcDbEntity
  8
0
  6
Continuous
 62
     0
370
    30
100
AcDbLine
 10
308.1239539933339
 20
229.9282609869377
 30
0.0
 11
308.1239539933339
 21
237.2282609909772
 31
0.0
  0
ARC
  5
B0
330
89
100
AcDbEntity
  8
0
  6
Continuous
 62
     0
370
    30
100
AcDbCircle
 10
287.7239746154425
 20
219.3782755926971
 30
0.0
 40
0.2500145997283609
100
AcDbArc
 50
180.00334558929
 51
269.9944526345871
  0
ARC
  5
B1
330
89
100
AcDbEntity
  8
0
  6
Continuous
 62
     0
370
    30
100
AcDbCircle
 10
305.723933684376
 20
219.3782755957764
 30
0.0
 40
0.2500146026576748
100
AcDbArc
 50
270.0049569221531
 51
359.9966537050683
  0
LINE
  5
B2
330
89
100
AcDbEntity
  8
0
  6
Continuous
 62
     0
370
    30
100
AcDbLine
 10
287.473953993334
 20
219.3782609839574
 30
0.0
 11
287.473953993334
 21
219.6282609939574
 31
0.0
  0
LINE
  5
B3
330
89
100
AcDbEntity
  8
0
  6
Continuous
 62
     0
370
    30
100
AcDbLine
 10
305.9739539933339
 20
219.3782609839574
 30
0.0
 11
305.9739539933339
 21
219.6282609939574
 31
0.0
  0
LINE
  5
B4
330
89
100
AcDbEntity
  8
0
  6
Continuous
 62
     0
370
    30
100
AcDbLine
 10
287.2239601789191
 20
219.6282609939574
 30
0.0
 11
286.2239608300333
 21
220.6282609939575
 31
0.0
  0
LINE
  5
B5
330
89
100
AcDbEntity
  8
0
  6
Continuous
 62
     0
370
    30
100
AcDbLine
 10
307.223947515428
 20
220.6282609939575
 30
0.0
 11
306.2239481323714
 21
219.6282609939574
 31
0.0
  0
LINE
  5
B6
330
89
100
AcDbEntity
  8
0
  6
Continuous
 62
     0
370
    30
100
AcDbLine
 10
286.223953993334
 20
220.6282609839574
 30
0.0
 11
286.223953993334
 21
226.2282609939574
 31
0.0
  0
LINE
  5
B7
330
89
100
AcDbEntity
  8
0
  6
Continuous
 62
     0
370
    30
100
AcDbLine
 10
307.2239539933339
 20
220.6282609839574
 30
0.0
 11
307.2239539933339
 21
226.2282609939574
 31
0.0
  0
LINE
  5
B8
330
89
100
AcDbEntity
  8
0
  6
Continuous
 62
     0
370
    30
100
AcDbLine
 10
287.623953993334
 20
226.2282609839574
 30
0.0
 11
287.623953993334
 21
229.7282609939574
 31
0.0
  0
LINE
  5
B9
330
89
100
AcDbEntity
  8
0
  6
Continuous
 62
     0
370
    30
100
AcDbLine
 10
305.8239539933339
 20
226.2282609839574
 30
0.0
 11
305.8239539933339
 21
229.7282609939574
 31
0.0
  0
ENDBLK
  5
BB
330
89
100
AcDbEntity
  8
0
100
AcDbBlockEnd
  0
BLOCK
  5
EE
330
BD
100
AcDbEntity
  8
0
100
AcDbBlockBegin
  2
d
 70
     0
 10
27.56515502929687
 20
0.0
 30
0.0
  3
d
  1

  0
LINE
  5
BE
330
BD
100
AcDbEntity
  8
0
  6
Continuous
 62
     0
370
    30
100
AcDbLine
 10
-28.76693561793729
 20
226.2282533645629
 30
0.0
 11
-44.90077701548335
 21
226.2282533645629
 31
0.0
  0
LINE
  5
BF
330
BD
100
AcDbEntity
  8
0
  6
Continuous
 62
     0
370
    30
100
AcDbLine
 10
-44.90077701548334
 20
226.2282533645629
 30
0.0
 11
-49.76693561793725
 21
226.2282533645629
 31
0.0
  0
LINE
  5
C0
330
BD
100
AcDbEntity
  8
0
  6
Continuous
 62
     0
370
    30
100
AcDbLine
 10
-44.90077701548336
 20
220.6282533645629
 30
0.0
 11
-28.76693561793729
 21
220.6282533645629
 31
0.0
  0
LINE
  5
C1
330
BD
100
AcDbEntity
  8
0
  6
Continuous
 62
     0
370
    30
100
AcDbLine
 10
-49.76693561793729
 20
220.6282533645629
 30
0.0
 11
-44.90077701548338
 21
220.6282533645629
 31
0.0
  0
LWPOLYLINE
  5
C2
330
BD
100
AcDbEntity
  8
0
  6
Continuous
 62
     0
370
    30
100
AcDbPolyline
 90
       10
 70
     0
 43
0.0
 10
-48.76693725585937
 20
219.6282501220703
 10
-48.70342636108398
 20
219.6282501220703
 10
-48.51222610473633
 20
219.6282501220703
 10
-48.19620513916015
 20
219.6282501220703
 10
-47.76323699951172
 20
219.6282501220703
 10
-47.2255630493164
 20
219.6282501220703
 10
-46.59879684448242
 20
219.6282501220703
 10
-45.90067672729492
 20
219.6282501220703
 10
-45.14975357055663
 20
219.6282501220703
 10
-44.36421966552734
 20
219.6282501220703
  0
LINE
  5
C3
330
BD
100
AcDbEntity
  8
0
  6
Continuous
 62
     0
370
    30
100
AcDbLine
 10
-44.36422069191623
 20
219.6282533645629
 30
0.0
 11
-29.76693561792108
 21
219.6282533645629
 31
0.0
  0
LINE
  5
C4
330
BD
100
AcDbEntity
  8
0
  6
Continuous
 62
     0
370
     0
100
AcDbLine
 10
-44.23008161101359
 20
219.3782533645629
 30
0.0
 11
-30.01693561793729
 21
219.3782533645629
 31
0.0
  0
LINE
  5
C5
330
BD
100
AcDbEntity
  8
0
  6
Continuous
 62
     0
370
     0
100
AcDbLine
 10
-48.51693561793729
 20
219.3782533645629
 30
0.0
 11
-44.2300816110136
 21
219.3782533645629
 31
0.0
  0
LINE
  5
C6
330
BD
100
AcDbEntity
  8
0
  6
Continuous
 62
     0
370
    30
100
AcDbLine
 10
-30.26701226269639
 20
219.1282533652365
 30
0.0
 11
-44.09594253011962
 21
219.1282533645629
 31
0.0
  0
LINE
  5
C7
330
BD
100
AcDbEntity
  8
0
  6
Continuous
 62
     0
370
    30
100
AcDbLine
 10
-44.09594253011961
 20
219.1282533645629
 30
0.0
 11
-48.26685300047472
 21
219.1282533649551
 31
0.0
  0
LINE
  5
C8
330
BD
100
AcDbEntity
  8
0
  6
Continuous
 62
     0
370
     0
100
AcDbLine
 10
-45.3836777067016
 20
229.9282533675432
 30
0.0
 11
-27.86693561793728
 21
229.9282533675432
 31
0.0
  0
LINE
  5
C9
330
BD
100
AcDbEntity
  8
0
  6
Continuous
 62
     0
370
     0
100
AcDbLine
 10
-50.6669356179373
 20
229.9282533675432
 30
0.0
 11
-45.38367770670162
 21
229.9282533675432
 31
0.0
  0
LINE
  5
CA
330
BD
100
AcDbEntity
  8
0
  6
Continuous
 62
     0
370
     0
100
AcDbLine
 10
-45.38367770670162
 20
237.2282533615827
 30
0.0
 11
-50.6669356179373
 21
237.2282533615827
 31
0.0
  0
LINE
  5
CB
330
BD
100
AcDbEntity
  8
0
  6
Continuous
 62
     0
370
     0
100
AcDbLine
 10
-27.86693561793728
 20
237.2282533615827
 30
0.0
 11
-45.3836777067016
 21
237.2282533615827
 31
0.0
  0
LWPOLYLINE
  5
CC
330
BD
100
AcDbEntity
  8
0
  6
Continuous
 62
     0
370
    30
100
AcDbPolyline
 90
       10
 70
     0
 43
0.0
 10
-50.46693420410156
 20
229.7282562255859
 10
-50.39205932617187
 20
229.7282562255859
 10
-50.16664505004882
 20
229.7282562255859
 10
-49.79407501220703
 20
229.7282562255859
 10
-49.28362655639649
 20
229.7282562255859
 10
-48.64973831176758
 20
229.7282562255859
 10
-47.91081619262695
 20
229.7282562255859
 10
-47.0877685546875
 20
229.7282562255859
 10
-46.20246887207031
 20
229.7282562255859
 10
-45.2763671875
 20
229.7282562255859
  0
LINE
  5
CD
330
BD
100
AcDbEntity
  8
0
  6
Continuous
 62
     0
370
    30
100
AcDbLine
 10
-45.27636644039603
 20
229.7282533645629
 30
0.0
 11
-28.06693562090133
 21
229.7282533645629
 31
0.0
  0
LINE
  5
CE
330
BD
100
AcDbEntity
  8
0
  6
Continuous
 62
     0
370
    30
100
AcDbLine
 10
-59.26693487167361
 20
237.4282531738281
 30
0.0
 11
-39.26693574590138
 21
237.4282531738281
 31
0.0
  0
LINE
  5
CF
330
BD
100
AcDbEntity
  8
0
  6
Continuous
 62
     0
370
     0
100
AcDbLine
 10
-39.26693574590137
 20
237.4282531738281
 30
0.0
 11
-39.26693574590137
 21
257.4282531738281
 31
0.0
  0
LINE
  5
D0
330
BD
100
AcDbEntity
  8
0
  6
Continuous
 62
     0
370
    30
100
AcDbLine
 10
-39.26693574590136
 20
257.4282531738281
 30
0.0
 11
-59.26693487167359
 21
257.4282531738281
 31
0.0
  0
LINE
  5
D1
330
BD
100
AcDbEntity
  8
0
  6
Continuous
 62
     0
370
    30
100
AcDbLine
 10
-39.26693574590137
 20
237.4282531738281
 30
0.0
 11
0.7330642540984869
 21
237.4282531738281
 31
0.0
  0
LINE
  5
D2
330
BD
100
AcDbEntity
  8
0
  6
Continuous
 62
     0
370
    30
100
AcDbLine
 10
0.7330642540985153
 20
257.4282531738281
 30
0.0
 11
-39.26693574590136
 21
257.4282531738281
 31
0.0
  0
LINE
  5
D3
330
BD
100
AcDbEntity
  8
0
  6
Continuous
 62
     0
370
    30
100
AcDbLine
 10
0.7330641666754332
 20
269.4282531737772
 30
0.0
 11
0.7330641666754341
 21
277.4282531737451
 31
0.0
  0
LINE
  5
D4
330
BD
100
AcDbEntity
  8
0
  6
Continuous
 62
     0
370
    30
100
AcDbLine
 10
0.7330641666754323
 20
217.4282531739852
 30
0.0
 11
0.7330641666754332
 21
225.4282531739533
 31
0.0
  0
LINE
  5
D5
330
BD
100
AcDbEntity
  8
0
  6
Continuous
 62
     0
370
    30
100
AcDbLine
 10
0.7330638169843269
 20
225.4282531739533
 30
0.0
 11
0.7330638169843318
 21
269.4282531737772
 31
0.0
  0
LINE
  5
D6
330
BD
100
AcDbEntity
  8
0
  6
Continuous
 62
     0
370
    30
100
AcDbLine
 10
10.73306416667541
 20
269.4282531737772
 30
0.0
 11
10.73306416667541
 21
277.4282531737451
 31
0.0
  0
LINE
  5
D7
330
BD
100
AcDbEntity
  8
0
  6
Continuous
 62
     0
370
    30
100
AcDbLine
 10
10.73306416667541
 20
217.4282531739852
 30
0.0
 11
10.73306416667541
 21
225.4282531739533
 31
0.0
  0
LINE
  5
D8
330
BD
100
AcDbEntity
  8
0
  6
Continuous
 62
     0
370
    30
100
AcDbLine
 10
10.73306381698431
 20
225.4282531739533
 30
0.0
 11
10.73306381698431
 21
269.4282531737772
 31
0.0
  0
LINE
  5
D9
330
BD
100
AcDbEntity
  8
0
  6
Continuous
 62
     0
370
     0
100
AcDbLine
 10
0.7330638169843269
 20
269.4282531737772
 30
0.0
 11
10.73306381698431
 21
269.4282531737772
 31
0.0
  0
LINE
  5
DA
330
BD
100
AcDbEntity
  8
0
  6
Continuous
 62
     0
370
    30
100
AcDbLine
 10
0.7330641666754332
 20
277.4282531737451
 30
0.0
 11
10.73306416667542
 21
277.4282531737451
 31
0.0
  0
LINE
  5
DB
330
BD
100
AcDbEntity
  8
0
  6
Continuous
 62
     0
370
    30
100
AcDbLine
 10
0.7330641666754261
 20
217.4282531739852
 30
0.0
 11
10.73306416667541
 21
217.4282531739852
 31
0.0
  0
LINE
  5
DC
330
BD
100
AcDbEntity
  8
0
  6
Continuous
 62
     0
370
     0
100
AcDbLine
 10
0.7330638169843269
 20
225.4282531739533
 30
0.0
 11
10.73306381698431
 21
225.4282531739533
 31
0.0
  0
LINE
  5
DD
330
BD
100
AcDbEntity
  8
0
  6
Continuous
 62
     0
370
    30
100
AcDbLine
 10
-59.26693487167359
 20
237.4282531638281
 30
0.0
 11
-59.26693487167359
 21
257.4282531738281
 31
0.0
  0
ARC
  5
DE
330
BD
100
AcDbEntity
  8
0
  6
Continuous
 62
     0
370
    30
100
AcDbCircle
 10
-28.06697517723907
 20
229.9282854976272
 30
0.0
 40
0.2000321392301298
100
AcDbArc
 50
270.0156273133444
 51
359.990796887575
  0
ARC
  5
DF
330
BD
100
AcDbEntity
  8
0
  6
Continuous
 62
     0
370
    30
100
AcDbCircle
 10
-50.46689667961917
 20
229.9282852670553
 30
0.0
 40
0.2000319077551383
100
AcDbArc
 50
180.0091370793903
 51
269.9859650158564
  0
ARC
  5
E0
330
BD
100
AcDbEntity
  8
0
  6
Continuous
 62
     0
370
    30
100
AcDbCircle
 10
-50.46689587546804
 20
237.2282206566198
 30
0.0
 40
0.200032712036315
100
AcDbArc
 50
90.01185352479696
 51
179.9906322504443
  0
ARC
  5
E1
330
BD
100
AcDbEntity
  8
0
  6
Continuous
 62
     0
370
    30
100
AcDbCircle
 10
-28.06697574979855
 20
237.2282206572964
 30
0.0
 40
0.2000327118822296
100
AcDbArc
 50
0.0093675557700026
 51
89.98722819435457
  0
LINE
  5
E2
330
BD
100
AcDbEntity
  8
0
  6
Continuous
 62
     0
370
    30
100
AcDbLine
 10
-27.86693561793725
 20
229.9282533575432
 30
0.0
 11
-27.86693561793725
 21
237.2282533615827
 31
0.0
  0
LINE
  5
E3
330
BD
100
AcDbEntity
  8
0
  6
Continuous
 62
     0
370
    30
100
AcDbLine
 10
-50.66693561793726
 20
229.9282533575432
 30
0.0
 11
-50.66693561793726
 21
237.2282533615827
 31
0.0
  0
ARC
  5
E4
330
BD
100
AcDbEntity
  8
0
  6
Continuous
 62
     0
370
    30
100
AcDbCircle
 10
-30.26695624000621
 20
219.3782679633033
 30
0.0
 40
0.250014599729091
100
AcDbArc
 50
270.0055473653355
 51
359.9966544105471
  0
ARC
  5
E5
330
BD
100
AcDbEntity
  8
0
  6
Continuous
 62
     0
370
    30
100
AcDbCircle
 10
-48.2669153090184
 20
219.3782679663818
 30
0.0
 40
0.2500146026578178
100
AcDbArc
 50
180.0033462949349
 51
269.9950430780287
  0
LINE
  5
E6
330
BD
100
AcDbEntity
  8
0
  6
Continuous
 62
     0
370
    30
100
AcDbLine
 10
-30.01693561793726
 20
219.3782533545629
 30
0.0
 11
-30.01693561793726
 21
219.6282533645629
 31
0.0
  0
LINE
  5
E7
330
BD
100
AcDbEntity
  8
0
  6
Continuous
 62
     0
370
    30
100
AcDbLine
 10
-48.51693561793725
 20
219.3782533545629
 30
0.0
 11
-48.51693561793725
 21
219.6282533645629
 31
0.0
  0
LINE
  5
E8
330
BD
100
AcDbEntity
  8
0
  6
Continuous
 62
     0
370
    30
100
AcDbLine
 10
-29.76694180348095
 20
219.6282533645629
 30
0.0
 11
-28.76694245459082
 21
220.6282533645629
 31
0.0
  0
LINE
  5
E9
330
BD
100
AcDbEntity
  8
0
  6
Continuous
 62
     0
370
    30
100
AcDbLine
 10
-49.766929140076
 20
220.6282533645629
 30
0.0
 11
-48.76692975701519
 21
219.6282533645629
 31
0.0
  0
LINE
  5
EA
330
BD
100
AcDbEntity
  8
0
  6
Continuous
 62
     0
370
    30
100
AcDbLine
 10
-28.76693561793727
 20
220.6282533545629
 30
0.0
 11
-28.76693561793727
 21
226.2282533645629
 31
0.0
  0
LINE
  5
EB
330
BD
100
AcDbEntity
  8
0
  6
Continuous
 62
     0
370
    30
100
AcDbLine
 10
-49.76693561793725
 20
220.6282533545629
 30
0.0
 11
-49.76693561793725
 21
226.2282533645629
 31
0.0
  0
LINE
  5
EC
330
BD
100
AcDbEntity
  8
0
  6
Continuous
 62
     0
370
    30
100
AcDbLine
 10
-30.16693561793725
 20
226.2282533545629
 30
0.0
 11
-30.16693561793725
 21
229.7282533645629
 31
0.0
  0
LINE
  5
ED
330
BD
100
AcDbEntity
  8
0
  6
Continuous
 62
     0
370
    30
100
AcDbLine
 10
-48.36693561793726
 20
226.2282533545629
 30
0.0
 11
-48.36693561793726
 21
229.7282533645629
 31
0.0
  0
ENDBLK
  5
EF
330
BD
100
AcDbEntity
  8
0
100
AcDbBlockEnd
  0
ENDSEC
  0
SECTION
  2
ENTITIES
  0
INSERT
  5
77
330
1F
100
AcDbEntity
  8
0
  6
Continuous
 62
   250
370
     0
100
AcDbBlockReference
  2
a
 10
62.02690887451172
 20
66.86466217041015
 30
0.0
  0
INSERT
  5
88
330
1F
100
AcDbEntity
  8
0
  6
Continuous
 62
   250
370
     0
100
AcDbBlockReference
  2
b
 10
56.82587814331054
 20
74.08150482177735
 30
0.0
  0
INSERT
  5
BC
330
1F
100
AcDbEntity
  8
0
  6
Continuous
 62
   250
370
     0
100
AcDbBlockReference
  2
c
 10
47.95592498779297
 20
76.86466217041015
 30
0.0
  0
INSERT
  5
F0
330
1F
100
AcDbEntity
  8
0
  6
Continuous
 62
   250
370
     0
100
AcDbBlockReference
  2
d
 10
27.56515502929687
 20
0.0
 30
0.0
  0
ENDSEC
  0
SECTION
  2
OBJECTS
  0
DICTIONARY
  5
C
330
0
100
AcDbDictionary
281
     1
  3
ACAD_GROUP
350
D
  3
ACAD_LAYOUT
350
1A
  3
ACAD_MLEADERSTYLE
350
F3
  3
ACAD_MLINESTYLE
350
17
  3
ACAD_PLOTSETTINGS
350
19
  3
ACAD_PLOTSTYLENAME
350
E
  3
ACAD_VISUALSTYLE
350
2A
  3
AcDbVariableDictionary
350
F1
  0
DICTIONARY
  5
D
102
{ACAD_REACTORS
330
C
102
}
330
C
100
AcDbDictionary
281
     1
  0
DICTIONARY
  5
1A
102
{ACAD_REACTORS
330
C
102
}
330
C
100
AcDbDictionary
281
     1
  3
Layout1
350
1E
  3
Layout2
350
26
  3
Model
350
22
  0
DICTIONARY
  5
F3
102
{ACAD_REACTORS
330
C
102
}
330
C
100
AcDbDictionary
281
     1
  0
DICTIONARY
  5
17
102
{ACAD_REACTORS
330
C
102
}
330
C
100
AcDbDictionary
281
     1
  3
Standard
350
18
  0
DICTIONARY
  5
19
102
{ACAD_REACTORS
330
C
102
}
330
C
100
AcDbDictionary
281
     1
  0
ACDBDICTIONARYWDFLT
  5
E
102
{ACAD_REACTORS
330
C
102
}
330
C
100
AcDbDictionary
281
     1
  3
Normal
350
F
100
AcDbDictionaryWithDefault
340
F
  0
DICTIONARY
  5
2A
102
{ACAD_REACTORS
330
C
102
}
330
C
100
AcDbDictionary
281
     1
  3
2dWireframe
350
2F
  3
3D Hidden
350
31
  3
3dWireframe
350
30
  3
Basic
350
32
  3
Brighten
350
36
  3
ColorChange
350
3A
  3
Conceptual
350
34
  3
Dim
350
35
  3
Facepattern
350
39
  3
Flat
350
2B
  3
FlatWithEdges
350
2C
  3
Gouraud
350
2D
  3
GouraudWithEdges
350
2E
  3
Linepattern
350
38
  3
Realistic
350
33
  3
Thicken
350
37
  0
DICTIONARY
  5
F1
102
{ACAD_REACTORS
330
C
102
}
330
C
100
AcDbDictionary
281
     1
  3
DIMASSOC
350
FC
  3
PSOLHEIGHT
350
F5
  3
PSOLWIDTH
350
F4
  0
LAYOUT
  5
1E
102
{ACAD_REACTORS
330
1A
102
}
330
1A
100
AcDbPlotSettings
  1

  2
none_device
  4

  6

 40
0.0
 41
0.0
 42
0.0
 43
0.0
 44
0.0
 45
0.0
 46
0.0
 47
0.0
 48
0.0
 49
0.0
140
0.0
141
0.0
142
1.0
143
1.0
 70
   688
 72
     0
 73
     0
 74
     5
  7

 75
    16
147
1.0
148
0.0
149
0.0
100
AcDbLayout
  1
Layout1
 70
     1
 71
     1
 10
0.0
 20
0.0
 11
420.0
 21
297.0
 12
0.0
 22
0.0
 32
0.0
 14
1.000000000000000E+20
 24
1.000000000000000E+20
 34
1.000000000000000E+20
 15
-1.000000000000000E+20
 25
-1.000000000000000E+20
 35
-1.000000000000000E+20
146
0.0
 13
0.0
 23
0.0
 33
0.0
 16
1.0
 26
0.0
 36
0.0
 17
0.0
 27
1.0
 37
0.0
 76
     0
330
1B
  0
LAYOUT
  5
26
102
{ACAD_REACTORS
330
1A
102
}
330
1A
100
AcDbPlotSettings
  1

  2
none_device
  4

  6

 40
0.0
 41
0.0
 42
0.0
 43
0.0
 44
0.0
 45
0.0
 46
0.0
 47
0.0
 48
0.0
 49
0.0
140
0.0
141
0.0
142
1.0
143
1.0
 70
   688
 72
     0
 73
     0
 74
     5
  7

 75
    16
147
1.0
148
0.0
149
0.0
100
AcDbLayout
  1
Layout2
 70
     1
 71
     2
 10
0.0
 20
0.0
 11
0.0
 21
0.0
 12
0.0
 22
0.0
 32
0.0
 14
0.0
 24
0.0
 34
0.0
 15
0.0
 25
0.0
 35
0.0
146
0.0
 13
0.0
 23
0.0
 33
0.0
 16
1.0
 26
0.0
 36
0.0
 17
0.0
 27
1.0
 37
0.0
 76
     0
330
23
  0
LAYOUT
  5
22
102
{ACAD_REACTORS
330
1A
102
}
330
1A
100
AcDbPlotSettings
  1

  2
none_device
  4

  6

 40
0.0
 41
0.0
 42
0.0
 43
0.0
 44
0.0
 45
0.0
 46
0.0
 47
0.0
 48
0.0
 49
0.0
140
0.0
141
0.0
142
1.0
143
1.0
 70
  1712
 72
     0
 73
     0
 74
     0
  7

 75
     0
147
1.0
148
0.0
149
0.0
100
AcDbLayout
  1
Model
 70
     1
 71
     0
 10
-59.26693344116211
 20
71.45653533935547
 11
316.7239379882812
 21
295.4282531738281
 12
0.0
 22
0.0
 32
0.0
 14
-59.26693344116211
 24
71.45653533935547
 34
0.0
 15
316.7239379882812
 25
295.4282531738281
 35
0.0
146
0.0
 13
0.0
 23
0.0
 33
0.0
 16
1.0
 26
0.0
 36
0.0
 17
0.0
 27
1.0
 37
0.0
 76
     0
330
1F
  0
MLINESTYLE
  5
18
102
{ACAD_REACTORS
330
17
102
}
330
17
100
AcDbMlineStyle
  2
STANDARD
 70
     0
  3

 62
   256
 51
90.0
 52
90.0
 71
     2
 49
0.5
 62
   256
  6
BYLAYER
 49
-0.5
 62
   256
  6
BYLAYER
  0
ACDBPLACEHOLDER
  5
F
102
{ACAD_REACTORS
330
E
102
}
330
E
  0
ACAD_PROXY_OBJECT
  5
2F
102
{ACAD_REACTORS
330
2A
102
}
330
2A
100
AcDbProxyObject
 90
      499
 91
      501
 95
   851991
 70
     0
 93
      436
310
42CC9915DA5C99599C985B595049028333333333333E3BF0000000000000FB0107901411070040501600405405064090741402480A0340
 94
        0
1001
ACAD
1000
AcDbSavedByObjectVersion
1070
     0
  0
ACAD_PROXY_OBJECT
  5
31
102
{ACAD_REACTORS
330
2A
102
}
330
2A
100
AcDbProxyObject
 90
      499
 91
      501
 95
   851991
 70
     0
 93
      500
310
424CD108121A5919195B90640502408333333333333E3BF0000000000000FB01079024090700405020000000000001110200405405064090740C02480A034D
 94
        0
1001
ACAD
1000
AcDbSavedByObjectVersion
1070
     0
  0
ACAD_PROXY_OBJECT
  5
30
102
{ACAD_REACTORS
330
2A
102
}
330
2A
100
AcDbProxyObject
 90
      499
 91
      501
 95
   851991
 70
     0
 93
      436
310
42CCD915DA5C99599C985B595059028333333333333E3BF0000000000000FB0107901411070040501600405405064090741402480A0340
 94
        0
1001
ACAD
1000
AcDbSavedByObjectVersion
1070
     0
  0
ACAD_PROXY_OBJECT
  5
32
102
{ACAD_REACTORS
330
2A
102
}
330
2A
100
AcDbProxyObject
 90
      499
 91
      501
 95
   851991
 70
     0
 93
      388
310
4150985CDA58D07406404333333333333E3BF0000000000000FB0107A41107004050150841D405064090741402480A0352
 94
        0
1001
ACAD
1000
AcDbSavedByObjectVersion
1070
     0
  0
ACAD_PROXY_OBJECT
  5
36
102
{ACAD_REACTORS
330
2A
102
}
330
2A
100
AcDbProxyObject
 90
      499
 91
      501
 95
   851991
 70
     0
 93
      428
310
42109C9A59DA1D195B90C409028333333333333E3BF0000000000000FB010790141107004050150841D405064090741402480A029956
 94
        0
1001
ACAD
1000
AcDbSavedByObjectVersion
1070
     0
  0
ACAD_PROXY_OBJECT
  5
3A
102
{ACAD_REACTORS
330
2A
102
}
330
2A
100
AcDbProxyObject
 90
      499
 91
      501
 95
   851991
 70
     0
 93
      452
310
42D0DBDB1BDC90DA185B99D95104090240C333333333333E3BF0000000000000FB0108901411070040501508421405064090741402480A0354
 94
        0
1001
ACAD
1000
AcDbSavedByObjectVersion
1070
     0
  0
ACAD_PROXY_OBJECT
  5
34
102
{ACAD_REACTORS
330
2A
102
}
330
2A
100
AcDbProxyObject
 90
      499
 91
      501
 95
   851991
 70
     0
 93
      500
310
4290DBDB98D95C1D1D585B10940D028333333333333E3BF0000000000000FB0107902409070040501000000000000111010841D405064090740C02480A034D
 94
        0
1001
ACAD
1000
AcDbSavedByObjectVersion
1070
     0
  0
ACAD_PROXY_OBJECT
  5
35
102
{ACAD_REACTORS
330
2A
102
}
330
2A
100
AcDbProxyObject
 90
      499
 91
      501
 95
   851991
 70
     0
 93
      412
310
40D11A5B50B409028333333333333E3BF0000000000000FB010790141107004050150841D405064090741402480A02677FFFFFD4
 94
        0
1001
ACAD
1000
AcDbSavedByObjectVersion
1070
     0
  0
ACAD_PROXY_OBJECT
  5
39
102
{ACAD_REACTORS
330
2A
102
}
330
2A
100
AcDbProxyObject
 90
      499
 91
      501
 95
   851991
 70
     0
 93
      444
310
42D19858D95C185D1D195C9B90F409028333333333333E3BF0000000000000FB010790141107004050150841D405064090741402480A0350
 94
        0
1001
ACAD
1000
AcDbSavedByObjectVersion
1070
     0
  0
ACAD_PROXY_OBJECT
  5
2B
102
{ACAD_REACTORS
330
2A
102
}
330
2A
100
AcDbProxyObject
 90
      499
 91
      501
 95
   851991
 70
     0
 93
      388
310
41119B185D240901404333333333333E3BF0000000000000F9010740A41107004050150841D405064090741402480A1B5D
 94
        0
1001
ACAD
1000
AcDbSavedByObjectVersion
1070
     0
  0
ACAD_PROXY_OBJECT
  5
2C
102
{ACAD_REACTORS
330
2A
102
}
330
2A
100
AcDbProxyObject
 90
      499
 91
      501
 95
   851991
 70
     0
 93
      476
310
43519B185D15DA5D1A115919D95CD0140901404333333333333E3BF0000000000000F9010740901411070040501600405405064090741402480A1B50
 94
        0
1001
ACAD
1000
AcDbSavedByObjectVersion
1070
     0
  0
ACAD_PROXY_OBJECT
  5
2D
102
{ACAD_REACTORS
330
2A
102
}
330
2A
100
AcDbProxyObject
 90
      499
 91
      501
 95
   851991
 70
     0
 93
      412
310
41D1DBDD5C985D5910240902404333333333333E3BF0000000000000F9010740A411070040501641D405064090741402480A1B50
 94
        0
1001
ACAD
1000
AcDbSavedByObjectVersion
1070
     0
  0
ACAD_PROXY_OBJECT
  5
2E
102
{ACAD_REACTORS
330
2A
102
}
330
2A
100
AcDbProxyObject
 90
      499
 91
      501
 95
   851991
 70
     0
 93
      500
310
4411DBDD5C985D5915DA5D1A115919D95CD0340902404333333333333E3BF0000000000000F9010740901411070040501600405405064090741402480A1B5D
 94
        0
1001
ACAD
1000
AcDbSavedByObjectVersion
1070
     0
  0
ACAD_PROXY_OBJECT
  5
38
102
{ACAD_REACTORS
330
2A
102
}
330
2A
100
AcDbProxyObject
 90
      499
 91
      501
 95
   851991
 70
     0
 93
      444
310
42D31A5B995C185D1D195C9B90E409028333333333333E3BF0000000000000FB010790141107004050750841D405064090741402483A0350
 94
        0
1001
ACAD
1000
AcDbSavedByObjectVersion
1070
     0
  0
ACAD_PROXY_OBJECT
  5
33
102
{ACAD_REACTORS
330
2A
102
}
330
2A
100
AcDbProxyObject
 90
      499
 91
      501
 95
   851991
 70
     0
 93
      420
310
425499585B1A5CDD1A58D08409028333333333333E3BF0000000000000FB01079019070040501508421405064090741402480A1B45
 94
        0
1001
ACAD
1000
AcDbSavedByObjectVersion
1070
     0
  0
ACAD_PROXY_OBJECT
  5
37
102
{ACAD_REACTORS
330
2A
102
}
330
2A
100
AcDbProxyObject
 90
      499
 91
      501
 95
   851991
 70
     0
 93
      412
310
41D51A1A58DAD95B90D409028333333333333E3BF0000000000000FB010790141107004050150C41D405064090741402480A0352
 94
        0
1001
ACAD
1000
AcDbSavedByObjectVersion
1070
     0
  0
DICTIONARYVAR
  5
FC
102
{ACAD_REACTORS
330
F1
102
}
330
F1
100
DictionaryVariables
280
     0
  1
1
  0
DICTIONARYVAR
  5
F5
102
{ACAD_REACTORS
330
F1
102
}
330
F1
100
DictionaryVariables
280
     0
  1
80.000000
  0
DICTIONARYVAR
  5
F4
102
{ACAD_REACTORS
330
F1
102
}
330
F1
100
DictionaryVariables
280
     0
  1
5.000000
  0
ENDSEC
  0
EOF
