  0
SECTION
  2
HEADER
  9
$ACADVER
  1
AC1024
  9
$ACADMAINTVER
 70
     6
  9
$DWGCODEPAGE
  3
ANSI_1252
  9
$INSBASE
 10
0.0
 20
0.0
 30
0.0
  9
$EXTMIN
 10
1.000000E+20
 20
1.000000E+20
 30
1.000000E+20
  9
$EXTMAX
 10
-1.000000E+20
 20
-1.000000E+20
 30
-1.000000E+20
  9
$LIMMIN
 10
0.0
 20
0.0
  9
$LIMMAX
 10
420.0
 20
297.0
  9
$ORTHOMODE
 70
     0
  9
$REGENMODE
 70
     1
  9
$FILLMODE
 70
     1
  9
$QTEXTMODE
 70
     0
  9
$MIRRTEXT
 70
     1
  9
$LTSCALE
 40
1.0
  9
$ATTMODE
 70
     1
  9
$TEXTSIZE
 40
2.5
  9
$TRACEWID
 40
1.0
  9
$TEXTSTYLE
  7
Standard
  9
$CLAYER
  8
0
  9
$CELTYPE
  6
ByLayer
  9
$CECOLOR
 62
   256
  9
$CELTSCALE
 40
1.0
  9
$DISPSILH
 70
     0
  9
$DIMSCALE
 40
1.0
  9
$DIMASZ
 40
2.5
  9
$DIMEXO
 40
0.625
  9
$DIMDLI
 40
3.75
  9
$DIMRND
 40
0.0
  9
$DIMDLE
 40
0.0
  9
$DIMEXE
 40
1.25
  9
$DIMTP
 40
0.0
  9
$DIMTM
 40
0.0
  9
$DIMTXT
 40
2.5
  9
$DIMCEN
 40
2.5
  9
$DIMTSZ
 40
0.0
  9
$DIMTOL
 70
     0
  9
$DIMLIM
 70
     0
  9
$DIMTIH
 70
     0
  9
$DIMTOH
 70
     0
  9
$DIMSE1
 70
     0
  9
$DIMSE2
 70
     0
  9
$DIMTAD
 70
     1
  9
$DIMZIN
 70
     8
  9
$DIMBLK
  1

  9
$DIMASO
 70
     1
  9
$DIMSHO
 70
     1
  9
$DIMPOST
  1

  9
$DIMAPOST
  1

  9
$DIMALT
 70
     0
  9
$DIMALTD
 70
     3
  9
$DIMALTF
 40
0.03937
  9
$DIMLFAC
 40
1.0
  9
$DIMTOFL
 70
     1
  9
$DIMTVP
 40
0.0
  9
$DIMTIX
 70
     0
  9
$DIMSOXD
 70
     0
  9
$DIMSAH
 70
     0
  9
$DIMBLK1
  1

  9
$DIMBLK2
  1

  9
$DIMSTYLE
  2
ISO-25
  9
$DIMCLRD
 70
     0
  9
$DIMCLRE
 70
     0
  9
$DIMCLRT
 70
     0
  9
$DIMTFAC
 40
1.0
  9
$DIMGAP
 40
0.625
  9
$DIMJUST
 70
     0
  9
$DIMSD1
 70
     0
  9
$DIMSD2
 70
     0
  9
$DIMTOLJ
 70
     0
  9
$DIMTZIN
 70
     8
  9
$DIMALTZ
 70
     0
  9
$DIMALTTZ
 70
     0
  9
$DIMUPT
 70
     0
  9
$DIMDEC
 70
     2
  9
$DIMTDEC
 70
     2
  9
$DIMALTU
 70
     2
  9
$DIMALTTD
 70
     3
  9
$DIMTXSTY
  7
Standard
  9
$DIMAUNIT
 70
     0
  9
$DIMADEC
 70
     0
  9
$DIMALTRND
 40
0.0
  9
$DIMAZIN
 70
     0
  9
$DIMDSEP
 70
    44
  9
$DIMATFIT
 70
     3
  9
$DIMFRAC
 70
     0
  9
$DIMLDRBLK
  1

  9
$DIMLUNIT
 70
     2
  9
$DIMLWD
 70
    -2
  9
$DIMLWE
 70
    -2
  9
$DIMTMOVE
 70
     0
  9
$DIMFXL
 40
1.0
  9
$DIMFXLON
 70
     0
  9
$DIMJOGANG
 40
0.785398
  9
$DIMTFILL
 70
     0
  9
$DIMTFILLCLR
 70
     0
  9
$DIMARCSYM
 70
     0
  9
$DIMLTYPE
  6

  9
$DIMLTEX1
  6

  9
$DIMLTEX2
  6

  9
$DIMTXTDIRECTION
 70
     0
  9
$LUNITS
 70
     2
  9
$LUPREC
 70
     4
  9
$SKETCHINC
 40
1.0
  9
$FILLETRAD
 40
10.0
  9
$AUNITS
 70
     0
  9
$AUPREC
 70
     0
  9
$MENU
  1
.
  9
$ELEVATION
 40
0.0
  9
$PELEVATION
 40
0.0
  9
$THICKNESS
 40
0.0
  9
$LIMCHECK
 70
     0
  9
$CHAMFERA
 40
0.0
  9
$CHAMFERB
 40
0.0
  9
$CHAMFERC
 40
0.0
  9
$CHAMFERD
 40
0.0
  9
$SKPOLY
 70
     0
  9
$TDCREATE
 40
2457813.479105602
  9
$TDUCREATE
 40
2457813.437438935
  9
$TDUPDATE
 40
2457813.479106134
  9
$TDUUPDATE
 40
2457813.437439468
  9
$TDINDWG
 40
0.0000000116
  9
$TDUSRTIMER
 40
0.0000000116
  9
$USRTIMER
 70
     1
  9
$ANGBASE
 50
0.0
  9
$ANGDIR
 70
     0
  9
$PDMODE
 70
     0
  9
$PDSIZE
 40
0.0
  9
$PLINEWID
 40
0.0
  9
$SPLFRAME
 70
     0
  9
$SPLINETYPE
 70
     6
  9
$SPLINESEGS
 70
     8
  9
$HANDSEED
  5
17A
  9
$SURFTAB1
 70
     6
  9
$SURFTAB2
 70
     6
  9
$SURFTYPE
 70
     6
  9
$SURFU
 70
     6
  9
$SURFV
 70
     6
  9
$UCSBASE
  2

  9
$UCSNAME
  2

  9
$UCSORG
 10
0.0
 20
0.0
 30
0.0
  9
$UCSXDIR
 10
1.0
 20
0.0
 30
0.0
  9
$UCSYDIR
 10
0.0
 20
1.0
 30
0.0
  9
$UCSORTHOREF
  2

  9
$UCSORTHOVIEW
 70
     0
  9
$UCSORGTOP
 10
0.0
 20
0.0
 30
0.0
  9
$UCSORGBOTTOM
 10
0.0
 20
0.0
 30
0.0
  9
$UCSORGLEFT
 10
0.0
 20
0.0
 30
0.0
  9
$UCSORGRIGHT
 10
0.0
 20
0.0
 30
0.0
  9
$UCSORGFRONT
 10
0.0
 20
0.0
 30
0.0
  9
$UCSORGBACK
 10
0.0
 20
0.0
 30
0.0
  9
$PUCSBASE
  2

  9
$PUCSNAME
  2

  9
$PUCSORG
 10
0.0
 20
0.0
 30
0.0
  9
$PUCSXDIR
 10
1.0
 20
0.0
 30
0.0
  9
$PUCSYDIR
 10
0.0
 20
1.0
 30
0.0
  9
$PUCSORTHOREF
  2

  9
$PUCSORTHOVIEW
 70
     0
  9
$PUCSORGTOP
 10
0.0
 20
0.0
 30
0.0
  9
$PUCSORGBOTTOM
 10
0.0
 20
0.0
 30
0.0
  9
$PUCSORGLEFT
 10
0.0
 20
0.0
 30
0.0
  9
$PUCSORGRIGHT
 10
0.0
 20
0.0
 30
0.0
  9
$PUCSORGFRONT
 10
0.0
 20
0.0
 30
0.0
  9
$PUCSORGBACK
 10
0.0
 20
0.0
 30
0.0
  9
$USERI1
 70
     0
  9
$USERI2
 70
     0
  9
$USERI3
 70
     0
  9
$USERI4
 70
     0
  9
$USERI5
 70
     0
  9
$USERR1
 40
0.0
  9
$USERR2
 40
0.0
  9
$USERR3
 40
0.0
  9
$USERR4
 40
0.0
  9
$USERR5
 40
0.0
  9
$WORLDVIEW
 70
     1
  9
$SHADEDGE
 70
     3
  9
$SHADEDIF
 70
    70
  9
$TILEMODE
 70
     1
  9
$MAXACTVP
 70
    64
  9
$PINSBASE
 10
0.0
 20
0.0
 30
0.0
  9
$PLIMCHECK
 70
     0
  9
$PEXTMIN
 10
1.000000E+20
 20
1.000000E+20
 30
1.000000E+20
  9
$PEXTMAX
 10
-1.000000E+20
 20
-1.000000E+20
 30
-1.000000E+20
  9
$PLIMMIN
 10
0.0
 20
0.0
  9
$PLIMMAX
 10
420.0
 20
297.0
  9
$UNITMODE
 70
     0
  9
$VISRETAIN
 70
     1
  9
$PLINEGEN
 70
     0
  9
$PSLTSCALE
 70
     1
  9
$TREEDEPTH
 70
  3020
  9
$CMLSTYLE
  2
Standard
  9
$CMLJUST
 70
     0
  9
$CMLSCALE
 40
20.0
  9
$PROXYGRAPHICS
 70
     1
  9
$MEASUREMENT
 70
     1
  9
$CELWEIGHT
370
    -1
  9
$ENDCAPS
280
     0
  9
$JOINSTYLE
280
     0
  9
$LWDISPLAY
290
     0
  9
$INSUNITS
 70
     4
  9
$HYPERLINKBASE
  1

  9
$STYLESHEET
  1

  9
$XEDIT
290
     1
  9
$CEPSNTYPE
380
     0
  9
$PSTYLEMODE
290
     1
  9
$FINGERPRINTGUID
  2
{9260DEB5-93A0-44C1-9EBF-5055DFA1F834}
  9
$VERSIONGUID
  2
{FAEB1C32-E019-11D5-929B-00C0DF256EC4}
  9
$EXTNAMES
290
     1
  9
$PSVPSCALE
 40
0.0
  9
$OLESTARTUP
290
     0
  9
$SORTENTS
280
   127
  9
$INDEXCTL
280
     0
  9
$HIDETEXT
280
     1
  9
$XCLIPFRAME
280
     2
  9
$HALOGAP
280
     0
  9
$OBSCOLOR
 70
   257
  9
$OBSLTYPE
280
     0
  9
$INTERSECTIONDISPLAY
280
     0
  9
$INTERSECTIONCOLOR
 70
   257
  9
$DIMASSOC
280
     2
  9
$PROJECTNAME
  1

  9
$CAMERADISPLAY
290
     0
  9
$LENSLENGTH
 40
50.0
  9
$CAMERAHEIGHT
 40
0.0
  9
$STEPSPERSEC
 40
2.0
  9
$STEPSIZE
 40
6.0
  9
$3DDWFPREC
 40
2.0
  9
$PSOLWIDTH
 40
5.0
  9
$PSOLHEIGHT
 40
80.0
  9
$LOFTANG1
 40
1.570796
  9
$LOFTANG2
 40
1.570796
  9
$LOFTMAG1
 40
0.0
  9
$LOFTMAG2
 40
0.0
  9
$LOFTPARAM
 70
     7
  9
$LOFTNORMALS
280
     1
  9
$LATITUDE
 40
37.795
  9
$LONGITUDE
 40
-122.394
  9
$NORTHDIRECTION
 40
0.0
  9
$TIMEZONE
 70
 -8000
  9
$LIGHTGLYPHDISPLAY
280
     1
  9
$TILEMODELIGHTSYNCH
280
     1
  9
$CMATERIAL
347
44
  9
$SOLIDHIST
280
     0
  9
$SHOWHIST
280
     1
  9
$DWFFRAME
280
     2
  9
$DGNFRAME
280
     2
  9
$REALWORLDSCALE
290
     1
  9
$INTERFERECOLOR
 62
   256
  9
$CSHADOW
280
     0
  9
$SHADOWPLANELOCATION
 40
0.0
  0
ENDSEC
  0
SECTION
  2
CLASSES
  0
CLASS
  1
ACDBDICTIONARYWDFLT
  2
AcDbDictionaryWithDefault
  3
ObjectDBX Classes
 90
        0
 91
        4
280
     0
281
     0
  0
CLASS
  1
VISUALSTYLE
  2
AcDbVisualStyle
  3
ObjectDBX Classes
 90
     4095
 91
        4
280
     0
281
     0
  0
CLASS
  1
MATERIAL
  2
AcDbMaterial
  3
ObjectDBX Classes
 90
     1153
 91
        4
280
     0
281
     0
  0
CLASS
  1
SCALE
  2
AcDbScale
  3
ObjectDBX Classes
 90
     1153
 91
        4
280
     0
281
     0
  0
CLASS
  1
TABLESTYLE
  2
AcDbTableStyle
  3
ObjectDBX Classes
 90
     4095
 91
        4
280
     0
281
     0
  0
CLASS
  1
MLEADERSTYLE
  2
AcDbMLeaderStyle
  3
ACDB_MLEADERSTYLE_CLASS
 90
     4095
 91
        4
280
     0
281
     0
  0
CLASS
  1
SUN
  2
AcDbSun
  3
SCENEOE
 90
     1153
 91
        4
280
     0
281
     0
  0
CLASS
  1
DICTIONARYVAR
  2
AcDbDictionaryVar
  3
ObjectDBX Classes
 90
        0
 91
        4
280
     0
281
     0
  0
CLASS
  1
CELLSTYLEMAP
  2
AcDbCellStyleMap
  3
ObjectDBX Classes
 90
     1152
 91
        4
280
     0
281
     0
  0
ENDSEC
  0
SECTION
  2
TABLES
  0
TABLE
  2
VPORT
  5
8
330
0
100
AcDbSymbolTable
 70
     1
  0
VPORT
  5
29
330
8
100
AcDbSymbolTableRecord
100
AcDbViewportTableRecord
  2
*Active
 70
     0
 10
0.0
 20
0.0
 11
1.0
 21
1.0
 12
344.186916
 22
148.5
 13
0.0
 23
0.0
 14
10.0
 24
10.0
 15
10.0
 25
10.0
 16
0.0
 26
0.0
 36
1.0
 17
0.0
 27
0.0
 37
0.0
 40
297.0
 41
1.972973
 42
50.0
 43
0.0
 44
0.0
 50
0.0
 51
0.0
 71
     0
 72
   100
 73
     1
 74
     3
 75
     0
 76
     0
 77
     0
 78
     0
281
     0
 65
     1
110
0.0
120
0.0
130
0.0
111
1.0
121
0.0
131
0.0
112
0.0
122
1.0
132
0.0
 79
     0
146
0.0
348
2F
 60
     3
 61
     5
292
     1
282
     1
141
0.0
142
0.0
 63
   250
361
6D
  0
ENDTAB
  0
TABLE
  2
LTYPE
  5
5
330
0
100
AcDbSymbolTable
 70
     1
  0
LTYPE
  5
14
330
5
100
AcDbSymbolTableRecord
100
AcDbLinetypeTableRecord
  2
ByBlock
 70
     0
  3

 72
    65
 73
     0
 40
0.0
  0
LTYPE
  5
15
330
5
100
AcDbSymbolTableRecord
100
AcDbLinetypeTableRecord
  2
ByLayer
 70
     0
  3

 72
    65
 73
     0
 40
0.0
  0
LTYPE
  5
16
330
5
100
AcDbSymbolTableRecord
100
AcDbLinetypeTableRecord
  2
Continuous
 70
     0
  3
Solid line
 72
    65
 73
     0
 40
0.0
  0
ENDTAB
  0
TABLE
  2
LAYER
  5
2
330
0
100
AcDbSymbolTable
 70
     1
  0
LAYER
  5
10
330
2
100
AcDbSymbolTableRecord
100
AcDbLayerTableRecord
  2
0
 70
     0
 62
   106
  6
Continuous
370
     0
390
F
347
46
  0
ENDTAB
  0
TABLE
  2
STYLE
  5
3
330
0
100
AcDbSymbolTable
 70
     4
  0
STYLE
  5
11
330
3
100
AcDbSymbolTableRecord
100
AcDbTextStyleTableRecord
  2
Standard
 70
     0
 40
0.0
 41
1.0
 50
0.0
 71
     0
 42
2.5
  3
txt
  4

  0
STYLE
  5
6E
330
3
100
AcDbSymbolTableRecord
100
AcDbTextStyleTableRecord
  2
Default
 70
     0
 40
0.0
 41
1.0
 50
0.0
 71
     0
 42
2.5
  3

  4

1001
ACAD
1000
txt
1071
        0
  0
STYLE
  5
6F
330
3
100
AcDbSymbolTableRecord
100
AcDbTextStyleTableRecord
  2
ISO
 70
     0
 40
0.0
 41
1.0
 50
0.0
 71
     0
 42
2.5
  3

  4

1001
ACAD
1000
txt
1071
        0
  0
STYLE
  5
70
330
3
100
AcDbSymbolTableRecord
100
AcDbTextStyleTableRecord
  2
zucchetti
 70
     0
 40
0.0
 41
1.0
 50
0.0
 71
     0
 42
2.5
  3

  4

1001
ACAD
1000
Arial
1071
        0
  0
ENDTAB
  0
TABLE
  2
VIEW
  5
6
330
0
100
AcDbSymbolTable
 70
     0
  0
ENDTAB
  0
TABLE
  2
UCS
  5
7
330
0
100
AcDbSymbolTable
 70
     0
  0
ENDTAB
  0
TABLE
  2
APPID
  5
9
330
0
100
AcDbSymbolTable
 70
     1
  0
APPID
  5
12
330
9
100
AcDbSymbolTableRecord
100
AcDbRegAppTableRecord
  2
ACAD
 70
     0
  0
ENDTAB
  0
TABLE
  2
DIMSTYLE
  5
A
330
0
100
AcDbSymbolTable
 70
     4
100
AcDbDimStyleTable
  0
DIMSTYLE
105
27
330
A
100
AcDbSymbolTableRecord
100
AcDbDimStyleTableRecord
  2
ISO-25
 70
     0
 41
2.5
 42
0.625
 43
3.75
 44
1.25
 73
     0
 74
     0
 77
     1
 78
     8
140
2.5
141
2.5
143
0.03937
147
0.625
171
     3
172
     1
178
     0
271
     2
272
     2
274
     3
278
    44
283
     0
284
     8
340
11
  0
DIMSTYLE
105
71
330
A
100
AcDbSymbolTableRecord
100
AcDbDimStyleTableRecord
  2
Default
 70
     0
  3
<>
 41
4.375
 42
1.05
 44
2.1
 49
10.01
 73
     0
 74
     0
 77
     1
 78
     8
140
3.5
146
0.4
147
1.75
172
     1
271
     2
178
     3
271
     2
272
     3
284
     8
340
6E
341
72
342
72
  0
DIMSTYLE
105
79
330
A
100
AcDbSymbolTableRecord
100
AcDbDimStyleTableRecord
  2
ISO
 70
     0
  3
<>
 41
4.375
 42
1.05
 44
2.1
 49
10.01
 73
     0
 74
     0
 77
     1
 78
     8
140
3.5
146
0.4
147
1.75
172
     1
271
     2
178
     3
271
     2
272
     3
284
     8
340
6F
341
72
342
72
  0
DIMSTYLE
105
7A
330
A
100
AcDbSymbolTableRecord
100
AcDbDimStyleTableRecord
  2
zucchetti
 70
     0
  3
<>
 41
3.0
 42
0.9
 44
1.8
 49
8.58
 73
     0
 74
     0
 77
     1
 78
     8
140
3.0
146
0.6
147
1.5
172
     1
176
     3
177
     3
271
     2
178
     3
271
     2
272
     2
284
     8
340
70
  0
ENDTAB
  0
TABLE
  2
BLOCK_RECORD
  5
1
330
0
100
AcDbSymbolTable
 70
     7
  0
BLOCK_RECORD
  5
1F
330
1
100
AcDbSymbolTableRecord
100
AcDbBlockTableRecord
  2
*Model_Space
340
22
 70
     0
280
     1
281
     0
  0
BLOCK_RECORD
  5
1B
330
1
100
AcDbSymbolTableRecord
100
AcDbBlockTableRecord
  2
*Paper_Space
340
1E
 70
     0
280
     1
281
     0
  0
BLOCK_RECORD
  5
23
330
1
100
AcDbSymbolTableRecord
100
AcDbBlockTableRecord
  2
*Paper_Space0
340
26
 70
     0
280
     1
281
     0
  0
BLOCK_RECORD
  5
72
330
1
100
AcDbSymbolTableRecord
100
AcDbBlockTableRecord
  2
_CLOSED
340
0
 70
     0
280
     1
281
     0
  0
BLOCK_RECORD
  5
7B
330
1
100
AcDbSymbolTableRecord
100
AcDbBlockTableRecord
  2
a
340
0
102
{BLKREFS
331
A5
102
}
 70
     0
280
     1
281
     0
  0
BLOCK_RECORD
  5
A6
330
1
100
AcDbSymbolTableRecord
100
AcDbBlockTableRecord
  2
b
340
0
102
{BLKREFS
331
D8
102
}
 70
     0
280
     1
281
     0
  0
BLOCK_RECORD
  5
D9
330
1
100
AcDbSymbolTableRecord
100
AcDbBlockTableRecord
  2
c
340
0
102
{BLKREFS
331
F4
102
}
 70
     0
280
     1
281
     0
  0
BLOCK_RECORD
  5
F5
330
1
100
AcDbSymbolTableRecord
100
AcDbBlockTableRecord
  2
d
340
0
102
{BLKREFS
331
121
102
}
 70
     0
280
     1
281
     0
  0
BLOCK_RECORD
  5
122
330
1
100
AcDbSymbolTableRecord
100
AcDbBlockTableRecord
  2
e
340
0
102
{BLKREFS
331
140
102
}
 70
     0
280
     1
281
     0
  0
ENDTAB
  0
ENDSEC
  0
SECTION
  2
BLOCKS
  0
BLOCK
  5
20
330
1F
100
AcDbEntity
  8
0
100
AcDbBlockBegin
  2
*Model_Space
 70
     0
 10
0.0
 20
0.0
 30
0.0
  3
*Model_Space
  1

  0
ENDBLK
  5
21
330
1F
100
AcDbEntity
  8
0
100
AcDbBlockEnd
  0
BLOCK
  5
1C
330
1B
100
AcDbEntity
 67
     1
  8
0
100
AcDbBlockBegin
  2
*Paper_Space
 70
     0
 10
0.0
 20
0.0
 30
0.0
  3
*Paper_Space
  1

  0
ENDBLK
  5
1D
330
1B
100
AcDbEntity
 67
     1
  8
0
100
AcDbBlockEnd
  0
BLOCK
  5
24
330
23
100
AcDbEntity
  8
0
100
AcDbBlockBegin
  2
*Paper_Space0
 70
     0
 10
0.0
 20
0.0
 30
0.0
  3
*Paper_Space0
  1

  0
ENDBLK
  5
25
330
23
100
AcDbEntity
  8
0
100
AcDbBlockEnd
  0
BLOCK
  5
73
330
72
100
AcDbEntity
  8
0
100
AcDbBlockBegin
  2
_CLOSED
 70
     0
 10
0.0
 20
0.0
 30
0.0
  3
_CLOSED
  1

  0
LINE
  5
75
330
72
100
AcDbEntity
  8
0
  6
ByBlock
 62
     0
370
    -2
100
AcDbLine
 10
-1.0
 20
0.166667
 30
0.0
 11
0.0
 21
0.0
 31
0.0
  0
LINE
  5
76
330
72
100
AcDbEntity
  8
0
  6
ByBlock
 62
     0
370
    -2
100
AcDbLine
 10
0.0
 20
0.0
 30
0.0
 11
-1.0
 21
-0.166667
 31
0.0
  0
LINE
  5
77
330
72
100
AcDbEntity
  8
0
  6
ByBlock
 62
     0
370
    -2
100
AcDbLine
 10
-1.0
 20
0.166667
 30
0.0
 11
-1.0
 21
-0.166667
 31
0.0
  0
LINE
  5
78
330
72
100
AcDbEntity
  8
0
  6
ByBlock
 62
     0
370
    -2
100
AcDbLine
 10
0.0
 20
0.0
 30
0.0
 11
-1.0
 21
0.0
 31
0.0
  0
ENDBLK
  5
74
330
72
100
AcDbEntity
  8
0
100
AcDbBlockEnd
  0
BLOCK
  5
A3
330
7B
100
AcDbEntity
  8
0
100
AcDbBlockBegin
  2
a
 70
     0
 10
276.227936
 20
90.540215
 30
0.0
  3
a
  1

  0
LINE
  5
7C
330
7B
100
AcDbEntity
  8
0
  6
Continuous
 62
     0
370
    30
100
AcDbLine
 10
317.601163
 20
536.960023
 30
0.0
 11
317.401566
 21
537.142026
 31
0.0
  0
LINE
  5
7D
330
7B
100
AcDbEntity
  8
0
  6
Continuous
 62
     0
370
    30
100
AcDbLine
 10
344.426868
 20
536.960071
 30
0.0
 11
317.601163
 21
536.960023
 31
0.0
  0
LINE
  5
7E
330
7B
100
AcDbEntity
  8
0
  6
Continuous
 62
     0
370
    30
100
AcDbLine
 10
344.626464
 20
537.142074
 30
0.0
 11
344.426868
 21
536.960071
 31
0.0
  0
LINE
  5
7F
330
7B
100
AcDbEntity
  8
0
  6
Continuous
 62
     0
370
    30
100
AcDbLine
 10
345.999803
 20
557.221029
 30
0.0
 11
344.626464
 21
537.142074
 31
0.0
  0
LINE
  5
80
330
7B
100
AcDbEntity
  8
0
  6
Continuous
 62
     0
370
    30
100
AcDbLine
 10
345.800311
 20
557.428825
 30
0.0
 11
345.999805
 21
557.221029
 31
0.0
  0
LINE
  5
81
330
7B
100
AcDbEntity
  8
0
  6
Continuous
 62
     0
370
    30
100
AcDbLine
 10
316.22772
 20
557.428773
 30
0.0
 11
345.800311
 21
557.428825
 31
0.0
  0
LINE
  5
82
330
7B
100
AcDbEntity
  8
0
  6
Continuous
 62
     0
370
    30
100
AcDbLine
 10
316.028224
 20
557.221008
 30
0.0
 11
316.22772
 21
557.428773
 31
0.0
  0
LINE
  5
83
330
7B
100
AcDbEntity
  8
0
  6
Continuous
 62
     0
370
    30
100
AcDbLine
 10
317.401566
 20
537.142026
 30
0.0
 11
316.028225
 21
557.221008
 31
0.0
  0
LINE
  5
84
330
7B
100
AcDbEntity
  8
0
  6
Continuous
 62
     0
370
    30
100
AcDbLine
 10
344.420105
 20
536.71209
 30
0.0
 11
344.615927
 21
536.867261
 31
0.0
  0
LWPOLYLINE
  5
85
330
7B
100
AcDbEntity
  8
0
  6
Continuous
 62
     0
370
     0
100
AcDbPolyline
 90
      169
 70
     0
 43
0.0
 10
358.199615
 20
357.990448
 10
357.451813
 20
358.564331
 10
356.694397
 20
359.111053
 10
355.929169
 20
359.634979
 10
355.157928
 20
360.140442
 10
354.382385
 20
360.631775
 10
353.604065
 20
361.113403
 10
352.82428
 20
361.589752
 10
352.044373
 20
362.065277
 10
351.265656
 20
362.544434
 10
350.489594
 20
363.031738
 10
349.717804
 20
363.531921
 10
348.951996
 20
364.049744
 10
348.193939
 20
364.589539
 10
347.445526
 20
365.155243
 10
346.70871
 20
365.750641
 10
345.985657
 20
366.378967
 10
345.278778
 20
367.042389
 10
344.590729
 20
367.743347
 10
343.925842
 20
368.485779
 10
343.290436
 20
369.275299
 10
342.693237
 20
370.118683
 10
342.146332
 20
371.023651
 10
341.66391
 20
371.995056
 10
341.257385
 20
373.031403
 10
340.92746
 20
374.120636
 10
340.667694
 20
375.24884
 10
340.469177
 20
376.404297
 10
340.32309
 20
377.576721
 10
340.220856
 20
378.760529
 10
340.154144
 20
379.951324
 10
340.115417
 20
381.146332
 10
340.097839
 20
382.344025
 10
340.094971
 20
383.543182
 10
340.101807
 20
384.743225
 10
340.115509
 20
385.943695
 10
340.13504
 20
387.144348
 10
340.160217
 20
388.34494
 10
340.190796
 20
389.545319
 10
340.226379
 20
390.745453
 10
340.266602
 20
391.945404
 10
340.310852
 20
393.145203
 10
340.358398
 20
394.34491
 10
340.408417
 20
395.544556
 10
340.460297
 20
396.744171
 10
340.513397
 20
397.943787
 10
340.567139
 20
399.143402
 10
340.621002
 20
400.343048
 10
340.674561
 20
401.542755
 10
340.727539
 20
402.742493
 10
340.779602
 20
403.942291
 10
340.830536
 20
405.14212
 10
340.880371
 20
406.34201
 10
340.92923
 20
407.541931
 10
340.977173
 20
408.741882
 10
341.024292
 20
409.941833
 10
341.070648
 20
411.141815
 10
341.116302
 20
412.341766
 10
341.161346
 20
413.541718
 10
341.20578
 20
414.741669
 10
341.249664
 20
415.941589
 10
341.292908
 20
417.14151
 10
341.335602
 20
418.341431
 10
341.377686
 20
419.541321
 10
341.419189
 20
420.741211
 10
341.460083
 20
421.941101
 10
341.500366
 20
423.140961
 10
341.54007
 20
424.34082
 10
341.579193
 20
425.540649
 10
341.617767
 20
426.740479
 10
341.655762
 20
427.940308
 10
341.693237
 20
429.140106
 10
341.730194
 20
430.339935
 10
341.766632
 20
431.539703
 10
341.802612
 20
432.739502
 10
341.838135
 20
433.93924
 10
341.873199
 20
435.139008
 10
341.907837
 20
436.338745
 10
341.942047
 20
437.538483
 10
341.975891
 20
438.73819
 10
342.009308
 20
439.937897
 10
342.042358
 20
441.137573
 10
342.075012
 20
442.337219
 10
342.10733
 20
443.536865
 10
342.139313
 20
444.736481
 10
342.170959
 20
445.936066
 10
342.202271
 20
447.135651
 10
342.233276
 20
448.335175
 10
342.264008
 20
449.534698
 10
342.294434
 20
450.734192
 10
342.324615
 20
451.933655
 10
342.354523
 20
453.133087
 10
342.384186
 20
454.332489
 10
342.413605
 20
455.53186
 10
342.44281
 20
456.731201
 10
342.471802
 20
457.930511
 10
342.50061
 20
459.129761
 10
342.529205
 20
460.32901
 10
342.557648
 20
461.528198
 10
342.585907
 20
462.727356
 10
342.614014
 20
463.926483
 10
342.641998
 20
465.125549
 10
342.669861
 20
466.324615
 10
342.697601
 20
467.523621
 10
342.72522
 20
468.722565
 10
342.752747
 20
469.921478
 10
342.780212
 20
471.120361
 10
342.807587
 20
472.319214
 10
342.8349
 20
473.517975
 10
342.862183
 20
474.716736
 10
342.889404
 20
475.915436
 10
342.916626
 20
477.114075
 10
342.943817
 20
478.312683
 10
342.970978
 20
479.511261
 10
342.998199
 20
480.709747
 10
343.025391
 20
481.908203
 10
343.052643
 20
483.106598
 10
343.079926
 20
484.304932
 10
343.107269
 20
485.503235
 10
343.134674
 20
486.701447
 10
343.16214
 20
487.899628
 10
343.189728
 20
489.097748
 10
343.217377
 20
490.295776
 10
343.245148
 20
491.493774
 10
343.273071
 20
492.691681
 10
343.301086
 20
493.889557
 10
343.329285
 20
495.087372
 10
343.357635
 20
496.285095
 10
343.386169
 20
497.482788
 10
343.414917
 20
498.68042
 10
343.443848
 20
499.877991
 10
343.473022
 20
501.0755
 10
343.502411
 20
502.272949
 10
343.532043
 20
503.470276
 10
343.561951
 20
504.66748
 10
343.592133
 20
505.864532
 10
343.622589
 20
507.061493
 10
343.653381
 20
508.258331
 10
343.684479
 20
509.455078
 10
343.715973
 20
510.651794
 10
343.747803
 20
511.848541
 10
343.779968
 20
513.045532
 10
343.812347
 20
514.242737
 10
343.844879
 20
515.43988
 10
343.87738
 20
516.636108
 10
343.909821
 20
517.831238
 10
343.942078
 20
519.02478
 10
343.974152
 20
520.215759
 10
344.005981
 20
521.400757
 10
344.037476
 20
522.574463
 10
344.068542
 20
523.731323
 10
344.099091
 20
524.866211
 10
344.128937
 20
525.974243
 10
344.15799
 20
527.050598
 10
344.186066
 20
528.09082
 10
344.213043
 20
529.090271
 10
344.238861
 20
530.044312
 10
344.263306
 20
530.947693
 10
344.286224
 20
531.794556
 10
344.307495
 20
532.578125
 10
344.326813
 20
533.289978
 10
344.344025
 20
533.923218
 10
344.359131
 20
534.478027
 10
344.372345
 20
534.962219
 10
344.383911
 20
535.386047
 10
344.394135
 20
535.761047
 10
344.403381
 20
536.098999
 10
344.411896
 20
536.411804
 10
344.420105
 20
536.712097
  0
ELLIPSE
  5
86
330
7B
100
AcDbEntity
  8
0
  6
Continuous
 62
     0
370
     0
100
AcDbEllipse
 10
358.199608
 20
357.83334
 30
0.0
 11
0.1237583885658793
 21
0.157110987686
 31
0.0
210
0.0
220
0.0
230
1.0
 40
0.617702
 41
0.0000004721293685
 42
0.90578608782657
  0
LWPOLYLINE
  5
87
330
7B
100
AcDbEntity
  8
0
  6
Continuous
 62
     0
370
     0
100
AcDbPolyline
 90
      162
 70
     0
 43
0.0
 10
344.61969
 20
536.894165
 10
344.611481
 20
536.59198
 10
344.602875
 20
536.27594
 10
344.593567
 20
535.933716
 10
344.583252
 20
535.552734
 10
344.571594
 20
535.120667
 10
344.558258
 20
534.625366
 10
344.542908
 20
534.055359
 10
344.525452
 20
533.404114
 10
344.505829
 20
532.672302
 10
344.484283
 20
531.867981
 10
344.46106
 20
530.999817
 10
344.43631
 20
530.074036
 10
344.410187
 20
529.096497
 10
344.382843
 20
528.073364
 10
344.354462
 20
527.009583
 10
344.325104
 20
525.908813
 10
344.294891
 20
524.775208
 10
344.264038
 20
523.613464
 10
344.232666
 20
522.429077
 10
344.200867
 20
521.228455
 10
344.168732
 20
520.019653
 10
344.136383
 20
518.809021
 10
344.10379
 20
517.599548
 10
344.071075
 20
516.390991
 10
344.038269
 20
515.183105
 10
344.005554
 20
513.975769
 10
343.972992
 20
512.768982
 10
343.940704
 20
511.562469
 10
343.908722
 20
510.35611
 10
343.877075
 20
509.14975
 10
343.845764
 20
507.943298
 10
343.814789
 20
506.736725
 10
343.784149
 20
505.530029
 10
343.753784
 20
504.323242
 10
343.723694
 20
503.116425
 10
343.693909
 20
501.909515
 10
343.664337
 20
500.702545
 10
343.63501
 20
499.495483
 10
343.605896
 20
498.288391
 10
343.577026
 20
497.081207
 10
343.548309
 20
495.873962
 10
343.519775
 20
494.666626
 10
343.491394
 20
493.459259
 10
343.463196
 20
492.251801
 10
343.43512
 20
491.04425
 10
343.407135
 20
489.83667
 10
343.379303
 20
488.628967
 10
343.351532
 20
487.421234
 10
343.323883
 20
486.213409
 10
343.296295
 20
485.005524
 10
343.268738
 20
483.797546
 10
343.241272
 20
482.589539
 10
343.213806
 20
481.38147
 10
343.186401
 20
480.17334
 10
343.158966
 20
478.965149
 10
343.131561
 20
477.756927
 10
343.104156
 20
476.548645
 10
343.076691
 20
475.340302
 10
343.049225
 20
474.131927
 10
343.021698
 20
472.923523
 10
342.994141
 20
471.715027
 10
342.966492
 20
470.506531
 10
342.938782
 20
469.297974
 10
342.91098
 20
468.089355
 10
342.883057
 20
466.880737
 10
342.855042
 20
465.672028
 10
342.826874
 20
464.463318
 10
342.798615
 20
463.254578
 10
342.770172
 20
462.045776
 10
342.741577
 20
460.836945
 10
342.71283
 20
459.628082
 10
342.683868
 20
458.419159
 10
342.654724
 20
457.210236
 10
342.625366
 20
456.001251
 10
342.595825
 20
454.792236
 10
342.56601
 20
453.583221
 10
342.53598
 20
452.374146
 10
342.505676
 20
451.165039
 10
342.475128
 20
449.955902
 10
342.444275
 20
448.746704
 10
342.413147
 20
447.537506
 10
342.381683
 20
446.328278
 10
342.349915
 20
445.118988
 10
342.31781
 20
443.909698
 10
342.285339
 20
442.700348
 10
342.252502
 20
441.490997
 10
342.219299
 20
440.281586
 10
342.185699
 20
439.072174
 10
342.151703
 20
437.862701
 10
342.117279
 20
436.653229
 10
342.082428
 20
435.443695
 10
342.04715
 20
434.234161
 10
342.011414
 20
433.024597
 10
341.975189
 20
431.815002
 10
341.938477
 20
430.605377
 10
341.901245
 20
429.395752
 10
341.863495
 20
428.186096
 10
341.825195
 20
426.97644
 10
341.786316
 20
425.766785
 10
341.746918
 20
424.557129
 10
341.706909
 20
423.347443
 10
341.666382
 20
422.137756
 10
341.625275
 20
420.928101
 10
341.583588
 20
419.718445
 10
341.541321
 20
418.508759
 10
341.498505
 20
417.299103
 10
341.455078
 20
416.089478
 10
341.411041
 20
414.879852
 10
341.366425
 20
413.670227
 10
341.321167
 20
412.460632
 10
341.275238
 20
411.251068
 10
341.228607
 20
410.041504
 10
341.181152
 20
408.832001
 10
341.132874
 20
407.622498
 10
341.08371
 20
406.413055
 10
341.0336
 20
405.203644
 10
340.982483
 20
403.994263
 10
340.930298
 20
402.784912
 10
340.877045
 20
401.575623
 10
340.823029
 20
400.366364
 10
340.768677
 20
399.157135
 10
340.714325
 20
397.947876
 10
340.660583
 20
396.738586
 10
340.608063
 20
395.529266
 10
340.557495
 20
394.319885
 10
340.509644
 20
393.110443
 10
340.465149
 20
391.90094
 10
340.424744
 20
390.691345
 10
340.38913
 20
389.481628
 10
340.358765
 20
388.271881
 10
340.333588
 20
387.062195
 10
340.314056
 20
385.852722
 10
340.300903
 20
384.643646
 10
340.29483
 20
383.435242
 10
340.298737
 20
382.227661
 10
340.317993
 20
381.021179
 10
340.359375
 20
379.817291
 10
340.429932
 20
378.61792
 10
340.537262
 20
377.426361
 10
340.689667
 20
376.248169
 10
340.895569
 20
375.089264
 10
341.163605
 20
373.958191
 10
341.502838
 20
372.867828
 10
341.918976
 20
371.832489
 10
342.409637
 20
370.864594
 10
342.962769
 20
369.96402
 10
343.564972
 20
369.12442
 10
344.204987
 20
368.337677
 10
344.874023
 20
367.597229
 10
345.565857
 20
366.898346
 10
346.276337
 20
366.237671
 10
347.00296
 20
365.612396
 10
347.743378
 20
365.019684
 10
348.495605
 20
364.456024
 10
349.257721
 20
363.917603
 10
350.027893
 20
363.400482
 10
350.804443
 20
362.900085
 10
351.585663
 20
362.411469
 10
352.370026
 20
361.929901
 10
353.156097
 20
361.450714
 10
353.944489
 20
360.968201
  0
LWPOLYLINE
  5
88
330
7B
100
AcDbEntity
  8
0
  6
Continuous
 62
     0
370
     0
100
AcDbPolyline
 90
      171
 70
     0
 43
0.0
 10
317.601166
 20
536.959961
 10
317.609222
 20
536.664185
 10
317.617401
 20
536.365356
 10
317.625946
 20
536.051758
 10
317.635223
 20
535.711609
 10
317.645569
 20
535.333313
 10
317.657227
 20
534.905334
 10
317.670563
 20
534.416504
 10
317.685791
 20
533.856934
 10
317.703125
 20
533.219543
 10
317.722534
 20
532.505066
 10
317.743805
 20
531.720581
 10
317.766724
 20
530.874084
 10
317.791107
 20
529.972473
 10
317.816833
 20
529.021484
 10
317.843719
 20
528.026184
 10
317.871674
 20
526.990967
 10
317.900543
 20
525.92041
 10
317.930237
 20
524.818848
 10
317.960571
 20
523.690735
 10
317.991486
 20
522.540771
 10
318.022766
 20
521.374329
 10
318.054382
 20
520.197693
 10
318.086243
 20
519.015076
 10
318.118317
 20
517.829224
 10
318.150604
 20
516.641602
 10
318.182892
 20
515.453369
 10
318.215118
 20
514.265076
 10
318.247223
 20
513.076843
 10
318.279114
 20
511.888611
 10
318.310699
 20
510.700409
 10
318.34201
 20
509.512085
 10
318.372955
 20
508.323578
 10
318.403564
 20
507.134827
 10
318.433868
 20
505.945953
 10
318.463867
 20
504.756927
 10
318.493591
 20
503.56778
 10
318.523041
 20
502.37851
 10
318.552246
 20
501.189178
 10
318.581238
 20
499.999756
 10
318.609985
 20
498.810272
 10
318.63855
 20
497.620758
 10
318.666931
 20
496.431183
 10
318.695129
 20
495.241577
 10
318.723175
 20
494.051941
 10
318.751068
 20
492.862244
 10
318.778809
 20
491.672485
 10
318.806427
 20
490.482697
 10
318.833954
 20
489.292877
 10
318.861328
 20
488.102997
 10
318.888641
 20
486.913055
 10
318.915894
 20
485.723083
 10
318.943054
 20
484.533081
 10
318.970154
 20
483.343018
 10
318.997192
 20
482.152893
 10
319.024231
 20
480.962738
 10
319.051208
 20
479.772522
 10
319.078217
 20
478.582245
 10
319.105194
 20
477.391937
 10
319.132172
 20
476.201599
 10
319.15918
 20
475.011169
 10
319.186218
 20
473.820709
 10
319.213318
 20
472.630219
 10
319.240448
 20
471.439636
 10
319.26767
 20
470.249054
 10
319.294922
 20
469.05838
 10
319.322296
 20
467.867676
 10
319.349762
 20
466.676941
 10
319.37735
 20
465.486145
 10
319.40506
 20
464.295319
 10
319.432892
 20
463.104431
 10
319.460876
 20
461.913513
 10
319.489044
 20
460.722565
 10
319.517365
 20
459.531586
 10
319.545868
 20
458.340546
 10
319.574554
 20
457.149475
 10
319.603455
 20
455.958374
 10
319.632568
 20
454.767242
 10
319.661926
 20
453.57608
 10
319.691498
 20
452.384857
 10
319.721344
 20
451.193634
 10
319.751434
 20
450.00238
 10
319.78183
 20
448.811096
 10
319.8125
 20
447.619751
 10
319.843475
 20
446.428406
 10
319.874756
 20
445.23703
 10
319.906342
 20
444.045654
 10
319.938293
 20
442.854218
 10
319.970612
 20
441.662781
 10
320.003265
 20
440.471313
 10
320.036316
 20
439.279846
 10
320.069763
 20
438.088348
 10
320.103607
 20
436.89682
 10
320.137878
 20
435.705292
 10
320.172577
 20
434.513763
 10
320.207733
 20
433.322205
 10
320.243347
 20
432.130615
 10
320.279449
 20
430.939026
 10
320.31601
 20
429.747437
 10
320.353119
 20
428.555847
 10
320.390686
 20
427.364227
 10
320.428833
 20
426.172638
 10
320.467499
 20
424.981018
 10
320.506714
 20
423.789368
 10
320.546509
 20
422.597748
 10
320.586853
 20
421.406128
 10
320.627808
 20
420.214508
 10
320.669342
 20
419.022858
 10
320.711426
 20
417.831238
 10
320.754059
 20
416.639587
 10
320.797211
 20
415.447968
 10
320.840912
 20
414.256317
 10
320.885101
 20
413.064636
 10
320.929901
 20
411.872986
 10
320.975372
 20
410.681305
 10
321.021576
 20
409.489655
 10
321.068604
 20
408.297974
 10
321.116486
 20
407.106323
 10
321.165344
 20
405.914673
 10
321.215179
 20
404.723053
 10
321.266022
 20
403.531433
 10
321.317932
 20
402.339874
 10
321.370728
 20
401.148346
 10
321.424103
 20
399.956879
 10
321.4776
 20
398.765442
 10
321.530823
 20
397.574066
 10
321.583282
 20
396.38266
 10
321.634308
 20
395.191254
 10
321.683319
 20
393.999756
 10
321.729675
 20
392.808167
 10
321.772736
 20
391.616455
 10
321.811676
 20
390.424622
 10
321.845795
 20
389.232635
 10
321.874725
 20
388.040527
 10
321.898285
 20
386.848267
 10
321.916351
 20
385.656036
 10
321.928619
 20
384.463989
 10
321.933472
 20
383.2724
 10
321.927917
 20
382.081665
 10
321.906464
 20
380.892487
 10
321.862854
 20
379.706085
 10
321.790131
 20
378.524292
 10
321.680756
 20
377.350281
 10
321.526428
 20
376.188629
 10
321.318573
 20
375.046265
 10
321.048584
 20
373.932007
 10
320.708496
 20
372.857483
 10
320.292816
 20
371.837463
 10
319.803162
 20
370.882812
 10
319.25177
 20
369.993927
 10
318.652771
 20
369.164368
 10
318.017548
 20
368.386719
 10
317.35376
 20
367.654755
 10
316.668121
 20
366.962921
 10
315.964172
 20
366.308136
 10
315.24472
 20
365.687775
 10
314.511993
 20
365.099274
 10
313.767792
 20
364.539948
 10
313.014069
 20
364.006134
 10
312.252869
 20
363.493652
 10
311.485901
 20
362.998016
 10
310.714783
 20
362.514709
 10
309.941101
 20
362.039215
 10
309.166382
 20
361.567047
 10
308.391937
 20
361.093872
 10
307.619049
 20
360.615295
 10
306.84903
 20
360.126984
 10
306.083221
 20
359.624603
 10
305.323395
 20
359.103912
 10
304.571259
 20
358.560669
 10
303.82843
 20
357.990448
  0
LWPOLYLINE
  5
89
330
7B
100
AcDbEntity
  8
0
  6
Continuous
 62
     0
370
     0
100
AcDbPolyline
 90
      164
 70
     0
 43
0.0
 10
308.105072
 20
360.981415
 10
308.885712
 20
361.459076
 10
309.665863
 20
361.934662
 10
310.444244
 20
362.412628
 10
311.219452
 20
362.897522
 10
311.990082
 20
363.394012
 10
312.754517
 20
363.906799
 10
313.5112
 20
364.440582
 10
314.258392
 20
364.99939
 10
314.994141
 20
365.586761
 10
315.716431
 20
366.206116
 10
316.423065
 20
366.860535
 10
317.111023
 20
367.552277
 10
317.776917
 20
368.283875
 10
318.414215
 20
369.06076
 10
319.015076
 20
369.889557
 10
319.569153
 20
370.777191
 10
320.062561
 20
371.731018
 10
320.483246
 20
372.751678
 10
320.828644
 20
373.828156
 10
321.102692
 20
374.946899
 10
321.314575
 20
376.094666
 10
321.472656
 20
377.262817
 10
321.584991
 20
378.444458
 10
321.659943
 20
379.634125
 10
321.7052
 20
380.828278
 10
321.727417
 20
382.025452
 10
321.733246
 20
383.224457
 10
321.728882
 20
384.424072
 10
321.71701
 20
385.624115
 10
321.69873
 20
386.824524
 10
321.674835
 20
388.025055
 10
321.645782
 20
389.225464
 10
321.611572
 20
390.425812
 10
321.57254
 20
391.626099
 10
321.529175
 20
392.826294
 10
321.482269
 20
394.026459
 10
321.432587
 20
395.226624
 10
321.380951
 20
396.426758
 10
321.328033
 20
397.626892
 10
321.274353
 20
398.827087
 10
321.220337
 20
400.027344
 10
321.166504
 20
401.227631
 10
321.113312
 20
402.428009
 10
321.061157
 20
403.628448
 10
321.010071
 20
404.82901
 10
320.959991
 20
406.029602
 10
320.910889
 20
407.230286
 10
320.862671
 20
408.431
 10
320.815338
 20
409.631775
 10
320.768768
 20
410.832611
 10
320.722961
 20
412.033447
 10
320.677856
 20
413.234314
 10
320.633392
 20
414.435211
 10
320.589508
 20
415.636108
 10
320.546173
 20
416.837006
 10
320.503387
 20
418.037903
 10
320.461151
 20
419.2388
 10
320.419525
 20
420.439697
 10
320.378448
 20
421.640564
 10
320.337952
 20
422.841431
 10
320.298065
 20
424.042267
 10
320.258728
 20
425.243073
 10
320.21994
 20
426.443848
 10
320.181702
 20
427.644592
 10
320.143982
 20
428.845337
 10
320.106781
 20
430.046051
 10
320.070099
 20
431.246735
 10
320.033875
 20
432.447388
 10
319.998169
 20
433.64801
 10
319.962891
 20
434.848633
 10
319.92807
 20
436.049194
 10
319.893677
 20
437.249756
 10
319.859741
 20
438.450256
 10
319.826172
 20
439.650757
 10
319.79303
 20
440.851227
 10
319.760254
 20
442.051666
 10
319.727844
 20
443.252045
 10
319.69577
 20
444.452423
 10
319.664062
 20
445.652771
 10
319.63266
 20
446.853058
 10
319.601562
 20
448.053345
 10
319.57077
 20
449.253571
 10
319.540283
 20
450.453796
 10
319.51004
 20
451.653961
 10
319.480072
 20
452.854095
 10
319.450348
 20
454.054199
 10
319.420868
 20
455.254272
 10
319.391632
 20
456.454315
 10
319.362579
 20
457.654297
 10
319.33371
 20
458.854248
 10
319.305054
 20
460.054169
 10
319.276581
 20
461.254059
 10
319.24823
 20
462.453918
 10
319.220062
 20
463.653717
 10
319.192047
 20
464.853485
 10
319.164154
 20
466.053192
 10
319.136353
 20
467.252899
 10
319.108704
 20
468.452545
 10
319.081116
 20
469.65213
 10
319.053619
 20
470.851685
 10
319.026215
 20
472.051208
 10
318.998871
 20
473.250702
 10
318.971558
 20
474.450104
 10
318.944305
 20
475.649506
 10
318.917053
 20
476.848846
 10
318.889862
 20
478.048157
 10
318.86264
 20
479.247406
 10
318.835449
 20
480.446594
 10
318.808197
 20
481.645752
 10
318.780945
 20
482.844879
 10
318.753662
 20
484.043945
 10
318.726318
 20
485.24295
 10
318.698914
 20
486.441895
 10
318.671417
 20
487.640808
 10
318.64386
 20
488.839661
 10
318.616211
 20
490.038422
 10
318.58844
 20
491.237152
 10
318.560516
 20
492.435822
 10
318.532501
 20
493.634399
 10
318.504333
 20
494.832916
 10
318.475983
 20
496.031372
 10
318.447479
 20
497.229736
 10
318.418762
 20
498.428009
 10
318.389862
 20
499.62619
 10
318.360748
 20
500.82428
 10
318.33136
 20
502.022308
 10
318.301758
 20
503.220245
 10
318.271881
 20
504.418121
 10
318.241699
 20
505.615906
 10
318.211243
 20
506.813629
 10
318.180481
 20
508.011322
 10
318.149414
 20
509.208954
 10
318.117981
 20
510.406494
 10
318.086212
 20
511.603973
 10
318.054138
 20
512.801514
 10
318.021851
 20
513.999268
 10
317.98941
 20
515.19751
 10
317.956879
 20
516.396484
 10
317.924347
 20
517.596313
 10
317.891998
 20
518.796875
 10
317.859863
 20
519.99823
 10
317.828003
 20
521.197754
 10
317.796417
 20
522.390259
 10
317.765228
 20
523.567139
 10
317.734558
 20
524.721069
 10
317.704559
 20
525.847778
 10
317.675354
 20
526.942871
 10
317.647095
 20
528.001892
 10
317.619904
 20
529.020691
 10
317.593872
 20
529.994324
 10
317.569183
 20
530.917603
 10
317.545959
 20
531.784973
 10
317.524414
 20
532.590393
 10
317.5047
 20
533.325195
 10
317.487091
 20
533.981323
 10
317.471619
 20
534.556946
 10
317.45813
 20
535.057678
 10
317.44635
 20
535.494568
 10
317.435944
 20
535.879333
 10
317.426575
 20
536.22406
 10
317.417938
 20
536.541077
 10
317.409729
 20
536.842529
 10
317.401581
 20
537.141968
  0
ELLIPSE
  5
8A
330
7B
100
AcDbEntity
  8
0
  6
Continuous
 62
     0
370
     0
100
AcDbEllipse
 10
303.828423
 20
357.83334
 30
0.0
 11
0.123758429051982
 21
-0.1571109557945516
 31
0.0
210
0.0
220
0.0
230
1.0
 40
0.617703
 41
2.235810546878756
 42
3.141592185993006
  0
LINE
  5
8B
330
7B
100
AcDbEntity
  8
0
  6
Continuous
 62
     0
370
     0
100
AcDbLine
 10
303.71406
 20
357.597694
 30
0.0
 11
303.51406
 21
357.597694
 31
0.0
  0
LINE
  5
8C
330
7B
100
AcDbEntity
  8
0
  6
Continuous
 62
     0
370
    30
100
AcDbLine
 10
303.51406
 20
357.597694
 30
0.0
 11
303.51406
 21
355.838983
 31
0.0
  0
LINE
  5
8D
330
7B
100
AcDbEntity
  8
0
  6
Continuous
 62
     0
370
    30
100
AcDbLine
 10
303.51406
 20
355.838983
 30
0.0
 11
303.71406
 21
355.838983
 31
0.0
  0
LINE
  5
8E
330
7B
100
AcDbEntity
  8
0
  6
Continuous
 62
     0
370
     0
100
AcDbLine
 10
303.71406
 20
355.838983
 30
0.0
 11
303.71406
 21
357.597694
 31
0.0
  0
LWPOLYLINE
  5
8F
330
7B
100
AcDbEntity
  8
0
  6
Continuous
 62
     0
370
     0
100
AcDbPolyline
 90
       15
 70
     0
 43
0.0
 10
316.921082
 20
367.378357
 10
316.044342
 20
366.592529
 10
315.140869
 20
365.862885
 10
314.21875
 20
365.175751
 10
313.283997
 20
364.518677
 10
312.341858
 20
363.879181
 10
311.395996
 20
363.248169
 10
310.447632
 20
362.623169
 10
309.497711
 20
362.001343
 10
308.547241
 20
361.378876
 10
307.597473
 20
360.751617
 10
306.649689
 20
360.115173
 10
305.705353
 20
359.464691
 10
304.766327
 20
358.794434
 10
303.78598
 20
358.054352
  0
LWPOLYLINE
  5
90
330
7B
100
AcDbEntity
  8
0
  6
Continuous
 62
     0
370
     0
100
AcDbPolyline
 90
       45
 70
     0
 43
0.0
 10
316.028229
 20
557.220947
 10
316.065887
 20
556.792114
 10
316.105286
 20
556.350403
 10
316.145844
 20
555.880127
 10
316.187103
 20
555.367004
 10
316.229218
 20
554.803894
 10
316.272552
 20
554.186096
 10
316.317444
 20
553.508545
 10
316.363922
 20
552.763794
 10
316.411987
 20
551.945618
 10
316.4617
 20
551.051086
 10
316.512909
 20
550.080078
 10
316.56543
 20
549.038086
 10
316.618988
 20
547.932983
 10
316.673431
 20
546.769775
 10
316.728607
 20
545.551575
 10
316.784454
 20
544.281311
 10
316.84079
 20
542.962341
 10
316.897491
 20
541.598267
 10
316.954468
 20
540.192627
 10
317.011505
 20
538.749146
 10
317.068542
 20
537.27063
 10
317.125397
 20
535.758972
 10
317.181976
 20
534.21698
 10
317.238129
 20
532.648254
 10
317.29364
 20
531.056885
 10
317.348419
 20
529.447693
 10
317.402344
 20
527.825256
 10
317.455322
 20
526.193848
 10
317.507355
 20
524.557068
 10
317.55838
 20
522.917847
 10
317.608398
 20
521.278381
 10
317.657593
 20
519.640198
 10
317.706146
 20
518.003845
 10
317.754425
 20
516.369019
 10
317.802704
 20
514.734741
 10
317.851349
 20
513.100037
 10
317.900299
 20
511.464966
 10
317.949554
 20
509.829712
 10
317.999084
 20
508.194244
 10
318.048828
 20
506.558624
 10
318.098785
 20
504.922821
 10
318.148895
 20
503.286804
 10
318.199127
 20
501.650635
 10
318.250519
 20
499.980865
  0
LINE
  5
91
330
7B
100
AcDbEntity
  8
0
  6
Continuous
 62
     0
370
    30
100
AcDbLine
 10
358.31397
 20
355.838983
 30
0.0
 11
358.51397
 21
355.838983
 31
0.0
  0
LINE
  5
92
330
7B
100
AcDbEntity
  8
0
  6
Continuous
 62
     0
370
    30
100
AcDbLine
 10
358.51397
 20
355.838983
 30
0.0
 11
358.51397
 21
357.597717
 31
0.0
  0
LINE
  5
93
330
7B
100
AcDbEntity
  8
0
  6
Continuous
 62
     0
370
     0
100
AcDbLine
 10
358.51397
 20
357.597717
 30
0.0
 11
358.31397
 21
357.597717
 31
0.0
  0
LINE
  5
94
330
7B
100
AcDbEntity
  8
0
  6
Continuous
 62
     0
370
     0
100
AcDbLine
 10
358.31397
 20
357.597717
 30
0.0
 11
358.31397
 21
355.838983
 31
0.0
  0
LWPOLYLINE
  5
95
330
7B
100
AcDbEntity
  8
0
  6
Continuous
 62
     0
370
     0
100
AcDbPolyline
 90
       30
 70
     0
 43
0.0
 10
343.777557
 20
499.981781
 10
343.83374
 20
501.808594
 10
343.889832
 20
503.635162
 10
343.945709
 20
505.461548
 10
344.001404
 20
507.287781
 10
344.056824
 20
509.1138
 10
344.111938
 20
510.939636
 10
344.166687
 20
512.765198
 10
344.221039
 20
514.59021
 10
344.274963
 20
516.414673
 10
344.328827
 20
518.239746
 10
344.383179
 20
520.067017
 10
344.438385
 20
521.896606
 10
344.49469
 20
523.727051
 10
344.552277
 20
525.55603
 10
344.611115
 20
527.379883
 10
344.671082
 20
529.193665
 10
344.732147
 20
530.991699
 10
344.794128
 20
532.7677
 10
344.856873
 20
534.51532
 10
344.920135
 20
536.22821
 10
344.983673
 20
537.902161
 10
345.047394
 20
539.534485
 10
345.111023
 20
541.121277
 10
345.174438
 20
542.657471
 10
345.237396
 20
544.13855
 10
345.299774
 20
545.559753
 10
345.361359
 20
546.916443
 10
345.421997
 20
548.203918
 10
345.483612
 20
549.460205
  0
LWPOLYLINE
  5
96
330
7B
100
AcDbEntity
  8
0
  6
Continuous
 62
     0
370
     0
100
AcDbPolyline
 90
       15
 70
     0
 43
0.0
 10
358.242035
 20
358.054352
 10
357.313202
 20
358.756714
 10
356.374756
 20
359.428223
 10
355.430847
 20
360.079498
 10
354.483398
 20
360.716431
 10
353.533905
 20
361.344025
 10
352.583557
 20
361.966522
 10
351.633575
 20
362.588196
 10
350.685089
 20
363.213165
 10
349.739014
 20
363.843658
 10
348.796539
 20
364.4823
 10
347.861389
 20
365.138336
 10
346.938507
 20
365.823364
 10
346.033905
 20
366.550079
 10
345.106598
 20
367.378723
  0
LINE
  5
97
330
7B
100
AcDbEntity
  8
0
  6
Continuous
 62
     0
370
     0
100
AcDbLine
 10
344.426868
 20
536.959977
 30
0.0
 11
344.420105
 21
536.712096
 31
0.0
  0
LINE
  5
98
330
7B
100
AcDbEntity
  8
0
  6
Continuous
 62
     0
370
     0
100
AcDbLine
 10
358.199557
 20
357.990477
 30
0.0
 11
303.828423
 21
357.990456
 31
0.0
  0
LINE
  5
99
330
7B
100
AcDbEntity
  8
0
  6
Continuous
 62
     0
370
     0
100
AcDbLine
 10
358.199586
 20
357.990438
 30
0.0
 11
358.313966
 21
357.597717
 31
0.0
  0
LINE
  5
9A
330
7B
100
AcDbEntity
  8
0
  6
Continuous
 62
     0
370
     0
100
AcDbLine
 10
303.71406
 20
357.597694
 30
0.0
 11
303.828263
 21
357.990333
 31
0.0
  0
LINE
  5
9B
330
7B
100
AcDbEntity
  8
0
  6
Continuous
 62
     0
370
     0
100
AcDbLine
 10
358.31397
 20
357.597717
 30
0.0
 11
303.71406
 21
357.597537
 31
0.0
  0
LINE
  5
9C
330
7B
100
AcDbEntity
  8
0
  6
Continuous
 62
     0
370
    30
100
AcDbLine
 10
303.704566
 20
357.990374
 30
0.0
 11
303.51406
 21
357.597694
 31
0.0
  0
LINE
  5
9D
330
7B
100
AcDbEntity
  8
0
  6
Continuous
 62
     0
370
    30
100
AcDbLine
 10
303.71406
 20
355.838983
 30
0.0
 11
358.31397
 21
355.839005
 31
0.0
  0
LINE
  5
9E
330
7B
100
AcDbEntity
  8
0
  6
Continuous
 62
     0
370
    30
100
AcDbLine
 10
358.513966
 20
357.597717
 30
0.0
 11
358.323361
 21
357.990448
 31
0.0
  0
LWPOLYLINE
  5
9F
330
7B
100
AcDbEntity
  8
0
  6
Continuous
 62
     0
370
    30
100
AcDbPolyline
 90
      149
 70
     0
 43
0.0
 10
340.346344
 20
387.706451
 10
340.343292
 20
387.55719
 10
340.340271
 20
387.405518
 10
340.337372
 20
387.257446
 10
340.334778
 20
387.118927
 10
340.332489
 20
386.993256
 10
340.330444
 20
386.877045
 10
340.328583
 20
386.76767
 10
340.326874
 20
386.664062
 10
340.325287
 20
386.565155
 10
340.323822
 20
386.470245
 10
340.322449
 20
386.378937
 10
340.321167
 20
386.290894
 10
340.319977
 20
386.20575
 10
340.318878
 20
386.123138
 10
340.317841
 20
386.042755
 10
340.316833
 20
385.964203
 10
340.315918
 20
385.88678
 10
340.315033
 20
385.809418
 10
340.314178
 20
385.730957
 10
340.313324
 20
385.650299
 10
340.312531
 20
385.568878
 10
340.311768
 20
385.490479
 10
340.311127
 20
385.419006
 10
340.310608
 20
385.358154
 10
340.310211
 20
385.308258
 10
340.309906
 20
385.266968
 10
340.309662
 20
385.232025
 10
340.309448
 20
385.201141
 10
340.309235
 20
385.172852
 10
340.309082
 20
385.146027
 10
340.308929
 20
385.119568
 10
340.308777
 20
385.092316
 10
340.308655
 20
385.063202
 10
340.308502
 20
385.031067
 10
340.30838
 20
384.994812
 10
340.308258
 20
384.953461
 10
340.308105
 20
384.906403
 10
340.307983
 20
384.853149
 10
340.307861
 20
384.793152
 10
340.30777
 20
384.723816
 10
340.307739
 20
384.639038
 10
340.3078
 20
384.532318
 10
340.308014
 20
384.397186
 10
340.308472
 20
384.228241
 10
340.309357
 20
384.021881
 10
340.310913
 20
383.774811
 10
340.313232
 20
383.497375
 10
340.316315
 20
383.209717
 10
340.320221
 20
382.917023
 10
340.324921
 20
382.623444
 10
340.330475
 20
382.33252
 10
340.336914
 20
382.04483
 10
340.344269
 20
381.759888
 10
340.35257
 20
381.477173
 10
340.361908
 20
381.196381
 10
340.372284
 20
380.91745
 10
340.383759
 20
380.640289
 10
340.396423
 20
380.364929
 10
340.410309
 20
380.091278
 10
340.425476
 20
379.819092
 10
340.442047
 20
379.547974
 10
340.460083
 20
379.277649
 10
340.479645
 20
379.007782
 10
340.500885
 20
378.738098
 10
340.523865
 20
378.468475
 10
340.548706
 20
378.198822
 10
340.575531
 20
377.928955
 10
340.604462
 20
377.658875
 10
340.63562
 20
377.388763
 10
340.669128
 20
377.118805
 10
340.70517
 20
376.849213
 10
340.743805
 20
376.580261
 10
340.785034
 20
376.312469
 10
340.828735
 20
376.046509
 10
340.874847
 20
375.782928
 10
340.923279
 20
375.522369
 10
340.973969
 20
375.265442
 10
341.026825
 20
375.012726
 10
341.081726
 20
374.764893
 10
341.138672
 20
374.522491
 10
341.197601
 20
374.285553
 10
341.258698
 20
374.053345
 10
341.322021
 20
373.825165
 10
341.387756
 20
373.600342
 10
341.455719
 20
373.378937
 10
341.525452
 20
373.162079
 10
341.596558
 20
372.950836
 10
341.668549
 20
372.746307
 10
341.74115
 20
372.549042
 10
341.814362
 20
372.358459
 10
341.888214
 20
372.173889
 10
341.96283
 20
371.994598
 10
342.038208
 20
371.819977
 10
342.114502
 20
371.649231
 10
342.192047
 20
371.481659
 10
342.271179
 20
371.316528
 10
342.352234
 20
371.153046
 10
342.435547
 20
370.990448
 10
342.521362
 20
370.828308
 10
342.609863
 20
370.666412
 10
342.701172
 20
370.504639
 10
342.795471
 20
370.342834
 10
342.892883
 20
370.180878
 10
342.99353
 20
370.018646
 10
343.097687
 20
369.855927
 10
343.20575
 20
369.69223
 10
343.318176
 20
369.527161
 10
343.435394
 20
369.360229
 10
343.557861
 20
369.190979
 10
343.686218
 20
369.018768
 10
343.822418
 20
368.8414
 10
343.96933
 20
368.65567
 10
344.131134
 20
368.457581
 10
344.31189
 20
368.243408
 10
344.493164
 20
368.035431
 10
344.621643
 20
367.891937
 10
344.707642
 20
367.797699
 10
344.771729
 20
367.728302
 10
344.821564
 20
367.674896
 10
344.862091
 20
367.631836
 10
344.896973
 20
367.595001
 10
344.927032
 20
367.563416
 10
344.952911
 20
367.536346
 10
344.975311
 20
367.513062
 10
344.994873
 20
367.492798
 10
345.012329
 20
367.474823
 10
345.028198
 20
367.458527
 10
345.042603
 20
367.443756
 10
345.055634
 20
367.43042
 10
345.067322
 20
367.418518
 10
345.077728
 20
367.407928
 10
345.086914
 20
367.398621
 10
345.095001
 20
367.390411
 10
345.102142
 20
367.383209
 10
345.108429
 20
367.376892
 10
345.113983
 20
367.371277
 10
345.118958
 20
367.366302
 10
345.123444
 20
367.361816
 10
345.127411
 20
367.357849
 10
345.13089
 20
367.35437
 10
345.133911
 20
367.351379
 10
345.136444
 20
367.348816
 10
345.13858
 20
367.34671
 10
345.140259
 20
367.345032
 10
345.141541
 20
367.34375
 10
345.142426
 20
367.342865
 10
345.142975
 20
367.342346
 10
345.143127
 20
367.342163
  0
LWPOLYLINE
  5
A0
330
7B
100
AcDbEntity
  8
0
  6
Continuous
 62
     0
370
    30
100
AcDbPolyline
 90
      149
 70
     0
 43
0.0
 10
321.681671
 20
387.706665
 10
321.684753
 20
387.557404
 10
321.687775
 20
387.405731
 10
321.690643
 20
387.257629
 10
321.693268
 20
387.11908
 10
321.695526
 20
386.993408
 10
321.697571
 20
386.877197
 10
321.699463
 20
386.767792
 10
321.701172
 20
386.664185
 10
321.702759
 20
386.565277
 10
321.704224
 20
386.470367
 10
321.705597
 20
386.379059
 10
321.706848
 20
386.290985
 10
321.708038
 20
386.205841
 10
321.709167
 20
386.12323
 10
321.710205
 20
386.042847
 10
321.711182
 20
385.964294
 10
321.712128
 20
385.886902
 10
321.713013
 20
385.80954
 10
321.713867
 20
385.731049
 10
321.714691
 20
385.650391
 10
321.715515
 20
385.56897
 10
321.716248
 20
385.49057
 10
321.716888
 20
385.419098
 10
321.717407
 20
385.358246
 10
321.717834
 20
385.308319
 10
321.71814
 20
385.267029
 10
321.718384
 20
385.232056
 10
321.718597
 20
385.201172
 10
321.718781
 20
385.172882
 10
321.718964
 20
385.146057
 10
321.719116
 20
385.119568
 10
321.719238
 20
385.092346
 10
321.719391
 20
385.063232
 10
321.719513
 20
385.031097
 10
321.719635
 20
384.994843
 10
321.719788
 20
384.953491
 10
321.71991
 20
384.906433
 10
321.720032
 20
384.85321
 10
321.720154
 20
384.793213
 10
321.720276
 20
384.723877
 10
321.720306
 20
384.639069
 10
321.720245
 20
384.532349
 10
321.720032
 20
384.397247
 10
321.719574
 20
384.228333
 10
321.718658
 20
384.022003
 10
321.717133
 20
383.774933
 10
321.714813
 20
383.497498
 10
321.7117
 20
383.209839
 10
321.707825
 20
382.917145
 10
321.703125
 20
382.623566
 10
321.697571
 20
382.332642
 10
321.691132
 20
382.044952
 10
321.683777
 20
381.76001
 10
321.675446
 20
381.477295
 10
321.666138
 20
381.196503
 10
321.655762
 20
380.917542
 10
321.644257
 20
380.640411
 10
321.631622
 20
380.365051
 10
321.617737
 20
380.0914
 10
321.602539
 20
379.819183
 10
321.585999
 20
379.548096
 10
321.567963
 20
379.27774
 10
321.54837
 20
379.007874
 10
321.527161
 20
378.73819
 10
321.504181
 20
378.468567
 10
321.479309
 20
378.198914
 10
321.452484
 20
377.929047
 10
321.423584
 20
377.658966
 10
321.392426
 20
377.388855
 10
321.358917
 20
377.118896
 10
321.322876
 20
376.849304
 10
321.284241
 20
376.580353
 10
321.243011
 20
376.312561
 10
321.19931
 20
376.0466
 10
321.153198
 20
375.78302
 10
321.104736
 20
375.522461
 10
321.054077
 20
375.265503
 10
321.001221
 20
375.012817
 10
320.946289
 20
374.764954
 10
320.889374
 20
374.522552
 10
320.830414
 20
374.285583
 10
320.769348
 20
374.053375
 10
320.706024
 20
373.825195
 10
320.640289
 20
373.600372
 10
320.572327
 20
373.378998
 10
320.502594
 20
373.16214
 10
320.431488
 20
372.950897
 10
320.359497
 20
372.746338
 10
320.286896
 20
372.549072
 10
320.213684
 20
372.35849
 10
320.139801
 20
372.17392
 10
320.065216
 20
371.994629
 10
319.989838
 20
371.820007
 10
319.913513
 20
371.649261
 10
319.835968
 20
371.481689
 10
319.756836
 20
371.316528
 10
319.675781
 20
371.153015
 10
319.592468
 20
370.990448
 10
319.506653
 20
370.828278
 10
319.418152
 20
370.666382
 10
319.326843
 20
370.504608
 10
319.232544
 20
370.342834
 10
319.135162
 20
370.180878
 10
319.034485
 20
370.018677
 10
318.930359
 20
369.855927
 10
318.822266
 20
369.69223
 10
318.709869
 20
369.527161
 10
318.592621
 20
369.360229
 10
318.470154
 20
369.190979
 10
318.341797
 20
369.018768
 10
318.205597
 20
368.84137
 10
318.058655
 20
368.65567
 10
317.896851
 20
368.45755
 10
317.716125
 20
368.243378
 10
317.534821
 20
368.0354
 10
317.406342
 20
367.891907
 10
317.320343
 20
367.797668
 10
317.256287
 20
367.728302
 10
317.206451
 20
367.674866
 10
317.165924
 20
367.631836
 10
317.131042
 20
367.595001
 10
317.100983
 20
367.563385
 10
317.075104
 20
367.536316
 10
317.052704
 20
367.513031
 10
317.033142
 20
367.492798
 10
317.015686
 20
367.474823
 10
316.999817
 20
367.458527
 10
316.985413
 20
367.443726
 10
316.972382
 20
367.43042
 10
316.960693
 20
367.418488
 10
316.950287
 20
367.407928
 10
316.941101
 20
367.39859
 10
316.933014
 20
367.390411
 10
316.925873
 20
367.383209
 10
316.919586
 20
367.376862
 10
316.914032
 20
367.371277
 10
316.909058
 20
367.366272
 10
316.904572
 20
367.361816
 10
316.900604
 20
367.357849
 10
316.897125
 20
367.35437
 10
316.894104
 20
367.351349
 10
316.891571
 20
367.348816
 10
316.889435
 20
367.34668
 10
316.887756
 20
367.345001
 10
316.886475
 20
367.34375
 10
316.88559
 20
367.342865
 10
316.88504
 20
367.342346
 10
316.884888
 20
367.342163
  0
LINE
  5
A1
330
7B
100
AcDbEntity
  8
0
  6
Continuous
 62
     0
370
    30
100
AcDbLine
 10
303.704829
 20
357.990581
 30
0.0
 11
304.063633
 21
358.267983
 31
0.0
  0
LINE
  5
A2
330
7B
100
AcDbEntity
  8
0
  6
Continuous
 62
     0
370
    30
100
AcDbLine
 10
358.323203
 20
357.99058
 30
0.0
 11
357.966356
 21
358.266497
 31
0.0
  0
ENDBLK
  5
A4
330
7B
100
AcDbEntity
  8
0
100
AcDbBlockEnd
  0
BLOCK
  5
D6
330
A6
100
AcDbEntity
  8
0
100
AcDbBlockBegin
  2
b
 70
     0
 10
276.227936
 20
90.540215
 30
0.0
  3
b
  1

  0
LINE
  5
A7
330
A6
100
AcDbEntity
  8
0
  6
Continuous
 62
     0
370
    30
100
AcDbLine
 10
317.601163
 20
99.151954
 30
0.0
 11
317.401566
 21
99.193976
 31
0.0
  0
LINE
  5
A8
330
A6
100
AcDbEntity
  8
0
  6
Continuous
 62
     0
370
    30
100
AcDbLine
 10
344.426868
 20
99.151747
 30
0.0
 11
317.601163
 21
99.151954
 31
0.0
  0
LINE
  5
A9
330
A6
100
AcDbEntity
  8
0
  6
Continuous
 62
     0
370
    30
100
AcDbLine
 10
344.626464
 20
99.193766
 30
0.0
 11
344.426868
 21
99.151747
 31
0.0
  0
LINE
  5
AA
330
A6
100
AcDbEntity
  8
0
  6
Continuous
 62
     0
370
    30
100
AcDbLine
 10
345.999803
 20
103.82954
 30
0.0
 11
344.626464
 21
99.193766
 31
0.0
  0
LINE
  5
AB
330
A6
100
AcDbEntity
  8
0
  6
Continuous
 62
     0
370
    30
100
AcDbLine
 10
345.800311
 20
103.877517
 30
0.0
 11
345.999805
 21
103.82954
 31
0.0
  0
LINE
  5
AC
330
A6
100
AcDbEntity
  8
0
  6
Continuous
 62
     0
370
    30
100
AcDbLine
 10
316.22772
 20
103.877745
 30
0.0
 11
345.800311
 21
103.877517
 31
0.0
  0
LINE
  5
AD
330
A6
100
AcDbEntity
  8
0
  6
Continuous
 62
     0
370
    30
100
AcDbLine
 10
316.028224
 20
103.829779
 30
0.0
 11
316.22772
 21
103.877745
 31
0.0
  0
LINE
  5
AE
330
A6
100
AcDbEntity
  8
0
  6
Continuous
 62
     0
370
    30
100
AcDbLine
 10
317.401566
 20
99.193976
 30
0.0
 11
316.028225
 21
103.829779
 31
0.0
  0
LINE
  5
AF
330
A6
100
AcDbEntity
  8
0
  6
Continuous
 62
     0
370
     0
100
AcDbLine
 10
358.199607
 20
89.76174
 30
0.0
 11
345.570806
 21
102.381448
 31
0.0
  0
LINE
  5
B0
330
A6
100
AcDbEntity
  8
0
  6
Continuous
 62
     0
370
     0
100
AcDbLine
 10
358.26148
 20
89.947386
 30
0.0
 11
358.137724
 21
89.823616
 31
0.0
  0
LINE
  5
B1
330
A6
100
AcDbEntity
  8
0
  6
Continuous
 62
     0
370
     0
100
AcDbLine
 10
345.633565
 20
102.593294
 30
0.0
 11
358.323366
 21
89.885507
 31
0.0
  0
LINE
  5
B2
330
A6
100
AcDbEntity
  8
0
  6
Continuous
 62
     0
370
     0
100
AcDbLine
 10
316.457415
 20
102.38103
 30
0.0
 11
303.828423
 21
89.76174
 31
0.0
  0
LINE
  5
B3
330
A6
100
AcDbEntity
  8
0
  6
Continuous
 62
     0
370
     0
100
AcDbLine
 10
303.704664
 20
89.885507
 30
0.0
 11
316.394588
 21
102.593104
 31
0.0
  0
LINE
  5
B4
330
A6
100
AcDbEntity
  8
0
  6
Continuous
 62
     0
370
     0
100
AcDbLine
 10
303.890306
 20
89.823617
 30
0.0
 11
303.76655
 21
89.947386
 31
0.0
  0
ARC
  5
B5
330
A6
100
AcDbEntity
  8
0
  6
Continuous
 62
     0
370
    30
100
AcDbCircle
 10
303.71406
 20
89.77117
 30
0.0
 40
0.200000002980232
100
AcDbArc
 50
180.0
 51
270.000048
  0
ARC
  5
B6
330
A6
100
AcDbEntity
  8
0
  6
Continuous
 62
     0
370
    30
100
AcDbCircle
 10
303.71406
 20
144.371126
 30
0.0
 40
0.200000002980232
100
AcDbArc
 50
90.0
 51
180.0
  0
LWPOLYLINE
  5
B7
330
A6
100
AcDbEntity
  8
0
  6
Continuous
 62
     0
370
     0
100
AcDbPolyline
 90
       32
 70
     0
 43
0.0
 10
317.762238
 20
133.330017
 10
317.712799
 20
133.304489
 10
317.662476
 20
133.219849
 10
317.611206
 20
133.07132
 10
317.559052
 20
132.854385
 10
317.506104
 20
132.56488
 10
317.452423
 20
132.199234
 10
317.398132
 20
131.755951
 10
317.343353
 20
131.235687
 10
317.288269
 20
130.641251
 10
317.233002
 20
129.976456
 10
317.177643
 20
129.244827
 10
317.122375
 20
128.448563
 10
317.06723
 20
127.589653
 10
317.01239
 20
126.669937
 10
316.957947
 20
125.690742
 10
316.904053
 20
124.653297
 10
316.8508
 20
123.559021
 10
316.798279
 20
122.40995
 10
316.746674
 20
121.207771
 10
316.696136
 20
119.953468
 10
316.646881
 20
118.647751
 10
316.599091
 20
117.294067
 10
316.552795
 20
115.89798
 10
316.508026
 20
114.465935
 10
316.464752
 20
113.004509
 10
316.42276
 20
111.520599
 10
316.381775
 20
110.020897
 10
316.341797
 20
108.508453
 10
316.302826
 20
106.983795
 10
316.264954
 20
105.447357
 10
316.227722
 20
103.877747
  0
LINE
  5
B8
330
A6
100
AcDbEntity
  8
0
  6
Continuous
 62
     0
370
     0
100
AcDbLine
 10
303.828358
 20
144.380614
 30
0.0
 11
317.146741
 21
131.079794
 31
0.0
  0
LINE
  5
B9
330
A6
100
AcDbEntity
  8
0
  6
Continuous
 62
     0
370
     0
100
AcDbLine
 10
303.766446
 20
144.194925
 30
0.0
 11
303.890252
 21
144.318709
 31
0.0
  0
LINE
  5
BA
330
A6
100
AcDbEntity
  8
0
  6
Continuous
 62
     0
370
     0
100
AcDbLine
 10
317.122059
 20
130.825649
 30
0.0
 11
303.704556
 21
144.256826
 31
0.0
  0
LWPOLYLINE
  5
BB
330
A6
100
AcDbEntity
  8
0
  6
Continuous
 62
     0
370
     0
100
AcDbPolyline
 90
       33
 70
     0
 43
0.0
 10
316.028229
 20
103.829773
 10
316.06488
 20
105.36702
 10
316.10318
 20
106.906555
 10
316.142639
 20
108.440163
 10
316.18277
 20
109.960136
 10
316.223663
 20
111.46228
 10
316.265656
 20
112.943901
 10
316.309113
 20
114.402122
 10
316.354065
 20
115.831429
 10
316.400543
 20
117.224579
 10
316.448547
 20
118.574829
 10
316.498047
 20
119.876411
 10
316.548828
 20
121.125984
 10
316.600677
 20
122.323097
 10
316.653412
 20
123.466743
 10
316.706909
 20
124.555542
 10
316.761047
 20
125.588058
 10
316.815704
 20
126.562561
 10
316.870789
 20
127.477303
 10
316.926147
 20
128.330688
 10
316.981689
 20
129.121292
 10
317.037262
 20
129.847305
 10
317.092743
 20
130.505554
 10
317.14801
 20
131.09259
 10
317.202972
 20
131.605423
 10
317.257446
 20
132.041382
 10
317.31131
 20
132.399628
 10
317.36438
 20
132.681183
 10
317.416656
 20
132.890457
 10
317.468018
 20
133.032013
 10
317.518463
 20
133.109589
 10
317.567963
 20
133.127838
 10
317.617218
 20
133.092056
  0
ARC
  5
BC
330
A6
100
AcDbEntity
  8
0
  6
Continuous
 62
     0
370
    30
100
AcDbCircle
 10
358.31397
 20
89.771198
 30
0.0
 40
0.200000002980232
100
AcDbArc
 50
269.999885
 51
0.0
  0
LINE
  5
BD
330
A6
100
AcDbEntity
  8
0
  6
Continuous
 62
     0
370
     0
100
AcDbLine
 10
344.881273
 20
131.079762
 30
0.0
 11
358.199673
 21
144.380614
 31
0.0
  0
LWPOLYLINE
  5
BE
330
A6
100
AcDbEntity
  8
0
  6
Continuous
 62
     0
370
     0
100
AcDbPolyline
 90
       32
 70
     0
 43
0.0
 10
345.800323
 20
103.877747
 10
345.763458
 20
105.426392
 10
345.725525
 20
106.964142
 10
345.686523
 20
108.490601
 10
345.646545
 20
110.005348
 10
345.605621
 20
111.507744
 10
345.563599
 20
112.993797
 10
345.520264
 20
114.456902
 10
345.475464
 20
115.890503
 10
345.429108
 20
117.288277
 10
345.381256
 20
118.643906
 10
345.33197
 20
119.951233
 10
345.281372
 20
121.2071
 10
345.229706
 20
122.410751
 10
345.177124
 20
123.561104
 10
345.12381
 20
124.656593
 10
345.069824
 20
125.695137
 10
345.01535
 20
126.675201
 10
344.960419
 20
127.595604
 10
344.905243
 20
128.454865
 10
344.849884
 20
129.251389
 10
344.794495
 20
129.983383
 10
344.739136
 20
130.648163
 10
344.68399
 20
131.24234
 10
344.629181
 20
131.762283
 10
344.574829
 20
132.205078
 10
344.521088
 20
132.569733
 10
344.468109
 20
132.85817
 10
344.415924
 20
133.074341
 10
344.364594
 20
133.222214
 10
344.314209
 20
133.305954
 10
344.264313
 20
133.330017
  0
LWPOLYLINE
  5
BF
330
A6
100
AcDbEntity
  8
0
  6
Continuous
 62
     0
370
     0
100
AcDbPolyline
 90
       33
 70
     0
 43
0.0
 10
344.411072
 20
133.091049
 10
344.459625
 20
133.126053
 10
344.509094
 20
133.108856
 10
344.559509
 20
133.032028
 10
344.610901
 20
132.891571
 10
344.663147
 20
132.683212
 10
344.716217
 20
132.4021
 10
344.77005
 20
132.044922
 10
344.824524
 20
131.609833
 10
344.879456
 20
131.097809
 10
344.934723
 20
130.511551
 10
344.990204
 20
129.854004
 10
345.045776
 20
129.128876
 10
345.101288
 20
128.33905
 10
345.156677
 20
127.486473
 10
345.211731
 20
126.572548
 10
345.266418
 20
125.59874
 10
345.320557
 20
124.566628
 10
345.374084
 20
123.477844
 10
345.426819
 20
122.334167
 10
345.478699
 20
121.137558
 10
345.52948
 20
119.88887
 10
345.578949
 20
118.588341
 10
345.626953
 20
117.239311
 10
345.673492
 20
115.847198
 10
345.718506
 20
114.418648
 10
345.761993
 20
112.960701
 10
345.804108
 20
111.478249
 10
345.845245
 20
109.974388
 10
345.885559
 20
108.453384
 10
345.924835
 20
106.921173
 10
345.96286
 20
105.383781
 10
345.999817
 20
103.829544
  0
LINE
  5
C0
330
A6
100
AcDbEntity
  8
0
  6
Continuous
 62
     0
370
     0
100
AcDbLine
 10
358.323474
 20
144.256826
 30
0.0
 11
344.905949
 21
130.825632
 31
0.0
  0
LINE
  5
C1
330
A6
100
AcDbEntity
  8
0
  6
Continuous
 62
     0
370
     0
100
AcDbLine
 10
358.137779
 20
144.318709
 30
0.0
 11
358.261584
 21
144.194925
 31
0.0
  0
ARC
  5
C2
330
A6
100
AcDbEntity
  8
0
  6
Continuous
 62
     0
370
    30
100
AcDbCircle
 10
358.31397
 20
144.371126
 30
0.0
 40
0.200000002980232
100
AcDbArc
 50
0.0
 51
90.0
  0
LINE
  5
C3
330
A6
100
AcDbEntity
  8
0
  6
Continuous
 62
     0
370
     0
100
AcDbLine
 10
303.704664
 20
89.885832
 30
0.0
 11
303.704556
 21
144.256826
 31
0.0
  0
LINE
  5
C4
330
A6
100
AcDbEntity
  8
0
  6
Continuous
 62
     0
370
     0
100
AcDbLine
 10
358.199557
 20
89.761781
 30
0.0
 11
303.828423
 21
89.761754
 31
0.0
  0
LINE
  5
C5
330
A6
100
AcDbEntity
  8
0
  6
Continuous
 62
     0
370
     0
100
AcDbLine
 10
358.199586
 20
89.761732
 30
0.0
 11
358.313966
 21
89.571198
 31
0.0
  0
LINE
  5
C6
330
A6
100
AcDbEntity
  8
0
  6
Continuous
 62
     0
370
     0
100
AcDbLine
 10
303.71406
 20
89.571296
 30
0.0
 11
303.828263
 21
89.761924
 31
0.0
  0
LINE
  5
C7
330
A6
100
AcDbEntity
  8
0
  6
Continuous
 62
     0
370
    30
100
AcDbLine
 10
358.31397
 20
89.571198
 30
0.0
 11
303.71406
 21
89.571296
 31
0.0
  0
LINE
  5
C8
330
A6
100
AcDbEntity
  8
0
  6
Continuous
 62
     0
370
     0
100
AcDbLine
 10
303.514065
 20
144.371126
 30
0.0
 11
303.704563
 21
144.256832
 31
0.0
  0
LINE
  5
C9
330
A6
100
AcDbEntity
  8
0
  6
Continuous
 62
     0
370
    30
100
AcDbLine
 10
303.51406
 20
89.77117
 30
0.0
 11
303.514065
 21
144.371126
 31
0.0
  0
LINE
  5
CA
330
A6
100
AcDbEntity
  8
0
  6
Continuous
 62
     0
370
     0
100
AcDbLine
 10
303.704566
 20
89.885773
 30
0.0
 11
303.51406
 21
89.771296
 31
0.0
  0
LINE
  5
CB
330
A6
100
AcDbEntity
  8
0
  6
Continuous
 62
     0
370
    30
100
AcDbLine
 10
303.714065
 20
144.571126
 30
0.0
 11
358.31397
 21
144.571126
 31
0.0
  0
LINE
  5
CC
330
A6
100
AcDbEntity
  8
0
  6
Continuous
 62
     0
370
     0
100
AcDbLine
 10
303.828374
 20
144.38062
 30
0.0
 11
303.714065
 21
144.571126
 31
0.0
  0
LINE
  5
CD
330
A6
100
AcDbEntity
  8
0
  6
Continuous
 62
     0
370
     0
100
AcDbLine
 10
358.199673
 20
144.380596
 30
0.0
 11
303.828358
 21
144.380596
 31
0.0
  0
LINE
  5
CE
330
A6
100
AcDbEntity
  8
0
  6
Continuous
 62
     0
370
     0
100
AcDbLine
 10
358.31397
 20
144.571126
 30
0.0
 11
358.199667
 21
144.380617
 31
0.0
  0
LINE
  5
CF
330
A6
100
AcDbEntity
  8
0
  6
Continuous
 62
     0
370
     0
100
AcDbLine
 10
358.323474
 20
144.256807
 30
0.0
 11
358.323366
 21
89.885548
 31
0.0
  0
LINE
  5
D0
330
A6
100
AcDbEntity
  8
0
  6
Continuous
 62
     0
370
     0
100
AcDbLine
 10
358.323474
 20
144.256826
 30
0.0
 11
358.51397
 21
144.371126
 31
0.0
  0
LINE
  5
D1
330
A6
100
AcDbEntity
  8
0
  6
Continuous
 62
     0
370
     0
100
AcDbLine
 10
358.513966
 20
89.771198
 30
0.0
 11
358.323361
 21
89.885502
 31
0.0
  0
LINE
  5
D2
330
A6
100
AcDbEntity
  8
0
  6
Continuous
 62
     0
370
    30
100
AcDbLine
 10
358.51397
 20
144.371126
 30
0.0
 11
358.513966
 21
89.771198
 31
0.0
  0
LINE
  5
D3
330
A6
100
AcDbEntity
  8
0
  6
Continuous
 62
     0
370
    30
100
AcDbLine
 10
317.759851
 20
133.330015
 30
0.0
 11
344.268165
 21
133.330015
 31
0.0
  0
LINE
  5
D4
330
A6
100
AcDbEntity
  8
0
  6
Continuous
 62
     0
370
    30
100
AcDbLine
 10
346.000233
 20
103.833035
 30
0.0
 11
345.988886
 21
104.353931
 31
0.0
  0
LINE
  5
D5
330
A6
100
AcDbEntity
  8
0
  6
Continuous
 62
     0
370
    30
100
AcDbLine
 10
316.027805
 20
103.83325
 30
0.0
 11
316.09599
 21
106.735976
 31
0.0
  0
ENDBLK
  5
D7
330
A6
100
AcDbEntity
  8
0
100
AcDbBlockEnd
  0
BLOCK
  5
F2
330
D9
100
AcDbEntity
  8
0
100
AcDbBlockBegin
  2
c
 70
     0
 10
276.227936
 20
90.540215
 30
0.0
  3
c
  1

  0
LINE
  5
DA
330
D9
100
AcDbEntity
  8
0
  6
Continuous
 62
     0
370
    30
100
AcDbLine
 10
526.905144
 20
536.959992
 30
0.0
 11
526.863122
 21
537.141995
 31
0.0
  0
LINE
  5
DB
330
D9
100
AcDbEntity
  8
0
  6
Continuous
 62
     0
370
    30
100
AcDbLine
 10
522.227319
 20
557.220977
 30
0.0
 11
522.179352
 21
557.428742
 31
0.0
  0
LINE
  5
DC
330
D9
100
AcDbEntity
  8
0
  6
Continuous
 62
     0
370
    30
100
AcDbLine
 10
526.863122
 20
537.141995
 30
0.0
 11
522.227319
 21
557.220978
 31
0.0
  0
LWPOLYLINE
  5
DD
330
D9
100
AcDbEntity
  8
0
  6
Continuous
 62
     0
370
    30
100
AcDbPolyline
 90
      179
 70
     0
 43
0.0
 10
526.904968
 20
536.959961
 10
525.837585
 20
536.687012
 10
524.772461
 20
536.412231
 10
523.711975
 20
536.126404
 10
522.658752
 20
535.820312
 10
521.616821
 20
535.484802
 10
520.590881
 20
535.11084
 10
519.585754
 20
534.68927
 10
518.607788
 20
534.211914
 10
517.664795
 20
533.671509
 10
516.764038
 20
533.064087
 10
515.909973
 20
532.39209
 10
515.104492
 20
531.66156
 10
514.34906
 20
530.878662
 10
513.645081
 20
530.04895
 10
512.993896
 20
529.176697
 10
512.397339
 20
528.266113
 10
511.858063
 20
527.32074
 10
511.37851
 20
526.343933
 10
510.961304
 20
525.339355
 10
510.609589
 20
524.310425
 10
510.3284
 20
523.260559
 10
510.123779
 20
522.193787
 10
509.998108
 20
521.114502
 10
509.944153
 20
520.027649
 10
509.947144
 20
518.936035
 10
509.990662
 20
517.841797
 10
510.057922
 20
516.746094
 10
510.136993
 20
515.64978
 10
510.22229
 20
514.553345
 10
510.312775
 20
513.45697
 10
510.406799
 20
512.360657
 10
510.502716
 20
511.264374
 10
510.599426
 20
510.167999
 10
510.695831
 20
509.071503
 10
510.79129
 20
507.974823
 10
510.885925
 20
506.877991
 10
510.979828
 20
505.781006
 10
511.07312
 20
504.683929
 10
511.165771
 20
503.586731
 10
511.257751
 20
502.489441
 10
511.34903
 20
501.39209
 10
511.439636
 20
500.294647
 10
511.529541
 20
499.197174
 10
511.618805
 20
498.09967
 10
511.707367
 20
497.002106
 10
511.795288
 20
495.90451
 10
511.882538
 20
494.806885
 10
511.969147
 20
493.709229
 10
512.055115
 20
492.611511
 10
512.140381
 20
491.513763
 10
512.225098
 20
490.415985
 10
512.309082
 20
489.318176
 10
512.392456
 20
488.220306
 10
512.47522
 20
487.122406
 10
512.557312
 20
486.024475
 10
512.638794
 20
484.926483
 10
512.719666
 20
483.828461
 10
512.799927
 20
482.730408
 10
512.879578
 20
481.632324
 10
512.958557
 20
480.53418
 10
513.036987
 20
479.435974
 10
513.114807
 20
478.337769
 10
513.192017
 20
477.239502
 10
513.268616
 20
476.141174
 10
513.344604
 20
475.042816
 10
513.420044
 20
473.944427
 10
513.494873
 20
472.846008
 10
513.569092
 20
471.747528
 10
513.642761
 20
470.648987
 10
513.71582
 20
469.550446
 10
513.78833
 20
468.451843
 10
513.860291
 20
467.35318
 10
513.931641
 20
466.254517
 10
514.002441
 20
465.155792
 10
514.072693
 20
464.057037
 10
514.142395
 20
462.958252
 10
514.211487
 20
461.859436
 10
514.28009
 20
460.76059
 10
514.348083
 20
459.661682
 10
514.415588
 20
458.562775
 10
514.482483
 20
457.463806
 10
514.548889
 20
456.364838
 10
514.614746
 20
455.265839
 10
514.680054
 20
454.166779
 10
514.744873
 20
453.067719
 10
514.809082
 20
451.968628
 10
514.872864
 20
450.869507
 10
514.936035
 20
449.770355
 10
514.998718
 20
448.671173
 10
515.060913
 20
447.571991
 10
515.122559
 20
446.472778
 10
515.183716
 20
445.373535
 10
515.244324
 20
444.274292
 10
515.304443
 20
443.174988
 10
515.364075
 20
442.075714
 10
515.423218
 20
440.976379
 10
515.481873
 20
439.877045
 10
515.539978
 20
438.77771
 10
515.597595
 20
437.678345
 10
515.654724
 20
436.578949
 10
515.711426
 20
435.479584
 10
515.767578
 20
434.380157
 10
515.823242
 20
433.280762
 10
515.878479
 20
432.181335
 10
515.933167
 20
431.081909
 10
515.987427
 20
429.982452
 10
516.041199
 20
428.882996
 10
516.094482
 20
427.783539
 10
516.147339
 20
426.684082
 10
516.199707
 20
425.584625
 10
516.251587
 20
424.485138
 10
516.30304
 20
423.385681
 10
516.354004
 20
422.286194
 10
516.404541
 20
421.186737
 10
516.45459
 20
420.08725
 10
516.504272
 20
418.987762
 10
516.553406
 20
417.888275
 10
516.602173
 20
416.788818
 10
516.650513
 20
415.689301
 10
516.698486
 20
414.589813
 10
516.745972
 20
413.490326
 10
516.793091
 20
412.390808
 10
516.839783
 20
411.29129
 10
516.886047
 20
410.191772
 10
516.931885
 20
409.092285
 10
516.977234
 20
407.992767
 10
517.022156
 20
406.89325
 10
517.06665
 20
405.793762
 10
517.110657
 20
404.694275
 10
517.154175
 20
403.594818
 10
517.197266
 20
402.495422
 10
517.239868
 20
401.396027
 10
517.282104
 20
400.296692
 10
517.324097
 20
399.197388
 10
517.365784
 20
398.098114
 10
517.40741
 20
396.99884
 10
517.448975
 20
395.899567
 10
517.490601
 20
394.800293
 10
517.532471
 20
393.700928
 10
517.574707
 20
392.601471
 10
517.617371
 20
391.501892
 10
517.660889
 20
390.402222
 10
517.705444
 20
389.302399
 10
517.750916
 20
388.202484
 10
517.797241
 20
387.102448
 10
517.843994
 20
386.00238
 10
517.89093
 20
384.902435
 10
517.938782
 20
383.802795
 10
517.989075
 20
382.703705
 10
518.045532
 20
381.605591
 10
518.112976
 20
380.509125
 10
518.196838
 20
379.415466
 10
518.302795
 20
378.326233
 10
518.43689
 20
377.244202
 10
518.605347
 20
376.173065
 10
518.814819
 20
375.118469
 10
519.071777
 20
374.087189
 10
519.382568
 20
373.088196
 10
519.752075
 20
372.132629
 10
520.181824
 20
371.231262
 10
520.664734
 20
370.386505
 10
521.191162
 20
369.595337
 10
521.751648
 20
368.851471
 10
522.339905
 20
368.149658
 10
522.950745
 20
367.485077
 10
523.579834
 20
366.853851
 10
524.224792
 20
366.253784
 10
524.883423
 20
365.682831
 10
525.553955
 20
365.138977
 10
526.234863
 20
364.620178
 10
526.924744
 20
364.123596
 10
527.621887
 20
363.645996
 10
528.325073
 20
363.183899
 10
529.03302
 20
362.733765
 10
529.74469
 20
362.292023
 10
530.458801
 20
361.855133
 10
531.174377
 20
361.419647
 10
531.890869
 20
360.981659
  0
LWPOLYLINE
  5
DE
330
D9
100
AcDbEntity
  8
0
  6
Continuous
 62
     0
370
     0
100
AcDbPolyline
 90
      180
 70
     0
 43
0.0
 10
536.17157
 20
357.990417
 10
535.466431
 20
358.532532
 10
534.752319
 20
359.050323
 10
534.030884
 20
359.547424
 10
533.303589
 20
360.027466
 10
532.572144
 20
360.493988
 10
531.837891
 20
360.950684
 10
531.10199
 20
361.401276
 10
530.365662
 20
361.849548
 10
529.629944
 20
362.299255
 10
528.895996
 20
362.75415
 10
528.165161
 20
363.218079
 10
527.438782
 20
363.695038
 10
526.718323
 20
364.188965
 10
526.005249
 20
364.703583
 10
525.30127
 20
365.241943
 10
524.608215
 20
365.806946
 10
523.927917
 20
366.401459
 10
523.262634
 20
367.027802
 10
522.614807
 20
367.687744
 10
521.987549
 20
368.383728
 10
521.385742
 20
369.120758
 10
520.815002
 20
369.904327
 10
520.283569
 20
370.740295
 10
519.802979
 20
371.634857
 10
519.383789
 20
372.589447
 10
519.028931
 20
373.595398
 10
518.73584
 20
374.641602
 10
518.496948
 20
375.716339
 10
518.304932
 20
376.811462
 10
518.152649
 20
377.920654
 10
518.03302
 20
379.039062
 10
517.938904
 20
380.162628
 10
517.864258
 20
381.289551
 10
517.803223
 20
382.418732
 10
517.75
 20
383.549133
 10
517.699768
 20
384.679962
 10
517.651184
 20
385.811157
 10
517.603333
 20
386.942657
 10
517.55603
 20
388.074249
 10
517.509033
 20
389.205719
 10
517.462891
 20
390.337158
 10
517.417786
 20
391.468506
 10
517.373596
 20
392.599792
 10
517.330078
 20
393.731049
 10
517.287048
 20
394.862274
 10
517.244263
 20
395.9935
 10
517.201477
 20
397.124725
 10
517.158569
 20
398.255981
 10
517.11554
 20
399.387268
 10
517.072205
 20
400.518585
 10
517.028503
 20
401.649994
 10
516.984436
 20
402.781464
 10
516.93988
 20
403.912994
 10
516.894897
 20
405.044617
 10
516.849365
 20
406.17627
 10
516.803467
 20
407.308014
 10
516.757019
 20
408.439789
 10
516.710144
 20
409.571594
 10
516.662781
 20
410.703461
 10
516.614929
 20
411.835327
 10
516.56665
 20
412.967224
 10
516.517944
 20
414.099152
 10
516.46875
 20
415.231079
 10
516.419128
 20
416.363037
 10
516.36908
 20
417.494965
 10
516.318542
 20
418.626892
 10
516.267578
 20
419.75885
 10
516.216187
 20
420.890747
 10
516.164246
 20
422.022675
 10
516.111877
 20
423.154541
 10
516.059021
 20
424.286407
 10
516.005676
 20
425.418243
 10
515.951843
 20
426.550079
 10
515.897522
 20
427.681885
 10
515.842712
 20
428.81366
 10
515.787415
 20
429.945404
 10
515.731628
 20
431.077148
 10
515.675293
 20
432.208862
 10
515.618469
 20
433.340546
 10
515.561157
 20
434.472229
 10
515.503296
 20
435.603851
 10
515.444946
 20
436.735474
 10
515.386108
 20
437.867065
 10
515.326721
 20
438.998627
 10
515.266846
 20
440.130157
 10
515.20636
 20
441.261688
 10
515.145447
 20
442.393158
 10
515.083923
 20
443.524628
 10
515.021912
 20
444.656067
 10
514.959351
 20
445.787476
 10
514.89624
 20
446.918854
 10
514.832642
 20
448.050171
 10
514.768433
 20
449.181488
 10
514.703735
 20
450.312775
 10
514.638428
 20
451.444031
 10
514.572571
 20
452.575256
 10
514.506165
 20
453.706451
 10
514.439209
 20
454.837616
 10
514.371704
 20
455.96875
 10
514.303589
 20
457.099854
 10
514.234924
 20
458.230927
 10
514.16571
 20
459.361938
 10
514.095886
 20
460.49295
 10
514.025452
 20
461.623901
 10
513.954468
 20
462.754852
 10
513.882874
 20
463.885742
 10
513.81073
 20
465.016602
 10
513.737976
 20
466.14743
 10
513.664551
 20
467.278229
 10
513.590576
 20
468.408966
 10
513.515991
 20
469.539703
 10
513.440796
 20
470.67038
 10
513.36499
 20
471.800995
 10
513.288513
 20
472.93161
 10
513.211487
 20
474.062164
 10
513.133789
 20
475.192688
 10
513.055481
 20
476.323181
 10
512.976562
 20
477.453613
 10
512.897034
 20
478.584045
 10
512.816895
 20
479.714386
 10
512.736084
 20
480.844727
 10
512.654663
 20
481.975006
 10
512.572632
 20
483.105255
 10
512.489929
 20
484.235443
 10
512.406616
 20
485.365601
 10
512.322632
 20
486.495697
 10
512.237976
 20
487.625732
 10
512.15271
 20
488.755737
 10
512.066772
 20
489.885681
 10
511.980194
 20
491.015594
 10
511.892914
 20
492.145416
 10
511.804993
 20
493.275208
 10
511.71637
 20
494.404907
 10
511.627045
 20
495.534546
 10
511.536957
 20
496.664124
 10
511.446075
 20
497.79364
 10
511.35437
 20
498.923065
 10
511.261932
 20
500.052399
 10
511.168701
 20
501.181671
 10
511.074738
 20
502.310883
 10
510.980042
 20
503.440002
 10
510.884674
 20
504.569061
 10
510.788635
 20
505.69809
 10
510.691956
 20
506.827026
 10
510.594666
 20
507.955933
 10
510.496704
 20
509.084808
 10
510.39798
 20
510.213562
 10
510.298706
 20
511.342285
 10
510.200226
 20
512.471008
 10
510.104187
 20
513.599915
 10
510.012115
 20
514.729187
 10
509.925537
 20
515.859009
 10
509.84671
 20
516.989502
 10
509.782532
 20
518.120789
 10
509.747375
 20
519.252747
 10
509.760895
 20
520.384949
 10
509.841797
 20
521.514282
 10
510.00296
 20
522.635681
 10
510.248077
 20
523.741577
 10
510.573395
 20
524.826355
 10
510.971313
 20
525.886597
 10
511.437958
 20
526.91864
 10
511.969666
 20
527.918701
 10
512.563538
 20
528.883301
 10
513.217163
 20
529.808472
 10
513.928406
 20
530.689758
 10
514.695496
 20
531.522705
 10
515.517029
 20
532.302368
 10
516.391907
 20
533.022583
 10
517.318298
 20
533.675232
 10
518.291199
 20
534.256287
 10
519.302551
 20
534.767273
 10
520.343323
 20
535.215332
 10
521.40509
 20
535.610291
 10
522.48175
 20
535.962036
 10
523.568909
 20
536.280701
 10
524.662659
 20
536.57666
 10
525.759827
 20
536.859985
 10
526.862915
 20
537.141968
  0
ELLIPSE
  5
DF
330
D9
100
AcDbEntity
  8
0
  6
Continuous
 62
     0
370
     0
100
AcDbEllipse
 10
536.1716
 20
357.83331
 30
0.0
 11
0.1237666696999316
 21
0.1571044641742559
 31
0.0
210
0.0
220
0.0
230
1.0
 40
0.617769
 41
6.283184686001317
 42
7.188966325115552
  0
LINE
  5
E0
330
D9
100
AcDbEntity
  8
0
  6
Continuous
 62
     0
370
     0
100
AcDbLine
 10
536.485936
 20
357.597664
 30
0.0
 11
536.285936
 21
357.597664
 31
0.0
  0
LINE
  5
E1
330
D9
100
AcDbEntity
  8
0
  6
Continuous
 62
     0
370
     0
100
AcDbLine
 10
536.285936
 20
357.597664
 30
0.0
 11
536.285936
 21
355.838953
 31
0.0
  0
LINE
  5
E2
330
D9
100
AcDbEntity
  8
0
  6
Continuous
 62
     0
370
    30
100
AcDbLine
 10
536.285936
 20
355.838953
 30
0.0
 11
536.485936
 21
355.838953
 31
0.0
  0
LINE
  5
E3
330
D9
100
AcDbEntity
  8
0
  6
Continuous
 62
     0
370
    30
100
AcDbLine
 10
536.485936
 20
355.838953
 30
0.0
 11
536.485936
 21
357.597664
 31
0.0
  0
LINE
  5
E4
330
D9
100
AcDbEntity
  8
0
  6
Continuous
 62
     0
370
     0
100
AcDbLine
 10
481.685981
 20
357.597679
 30
0.0
 11
481.485981
 21
357.597679
 31
0.0
  0
LINE
  5
E5
330
D9
100
AcDbEntity
  8
0
  6
Continuous
 62
     0
370
    30
100
AcDbLine
 10
481.485981
 20
357.597679
 30
0.0
 11
481.485981
 21
355.838953
 31
0.0
  0
LINE
  5
E6
330
D9
100
AcDbEntity
  8
0
  6
Continuous
 62
     0
370
    30
100
AcDbLine
 10
481.485981
 20
355.838953
 30
0.0
 11
481.685981
 21
355.838953
 31
0.0
  0
LINE
  5
E7
330
D9
100
AcDbEntity
  8
0
  6
Continuous
 62
     0
370
     0
100
AcDbLine
 10
481.685981
 20
355.838953
 30
0.0
 11
481.685981
 21
357.597679
 31
0.0
  0
LWPOLYLINE
  5
E8
330
D9
100
AcDbEntity
  8
0
  6
Continuous
 62
     0
370
    30
100
AcDbPolyline
 90
      198
 70
     0
 43
0.0
 10
486.593262
 20
361.427582
 10
487.312012
 20
361.898529
 10
488.03064
 20
362.368286
 10
488.748535
 20
362.839081
 10
489.465027
 20
363.313049
 10
490.180054
 20
363.790253
 10
490.89325
 20
364.271362
 10
491.603058
 20
364.760223
 10
492.307587
 20
365.26181
 10
493.004547
 20
365.781403
 10
493.691437
 20
366.324371
 10
494.365051
 20
366.896545
 10
495.021393
 20
367.504181
 10
495.655823
 20
368.153625
 10
496.262512
 20
368.851196
 10
496.834259
 20
369.603119
 10
497.362335
 20
370.414978
 10
497.8367
 20
371.289734
 10
498.247955
 20
372.22699
 10
498.593536
 20
373.217743
 10
498.877686
 20
374.24939
 10
499.106812
 20
375.310974
 10
499.287598
 20
376.392578
 10
499.426605
 20
377.488251
 10
499.530396
 20
378.593201
 10
499.604828
 20
379.704132
 10
499.655426
 20
380.818909
 10
499.687073
 20
381.935852
 10
499.704071
 20
383.053955
 10
499.710114
 20
384.172455
 10
499.707153
 20
385.291138
 10
499.696747
 20
386.409912
 10
499.679901
 20
387.528748
 10
499.656891
 20
388.647552
 10
499.62793
 20
389.766266
 10
499.593384
 20
390.884857
 10
499.553711
 20
392.003326
 10
499.509338
 20
393.121613
 10
499.460724
 20
394.239716
 10
499.408386
 20
395.357635
 10
499.352753
 20
396.475403
 10
499.294403
 20
397.593018
 10
499.233856
 20
398.710541
 10
499.171692
 20
399.828003
 10
499.108429
 20
400.945435
 10
499.044617
 20
402.062897
 10
498.980743
 20
403.180389
 10
498.917328
 20
404.297974
 10
498.854645
 20
405.415649
 10
498.792725
 20
406.533447
 10
498.731659
 20
407.651337
 10
498.671387
 20
408.769318
 10
498.611847
 20
409.88736
 10
498.552917
 20
411.005493
 10
498.494568
 20
412.123657
 10
498.436798
 20
413.241913
 10
498.379578
 20
414.360199
 10
498.322906
 20
415.478577
 10
498.266815
 20
416.596985
 10
498.211243
 20
417.715424
 10
498.156189
 20
418.833954
 10
498.101654
 20
419.952515
 10
498.047577
 20
421.071106
 10
497.993988
 20
422.189758
 10
497.940826
 20
423.308441
 10
497.888062
 20
424.427155
 10
497.835724
 20
425.545898
 10
497.783783
 20
426.664673
 10
497.732178
 20
427.783508
 10
497.680939
 20
428.902344
 10
497.630035
 20
430.02121
 10
497.579437
 20
431.140106
 10
497.529144
 20
432.259003
 10
497.479156
 20
433.37793
 10
497.429413
 20
434.496887
 10
497.379883
 20
435.615845
 10
497.330627
 20
436.734833
 10
497.281555
 20
437.853821
 10
497.232697
 20
438.972809
 10
497.18399
 20
440.091827
 10
497.135468
 20
441.210846
 10
497.087067
 20
442.329865
 10
497.038788
 20
443.448914
 10
496.990631
 20
444.567932
 10
496.942566
 20
445.686981
 10
496.894562
 20
446.806
 10
496.846619
 20
447.925049
 10
496.798737
 20
449.044067
 10
496.750854
 20
450.163116
 10
496.703003
 20
451.282135
 10
496.655121
 20
452.401154
 10
496.607239
 20
453.520172
 10
496.559326
 20
454.63916
 10
496.511322
 20
455.758148
 10
496.463287
 20
456.877136
 10
496.415131
 20
457.996124
 10
496.366882
 20
459.115051
 10
496.318481
 20
460.234009
 10
496.269928
 20
461.352905
 10
496.221222
 20
462.471832
 10
496.172272
 20
463.590698
 10
496.123138
 20
464.709564
 10
496.07373
 20
465.8284
 10
496.024048
 20
466.947205
 10
495.97406
 20
468.06601
 10
495.923767
 20
469.184753
 10
495.873077
 20
470.303497
 10
495.82196
 20
471.42218
 10
495.770416
 20
472.540863
 10
495.718414
 20
473.659515
 10
495.665924
 20
474.778107
 10
495.612854
 20
475.896698
 10
495.559265
 20
477.015228
 10
495.505035
 20
478.133728
 10
495.450195
 20
479.252167
 10
495.394714
 20
480.370605
 10
495.338531
 20
481.488953
 10
495.281616
 20
482.6073
 10
495.223969
 20
483.725555
 10
495.165527
 20
484.843781
 10
495.106293
 20
485.961945
 10
495.046204
 20
487.080078
 10
494.98526
 20
488.19812
 10
494.923401
 20
489.316101
 10
494.860596
 20
490.434052
 10
494.796844
 20
491.55191
 10
494.732056
 20
492.669708
 10
494.66629
 20
493.787415
 10
494.599426
 20
494.90509
 10
494.531494
 20
496.022675
 10
494.462402
 20
497.140167
 10
494.392181
 20
498.257599
 10
494.320801
 20
499.374969
 10
494.248169
 20
500.492249
 10
494.174316
 20
501.609467
 10
494.099182
 20
502.726593
 10
494.022736
 20
503.843658
 10
493.944946
 20
504.960632
 10
493.865814
 20
506.077515
 10
493.785278
 20
507.194336
 10
493.703308
 20
508.311035
 10
493.619873
 20
509.427612
 10
493.534943
 20
510.544006
 10
493.448547
 20
511.660187
 10
493.360687
 20
512.776123
 10
493.27121
 20
513.891968
 10
493.179932
 20
515.007874
 10
493.087189
 20
516.124084
 10
492.995148
 20
517.240967
 10
492.909851
 20
518.359253
 10
492.8367
 20
519.479309
 10
492.779236
 20
520.600952
 10
492.741089
 20
521.724121
 10
492.72702
 20
522.848389
 10
492.740356
 20
523.973145
 10
492.782379
 20
525.097595
 10
492.854706
 20
526.220764
 10
492.959106
 20
527.341675
 10
493.097076
 20
528.459229
 10
493.270142
 20
529.572083
 10
493.479675
 20
530.678833
 10
493.72699
 20
531.777832
 10
494.012695
 20
532.867615
 10
494.336975
 20
533.946533
 10
494.699402
 20
535.013245
 10
495.098938
 20
536.06665
 10
495.534454
 20
537.105652
 10
496.004425
 20
538.129456
 10
496.50766
 20
539.137085
 10
497.043365
 20
540.127747
 10
497.610779
 20
541.100525
 10
498.209259
 20
542.054504
 10
498.838135
 20
542.98877
 10
499.496826
 20
543.902222
 10
500.184967
 20
544.793762
 10
500.902069
 20
545.66217
 10
501.647736
 20
546.506287
 10
502.421417
 20
547.325073
 10
503.22229
 20
548.117676
 10
504.049744
 20
548.882935
 10
504.90332
 20
549.619263
 10
505.782684
 20
550.324585
 10
506.687744
 20
550.996338
 10
507.617859
 20
551.632629
 10
508.57135
 20
552.232849
 10
509.546326
 20
552.797119
 10
510.540527
 20
553.326355
 10
511.551727
 20
553.821777
 10
512.577576
 20
554.28479
 10
513.615662
 20
554.718994
 10
514.663574
 20
555.128601
 10
515.718994
 20
555.517578
 10
516.780823
 20
555.887329
 10
517.848755
 20
556.237366
 10
518.922729
 20
556.567139
 10
520.002563
 20
556.875977
 10
521.088074
 20
557.163391
 10
522.179382
 20
557.428772
  0
ELLIPSE
  5
E9
330
D9
100
AcDbEntity
  8
0
  6
Continuous
 62
     0
370
     0
100
AcDbEllipse
 10
481.80028
 20
357.833294
 30
0.0
 11
0.1237880758241939
 21
-0.1570875980968505
 31
0.0
210
0.0
220
0.0
230
1.0
 40
0.61762
 41
2.235556655411998
 42
3.141592619187946
  0
LWPOLYLINE
  5
EA
330
D9
100
AcDbEntity
  8
0
  6
Continuous
 62
     0
370
     0
100
AcDbPolyline
 90
      206
 70
     0
 43
0.0
 10
522.227356
 20
557.220947
 10
521.155823
 20
556.930359
 10
520.082031
 20
556.636108
 10
519.008667
 20
556.333313
 10
517.938538
 20
556.017029
 10
516.874451
 20
555.682556
 10
515.818298
 20
555.326416
 10
514.771118
 20
554.947083
 10
513.733704
 20
554.542969
 10
512.707031
 20
554.112732
 10
511.6922
 20
553.654663
 10
510.691315
 20
553.166443
 10
509.706879
 20
552.645447
 10
508.741272
 20
552.090332
 10
507.796814
 20
551.5
 10
506.875397
 20
550.874268
 10
505.97876
 20
550.213257
 10
505.107544
 20
549.518921
 10
504.26181
 20
548.794006
 10
503.441772
 20
548.04071
 10
502.647919
 20
547.260437
 10
501.880707
 20
546.454346
 10
501.140625
 20
545.623169
 10
500.428162
 20
544.767822
 10
499.743958
 20
543.889465
 10
499.088593
 20
542.989136
 10
498.462677
 20
542.067932
 10
497.866699
 20
541.126953
 10
497.301117
 20
540.16748
 10
496.766479
 20
539.190552
 10
496.263489
 20
538.197144
 10
495.793365
 20
537.187927
 10
495.357239
 20
536.163513
 10
494.956238
 20
535.124634
 10
494.59137
 20
534.072388
 10
494.26358
 20
533.007996
 10
493.973572
 20
531.932617
 10
493.721313
 20
530.847839
 10
493.506744
 20
529.755127
 10
493.328522
 20
528.655884
 10
493.184998
 20
527.551575
 10
493.074585
 20
526.443481
 10
492.996002
 20
525.332642
 10
492.948029
 20
524.220032
 10
492.928925
 20
523.106567
 10
492.936859
 20
521.992981
 10
492.969086
 20
520.8797
 10
493.021851
 20
519.767151
 10
493.091125
 20
518.655457
 10
493.172546
 20
517.544556
 10
493.26181
 20
516.434265
 10
493.354553
 20
515.32428
 10
493.446564
 20
514.214172
 10
493.536163
 20
513.103821
 10
493.623779
 20
511.993317
 10
493.709839
 20
510.88269
 10
493.794495
 20
509.772003
 10
493.877747
 20
508.661194
 10
493.959656
 20
507.550323
 10
494.040222
 20
506.439392
 10
494.119446
 20
505.328339
 10
494.197357
 20
504.217224
 10
494.273926
 20
503.106018
 10
494.349182
 20
501.99472
 10
494.423157
 20
500.883362
 10
494.49585
 20
499.771881
 10
494.567322
 20
498.660339
 10
494.637604
 20
497.548706
 10
494.706696
 20
496.437012
 10
494.774628
 20
495.325256
 10
494.841431
 20
494.213409
 10
494.907135
 20
493.101471
 10
494.971802
 20
491.989502
 10
495.0354
 20
490.877441
 10
495.098053
 20
489.76535
 10
495.159729
 20
488.653198
 10
495.22052
 20
487.540985
 10
495.280426
 20
486.428741
 10
495.339508
 20
485.316437
 10
495.397797
 20
484.204071
 10
495.455322
 20
483.091705
 10
495.512146
 20
481.979279
 10
495.568237
 20
480.866821
 10
495.623688
 20
479.754364
 10
495.678467
 20
478.641846
 10
495.732605
 20
477.529297
 10
495.786194
 20
476.416718
 10
495.839172
 20
475.304108
 10
495.891632
 20
474.191498
 10
495.943604
 20
473.078827
 10
495.995087
 20
471.966156
 10
496.046112
 20
470.853455
 10
496.096741
 20
469.740723
 10
496.147003
 20
468.62796
 10
496.19693
 20
467.515198
 10
496.246521
 20
466.402405
 10
496.295837
 20
465.289581
 10
496.34491
 20
464.176758
 10
496.393738
 20
463.063904
 10
496.442352
 20
461.95105
 10
496.490753
 20
460.838165
 10
496.539001
 20
459.72525
 10
496.587097
 20
458.612335
 10
496.635071
 20
457.49939
 10
496.682922
 20
456.386475
 10
496.730682
 20
455.273499
 10
496.778381
 20
454.160553
 10
496.82605
 20
453.047577
 10
496.873657
 20
451.934601
 10
496.921295
 20
450.821594
 10
496.968933
 20
449.708618
 10
497.016571
 20
448.595612
 10
497.06427
 20
447.482605
 10
497.112
 20
446.369598
 10
497.159821
 20
445.256592
 10
497.207703
 20
444.143555
 10
497.255707
 20
443.030548
 10
497.303802
 20
441.917542
 10
497.352051
 20
440.804535
 10
497.400421
 20
439.691528
 10
497.448975
 20
438.578522
 10
497.497681
 20
437.465546
 10
497.546631
 20
436.352539
 10
497.595764
 20
435.239563
 10
497.645111
 20
434.126617
 10
497.694733
 20
433.013672
 10
497.744598
 20
431.900726
 10
497.794739
 20
430.787811
 10
497.845215
 20
429.674927
 10
497.895966
 20
428.562073
 10
497.947052
 20
427.449219
 10
497.998505
 20
426.336395
 10
498.050323
 20
425.223602
 10
498.102509
 20
424.11087
 10
498.15509
 20
422.998138
 10
498.208099
 20
421.885468
 10
498.261566
 20
420.772797
 10
498.315491
 20
419.660217
 10
498.369873
 20
418.547668
 10
498.424774
 20
417.43515
 10
498.480164
 20
416.322693
 10
498.536102
 20
415.210297
 10
498.592529
 20
414.097931
 10
498.649536
 20
412.985657
 10
498.707062
 20
411.873413
 10
498.765137
 20
410.76123
 10
498.823761
 20
409.649139
 10
498.883057
 20
408.537109
 10
498.943054
 20
407.42514
 10
499.003906
 20
406.313324
 10
499.065674
 20
405.201599
 10
499.128174
 20
404.089966
 10
499.191193
 20
402.978455
 10
499.254486
 20
401.866974
 10
499.317749
 20
400.755554
 10
499.380493
 20
399.644135
 10
499.442108
 20
398.532654
 10
499.502075
 20
397.421082
 10
499.559814
 20
396.309326
 10
499.614838
 20
395.197418
 10
499.666595
 20
394.085297
 10
499.71463
 20
392.972931
 10
499.758423
 20
391.860291
 10
499.797516
 20
390.747498
 10
499.831482
 20
389.634552
 10
499.859863
 20
388.521545
 10
499.882172
 20
387.408478
 10
499.898163
 20
386.295441
 10
499.907532
 20
385.182434
 10
499.909424
 20
384.069611
 10
499.902252
 20
382.957306
 10
499.883911
 20
381.845795
 10
499.8508
 20
380.735229
 10
499.798615
 20
379.62619
 10
499.722229
 20
378.520782
 10
499.615936
 20
377.42215
 10
499.473999
 20
376.333557
 10
499.290314
 20
375.258972
 10
499.057709
 20
374.204651
 10
498.769165
 20
373.179657
 10
498.418365
 20
372.196075
 10
498.001373
 20
371.265869
 10
497.520935
 20
370.397217
 10
496.986603
 20
369.590576
 10
496.409454
 20
368.843079
 10
495.798248
 20
368.149536
 10
495.160187
 20
367.503754
 10
494.501282
 20
366.899231
 10
493.82608
 20
366.329803
 10
493.138611
 20
365.789276
 10
492.441895
 20
365.272034
 10
491.738403
 20
364.772797
 10
491.030304
 20
364.286285
 10
490.319489
 20
363.80722
 10
489.607147
 20
363.33252
 10
488.893524
 20
362.861389
 10
488.178925
 20
362.392822
 10
487.463867
 20
361.925262
 10
486.74884
 20
361.457092
 10
486.034424
 20
360.986542
 10
485.321259
 20
360.511719
 10
484.609985
 20
360.030701
 10
483.901367
 20
359.541351
 10
483.196167
 20
359.041412
 10
482.496002
 20
358.526947
 10
481.800293
 20
357.990356
  0
LINE
  5
EB
330
D9
100
AcDbEntity
  8
0
  6
Continuous
 62
     0
370
     0
100
AcDbLine
 10
536.171275
 20
357.990421
 30
0.0
 11
481.80028
 21
357.990371
 31
0.0
  0
LINE
  5
EC
330
D9
100
AcDbEntity
  8
0
  6
Continuous
 62
     0
370
    30
100
AcDbLine
 10
536.485811
 20
357.597664
 30
0.0
 11
536.295183
 21
357.990303
 31
0.0
  0
LINE
  5
ED
330
D9
100
AcDbEntity
  8
0
  6
Continuous
 62
     0
370
     0
100
AcDbLine
 10
481.685981
 20
357.597679
 30
0.0
 11
481.800274
 21
357.990367
 31
0.0
  0
LINE
  5
EE
330
D9
100
AcDbEntity
  8
0
  6
Continuous
 62
     0
370
     0
100
AcDbLine
 10
536.285936
 20
357.597643
 30
0.0
 11
481.685981
 21
357.597673
 31
0.0
  0
LINE
  5
EF
330
D9
100
AcDbEntity
  8
0
  6
Continuous
 62
     0
370
     0
100
AcDbLine
 10
536.171334
 20
357.990343
 30
0.0
 11
536.285811
 21
357.597664
 31
0.0
  0
LINE
  5
F0
330
D9
100
AcDbEntity
  8
0
  6
Continuous
 62
     0
370
    30
100
AcDbLine
 10
481.685981
 20
355.838953
 30
0.0
 11
536.285936
 21
355.838953
 31
0.0
  0
LINE
  5
F1
330
D9
100
AcDbEntity
  8
0
  6
Continuous
 62
     0
370
    30
100
AcDbLine
 10
481.676486
 20
357.990377
 30
0.0
 11
481.485981
 21
357.597679
 31
0.0
  0
ENDBLK
  5
F3
330
D9
100
AcDbEntity
  8
0
100
AcDbBlockEnd
  0
BLOCK
  5
11F
330
F5
100
AcDbEntity
  8
0
100
AcDbBlockBegin
  2
d
 70
     0
 10
276.227936
 20
90.540215
 30
0.0
  3
d
  1

  0
LINE
  5
F6
330
F5
100
AcDbEntity
  8
0
  6
Continuous
 62
     0
370
    30
100
AcDbLine
 10
498.948829
 20
259.764121
 30
0.0
 11
498.777979
 21
259.848396
 31
0.0
  0
LINE
  5
F7
330
F5
100
AcDbEntity
  8
0
  6
Continuous
 62
     0
370
    30
100
AcDbLine
 10
517.917613
 20
270.715623
 30
0.0
 11
498.948829
 21
259.764121
 31
0.0
  0
LINE
  5
F8
330
F5
100
AcDbEntity
  8
0
  6
Continuous
 62
     0
370
    30
100
AcDbLine
 10
518.029037
 20
270.962868
 30
0.0
 11
517.917613
 21
270.715623
 31
0.0
  0
LINE
  5
F9
330
F5
100
AcDbEntity
  8
0
  6
Continuous
 62
     0
370
    30
100
AcDbLine
 10
515.722146
 20
289.810476
 30
0.0
 11
518.029037
 21
270.962868
 31
0.0
  0
LINE
  5
FA
330
F5
100
AcDbEntity
  8
0
  6
Continuous
 62
     0
370
    30
100
AcDbLine
 10
515.547159
 20
289.918285
 30
0.0
 11
515.722147
 21
289.810477
 31
0.0
  0
LINE
  5
FB
330
F5
100
AcDbEntity
  8
0
  6
Continuous
 62
     0
370
    30
100
AcDbLine
 10
494.636018
 20
277.845376
 30
0.0
 11
515.547159
 21
289.918285
 31
0.0
  0
LINE
  5
FC
330
F5
100
AcDbEntity
  8
0
  6
Continuous
 62
     0
370
    30
100
AcDbLine
 10
494.528871
 20
277.57471
 30
0.0
 11
494.636018
 21
277.845376
 31
0.0
  0
LINE
  5
FD
330
F5
100
AcDbEntity
  8
0
  6
Continuous
 62
     0
370
    30
100
AcDbLine
 10
498.777979
 20
259.848396
 30
0.0
 11
494.528872
 21
277.574711
 31
0.0
  0
LWPOLYLINE
  5
FE
330
F5
100
AcDbEntity
  8
0
  6
Continuous
 62
     0
370
     0
100
AcDbPolyline
 90
      181
 70
     0
 43
0.0
 10
534.296143
 20
126.376778
 10
533.431763
 20
126.762428
 10
532.558105
 20
127.132843
 10
531.676636
 20
127.489891
 10
530.788757
 20
127.83548
 10
529.895935
 20
128.171494
 10
528.999573
 20
128.499832
 10
528.100891
 20
128.822418
 10
527.200806
 20
129.141205
 10
526.300537
 20
129.45813
 10
525.401001
 20
129.775162
 10
524.503296
 20
130.094238
 10
523.608521
 20
130.417389
 10
522.717896
 20
130.746719
 10
521.832703
 20
131.084335
 10
520.954224
 20
131.432373
 10
520.08374
 20
131.792648
 10
519.222839
 20
132.166885
 10
518.372986
 20
132.556778
 10
517.535706
 20
132.963867
 10
516.712891
 20
133.389236
 10
515.906494
 20
133.833832
 10
515.118469
 20
134.298721
 10
514.352173
 20
134.785843
 10
513.612
 20
135.297714
 10
512.903442
 20
135.837357
 10
512.234192
 20
136.40834
 10
511.613464
 20
137.014328
 10
511.052063
 20
137.657455
 10
510.559143
 20
138.337906
 10
510.136475
 20
139.051514
 10
509.780518
 20
139.79187
 10
509.48526
 20
140.553268
 10
509.24408
 20
141.330414
 10
509.050446
 20
142.118423
 10
508.897858
 20
142.914627
 10
508.779907
 20
143.717041
 10
508.690277
 20
144.523849
 10
508.623352
 20
145.334183
 10
508.573853
 20
146.14743
 10
508.53656
 20
146.963058
 10
508.507233
 20
147.780838
 10
508.482819
 20
148.600571
 10
508.461639
 20
149.422073
 10
508.44339
 20
150.245148
 10
508.428101
 20
151.069534
 10
508.415863
 20
151.895065
 10
508.406525
 20
152.721603
 10
508.399994
 20
153.549072
 10
508.396088
 20
154.377365
 10
508.394592
 20
155.206436
 10
508.39502
 20
156.036209
 10
508.396942
 20
156.866577
 10
508.399994
 20
157.697479
 10
508.403839
 20
158.528824
 10
508.408264
 20
159.360504
 10
508.412964
 20
160.192429
 10
508.417694
 20
161.02449
 10
508.422211
 20
161.856628
 10
508.426392
 20
162.688782
 10
508.430054
 20
163.520905
 10
508.433044
 20
164.352951
 10
508.435242
 20
165.184891
 10
508.436676
 20
166.016708
 10
508.437317
 20
166.848404
 10
508.437256
 20
167.680023
 10
508.436493
 20
168.511536
 10
508.435089
 20
169.342987
 10
508.433044
 20
170.174362
 10
508.43045
 20
171.005692
 10
508.427307
 20
171.83696
 10
508.423615
 20
172.668182
 10
508.419464
 20
173.49939
 10
508.414764
 20
174.330551
 10
508.409576
 20
175.161682
 10
508.40387
 20
175.992783
 10
508.397644
 20
176.823853
 10
508.3909
 20
177.654907
 10
508.383606
 20
178.485931
 10
508.375824
 20
179.316925
 10
508.367462
 20
180.147903
 10
508.358612
 20
180.978851
 10
508.349213
 20
181.809799
 10
508.339264
 20
182.640717
 10
508.328796
 20
183.471619
 10
508.31781
 20
184.302521
 10
508.306274
 20
185.133423
 10
508.29425
 20
185.964325
 10
508.281738
 20
186.795242
 10
508.268707
 20
187.62616
 10
508.255157
 20
188.457092
 10
508.24115
 20
189.288055
 10
508.226624
 20
190.119034
 10
508.211639
 20
190.950043
 10
508.196198
 20
191.781082
 10
508.180267
 20
192.612152
 10
508.163849
 20
193.443268
 10
508.147003
 20
194.274429
 10
508.129669
 20
195.105621
 10
508.111908
 20
195.936874
 10
508.093658
 20
196.768173
 10
508.074982
 20
197.599518
 10
508.055847
 20
198.430923
 10
508.036255
 20
199.26239
 10
508.016235
 20
200.093918
 10
507.995789
 20
200.925522
 10
507.974884
 20
201.757172
 10
507.953583
 20
202.588913
 10
507.931824
 20
203.420715
 10
507.909668
 20
204.252594
 10
507.887054
 20
205.084564
 10
507.864044
 20
205.916595
 10
507.840637
 20
206.748734
 10
507.816803
 20
207.580948
 10
507.792542
 20
208.413254
 10
507.767914
 20
209.245667
 10
507.742859
 20
210.078171
 10
507.717407
 20
210.910767
 10
507.691559
 20
211.743484
 10
507.665344
 20
212.576294
 10
507.638702
 20
213.409225
 10
507.611694
 20
214.242264
 10
507.58429
 20
215.075409
 10
507.556519
 20
215.908691
 10
507.528381
 20
216.742096
 10
507.499847
 20
217.575607
 10
507.470947
 20
218.409271
 10
507.441681
 20
219.243057
 10
507.412048
 20
220.076981
 10
507.38205
 20
220.911041
 10
507.351685
 20
221.745239
 10
507.320953
 20
222.57959
 10
507.289886
 20
223.414078
 10
507.258453
 20
224.248734
 10
507.226685
 20
225.083527
 10
507.19455
 20
225.918488
 10
507.162079
 20
226.753601
 10
507.129272
 20
227.588882
 10
507.0961
 20
228.424332
 10
507.062622
 20
229.259949
 10
507.028809
 20
230.095734
 10
506.994629
 20
230.931686
 10
506.960144
 20
231.767822
 10
506.925354
 20
232.604141
 10
506.890198
 20
233.440643
 10
506.854736
 20
234.277344
 10
506.81897
 20
235.114212
 10
506.782867
 20
235.951279
 10
506.74646
 20
236.788544
 10
506.709747
 20
237.626007
 10
506.672729
 20
238.463684
 10
506.635376
 20
239.301544
 10
506.597748
 20
240.139618
 10
506.559814
 20
240.977905
 10
506.521606
 20
241.816422
 10
506.483093
 20
242.655151
 10
506.444275
 20
243.49411
 10
506.405182
 20
244.333313
 10
506.365814
 20
245.172745
 10
506.326172
 20
246.012421
 10
506.286255
 20
246.852325
 10
506.246063
 20
247.69249
 10
506.205627
 20
248.532883
 10
506.164886
 20
249.373505
 10
506.123901
 20
250.214355
 10
506.082703
 20
251.05542
 10
506.041229
 20
251.896698
 10
505.999512
 20
252.73822
 10
505.95755
 20
253.580017
 10
505.915283
 20
254.422104
 10
505.872803
 20
255.264511
 10
505.830261
 20
256.107117
 10
505.788116
 20
256.949768
 10
505.74704
 20
257.792114
 10
505.707886
 20
258.633606
 10
505.671478
 20
259.473572
 10
505.638245
 20
260.31134
 10
505.609131
 20
261.146088
 10
505.588226
 20
261.975342
 10
505.582123
 20
262.795135
 10
505.599457
 20
263.603821
  0
LWPOLYLINE
  5
FF
330
F5
100
AcDbEntity
  8
0
  6
Continuous
 62
     0
370
     0
100
AcDbPolyline
 90
      157
 70
     0
 43
0.0
 10
490.585266
 20
260.246521
 10
490.024109
 20
259.872925
 10
489.508636
 20
259.429077
 10
489.0401
 20
258.918915
 10
488.620544
 20
258.345184
 10
488.252319
 20
257.710327
 10
487.937775
 20
257.016693
 10
487.679596
 20
256.266418
 10
487.482239
 20
255.460663
 10
487.351257
 20
254.600357
 10
487.287903
 20
253.689667
 10
487.283417
 20
252.738541
 10
487.32312
 20
251.75827
 10
487.391083
 20
250.759811
 10
487.473175
 20
249.752304
 10
487.561615
 20
248.740936
 10
487.654633
 20
247.726837
 10
487.750793
 20
246.710831
 10
487.848419
 20
245.693771
 10
487.946442
 20
244.676178
 10
488.043823
 20
243.658524
 10
488.140137
 20
242.641006
 10
488.235535
 20
241.623596
 10
488.330139
 20
240.606262
 10
488.424011
 20
239.58902
 10
488.51712
 20
238.571899
 10
488.609436
 20
237.554932
 10
488.700989
 20
236.538147
 10
488.791809
 20
235.521561
 10
488.881897
 20
234.505173
 10
488.971252
 20
233.488998
 10
489.059937
 20
232.473038
 10
489.147919
 20
231.457306
 10
489.23526
 20
230.441788
 10
489.321899
 20
229.426483
 10
489.407928
 20
228.411423
 10
489.493286
 20
227.396591
 10
489.578033
 20
226.381989
 10
489.66217
 20
225.367615
 10
489.745697
 20
224.353485
 10
489.828644
 20
223.3396
 10
489.911011
 20
222.325958
 10
489.992798
 20
221.312576
 10
490.074036
 20
220.299423
 10
490.154755
 20
219.286545
 10
490.234924
 20
218.273895
 10
490.314575
 20
217.26152
 10
490.393707
 20
216.249405
 10
490.472351
 20
215.237534
 10
490.550537
 20
214.225937
 10
490.628235
 20
213.214615
 10
490.705444
 20
212.203552
 10
490.782227
 20
211.19278
 10
490.858582
 20
210.182281
 10
490.934509
 20
209.172058
 10
491.01001
 20
208.162125
 10
491.085114
 20
207.152496
 10
491.159821
 20
206.143158
 10
491.234161
 20
205.134109
 10
491.308136
 20
204.125381
 10
491.381744
 20
203.116959
 10
491.455017
 20
202.108856
 10
491.527924
 20
201.101059
 10
491.600555
 20
200.093597
 10
491.672852
 20
199.086456
 10
491.744843
 20
198.079636
 10
491.816559
 20
197.073166
 10
491.888
 20
196.067032
 10
491.959198
 20
195.061234
 10
492.030121
 20
194.055801
 10
492.1008
 20
193.050705
 10
492.171265
 20
192.045975
 10
492.241516
 20
191.041595
 10
492.311554
 20
190.037598
 10
492.381409
 20
189.033966
 10
492.45108
 20
188.030716
 10
492.520569
 20
187.027847
 10
492.589905
 20
186.02536
 10
492.659119
 20
185.023285
 10
492.72821
 20
184.021606
 10
492.79715
 20
183.020325
 10
492.866028
 20
182.019455
 10
492.934784
 20
181.018997
 10
493.003479
 20
180.018982
 10
493.072083
 20
179.019379
 10
493.140625
 20
178.020203
 10
493.209167
 20
177.021484
 10
493.277649
 20
176.023193
 10
493.3461
 20
175.02536
 10
493.414581
 20
174.027985
 10
493.483032
 20
173.031067
 10
493.551514
 20
172.034607
 10
493.620056
 20
171.03862
 10
493.688599
 20
170.043121
 10
493.757202
 20
169.048065
 10
493.825806
 20
168.053467
 10
493.89447
 20
167.059311
 10
493.963165
 20
166.065582
 10
494.03186
 20
165.072266
 10
494.100616
 20
164.079376
 10
494.169434
 20
163.086929
 10
494.238373
 20
162.094986
 10
494.307495
 20
161.103561
 10
494.376831
 20
160.112701
 10
494.446442
 20
159.122452
 10
494.516327
 20
158.132843
 10
494.586578
 20
157.14389
 10
494.657135
 20
156.155624
 10
494.728058
 20
155.168076
 10
494.799255
 20
154.181137
 10
494.870514
 20
153.194611
 10
494.941589
 20
152.208267
 10
495.012268
 20
151.221878
 10
495.082184
 20
150.235138
 10
495.151062
 20
149.24765
 10
495.218475
 20
148.259094
 10
495.284119
 20
147.269073
 10
495.347626
 20
146.277176
 10
495.408691
 20
145.282883
 10
495.46701
 20
144.285873
 10
495.522247
 20
143.286072
 10
495.574066
 20
142.283554
 10
495.62204
 20
141.278671
 10
495.665894
 20
140.271057
 10
495.705505
 20
139.259293
 10
495.741028
 20
138.240219
 10
495.772614
 20
137.20929
 10
495.800537
 20
136.162033
 10
495.824829
 20
135.094238
 10
495.845428
 20
134.002472
 10
495.862091
 20
132.884506
 10
495.874512
 20
131.739822
 10
495.88266
 20
130.57019
 10
495.886658
 20
129.381256
 10
495.886658
 20
128.182983
 10
495.883423
 20
126.986107
 10
495.878174
 20
125.798393
 10
495.872101
 20
124.623604
 10
495.865845
 20
123.463005
 10
495.859985
 20
122.317406
 10
495.854675
 20
121.187218
 10
495.849976
 20
120.072655
 10
495.845825
 20
118.973618
 10
495.842133
 20
117.889488
 10
495.838898
 20
116.819016
 10
495.836182
 20
115.760353
 10
495.834045
 20
114.711205
 10
495.832581
 20
113.668999
 10
495.831879
 20
112.631187
 10
495.832031
 20
111.595207
 10
495.832947
 20
110.558456
 10
495.834534
 20
109.518349
 10
495.836792
 20
108.472282
 10
495.839569
 20
107.41777
 10
495.842773
 20
106.352669
 10
495.846252
 20
105.27494
 10
495.849915
 20
104.179832
  0
LWPOLYLINE
  5
100
330
F5
100
AcDbEntity
  8
0
  6
Continuous
 62
     0
370
     0
100
AcDbPolyline
 90
      179
 70
     0
 43
0.0
 10
495.674896
 20
104.17984
 10
495.678223
 20
105.205849
 10
495.681061
 20
106.218895
 10
495.68338
 20
107.220657
 10
495.68512
 20
108.212776
 10
495.686279
 20
109.19693
 10
495.686798
 20
110.174965
 10
495.686707
 20
111.149048
 10
495.686066
 20
112.121376
 10
495.684906
 20
113.094131
 10
495.683258
 20
114.069504
 10
495.681152
 20
115.049675
 10
495.678711
 20
116.036812
 10
495.675964
 20
117.033081
 10
495.673004
 20
118.040321
 10
495.669922
 20
119.059647
 10
495.666901
 20
120.092033
 10
495.664032
 20
121.138397
 10
495.661316
 20
122.198723
 10
495.658813
 20
123.272415
 10
495.656342
 20
124.358925
 10
495.653198
 20
125.457863
 10
495.648651
 20
126.56871
 10
495.642365
 20
127.688942
 10
495.634216
 20
128.813751
 10
495.624237
 20
129.935028
 10
495.612335
 20
131.043335
 10
495.598236
 20
132.131882
 10
495.581848
 20
133.197632
 10
495.563019
 20
134.240189
 10
495.541565
 20
135.260254
 10
495.517303
 20
136.259735
 10
495.490143
 20
137.241226
 10
495.459839
 20
138.208328
 10
495.426239
 20
139.164902
 10
495.38916
 20
140.114792
 10
495.348541
 20
141.060791
 10
495.304474
 20
142.003967
 10
495.257019
 20
142.944839
 10
495.206421
 20
143.883575
 10
495.152893
 20
144.820145
 10
495.096771
 20
145.754425
 10
495.0383
 20
146.686478
 10
494.977783
 20
147.616547
 10
494.915466
 20
148.545029
 10
494.851685
 20
149.472305
 10
494.786774
 20
150.398773
 10
494.720978
 20
151.324783
 10
494.654541
 20
152.250549
 10
494.587677
 20
153.17627
 10
494.52066
 20
154.102173
 10
494.453674
 20
155.028442
 10
494.386993
 20
155.955292
 10
494.320648
 20
156.882797
 10
494.254639
 20
157.810944
 10
494.188904
 20
158.739685
 10
494.123444
 20
159.669006
 10
494.058228
 20
160.598892
 10
493.993195
 20
161.529312
 10
493.928314
 20
162.460236
 10
493.863586
 20
163.391647
 10
493.79895
 20
164.323517
 10
493.734436
 20
165.255814
 10
493.669952
 20
166.188507
 10
493.605499
 20
167.121597
 10
493.541077
 20
168.055069
 10
493.476685
 20
168.988922
 10
493.412354
 20
169.923187
 10
493.348022
 20
170.857834
 10
493.283752
 20
171.792877
 10
493.219482
 20
172.728317
 10
493.155243
 20
173.664139
 10
493.091003
 20
174.600357
 10
493.026794
 20
175.536972
 10
492.962555
 20
176.473953
 10
492.898285
 20
177.411316
 10
492.833984
 20
178.34906
 10
492.769653
 20
179.28717
 10
492.705261
 20
180.225647
 10
492.640808
 20
181.164474
 10
492.576294
 20
182.103683
 10
492.511688
 20
183.043228
 10
492.446991
 20
183.983139
 10
492.382202
 20
184.923386
 10
492.317291
 20
185.863983
 10
492.252258
 20
186.804916
 10
492.187103
 20
187.746201
 10
492.121796
 20
188.68779
 10
492.056335
 20
189.62973
 10
491.990692
 20
190.571976
 10
491.924896
 20
191.514542
 10
491.858887
 20
192.457443
 10
491.792725
 20
193.400635
 10
491.726318
 20
194.344147
 10
491.659729
 20
195.287949
 10
491.592896
 20
196.232071
 10
491.525818
 20
197.176483
 10
491.458527
 20
198.121201
 10
491.390961
 20
199.066193
 10
491.32312
 20
200.01149
 10
491.255005
 20
200.957062
 10
491.186615
 20
201.902924
 10
491.11795
 20
202.84906
 10
491.04895
 20
203.795471
 10
490.979645
 20
204.742157
 10
490.910034
 20
205.689117
 10
490.840057
 20
206.636353
 10
490.769775
 20
207.583847
 10
490.699097
 20
208.531601
 10
490.628082
 20
209.479614
 10
490.556702
 20
210.427902
 10
490.484955
 20
211.376434
 10
490.412781
 20
212.325211
 10
490.34024
 20
213.274246
 10
490.267273
 20
214.223511
 10
490.193909
 20
215.173035
 10
490.120148
 20
216.122787
 10
490.045929
 20
217.072769
 10
489.971283
 20
218.022995
 10
489.896179
 20
218.973434
 10
489.820648
 20
219.924103
 10
489.744629
 20
220.874985
 10
489.668152
 20
221.826096
 10
489.591217
 20
222.777405
 10
489.513763
 20
223.728928
 10
489.435852
 20
224.680664
 10
489.357391
 20
225.632584
 10
489.278442
 20
226.584702
 10
489.198944
 20
227.537018
 10
489.118927
 20
228.489532
 10
489.03833
 20
229.442215
 10
488.957184
 20
230.395096
 10
488.875488
 20
231.348145
 10
488.793152
 20
232.301376
 10
488.710205
 20
233.254807
 10
488.626556
 20
234.20842
 10
488.542236
 20
235.162231
 10
488.457214
 20
236.116241
 10
488.371521
 20
237.070419
 10
488.285126
 20
238.02475
 10
488.198029
 20
238.979233
 10
488.110291
 20
239.933838
 10
488.021912
 20
240.88858
 10
487.932861
 20
241.84343
 10
487.843201
 20
242.798401
 10
487.752838
 20
243.753464
 10
487.661774
 20
244.708664
 10
487.569977
 20
245.66394
 10
487.478333
 20
246.618896
 10
487.388123
 20
247.572998
 10
487.300415
 20
248.525726
 10
487.2164
 20
249.476654
 10
487.137543
 20
250.425217
 10
487.068207
 20
251.368881
 10
487.017914
 20
252.302277
 10
487.000763
 20
253.217087
 10
487.030334
 20
254.103134
 10
487.116821
 20
254.950668
 10
487.263428
 20
255.751648
 10
487.468414
 20
256.502289
 10
487.726105
 20
257.203033
 10
488.033691
 20
257.852539
 10
488.388641
 20
258.44931
 10
488.788849
 20
258.991669
 10
489.232666
 20
259.477386
 10
489.718658
 20
259.903809
 10
490.245483
 20
260.268036
 10
490.812378
 20
260.566559
 10
491.418549
 20
260.794983
 10
492.062988
 20
260.947327
 10
492.742218
 20
261.022095
 10
493.450592
 20
261.02359
 10
494.181396
 20
260.961243
 10
494.928467
 20
260.846588
 10
495.687042
 20
260.690308
 10
496.453857
 20
260.502563
 10
497.22583
 20
260.293396
 10
498.000488
 20
260.072479
 10
498.777832
 20
259.84845
  0
LINE
  5
101
330
F5
100
AcDbEntity
  8
0
  6
Continuous
 62
     0
370
     0
100
AcDbLine
 10
495.849916
 20
104.10208
 30
0.0
 11
495.67489
 21
104.102089
 31
0.0
  0
ELLIPSE
  5
102
330
F5
100
AcDbEntity
  8
0
  6
Continuous
 62
     0
370
     0
100
AcDbEllipse
 10
495.762386
 20
103.816315
 30
0.0
 11
0.200000002980232
 21
-1.110223041168767E-17
 31
0.0
210
0.0
220
0.0
230
-1.0
 40
0.57735
 41
0.785397333033754
 42
2.356194490191688
  0
LINE
  5
103
330
F5
100
AcDbEntity
  8
0
  6
Continuous
 62
     0
370
     0
100
AcDbLine
 10
495.620964
 20
103.734665
 30
0.0
 11
495.620964
 21
102.298683
 31
0.0
  0
ELLIPSE
  5
104
330
F5
100
AcDbEntity
  8
0
  6
Continuous
 62
     0
370
    30
100
AcDbEllipse
 10
495.762386
 20
102.380333
 30
0.0
 11
-0.200000002980232
 21
1.110223041168767E-17
 31
0.0
210
0.0
220
0.0
230
1.0
 40
0.57735
 41
0.7853981633981144
 42
2.356195320556012
  0
LINE
  5
105
330
F5
100
AcDbEntity
  8
0
  6
Continuous
 62
     0
370
     0
100
AcDbLine
 10
495.903807
 20
102.298683
 30
0.0
 11
495.903807
 21
103.734665
 31
0.0
  0
ELLIPSE
  5
106
330
F5
100
AcDbEntity
  8
0
  6
Continuous
 62
     0
370
     0
100
AcDbEllipse
 10
457.154387
 20
126.106665
 30
0.0
 11
0.200000002980232
 21
0.0
 31
0.0
210
0.0
220
0.0
230
-1.0
 40
0.57735
 41
2.356194490191599
 42
3.141592662229447
  0
LINE
  5
107
330
F5
100
AcDbEntity
  8
0
  6
Continuous
 62
     0
370
     0
100
AcDbLine
 10
457.012966
 20
124.589022
 30
0.0
 11
457.012966
 21
126.025016
 31
0.0
  0
LWPOLYLINE
  5
108
330
F5
100
AcDbEntity
  8
0
  6
Continuous
 62
     0
370
     0
100
AcDbPolyline
 90
       16
 70
     0
 43
0.0
 10
481.292358
 20
278.026703
 10
482.010559
 20
278.403961
 10
482.761017
 20
278.723633
 10
483.543304
 20
278.982574
 10
484.357239
 20
279.176544
 10
485.201141
 20
279.304199
 10
486.072174
 20
279.367035
 10
486.966827
 20
279.368805
 10
487.8815
 20
279.313812
 10
488.812408
 20
279.209106
 10
489.755585
 20
279.064423
 10
490.707703
 20
278.887634
 10
491.667908
 20
278.679596
 10
492.635986
 20
278.439392
 10
493.611725
 20
278.166138
 10
494.636017
 20
277.845367
  0
LINE
  5
109
330
F5
100
AcDbEntity
  8
0
  6
Continuous
 62
     0
370
     0
100
AcDbLine
 10
457.228498
 20
126.477841
 30
0.0
 11
464.032102
 21
129.225355
 31
0.0
  0
LWPOLYLINE
  5
10A
330
F5
100
AcDbEntity
  8
0
  6
Continuous
 62
     0
370
     0
100
AcDbPolyline
 90
      228
 70
     0
 43
0.0
 10
494.52887
 20
277.574677
 10
493.860901
 20
277.764801
 10
493.191956
 20
277.953949
 10
492.523376
 20
278.138306
 10
491.856567
 20
278.314056
 10
491.192841
 20
278.477356
 10
490.533447
 20
278.624756
 10
489.879089
 20
278.754578
 10
489.230316
 20
278.865692
 10
488.587616
 20
278.957001
 10
487.951569
 20
279.027313
 10
487.322784
 20
279.075409
 10
486.702362
 20
279.099182
 10
486.091644
 20
279.096283
 10
485.491852
 20
279.064941
 10
484.904205
 20
279.003906
 10
484.329803
 20
278.91214
 10
483.769592
 20
278.789062
 10
483.224304
 20
278.634583
 10
482.694061
 20
278.450073
 10
482.178772
 20
278.237213
 10
481.678589
 20
277.997101
 10
481.193756
 20
277.730408
 10
480.724426
 20
277.437744
 10
480.270905
 20
277.119354
 10
479.833374
 20
276.775665
 10
479.41214
 20
276.407074
 10
479.007538
 20
276.014038
 10
478.619781
 20
275.597046
 10
478.249207
 20
275.156586
 10
477.896027
 20
274.693146
 10
477.560455
 20
274.207306
 10
477.242706
 20
273.699615
 10
476.943207
 20
273.17038
 10
476.662476
 20
272.619659
 10
476.401123
 20
272.047455
 10
476.159729
 20
271.453827
 10
475.938843
 20
270.838989
 10
475.738892
 20
270.2034
 10
475.560364
 20
269.547394
 10
475.403473
 20
268.871643
 10
475.268219
 20
268.177032
 10
475.154449
 20
267.464539
 10
475.061523
 20
266.735321
 10
474.988525
 20
265.990814
 10
474.93457
 20
265.232269
 10
474.899017
 20
264.460785
 10
474.881165
 20
263.677307
 10
474.88028
 20
262.882812
 10
474.895416
 20
262.078369
 10
474.925598
 20
261.264923
 10
474.969208
 20
260.443695
 10
475.024353
 20
259.616089
 10
475.088928
 20
258.783417
 10
475.160736
 20
257.94696
 10
475.237579
 20
257.108002
 10
475.3172
 20
256.267639
 10
475.397461
 20
255.427002
 10
475.476593
 20
254.586975
 10
475.554504
 20
253.747604
 10
475.631439
 20
252.908829
 10
475.707611
 20
252.070526
 10
475.78302
 20
251.232681
 10
475.857697
 20
250.395279
 10
475.931641
 20
249.558304
 10
476.004883
 20
248.721771
 10
476.077423
 20
247.885651
 10
476.149231
 20
247.049942
 10
476.220306
 20
246.214645
 10
476.29068
 20
245.379745
 10
476.360321
 20
244.545242
 10
476.42923
 20
243.711136
 10
476.497467
 20
242.877411
 10
476.565002
 20
242.044037
 10
476.631836
 20
241.211029
 10
476.698029
 20
240.378372
 10
476.763519
 20
239.546051
 10
476.8284
 20
238.714066
 10
476.892609
 20
237.882385
 10
476.956177
 20
237.051041
 10
477.019135
 20
236.219971
 10
477.081482
 20
235.389206
 10
477.143219
 20
234.558701
 10
477.204407
 20
233.728455
 10
477.265045
 20
232.898453
 10
477.325104
 20
232.068695
 10
477.384644
 20
231.239151
 10
477.443665
 20
230.409821
 10
477.502197
 20
229.580688
 10
477.560211
 20
228.75174
 10
477.617767
 20
227.922958
 10
477.674835
 20
227.09436
 10
477.731445
 20
226.265915
 10
477.787598
 20
225.437607
 10
477.843353
 20
224.609451
 10
477.898651
 20
223.781433
 10
477.953522
 20
222.953537
 10
478.007996
 20
222.125732
 10
478.062073
 20
221.29805
 10
478.115784
 20
220.470444
 10
478.169098
 20
219.642899
 10
478.222015
 20
218.81543
 10
478.274597
 20
217.987976
 10
478.326813
 20
217.160568
 10
478.378662
 20
216.33316
 10
478.430176
 20
215.505753
 10
478.481384
 20
214.678329
 10
478.532257
 20
213.850891
 10
478.582825
 20
213.023438
 10
478.633118
 20
212.195953
 10
478.683167
 20
211.368439
 10
478.732971
 20
210.540909
 10
478.782532
 20
209.713348
 10
478.831909
 20
208.885757
 10
478.881104
 20
208.058136
 10
478.930084
 20
207.230484
 10
478.978943
 20
206.402786
 10
479.027679
 20
205.575043
 10
479.076263
 20
204.747269
 10
479.124756
 20
203.919464
 10
479.173187
 20
203.091599
 10
479.221558
 20
202.263718
 10
479.269897
 20
201.435806
 10
479.318207
 20
200.607864
 10
479.366547
 20
199.779892
 10
479.414917
 20
198.95192
 10
479.463379
 20
198.123917
 10
479.511871
 20
197.295914
 10
479.560486
 20
196.467911
 10
479.609222
 20
195.639908
 10
479.658112
 20
194.811905
 10
479.707184
 20
193.983917
 10
479.756409
 20
193.15593
 10
479.805878
 20
192.327972
 10
479.855591
 20
191.500031
 10
479.905548
 20
190.672104
 10
479.95578
 20
189.844208
 10
480.006317
 20
189.016357
 10
480.057159
 20
188.188522
 10
480.108368
 20
187.360733
 10
480.159912
 20
186.53299
 10
480.211884
 20
185.705276
 10
480.264221
 20
184.877625
 10
480.317017
 20
184.050018
 10
480.37027
 20
183.222473
 10
480.423981
 20
182.394974
 10
480.47818
 20
181.567551
 10
480.532898
 20
180.740189
 10
480.588165
 20
179.912903
 10
480.643982
 20
179.085693
 10
480.700409
 20
178.25856
 10
480.757477
 20
177.431503
 10
480.815155
 20
176.604553
 10
480.873505
 20
175.777679
 10
480.932556
 20
174.950912
 10
480.99231
 20
174.124252
 10
481.052826
 20
173.297699
 10
481.114044
 20
172.471268
 10
481.176025
 20
171.644943
 10
481.23877
 20
170.818741
 10
481.302307
 20
169.992661
 10
481.366608
 20
169.166718
 10
481.431763
 20
168.340912
 10
481.497833
 20
167.515244
 10
481.564941
 20
166.689728
 10
481.633209
 20
165.864395
 10
481.702667
 20
165.039215
 10
481.773224
 20
164.214218
 10
481.844574
 20
163.389389
 10
481.916534
 20
162.564728
 10
481.988861
 20
161.740219
 10
482.061066
 20
160.915878
 10
482.13266
 20
160.09166
 10
482.203003
 20
159.267548
 10
482.271606
 20
158.443527
 10
482.337891
 20
157.619614
 10
482.401367
 20
156.795761
 10
482.461487
 20
155.971985
 10
482.517761
 20
155.14827
 10
482.569733
 20
154.324646
 10
482.616913
 20
153.501129
 10
482.658844
 20
152.677795
 10
482.695129
 20
151.854675
 10
482.725311
 20
151.03183
 10
482.748993
 20
150.209305
 10
482.765869
 20
149.3871
 10
482.775635
 20
148.565247
 10
482.777374
 20
147.74382
 10
482.769348
 20
146.922989
 10
482.749634
 20
146.102905
 10
482.714722
 20
145.283661
 10
482.660309
 20
144.465454
 10
482.581604
 20
143.648987
 10
482.472748
 20
142.835938
 10
482.327789
 20
142.028259
 10
482.140747
 20
141.227905
 10
481.905121
 20
140.437469
 10
481.613464
 20
139.660828
 10
481.258667
 20
138.903381
 10
480.834076
 20
138.17244
 10
480.334503
 20
137.475357
 10
479.759857
 20
136.818115
 10
479.117371
 20
136.202835
 10
478.418274
 20
135.628128
 10
477.673218
 20
135.091751
 10
476.890594
 20
134.590118
 10
476.077545
 20
134.119415
 10
475.240082
 20
133.675705
 10
474.382996
 20
133.255219
 10
473.510498
 20
132.854263
 10
472.626068
 20
132.469437
 10
471.732361
 20
132.097549
 10
470.831879
 20
131.735443
 10
469.926758
 20
131.379974
 10
469.018951
 20
131.028259
 10
468.109283
 20
130.679123
 10
467.198059
 20
130.33223
 10
466.285706
 20
129.986954
 10
465.372681
 20
129.642303
 10
464.459473
 20
129.297302
 10
463.546631
 20
128.950867
 10
462.634766
 20
128.601868
 10
461.724518
 20
128.249161
 10
460.816589
 20
127.891472
 10
459.911682
 20
127.527466
 10
459.010712
 20
127.155609
 10
458.11557
 20
126.77314
 10
457.228485
 20
126.376755
  0
ELLIPSE
  5
10B
330
F5
100
AcDbEntity
  8
0
  6
Continuous
 62
     0
370
    30
100
AcDbEllipse
 10
534.370332
 20
124.670664
 30
0.0
 11
-0.200000002980232
 21
0.0
 31
0.0
210
0.0
220
0.0
230
1.0
 40
0.57735
 41
2.356192479813845
 42
3.141592644950065
  0
LINE
  5
10C
330
F5
100
AcDbEntity
  8
0
  6
Continuous
 62
     0
370
     0
100
AcDbLine
 10
534.511753
 20
126.025014
 30
0.0
 11
534.511753
 21
124.589014
 31
0.0
  0
LWPOLYLINE
  5
10D
330
F5
100
AcDbEntity
  8
0
  6
Continuous
 62
     0
370
     0
100
AcDbPolyline
 90
       16
 70
     0
 43
0.0
 10
515.546997
 20
289.918335
 10
514.515259
 20
290.196838
 10
513.489319
 20
290.441833
 10
512.469482
 20
290.654236
 10
511.456024
 20
290.83493
 10
510.449158
 20
290.984772
 10
509.450134
 20
291.101471
 10
508.462219
 20
291.176117
 10
507.488922
 20
291.199249
 10
506.533752
 20
291.165009
 10
505.600189
 20
291.068939
 10
504.691711
 20
290.907349
 10
503.811676
 20
290.677856
 10
502.961731
 20
290.382355
 10
502.142395
 20
290.025177
 10
501.329163
 20
289.59494
  0
LINE
  5
10E
330
F5
100
AcDbEntity
  8
0
  6
Continuous
 62
     0
370
     0
100
AcDbLine
 10
495.674664
 20
104.179974
 30
0.0
 11
457.228489
 21
126.376754
 31
0.0
  0
LINE
  5
10F
330
F5
100
AcDbEntity
  8
0
  6
Continuous
 62
     0
370
     0
100
AcDbLine
 10
534.296088
 20
126.376798
 30
0.0
 11
495.849911
 21
104.179847
 31
0.0
  0
LINE
  5
110
330
F5
100
AcDbEntity
  8
0
  6
Continuous
 62
     0
370
     0
100
AcDbLine
 10
534.296144
 20
126.376758
 30
0.0
 11
534.511751
 21
126.025013
 31
0.0
  0
LINE
  5
111
330
F5
100
AcDbEntity
  8
0
  6
Continuous
 62
     0
370
     0
100
AcDbLine
 10
495.903718
 20
103.734716
 30
0.0
 11
495.849677
 21
104.179751
 31
0.0
  0
LINE
  5
112
330
F5
100
AcDbEntity
  8
0
  6
Continuous
 62
     0
370
     0
100
AcDbLine
 10
534.511753
 20
126.025014
 30
0.0
 11
495.903718
 21
103.734588
 31
0.0
  0
LINE
  5
113
330
F5
100
AcDbEntity
  8
0
  6
Continuous
 62
     0
370
     0
100
AcDbLine
 10
457.012969
 20
126.025017
 30
0.0
 11
457.228489
 21
126.376757
 31
0.0
  0
LINE
  5
114
330
F5
100
AcDbEntity
  8
0
  6
Continuous
 62
     0
370
     0
100
AcDbLine
 10
495.620964
 20
103.734648
 30
0.0
 11
457.012969
 21
126.025013
 31
0.0
  0
LINE
  5
115
330
F5
100
AcDbEntity
  8
0
  6
Continuous
 62
     0
370
     0
100
AcDbLine
 10
495.674636
 20
104.179846
 30
0.0
 11
495.620875
 21
103.734716
 31
0.0
  0
LINE
  5
116
330
F5
100
AcDbEntity
  8
0
  6
Continuous
 62
     0
370
    30
100
AcDbLine
 10
457.012966
 20
124.589022
 30
0.0
 11
495.620964
 21
102.298683
 31
0.0
  0
LINE
  5
117
330
F5
100
AcDbEntity
  8
0
  6
Continuous
 62
     0
370
    30
100
AcDbLine
 10
495.903807
 20
102.298683
 30
0.0
 11
534.511753
 21
124.589032
 31
0.0
  0
LINE
  5
118
330
F5
100
AcDbEntity
  8
0
  6
Continuous
 62
     0
370
     0
100
AcDbLine
 10
457.228505
 20
126.477846
 30
0.0
 11
457.012969
 21
126.188317
 31
0.0
  0
LINE
  5
119
330
F5
100
AcDbEntity
  8
0
  6
Continuous
 62
     0
370
     0
100
AcDbLine
 10
481.959688
 20
140.756397
 30
0.0
 11
457.228511
 21
126.477846
 31
0.0
  0
LINE
  5
11A
330
F5
100
AcDbEntity
  8
0
  6
Continuous
 62
     0
370
     0
100
AcDbLine
 10
509.449925
 20
140.822837
 30
0.0
 11
534.296119
 21
126.47785
 31
0.0
  0
LINE
  5
11B
330
F5
100
AcDbEntity
  8
0
  6
Continuous
 62
     0
370
     0
100
AcDbLine
 10
534.511751
 20
126.188312
 30
0.0
 11
534.296147
 21
126.477826
 31
0.0
  0
LINE
  5
11C
330
F5
100
AcDbEntity
  8
0
  6
Continuous
 62
     0
370
    30
100
AcDbLine
 10
481.292553
 20
278.026833
 30
0.0
 11
501.335432
 21
289.598595
 31
0.0
  0
LINE
  5
11D
330
F5
100
AcDbEntity
  8
0
  6
Continuous
 62
     0
370
    30
100
AcDbLine
 10
490.585279
 20
260.246499
 30
0.0
 11
491.645354
 21
260.858534
 31
0.0
  0
LWPOLYLINE
  5
11E
330
F5
100
AcDbEntity
  8
0
  6
Continuous
 62
     0
370
    30
100
AcDbPolyline
 90
       22
 70
     0
 43
0.0
 10
515.633911
 20
289.933044
 10
514.890747
 20
290.131348
 10
514.151062
 20
290.315247
 10
513.415039
 20
290.484161
 10
512.683105
 20
290.637573
 10
511.955292
 20
290.774963
 10
511.231049
 20
290.896606
 10
510.509766
 20
291.002258
 10
509.792267
 20
291.089691
 10
509.079712
 20
291.156281
 10
508.373138
 20
291.19931
 10
507.673676
 20
291.216187
 10
506.982422
 20
291.204254
 10
506.300812
 20
291.161072
 10
505.630676
 20
291.084564
 10
504.973907
 20
290.972656
 10
504.331635
 20
290.82489
 10
503.701874
 20
290.647156
 10
503.084869
 20
290.441284
 10
502.491943
 20
290.187836
 10
501.926422
 20
289.882416
 10
501.337006
 20
289.599426
  0
ENDBLK
  5
120
330
F5
100
AcDbEntity
  8
0
100
AcDbBlockEnd
  0
BLOCK
  5
13E
330
122
100
AcDbEntity
  8
0
100
AcDbBlockBegin
  2
e
 70
     0
 10
224.021317
 20
0.0
 30
0.0
  3
e
  1

  0
LINE
  5
123
330
122
100
AcDbEntity
  8
0
  6
Continuous
 62
     0
370
    30
100
AcDbLine
 10
146.471864
 20
537.142051
 30
0.0
 11
146.429845
 21
536.960048
 31
0.0
  0
LINE
  5
124
330
122
100
AcDbEntity
  8
0
  6
Continuous
 62
     0
370
    30
100
AcDbLine
 10
151.107639
 20
557.221006
 30
0.0
 11
146.471864
 21
537.142051
 31
0.0
  0
LINE
  5
125
330
122
100
AcDbEntity
  8
0
  6
Continuous
 62
     0
370
    30
100
AcDbLine
 10
151.155616
 20
557.428802
 30
0.0
 11
151.107639
 21
557.221006
 31
0.0
  0
LINE
  5
126
330
122
100
AcDbEntity
  8
0
  6
Continuous
 62
     0
370
    30
100
AcDbLine
 10
147.399325
 20
536.712068
 30
0.0
 11
147.435149
 21
536.867239
 31
0.0
  0
LWPOLYLINE
  5
127
330
122
100
AcDbEntity
  8
0
  6
Continuous
 62
     0
370
    30
100
AcDbPolyline
 90
      170
 70
     0
 43
0.0
 10
141.422379
 20
360.96817
 10
142.172607
 20
361.426788
 10
142.922485
 20
361.88327
 10
143.670792
 20
362.341492
 10
144.416245
 20
362.80545
 10
145.157501
 20
363.279266
 10
145.893188
 20
363.767151
 10
146.621902
 20
364.273224
 10
147.34201
 20
364.801147
 10
148.051819
 20
365.354248
 10
148.749557
 20
365.935913
 10
149.433197
 20
366.548553
 10
150.10051
 20
367.194153
 10
150.749023
 20
367.874939
 10
151.374893
 20
368.594849
 10
151.972885
 20
369.359009
 10
152.535812
 20
370.173523
 10
153.053925
 20
371.045288
 10
153.515564
 20
371.978394
 10
153.911789
 20
372.971619
 10
154.242966
 20
374.014374
 10
154.514877
 20
375.094116
 10
154.734634
 20
376.20047
 10
154.90947
 20
377.323822
 10
155.046768
 20
378.458527
 10
155.153961
 20
379.600677
 10
155.238098
 20
380.747223
 10
155.305496
 20
381.896698
 10
155.36232
 20
383.047882
 10
155.413834
 20
384.200012
 10
155.463486
 20
385.352753
 10
155.512756
 20
386.505768
 10
155.561523
 20
387.658844
 10
155.609497
 20
388.811737
 10
155.65657
 20
389.964447
 10
155.702667
 20
391.116974
 10
155.747772
 20
392.269287
 10
155.792099
 20
393.421509
 10
155.835922
 20
394.573639
 10
155.879547
 20
395.725739
 10
155.923126
 20
396.877808
 10
155.966751
 20
398.029846
 10
156.010513
 20
399.181946
 10
156.05452
 20
400.334045
 10
156.098831
 20
401.486176
 10
156.143539
 20
402.638367
 10
156.188721
 20
403.790588
 10
156.234436
 20
404.942871
 10
156.280685
 20
406.095184
 10
156.327454
 20
407.247528
 10
156.374725
 20
408.399902
 10
156.422485
 20
409.552307
 10
156.470734
 20
410.704712
 10
156.51944
 20
411.857117
 10
156.568604
 20
413.009491
 10
156.61821
 20
414.161896
 10
156.668274
 20
415.31427
 10
156.718796
 20
416.466614
 10
156.769775
 20
417.618988
 10
156.821243
 20
418.771301
 10
156.873184
 20
419.923645
 10
156.925613
 20
421.075958
 10
156.978531
 20
422.228271
 10
157.031937
 20
423.380585
 10
157.085861
 20
424.532867
 10
157.140289
 20
425.68515
 10
157.195221
 20
426.837433
 10
157.250671
 20
427.989685
 10
157.306641
 20
429.141937
 10
157.363129
 20
430.294189
 10
157.420135
 20
431.446411
 10
157.477661
 20
432.598663
 10
157.535721
 20
433.750854
 10
157.594299
 20
434.903046
 10
157.653427
 20
436.055237
 10
157.713074
 20
437.207428
 10
157.77327
 20
438.359589
 10
157.834
 20
439.511749
 10
157.895279
 20
440.663879
 10
157.957092
 20
441.815979
 10
158.01947
 20
442.968079
 10
158.082397
 20
444.120148
 10
158.145889
 20
445.272217
 10
158.20993
 20
446.424255
 10
158.274536
 20
447.576263
 10
158.339706
 20
448.728241
 10
158.405457
 20
449.880219
 10
158.471771
 20
451.032166
 10
158.538651
 20
452.184052
 10
158.606125
 20
453.335938
 10
158.674164
 20
454.487793
 10
158.742798
 20
455.639618
 10
158.812027
 20
456.791412
 10
158.881836
 20
457.943176
 10
158.952255
 20
459.09491
 10
159.023254
 20
460.246613
 10
159.094864
 20
461.398285
 10
159.167084
 20
462.549896
 10
159.239914
 20
463.701508
 10
159.313354
 20
464.853058
 10
159.387405
 20
466.004578
 10
159.462082
 20
467.156067
 10
159.537384
 20
468.307526
 10
159.613312
 20
469.458954
 10
159.689865
 20
470.610321
 10
159.767059
 20
471.761658
 10
159.844894
 20
472.912933
 10
159.92337
 20
474.064209
 10
160.002502
 20
475.215393
 10
160.082275
 20
476.366577
 10
160.162704
 20
477.5177
 10
160.24379
 20
478.668762
 10
160.325546
 20
479.819794
 10
160.407959
 20
480.970795
 10
160.491043
 20
482.121735
 10
160.574814
 20
483.272614
 10
160.659241
 20
484.423462
 10
160.74437
 20
485.574249
 10
160.83017
 20
486.724976
 10
160.916672
 20
487.875641
 10
161.003876
 20
489.026276
 10
161.091766
 20
490.176849
 10
161.180359
 20
491.327332
 10
161.269653
 20
492.477783
 10
161.359665
 20
493.628174
 10
161.450394
 20
494.778534
 10
161.54184
 20
495.928802
 10
161.634003
 20
497.079041
 10
161.726898
 20
498.229218
 10
161.820526
 20
499.379333
 10
161.914886
 20
500.529419
 10
162.009995
 20
501.679413
 10
162.10585
 20
502.829346
 10
162.202454
 20
503.979156
 10
162.299789
 20
505.128845
 10
162.397858
 20
506.278442
 10
162.496674
 20
507.427887
 10
162.596313
 20
508.577271
 10
162.696823
 20
509.726562
 10
162.797943
 20
510.875854
 10
162.899033
 20
512.025208
 10
162.99852
 20
513.174744
 10
163.094437
 20
514.324524
 10
163.184906
 20
515.474182
 10
163.268829
 20
516.623047
 10
163.340729
 20
517.770752
 10
163.387589
 20
518.917175
 10
163.390442
 20
520.061279
 10
163.329819
 20
521.2005
 10
163.189789
 20
522.3302
 10
162.963028
 20
523.445374
 10
162.653259
 20
524.541443
 10
162.267166
 20
525.613953
 10
161.810013
 20
526.658813
 10
161.285431
 20
527.671753
 10
160.696518
 20
528.648865
 10
160.046173
 20
529.58606
 10
159.336609
 20
530.478943
 10
158.569839
 20
531.322632
 10
157.747513
 20
532.111633
 10
156.871124
 20
532.839355
 10
155.942429
 20
533.49823
 10
154.965469
 20
534.08374
 10
153.948044
 20
534.598267
 10
152.899094
 20
535.049805
 10
151.826431
 20
535.447693
 10
150.735718
 20
535.802246
 10
149.632263
 20
536.123901
 10
148.520721
 20
536.423218
 10
147.399323
 20
536.712097
  0
ELLIPSE
  5
128
330
122
100
AcDbEntity
  8
0
  6
Continuous
 62
     0
370
     0
100
AcDbEllipse
 10
137.163597
 20
357.833317
 30
0.0
 11
0.1237667021788557
 21
-0.1571044385874061
 31
0.0
210
0.0
220
0.0
230
1.0
 40
0.61777
 41
2.235811671648557
 42
3.141597287345801
  0
LWPOLYLINE
  5
129
330
122
100
AcDbEntity
  8
0
  6
Continuous
 62
     0
370
     0
100
AcDbPolyline
 90
      175
 70
     0
 43
0.0
 10
147.44136
 20
536.894165
 10
148.564774
 20
536.604919
 10
149.684921
 20
536.303467
 10
150.798416
 20
535.978943
 10
151.901154
 20
535.620361
 10
152.988434
 20
535.216736
 10
154.053604
 20
534.757568
 10
155.087723
 20
534.232117
 10
156.081085
 20
533.633362
 10
157.025223
 20
532.959595
 10
157.914948
 20
532.215881
 10
158.748886
 20
531.410645
 10
159.525848
 20
530.55011
 10
160.244339
 20
529.639221
 10
160.901947
 20
528.683472
 10
161.495895
 20
527.687988
 10
162.023453
 20
526.656494
 10
162.481949
 20
525.592224
 10
162.868423
 20
524.499023
 10
163.176758
 20
523.381104
 10
163.399216
 20
522.243469
 10
163.532822
 20
521.092041
 10
163.586487
 20
519.933899
 10
163.577972
 20
518.774414
 10
163.527802
 20
517.616028
 10
163.454865
 20
516.458496
 10
163.369537
 20
515.301575
 10
163.276337
 20
514.145142
 10
163.178665
 20
512.989258
 10
163.078522
 20
511.833649
 10
162.977448
 20
510.678223
 10
162.876358
 20
509.522858
 10
162.775711
 20
508.367371
 10
162.675797
 20
507.211792
 10
162.576645
 20
506.056122
 10
162.478256
 20
504.90036
 10
162.380646
 20
503.744507
 10
162.283768
 20
502.588623
 10
162.187637
 20
501.432648
 10
162.092224
 20
500.276642
 10
161.997528
 20
499.120544
 10
161.903534
 20
497.964386
 10
161.810242
 20
496.808197
 10
161.717682
 20
495.651917
 10
161.625824
 20
494.495575
 10
161.534714
 20
493.339172
 10
161.444351
 20
492.182709
 10
161.354736
 20
491.026184
 10
161.265884
 20
489.869568
 10
161.177811
 20
488.712921
 10
161.090485
 20
487.556183
 10
161.003922
 20
486.399353
 10
160.918076
 20
485.242493
 10
160.832962
 20
484.085571
 10
160.748535
 20
482.928589
 10
160.664795
 20
481.771576
 10
160.581741
 20
480.614471
 10
160.499329
 20
479.457336
 10
160.417572
 20
478.300171
 10
160.336456
 20
477.142944
 10
160.255997
 20
475.985657
 10
160.176178
 20
474.828339
 10
160.097
 20
473.67099
 10
160.018463
 20
472.51358
 10
159.940567
 20
471.35614
 10
159.863312
 20
470.198639
 10
159.786667
 20
469.041138
 10
159.710663
 20
467.883575
 10
159.635284
 20
466.725952
 10
159.560532
 20
465.568329
 10
159.486389
 20
464.410645
 10
159.412872
 20
463.25296
 10
159.339966
 20
462.095215
 10
159.26767
 20
460.937439
 10
159.195984
 20
459.779633
 10
159.124908
 20
458.621796
 10
159.054428
 20
457.463928
 10
158.984543
 20
456.306
 10
158.915253
 20
455.148071
 10
158.846558
 20
453.990112
 10
158.778458
 20
452.832123
 10
158.710938
 20
451.674072
 10
158.643997
 20
450.516022
 10
158.577637
 20
449.357941
 10
158.511856
 20
448.199829
 10
158.44664
 20
447.041656
 10
158.381989
 20
445.883484
 10
158.317902
 20
444.725281
 10
158.254379
 20
443.567047
 10
158.191406
 20
442.408783
 10
158.128983
 20
441.250488
 10
158.067108
 20
440.092163
 10
158.005783
 20
438.933807
 10
157.944992
 20
437.775421
 10
157.884735
 20
436.617035
 10
157.825012
 20
435.458588
 10
157.765808
 20
434.30014
 10
157.707138
 20
433.141632
 10
157.648987
 20
431.983154
 10
157.59137
 20
430.824615
 10
157.534271
 20
429.666077
 10
157.477692
 20
428.507538
 10
157.421631
 20
427.348969
 10
157.366089
 20
426.190399
 10
157.311066
 20
425.031799
 10
157.256561
 20
423.87323
 10
157.20256
 20
422.714661
 10
157.149063
 20
421.556061
 10
157.096069
 20
420.397491
 10
157.043564
 20
419.238922
 10
156.991562
 20
418.080353
 10
156.940048
 20
416.921783
 10
156.889008
 20
415.763245
 10
156.83847
 20
414.604706
 10
156.788406
 20
413.446167
 10
156.738815
 20
412.287659
 10
156.689728
 20
411.129181
 10
156.641129
 20
409.970734
 10
156.593033
 20
408.812286
 10
156.545441
 20
407.65387
 10
156.498367
 20
406.495514
 10
156.451813
 20
405.337158
 10
156.405777
 20
404.178864
 10
156.360245
 20
403.020599
 10
156.315201
 20
401.862366
 10
156.270599
 20
400.704193
 10
156.226364
 20
399.546021
 10
156.182419
 20
398.387817
 10
156.138672
 20
397.229614
 10
156.094955
 20
396.071411
 10
156.051071
 20
394.913116
 10
156.006836
 20
393.754791
 10
155.962051
 20
392.596405
 10
155.916565
 20
391.437958
 10
155.870148
 20
390.279419
 10
155.822647
 20
389.120758
 10
155.774323
 20
387.962097
 10
155.725647
 20
386.803528
 10
155.676422
 20
385.645203
 10
155.626312
 20
384.487274
 10
155.574951
 20
383.329987
 10
155.519379
 20
382.173462
 10
155.454544
 20
381.017975
 10
155.374115
 20
379.864868
 10
155.271408
 20
378.71582
 10
155.139496
 20
377.573578
 10
154.970947
 20
376.442932
 10
154.758224
 20
375.328979
 10
154.493759
 20
374.238556
 10
154.169479
 20
373.182251
 10
153.7789
 20
372.172546
 10
153.321045
 20
371.221771
 10
152.803558
 20
370.334076
 10
152.238541
 20
369.505219
 10
151.636612
 20
368.728149
 10
151.005692
 20
367.996429
 10
150.35141
 20
367.304901
 10
149.677795
 20
366.650177
 10
148.98764
 20
366.02951
 10
148.283142
 20
365.440491
 10
147.566422
 20
364.880524
 10
146.839325
 20
364.346313
 10
146.103745
 20
363.834595
 10
145.36145
 20
363.341797
 10
144.614044
 20
362.8638
 10
143.863068
 20
362.396332
 10
143.110001
 20
361.93515
 10
142.35611
 20
361.476227
 10
141.602615
 20
361.015533
 10
140.850723
 20
360.549042
 10
140.101654
 20
360.072754
 10
139.356842
 20
359.582733
 10
138.617966
 20
359.075073
 10
137.886703
 20
358.545898
 10
137.163589
 20
357.990417
  0
LINE
  5
12A
330
122
100
AcDbEntity
  8
0
  6
Continuous
 62
     0
370
    30
100
AcDbLine
 10
136.849288
 20
355.83896
 30
0.0
 11
137.049288
 21
355.83896
 31
0.0
  0
LINE
  5
12B
330
122
100
AcDbEntity
  8
0
  6
Continuous
 62
     0
370
     0
100
AcDbLine
 10
137.049288
 20
355.83896
 30
0.0
 11
137.049288
 21
357.597694
 31
0.0
  0
LINE
  5
12C
330
122
100
AcDbEntity
  8
0
  6
Continuous
 62
     0
370
     0
100
AcDbLine
 10
137.049288
 20
357.597694
 30
0.0
 11
136.849288
 21
357.597694
 31
0.0
  0
LINE
  5
12D
330
122
100
AcDbEntity
  8
0
  6
Continuous
 62
     0
370
    30
100
AcDbLine
 10
136.849288
 20
357.597694
 30
0.0
 11
136.849288
 21
355.83896
 31
0.0
  0
LWPOLYLINE
  5
12E
330
122
100
AcDbEntity
  8
0
  6
Continuous
 62
     0
370
     0
100
AcDbPolyline
 90
      199
 70
     0
 43
0.0
 10
151.155838
 20
557.428772
 10
152.240646
 20
557.162354
 10
153.320175
 20
556.875
 10
154.394302
 20
556.567261
 10
155.46286
 20
556.239563
 10
156.525742
 20
555.892578
 10
157.582779
 20
555.526733
 10
158.633713
 20
555.142334
 10
159.677002
 20
554.736938
 10
160.710358
 20
554.306335
 10
161.731506
 20
553.846619
 10
162.73822
 20
553.355042
 10
163.728317
 20
552.830322
 10
164.699646
 20
552.271179
 10
165.65004
 20
551.676636
 10
166.577316
 20
551.046326
 10
167.479752
 20
550.380554
 10
168.356903
 20
549.681458
 10
169.208527
 20
548.951538
 10
170.034302
 20
548.192749
 10
170.833801
 20
547.406677
 10
171.606445
 20
546.594604
 10
172.351517
 20
545.757385
 10
173.068329
 20
544.895996
 10
173.756454
 20
544.011536
 10
174.415512
 20
543.105347
 10
175.044998
 20
542.178406
 10
175.644409
 20
541.231873
 10
176.213196
 20
540.266602
 10
176.750748
 20
539.283508
 10
177.256439
 20
538.283569
 10
177.729218
 20
537.267578
 10
178.167969
 20
536.236267
 10
178.571472
 20
535.190552
 10
178.938431
 20
534.131409
 10
179.267776
 20
533.059875
 10
179.559006
 20
531.977417
 10
179.811874
 20
530.885559
 10
180.027222
 20
529.785828
 10
180.20636
 20
528.679565
 10
180.350693
 20
527.568298
 10
180.461548
 20
526.453369
 10
180.540344
 20
525.336182
 10
180.588593
 20
524.217651
 10
180.607819
 20
523.098633
 10
180.599579
 20
521.97998
 10
180.566544
 20
520.862305
 10
180.513412
 20
519.746033
 10
180.444275
 20
518.631287
 10
180.362045
 20
517.518311
 10
180.2715
 20
516.406677
 10
180.179153
 20
515.295776
 10
180.087891
 20
514.185303
 10
179.998367
 20
513.075012
 10
179.910492
 20
511.964813
 10
179.824112
 20
510.854553
 10
179.739227
 20
509.74411
 10
179.655823
 20
508.633423
 10
179.573868
 20
507.522583
 10
179.493317
 20
506.41153
 10
179.414169
 20
505.300323
 10
179.336365
 20
504.188995
 10
179.259888
 20
503.077545
 10
179.184723
 20
501.965973
 10
179.110825
 20
500.854309
 10
179.038162
 20
499.742615
 10
178.966721
 20
498.630829
 10
178.896454
 20
497.518982
 10
178.827347
 20
496.407074
 10
178.759369
 20
495.295105
 10
178.692474
 20
494.183105
 10
178.626633
 20
493.071014
 10
178.561829
 20
491.958893
 10
178.498016
 20
490.84668
 10
178.435181
 20
489.734436
 10
178.373291
 20
488.622131
 10
178.312302
 20
487.509796
 10
178.252182
 20
486.3974
 10
178.192917
 20
485.284943
 10
178.134476
 20
484.172424
 10
178.076813
 20
483.059875
 10
178.019913
 20
481.947266
 10
177.96373
 20
480.834625
 10
177.908249
 20
479.721924
 10
177.853424
 20
478.609161
 10
177.79924
 20
477.496399
 10
177.745667
 20
476.383545
 10
177.692642
 20
475.270691
 10
177.640167
 20
474.157776
 10
177.588211
 20
473.04483
 10
177.536713
 20
471.931824
 10
177.485672
 20
470.818817
 10
177.435043
 20
469.70575
 10
177.384811
 20
468.592651
 10
177.334915
 20
467.479553
 10
177.285339
 20
466.366394
 10
177.236053
 20
465.253235
 10
177.187042
 20
464.140015
 10
177.138245
 20
463.026794
 10
177.089661
 20
461.913574
 10
177.041275
 20
460.800293
 10
176.993042
 20
459.687012
 10
176.944946
 20
458.5737
 10
176.896988
 20
457.460388
 10
176.849121
 20
456.347046
 10
176.801346
 20
455.233704
 10
176.753632
 20
454.120361
 10
176.705948
 20
453.006989
 10
176.65831
 20
451.893616
 10
176.610687
 20
450.780212
 10
176.563065
 20
449.66684
 10
176.515427
 20
448.553436
 10
176.467773
 20
447.440033
 10
176.420059
 20
446.32663
 10
176.372299
 20
445.213226
 10
176.324448
 20
444.099854
 10
176.276505
 20
442.98645
 10
176.228439
 20
441.873077
 10
176.180252
 20
440.759674
 10
176.131912
 20
439.646301
 10
176.083405
 20
438.532959
 10
176.034714
 20
437.419617
 10
175.985809
 20
436.306274
 10
175.936707
 20
435.192963
 10
175.88736
 20
434.079651
 10
175.837753
 20
432.96637
 10
175.787872
 20
431.853088
 10
175.737701
 20
430.739868
 10
175.687241
 20
429.626648
 10
175.636444
 20
428.513458
 10
175.585297
 20
427.400269
 10
175.533813
 20
426.28714
 10
175.481949
 20
425.174042
 10
175.429703
 20
424.060974
 10
175.377045
 20
422.947937
 10
175.323975
 20
421.834961
 10
175.270462
 20
420.722015
 10
175.216507
 20
419.6091
 10
175.162094
 20
418.496246
 10
175.107178
 20
417.383423
 10
175.051788
 20
416.27066
 10
174.995865
 20
415.157959
 10
174.939423
 20
414.045288
 10
174.882431
 20
412.932678
 10
174.824875
 20
411.82016
 10
174.766739
 20
410.707672
 10
174.707947
 20
409.595276
 10
174.648468
 20
408.482941
 10
174.588226
 20
407.370728
 10
174.527206
 20
406.258575
 10
174.465439
 20
405.146576
 10
174.402939
 20
404.034637
 10
174.339767
 20
402.922821
 10
174.276199
 20
401.811066
 10
174.212753
 20
400.699341
 10
174.149994
 20
399.587616
 10
174.088425
 20
398.4758
 10
174.02861
 20
397.363892
 10
173.971069
 20
396.251801
 10
173.916336
 20
395.139557
 10
173.864914
 20
394.027069
 10
173.817307
 20
392.914337
 10
173.773972
 20
391.801453
 10
173.735352
 20
390.688385
 10
173.701904
 20
389.575195
 10
173.674026
 20
388.461914
 10
173.65213
 20
387.348663
 10
173.636444
 20
386.235504
 10
173.627197
 20
385.122437
 10
173.625244
 20
384.009583
 10
173.632599
 20
382.897156
 10
173.651489
 20
381.785309
 10
173.685165
 20
380.674683
 10
173.738205
 20
379.566345
 10
173.81543
 20
378.46167
 10
173.922424
 20
377.363342
 10
174.065125
 20
376.274658
 10
174.249741
 20
375.19989
 10
174.483017
 20
374.146057
 10
174.771591
 20
373.122223
 10
175.121475
 20
372.140472
 10
175.536377
 20
371.213043
 10
176.013046
 20
370.347992
 10
176.542068
 20
369.545227
 10
177.113617
 20
368.80127
 10
177.719284
 20
368.110596
 10
178.35199
 20
367.467255
 10
179.006134
 20
366.864838
 10
179.677109
 20
366.29718
 10
180.361069
 20
365.758118
 10
181.054947
 20
365.242004
 10
181.75618
 20
364.743439
 10
182.462585
 20
364.257324
 10
183.172241
 20
363.778839
 10
183.883636
 20
363.304047
 10
184.596588
 20
362.832916
 10
185.310791
 20
362.364502
 10
186.025681
 20
361.896881
 10
186.741882
 20
361.427429
  0
LWPOLYLINE
  5
12F
330
122
100
AcDbEntity
  8
0
  6
Continuous
 62
     0
370
     0
100
AcDbPolyline
 90
      206
 70
     0
 43
0.0
 10
191.534912
 20
357.990387
 10
190.842072
 20
358.52475
 10
190.141907
 20
359.039246
 10
189.436722
 20
359.539246
 10
188.728073
 20
360.028564
 10
188.0168
 20
360.509521
 10
187.303665
 20
360.984375
 10
186.589279
 20
361.454956
 10
185.874252
 20
361.923126
 10
185.159149
 20
362.390625
 10
184.44458
 20
362.859314
 10
183.731018
 20
363.330688
 10
183.018646
 20
363.805298
 10
182.307739
 20
364.284088
 10
181.599686
 20
364.770844
 10
180.896194
 20
365.270203
 10
180.199432
 20
365.787323
 10
179.511841
 20
366.327667
 10
178.836639
 20
366.896973
 10
178.177597
 20
367.501282
 10
177.539459
 20
368.146881
 10
176.928116
 20
368.84024
 10
176.350861
 20
369.587372
 10
175.816391
 20
370.393585
 10
175.335724
 20
371.261902
 10
174.918411
 20
372.191925
 10
174.567261
 20
373.175812
 10
174.278351
 20
374.201233
 10
174.045456
 20
375.255737
 10
173.861496
 20
376.330566
 10
173.719452
 20
377.419128
 10
173.613144
 20
378.517487
 10
173.53656
 20
379.622101
 10
173.484192
 20
380.730377
 10
173.451233
 20
381.841003
 10
173.432953
 20
382.95282
 10
173.426041
 20
384.065308
 10
173.428116
 20
385.178284
 10
173.437454
 20
386.291656
 10
173.453506
 20
387.40509
 10
173.475891
 20
388.518341
 10
173.504181
 20
389.631348
 10
173.537979
 20
390.74408
 10
173.576904
 20
391.856567
 10
173.620499
 20
392.968811
 10
173.66832
 20
394.080872
 10
173.71991
 20
395.192719
 10
173.77478
 20
396.304413
 10
173.832397
 20
397.415955
 10
173.892258
 20
398.527435
 10
173.953812
 20
399.638855
 10
174.016541
 20
400.750275
 10
174.07991
 20
401.861694
 10
174.143387
 20
402.973206
 10
174.206451
 20
404.084839
 10
174.26886
 20
405.196564
 10
174.330536
 20
406.308441
 10
174.391495
 20
407.42041
 10
174.451691
 20
408.532501
 10
174.511154
 20
409.644684
 10
174.569916
 20
410.756927
 10
174.628036
 20
411.869263
 10
174.685577
 20
412.981659
 10
174.742554
 20
414.094086
 10
174.798965
 20
415.206543
 10
174.854858
 20
416.319031
 10
174.910233
 20
417.43158
 10
174.965118
 20
418.544189
 10
175.019501
 20
419.656799
 10
175.073425
 20
420.76944
 10
175.126907
 20
421.882111
 10
175.179947
 20
422.994843
 10
175.232559
 20
424.107574
 10
175.28479
 20
425.220337
 10
175.336624
 20
426.33313
 10
175.388077
 20
427.445953
 10
175.439194
 20
428.558777
 10
175.48996
 20
429.671631
 10
175.540421
 20
430.784485
 10
175.590561
 20
431.897369
 10
175.640427
 20
433.010254
 10
175.690033
 20
434.123169
 10
175.739365
 20
435.236084
 10
175.788483
 20
436.348999
 10
175.837372
 20
437.461945
 10
175.886078
 20
438.57489
 10
175.934601
 20
439.687836
 10
175.982956
 20
440.800812
 10
176.031158
 20
441.913788
 10
176.079254
 20
443.026733
 10
176.127228
 20
444.139709
 10
176.17511
 20
445.252686
 10
176.222916
 20
446.365662
 10
176.27066
 20
447.478638
 10
176.318375
 20
448.591614
 10
176.366058
 20
449.70459
 10
176.413742
 20
450.817566
 10
176.461426
 20
451.930511
 10
176.509109
 20
453.043488
 10
176.556839
 20
454.156433
 10
176.604614
 20
455.269379
 10
176.652451
 20
456.382324
 10
176.700363
 20
457.49527
 10
176.748367
 20
458.608185
 10
176.796494
 20
459.7211
 10
176.844757
 20
460.833984
 10
176.893188
 20
461.946899
 10
176.941803
 20
463.059753
 10
176.990616
 20
464.172638
 10
177.039658
 20
465.285492
 10
177.088943
 20
466.398315
 10
177.138535
 20
467.511139
 10
177.188416
 20
468.623932
 10
177.238663
 20
469.736725
 10
177.289276
 20
470.849487
 10
177.340286
 20
471.962219
 10
177.391739
 20
473.074921
 10
177.443665
 20
474.187622
 10
177.496078
 20
475.300293
 10
177.549011
 20
476.412933
 10
177.602509
 20
477.525543
 10
177.656586
 20
478.638123
 10
177.711288
 20
479.750671
 10
177.766632
 20
480.86319
 10
177.822662
 20
481.975647
 10
177.879395
 20
483.088104
 10
177.936874
 20
484.2005
 10
177.995132
 20
485.312866
 10
178.054199
 20
486.425201
 10
178.11412
 20
487.537445
 10
178.174927
 20
488.649689
 10
178.236649
 20
489.761841
 10
178.299332
 20
490.873932
 10
178.363007
 20
491.985962
 10
178.427704
 20
493.097931
 10
178.493454
 20
494.209839
 10
178.560318
 20
495.321686
 10
178.628296
 20
496.433441
 10
178.697464
 20
497.545105
 10
178.767838
 20
498.656708
 10
178.839447
 20
499.76825
 10
178.912338
 20
500.879669
 10
178.986542
 20
501.991028
 10
179.062027
 20
503.102325
 10
179.138763
 20
504.213501
 10
179.216721
 20
505.324646
 10
179.295837
 20
506.435699
 10
179.376129
 20
507.546722
 10
179.457672
 20
508.657654
 10
179.540466
 20
509.768524
 10
179.624588
 20
510.879303
 10
179.710175
 20
511.98999
 10
179.797516
 20
513.100525
 10
179.886932
 20
514.210876
 10
179.978912
 20
515.320923
 10
180.071793
 20
516.430908
 10
180.161514
 20
517.541016
 10
180.243271
 20
518.651794
 10
180.312332
 20
519.763611
 10
180.364685
 20
520.876221
 10
180.396606
 20
521.989624
 10
180.404739
 20
523.103271
 10
180.386108
 20
524.216736
 10
180.338318
 20
525.329346
 10
180.260056
 20
526.440308
 10
180.150101
 20
527.548523
 10
180.006866
 20
528.652893
 10
179.828644
 20
529.752075
 10
179.613998
 20
530.844788
 10
179.362137
 20
531.929504
 10
179.072357
 20
533.004822
 10
178.744675
 20
534.069336
 10
178.379944
 20
535.12146
 10
177.97908
 20
536.160034
 10
177.543045
 20
537.184265
 10
177.072983
 20
538.193481
 10
176.570236
 20
539.187134
 10
176.035767
 20
540.164368
 10
175.470352
 20
541.123962
 10
174.874527
 20
542.064819
 10
174.248795
 20
542.985962
 10
173.593597
 20
543.886292
 10
172.909485
 20
544.764771
 10
172.196991
 20
545.620361
 10
171.456635
 20
546.451965
 10
170.689011
 20
547.258545
 10
169.89473
 20
548.039062
 10
169.074493
 20
548.79248
 10
168.228851
 20
549.517456
 10
167.357895
 20
550.211609
 10
166.461578
 20
550.872253
 10
165.540588
 20
551.497925
 10
164.596619
 20
552.08844
 10
163.631485
 20
552.643799
 10
162.647385
 20
553.165161
 10
161.646713
 20
553.654419
 10
160.631912
 20
554.113464
 10
159.604782
 20
554.543884
 10
158.566391
 20
554.94696
 10
157.517761
 20
555.32373
 10
156.460281
 20
555.676514
 10
155.395935
 20
556.009155
 10
154.326782
 20
556.325745
 10
153.254868
 20
556.630371
 10
152.182236
 20
556.927124
 10
151.107635
 20
557.221008
  0
ELLIPSE
  5
130
330
122
100
AcDbEntity
  8
0
  6
Continuous
 62
     0
370
     0
100
AcDbEllipse
 10
191.534916
 20
357.833302
 30
0.0
 11
0.1237880758299172
 21
0.1570875980923379
 31
0.0
210
0.0
220
0.0
230
1.0
 40
0.61762
 41
0.0000000343998332
 42
0.9060360014987863
  0
LINE
  5
131
330
122
100
AcDbEntity
  8
0
  6
Continuous
 62
     0
370
     0
100
AcDbLine
 10
191.849215
 20
357.597686
 30
0.0
 11
191.649215
 21
357.597686
 31
0.0
  0
LINE
  5
132
330
122
100
AcDbEntity
  8
0
  6
Continuous
 62
     0
370
     0
100
AcDbLine
 10
191.649215
 20
357.597686
 30
0.0
 11
191.649215
 21
355.83896
 31
0.0
  0
LINE
  5
133
330
122
100
AcDbEntity
  8
0
  6
Continuous
 62
     0
370
    30
100
AcDbLine
 10
191.649215
 20
355.83896
 30
0.0
 11
191.849215
 21
355.83896
 31
0.0
  0
LINE
  5
134
330
122
100
AcDbEntity
  8
0
  6
Continuous
 62
     0
370
    30
100
AcDbLine
 10
191.849215
 20
355.83896
 30
0.0
 11
191.849215
 21
357.597686
 31
0.0
  0
LINE
  5
135
330
122
100
AcDbEntity
  8
0
  6
Continuous
 62
     0
370
    30
100
AcDbLine
 10
146.43025
 20
536.959954
 30
0.0
 11
147.399326
 21
536.712073
 31
0.0
  0
LINE
  5
136
330
122
100
AcDbEntity
  8
0
  6
Continuous
 62
     0
370
    30
100
AcDbLine
 10
137.039822
 20
357.990415
 30
0.0
 11
136.849288
 21
357.597694
 31
0.0
  0
LINE
  5
137
330
122
100
AcDbEntity
  8
0
  6
Continuous
 62
     0
370
    30
100
AcDbLine
 10
191.849215
 20
357.597686
 30
0.0
 11
191.658706
 21
357.990387
 31
0.0
  0
LINE
  5
138
330
122
100
AcDbEntity
  8
0
  6
Continuous
 62
     0
370
    30
100
AcDbLine
 10
147.441371
 20
536.894188
 30
0.0
 11
146.472269
 21
537.141958
 31
0.0
  0
LINE
  5
139
330
122
100
AcDbEntity
  8
0
  6
Continuous
 62
     0
370
     0
100
AcDbLine
 10
191.534897
 20
357.990379
 30
0.0
 11
137.163638
 21
357.990428
 31
0.0
  0
LINE
  5
13A
330
122
100
AcDbEntity
  8
0
  6
Continuous
 62
     0
370
     0
100
AcDbLine
 10
191.534916
 20
357.990379
 30
0.0
 11
191.649215
 21
357.597686
 31
0.0
  0
LINE
  5
13B
330
122
100
AcDbEntity
  8
0
  6
Continuous
 62
     0
370
     0
100
AcDbLine
 10
137.049288
 20
357.597694
 30
0.0
 11
137.163592
 21
357.990425
 31
0.0
  0
LINE
  5
13C
330
122
100
AcDbEntity
  8
0
  6
Continuous
 62
     0
370
     0
100
AcDbLine
 10
191.649215
 20
357.597686
 30
0.0
 11
137.049288
 21
357.597646
 31
0.0
  0
LINE
  5
13D
330
122
100
AcDbEntity
  8
0
  6
Continuous
 62
     0
370
    30
100
AcDbLine
 10
137.049288
 20
355.83896
 30
0.0
 11
191.649215
 21
355.83896
 31
0.0
  0
ENDBLK
  5
13F
330
122
100
AcDbEntity
  8
0
100
AcDbBlockEnd
  0
ENDSEC
  0
SECTION
  2
ENTITIES
  0
INSERT
  5
A5
330
1F
100
AcDbEntity
  8
0
  6
Continuous
 62
     7
420
 16250871
370
     0
100
AcDbBlockReference
  2
a
 10
276.227936
 20
90.540215
 30
0.0
  0
INSERT
  5
D8
330
1F
100
AcDbEntity
  8
0
  6
Continuous
 62
     7
420
 16250871
370
     0
100
AcDbBlockReference
  2
b
 10
276.227936
 20
90.540215
 30
0.0
  0
INSERT
  5
F4
330
1F
100
AcDbEntity
  8
0
  6
Continuous
 62
     7
420
 16250871
370
     0
100
AcDbBlockReference
  2
c
 10
276.227936
 20
90.540215
 30
0.0
  0
INSERT
  5
121
330
1F
100
AcDbEntity
  8
0
  6
Continuous
 62
     7
420
 16250871
370
     0
100
AcDbBlockReference
  2
d
 10
276.227936
 20
90.540215
 30
0.0
  0
INSERT
  5
140
330
1F
100
AcDbEntity
  8
0
  6
Continuous
 62
     7
420
 16250871
370
     0
100
AcDbBlockReference
  2
e
 10
224.021317
 20
0.0
 30
0.0
  0
ENDSEC
  0
SECTION
  2
OBJECTS
  0
DICTIONARY
  5
C
330
0
100
AcDbDictionary
281
     1
  3
ACAD_DETAILVIEWSTYLE
350
178
  3
ACAD_GROUP
350
D
  3
ACAD_LAYOUT
350
1A
  3
ACAD_MATERIAL
350
43
  3
ACAD_MLEADERSTYLE
350
6B
  3
ACAD_MLINESTYLE
350
17
  3
ACAD_PLOTSETTINGS
350
19
  3
ACAD_PLOTSTYLENAME
350
E
  3
ACAD_SCALELIST
350
47
  3
ACAD_SECTIONVIEWSTYLE
350
179
  3
ACAD_TABLESTYLE
350
69
  3
ACAD_VISUALSTYLE
350
2A
  3
ACDB_RECOMPOSE_DATA
350
175
  3
AcDbVariableDictionary
350
141
  0
SUN
  5
6D
330
29
100
AcDbSun
 90
        1
290
     0
 63
     7
421
 16777215
 40
1.0
291
     1
 91
  2455826
 92
 54000000
292
     0
 70
     2
 71
   256
280
     1
  0
DICTIONARY
  5
178
102
{ACAD_REACTORS
330
C
102
}
330
C
100
AcDbDictionary
281
     1
  0
DICTIONARY
  5
D
102
{ACAD_REACTORS
330
C
102
}
330
C
100
AcDbDictionary
281
     1
  0
DICTIONARY
  5
1A
102
{ACAD_REACTORS
330
C
102
}
330
C
100
AcDbDictionary
281
     1
  3
Layout1
350
1E
  3
Layout2
350
26
  3
Model
350
22
  0
DICTIONARY
  5
43
102
{ACAD_REACTORS
330
C
102
}
330
C
100
AcDbDictionary
281
     1
  3
ByBlock
350
45
  3
ByLayer
350
44
  3
Global
350
46
  0
DICTIONARY
  5
6B
102
{ACAD_REACTORS
330
C
102
}
330
C
100
AcDbDictionary
281
     1
  3
Standard
350
6C
  0
DICTIONARY
  5
17
102
{ACAD_REACTORS
330
C
102
}
330
C
100
AcDbDictionary
281
     1
  3
Standard
350
18
  0
DICTIONARY
  5
19
102
{ACAD_REACTORS
330
C
102
}
330
C
100
AcDbDictionary
281
     1
  0
ACDBDICTIONARYWDFLT
  5
E
102
{ACAD_REACTORS
330
C
102
}
330
C
100
AcDbDictionary
281
     1
  3
Normal
350
F
100
AcDbDictionaryWithDefault
340
F
  0
DICTIONARY
  5
47
102
{ACAD_REACTORS
330
C
102
}
330
C
100
AcDbDictionary
281
     1
  3
A0
350
48
  3
A1
350
49
  3
A2
350
4A
  3
A3
350
4B
  3
A4
350
4C
  3
A5
350
4D
  3
A6
350
4E
  3
A7
350
4F
  3
A8
350
50
  3
A9
350
51
  3
B0
350
52
  3
B1
350
53
  3
B2
350
54
  3
B3
350
55
  3
B4
350
56
  3
B5
350
57
  3
B6
350
58
  3
B7
350
59
  3
B8
350
5A
  3
B9
350
5B
  3
C0
350
5C
  3
C1
350
5D
  3
C2
350
5E
  3
C3
350
5F
  3
C4
350
60
  3
C5
350
61
  3
C6
350
62
  3
C7
350
63
  3
C8
350
64
  3
C9
350
65
  3
D0
350
66
  3
D1
350
67
  3
D2
350
68
  0
DICTIONARY
  5
179
102
{ACAD_REACTORS
330
C
102
}
330
C
100
AcDbDictionary
281
     1
  0
DICTIONARY
  5
69
102
{ACAD_REACTORS
330
C
102
}
330
C
100
AcDbDictionary
281
     1
  3
Standard
350
6A
  0
DICTIONARY
  5
2A
102
{ACAD_REACTORS
330
C
102
}
330
C
100
AcDbDictionary
281
     1
  3
2dWireframe
350
2F
  3
Basic
350
32
  3
Brighten
350
36
  3
ColorChange
350
3A
  3
Conceptual
350
34
  3
Dim
350
35
  3
EdgeColorOff
350
3D
  3
Facepattern
350
39
  3
Flat
350
2B
  3
FlatWithEdges
350
2C
  3
Gouraud
350
2D
  3
GouraudWithEdges
350
2E
  3
Hidden
350
31
  3
JitterOff
350
3B
  3
Linepattern
350
38
  3
OverhangOff
350
3C
  3
Realistic
350
33
  3
Shaded
350
42
  3
Shaded with edges
350
41
  3
Shades of Gray
350
3E
  3
Sketchy
350
3F
  3
Thicken
350
37
  3
Wireframe
350
30
  3
X-Ray
350
40
  0
XRECORD
  5
175
102
{ACAD_REACTORS
330
C
102
}
330
C
100
AcDbXrecord
280
     1
 90
        1
330
6A
  0
DICTIONARY
  5
141
102
{ACAD_REACTORS
330
C
102
}
330
C
100
AcDbDictionary
281
     1
  3
CANNOSCALE
350
142
  3
CMLEADERSTYLE
350
177
  3
CTABLESTYLE
350
176
  0
LAYOUT
  5
1E
102
{ACAD_REACTORS
330
1A
102
}
330
1A
100
AcDbPlotSettings
  1

  2
none_device
  4

  6

 40
0.0
 41
0.0
 42
0.0
 43
0.0
 44
0.0
 45
0.0
 46
0.0
 47
0.0
 48
0.0
 49
0.0
140
0.0
141
0.0
142
1.0
143
1.0
 70
   688
 72
     1
 73
     0
 74
     5
  7

 75
    16
 76
     0
 77
     2
 78
   300
147
1.0
148
0.0
149
0.0
100
AcDbLayout
  1
Layout1
 70
     1
 71
     1
 10
0.0
 20
0.0
 11
420.0
 21
297.0
 12
0.0
 22
0.0
 32
0.0
 14
1.000000E+20
 24
1.000000E+20
 34
1.000000E+20
 15
-1.000000E+20
 25
-1.000000E+20
 35
-1.000000E+20
146
0.0
 13
0.0
 23
0.0
 33
0.0
 16
1.0
 26
0.0
 36
0.0
 17
0.0
 27
1.0
 37
0.0
 76
     0
330
1B
  0
LAYOUT
  5
26
102
{ACAD_REACTORS
330
1A
102
}
330
1A
100
AcDbPlotSettings
  1

  2
none_device
  4

  6

 40
0.0
 41
0.0
 42
0.0
 43
0.0
 44
0.0
 45
0.0
 46
0.0
 47
0.0
 48
0.0
 49
0.0
140
0.0
141
0.0
142
1.0
143
1.0
 70
   688
 72
     1
 73
     0
 74
     5
  7

 75
    16
 76
     0
 77
     2
 78
   300
147
1.0
148
0.0
149
0.0
100
AcDbLayout
  1
Layout2
 70
     1
 71
     2
 10
0.0
 20
0.0
 11
0.0
 21
0.0
 12
0.0
 22
0.0
 32
0.0
 14
0.0
 24
0.0
 34
0.0
 15
0.0
 25
0.0
 35
0.0
146
0.0
 13
0.0
 23
0.0
 33
0.0
 16
1.0
 26
0.0
 36
0.0
 17
0.0
 27
1.0
 37
0.0
 76
     0
330
23
  0
LAYOUT
  5
22
102
{ACAD_REACTORS
330
1A
102
}
330
1A
100
AcDbPlotSettings
  1

  2
none_device
  4
Letter_(8.50_x_11.00_Inches)
  6

 40
6.35
 41
6.35
 42
6.350005
 43
6.350005
 44
215.9
 45
279.4
 46
0.0
 47
0.0
 48
0.0
 49
0.0
140
0.0
141
0.0
142
1.0
143
1.0
 70
  1712
 72
     1
 73
     0
 74
     0
  7

 75
     0
 76
     0
 77
     2
 78
   300
147
1.0
148
0.0
149
0.0
100
AcDbLayout
  1
Model
 70
     1
 71
     0
 10
0.0
 20
0.0
 11
420.0
 21
297.0
 12
0.0
 22
0.0
 32
0.0
 14
1.000000E+20
 24
1.000000E+20
 34
1.000000E+20
 15
-1.000000E+20
 25
-1.000000E+20
 35
-1.000000E+20
146
0.0
 13
0.0
 23
0.0
 33
0.0
 16
1.0
 26
0.0
 36
0.0
 17
0.0
 27
1.0
 37
0.0
 76
     0
330
1F
331
29
  0
MATERIAL
  5
45
102
{ACAD_REACTORS
330
43
102
}
330
43
100
AcDbMaterial
  1
ByBlock
 72
     1
 94
      127
  0
MATERIAL
  5
44
102
{ACAD_REACTORS
330
43
102
}
330
43
100
AcDbMaterial
  1
ByLayer
 72
     1
 94
      127
  0
MATERIAL
  5
46
102
{ACAD_REACTORS
330
43
102
}
330
43
100
AcDbMaterial
  1
Global
 72
     1
 94
      127
  0
MLEADERSTYLE
  5
6C
102
{ACAD_REACTORS
330
6B
102
}
330
6B
100
AcDbMLeaderStyle
179
     2
170
     2
171
     1
172
     0
 90
        2
 40
0.0
 41
0.0
173
     1
 91
-1056964608
340
14
 92
       -2
290
     1
 42
2.0
291
     1
 43
8.0
  3
Standard
341
0
 44
4.0
300

342
11
174
     1
178
     6
175
     1
176
     0
 93
-1056964608
 45
4.0
292
     0
297
     0
 46
4.0
343
0
 94
-1056964608
 47
1.0
 49
1.0
140
1.0
293
     1
141
0.0
294
     1
177
     0
142
1.0
295
     0
296
     0
143
3.75
271
     0
272
     9
273
     9
  0
MLINESTYLE
  5
18
102
{ACAD_REACTORS
330
17
102
}
330
17
100
AcDbMlineStyle
  2
Standard
 70
     0
  3

 62
   256
 51
90.0
 52
90.0
 71
     2
 49
0.5
 62
   256
  6
BYLAYER
 49
-0.5
 62
   256
  6
BYLAYER
  0
ACDBPLACEHOLDER
  5
F
102
{ACAD_REACTORS
330
E
102
}
330
E
  0
SCALE
  5
48
102
{ACAD_REACTORS
330
47
102
}
330
47
100
AcDbScale
 70
     0
300
1:1
140
1.0
141
1.0
290
     1
  0
SCALE
  5
49
102
{ACAD_REACTORS
330
47
102
}
330
47
100
AcDbScale
 70
     0
300
1:2
140
1.0
141
2.0
290
     0
  0
SCALE
  5
4A
102
{ACAD_REACTORS
330
47
102
}
330
47
100
AcDbScale
 70
     0
300
1:4
140
1.0
141
4.0
290
     0
  0
SCALE
  5
4B
102
{ACAD_REACTORS
330
47
102
}
330
47
100
AcDbScale
 70
     0
300
1:5
140
1.0
141
5.0
290
     0
  0
SCALE
  5
4C
102
{ACAD_REACTORS
330
47
102
}
330
47
100
AcDbScale
 70
     0
300
1:8
140
1.0
141
8.0
290
     0
  0
SCALE
  5
4D
102
{ACAD_REACTORS
330
47
102
}
330
47
100
AcDbScale
 70
     0
300
1:10
140
1.0
141
10.0
290
     0
  0
SCALE
  5
4E
102
{ACAD_REACTORS
330
47
102
}
330
47
100
AcDbScale
 70
     0
300
1:16
140
1.0
141
16.0
290
     0
  0
SCALE
  5
4F
102
{ACAD_REACTORS
330
47
102
}
330
47
100
AcDbScale
 70
     0
300
1:20
140
1.0
141
20.0
290
     0
  0
SCALE
  5
50
102
{ACAD_REACTORS
330
47
102
}
330
47
100
AcDbScale
 70
     0
300
1:30
140
1.0
141
30.0
290
     0
  0
SCALE
  5
51
102
{ACAD_REACTORS
330
47
102
}
330
47
100
AcDbScale
 70
     0
300
1:40
140
1.0
141
40.0
290
     0
  0
SCALE
  5
52
102
{ACAD_REACTORS
330
47
102
}
330
47
100
AcDbScale
 70
     0
300
1:50
140
1.0
141
50.0
290
     0
  0
SCALE
  5
53
102
{ACAD_REACTORS
330
47
102
}
330
47
100
AcDbScale
 70
     0
300
1:100
140
1.0
141
100.0
290
     0
  0
SCALE
  5
54
102
{ACAD_REACTORS
330
47
102
}
330
47
100
AcDbScale
 70
     0
300
2:1
140
2.0
141
1.0
290
     0
  0
SCALE
  5
55
102
{ACAD_REACTORS
330
47
102
}
330
47
100
AcDbScale
 70
     0
300
4:1
140
4.0
141
1.0
290
     0
  0
SCALE
  5
56
102
{ACAD_REACTORS
330
47
102
}
330
47
100
AcDbScale
 70
     0
300
8:1
140
8.0
141
1.0
290
     0
  0
SCALE
  5
57
102
{ACAD_REACTORS
330
47
102
}
330
47
100
AcDbScale
 70
     0
300
10:1
140
10.0
141
1.0
290
     0
  0
SCALE
  5
58
102
{ACAD_REACTORS
330
47
102
}
330
47
100
AcDbScale
 70
     0
300
100:1
140
100.0
141
1.0
290
     0
  0
SCALE
  5
59
102
{ACAD_REACTORS
330
47
102
}
330
47
100
AcDbScale
 70
     0
300
1/128" = 1'-0"
140
0.007812
141
12.0
290
     0
  0
SCALE
  5
5A
102
{ACAD_REACTORS
330
47
102
}
330
47
100
AcDbScale
 70
     0
300
1/64" = 1'-0"
140
0.015625
141
12.0
290
     0
  0
SCALE
  5
5B
102
{ACAD_REACTORS
330
47
102
}
330
47
100
AcDbScale
 70
     0
300
1/32" = 1'-0"
140
0.03125
141
12.0
290
     0
  0
SCALE
  5
5C
102
{ACAD_REACTORS
330
47
102
}
330
47
100
AcDbScale
 70
     0
300
1/16" = 1'-0"
140
0.0625
141
12.0
290
     0
  0
SCALE
  5
5D
102
{ACAD_REACTORS
330
47
102
}
330
47
100
AcDbScale
 70
     0
300
3/32" = 1'-0"
140
0.09375
141
12.0
290
     0
  0
SCALE
  5
5E
102
{ACAD_REACTORS
330
47
102
}
330
47
100
AcDbScale
 70
     0
300
1/8" = 1'-0"
140
0.125
141
12.0
290
     0
  0
SCALE
  5
5F
102
{ACAD_REACTORS
330
47
102
}
330
47
100
AcDbScale
 70
     0
300
3/16" = 1'-0"
140
0.1875
141
12.0
290
     0
  0
SCALE
  5
60
102
{ACAD_REACTORS
330
47
102
}
330
47
100
AcDbScale
 70
     0
300
1/4" = 1'-0"
140
0.25
141
12.0
290
     0
  0
SCALE
  5
61
102
{ACAD_REACTORS
330
47
102
}
330
47
100
AcDbScale
 70
     0
300
3/8" = 1'-0"
140
0.375
141
12.0
290
     0
  0
SCALE
  5
62
102
{ACAD_REACTORS
330
47
102
}
330
47
100
AcDbScale
 70
     0
300
1/2" = 1'-0"
140
0.5
141
12.0
290
     0
  0
SCALE
  5
63
102
{ACAD_REACTORS
330
47
102
}
330
47
100
AcDbScale
 70
     0
300
3/4" = 1'-0"
140
0.75
141
12.0
290
     0
  0
SCALE
  5
64
102
{ACAD_REACTORS
330
47
102
}
330
47
100
AcDbScale
 70
     0
300
1" = 1'-0"
140
1.0
141
12.0
290
     0
  0
SCALE
  5
65
102
{ACAD_REACTORS
330
47
102
}
330
47
100
AcDbScale
 70
     0
300
1-1/2" = 1'-0"
140
1.5
141
12.0
290
     0
  0
SCALE
  5
66
102
{ACAD_REACTORS
330
47
102
}
330
47
100
AcDbScale
 70
     0
300
3" = 1'-0"
140
3.0
141
12.0
290
     0
  0
SCALE
  5
67
102
{ACAD_REACTORS
330
47
102
}
330
47
100
AcDbScale
 70
     0
300
6" = 1'-0"
140
6.0
141
12.0
290
     0
  0
SCALE
  5
68
102
{ACAD_REACTORS
330
47
102
}
330
47
100
AcDbScale
 70
     0
300
1'-0" = 1'-0"
140
12.0
141
12.0
290
     0
  0
TABLESTYLE
  5
6A
102
{ACAD_REACTORS
330
69
102
}
102
{ACAD_XDICTIONARY
360
173
102
}
330
69
100
AcDbTableStyle
  3
Standard
 70
     0
 71
     0
 40
0.06
 41
0.06
280
     0
281
     0
  7
Standard
140
4.5
170
     2
 62
     0
 63
   257
283
     0
 90
        4
 91
        0
  1

274
    -2
284
     1
 64
     0
275
    -2
285
     1
 65
     0
276
    -2
286
     1
 66
     0
277
    -2
287
     1
 67
     0
278
    -2
288
     1
 68
     0
279
    -2
289
     1
 69
     0
  7
Standard
140
6.0
170
     5
 62
     0
 63
   257
283
     0
 90
        4
 91
        0
  1

274
    -2
284
     1
 64
     0
275
    -2
285
     1
 65
     0
276
    -2
286
     1
 66
     0
277
    -2
287
     1
 67
     0
278
    -2
288
     1
 68
     0
279
    -2
289
     1
 69
     0
  7
Standard
140
4.5
170
     5
 62
     0
 63
   257
283
     0
 90
        4
 91
        0
  1

274
    -2
284
     1
 64
     0
275
    -2
285
     1
 65
     0
276
    -2
286
     1
 66
     0
277
    -2
287
     1
 67
     0
278
    -2
288
     1
 68
     0
279
    -2
289
     1
 69
     0
  0
VISUALSTYLE
  5
2F
102
{ACAD_REACTORS
330
2A
102
}
102
{ACAD_XDICTIONARY
360
14B
102
}
330
2A
100
AcDbVisualStyle
  2
2dWireframe
 70
     4
177
     2
291
     0
 71
     0
176
     1
 72
     2
176
     1
 73
     0
176
     1
 90
        0
176
     1
 40
0.6
176
     1
 41
30.0
176
     1
 62
     5
 63
     7
421
 16777215
176
     1
 74
     1
176
     1
 91
        4
176
     1
 64
     7
176
     1
 65
   257
176
     1
 75
     1
176
     1
175
     1
176
     1
 42
1.0
176
     1
 92
        0
176
     1
 66
   257
176
     1
 43
1.0
176
     1
 76
     1
176
     1
 77
     6
176
     1
 78
     2
176
     1
 67
     7
176
     1
 79
     5
176
     1
170
     0
176
     1
171
     0
176
     1
290
     0
176
     1
 93
        1
176
     1
 44
0.0
176
     1
173
     0
176
     1
  0
VISUALSTYLE
  5
32
102
{ACAD_REACTORS
330
2A
102
}
102
{ACAD_XDICTIONARY
360
151
102
}
330
2A
100
AcDbVisualStyle
  2
Basic
 70
     7
177
     2
291
     1
 71
     1
176
     1
 72
     0
176
     1
 73
     1
176
     1
 90
        0
176
     1
 40
0.6
176
     1
 41
30.0
176
     1
 62
     5
 63
     7
421
 16777215
176
     1
 74
     0
176
     1
 91
        4
176
     1
 64
     7
176
     1
 65
   257
176
     1
 75
     1
176
     1
175
     1
176
     1
 42
1.0
176
     1
 92
        8
176
     1
 66
     7
176
     1
 43
1.0
176
     1
 76
     1
176
     1
 77
     6
176
     1
 78
     2
176
     1
 67
     7
176
     1
 79
     5
176
     1
170
     0
176
     1
171
     0
176
     1
290
     0
176
     1
 93
        1
176
     1
 44
0.0
176
     1
173
     0
176
     1
  0
VISUALSTYLE
  5
36
102
{ACAD_REACTORS
330
2A
102
}
102
{ACAD_XDICTIONARY
360
159
102
}
330
2A
100
AcDbVisualStyle
  2
Brighten
 70
    12
177
     2
291
     1
 71
     2
176
     1
 72
     2
176
     1
 73
     0
176
     1
 90
        0
176
     1
 40
0.6
176
     1
 41
30.0
176
     1
 62
     5
 63
     7
421
 16777215
176
     1
 74
     1
176
     1
 91
        4
176
     1
 64
     7
176
     1
 65
   257
176
     1
 75
     1
176
     1
175
     1
176
     1
 42
1.0
176
     1
 92
        8
176
     1
 66
     7
176
     1
 43
1.0
176
     1
 76
     1
176
     1
 77
     6
176
     1
 78
     2
176
     1
 67
     7
176
     1
 79
     5
176
     1
170
     0
176
     1
171
     0
176
     1
290
     0
176
     1
 93
        1
176
     1
 44
50.0
176
     1
173
     0
176
     1
  0
VISUALSTYLE
  5
3A
102
{ACAD_REACTORS
330
2A
102
}
102
{ACAD_XDICTIONARY
360
161
102
}
330
2A
100
AcDbVisualStyle
  2
ColorChange
 70
    16
177
     2
291
     1
 71
     2
176
     1
 72
     2
176
     1
 73
     3
176
     1
 90
        0
176
     1
 40
0.6
176
     1
 41
30.0
176
     1
 62
     5
 63
     8
421
  8421504
176
     1
 74
     1
176
     1
 91
        4
176
     1
 64
     7
176
     1
 65
   257
176
     1
 75
     1
176
     1
175
     1
176
     1
 42
1.0
176
     1
 92
        8
176
     1
 66
     8
424
  8421504
176
     1
 43
1.0
176
     1
 76
     1
176
     1
 77
     6
176
     1
 78
     2
176
     1
 67
     7
176
     1
 79
     5
176
     1
170
     0
176
     1
171
     0
176
     1
290
     0
176
     1
 93
        1
176
     1
 44
0.0
176
     1
173
     0
176
     1
  0
VISUALSTYLE
  5
34
102
{ACAD_REACTORS
330
2A
102
}
102
{ACAD_XDICTIONARY
360
155
102
}
330
2A
100
AcDbVisualStyle
  2
Conceptual
 70
     9
177
     2
291
     0
 71
     3
176
     1
 72
     2
176
     1
 73
     0
176
     1
 90
        0
176
     1
 40
0.6
176
     1
 41
30.0
176
     1
 62
     5
 63
     7
421
 16777215
176
     1
 74
     2
176
     1
 91
        2
176
     1
 64
     7
176
     1
 65
   257
176
     1
 75
     1
176
     1
175
     1
176
     1
 42
179.0
176
     1
 92
        8
176
     1
 66
     7
176
     1
 43
1.0
176
     1
 76
     1
176
     1
 77
     6
176
     1
 78
     2
176
     1
 67
     7
176
     1
 79
     3
176
     1
170
     0
176
     1
171
     0
176
     1
290
     0
176
     1
 93
        1
176
     1
 44
0.0
176
     1
173
     0
176
     1
  0
VISUALSTYLE
  5
35
102
{ACAD_REACTORS
330
2A
102
}
102
{ACAD_XDICTIONARY
360
157
102
}
330
2A
100
AcDbVisualStyle
  2
Dim
 70
    11
177
     2
291
     1
 71
     2
176
     1
 72
     2
176
     1
 73
     0
176
     1
 90
        0
176
     1
 40
0.6
176
     1
 41
30.0
176
     1
 62
     5
 63
     7
421
 16777215
176
     1
 74
     1
176
     1
 91
        4
176
     1
 64
     7
176
     1
 65
   257
176
     1
 75
     1
176
     1
175
     1
176
     1
 42
1.0
176
     1
 92
        8
176
     1
 66
     7
176
     1
 43
1.0
176
     1
 76
     1
176
     1
 77
     6
176
     1
 78
     2
176
     1
 67
     7
176
     1
 79
     5
176
     1
170
     0
176
     1
171
     0
176
     1
290
     0
176
     1
 93
        1
176
     1
 44
-50.0
176
     1
173
     0
176
     1
  0
VISUALSTYLE
  5
3D
102
{ACAD_REACTORS
330
2A
102
}
102
{ACAD_XDICTIONARY
360
167
102
}
330
2A
100
AcDbVisualStyle
  2
EdgeColorOff
 70
    22
177
     2
291
     1
 71
     2
176
     0
 72
     2
176
     0
 73
     0
176
     0
 90
        0
176
     0
 40
0.6
176
     0
 41
30.0
176
     0
 62
     5
 63
     7
421
 16777215
176
     0
 74
     1
176
     0
 91
        4
176
     0
 64
     7
176
     0
 65
   257
176
     0
 75
     1
176
     0
175
     1
176
     0
 42
1.0
176
     0
 92
        8
176
     2
 66
     7
176
     0
 43
1.0
176
     0
 76
     1
176
     0
 77
     6
176
     0
 78
     2
176
     0
 67
     7
176
     0
 79
     5
176
     0
170
     0
176
     0
171
     0
176
     0
290
     0
176
     0
 93
        1
176
     0
 44
0.0
176
     0
173
     0
176
     0
  0
VISUALSTYLE
  5
39
102
{ACAD_REACTORS
330
2A
102
}
102
{ACAD_XDICTIONARY
360
15F
102
}
330
2A
100
AcDbVisualStyle
  2
Facepattern
 70
    15
177
     2
291
     1
 71
     2
176
     1
 72
     2
176
     1
 73
     0
176
     1
 90
        0
176
     1
 40
0.6
176
     1
 41
30.0
176
     1
 62
     5
 63
     7
421
 16777215
176
     1
 74
     1
176
     1
 91
        4
176
     1
 64
     7
176
     1
 65
   257
176
     1
 75
     1
176
     1
175
     1
176
     1
 42
1.0
176
     1
 92
        8
176
     1
 66
     7
176
     1
 43
1.0
176
     1
 76
     1
176
     1
 77
     6
176
     1
 78
     2
176
     1
 67
     7
176
     1
 79
     5
176
     1
170
     0
176
     1
171
     0
176
     1
290
     0
176
     1
 93
        1
176
     1
 44
0.0
176
     1
173
     0
176
     1
  0
VISUALSTYLE
  5
2B
102
{ACAD_REACTORS
330
2A
102
}
102
{ACAD_XDICTIONARY
360
143
102
}
330
2A
100
AcDbVisualStyle
  2
Flat
 70
     0
177
     2
291
     1
 71
     2
176
     1
 72
     1
176
     1
 73
     1
176
     1
 90
        2
176
     1
 40
0.6
176
     1
 41
30.0
176
     1
 62
     5
 63
     7
421
 16777215
176
     1
 74
     0
176
     1
 91
        0
176
     1
 64
     7
176
     1
 65
   257
176
     1
 75
     1
176
     1
175
     1
176
     1
 42
1.0
176
     1
 92
        8
176
     1
 66
     7
176
     1
 43
1.0
176
     1
 76
     1
176
     1
 77
     6
176
     1
 78
     2
176
     1
 67
     7
176
     1
 79
     5
176
     1
170
     0
176
     1
171
     0
176
     1
290
     0
176
     1
 93
       13
176
     1
 44
0.0
176
     1
173
     0
176
     1
  0
VISUALSTYLE
  5
2C
102
{ACAD_REACTORS
330
2A
102
}
102
{ACAD_XDICTIONARY
360
145
102
}
330
2A
100
AcDbVisualStyle
  2
FlatWithEdges
 70
     1
177
     2
291
     1
 71
     2
176
     1
 72
     1
176
     1
 73
     1
176
     1
 90
        2
176
     1
 40
0.6
176
     1
 41
30.0
176
     1
 62
     5
 63
     7
421
 16777215
176
     1
 74
     1
176
     1
 91
        0
176
     1
 64
     7
176
     1
 65
   257
176
     1
 75
     1
176
     1
175
     1
176
     1
 42
1.0
176
     1
 92
        0
176
     1
 66
   257
176
     1
 43
1.0
176
     1
 76
     1
176
     1
 77
     6
176
     1
 78
     2
176
     1
 67
     7
176
     1
 79
     5
176
     1
170
     0
176
     1
171
     0
176
     1
290
     0
176
     1
 93
       13
176
     1
 44
0.0
176
     1
173
     0
176
     1
  0
VISUALSTYLE
  5
2D
102
{ACAD_REACTORS
330
2A
102
}
102
{ACAD_XDICTIONARY
360
147
102
}
330
2A
100
AcDbVisualStyle
  2
Gouraud
 70
     2
177
     2
291
     1
 71
     2
176
     1
 72
     2
176
     1
 73
     1
176
     1
 90
        2
176
     1
 40
0.6
176
     1
 41
30.0
176
     1
 62
     5
 63
     7
421
 16777215
176
     1
 74
     0
176
     1
 91
        0
176
     1
 64
     7
176
     1
 65
   257
176
     1
 75
     1
176
     1
175
     1
176
     1
 42
1.0
176
     1
 92
        0
176
     1
 66
     7
176
     1
 43
1.0
176
     1
 76
     1
176
     1
 77
     6
176
     1
 78
     2
176
     1
 67
     7
176
     1
 79
     5
176
     1
170
     0
176
     1
171
     0
176
     1
290
     0
176
     1
 93
       13
176
     1
 44
0.0
176
     1
173
     0
176
     1
  0
VISUALSTYLE
  5
2E
102
{ACAD_REACTORS
330
2A
102
}
102
{ACAD_XDICTIONARY
360
149
102
}
330
2A
100
AcDbVisualStyle
  2
GouraudWithEdges
 70
     3
177
     2
291
     1
 71
     2
176
     1
 72
     2
176
     1
 73
     1
176
     1
 90
        2
176
     1
 40
0.6
176
     1
 41
30.0
176
     1
 62
     5
 63
     7
421
 16777215
176
     1
 74
     1
176
     1
 91
        0
176
     1
 64
     7
176
     1
 65
   257
176
     1
 75
     1
176
     1
175
     1
176
     1
 42
1.0
176
     1
 92
        0
176
     1
 66
   257
176
     1
 43
1.0
176
     1
 76
     1
176
     1
 77
     6
176
     1
 78
     2
176
     1
 67
     7
176
     1
 79
     5
176
     1
170
     0
176
     1
171
     0
176
     1
290
     0
176
     1
 93
       13
176
     1
 44
0.0
176
     1
173
     0
176
     1
  0
VISUALSTYLE
  5
31
102
{ACAD_REACTORS
330
2A
102
}
102
{ACAD_XDICTIONARY
360
14F
102
}
330
2A
100
AcDbVisualStyle
  2
Hidden
 70
     6
177
     2
291
     0
 71
     1
176
     1
 72
     2
176
     1
 73
     2
176
     1
 90
        0
176
     1
 40
0.6
176
     1
 41
30.0
176
     1
 62
     5
 63
     7
421
 16777215
176
     1
 74
     2
176
     1
 91
        2
176
     1
 64
     7
176
     1
 65
   257
176
     1
 75
     2
176
     1
175
     1
176
     1
 42
40.0
176
     1
 92
        0
176
     1
 66
   257
176
     1
 43
1.0
176
     1
 76
     1
176
     1
 77
     6
176
     1
 78
     2
176
     1
 67
     7
176
     1
 79
     3
176
     1
170
     0
176
     1
171
     0
176
     1
290
     0
176
     1
 93
        1
176
     1
 44
0.0
176
     1
173
     0
176
     1
  0
VISUALSTYLE
  5
3B
102
{ACAD_REACTORS
330
2A
102
}
102
{ACAD_XDICTIONARY
360
163
102
}
330
2A
100
AcDbVisualStyle
  2
JitterOff
 70
    20
177
     2
291
     1
 71
     2
176
     0
 72
     2
176
     0
 73
     0
176
     0
 90
        0
176
     0
 40
0.6
176
     0
 41
30.0
176
     0
 62
     5
 63
     7
421
 16777215
176
     0
 74
     1
176
     0
 91
        4
176
     0
 64
     7
176
     0
 65
   257
176
     0
 75
     1
176
     0
175
     1
176
     0
 42
1.0
176
     0
 92
       10
176
     2
 66
     7
176
     0
 43
1.0
176
     0
 76
     1
176
     0
 77
     6
176
     0
 78
     2
176
     0
 67
     7
176
     0
 79
     5
176
     0
170
     0
176
     0
171
     0
176
     0
290
     0
176
     0
 93
        1
176
     0
 44
0.0
176
     0
173
     0
176
     0
  0
VISUALSTYLE
  5
38
102
{ACAD_REACTORS
330
2A
102
}
102
{ACAD_XDICTIONARY
360
15D
102
}
330
2A
100
AcDbVisualStyle
  2
Linepattern
 70
    14
177
     2
291
     1
 71
     2
176
     1
 72
     2
176
     1
 73
     0
176
     1
 90
        0
176
     1
 40
0.6
176
     1
 41
30.0
176
     1
 62
     5
 63
     7
421
 16777215
176
     1
 74
     1
176
     1
 91
        4
176
     1
 64
     7
176
     1
 65
   257
176
     1
 75
     7
176
     1
175
     7
176
     1
 42
1.0
176
     1
 92
        8
176
     1
 66
     7
176
     1
 43
1.0
176
     1
 76
     1
176
     1
 77
     6
176
     1
 78
     2
176
     1
 67
     7
176
     1
 79
     5
176
     1
170
     0
176
     1
171
     0
176
     1
290
     0
176
     1
 93
        1
176
     1
 44
0.0
176
     1
173
     0
176
     1
  0
VISUALSTYLE
  5
3C
102
{ACAD_REACTORS
330
2A
102
}
102
{ACAD_XDICTIONARY
360
165
102
}
330
2A
100
AcDbVisualStyle
  2
OverhangOff
 70
    21
177
     2
291
     1
 71
     2
176
     0
 72
     2
176
     0
 73
     0
176
     0
 90
        0
176
     0
 40
0.6
176
     0
 41
30.0
176
     0
 62
     5
 63
     7
421
 16777215
176
     0
 74
     1
176
     0
 91
        4
176
     0
 64
     7
176
     0
 65
   257
176
     0
 75
     1
176
     0
175
     1
176
     0
 42
1.0
176
     0
 92
        9
176
     2
 66
     7
176
     0
 43
1.0
176
     0
 76
     1
176
     0
 77
     6
176
     0
 78
     2
176
     0
 67
     7
176
     0
 79
     5
176
     0
170
     0
176
     0
171
     0
176
     0
290
     0
176
     0
 93
        1
176
     0
 44
0.0
176
     0
173
     0
176
     0
  0
VISUALSTYLE
  5
33
102
{ACAD_REACTORS
330
2A
102
}
102
{ACAD_XDICTIONARY
360
153
102
}
330
2A
100
AcDbVisualStyle
  2
Realistic
 70
     8
177
     2
291
     0
 71
     2
176
     1
 72
     3
176
     1
 73
     0
176
     1
 90
        2
176
     1
 40
0.6
176
     1
 41
30.0
176
     1
 62
     5
 63
     7
421
 16777215
176
     1
 74
     0
176
     1
 91
        0
176
     1
 64
     7
176
     1
 65
   257
176
     1
 75
     1
176
     1
175
     1
176
     1
 42
1.0
176
     1
 92
        8
176
     1
 66
   257
176
     1
 43
1.0
176
     1
 76
     1
176
     1
 77
     6
176
     1
 78
     2
176
     1
 67
     7
176
     1
 79
     3
176
     1
170
     0
176
     1
171
     0
176
     1
290
     0
176
     1
 93
       13
176
     1
 44
0.0
176
     1
173
     0
176
     1
  0
VISUALSTYLE
  5
42
102
{ACAD_REACTORS
330
2A
102
}
102
{ACAD_XDICTIONARY
360
171
102
}
330
2A
100
AcDbVisualStyle
  2
Shaded
 70
    27
177
     2
291
     0
 71
     2
176
     1
 72
     2
176
     1
 73
     1
176
     1
 90
        2
176
     1
 40
0.6
176
     1
 41
30.0
176
     1
 62
     5
 63
     7
421
 16777215
176
     1
 74
     0
176
     1
 91
        4
176
     1
 64
     7
176
     1
 65
   257
176
     1
 75
     1
176
     1
175
     1
176
     1
 42
1.0
176
     1
 92
        8
176
     1
 66
   257
176
     1
 43
1.0
176
     1
 76
     1
176
     1
 77
     6
176
     1
 78
     2
176
     1
 67
     8
425
  7895160
176
     1
 79
     3
176
     1
170
     0
176
     1
171
     0
176
     1
290
     0
176
     1
 93
        5
176
     1
 44
0.0
176
     1
173
     0
176
     1
  0
VISUALSTYLE
  5
41
102
{ACAD_REACTORS
330
2A
102
}
102
{ACAD_XDICTIONARY
360
16F
102
}
330
2A
100
AcDbVisualStyle
  2
Shaded with edges
 70
    26
177
     2
291
     0
 71
     2
176
     1
 72
     2
176
     1
 73
     1
176
     1
 90
        2
176
     1
 40
0.6
176
     1
 41
30.0
176
     1
 62
     5
 63
     7
421
 16777215
176
     1
 74
     1
176
     1
 91
       10
176
     1
 64
     7
176
     1
 65
   257
176
     1
 75
     2
176
     1
175
     1
176
     1
 42
1.0
176
     1
 92
        8
176
     1
 66
   257
176
     1
 43
1.0
176
     1
 76
     1
176
     1
 77
     6
176
     1
 78
     2
176
     1
 67
     7
176
     1
 79
     3
176
     1
170
     0
176
     1
171
     0
176
     1
290
     0
176
     1
 93
        5
176
     1
 44
0.0
176
     1
173
     0
176
     1
  0
VISUALSTYLE
  5
3E
102
{ACAD_REACTORS
330
2A
102
}
102
{ACAD_XDICTIONARY
360
169
102
}
330
2A
100
AcDbVisualStyle
  2
Shades of Gray
 70
    23
177
     2
291
     0
 71
     2
176
     1
 72
     2
176
     1
 73
     3
176
     1
 90
        0
176
     1
 40
0.6
176
     1
 41
30.0
176
     1
 62
     5
 63
     7
421
 16777215
176
     1
 74
     2
176
     1
 91
        2
176
     1
 64
     7
176
     1
 65
     7
176
     1
 75
     1
176
     1
175
     1
176
     1
 42
40.0
176
     1
 92
        8
176
     1
 66
     7
176
     1
 43
1.0
176
     1
 76
     1
176
     1
 77
     6
176
     1
 78
     2
176
     1
 67
     7
176
     1
 79
     3
176
     1
170
     0
176
     1
171
     0
176
     1
290
     0
176
     1
 93
        1
176
     1
 44
0.0
176
     1
173
     0
176
     1
  0
VISUALSTYLE
  5
3F
102
{ACAD_REACTORS
330
2A
102
}
102
{ACAD_XDICTIONARY
360
16B
102
}
330
2A
100
AcDbVisualStyle
  2
Sketchy
 70
    24
177
     2
291
     0
 71
     1
176
     1
 72
     2
176
     1
 73
     2
176
     1
 90
        0
176
     1
 40
0.6
176
     1
 41
30.0
176
     1
 62
     5
 63
     7
421
 16777215
176
     1
 74
     2
176
     1
 91
        2
176
     1
 64
     7
176
     1
 65
     7
176
     1
 75
     1
176
     1
175
     1
176
     1
 42
40.0
176
     1
 92
       11
176
     1
 66
     7
176
     1
 43
1.0
176
     1
 76
     1
176
     1
 77
     6
176
     1
 78
     2
176
     1
 67
     7
176
     1
 79
     6
176
     1
170
     0
176
     1
171
     0
176
     1
290
     0
176
     1
 93
        1
176
     1
 44
0.0
176
     1
173
     0
176
     1
  0
VISUALSTYLE
  5
37
102
{ACAD_REACTORS
330
2A
102
}
102
{ACAD_XDICTIONARY
360
15B
102
}
330
2A
100
AcDbVisualStyle
  2
Thicken
 70
    13
177
     2
291
     1
 71
     2
176
     1
 72
     2
176
     1
 73
     0
176
     1
 90
        0
176
     1
 40
0.6
176
     1
 41
30.0
176
     1
 62
     5
 63
     7
421
 16777215
176
     1
 74
     1
176
     1
 91
        4
176
     1
 64
     7
176
     1
 65
   257
176
     1
 75
     1
176
     1
175
     1
176
     1
 42
1.0
176
     1
 92
       12
176
     1
 66
     7
176
     1
 43
1.0
176
     1
 76
     1
176
     1
 77
     6
176
     1
 78
     2
176
     1
 67
     7
176
     1
 79
     5
176
     1
170
     0
176
     1
171
     0
176
     1
290
     0
176
     1
 93
        1
176
     1
 44
0.0
176
     1
173
     0
176
     1
  0
VISUALSTYLE
  5
30
102
{ACAD_REACTORS
330
2A
102
}
102
{ACAD_XDICTIONARY
360
14D
102
}
330
2A
100
AcDbVisualStyle
  2
Wireframe
 70
     5
177
     2
291
     0
 71
     0
176
     1
 72
     2
176
     1
 73
     0
176
     1
 90
        0
176
     1
 40
0.6
176
     1
 41
30.0
176
     1
 62
     5
 63
     7
421
 16777215
176
     1
 74
     1
176
     1
 91
        4
176
     1
 64
     7
176
     1
 65
   257
176
     1
 75
     1
176
     1
175
     1
176
     1
 42
1.0
176
     1
 92
        0
176
     1
 66
   257
176
     1
 43
1.0
176
     1
 76
     1
176
     1
 77
     6
176
     1
 78
     2
176
     1
 67
     7
176
     1
 79
     3
176
     1
170
     0
176
     1
171
     0
176
     1
290
     0
176
     1
 93
        1
176
     1
 44
0.0
176
     1
173
     0
176
     1
  0
VISUALSTYLE
  5
40
102
{ACAD_REACTORS
330
2A
102
}
102
{ACAD_XDICTIONARY
360
16D
102
}
330
2A
100
AcDbVisualStyle
  2
X-Ray
 70
    25
177
     2
291
     0
 71
     2
176
     1
 72
     2
176
     1
 73
     1
176
     1
 90
        1
176
     1
 40
0.5
176
     1
 41
30.0
176
     1
 62
     5
 63
     7
421
 16777215
176
     1
 74
     1
176
     1
 91
        0
176
     1
 64
     7
176
     1
 65
   257
176
     1
 75
     1
176
     1
175
     1
176
     1
 42
1.0
176
     1
 92
        8
176
     1
 66
     7
176
     1
 43
1.0
176
     1
 76
     1
176
     1
 77
     6
176
     1
 78
     2
176
     1
 67
     7
176
     1
 79
     3
176
     1
170
     0
176
     1
171
     0
176
     1
290
     0
176
     1
 93
       13
176
     1
 44
0.0
176
     1
173
     0
176
     1
  0
DICTIONARYVAR
  5
142
102
{ACAD_REACTORS
330
141
102
}
330
141
100
DictionaryVariables
280
     0
  1
1:1
  0
DICTIONARYVAR
  5
177
102
{ACAD_REACTORS
330
141
102
}
330
141
100
DictionaryVariables
280
     0
  1
Standard
  0
DICTIONARYVAR
  5
176
102
{ACAD_REACTORS
330
141
102
}
330
141
100
DictionaryVariables
280
     0
  1
Standard
  0
DICTIONARY
  5
173
330
6A
100
AcDbDictionary
280
     1
281
     1
  3
ACAD_ROUNDTRIP_2008_TABLESTYLE_CELLSTYLEMAP
360
174
  0
DICTIONARY
  5
14B
330
2F
100
AcDbDictionary
280
     1
281
     1
  3
ACAD_XREC_ROUNDTRIP
360
14C
  0
DICTIONARY
  5
151
330
32
100
AcDbDictionary
280
     1
281
     1
  3
ACAD_XREC_ROUNDTRIP
360
152
  0
DICTIONARY
  5
159
330
36
100
AcDbDictionary
280
     1
281
     1
  3
ACAD_XREC_ROUNDTRIP
360
15A
  0
DICTIONARY
  5
161
330
3A
100
AcDbDictionary
280
     1
281
     1
  3
ACAD_XREC_ROUNDTRIP
360
162
  0
DICTIONARY
  5
155
330
34
100
AcDbDictionary
280
     1
281
     1
  3
ACAD_XREC_ROUNDTRIP
360
156
  0
DICTIONARY
  5
157
330
35
100
AcDbDictionary
280
     1
281
     1
  3
ACAD_XREC_ROUNDTRIP
360
158
  0
DICTIONARY
  5
167
330
3D
100
AcDbDictionary
280
     1
281
     1
  3
ACAD_XREC_ROUNDTRIP
360
168
  0
DICTIONARY
  5
15F
330
39
100
AcDbDictionary
280
     1
281
     1
  3
ACAD_XREC_ROUNDTRIP
360
160
  0
DICTIONARY
  5
143
330
2B
100
AcDbDictionary
280
     1
281
     1
  3
ACAD_XREC_ROUNDTRIP
360
144
  0
DICTIONARY
  5
145
330
2C
100
AcDbDictionary
280
     1
281
     1
  3
ACAD_XREC_ROUNDTRIP
360
146
  0
DICTIONARY
  5
147
330
2D
100
AcDbDictionary
280
     1
281
     1
  3
ACAD_XREC_ROUNDTRIP
360
148
  0
DICTIONARY
  5
149
330
2E
100
AcDbDictionary
280
     1
281
     1
  3
ACAD_XREC_ROUNDTRIP
360
14A
  0
DICTIONARY
  5
14F
330
31
100
AcDbDictionary
280
     1
281
     1
  3
ACAD_XREC_ROUNDTRIP
360
150
  0
DICTIONARY
  5
163
330
3B
100
AcDbDictionary
280
     1
281
     1
  3
ACAD_XREC_ROUNDTRIP
360
164
  0
DICTIONARY
  5
15D
330
38
100
AcDbDictionary
280
     1
281
     1
  3
ACAD_XREC_ROUNDTRIP
360
15E
  0
DICTIONARY
  5
165
330
3C
100
AcDbDictionary
280
     1
281
     1
  3
ACAD_XREC_ROUNDTRIP
360
166
  0
DICTIONARY
  5
153
330
33
100
AcDbDictionary
280
     1
281
     1
  3
ACAD_XREC_ROUNDTRIP
360
154
  0
DICTIONARY
  5
171
330
42
100
AcDbDictionary
280
     1
281
     1
  3
ACAD_XREC_ROUNDTRIP
360
172
  0
DICTIONARY
  5
16F
330
41
100
AcDbDictionary
280
     1
281
     1
  3
ACAD_XREC_ROUNDTRIP
360
170
  0
DICTIONARY
  5
169
330
3E
100
AcDbDictionary
280
     1
281
     1
  3
ACAD_XREC_ROUNDTRIP
360
16A
  0
DICTIONARY
  5
16B
330
3F
100
AcDbDictionary
280
     1
281
     1
  3
ACAD_XREC_ROUNDTRIP
360
16C
  0
DICTIONARY
  5
15B
330
37
100
AcDbDictionary
280
     1
281
     1
  3
ACAD_XREC_ROUNDTRIP
360
15C
  0
DICTIONARY
  5
14D
330
30
100
AcDbDictionary
280
     1
281
     1
  3
ACAD_XREC_ROUNDTRIP
360
14E
  0
DICTIONARY
  5
16D
330
40
100
AcDbDictionary
280
     1
281
     1
  3
ACAD_XREC_ROUNDTRIP
360
16E
  0
CELLSTYLEMAP
  5
174
102
{ACAD_REACTORS
330
173
102
}
330
173
100
AcDbCellStyleMap
 90
        3
300
CELLSTYLE
  1
TABLEFORMAT_BEGIN
 90
        5
170
     1
 91
        0
 92
    32768
 62
   257
 93
        1
300
CONTENTFORMAT
  1
CONTENTFORMAT_BEGIN
 90
        0
 91
        0
 92
        4
 93
        0
300

 40
0.0
140
1.0
 94
        5
 62
     0
340
11
144
6.0
309
CONTENTFORMAT_END
171
     1
301
MARGIN
  1
CELLMARGIN_BEGIN
 40
1.5
 40
1.5
 40
1.5
 40
1.5
 40
1.5
 40
1.5
309
CELLMARGIN_END
 94
        6
 95
        1
302
GRIDFORMAT
  1
GRIDFORMAT_BEGIN
 90
        0
 91
        1
 62
     0
 92
       -2
340
14
 93
        0
 40
0.045
309
GRIDFORMAT_END
 95
        2
302
GRIDFORMAT
  1
GRIDFORMAT_BEGIN
 90
        0
 91
        1
 62
     0
 92
       -2
340
14
 93
        0
 40
0.045
309
GRIDFORMAT_END
 95
        4
302
GRIDFORMAT
  1
GRIDFORMAT_BEGIN
 90
        0
 91
        1
 62
     0
 92
       -2
340
14
 93
        0
 40
0.045
309
GRIDFORMAT_END
 95
        8
302
GRIDFORMAT
  1
GRIDFORMAT_BEGIN
 90
        0
 91
        1
 62
     0
 92
       -2
340
14
 93
        0
 40
0.045
309
GRIDFORMAT_END
 95
       16
302
GRIDFORMAT
  1
GRIDFORMAT_BEGIN
 90
        0
 91
        1
 62
     0
 92
       -2
340
14
 93
        0
 40
0.045
309
GRIDFORMAT_END
 95
       32
302
GRIDFORMAT
  1
GRIDFORMAT_BEGIN
 90
        0
 91
        1
 62
     0
 92
       -2
340
14
 93
        0
 40
0.045
309
GRIDFORMAT_END
309
TABLEFORMAT_END
  1
CELLSTYLE_BEGIN
 90
        1
 91
        1
300
_TITLE
309
CELLSTYLE_END
300
CELLSTYLE
  1
TABLEFORMAT_BEGIN
 90
        5
170
     1
 91
        0
 92
        0
 62
   257
 93
        1
300
CONTENTFORMAT
  1
CONTENTFORMAT_BEGIN
 90
        0
 91
        0
 92
        4
 93
        0
300

 40
0.0
140
1.0
 94
        5
 62
     0
340
11
144
4.5
309
CONTENTFORMAT_END
171
     1
301
MARGIN
  1
CELLMARGIN_BEGIN
 40
1.5
 40
1.5
 40
1.5
 40
1.5
 40
1.5
 40
1.5
309
CELLMARGIN_END
 94
        6
 95
        1
302
GRIDFORMAT
  1
GRIDFORMAT_BEGIN
 90
        0
 91
        1
 62
     0
 92
       -2
340
14
 93
        0
 40
0.045
309
GRIDFORMAT_END
 95
        2
302
GRIDFORMAT
  1
GRIDFORMAT_BEGIN
 90
        0
 91
        1
 62
     0
 92
       -2
340
14
 93
        0
 40
0.045
309
GRIDFORMAT_END
 95
        4
302
GRIDFORMAT
  1
GRIDFORMAT_BEGIN
 90
        0
 91
        1
 62
     0
 92
       -2
340
14
 93
        0
 40
0.045
309
GRIDFORMAT_END
 95
        8
302
GRIDFORMAT
  1
GRIDFORMAT_BEGIN
 90
        0
 91
        1
 62
     0
 92
       -2
340
14
 93
        0
 40
0.045
309
GRIDFORMAT_END
 95
       16
302
GRIDFORMAT
  1
GRIDFORMAT_BEGIN
 90
        0
 91
        1
 62
     0
 92
       -2
340
14
 93
        0
 40
0.045
309
GRIDFORMAT_END
 95
       32
302
GRIDFORMAT
  1
GRIDFORMAT_BEGIN
 90
        0
 91
        1
 62
     0
 92
       -2
340
14
 93
        0
 40
0.045
309
GRIDFORMAT_END
309
TABLEFORMAT_END
  1
CELLSTYLE_BEGIN
 90
        2
 91
        1
300
_HEADER
309
CELLSTYLE_END
300
CELLSTYLE
  1
TABLEFORMAT_BEGIN
 90
        5
170
     1
 91
        0
 92
        0
 62
   257
 93
        1
300
CONTENTFORMAT
  1
CONTENTFORMAT_BEGIN
 90
        0
 91
        0
 92
        4
 93
        0
300

 40
0.0
140
1.0
 94
        2
 62
     0
340
11
144
4.5
309
CONTENTFORMAT_END
171
     1
301
MARGIN
  1
CELLMARGIN_BEGIN
 40
1.5
 40
1.5
 40
1.5
 40
1.5
 40
1.5
 40
1.5
309
CELLMARGIN_END
 94
        6
 95
        1
302
GRIDFORMAT
  1
GRIDFORMAT_BEGIN
 90
        0
 91
        1
 62
     0
 92
       -2
340
14
 93
        0
 40
0.045
309
GRIDFORMAT_END
 95
        2
302
GRIDFORMAT
  1
GRIDFORMAT_BEGIN
 90
        0
 91
        1
 62
     0
 92
       -2
340
14
 93
        0
 40
0.045
309
GRIDFORMAT_END
 95
        4
302
GRIDFORMAT
  1
GRIDFORMAT_BEGIN
 90
        0
 91
        1
 62
     0
 92
       -2
340
14
 93
        0
 40
0.045
309
GRIDFORMAT_END
 95
        8
302
GRIDFORMAT
  1
GRIDFORMAT_BEGIN
 90
        0
 91
        1
 62
     0
 92
       -2
340
14
 93
        0
 40
0.045
309
GRIDFORMAT_END
 95
       16
302
GRIDFORMAT
  1
GRIDFORMAT_BEGIN
 90
        0
 91
        1
 62
     0
 92
       -2
340
14
 93
        0
 40
0.045
309
GRIDFORMAT_END
 95
       32
302
GRIDFORMAT
  1
GRIDFORMAT_BEGIN
 90
        0
 91
        1
 62
     0
 92
       -2
340
14
 93
        0
 40
0.045
309
GRIDFORMAT_END
309
TABLEFORMAT_END
  1
CELLSTYLE_BEGIN
 90
        3
 91
        2
300
_DATA
309
CELLSTYLE_END
  0
XRECORD
  5
14C
102
{ACAD_REACTORS
330
14B
102
}
330
14B
100
AcDbXrecord
280
     1
102
RTVSPost2010Prop28
280
     1
102
RTVSPost2010PropOp28
 70
     1
102
RTVSPost2010Prop29
280
     1
102
RTVSPost2010PropOp29
 70
     1
102
RTVSPost2010Prop30
280
     0
102
RTVSPost2010PropOp30
 70
     1
102
RTVSPost2010Prop31
280
     0
102
RTVSPost2010PropOp31
 70
     1
102
RTVSPost2010Prop32
280
     0
102
RTVSPost2010PropOp32
 70
     1
102
RTVSPost2010Prop33
280
     0
102
RTVSPost2010PropOp33
 70
     1
102
RTVSPost2010Prop34
280
     0
102
RTVSPost2010PropOp34
 70
     1
102
RTVSPost2010Prop35
280
     0
102
RTVSPost2010PropOp35
 70
     1
102
RTVSPost2010Prop36
280
     0
102
RTVSPost2010PropOp36
 70
     1
102
RTVSPost2010Prop37
 90
       50
102
RTVSPost2010PropOp37
 70
     1
102
RTVSPost2010Prop38
140
0.0
102
RTVSPost2010PropOp38
 70
     1
102
RTVSPost2010Prop39
140
1.0
102
RTVSPost2010PropOp39
 70
     1
102
RTVSPost2010Prop40
 90
        0
102
RTVSPost2010PropOp40
 70
     1
102
RTVSPost2010Prop41ColorIndex
 90
       18
102
RTVSPost2010Prop41ColorRGB
 90
        0
102
RTVSPost2010PropOp41
 70
     1
102
RTVSPost2010Prop42
 90
       50
102
RTVSPost2010PropOp42
 70
     1
102
RTVSPost2010Prop43
 90
        3
102
RTVSPost2010PropOp43
 70
     1
102
RTVSPost2010Prop44ColorIndex
 90
        5
102
RTVSPost2010Prop44ColorRGB
 90
      255
102
RTVSPost2010PropOp44
 70
     1
102
RTVSPost2010Prop45
280
     0
102
RTVSPost2010PropOp45
 70
     1
102
RTVSPost2010Prop46
 90
       50
102
RTVSPost2010PropOp46
 70
     1
102
RTVSPost2010Prop47
 90
       50
102
RTVSPost2010PropOp47
 70
     1
102
RTVSPost2010Prop48
 90
       50
102
RTVSPost2010PropOp48
 70
     1
102
RTVSPost2010Prop49
280
     0
102
RTVSPost2010PropOp49
 70
     1
102
RTVSPost2010Prop50
 90
       50
102
RTVSPost2010PropOp50
 70
     1
102
RTVSPost2010Prop51ColorIndex
 90
      256
102
RTVSPost2010Prop51ColorRGB
 90
-16777216
102
RTVSPost2010PropOp51
 70
     0
102
RTVSPost2010Prop52
140
1.0
102
RTVSPost2010PropOp52
 70
     0
102
RTVSPost2010Prop53
 90
        2
102
RTVSPost2010PropOp53
 70
     1
102
RTVSPost2010Prop54
  1
strokes_ogs.tif
102
RTVSPost2010PropOp54
 70
     1
102
RTVSPost2010Prop55
280
     0
102
RTVSPost2010PropOp55
 70
     1
102
RTVSPost2010Prop56
140
1.0
102
RTVSPost2010PropOp56
 70
     1
102
RTVSPost2010Prop57
140
1.0
102
RTVSPost2010PropOp57
 70
     1
  0
XRECORD
  5
152
102
{ACAD_REACTORS
330
151
102
}
330
151
100
AcDbXrecord
280
     1
102
RTVSPost2010Prop28
280
     0
102
RTVSPost2010PropOp28
 70
     1
102
RTVSPost2010Prop29
280
     1
102
RTVSPost2010PropOp29
 70
     1
102
RTVSPost2010Prop30
280
     1
102
RTVSPost2010PropOp30
 70
     1
102
RTVSPost2010Prop31
280
     0
102
RTVSPost2010PropOp31
 70
     1
102
RTVSPost2010Prop32
280
     0
102
RTVSPost2010PropOp32
 70
     1
102
RTVSPost2010Prop33
280
     0
102
RTVSPost2010PropOp33
 70
     1
102
RTVSPost2010Prop34
280
     0
102
RTVSPost2010PropOp34
 70
     1
102
RTVSPost2010Prop35
280
     0
102
RTVSPost2010PropOp35
 70
     1
102
RTVSPost2010Prop36
280
     0
102
RTVSPost2010PropOp36
 70
     1
102
RTVSPost2010Prop37
 90
       50
102
RTVSPost2010PropOp37
 70
     1
102
RTVSPost2010Prop38
140
0.0
102
RTVSPost2010PropOp38
 70
     1
102
RTVSPost2010Prop39
140
1.0
102
RTVSPost2010PropOp39
 70
     1
102
RTVSPost2010Prop40
 90
        0
102
RTVSPost2010PropOp40
 70
     1
102
RTVSPost2010Prop41ColorIndex
 90
       18
102
RTVSPost2010Prop41ColorRGB
 90
        0
102
RTVSPost2010PropOp41
 70
     1
102
RTVSPost2010Prop42
 90
       50
102
RTVSPost2010PropOp42
 70
     1
102
RTVSPost2010Prop43
 90
        3
102
RTVSPost2010PropOp43
 70
     1
102
RTVSPost2010Prop44ColorIndex
 90
        5
102
RTVSPost2010Prop44ColorRGB
 90
      255
102
RTVSPost2010PropOp44
 70
     1
102
RTVSPost2010Prop45
280
     0
102
RTVSPost2010PropOp45
 70
     1
102
RTVSPost2010Prop46
 90
       50
102
RTVSPost2010PropOp46
 70
     1
102
RTVSPost2010Prop47
 90
       50
102
RTVSPost2010PropOp47
 70
     1
102
RTVSPost2010Prop48
 90
       50
102
RTVSPost2010PropOp48
 70
     1
102
RTVSPost2010Prop49
280
     0
102
RTVSPost2010PropOp49
 70
     1
102
RTVSPost2010Prop50
 90
       50
102
RTVSPost2010PropOp50
 70
     1
102
RTVSPost2010Prop51ColorIndex
 90
      256
102
RTVSPost2010Prop51ColorRGB
 90
-16777216
102
RTVSPost2010PropOp51
 70
     0
102
RTVSPost2010Prop52
140
1.0
102
RTVSPost2010PropOp52
 70
     0
102
RTVSPost2010Prop53
 90
        2
102
RTVSPost2010PropOp53
 70
     1
102
RTVSPost2010Prop54
  1
strokes_ogs.tif
102
RTVSPost2010PropOp54
 70
     1
102
RTVSPost2010Prop55
280
     0
102
RTVSPost2010PropOp55
 70
     1
102
RTVSPost2010Prop56
140
1.0
102
RTVSPost2010PropOp56
 70
     1
102
RTVSPost2010Prop57
140
1.0
102
RTVSPost2010PropOp57
 70
     1
  0
XRECORD
  5
15A
102
{ACAD_REACTORS
330
159
102
}
330
159
100
AcDbXrecord
280
     1
102
RTVSPost2010Prop28
280
     0
102
RTVSPost2010PropOp28
 70
     1
102
RTVSPost2010Prop29
280
     1
102
RTVSPost2010PropOp29
 70
     1
102
RTVSPost2010Prop30
280
     1
102
RTVSPost2010PropOp30
 70
     1
102
RTVSPost2010Prop31
280
     0
102
RTVSPost2010PropOp31
 70
     1
102
RTVSPost2010Prop32
280
     0
102
RTVSPost2010PropOp32
 70
     1
102
RTVSPost2010Prop33
280
     0
102
RTVSPost2010PropOp33
 70
     1
102
RTVSPost2010Prop34
280
     0
102
RTVSPost2010PropOp34
 70
     1
102
RTVSPost2010Prop35
280
     0
102
RTVSPost2010PropOp35
 70
     1
102
RTVSPost2010Prop36
280
     0
102
RTVSPost2010PropOp36
 70
     1
102
RTVSPost2010Prop37
 90
       50
102
RTVSPost2010PropOp37
 70
     1
102
RTVSPost2010Prop38
140
0.0
102
RTVSPost2010PropOp38
 70
     1
102
RTVSPost2010Prop39
140
1.0
102
RTVSPost2010PropOp39
 70
     1
102
RTVSPost2010Prop40
 90
        0
102
RTVSPost2010PropOp40
 70
     1
102
RTVSPost2010Prop41ColorIndex
 90
       18
102
RTVSPost2010Prop41ColorRGB
 90
        0
102
RTVSPost2010PropOp41
 70
     1
102
RTVSPost2010Prop42
 90
       50
102
RTVSPost2010PropOp42
 70
     1
102
RTVSPost2010Prop43
 90
        3
102
RTVSPost2010PropOp43
 70
     1
102
RTVSPost2010Prop44ColorIndex
 90
        5
102
RTVSPost2010Prop44ColorRGB
 90
      255
102
RTVSPost2010PropOp44
 70
     1
102
RTVSPost2010Prop45
280
     0
102
RTVSPost2010PropOp45
 70
     1
102
RTVSPost2010Prop46
 90
       50
102
RTVSPost2010PropOp46
 70
     1
102
RTVSPost2010Prop47
 90
       50
102
RTVSPost2010PropOp47
 70
     1
102
RTVSPost2010Prop48
 90
       50
102
RTVSPost2010PropOp48
 70
     1
102
RTVSPost2010Prop49
280
     0
102
RTVSPost2010PropOp49
 70
     1
102
RTVSPost2010Prop50
 90
       50
102
RTVSPost2010PropOp50
 70
     1
102
RTVSPost2010Prop51ColorIndex
 90
      256
102
RTVSPost2010Prop51ColorRGB
 90
-16777216
102
RTVSPost2010PropOp51
 70
     0
102
RTVSPost2010Prop52
140
1.0
102
RTVSPost2010PropOp52
 70
     0
102
RTVSPost2010Prop53
 90
        2
102
RTVSPost2010PropOp53
 70
     1
102
RTVSPost2010Prop54
  1
strokes_ogs.tif
102
RTVSPost2010PropOp54
 70
     1
102
RTVSPost2010Prop55
280
     0
102
RTVSPost2010PropOp55
 70
     1
102
RTVSPost2010Prop56
140
1.0
102
RTVSPost2010PropOp56
 70
     1
102
RTVSPost2010Prop57
140
1.0
102
RTVSPost2010PropOp57
 70
     1
  0
XRECORD
  5
162
102
{ACAD_REACTORS
330
161
102
}
330
161
100
AcDbXrecord
280
     1
102
RTVSPost2010Prop28
280
     0
102
RTVSPost2010PropOp28
 70
     1
102
RTVSPost2010Prop29
280
     1
102
RTVSPost2010PropOp29
 70
     1
102
RTVSPost2010Prop30
280
     1
102
RTVSPost2010PropOp30
 70
     1
102
RTVSPost2010Prop31
280
     0
102
RTVSPost2010PropOp31
 70
     1
102
RTVSPost2010Prop32
280
     0
102
RTVSPost2010PropOp32
 70
     1
102
RTVSPost2010Prop33
280
     0
102
RTVSPost2010PropOp33
 70
     1
102
RTVSPost2010Prop34
280
     0
102
RTVSPost2010PropOp34
 70
     1
102
RTVSPost2010Prop35
280
     0
102
RTVSPost2010PropOp35
 70
     1
102
RTVSPost2010Prop36
280
     0
102
RTVSPost2010PropOp36
 70
     1
102
RTVSPost2010Prop37
 90
       50
102
RTVSPost2010PropOp37
 70
     1
102
RTVSPost2010Prop38
140
0.0
102
RTVSPost2010PropOp38
 70
     1
102
RTVSPost2010Prop39
140
1.0
102
RTVSPost2010PropOp39
 70
     1
102
RTVSPost2010Prop40
 90
        0
102
RTVSPost2010PropOp40
 70
     1
102
RTVSPost2010Prop41ColorIndex
 90
       18
102
RTVSPost2010Prop41ColorRGB
 90
        0
102
RTVSPost2010PropOp41
 70
     1
102
RTVSPost2010Prop42
 90
       50
102
RTVSPost2010PropOp42
 70
     1
102
RTVSPost2010Prop43
 90
        3
102
RTVSPost2010PropOp43
 70
     1
102
RTVSPost2010Prop44ColorIndex
 90
        5
102
RTVSPost2010Prop44ColorRGB
 90
      255
102
RTVSPost2010PropOp44
 70
     1
102
RTVSPost2010Prop45
280
     0
102
RTVSPost2010PropOp45
 70
     1
102
RTVSPost2010Prop46
 90
       50
102
RTVSPost2010PropOp46
 70
     1
102
RTVSPost2010Prop47
 90
       50
102
RTVSPost2010PropOp47
 70
     1
102
RTVSPost2010Prop48
 90
       50
102
RTVSPost2010PropOp48
 70
     1
102
RTVSPost2010Prop49
280
     0
102
RTVSPost2010PropOp49
 70
     1
102
RTVSPost2010Prop50
 90
       50
102
RTVSPost2010PropOp50
 70
     1
102
RTVSPost2010Prop51ColorIndex
 90
      256
102
RTVSPost2010Prop51ColorRGB
 90
-16777216
102
RTVSPost2010PropOp51
 70
     0
102
RTVSPost2010Prop52
140
1.0
102
RTVSPost2010PropOp52
 70
     0
102
RTVSPost2010Prop53
 90
        2
102
RTVSPost2010PropOp53
 70
     1
102
RTVSPost2010Prop54
  1
strokes_ogs.tif
102
RTVSPost2010PropOp54
 70
     1
102
RTVSPost2010Prop55
280
     0
102
RTVSPost2010PropOp55
 70
     1
102
RTVSPost2010Prop56
140
1.0
102
RTVSPost2010PropOp56
 70
     1
102
RTVSPost2010Prop57
140
1.0
102
RTVSPost2010PropOp57
 70
     1
  0
XRECORD
  5
156
102
{ACAD_REACTORS
330
155
102
}
330
155
100
AcDbXrecord
280
     1
102
RTVSPost2010Prop28
280
     0
102
RTVSPost2010PropOp28
 70
     1
102
RTVSPost2010Prop29
280
     1
102
RTVSPost2010PropOp29
 70
     1
102
RTVSPost2010Prop30
280
     1
102
RTVSPost2010PropOp30
 70
     1
102
RTVSPost2010Prop31
280
     0
102
RTVSPost2010PropOp31
 70
     1
102
RTVSPost2010Prop32
280
     0
102
RTVSPost2010PropOp32
 70
     1
102
RTVSPost2010Prop33
280
     0
102
RTVSPost2010PropOp33
 70
     1
102
RTVSPost2010Prop34
280
     0
102
RTVSPost2010PropOp34
 70
     1
102
RTVSPost2010Prop35
280
     0
102
RTVSPost2010PropOp35
 70
     1
102
RTVSPost2010Prop36
280
     0
102
RTVSPost2010PropOp36
 70
     1
102
RTVSPost2010Prop37
 90
       50
102
RTVSPost2010PropOp37
 70
     1
102
RTVSPost2010Prop38
140
0.0
102
RTVSPost2010PropOp38
 70
     1
102
RTVSPost2010Prop39
140
1.0
102
RTVSPost2010PropOp39
 70
     1
102
RTVSPost2010Prop40
 90
        0
102
RTVSPost2010PropOp40
 70
     1
102
RTVSPost2010Prop41ColorIndex
 90
       18
102
RTVSPost2010Prop41ColorRGB
 90
        0
102
RTVSPost2010PropOp41
 70
     1
102
RTVSPost2010Prop42
 90
       50
102
RTVSPost2010PropOp42
 70
     1
102
RTVSPost2010Prop43
 90
        3
102
RTVSPost2010PropOp43
 70
     1
102
RTVSPost2010Prop44ColorIndex
 90
        5
102
RTVSPost2010Prop44ColorRGB
 90
      255
102
RTVSPost2010PropOp44
 70
     1
102
RTVSPost2010Prop45
280
     0
102
RTVSPost2010PropOp45
 70
     1
102
RTVSPost2010Prop46
 90
       50
102
RTVSPost2010PropOp46
 70
     1
102
RTVSPost2010Prop47
 90
       50
102
RTVSPost2010PropOp47
 70
     1
102
RTVSPost2010Prop48
 90
       50
102
RTVSPost2010PropOp48
 70
     1
102
RTVSPost2010Prop49
280
     0
102
RTVSPost2010PropOp49
 70
     1
102
RTVSPost2010Prop50
 90
       50
102
RTVSPost2010PropOp50
 70
     1
102
RTVSPost2010Prop51ColorIndex
 90
      256
102
RTVSPost2010Prop51ColorRGB
 90
-16777216
102
RTVSPost2010PropOp51
 70
     0
102
RTVSPost2010Prop52
140
1.0
102
RTVSPost2010PropOp52
 70
     0
102
RTVSPost2010Prop53
 90
        2
102
RTVSPost2010PropOp53
 70
     1
102
RTVSPost2010Prop54
  1
strokes_ogs.tif
102
RTVSPost2010PropOp54
 70
     1
102
RTVSPost2010Prop55
280
     0
102
RTVSPost2010PropOp55
 70
     1
102
RTVSPost2010Prop56
140
1.0
102
RTVSPost2010PropOp56
 70
     1
102
RTVSPost2010Prop57
140
1.0
102
RTVSPost2010PropOp57
 70
     1
  0
XRECORD
  5
158
102
{ACAD_REACTORS
330
157
102
}
330
157
100
AcDbXrecord
280
     1
102
RTVSPost2010Prop28
280
     0
102
RTVSPost2010PropOp28
 70
     1
102
RTVSPost2010Prop29
280
     1
102
RTVSPost2010PropOp29
 70
     1
102
RTVSPost2010Prop30
280
     1
102
RTVSPost2010PropOp30
 70
     1
102
RTVSPost2010Prop31
280
     0
102
RTVSPost2010PropOp31
 70
     1
102
RTVSPost2010Prop32
280
     0
102
RTVSPost2010PropOp32
 70
     1
102
RTVSPost2010Prop33
280
     0
102
RTVSPost2010PropOp33
 70
     1
102
RTVSPost2010Prop34
280
     0
102
RTVSPost2010PropOp34
 70
     1
102
RTVSPost2010Prop35
280
     0
102
RTVSPost2010PropOp35
 70
     1
102
RTVSPost2010Prop36
280
     0
102
RTVSPost2010PropOp36
 70
     1
102
RTVSPost2010Prop37
 90
       50
102
RTVSPost2010PropOp37
 70
     1
102
RTVSPost2010Prop38
140
0.0
102
RTVSPost2010PropOp38
 70
     1
102
RTVSPost2010Prop39
140
1.0
102
RTVSPost2010PropOp39
 70
     1
102
RTVSPost2010Prop40
 90
        0
102
RTVSPost2010PropOp40
 70
     1
102
RTVSPost2010Prop41ColorIndex
 90
       18
102
RTVSPost2010Prop41ColorRGB
 90
        0
102
RTVSPost2010PropOp41
 70
     1
102
RTVSPost2010Prop42
 90
       50
102
RTVSPost2010PropOp42
 70
     1
102
RTVSPost2010Prop43
 90
        3
102
RTVSPost2010PropOp43
 70
     1
102
RTVSPost2010Prop44ColorIndex
 90
        5
102
RTVSPost2010Prop44ColorRGB
 90
      255
102
RTVSPost2010PropOp44
 70
     1
102
RTVSPost2010Prop45
280
     0
102
RTVSPost2010PropOp45
 70
     1
102
RTVSPost2010Prop46
 90
       50
102
RTVSPost2010PropOp46
 70
     1
102
RTVSPost2010Prop47
 90
       50
102
RTVSPost2010PropOp47
 70
     1
102
RTVSPost2010Prop48
 90
       50
102
RTVSPost2010PropOp48
 70
     1
102
RTVSPost2010Prop49
280
     0
102
RTVSPost2010PropOp49
 70
     1
102
RTVSPost2010Prop50
 90
       50
102
RTVSPost2010PropOp50
 70
     1
102
RTVSPost2010Prop51ColorIndex
 90
      256
102
RTVSPost2010Prop51ColorRGB
 90
-16777216
102
RTVSPost2010PropOp51
 70
     0
102
RTVSPost2010Prop52
140
1.0
102
RTVSPost2010PropOp52
 70
     0
102
RTVSPost2010Prop53
 90
        2
102
RTVSPost2010PropOp53
 70
     1
102
RTVSPost2010Prop54
  1
strokes_ogs.tif
102
RTVSPost2010PropOp54
 70
     1
102
RTVSPost2010Prop55
280
     0
102
RTVSPost2010PropOp55
 70
     1
102
RTVSPost2010Prop56
140
1.0
102
RTVSPost2010PropOp56
 70
     1
102
RTVSPost2010Prop57
140
1.0
102
RTVSPost2010PropOp57
 70
     1
  0
XRECORD
  5
168
102
{ACAD_REACTORS
330
167
102
}
330
167
100
AcDbXrecord
280
     1
102
RTVSPost2010Prop28
280
     0
102
RTVSPost2010PropOp28
 70
     0
102
RTVSPost2010Prop29
280
     1
102
RTVSPost2010PropOp29
 70
     0
102
RTVSPost2010Prop30
280
     1
102
RTVSPost2010PropOp30
 70
     0
102
RTVSPost2010Prop31
280
     0
102
RTVSPost2010PropOp31
 70
     0
102
RTVSPost2010Prop32
280
     0
102
RTVSPost2010PropOp32
 70
     0
102
RTVSPost2010Prop33
280
     0
102
RTVSPost2010PropOp33
 70
     0
102
RTVSPost2010Prop34
280
     0
102
RTVSPost2010PropOp34
 70
     0
102
RTVSPost2010Prop35
280
     0
102
RTVSPost2010PropOp35
 70
     0
102
RTVSPost2010Prop36
280
     0
102
RTVSPost2010PropOp36
 70
     0
102
RTVSPost2010Prop37
 90
       50
102
RTVSPost2010PropOp37
 70
     0
102
RTVSPost2010Prop38
140
0.0
102
RTVSPost2010PropOp38
 70
     0
102
RTVSPost2010Prop39
140
1.0
102
RTVSPost2010PropOp39
 70
     0
102
RTVSPost2010Prop40
 90
        0
102
RTVSPost2010PropOp40
 70
     0
102
RTVSPost2010Prop41ColorIndex
 90
       18
102
RTVSPost2010Prop41ColorRGB
 90
        0
102
RTVSPost2010PropOp41
 70
     0
102
RTVSPost2010Prop42
 90
       50
102
RTVSPost2010PropOp42
 70
     0
102
RTVSPost2010Prop43
 90
        3
102
RTVSPost2010PropOp43
 70
     0
102
RTVSPost2010Prop44ColorIndex
 90
        5
102
RTVSPost2010Prop44ColorRGB
 90
      255
102
RTVSPost2010PropOp44
 70
     0
102
RTVSPost2010Prop45
280
     0
102
RTVSPost2010PropOp45
 70
     0
102
RTVSPost2010Prop46
 90
       50
102
RTVSPost2010PropOp46
 70
     0
102
RTVSPost2010Prop47
 90
       50
102
RTVSPost2010PropOp47
 70
     0
102
RTVSPost2010Prop48
 90
       50
102
RTVSPost2010PropOp48
 70
     0
102
RTVSPost2010Prop49
280
     0
102
RTVSPost2010PropOp49
 70
     0
102
RTVSPost2010Prop50
 90
       50
102
RTVSPost2010PropOp50
 70
     0
102
RTVSPost2010Prop51ColorIndex
 90
      256
102
RTVSPost2010Prop51ColorRGB
 90
-16777216
102
RTVSPost2010PropOp51
 70
     0
102
RTVSPost2010Prop52
140
1.0
102
RTVSPost2010PropOp52
 70
     0
102
RTVSPost2010Prop53
 90
        2
102
RTVSPost2010PropOp53
 70
     0
102
RTVSPost2010Prop54
  1
strokes_ogs.tif
102
RTVSPost2010PropOp54
 70
     0
102
RTVSPost2010Prop55
280
     0
102
RTVSPost2010PropOp55
 70
     0
102
RTVSPost2010Prop56
140
1.0
102
RTVSPost2010PropOp56
 70
     0
102
RTVSPost2010Prop57
140
1.0
102
RTVSPost2010PropOp57
 70
     0
  0
XRECORD
  5
160
102
{ACAD_REACTORS
330
15F
102
}
330
15F
100
AcDbXrecord
280
     1
102
RTVSPost2010Prop28
280
     0
102
RTVSPost2010PropOp28
 70
     1
102
RTVSPost2010Prop29
280
     1
102
RTVSPost2010PropOp29
 70
     1
102
RTVSPost2010Prop30
280
     1
102
RTVSPost2010PropOp30
 70
     1
102
RTVSPost2010Prop31
280
     0
102
RTVSPost2010PropOp31
 70
     1
102
RTVSPost2010Prop32
280
     0
102
RTVSPost2010PropOp32
 70
     1
102
RTVSPost2010Prop33
280
     0
102
RTVSPost2010PropOp33
 70
     1
102
RTVSPost2010Prop34
280
     0
102
RTVSPost2010PropOp34
 70
     1
102
RTVSPost2010Prop35
280
     0
102
RTVSPost2010PropOp35
 70
     1
102
RTVSPost2010Prop36
280
     0
102
RTVSPost2010PropOp36
 70
     1
102
RTVSPost2010Prop37
 90
       50
102
RTVSPost2010PropOp37
 70
     1
102
RTVSPost2010Prop38
140
0.0
102
RTVSPost2010PropOp38
 70
     1
102
RTVSPost2010Prop39
140
1.0
102
RTVSPost2010PropOp39
 70
     1
102
RTVSPost2010Prop40
 90
        0
102
RTVSPost2010PropOp40
 70
     1
102
RTVSPost2010Prop41ColorIndex
 90
       18
102
RTVSPost2010Prop41ColorRGB
 90
        0
102
RTVSPost2010PropOp41
 70
     1
102
RTVSPost2010Prop42
 90
       50
102
RTVSPost2010PropOp42
 70
     1
102
RTVSPost2010Prop43
 90
        3
102
RTVSPost2010PropOp43
 70
     1
102
RTVSPost2010Prop44ColorIndex
 90
        5
102
RTVSPost2010Prop44ColorRGB
 90
      255
102
RTVSPost2010PropOp44
 70
     1
102
RTVSPost2010Prop45
280
     0
102
RTVSPost2010PropOp45
 70
     1
102
RTVSPost2010Prop46
 90
       50
102
RTVSPost2010PropOp46
 70
     1
102
RTVSPost2010Prop47
 90
       50
102
RTVSPost2010PropOp47
 70
     1
102
RTVSPost2010Prop48
 90
       50
102
RTVSPost2010PropOp48
 70
     1
102
RTVSPost2010Prop49
280
     0
102
RTVSPost2010PropOp49
 70
     1
102
RTVSPost2010Prop50
 90
       50
102
RTVSPost2010PropOp50
 70
     1
102
RTVSPost2010Prop51ColorIndex
 90
      256
102
RTVSPost2010Prop51ColorRGB
 90
-16777216
102
RTVSPost2010PropOp51
 70
     0
102
RTVSPost2010Prop52
140
1.0
102
RTVSPost2010PropOp52
 70
     0
102
RTVSPost2010Prop53
 90
        2
102
RTVSPost2010PropOp53
 70
     1
102
RTVSPost2010Prop54
  1
strokes_ogs.tif
102
RTVSPost2010PropOp54
 70
     1
102
RTVSPost2010Prop55
280
     0
102
RTVSPost2010PropOp55
 70
     1
102
RTVSPost2010Prop56
140
1.0
102
RTVSPost2010PropOp56
 70
     1
102
RTVSPost2010Prop57
140
1.0
102
RTVSPost2010PropOp57
 70
     1
  0
XRECORD
  5
144
102
{ACAD_REACTORS
330
143
102
}
330
143
100
AcDbXrecord
280
     1
102
RTVSPost2010Prop28
280
     0
102
RTVSPost2010PropOp28
 70
     1
102
RTVSPost2010Prop29
280
     1
102
RTVSPost2010PropOp29
 70
     1
102
RTVSPost2010Prop30
280
     1
102
RTVSPost2010PropOp30
 70
     1
102
RTVSPost2010Prop31
280
     0
102
RTVSPost2010PropOp31
 70
     1
102
RTVSPost2010Prop32
280
     0
102
RTVSPost2010PropOp32
 70
     1
102
RTVSPost2010Prop33
280
     0
102
RTVSPost2010PropOp33
 70
     1
102
RTVSPost2010Prop34
280
     0
102
RTVSPost2010PropOp34
 70
     1
102
RTVSPost2010Prop35
280
     0
102
RTVSPost2010PropOp35
 70
     1
102
RTVSPost2010Prop36
280
     0
102
RTVSPost2010PropOp36
 70
     1
102
RTVSPost2010Prop37
 90
       50
102
RTVSPost2010PropOp37
 70
     1
102
RTVSPost2010Prop38
140
0.0
102
RTVSPost2010PropOp38
 70
     1
102
RTVSPost2010Prop39
140
1.0
102
RTVSPost2010PropOp39
 70
     1
102
RTVSPost2010Prop40
 90
        0
102
RTVSPost2010PropOp40
 70
     1
102
RTVSPost2010Prop41ColorIndex
 90
       18
102
RTVSPost2010Prop41ColorRGB
 90
        0
102
RTVSPost2010PropOp41
 70
     1
102
RTVSPost2010Prop42
 90
       50
102
RTVSPost2010PropOp42
 70
     1
102
RTVSPost2010Prop43
 90
        3
102
RTVSPost2010PropOp43
 70
     1
102
RTVSPost2010Prop44ColorIndex
 90
        5
102
RTVSPost2010Prop44ColorRGB
 90
      255
102
RTVSPost2010PropOp44
 70
     1
102
RTVSPost2010Prop45
280
     0
102
RTVSPost2010PropOp45
 70
     1
102
RTVSPost2010Prop46
 90
       50
102
RTVSPost2010PropOp46
 70
     1
102
RTVSPost2010Prop47
 90
       50
102
RTVSPost2010PropOp47
 70
     1
102
RTVSPost2010Prop48
 90
       50
102
RTVSPost2010PropOp48
 70
     1
102
RTVSPost2010Prop49
280
     0
102
RTVSPost2010PropOp49
 70
     1
102
RTVSPost2010Prop50
 90
       50
102
RTVSPost2010PropOp50
 70
     1
102
RTVSPost2010Prop51ColorIndex
 90
      256
102
RTVSPost2010Prop51ColorRGB
 90
-16777216
102
RTVSPost2010PropOp51
 70
     0
102
RTVSPost2010Prop52
140
1.0
102
RTVSPost2010PropOp52
 70
     0
102
RTVSPost2010Prop53
 90
        2
102
RTVSPost2010PropOp53
 70
     1
102
RTVSPost2010Prop54
  1
strokes_ogs.tif
102
RTVSPost2010PropOp54
 70
     1
102
RTVSPost2010Prop55
280
     0
102
RTVSPost2010PropOp55
 70
     1
102
RTVSPost2010Prop56
140
1.0
102
RTVSPost2010PropOp56
 70
     1
102
RTVSPost2010Prop57
140
1.0
102
RTVSPost2010PropOp57
 70
     1
  0
XRECORD
  5
146
102
{ACAD_REACTORS
330
145
102
}
330
145
100
AcDbXrecord
280
     1
102
RTVSPost2010Prop28
280
     0
102
RTVSPost2010PropOp28
 70
     1
102
RTVSPost2010Prop29
280
     1
102
RTVSPost2010PropOp29
 70
     1
102
RTVSPost2010Prop30
280
     1
102
RTVSPost2010PropOp30
 70
     1
102
RTVSPost2010Prop31
280
     0
102
RTVSPost2010PropOp31
 70
     1
102
RTVSPost2010Prop32
280
     0
102
RTVSPost2010PropOp32
 70
     1
102
RTVSPost2010Prop33
280
     0
102
RTVSPost2010PropOp33
 70
     1
102
RTVSPost2010Prop34
280
     0
102
RTVSPost2010PropOp34
 70
     1
102
RTVSPost2010Prop35
280
     0
102
RTVSPost2010PropOp35
 70
     1
102
RTVSPost2010Prop36
280
     0
102
RTVSPost2010PropOp36
 70
     1
102
RTVSPost2010Prop37
 90
       50
102
RTVSPost2010PropOp37
 70
     1
102
RTVSPost2010Prop38
140
0.0
102
RTVSPost2010PropOp38
 70
     1
102
RTVSPost2010Prop39
140
1.0
102
RTVSPost2010PropOp39
 70
     1
102
RTVSPost2010Prop40
 90
        0
102
RTVSPost2010PropOp40
 70
     1
102
RTVSPost2010Prop41ColorIndex
 90
       18
102
RTVSPost2010Prop41ColorRGB
 90
        0
102
RTVSPost2010PropOp41
 70
     1
102
RTVSPost2010Prop42
 90
       50
102
RTVSPost2010PropOp42
 70
     1
102
RTVSPost2010Prop43
 90
        3
102
RTVSPost2010PropOp43
 70
     1
102
RTVSPost2010Prop44ColorIndex
 90
        5
102
RTVSPost2010Prop44ColorRGB
 90
      255
102
RTVSPost2010PropOp44
 70
     1
102
RTVSPost2010Prop45
280
     0
102
RTVSPost2010PropOp45
 70
     1
102
RTVSPost2010Prop46
 90
       50
102
RTVSPost2010PropOp46
 70
     1
102
RTVSPost2010Prop47
 90
       50
102
RTVSPost2010PropOp47
 70
     1
102
RTVSPost2010Prop48
 90
       50
102
RTVSPost2010PropOp48
 70
     1
102
RTVSPost2010Prop49
280
     0
102
RTVSPost2010PropOp49
 70
     1
102
RTVSPost2010Prop50
 90
       50
102
RTVSPost2010PropOp50
 70
     1
102
RTVSPost2010Prop51ColorIndex
 90
      256
102
RTVSPost2010Prop51ColorRGB
 90
-16777216
102
RTVSPost2010PropOp51
 70
     0
102
RTVSPost2010Prop52
140
1.0
102
RTVSPost2010PropOp52
 70
     0
102
RTVSPost2010Prop53
 90
        2
102
RTVSPost2010PropOp53
 70
     1
102
RTVSPost2010Prop54
  1
strokes_ogs.tif
102
RTVSPost2010PropOp54
 70
     1
102
RTVSPost2010Prop55
280
     0
102
RTVSPost2010PropOp55
 70
     1
102
RTVSPost2010Prop56
140
1.0
102
RTVSPost2010PropOp56
 70
     1
102
RTVSPost2010Prop57
140
1.0
102
RTVSPost2010PropOp57
 70
     1
  0
XRECORD
  5
148
102
{ACAD_REACTORS
330
147
102
}
330
147
100
AcDbXrecord
280
     1
102
RTVSPost2010Prop28
280
     0
102
RTVSPost2010PropOp28
 70
     1
102
RTVSPost2010Prop29
280
     1
102
RTVSPost2010PropOp29
 70
     1
102
RTVSPost2010Prop30
280
     1
102
RTVSPost2010PropOp30
 70
     1
102
RTVSPost2010Prop31
280
     0
102
RTVSPost2010PropOp31
 70
     1
102
RTVSPost2010Prop32
280
     0
102
RTVSPost2010PropOp32
 70
     1
102
RTVSPost2010Prop33
280
     0
102
RTVSPost2010PropOp33
 70
     1
102
RTVSPost2010Prop34
280
     0
102
RTVSPost2010PropOp34
 70
     1
102
RTVSPost2010Prop35
280
     0
102
RTVSPost2010PropOp35
 70
     1
102
RTVSPost2010Prop36
280
     0
102
RTVSPost2010PropOp36
 70
     1
102
RTVSPost2010Prop37
 90
       50
102
RTVSPost2010PropOp37
 70
     1
102
RTVSPost2010Prop38
140
0.0
102
RTVSPost2010PropOp38
 70
     1
102
RTVSPost2010Prop39
140
1.0
102
RTVSPost2010PropOp39
 70
     1
102
RTVSPost2010Prop40
 90
        0
102
RTVSPost2010PropOp40
 70
     1
102
RTVSPost2010Prop41ColorIndex
 90
       18
102
RTVSPost2010Prop41ColorRGB
 90
        0
102
RTVSPost2010PropOp41
 70
     1
102
RTVSPost2010Prop42
 90
       50
102
RTVSPost2010PropOp42
 70
     1
102
RTVSPost2010Prop43
 90
        3
102
RTVSPost2010PropOp43
 70
     1
102
RTVSPost2010Prop44ColorIndex
 90
        5
102
RTVSPost2010Prop44ColorRGB
 90
      255
102
RTVSPost2010PropOp44
 70
     1
102
RTVSPost2010Prop45
280
     0
102
RTVSPost2010PropOp45
 70
     1
102
RTVSPost2010Prop46
 90
       50
102
RTVSPost2010PropOp46
 70
     1
102
RTVSPost2010Prop47
 90
       50
102
RTVSPost2010PropOp47
 70
     1
102
RTVSPost2010Prop48
 90
       50
102
RTVSPost2010PropOp48
 70
     1
102
RTVSPost2010Prop49
280
     0
102
RTVSPost2010PropOp49
 70
     1
102
RTVSPost2010Prop50
 90
       50
102
RTVSPost2010PropOp50
 70
     1
102
RTVSPost2010Prop51ColorIndex
 90
      256
102
RTVSPost2010Prop51ColorRGB
 90
-16777216
102
RTVSPost2010PropOp51
 70
     0
102
RTVSPost2010Prop52
140
1.0
102
RTVSPost2010PropOp52
 70
     0
102
RTVSPost2010Prop53
 90
        2
102
RTVSPost2010PropOp53
 70
     1
102
RTVSPost2010Prop54
  1
strokes_ogs.tif
102
RTVSPost2010PropOp54
 70
     1
102
RTVSPost2010Prop55
280
     0
102
RTVSPost2010PropOp55
 70
     1
102
RTVSPost2010Prop56
140
1.0
102
RTVSPost2010PropOp56
 70
     1
102
RTVSPost2010Prop57
140
1.0
102
RTVSPost2010PropOp57
 70
     1
  0
XRECORD
  5
14A
102
{ACAD_REACTORS
330
149
102
}
330
149
100
AcDbXrecord
280
     1
102
RTVSPost2010Prop28
280
     0
102
RTVSPost2010PropOp28
 70
     1
102
RTVSPost2010Prop29
280
     1
102
RTVSPost2010PropOp29
 70
     1
102
RTVSPost2010Prop30
280
     1
102
RTVSPost2010PropOp30
 70
     1
102
RTVSPost2010Prop31
280
     0
102
RTVSPost2010PropOp31
 70
     1
102
RTVSPost2010Prop32
280
     0
102
RTVSPost2010PropOp32
 70
     1
102
RTVSPost2010Prop33
280
     0
102
RTVSPost2010PropOp33
 70
     1
102
RTVSPost2010Prop34
280
     0
102
RTVSPost2010PropOp34
 70
     1
102
RTVSPost2010Prop35
280
     0
102
RTVSPost2010PropOp35
 70
     1
102
RTVSPost2010Prop36
280
     0
102
RTVSPost2010PropOp36
 70
     1
102
RTVSPost2010Prop37
 90
       50
102
RTVSPost2010PropOp37
 70
     1
102
RTVSPost2010Prop38
140
0.0
102
RTVSPost2010PropOp38
 70
     1
102
RTVSPost2010Prop39
140
1.0
102
RTVSPost2010PropOp39
 70
     1
102
RTVSPost2010Prop40
 90
        0
102
RTVSPost2010PropOp40
 70
     1
102
RTVSPost2010Prop41ColorIndex
 90
       18
102
RTVSPost2010Prop41ColorRGB
 90
        0
102
RTVSPost2010PropOp41
 70
     1
102
RTVSPost2010Prop42
 90
       50
102
RTVSPost2010PropOp42
 70
     1
102
RTVSPost2010Prop43
 90
        3
102
RTVSPost2010PropOp43
 70
     1
102
RTVSPost2010Prop44ColorIndex
 90
        5
102
RTVSPost2010Prop44ColorRGB
 90
      255
102
RTVSPost2010PropOp44
 70
     1
102
RTVSPost2010Prop45
280
     0
102
RTVSPost2010PropOp45
 70
     1
102
RTVSPost2010Prop46
 90
       50
102
RTVSPost2010PropOp46
 70
     1
102
RTVSPost2010Prop47
 90
       50
102
RTVSPost2010PropOp47
 70
     1
102
RTVSPost2010Prop48
 90
       50
102
RTVSPost2010PropOp48
 70
     1
102
RTVSPost2010Prop49
280
     0
102
RTVSPost2010PropOp49
 70
     1
102
RTVSPost2010Prop50
 90
       50
102
RTVSPost2010PropOp50
 70
     1
102
RTVSPost2010Prop51ColorIndex
 90
      256
102
RTVSPost2010Prop51ColorRGB
 90
-16777216
102
RTVSPost2010PropOp51
 70
     0
102
RTVSPost2010Prop52
140
1.0
102
RTVSPost2010PropOp52
 70
     0
102
RTVSPost2010Prop53
 90
        2
102
RTVSPost2010PropOp53
 70
     1
102
RTVSPost2010Prop54
  1
strokes_ogs.tif
102
RTVSPost2010PropOp54
 70
     1
102
RTVSPost2010Prop55
280
     0
102
RTVSPost2010PropOp55
 70
     1
102
RTVSPost2010Prop56
140
1.0
102
RTVSPost2010PropOp56
 70
     1
102
RTVSPost2010Prop57
140
1.0
102
RTVSPost2010PropOp57
 70
     1
  0
XRECORD
  5
150
102
{ACAD_REACTORS
330
14F
102
}
330
14F
100
AcDbXrecord
280
     1
102
RTVSPost2010Prop28
280
     0
102
RTVSPost2010PropOp28
 70
     1
102
RTVSPost2010Prop29
280
     1
102
RTVSPost2010PropOp29
 70
     1
102
RTVSPost2010Prop30
280
     1
102
RTVSPost2010PropOp30
 70
     1
102
RTVSPost2010Prop31
280
     0
102
RTVSPost2010PropOp31
 70
     1
102
RTVSPost2010Prop32
280
     0
102
RTVSPost2010PropOp32
 70
     1
102
RTVSPost2010Prop33
280
     0
102
RTVSPost2010PropOp33
 70
     1
102
RTVSPost2010Prop34
280
     0
102
RTVSPost2010PropOp34
 70
     1
102
RTVSPost2010Prop35
280
     0
102
RTVSPost2010PropOp35
 70
     1
102
RTVSPost2010Prop36
280
     0
102
RTVSPost2010PropOp36
 70
     1
102
RTVSPost2010Prop37
 90
       50
102
RTVSPost2010PropOp37
 70
     1
102
RTVSPost2010Prop38
140
0.0
102
RTVSPost2010PropOp38
 70
     1
102
RTVSPost2010Prop39
140
1.0
102
RTVSPost2010PropOp39
 70
     1
102
RTVSPost2010Prop40
 90
        0
102
RTVSPost2010PropOp40
 70
     1
102
RTVSPost2010Prop41ColorIndex
 90
       18
102
RTVSPost2010Prop41ColorRGB
 90
        0
102
RTVSPost2010PropOp41
 70
     1
102
RTVSPost2010Prop42
 90
       50
102
RTVSPost2010PropOp42
 70
     1
102
RTVSPost2010Prop43
 90
        3
102
RTVSPost2010PropOp43
 70
     1
102
RTVSPost2010Prop44ColorIndex
 90
        5
102
RTVSPost2010Prop44ColorRGB
 90
      255
102
RTVSPost2010PropOp44
 70
     1
102
RTVSPost2010Prop45
280
     0
102
RTVSPost2010PropOp45
 70
     1
102
RTVSPost2010Prop46
 90
       50
102
RTVSPost2010PropOp46
 70
     1
102
RTVSPost2010Prop47
 90
       50
102
RTVSPost2010PropOp47
 70
     1
102
RTVSPost2010Prop48
 90
       50
102
RTVSPost2010PropOp48
 70
     1
102
RTVSPost2010Prop49
280
     0
102
RTVSPost2010PropOp49
 70
     1
102
RTVSPost2010Prop50
 90
       50
102
RTVSPost2010PropOp50
 70
     1
102
RTVSPost2010Prop51ColorIndex
 90
      256
102
RTVSPost2010Prop51ColorRGB
 90
-16777216
102
RTVSPost2010PropOp51
 70
     0
102
RTVSPost2010Prop52
140
1.0
102
RTVSPost2010PropOp52
 70
     0
102
RTVSPost2010Prop53
 90
        2
102
RTVSPost2010PropOp53
 70
     1
102
RTVSPost2010Prop54
  1
strokes_ogs.tif
102
RTVSPost2010PropOp54
 70
     1
102
RTVSPost2010Prop55
280
     0
102
RTVSPost2010PropOp55
 70
     1
102
RTVSPost2010Prop56
140
1.0
102
RTVSPost2010PropOp56
 70
     1
102
RTVSPost2010Prop57
140
1.0
102
RTVSPost2010PropOp57
 70
     1
  0
XRECORD
  5
164
102
{ACAD_REACTORS
330
163
102
}
330
163
100
AcDbXrecord
280
     1
102
RTVSPost2010Prop28
280
     0
102
RTVSPost2010PropOp28
 70
     0
102
RTVSPost2010Prop29
280
     1
102
RTVSPost2010PropOp29
 70
     0
102
RTVSPost2010Prop30
280
     1
102
RTVSPost2010PropOp30
 70
     0
102
RTVSPost2010Prop31
280
     0
102
RTVSPost2010PropOp31
 70
     0
102
RTVSPost2010Prop32
280
     0
102
RTVSPost2010PropOp32
 70
     0
102
RTVSPost2010Prop33
280
     0
102
RTVSPost2010PropOp33
 70
     0
102
RTVSPost2010Prop34
280
     0
102
RTVSPost2010PropOp34
 70
     0
102
RTVSPost2010Prop35
280
     0
102
RTVSPost2010PropOp35
 70
     0
102
RTVSPost2010Prop36
280
     0
102
RTVSPost2010PropOp36
 70
     0
102
RTVSPost2010Prop37
 90
       50
102
RTVSPost2010PropOp37
 70
     0
102
RTVSPost2010Prop38
140
0.0
102
RTVSPost2010PropOp38
 70
     0
102
RTVSPost2010Prop39
140
1.0
102
RTVSPost2010PropOp39
 70
     0
102
RTVSPost2010Prop40
 90
        0
102
RTVSPost2010PropOp40
 70
     0
102
RTVSPost2010Prop41ColorIndex
 90
       18
102
RTVSPost2010Prop41ColorRGB
 90
        0
102
RTVSPost2010PropOp41
 70
     0
102
RTVSPost2010Prop42
 90
       50
102
RTVSPost2010PropOp42
 70
     0
102
RTVSPost2010Prop43
 90
        3
102
RTVSPost2010PropOp43
 70
     0
102
RTVSPost2010Prop44ColorIndex
 90
        5
102
RTVSPost2010Prop44ColorRGB
 90
      255
102
RTVSPost2010PropOp44
 70
     0
102
RTVSPost2010Prop45
280
     0
102
RTVSPost2010PropOp45
 70
     0
102
RTVSPost2010Prop46
 90
       50
102
RTVSPost2010PropOp46
 70
     0
102
RTVSPost2010Prop47
 90
       50
102
RTVSPost2010PropOp47
 70
     0
102
RTVSPost2010Prop48
 90
       50
102
RTVSPost2010PropOp48
 70
     0
102
RTVSPost2010Prop49
280
     0
102
RTVSPost2010PropOp49
 70
     0
102
RTVSPost2010Prop50
 90
       50
102
RTVSPost2010PropOp50
 70
     0
102
RTVSPost2010Prop51ColorIndex
 90
      256
102
RTVSPost2010Prop51ColorRGB
 90
-16777216
102
RTVSPost2010PropOp51
 70
     0
102
RTVSPost2010Prop52
140
1.0
102
RTVSPost2010PropOp52
 70
     0
102
RTVSPost2010Prop53
 90
        2
102
RTVSPost2010PropOp53
 70
     0
102
RTVSPost2010Prop54
  1
strokes_ogs.tif
102
RTVSPost2010PropOp54
 70
     0
102
RTVSPost2010Prop55
280
     0
102
RTVSPost2010PropOp55
 70
     0
102
RTVSPost2010Prop56
140
1.0
102
RTVSPost2010PropOp56
 70
     0
102
RTVSPost2010Prop57
140
1.0
102
RTVSPost2010PropOp57
 70
     0
  0
XRECORD
  5
15E
102
{ACAD_REACTORS
330
15D
102
}
330
15D
100
AcDbXrecord
280
     1
102
RTVSPost2010Prop28
280
     0
102
RTVSPost2010PropOp28
 70
     1
102
RTVSPost2010Prop29
280
     1
102
RTVSPost2010PropOp29
 70
     1
102
RTVSPost2010Prop30
280
     1
102
RTVSPost2010PropOp30
 70
     1
102
RTVSPost2010Prop31
280
     0
102
RTVSPost2010PropOp31
 70
     1
102
RTVSPost2010Prop32
280
     0
102
RTVSPost2010PropOp32
 70
     1
102
RTVSPost2010Prop33
280
     0
102
RTVSPost2010PropOp33
 70
     1
102
RTVSPost2010Prop34
280
     0
102
RTVSPost2010PropOp34
 70
     1
102
RTVSPost2010Prop35
280
     0
102
RTVSPost2010PropOp35
 70
     1
102
RTVSPost2010Prop36
280
     0
102
RTVSPost2010PropOp36
 70
     1
102
RTVSPost2010Prop37
 90
       50
102
RTVSPost2010PropOp37
 70
     1
102
RTVSPost2010Prop38
140
0.0
102
RTVSPost2010PropOp38
 70
     1
102
RTVSPost2010Prop39
140
1.0
102
RTVSPost2010PropOp39
 70
     1
102
RTVSPost2010Prop40
 90
        0
102
RTVSPost2010PropOp40
 70
     1
102
RTVSPost2010Prop41ColorIndex
 90
       18
102
RTVSPost2010Prop41ColorRGB
 90
        0
102
RTVSPost2010PropOp41
 70
     1
102
RTVSPost2010Prop42
 90
       50
102
RTVSPost2010PropOp42
 70
     1
102
RTVSPost2010Prop43
 90
        3
102
RTVSPost2010PropOp43
 70
     1
102
RTVSPost2010Prop44ColorIndex
 90
        5
102
RTVSPost2010Prop44ColorRGB
 90
      255
102
RTVSPost2010PropOp44
 70
     1
102
RTVSPost2010Prop45
280
     0
102
RTVSPost2010PropOp45
 70
     1
102
RTVSPost2010Prop46
 90
       50
102
RTVSPost2010PropOp46
 70
     1
102
RTVSPost2010Prop47
 90
       50
102
RTVSPost2010PropOp47
 70
     1
102
RTVSPost2010Prop48
 90
       50
102
RTVSPost2010PropOp48
 70
     1
102
RTVSPost2010Prop49
280
     0
102
RTVSPost2010PropOp49
 70
     1
102
RTVSPost2010Prop50
 90
       50
102
RTVSPost2010PropOp50
 70
     1
102
RTVSPost2010Prop51ColorIndex
 90
      256
102
RTVSPost2010Prop51ColorRGB
 90
-16777216
102
RTVSPost2010PropOp51
 70
     0
102
RTVSPost2010Prop52
140
1.0
102
RTVSPost2010PropOp52
 70
     0
102
RTVSPost2010Prop53
 90
        2
102
RTVSPost2010PropOp53
 70
     1
102
RTVSPost2010Prop54
  1
strokes_ogs.tif
102
RTVSPost2010PropOp54
 70
     1
102
RTVSPost2010Prop55
280
     0
102
RTVSPost2010PropOp55
 70
     1
102
RTVSPost2010Prop56
140
1.0
102
RTVSPost2010PropOp56
 70
     1
102
RTVSPost2010Prop57
140
1.0
102
RTVSPost2010PropOp57
 70
     1
  0
XRECORD
  5
166
102
{ACAD_REACTORS
330
165
102
}
330
165
100
AcDbXrecord
280
     1
102
RTVSPost2010Prop28
280
     0
102
RTVSPost2010PropOp28
 70
     0
102
RTVSPost2010Prop29
280
     1
102
RTVSPost2010PropOp29
 70
     0
102
RTVSPost2010Prop30
280
     1
102
RTVSPost2010PropOp30
 70
     0
102
RTVSPost2010Prop31
280
     0
102
RTVSPost2010PropOp31
 70
     0
102
RTVSPost2010Prop32
280
     0
102
RTVSPost2010PropOp32
 70
     0
102
RTVSPost2010Prop33
280
     0
102
RTVSPost2010PropOp33
 70
     0
102
RTVSPost2010Prop34
280
     0
102
RTVSPost2010PropOp34
 70
     0
102
RTVSPost2010Prop35
280
     0
102
RTVSPost2010PropOp35
 70
     0
102
RTVSPost2010Prop36
280
     0
102
RTVSPost2010PropOp36
 70
     0
102
RTVSPost2010Prop37
 90
       50
102
RTVSPost2010PropOp37
 70
     0
102
RTVSPost2010Prop38
140
0.0
102
RTVSPost2010PropOp38
 70
     0
102
RTVSPost2010Prop39
140
1.0
102
RTVSPost2010PropOp39
 70
     0
102
RTVSPost2010Prop40
 90
        0
102
RTVSPost2010PropOp40
 70
     0
102
RTVSPost2010Prop41ColorIndex
 90
       18
102
RTVSPost2010Prop41ColorRGB
 90
        0
102
RTVSPost2010PropOp41
 70
     0
102
RTVSPost2010Prop42
 90
       50
102
RTVSPost2010PropOp42
 70
     0
102
RTVSPost2010Prop43
 90
        3
102
RTVSPost2010PropOp43
 70
     0
102
RTVSPost2010Prop44ColorIndex
 90
        5
102
RTVSPost2010Prop44ColorRGB
 90
      255
102
RTVSPost2010PropOp44
 70
     0
102
RTVSPost2010Prop45
280
     0
102
RTVSPost2010PropOp45
 70
     0
102
RTVSPost2010Prop46
 90
       50
102
RTVSPost2010PropOp46
 70
     0
102
RTVSPost2010Prop47
 90
       50
102
RTVSPost2010PropOp47
 70
     0
102
RTVSPost2010Prop48
 90
       50
102
RTVSPost2010PropOp48
 70
     0
102
RTVSPost2010Prop49
280
     0
102
RTVSPost2010PropOp49
 70
     0
102
RTVSPost2010Prop50
 90
       50
102
RTVSPost2010PropOp50
 70
     0
102
RTVSPost2010Prop51ColorIndex
 90
      256
102
RTVSPost2010Prop51ColorRGB
 90
-16777216
102
RTVSPost2010PropOp51
 70
     0
102
RTVSPost2010Prop52
140
1.0
102
RTVSPost2010PropOp52
 70
     0
102
RTVSPost2010Prop53
 90
        2
102
RTVSPost2010PropOp53
 70
     0
102
RTVSPost2010Prop54
  1
strokes_ogs.tif
102
RTVSPost2010PropOp54
 70
     0
102
RTVSPost2010Prop55
280
     0
102
RTVSPost2010PropOp55
 70
     0
102
RTVSPost2010Prop56
140
1.0
102
RTVSPost2010PropOp56
 70
     0
102
RTVSPost2010Prop57
140
1.0
102
RTVSPost2010PropOp57
 70
     0
  0
XRECORD
  5
154
102
{ACAD_REACTORS
330
153
102
}
330
153
100
AcDbXrecord
280
     1
102
RTVSPost2010Prop28
280
     0
102
RTVSPost2010PropOp28
 70
     1
102
RTVSPost2010Prop29
280
     1
102
RTVSPost2010PropOp29
 70
     1
102
RTVSPost2010Prop30
280
     1
102
RTVSPost2010PropOp30
 70
     1
102
RTVSPost2010Prop31
280
     0
102
RTVSPost2010PropOp31
 70
     1
102
RTVSPost2010Prop32
280
     0
102
RTVSPost2010PropOp32
 70
     1
102
RTVSPost2010Prop33
280
     0
102
RTVSPost2010PropOp33
 70
     1
102
RTVSPost2010Prop34
280
     0
102
RTVSPost2010PropOp34
 70
     1
102
RTVSPost2010Prop35
280
     0
102
RTVSPost2010PropOp35
 70
     1
102
RTVSPost2010Prop36
280
     0
102
RTVSPost2010PropOp36
 70
     1
102
RTVSPost2010Prop37
 90
       50
102
RTVSPost2010PropOp37
 70
     1
102
RTVSPost2010Prop38
140
0.0
102
RTVSPost2010PropOp38
 70
     1
102
RTVSPost2010Prop39
140
1.0
102
RTVSPost2010PropOp39
 70
     1
102
RTVSPost2010Prop40
 90
        0
102
RTVSPost2010PropOp40
 70
     1
102
RTVSPost2010Prop41ColorIndex
 90
       18
102
RTVSPost2010Prop41ColorRGB
 90
        0
102
RTVSPost2010PropOp41
 70
     1
102
RTVSPost2010Prop42
 90
       50
102
RTVSPost2010PropOp42
 70
     1
102
RTVSPost2010Prop43
 90
        3
102
RTVSPost2010PropOp43
 70
     1
102
RTVSPost2010Prop44ColorIndex
 90
        5
102
RTVSPost2010Prop44ColorRGB
 90
      255
102
RTVSPost2010PropOp44
 70
     1
102
RTVSPost2010Prop45
280
     0
102
RTVSPost2010PropOp45
 70
     1
102
RTVSPost2010Prop46
 90
       50
102
RTVSPost2010PropOp46
 70
     1
102
RTVSPost2010Prop47
 90
       50
102
RTVSPost2010PropOp47
 70
     1
102
RTVSPost2010Prop48
 90
       50
102
RTVSPost2010PropOp48
 70
     1
102
RTVSPost2010Prop49
280
     0
102
RTVSPost2010PropOp49
 70
     1
102
RTVSPost2010Prop50
 90
       50
102
RTVSPost2010PropOp50
 70
     1
102
RTVSPost2010Prop51ColorIndex
 90
      256
102
RTVSPost2010Prop51ColorRGB
 90
-16777216
102
RTVSPost2010PropOp51
 70
     0
102
RTVSPost2010Prop52
140
1.0
102
RTVSPost2010PropOp52
 70
     0
102
RTVSPost2010Prop53
 90
        2
102
RTVSPost2010PropOp53
 70
     1
102
RTVSPost2010Prop54
  1
strokes_ogs.tif
102
RTVSPost2010PropOp54
 70
     1
102
RTVSPost2010Prop55
280
     0
102
RTVSPost2010PropOp55
 70
     1
102
RTVSPost2010Prop56
140
1.0
102
RTVSPost2010PropOp56
 70
     1
102
RTVSPost2010Prop57
140
1.0
102
RTVSPost2010PropOp57
 70
     1
  0
XRECORD
  5
172
102
{ACAD_REACTORS
330
171
102
}
330
171
100
AcDbXrecord
280
     1
102
RTVSPost2010Prop28
280
     0
102
RTVSPost2010PropOp28
 70
     1
102
RTVSPost2010Prop29
280
     1
102
RTVSPost2010PropOp29
 70
     1
102
RTVSPost2010Prop30
280
     1
102
RTVSPost2010PropOp30
 70
     1
102
RTVSPost2010Prop31
280
     0
102
RTVSPost2010PropOp31
 70
     1
102
RTVSPost2010Prop32
280
     0
102
RTVSPost2010PropOp32
 70
     1
102
RTVSPost2010Prop33
280
     0
102
RTVSPost2010PropOp33
 70
     1
102
RTVSPost2010Prop34
280
     0
102
RTVSPost2010PropOp34
 70
     1
102
RTVSPost2010Prop35
280
     0
102
RTVSPost2010PropOp35
 70
     1
102
RTVSPost2010Prop36
280
     0
102
RTVSPost2010PropOp36
 70
     1
102
RTVSPost2010Prop37
 90
       50
102
RTVSPost2010PropOp37
 70
     1
102
RTVSPost2010Prop38
140
0.0
102
RTVSPost2010PropOp38
 70
     1
102
RTVSPost2010Prop39
140
1.0
102
RTVSPost2010PropOp39
 70
     1
102
RTVSPost2010Prop40
 90
        0
102
RTVSPost2010PropOp40
 70
     1
102
RTVSPost2010Prop41ColorIndex
 90
       18
102
RTVSPost2010Prop41ColorRGB
 90
        0
102
RTVSPost2010PropOp41
 70
     1
102
RTVSPost2010Prop42
 90
       50
102
RTVSPost2010PropOp42
 70
     1
102
RTVSPost2010Prop43
 90
        3
102
RTVSPost2010PropOp43
 70
     1
102
RTVSPost2010Prop44ColorIndex
 90
        5
102
RTVSPost2010Prop44ColorRGB
 90
      255
102
RTVSPost2010PropOp44
 70
     1
102
RTVSPost2010Prop45
280
     0
102
RTVSPost2010PropOp45
 70
     1
102
RTVSPost2010Prop46
 90
       50
102
RTVSPost2010PropOp46
 70
     1
102
RTVSPost2010Prop47
 90
       50
102
RTVSPost2010PropOp47
 70
     1
102
RTVSPost2010Prop48
 90
       50
102
RTVSPost2010PropOp48
 70
     1
102
RTVSPost2010Prop49
280
     0
102
RTVSPost2010PropOp49
 70
     1
102
RTVSPost2010Prop50
 90
       50
102
RTVSPost2010PropOp50
 70
     1
102
RTVSPost2010Prop51ColorIndex
 90
      256
102
RTVSPost2010Prop51ColorRGB
 90
-16777216
102
RTVSPost2010PropOp51
 70
     0
102
RTVSPost2010Prop52
140
1.0
102
RTVSPost2010PropOp52
 70
     0
102
RTVSPost2010Prop53
 90
        2
102
RTVSPost2010PropOp53
 70
     1
102
RTVSPost2010Prop54
  1
strokes_ogs.tif
102
RTVSPost2010PropOp54
 70
     1
102
RTVSPost2010Prop55
280
     0
102
RTVSPost2010PropOp55
 70
     1
102
RTVSPost2010Prop56
140
1.0
102
RTVSPost2010PropOp56
 70
     1
102
RTVSPost2010Prop57
140
1.0
102
RTVSPost2010PropOp57
 70
     1
  0
XRECORD
  5
170
102
{ACAD_REACTORS
330
16F
102
}
330
16F
100
AcDbXrecord
280
     1
102
RTVSPost2010Prop28
280
     0
102
RTVSPost2010PropOp28
 70
     1
102
RTVSPost2010Prop29
280
     1
102
RTVSPost2010PropOp29
 70
     1
102
RTVSPost2010Prop30
280
     1
102
RTVSPost2010PropOp30
 70
     1
102
RTVSPost2010Prop31
280
     0
102
RTVSPost2010PropOp31
 70
     1
102
RTVSPost2010Prop32
280
     0
102
RTVSPost2010PropOp32
 70
     1
102
RTVSPost2010Prop33
280
     0
102
RTVSPost2010PropOp33
 70
     1
102
RTVSPost2010Prop34
280
     0
102
RTVSPost2010PropOp34
 70
     1
102
RTVSPost2010Prop35
280
     0
102
RTVSPost2010PropOp35
 70
     1
102
RTVSPost2010Prop36
280
     0
102
RTVSPost2010PropOp36
 70
     1
102
RTVSPost2010Prop37
 90
       50
102
RTVSPost2010PropOp37
 70
     1
102
RTVSPost2010Prop38
140
0.0
102
RTVSPost2010PropOp38
 70
     1
102
RTVSPost2010Prop39
140
1.0
102
RTVSPost2010PropOp39
 70
     1
102
RTVSPost2010Prop40
 90
        0
102
RTVSPost2010PropOp40
 70
     1
102
RTVSPost2010Prop41ColorIndex
 90
       18
102
RTVSPost2010Prop41ColorRGB
 90
        0
102
RTVSPost2010PropOp41
 70
     1
102
RTVSPost2010Prop42
 90
       50
102
RTVSPost2010PropOp42
 70
     1
102
RTVSPost2010Prop43
 90
        3
102
RTVSPost2010PropOp43
 70
     1
102
RTVSPost2010Prop44ColorIndex
 90
        5
102
RTVSPost2010Prop44ColorRGB
 90
      255
102
RTVSPost2010PropOp44
 70
     1
102
RTVSPost2010Prop45
280
     0
102
RTVSPost2010PropOp45
 70
     1
102
RTVSPost2010Prop46
 90
       50
102
RTVSPost2010PropOp46
 70
     1
102
RTVSPost2010Prop47
 90
       50
102
RTVSPost2010PropOp47
 70
     1
102
RTVSPost2010Prop48
 90
       50
102
RTVSPost2010PropOp48
 70
     1
102
RTVSPost2010Prop49
280
     0
102
RTVSPost2010PropOp49
 70
     1
102
RTVSPost2010Prop50
 90
       50
102
RTVSPost2010PropOp50
 70
     1
102
RTVSPost2010Prop51ColorIndex
 90
      256
102
RTVSPost2010Prop51ColorRGB
 90
-16777216
102
RTVSPost2010PropOp51
 70
     0
102
RTVSPost2010Prop52
140
1.0
102
RTVSPost2010PropOp52
 70
     0
102
RTVSPost2010Prop53
 90
        2
102
RTVSPost2010PropOp53
 70
     1
102
RTVSPost2010Prop54
  1
strokes_ogs.tif
102
RTVSPost2010PropOp54
 70
     1
102
RTVSPost2010Prop55
280
     0
102
RTVSPost2010PropOp55
 70
     1
102
RTVSPost2010Prop56
140
1.0
102
RTVSPost2010PropOp56
 70
     1
102
RTVSPost2010Prop57
140
1.0
102
RTVSPost2010PropOp57
 70
     1
  0
XRECORD
  5
16A
102
{ACAD_REACTORS
330
169
102
}
330
169
100
AcDbXrecord
280
     1
102
RTVSPost2010Prop28
280
     0
102
RTVSPost2010PropOp28
 70
     1
102
RTVSPost2010Prop29
280
     1
102
RTVSPost2010PropOp29
 70
     1
102
RTVSPost2010Prop30
280
     1
102
RTVSPost2010PropOp30
 70
     1
102
RTVSPost2010Prop31
280
     0
102
RTVSPost2010PropOp31
 70
     1
102
RTVSPost2010Prop32
280
     0
102
RTVSPost2010PropOp32
 70
     1
102
RTVSPost2010Prop33
280
     0
102
RTVSPost2010PropOp33
 70
     1
102
RTVSPost2010Prop34
280
     0
102
RTVSPost2010PropOp34
 70
     1
102
RTVSPost2010Prop35
280
     0
102
RTVSPost2010PropOp35
 70
     1
102
RTVSPost2010Prop36
280
     0
102
RTVSPost2010PropOp36
 70
     1
102
RTVSPost2010Prop37
 90
       50
102
RTVSPost2010PropOp37
 70
     1
102
RTVSPost2010Prop38
140
0.0
102
RTVSPost2010PropOp38
 70
     1
102
RTVSPost2010Prop39
140
1.0
102
RTVSPost2010PropOp39
 70
     1
102
RTVSPost2010Prop40
 90
        0
102
RTVSPost2010PropOp40
 70
     1
102
RTVSPost2010Prop41ColorIndex
 90
       18
102
RTVSPost2010Prop41ColorRGB
 90
        0
102
RTVSPost2010PropOp41
 70
     1
102
RTVSPost2010Prop42
 90
       50
102
RTVSPost2010PropOp42
 70
     1
102
RTVSPost2010Prop43
 90
        3
102
RTVSPost2010PropOp43
 70
     1
102
RTVSPost2010Prop44ColorIndex
 90
        5
102
RTVSPost2010Prop44ColorRGB
 90
      255
102
RTVSPost2010PropOp44
 70
     1
102
RTVSPost2010Prop45
280
     0
102
RTVSPost2010PropOp45
 70
     1
102
RTVSPost2010Prop46
 90
       50
102
RTVSPost2010PropOp46
 70
     1
102
RTVSPost2010Prop47
 90
       50
102
RTVSPost2010PropOp47
 70
     1
102
RTVSPost2010Prop48
 90
       50
102
RTVSPost2010PropOp48
 70
     1
102
RTVSPost2010Prop49
280
     0
102
RTVSPost2010PropOp49
 70
     1
102
RTVSPost2010Prop50
 90
       50
102
RTVSPost2010PropOp50
 70
     1
102
RTVSPost2010Prop51ColorIndex
 90
      256
102
RTVSPost2010Prop51ColorRGB
 90
-16777216
102
RTVSPost2010PropOp51
 70
     0
102
RTVSPost2010Prop52
140
1.0
102
RTVSPost2010PropOp52
 70
     0
102
RTVSPost2010Prop53
 90
        2
102
RTVSPost2010PropOp53
 70
     1
102
RTVSPost2010Prop54
  1
strokes_ogs.tif
102
RTVSPost2010PropOp54
 70
     1
102
RTVSPost2010Prop55
280
     0
102
RTVSPost2010PropOp55
 70
     1
102
RTVSPost2010Prop56
140
1.0
102
RTVSPost2010PropOp56
 70
     1
102
RTVSPost2010Prop57
140
1.0
102
RTVSPost2010PropOp57
 70
     1
  0
XRECORD
  5
16C
102
{ACAD_REACTORS
330
16B
102
}
330
16B
100
AcDbXrecord
280
     1
102
RTVSPost2010Prop28
280
     0
102
RTVSPost2010PropOp28
 70
     1
102
RTVSPost2010Prop29
280
     1
102
RTVSPost2010PropOp29
 70
     1
102
RTVSPost2010Prop30
280
     1
102
RTVSPost2010PropOp30
 70
     1
102
RTVSPost2010Prop31
280
     0
102
RTVSPost2010PropOp31
 70
     1
102
RTVSPost2010Prop32
280
     0
102
RTVSPost2010PropOp32
 70
     1
102
RTVSPost2010Prop33
280
     0
102
RTVSPost2010PropOp33
 70
     1
102
RTVSPost2010Prop34
280
     0
102
RTVSPost2010PropOp34
 70
     1
102
RTVSPost2010Prop35
280
     0
102
RTVSPost2010PropOp35
 70
     1
102
RTVSPost2010Prop36
280
     0
102
RTVSPost2010PropOp36
 70
     1
102
RTVSPost2010Prop37
 90
       50
102
RTVSPost2010PropOp37
 70
     1
102
RTVSPost2010Prop38
140
0.0
102
RTVSPost2010PropOp38
 70
     1
102
RTVSPost2010Prop39
140
1.0
102
RTVSPost2010PropOp39
 70
     1
102
RTVSPost2010Prop40
 90
        0
102
RTVSPost2010PropOp40
 70
     1
102
RTVSPost2010Prop41ColorIndex
 90
       18
102
RTVSPost2010Prop41ColorRGB
 90
        0
102
RTVSPost2010PropOp41
 70
     1
102
RTVSPost2010Prop42
 90
       50
102
RTVSPost2010PropOp42
 70
     1
102
RTVSPost2010Prop43
 90
        3
102
RTVSPost2010PropOp43
 70
     1
102
RTVSPost2010Prop44ColorIndex
 90
        5
102
RTVSPost2010Prop44ColorRGB
 90
      255
102
RTVSPost2010PropOp44
 70
     1
102
RTVSPost2010Prop45
280
     0
102
RTVSPost2010PropOp45
 70
     1
102
RTVSPost2010Prop46
 90
       50
102
RTVSPost2010PropOp46
 70
     1
102
RTVSPost2010Prop47
 90
       50
102
RTVSPost2010PropOp47
 70
     1
102
RTVSPost2010Prop48
 90
       50
102
RTVSPost2010PropOp48
 70
     1
102
RTVSPost2010Prop49
280
     0
102
RTVSPost2010PropOp49
 70
     1
102
RTVSPost2010Prop50
 90
       50
102
RTVSPost2010PropOp50
 70
     1
102
RTVSPost2010Prop51ColorIndex
 90
      256
102
RTVSPost2010Prop51ColorRGB
 90
-16777216
102
RTVSPost2010PropOp51
 70
     0
102
RTVSPost2010Prop52
140
1.0
102
RTVSPost2010PropOp52
 70
     0
102
RTVSPost2010Prop53
 90
        2
102
RTVSPost2010PropOp53
 70
     1
102
RTVSPost2010Prop54
  1
strokes_ogs.tif
102
RTVSPost2010PropOp54
 70
     1
102
RTVSPost2010Prop55
280
     0
102
RTVSPost2010PropOp55
 70
     1
102
RTVSPost2010Prop56
140
1.0
102
RTVSPost2010PropOp56
 70
     1
102
RTVSPost2010Prop57
140
1.0
102
RTVSPost2010PropOp57
 70
     1
  0
XRECORD
  5
15C
102
{ACAD_REACTORS
330
15B
102
}
330
15B
100
AcDbXrecord
280
     1
102
RTVSPost2010Prop28
280
     0
102
RTVSPost2010PropOp28
 70
     1
102
RTVSPost2010Prop29
280
     1
102
RTVSPost2010PropOp29
 70
     1
102
RTVSPost2010Prop30
280
     1
102
RTVSPost2010PropOp30
 70
     1
102
RTVSPost2010Prop31
280
     0
102
RTVSPost2010PropOp31
 70
     1
102
RTVSPost2010Prop32
280
     0
102
RTVSPost2010PropOp32
 70
     1
102
RTVSPost2010Prop33
280
     0
102
RTVSPost2010PropOp33
 70
     1
102
RTVSPost2010Prop34
280
     0
102
RTVSPost2010PropOp34
 70
     1
102
RTVSPost2010Prop35
280
     0
102
RTVSPost2010PropOp35
 70
     1
102
RTVSPost2010Prop36
280
     0
102
RTVSPost2010PropOp36
 70
     1
102
RTVSPost2010Prop37
 90
       50
102
RTVSPost2010PropOp37
 70
     1
102
RTVSPost2010Prop38
140
0.0
102
RTVSPost2010PropOp38
 70
     1
102
RTVSPost2010Prop39
140
1.0
102
RTVSPost2010PropOp39
 70
     1
102
RTVSPost2010Prop40
 90
        0
102
RTVSPost2010PropOp40
 70
     1
102
RTVSPost2010Prop41ColorIndex
 90
       18
102
RTVSPost2010Prop41ColorRGB
 90
        0
102
RTVSPost2010PropOp41
 70
     1
102
RTVSPost2010Prop42
 90
       50
102
RTVSPost2010PropOp42
 70
     1
102
RTVSPost2010Prop43
 90
        3
102
RTVSPost2010PropOp43
 70
     1
102
RTVSPost2010Prop44ColorIndex
 90
        5
102
RTVSPost2010Prop44ColorRGB
 90
      255
102
RTVSPost2010PropOp44
 70
     1
102
RTVSPost2010Prop45
280
     0
102
RTVSPost2010PropOp45
 70
     1
102
RTVSPost2010Prop46
 90
       50
102
RTVSPost2010PropOp46
 70
     1
102
RTVSPost2010Prop47
 90
       50
102
RTVSPost2010PropOp47
 70
     1
102
RTVSPost2010Prop48
 90
       50
102
RTVSPost2010PropOp48
 70
     1
102
RTVSPost2010Prop49
280
     0
102
RTVSPost2010PropOp49
 70
     1
102
RTVSPost2010Prop50
 90
       50
102
RTVSPost2010PropOp50
 70
     1
102
RTVSPost2010Prop51ColorIndex
 90
      256
102
RTVSPost2010Prop51ColorRGB
 90
-16777216
102
RTVSPost2010PropOp51
 70
     0
102
RTVSPost2010Prop52
140
1.0
102
RTVSPost2010PropOp52
 70
     0
102
RTVSPost2010Prop53
 90
        2
102
RTVSPost2010PropOp53
 70
     1
102
RTVSPost2010Prop54
  1
strokes_ogs.tif
102
RTVSPost2010PropOp54
 70
     1
102
RTVSPost2010Prop55
280
     0
102
RTVSPost2010PropOp55
 70
     1
102
RTVSPost2010Prop56
140
1.0
102
RTVSPost2010PropOp56
 70
     1
102
RTVSPost2010Prop57
140
1.0
102
RTVSPost2010PropOp57
 70
     1
  0
XRECORD
  5
14E
102
{ACAD_REACTORS
330
14D
102
}
330
14D
100
AcDbXrecord
280
     1
102
RTVSPost2010Prop28
280
     0
102
RTVSPost2010PropOp28
 70
     1
102
RTVSPost2010Prop29
280
     1
102
RTVSPost2010PropOp29
 70
     1
102
RTVSPost2010Prop30
280
     1
102
RTVSPost2010PropOp30
 70
     1
102
RTVSPost2010Prop31
280
     0
102
RTVSPost2010PropOp31
 70
     1
102
RTVSPost2010Prop32
280
     0
102
RTVSPost2010PropOp32
 70
     1
102
RTVSPost2010Prop33
280
     0
102
RTVSPost2010PropOp33
 70
     1
102
RTVSPost2010Prop34
280
     0
102
RTVSPost2010PropOp34
 70
     1
102
RTVSPost2010Prop35
280
     0
102
RTVSPost2010PropOp35
 70
     1
102
RTVSPost2010Prop36
280
     0
102
RTVSPost2010PropOp36
 70
     1
102
RTVSPost2010Prop37
 90
       50
102
RTVSPost2010PropOp37
 70
     1
102
RTVSPost2010Prop38
140
0.0
102
RTVSPost2010PropOp38
 70
     1
102
RTVSPost2010Prop39
140
1.0
102
RTVSPost2010PropOp39
 70
     1
102
RTVSPost2010Prop40
 90
        0
102
RTVSPost2010PropOp40
 70
     1
102
RTVSPost2010Prop41ColorIndex
 90
       18
102
RTVSPost2010Prop41ColorRGB
 90
        0
102
RTVSPost2010PropOp41
 70
     1
102
RTVSPost2010Prop42
 90
       50
102
RTVSPost2010PropOp42
 70
     1
102
RTVSPost2010Prop43
 90
        3
102
RTVSPost2010PropOp43
 70
     1
102
RTVSPost2010Prop44ColorIndex
 90
        5
102
RTVSPost2010Prop44ColorRGB
 90
      255
102
RTVSPost2010PropOp44
 70
     1
102
RTVSPost2010Prop45
280
     0
102
RTVSPost2010PropOp45
 70
     1
102
RTVSPost2010Prop46
 90
       50
102
RTVSPost2010PropOp46
 70
     1
102
RTVSPost2010Prop47
 90
       50
102
RTVSPost2010PropOp47
 70
     1
102
RTVSPost2010Prop48
 90
       50
102
RTVSPost2010PropOp48
 70
     1
102
RTVSPost2010Prop49
280
     0
102
RTVSPost2010PropOp49
 70
     1
102
RTVSPost2010Prop50
 90
       50
102
RTVSPost2010PropOp50
 70
     1
102
RTVSPost2010Prop51ColorIndex
 90
      256
102
RTVSPost2010Prop51ColorRGB
 90
-16777216
102
RTVSPost2010PropOp51
 70
     0
102
RTVSPost2010Prop52
140
1.0
102
RTVSPost2010PropOp52
 70
     0
102
RTVSPost2010Prop53
 90
        2
102
RTVSPost2010PropOp53
 70
     1
102
RTVSPost2010Prop54
  1
strokes_ogs.tif
102
RTVSPost2010PropOp54
 70
     1
102
RTVSPost2010Prop55
280
     0
102
RTVSPost2010PropOp55
 70
     1
102
RTVSPost2010Prop56
140
1.0
102
RTVSPost2010PropOp56
 70
     1
102
RTVSPost2010Prop57
140
1.0
102
RTVSPost2010PropOp57
 70
     1
  0
XRECORD
  5
16E
102
{ACAD_REACTORS
330
16D
102
}
330
16D
100
AcDbXrecord
280
     1
102
RTVSPost2010Prop28
280
     0
102
RTVSPost2010PropOp28
 70
     1
102
RTVSPost2010Prop29
280
     1
102
RTVSPost2010PropOp29
 70
     1
102
RTVSPost2010Prop30
280
     1
102
RTVSPost2010PropOp30
 70
     1
102
RTVSPost2010Prop31
280
     0
102
RTVSPost2010PropOp31
 70
     1
102
RTVSPost2010Prop32
280
     0
102
RTVSPost2010PropOp32
 70
     1
102
RTVSPost2010Prop33
280
     0
102
RTVSPost2010PropOp33
 70
     1
102
RTVSPost2010Prop34
280
     0
102
RTVSPost2010PropOp34
 70
     1
102
RTVSPost2010Prop35
280
     0
102
RTVSPost2010PropOp35
 70
     1
102
RTVSPost2010Prop36
280
     0
102
RTVSPost2010PropOp36
 70
     1
102
RTVSPost2010Prop37
 90
       50
102
RTVSPost2010PropOp37
 70
     1
102
RTVSPost2010Prop38
140
0.0
102
RTVSPost2010PropOp38
 70
     1
102
RTVSPost2010Prop39
140
1.0
102
RTVSPost2010PropOp39
 70
     1
102
RTVSPost2010Prop40
 90
        0
102
RTVSPost2010PropOp40
 70
     1
102
RTVSPost2010Prop41ColorIndex
 90
       18
102
RTVSPost2010Prop41ColorRGB
 90
        0
102
RTVSPost2010PropOp41
 70
     1
102
RTVSPost2010Prop42
 90
       50
102
RTVSPost2010PropOp42
 70
     1
102
RTVSPost2010Prop43
 90
        3
102
RTVSPost2010PropOp43
 70
     1
102
RTVSPost2010Prop44ColorIndex
 90
        5
102
RTVSPost2010Prop44ColorRGB
 90
      255
102
RTVSPost2010PropOp44
 70
     1
102
RTVSPost2010Prop45
280
     0
102
RTVSPost2010PropOp45
 70
     1
102
RTVSPost2010Prop46
 90
       50
102
RTVSPost2010PropOp46
 70
     1
102
RTVSPost2010Prop47
 90
       50
102
RTVSPost2010PropOp47
 70
     1
102
RTVSPost2010Prop48
 90
       50
102
RTVSPost2010PropOp48
 70
     1
102
RTVSPost2010Prop49
280
     0
102
RTVSPost2010PropOp49
 70
     1
102
RTVSPost2010Prop50
 90
       50
102
RTVSPost2010PropOp50
 70
     1
102
RTVSPost2010Prop51ColorIndex
 90
      256
102
RTVSPost2010Prop51ColorRGB
 90
-16777216
102
RTVSPost2010PropOp51
 70
     0
102
RTVSPost2010Prop52
140
1.0
102
RTVSPost2010PropOp52
 70
     0
102
RTVSPost2010Prop53
 90
        2
102
RTVSPost2010PropOp53
 70
     1
102
RTVSPost2010Prop54
  1
strokes_ogs.tif
102
RTVSPost2010PropOp54
 70
     1
102
RTVSPost2010Prop55
280
     0
102
RTVSPost2010PropOp55
 70
     1
102
RTVSPost2010Prop56
140
1.0
102
RTVSPost2010PropOp56
 70
     1
102
RTVSPost2010Prop57
140
1.0
102
RTVSPost2010PropOp57
 70
     1
  0
ENDSEC
  0
EOF
