  0
SECTION
  2
HEADER
  9
$ACADVER
  1
AC1015
  9
$ACADMAINTVER
 70
     6
  9
$DWGCODEPAGE
  3
ANSI_1252
  9
$INSBASE
 10
0.0
 20
0.0
 30
0.0
  9
$EXTMIN
 10
0.297623
 20
45.501911
 30
0.0
  9
$EXTMAX
 10
658.374695
 20
543.261475
 30
0.0
  9
$LIMMIN
 10
0.297623
 20
45.501911
  9
$LIMMAX
 10
658.374695
 20
543.261475
  9
$ORTHOMODE
 70
     0
  9
$REGENMODE
 70
     1
  9
$FILLMODE
 70
     1
  9
$QTEXTMODE
 70
     0
  9
$MIRRTEXT
 70
     1
  9
$LTSCALE
 40
1.0
  9
$ATTMODE
 70
     1
  9
$TEXTSIZE
 40
2.5
  9
$TRACEWID
 40
1.0
  9
$TEXTSTYLE
  7
Standard
  9
$CLAYER
  8
0
  9
$CELTYPE
  6
ByLayer
  9
$CECOLOR
 62
   256
  9
$CELTSCALE
 40
1.0
  9
$DISPSILH
 70
     0
  9
$DIMSCALE
 40
1.0
  9
$DIMASZ
 40
2.5
  9
$DIMEXO
 40
0.625
  9
$DIMDLI
 40
3.75
  9
$DIMRND
 40
0.0
  9
$DIMDLE
 40
0.0
  9
$DIMEXE
 40
1.25
  9
$DIMTP
 40
0.0
  9
$DIMTM
 40
0.0
  9
$DIMTXT
 40
2.5
  9
$DIMCEN
 40
2.5
  9
$DIMTSZ
 40
0.0
  9
$DIMTOL
 70
     0
  9
$DIMLIM
 70
     0
  9
$DIMTIH
 70
     0
  9
$DIMTOH
 70
     0
  9
$DIMSE1
 70
     0
  9
$DIMSE2
 70
     0
  9
$DIMTAD
 70
     1
  9
$DIMZIN
 70
     8
  9
$DIMBLK
  1

  9
$DIMASO
 70
     1
  9
$DIMSHO
 70
     1
  9
$DIMPOST
  1

  9
$DIMAPOST
  1

  9
$DIMALT
 70
     0
  9
$DIMALTD
 70
     3
  9
$DIMALTF
 40
0.03937
  9
$DIMLFAC
 40
1.0
  9
$DIMTOFL
 70
     1
  9
$DIMTVP
 40
0.0
  9
$DIMTIX
 70
     0
  9
$DIMSOXD
 70
     0
  9
$DIMSAH
 70
     0
  9
$DIMBLK1
  1

  9
$DIMBLK2
  1

  9
$DIMSTYLE
  2
ISO-25
  9
$DIMCLRD
 70
     0
  9
$DIMCLRE
 70
     0
  9
$DIMCLRT
 70
     0
  9
$DIMTFAC
 40
1.0
  9
$DIMGAP
 40
0.625
  9
$DIMJUST
 70
     0
  9
$DIMSD1
 70
     0
  9
$DIMSD2
 70
     0
  9
$DIMTOLJ
 70
     0
  9
$DIMTZIN
 70
     8
  9
$DIMALTZ
 70
     0
  9
$DIMALTTZ
 70
     0
  9
$DIMUPT
 70
     0
  9
$DIMDEC
 70
     2
  9
$DIMTDEC
 70
     2
  9
$DIMALTU
 70
     2
  9
$DIMALTTD
 70
     3
  9
$DIMTXSTY
  7
Standard
  9
$DIMAUNIT
 70
     0
  9
$DIMADEC
 70
     0
  9
$DIMALTRND
 40
0.0
  9
$DIMAZIN
 70
     0
  9
$DIMDSEP
 70
    44
  9
$DIMATFIT
 70
     3
  9
$DIMFRAC
 70
     0
  9
$DIMLDRBLK
  1

  9
$DIMLUNIT
 70
     2
  9
$DIMLWD
 70
    -2
  9
$DIMLWE
 70
    -2
  9
$DIMTMOVE
 70
     0
  9
$LUNITS
 70
     2
  9
$LUPREC
 70
     4
  9
$SKETCHINC
 40
1.0
  9
$FILLETRAD
 40
10.0
  9
$AUNITS
 70
     0
  9
$AUPREC
 70
     0
  9
$MENU
  1
.
  9
$ELEVATION
 40
0.0
  9
$PELEVATION
 40
0.0
  9
$THICKNESS
 40
0.0
  9
$LIMCHECK
 70
     0
  9
$CHAMFERA
 40
10.0
  9
$CHAMFERB
 40
10.0
  9
$CHAMFERC
 40
20.0
  9
$CHAMFERD
 40
0.0
  9
$SKPOLY
 70
     0
  9
$TDCREATE
 40
2455554.61589125
  9
$TDUCREATE
 40
2455554.574224583
  9
$TDUPDATE
 40
2455554.615891261
  9
$TDUUPDATE
 40
2455554.574224595
  9
$TDINDWG
 40
0.0000000116
  9
$TDUSRTIMER
 40
0.0000000116
  9
$USRTIMER
 70
     1
  9
$ANGBASE
 50
0.0
  9
$ANGDIR
 70
     0
  9
$PDMODE
 70
     0
  9
$PDSIZE
 40
0.0
  9
$PLINEWID
 40
0.0
  9
$SPLFRAME
 70
     0
  9
$SPLINETYPE
 70
     6
  9
$SPLINESEGS
 70
     8
  9
$HANDSEED
  5
166
  9
$SURFTAB1
 70
     6
  9
$SURFTAB2
 70
     6
  9
$SURFTYPE
 70
     6
  9
$SURFU
 70
     6
  9
$SURFV
 70
     6
  9
$UCSBASE
  2

  9
$UCSNAME
  2

  9
$UCSORG
 10
0.0
 20
0.0
 30
0.0
  9
$UCSXDIR
 10
1.0
 20
0.0
 30
0.0
  9
$UCSYDIR
 10
0.0
 20
1.0
 30
0.0
  9
$UCSORTHOREF
  2

  9
$UCSORTHOVIEW
 70
     0
  9
$UCSORGTOP
 10
0.0
 20
0.0
 30
0.0
  9
$UCSORGBOTTOM
 10
0.0
 20
0.0
 30
0.0
  9
$UCSORGLEFT
 10
0.0
 20
0.0
 30
0.0
  9
$UCSORGRIGHT
 10
0.0
 20
0.0
 30
0.0
  9
$UCSORGFRONT
 10
0.0
 20
0.0
 30
0.0
  9
$UCSORGBACK
 10
0.0
 20
0.0
 30
0.0
  9
$PUCSBASE
  2

  9
$PUCSNAME
  2

  9
$PUCSORG
 10
0.0
 20
0.0
 30
0.0
  9
$PUCSXDIR
 10
1.0
 20
0.0
 30
0.0
  9
$PUCSYDIR
 10
0.0
 20
1.0
 30
0.0
  9
$PUCSORTHOREF
  2

  9
$PUCSORTHOVIEW
 70
     0
  9
$PUCSORGTOP
 10
0.0
 20
0.0
 30
0.0
  9
$PUCSORGBOTTOM
 10
0.0
 20
0.0
 30
0.0
  9
$PUCSORGLEFT
 10
0.0
 20
0.0
 30
0.0
  9
$PUCSORGRIGHT
 10
0.0
 20
0.0
 30
0.0
  9
$PUCSORGFRONT
 10
0.0
 20
0.0
 30
0.0
  9
$PUCSORGBACK
 10
0.0
 20
0.0
 30
0.0
  9
$USERI1
 70
     0
  9
$USERI2
 70
     0
  9
$USERI3
 70
     0
  9
$USERI4
 70
     0
  9
$USERI5
 70
     0
  9
$USERR1
 40
0.0
  9
$USERR2
 40
0.0
  9
$USERR3
 40
0.0
  9
$USERR4
 40
0.0
  9
$USERR5
 40
0.0
  9
$WORLDVIEW
 70
     1
  9
$SHADEDGE
 70
     3
  9
$SHADEDIF
 70
    70
  9
$TILEMODE
 70
     1
  9
$MAXACTVP
 70
    64
  9
$PINSBASE
 10
0.0
 20
0.0
 30
0.0
  9
$PLIMCHECK
 70
     0
  9
$PEXTMIN
 10
1.000000E+20
 20
1.000000E+20
 30
1.000000E+20
  9
$PEXTMAX
 10
-1.000000E+20
 20
-1.000000E+20
 30
-1.000000E+20
  9
$PLIMMIN
 10
0.0
 20
0.0
  9
$PLIMMAX
 10
420.0
 20
297.0
  9
$UNITMODE
 70
     0
  9
$VISRETAIN
 70
     1
  9
$PLINEGEN
 70
     0
  9
$PSLTSCALE
 70
     1
  9
$TREEDEPTH
 70
  3020
  9
$CMLSTYLE
  2
Standard
  9
$CMLJUST
 70
     0
  9
$CMLSCALE
 40
20.0
  9
$PROXYGRAPHICS
 70
     1
  9
$MEASUREMENT
 70
     1
  9
$CELWEIGHT
370
    -1
  9
$ENDCAPS
280
     0
  9
$JOINSTYLE
280
     0
  9
$LWDISPLAY
290
     0
  9
$INSUNITS
 70
     4
  9
$HYPERLINKBASE
  1

  9
$STYLESHEET
  1

  9
$XEDIT
290
     1
  9
$CEPSNTYPE
380
     0
  9
$PSTYLEMODE
290
     1
  9
$FINGERPRINTGUID
  2
{05F98D26-7524-4BDA-9063-3566B9762689}
  9
$VERSIONGUID
  2
{FAEB1C32-E019-11D5-929B-00C0DF256EC4}
  9
$EXTNAMES
290
     1
  9
$PSVPSCALE
 40
0.0
  9
$OLESTARTUP
290
     0
  0
ENDSEC
  0
SECTION
  2
CLASSES
  0
CLASS
  1
ACDBDICTIONARYWDFLT
  2
AcDbDictionaryWithDefault
  3
ObjectDBX Classes
 90
        0
280
     0
281
     0
  0
CLASS
  1
VISUALSTYLE
  2
AcDbVisualStyle
  3
ObjectDBX Classes
 90
     4095
280
     0
281
     0
  0
CLASS
  1
DICTIONARYVAR
  2
AcDbDictionaryVar
  3
ObjectDBX Classes
 90
        0
280
     0
281
     0
  0
CLASS
  1
ACDBPLACEHOLDER
  2
AcDbPlaceHolder
  3
ObjectDBX Classes
 90
        0
280
     0
281
     0
  0
CLASS
  1
LAYOUT
  2
AcDbLayout
  3
ObjectDBX Classes
 90
        0
280
     0
281
     0
  0
ENDSEC
  0
SECTION
  2
TABLES
  0
TABLE
  2
VPORT
  5
8
330
0
100
AcDbSymbolTable
 70
     1
  0
VPORT
  5
29
330
8
100
AcDbSymbolTableRecord
100
AcDbViewportTableRecord
  2
*Active
 70
     0
 10
0.0
 20
0.0
 11
1.0
 21
1.0
 12
344.186916
 22
148.5
 13
0.0
 23
0.0
 14
10.0
 24
10.0
 15
10.0
 25
10.0
 16
0.0
 26
0.0
 36
1.0
 17
0.0
 27
0.0
 37
0.0
 40
297.0
 41
1.972973
 42
50.0
 43
0.0
 44
0.0
 50
0.0
 51
0.0
 71
     0
 72
   100
 73
     1
 74
     3
 75
     0
 76
     0
 77
     0
 78
     0
281
     0
 65
     1
110
0.0
120
0.0
130
0.0
111
1.0
121
0.0
131
0.0
112
0.0
122
1.0
132
0.0
 79
     0
146
0.0
  0
ENDTAB
  0
TABLE
  2
LTYPE
  5
5
330
0
100
AcDbSymbolTable
 70
     1
  0
LTYPE
  5
14
330
5
100
AcDbSymbolTableRecord
100
AcDbLinetypeTableRecord
  2
ByBlock
 70
     0
  3

 72
    65
 73
     0
 40
0.0
  0
LTYPE
  5
15
330
5
100
AcDbSymbolTableRecord
100
AcDbLinetypeTableRecord
  2
ByLayer
 70
     0
  3

 72
    65
 73
     0
 40
0.0
  0
LTYPE
  5
16
330
5
100
AcDbSymbolTableRecord
100
AcDbLinetypeTableRecord
  2
Continuous
 70
     0
  3
Solid line
 72
    65
 73
     0
 40
0.0
  0
ENDTAB
  0
TABLE
  2
LAYER
  5
2
330
0
100
AcDbSymbolTable
 70
     1
  0
LAYER
  5
10
330
2
100
AcDbSymbolTableRecord
100
AcDbLayerTableRecord
  2
0
 70
     0
 62
   106
  6
Continuous
370
     0
390
F
  0
ENDTAB
  0
TABLE
  2
STYLE
  5
3
330
0
100
AcDbSymbolTable
 70
     4
  0
STYLE
  5
11
330
3
100
AcDbSymbolTableRecord
100
AcDbTextStyleTableRecord
  2
Standard
 70
     0
 40
0.0
 41
1.0
 50
0.0
 71
     0
 42
2.5
  3
txt
  4

  0
STYLE
  5
3B
330
3
100
AcDbSymbolTableRecord
100
AcDbTextStyleTableRecord
  2
Default
 70
     0
 40
0.0
 41
1.0
 50
0.0
 71
     0
 42
0.2
  3

  4

1001
ACAD
1000
txt
1071
        0
  0
STYLE
  5
3C
330
3
100
AcDbSymbolTableRecord
100
AcDbTextStyleTableRecord
  2
ISO
 70
     0
 40
0.0
 41
1.0
 50
0.0
 71
     0
 42
0.2
  3

  4

1001
ACAD
1000
txt
1071
        0
  0
STYLE
  5
3D
330
3
100
AcDbSymbolTableRecord
100
AcDbTextStyleTableRecord
  2
GIANLU
 70
     0
 40
0.0
 41
1.0
 50
0.0
 71
     0
 42
0.2
  3

  4

1001
ACAD
1000
Arial
1071
        0
  0
ENDTAB
  0
TABLE
  2
VIEW
  5
6
330
0
100
AcDbSymbolTable
 70
     0
  0
ENDTAB
  0
TABLE
  2
UCS
  5
7
330
0
100
AcDbSymbolTable
 70
     0
  0
ENDTAB
  0
TABLE
  2
APPID
  5
9
330
0
100
AcDbSymbolTable
 70
     1
  0
APPID
  5
12
330
9
100
AcDbSymbolTableRecord
100
AcDbRegAppTableRecord
  2
ACAD
 70
     0
  0
ENDTAB
  0
TABLE
  2
DIMSTYLE
  5
A
330
0
100
AcDbSymbolTable
 70
     4
100
AcDbDimStyleTable
  0
DIMSTYLE
105
27
330
A
100
AcDbSymbolTableRecord
100
AcDbDimStyleTableRecord
  2
ISO-25
 70
     0
 41
2.5
 42
0.625
 43
3.75
 44
1.25
 73
     0
 74
     0
 77
     1
 78
     8
140
2.5
141
2.5
143
0.03937
147
0.625
171
     3
172
     1
271
     2
272
     2
274
     3
278
    44
283
     0
284
     8
340
11
  0
DIMSTYLE
105
3E
330
A
100
AcDbSymbolTableRecord
100
AcDbDimStyleTableRecord
  2
Default
 70
     0
  3
<>
 41
4.375
 42
1.05
 44
2.1
 73
     0
 74
     0
 77
     1
 78
     8
140
3.5
146
0.4
147
1.75
178
     3
271
     2
272
     3
284
     8
340
3B
341
3F
342
3F
  0
DIMSTYLE
105
46
330
A
100
AcDbSymbolTableRecord
100
AcDbDimStyleTableRecord
  2
ISO
 70
     0
  3
<>
 41
4.375
 42
1.05
 44
2.1
 73
     0
 74
     0
 77
     1
 78
     8
140
3.5
146
0.4
147
1.75
178
     3
271
     2
272
     3
284
     8
340
3C
341
3F
342
3F
  0
DIMSTYLE
105
47
330
A
100
AcDbSymbolTableRecord
100
AcDbDimStyleTableRecord
  2
zucchetti_unico
 70
     0
  3
<>
 41
3.0
 42
0.9
 44
1.8
 73
     0
 74
     0
 77
     1
 78
     8
140
3.0
146
0.6
147
1.5
176
   104
177
     3
178
     3
271
     2
272
     2
284
     8
340
3D
  0
ENDTAB
  0
TABLE
  2
BLOCK_RECORD
  5
1
330
0
100
AcDbSymbolTable
 70
     7
  0
BLOCK_RECORD
  5
1F
330
1
100
AcDbSymbolTableRecord
100
AcDbBlockTableRecord
  2
*Model_Space
340
22
  0
BLOCK_RECORD
  5
1B
330
1
100
AcDbSymbolTableRecord
100
AcDbBlockTableRecord
  2
*Paper_Space
340
1E
  0
BLOCK_RECORD
  5
23
330
1
100
AcDbSymbolTableRecord
100
AcDbBlockTableRecord
  2
*Paper_Space0
340
26
  0
BLOCK_RECORD
  5
3F
330
1
100
AcDbSymbolTableRecord
100
AcDbBlockTableRecord
  2
_CLOSED
340
0
  0
BLOCK_RECORD
  5
48
330
1
100
AcDbSymbolTableRecord
100
AcDbBlockTableRecord
  2
a
340
0
102
{BLKREFS
331
81
102
}
  0
BLOCK_RECORD
  5
82
330
1
100
AcDbSymbolTableRecord
100
AcDbBlockTableRecord
  2
b
340
0
102
{BLKREFS
331
B0
102
}
  0
BLOCK_RECORD
  5
B1
330
1
100
AcDbSymbolTableRecord
100
AcDbBlockTableRecord
  2
c
340
0
102
{BLKREFS
331
DD
102
}
  0
BLOCK_RECORD
  5
DE
330
1
100
AcDbSymbolTableRecord
100
AcDbBlockTableRecord
  2
d
340
0
102
{BLKREFS
331
133
102
}
  0
BLOCK_RECORD
  5
134
330
1
100
AcDbSymbolTableRecord
100
AcDbBlockTableRecord
  2
e
340
0
102
{BLKREFS
331
160
102
}
  0
ENDTAB
  0
ENDSEC
  0
SECTION
  2
BLOCKS
  0
BLOCK
  5
20
330
1F
100
AcDbEntity
  8
0
100
AcDbBlockBegin
  2
*Model_Space
 70
     0
 10
0.0
 20
0.0
 30
0.0
  3
*Model_Space
  1

  0
ENDBLK
  5
21
330
1F
100
AcDbEntity
  8
0
100
AcDbBlockEnd
  0
BLOCK
  5
1C
330
1B
100
AcDbEntity
 67
     1
  8
0
100
AcDbBlockBegin
  2
*Paper_Space
 70
     0
 10
0.0
 20
0.0
 30
0.0
  3
*Paper_Space
  1

  0
ENDBLK
  5
1D
330
1B
100
AcDbEntity
 67
     1
  8
0
100
AcDbBlockEnd
  0
BLOCK
  5
24
330
23
100
AcDbEntity
  8
0
100
AcDbBlockBegin
  2
*Paper_Space0
 70
     0
 10
0.0
 20
0.0
 30
0.0
  3
*Paper_Space0
  1

  0
ENDBLK
  5
25
330
23
100
AcDbEntity
  8
0
100
AcDbBlockEnd
  0
BLOCK
  5
40
330
3F
100
AcDbEntity
  8
0
100
AcDbBlockBegin
  2
_CLOSED
 70
     0
 10
0.0
 20
0.0
 30
0.0
  3
_CLOSED
  1

  0
LINE
  5
42
330
3F
100
AcDbEntity
  8
0
  6
ByBlock
 62
     0
370
    -2
100
AcDbLine
 10
-1.0
 20
0.166667
 30
0.0
 11
0.0
 21
0.0
 31
0.0
  0
LINE
  5
43
330
3F
100
AcDbEntity
  8
0
  6
ByBlock
 62
     0
370
    -2
100
AcDbLine
 10
0.0
 20
0.0
 30
0.0
 11
-1.0
 21
-0.166667
 31
0.0
  0
LINE
  5
44
330
3F
100
AcDbEntity
  8
0
  6
ByBlock
 62
     0
370
    -2
100
AcDbLine
 10
-1.0
 20
0.166667
 30
0.0
 11
-1.0
 21
-0.166667
 31
0.0
  0
LINE
  5
45
330
3F
100
AcDbEntity
  8
0
  6
ByBlock
 62
     0
370
    -2
100
AcDbLine
 10
0.0
 20
0.0
 30
0.0
 11
-1.0
 21
0.0
 31
0.0
  0
ENDBLK
  5
41
330
3F
100
AcDbEntity
  8
0
100
AcDbBlockEnd
  0
BLOCK
  5
7F
330
48
100
AcDbEntity
  8
0
100
AcDbBlockBegin
  2
a
 70
     0
 10
204.673248
 20
105.241631
 30
0.0
  3
a
  1

  0
LWPOLYLINE
  5
49
330
48
100
AcDbEntity
  8
0
  6
Continuous
 62
     0
370
     0
100
AcDbPolyline
 90
        5
 70
     0
 43
0.0
 10
234.133453
 20
414.475372
 10
233.894562
 20
414.422729
 10
233.703781
 20
414.263794
 10
233.633469
 20
414.042572
 10
233.633469
 20
414.042358
  0
LINE
  5
4A
330
48
100
AcDbEntity
  8
0
  6
Continuous
 62
     0
370
    30
100
AcDbLine
 10
233.633461
 20
414.042357
 30
0.0
 11
233.633461
 21
413.609344
 31
0.0
  0
LINE
  5
4B
330
48
100
AcDbEntity
  8
0
  6
Continuous
 62
     0
370
     0
100
AcDbLine
 10
233.633461
 20
413.609344
 30
0.0
 11
234.133461
 21
413.609344
 31
0.0
  0
LINE
  5
4C
330
48
100
AcDbEntity
  8
0
  6
Continuous
 62
     0
370
     0
100
AcDbLine
 10
234.133461
 20
413.609344
 30
0.0
 11
234.133461
 21
414.475369
 31
0.0
  0
LWPOLYLINE
  5
4D
330
48
100
AcDbEntity
  8
0
  6
Continuous
 62
     0
370
     0
100
AcDbPolyline
 90
        4
 70
     0
 43
0.0
 10
382.633453
 20
414.042358
 10
382.572632
 20
414.249359
 10
382.388916
 20
414.414581
 10
382.133453
 20
414.475372
  0
LINE
  5
4E
330
48
100
AcDbEntity
  8
0
  6
Continuous
 62
     0
370
     0
100
AcDbLine
 10
382.133461
 20
414.475369
 30
0.0
 11
382.133461
 21
413.609344
 31
0.0
  0
LINE
  5
4F
330
48
100
AcDbEntity
  8
0
  6
Continuous
 62
     0
370
     0
100
AcDbLine
 10
382.133461
 20
413.609344
 30
0.0
 11
382.633461
 21
413.609344
 31
0.0
  0
LINE
  5
50
330
48
100
AcDbEntity
  8
0
  6
Continuous
 62
     0
370
    30
100
AcDbLine
 10
382.633461
 20
413.609344
 30
0.0
 11
382.633461
 21
414.042357
 31
0.0
  0
LINE
  5
51
330
48
100
AcDbEntity
  8
0
  6
Continuous
 62
     0
370
     0
100
AcDbLine
 10
382.133461
 20
414.475369
 30
0.0
 11
234.133461
 21
414.475369
 31
0.0
  0
LINE
  5
52
330
48
100
AcDbEntity
  8
0
  6
Continuous
 62
     0
370
     0
100
AcDbLine
 10
234.133461
 20
413.609344
 30
0.0
 11
382.133461
 21
413.609344
 31
0.0
  0
LINE
  5
53
330
48
100
AcDbEntity
  8
0
  6
Continuous
 62
     0
370
     0
100
AcDbLine
 10
382.133461
 20
414.475369
 30
0.0
 11
382.133461
 21
478.272574
 31
0.0
  0
LINE
  5
54
330
48
100
AcDbEntity
  8
0
  6
Continuous
 62
     0
370
     0
100
AcDbLine
 10
382.133461
 20
478.272574
 30
0.0
 11
234.133461
 21
478.272574
 31
0.0
  0
LINE
  5
55
330
48
100
AcDbEntity
  8
0
  6
Continuous
 62
     0
370
     0
100
AcDbLine
 10
234.133461
 20
478.272574
 30
0.0
 11
234.133461
 21
414.475369
 31
0.0
  0
LINE
  5
56
330
48
100
AcDbEntity
  8
0
  6
Continuous
 62
     0
370
    30
100
AcDbLine
 10
382.633461
 20
414.042357
 30
0.0
 11
382.633461
 21
477.839561
 31
0.0
  0
ELLIPSE
  5
57
330
48
100
AcDbEntity
  8
0
  6
Continuous
 62
     0
370
     0
100
AcDbEllipse
 10
382.133461
 20
477.839561
 30
0.0
 11
0.5
 21
0.0
 31
0.0
210
0.0
220
0.0
230
1.0
 40
0.866025
 41
0.000000000000016
 42
1.570796326794898
  0
LINE
  5
58
330
48
100
AcDbEntity
  8
0
  6
Continuous
 62
     0
370
    30
100
AcDbLine
 10
382.633461
 20
398.598237
 30
0.0
 11
382.633461
 21
413.609344
 31
0.0
  0
LINE
  5
59
330
48
100
AcDbEntity
  8
0
  6
Continuous
 62
     0
370
    30
100
AcDbLine
 10
382.633461
 20
398.098237
 30
0.0
 11
382.633461
 21
398.598237
 31
0.0
  0
LINE
  5
5A
330
48
100
AcDbEntity
  8
0
  6
Continuous
 62
     0
370
    30
100
AcDbLine
 10
382.633461
 20
485.200777
 30
0.0
 11
382.633461
 21
542.761467
 31
0.0
  0
LINE
  5
5B
330
48
100
AcDbEntity
  8
0
  6
Continuous
 62
     0
370
    30
100
AcDbLine
 10
382.633461
 20
477.839561
 30
0.0
 11
382.633461
 21
485.200777
 31
0.0
  0
LINE
  5
5C
330
48
100
AcDbEntity
  8
0
  6
Continuous
 62
     0
370
     0
100
AcDbLine
 10
382.133461
 20
413.609344
 30
0.0
 11
382.133461
 21
398.598237
 31
0.0
  0
LINE
  5
5D
330
48
100
AcDbEntity
  8
0
  6
Continuous
 62
     0
370
     0
100
AcDbLine
 10
382.133461
 20
398.598237
 30
0.0
 11
382.633461
 21
398.598237
 31
0.0
  0
LINE
  5
5E
330
48
100
AcDbEntity
  8
0
  6
Continuous
 62
     0
370
     0
100
AcDbLine
 10
234.133461
 20
398.598237
 30
0.0
 11
233.633461
 21
398.598237
 31
0.0
  0
LINE
  5
5F
330
48
100
AcDbEntity
  8
0
  6
Continuous
 62
     0
370
    30
100
AcDbLine
 10
233.633461
 20
398.598237
 30
0.0
 11
233.633461
 21
398.098237
 31
0.0
  0
LINE
  5
60
330
48
100
AcDbEntity
  8
0
  6
Continuous
 62
     0
370
     0
100
AcDbLine
 10
234.133461
 20
397.598237
 30
0.0
 11
234.133461
 21
398.598237
 31
0.0
  0
LINE
  5
61
330
48
100
AcDbEntity
  8
0
  6
Continuous
 62
     0
370
     0
100
AcDbLine
 10
382.133461
 20
398.598237
 30
0.0
 11
382.133461
 21
397.598237
 31
0.0
  0
LINE
  5
62
330
48
100
AcDbEntity
  8
0
  6
Continuous
 62
     0
370
     0
100
AcDbLine
 10
382.133461
 20
398.598237
 30
0.0
 11
234.133461
 21
398.598237
 31
0.0
  0
LINE
  5
63
330
48
100
AcDbEntity
  8
0
  6
Continuous
 62
     0
370
    30
100
AcDbLine
 10
233.633461
 20
413.609344
 30
0.0
 11
233.633461
 21
398.598237
 31
0.0
  0
LINE
  5
64
330
48
100
AcDbEntity
  8
0
  6
Continuous
 62
     0
370
     0
100
AcDbLine
 10
234.133461
 20
398.598237
 30
0.0
 11
234.133461
 21
413.609344
 31
0.0
  0
LINE
  5
65
330
48
100
AcDbEntity
  8
0
  6
Continuous
 62
     0
370
    30
100
AcDbLine
 10
377.133461
 20
408.186694
 30
0.0
 11
377.133461
 21
406.186694
 31
0.0
  0
LINE
  5
66
330
48
100
AcDbEntity
  8
0
  6
Continuous
 62
     0
370
    30
100
AcDbLine
 10
377.133461
 20
406.186694
 30
0.0
 11
239.133461
 21
406.186694
 31
0.0
  0
LINE
  5
67
330
48
100
AcDbEntity
  8
0
  6
Continuous
 62
     0
370
    30
100
AcDbLine
 10
239.133461
 20
406.186694
 30
0.0
 11
239.133461
 21
408.186694
 31
0.0
  0
LINE
  5
68
330
48
100
AcDbEntity
  8
0
  6
Continuous
 62
     0
370
    30
100
AcDbLine
 10
239.133461
 20
408.186694
 30
0.0
 11
377.133461
 21
408.186694
 31
0.0
  0
LINE
  5
69
330
48
100
AcDbEntity
  8
0
  6
Continuous
 62
     0
370
     0
100
AcDbLine
 10
233.633461
 20
542.761467
 30
0.0
 11
234.133461
 21
542.761467
 31
0.0
  0
LINE
  5
6A
330
48
100
AcDbEntity
  8
0
  6
Continuous
 62
     0
370
     0
100
AcDbLine
 10
234.133461
 20
542.761467
 30
0.0
 11
234.133461
 21
543.261467
 31
0.0
  0
ARC
  5
6B
330
48
100
AcDbEntity
  8
0
  6
Continuous
 62
     0
370
    30
100
AcDbCircle
 10
234.133461
 20
542.761467
 30
0.0
 40
0.5000000000029914
100
AcDbArc
 50
90.0
 51
180.0
  0
ARC
  5
6C
330
48
100
AcDbEntity
  8
0
  6
Continuous
 62
     0
370
    30
100
AcDbCircle
 10
382.133461
 20
542.761467
 30
0.0
 40
0.4999999999991331
100
AcDbArc
 50
360.0
 51
90.0
  0
LINE
  5
6D
330
48
100
AcDbEntity
  8
0
  6
Continuous
 62
     0
370
     0
100
AcDbLine
 10
382.133461
 20
543.261467
 30
0.0
 11
382.133461
 21
542.761467
 31
0.0
  0
LINE
  5
6E
330
48
100
AcDbEntity
  8
0
  6
Continuous
 62
     0
370
     0
100
AcDbLine
 10
382.133461
 20
542.761467
 30
0.0
 11
382.633461
 21
542.761467
 31
0.0
  0
LINE
  5
6F
330
48
100
AcDbEntity
  8
0
  6
Continuous
 62
     0
370
     0
100
AcDbLine
 10
382.133461
 20
485.200777
 30
0.0
 11
382.633461
 21
485.200777
 31
0.0
  0
LINE
  5
70
330
48
100
AcDbEntity
  8
0
  6
Continuous
 62
     0
370
     0
100
AcDbLine
 10
382.133461
 20
542.761467
 30
0.0
 11
382.133461
 21
485.200777
 31
0.0
  0
LINE
  5
71
330
48
100
AcDbEntity
  8
0
  6
Continuous
 62
     0
370
     0
100
AcDbLine
 10
382.133461
 20
485.200777
 30
0.0
 11
382.133461
 21
478.272574
 31
0.0
  0
LINE
  5
72
330
48
100
AcDbEntity
  8
0
  6
Continuous
 62
     0
370
     0
100
AcDbLine
 10
234.133461
 20
542.761467
 30
0.0
 11
382.133461
 21
542.761467
 31
0.0
  0
LINE
  5
73
330
48
100
AcDbEntity
  8
0
  6
Continuous
 62
     0
370
    30
100
AcDbLine
 10
382.133461
 20
543.261467
 30
0.0
 11
234.133461
 21
543.261467
 31
0.0
  0
LINE
  5
74
330
48
100
AcDbEntity
  8
0
  6
Continuous
 62
     0
370
     0
100
AcDbLine
 10
233.633461
 20
485.200777
 30
0.0
 11
234.133461
 21
485.200777
 31
0.0
  0
LINE
  5
75
330
48
100
AcDbEntity
  8
0
  6
Continuous
 62
     0
370
     0
100
AcDbLine
 10
234.133461
 20
485.200777
 30
0.0
 11
234.133461
 21
542.761467
 31
0.0
  0
LINE
  5
76
330
48
100
AcDbEntity
  8
0
  6
Continuous
 62
     0
370
    30
100
AcDbLine
 10
233.633461
 20
542.761467
 30
0.0
 11
233.633461
 21
485.200777
 31
0.0
  0
LWPOLYLINE
  5
77
330
48
100
AcDbEntity
  8
0
  6
Continuous
 62
     0
370
     0
100
AcDbPolyline
 90
        4
 70
     0
 43
0.0
 10
233.633453
 20
477.839569
 10
233.69429
 20
478.046539
 10
233.878006
 20
478.211792
 10
234.133453
 20
478.272583
  0
LINE
  5
78
330
48
100
AcDbEntity
  8
0
  6
Continuous
 62
     0
370
     0
100
AcDbLine
 10
234.133461
 20
478.272574
 30
0.0
 11
234.133461
 21
485.200777
 31
0.0
  0
LINE
  5
79
330
48
100
AcDbEntity
  8
0
  6
Continuous
 62
     0
370
    30
100
AcDbLine
 10
233.633461
 20
485.200777
 30
0.0
 11
233.633461
 21
477.839561
 31
0.0
  0
LINE
  5
7A
330
48
100
AcDbEntity
  8
0
  6
Continuous
 62
     0
370
    30
100
AcDbLine
 10
233.633461
 20
477.839561
 30
0.0
 11
233.633461
 21
414.042357
 31
0.0
  0
LINE
  5
7B
330
48
100
AcDbEntity
  8
0
  6
Continuous
 62
     0
370
     0
100
AcDbLine
 10
234.133461
 20
485.200777
 30
0.0
 11
382.133461
 21
485.200777
 31
0.0
  0
LINE
  5
7C
330
48
100
AcDbEntity
  8
0
  6
Continuous
 62
     0
370
    30
100
AcDbLine
 10
382.133461
 20
397.598237
 30
0.0
 11
234.133461
 21
397.598237
 31
0.0
  0
ARC
  5
7D
330
48
100
AcDbEntity
  8
0
  6
Continuous
 62
     0
370
    30
100
AcDbCircle
 10
382.13337
 20
398.098328
 30
0.0
 40
0.5000912937004209
100
AcDbArc
 50
270.010459
 51
359.989541
  0
ARC
  5
7E
330
48
100
AcDbEntity
  8
0
  6
Continuous
 62
     0
370
    30
100
AcDbCircle
 10
234.13349
 20
398.098266
 30
0.0
 40
0.5000289654655677
100
AcDbArc
 50
180.010311
 51
269.996681
  0
ENDBLK
  5
80
330
48
100
AcDbEntity
  8
0
100
AcDbBlockEnd
  0
BLOCK
  5
AE
330
82
100
AcDbEntity
  8
0
100
AcDbBlockBegin
  2
b
 70
     0
 10
214.553257
 20
105.241631
 30
0.0
  3
b
  1

  0
LWPOLYLINE
  5
83
330
82
100
AcDbEntity
  8
0
  6
Continuous
 62
     0
370
     0
100
AcDbPolyline
 90
        5
 70
     0
 43
0.0
 10
234.133453
 20
104.238533
 10
233.896347
 20
104.268433
 10
233.705887
 20
104.358932
 10
233.633469
 20
104.488403
 10
233.633469
 20
104.488533
  0
LINE
  5
84
330
82
100
AcDbEntity
  8
0
  6
Continuous
 62
     0
370
    30
100
AcDbLine
 10
233.633461
 20
104.488531
 30
0.0
 11
233.633461
 21
104.238531
 31
0.0
  0
ARC
  5
85
330
82
100
AcDbEntity
  8
0
  6
Continuous
 62
     0
370
    30
100
AcDbCircle
 10
234.133461
 20
104.238531
 30
0.0
 40
0.4999999999955094
100
AcDbArc
 50
180.0
 51
270.0
  0
LWPOLYLINE
  5
86
330
82
100
AcDbEntity
  8
0
  6
Continuous
 62
     0
370
     0
100
AcDbPolyline
 90
        4
 70
     0
 43
0.0
 10
234.133453
 20
103.738533
 10
234.133453
 20
103.786964
 10
234.133453
 20
103.937706
 10
234.133453
 20
104.238533
  0
LWPOLYLINE
  5
87
330
82
100
AcDbEntity
  8
0
  6
Continuous
 62
     0
370
     0
100
AcDbPolyline
 90
        4
 70
     0
 43
0.0
 10
382.633453
 20
104.488533
 10
382.573608
 20
104.369919
 10
382.392426
 20
104.274673
 10
382.133453
 20
104.238533
  0
LINE
  5
88
330
82
100
AcDbEntity
  8
0
  6
Continuous
 62
     0
370
     0
100
AcDbLine
 10
382.133461
 20
104.238531
 30
0.0
 11
382.133461
 21
103.738531
 31
0.0
  0
ARC
  5
89
330
82
100
AcDbEntity
  8
0
  6
Continuous
 62
     0
370
    30
100
AcDbCircle
 10
382.133461
 20
104.238531
 30
0.0
 40
0.4999999999960423
100
AcDbArc
 50
270.0
 51
0.0
  0
LWPOLYLINE
  5
8A
330
82
100
AcDbEntity
  8
0
  6
Continuous
 62
     0
370
    30
100
AcDbPolyline
 90
        3
 70
     0
 43
0.0
 10
382.633453
 20
104.238533
 10
382.633453
 20
104.302376
 10
382.633453
 20
104.488533
  0
LINE
  5
8B
330
82
100
AcDbEntity
  8
0
  6
Continuous
 62
     0
370
     0
100
AcDbLine
 10
382.133461
 20
104.238531
 30
0.0
 11
234.133461
 21
104.238531
 31
0.0
  0
LINE
  5
8C
330
82
100
AcDbEntity
  8
0
  6
Continuous
 62
     0
370
    30
100
AcDbLine
 10
234.133461
 20
103.738531
 30
0.0
 11
382.133461
 21
103.738531
 31
0.0
  0
LINE
  5
8D
330
82
100
AcDbEntity
  8
0
  6
Continuous
 62
     0
370
     0
100
AcDbLine
 10
382.133461
 20
104.238531
 30
0.0
 11
382.133461
 21
214.738529
 31
0.0
  0
LINE
  5
8E
330
82
100
AcDbEntity
  8
0
  6
Continuous
 62
     0
370
     0
100
AcDbLine
 10
382.133461
 20
214.738529
 30
0.0
 11
234.133461
 21
214.738529
 31
0.0
  0
LINE
  5
8F
330
82
100
AcDbEntity
  8
0
  6
Continuous
 62
     0
370
     0
100
AcDbLine
 10
234.133461
 20
214.738529
 30
0.0
 11
234.133461
 21
104.238531
 31
0.0
  0
LINE
  5
90
330
82
100
AcDbEntity
  8
0
  6
Continuous
 62
     0
370
    30
100
AcDbLine
 10
382.633461
 20
104.488531
 30
0.0
 11
382.633461
 21
214.988529
 31
0.0
  0
ELLIPSE
  5
91
330
82
100
AcDbEntity
  8
0
  6
Continuous
 62
     0
370
     0
100
AcDbEllipse
 10
382.133461
 20
214.988529
 30
0.0
 11
0.5
 21
0.0
 31
0.0
210
0.0
220
0.0
230
-1.0
 40
0.5
 41
0.0000000000000178
 42
1.570796326794899
  0
LINE
  5
92
330
82
100
AcDbEntity
  8
0
  6
Continuous
 62
     0
370
    30
100
AcDbLine
 10
382.633461
 20
219.238526
 30
0.0
 11
382.633461
 21
233.438526
 31
0.0
  0
LINE
  5
93
330
82
100
AcDbEntity
  8
0
  6
Continuous
 62
     0
370
    30
100
AcDbLine
 10
382.633461
 20
214.988529
 30
0.0
 11
382.633461
 21
219.238528
 31
0.0
  0
ARC
  5
94
330
82
100
AcDbEntity
  8
0
  6
Continuous
 62
     0
370
    30
100
AcDbCircle
 10
382.333461
 20
233.438526
 30
0.0
 40
0.3
100
AcDbArc
 50
0.0
 51
90.0
  0
LINE
  5
95
330
82
100
AcDbEntity
  8
0
  6
Continuous
 62
     0
370
     0
100
AcDbLine
 10
382.133461
 20
233.738526
 30
0.0
 11
382.133461
 21
233.438526
 31
0.0
  0
LINE
  5
96
330
82
100
AcDbEntity
  8
0
  6
Continuous
 62
     0
370
     0
100
AcDbLine
 10
382.133461
 20
233.438526
 30
0.0
 11
382.633461
 21
233.438526
 31
0.0
  0
LINE
  5
97
330
82
100
AcDbEntity
  8
0
  6
Continuous
 62
     0
370
    30
100
AcDbLine
 10
382.333461
 20
233.738526
 30
0.0
 11
382.133461
 21
233.738526
 31
0.0
  0
LINE
  5
98
330
82
100
AcDbEntity
  8
0
  6
Continuous
 62
     0
370
     0
100
AcDbLine
 10
234.133461
 20
233.738526
 30
0.0
 11
234.133461
 21
233.438526
 31
0.0
  0
LINE
  5
99
330
82
100
AcDbEntity
  8
0
  6
Continuous
 62
     0
370
     0
100
AcDbLine
 10
234.133461
 20
233.438526
 30
0.0
 11
382.133461
 21
233.438526
 31
0.0
  0
LINE
  5
9A
330
82
100
AcDbEntity
  8
0
  6
Continuous
 62
     0
370
    30
100
AcDbLine
 10
382.133461
 20
233.738526
 30
0.0
 11
234.133461
 21
233.738526
 31
0.0
  0
ARC
  5
9B
330
82
100
AcDbEntity
  8
0
  6
Continuous
 62
     0
370
    30
100
AcDbCircle
 10
233.933461
 20
233.438526
 30
0.0
 40
0.3000000000016954
100
AcDbArc
 50
90.0
 51
180.0
  0
LINE
  5
9C
330
82
100
AcDbEntity
  8
0
  6
Continuous
 62
     0
370
     0
100
AcDbLine
 10
233.633461
 20
233.438526
 30
0.0
 11
234.133461
 21
233.438526
 31
0.0
  0
LINE
  5
9D
330
82
100
AcDbEntity
  8
0
  6
Continuous
 62
     0
370
    30
100
AcDbLine
 10
234.133461
 20
233.738526
 30
0.0
 11
233.933461
 21
233.738526
 31
0.0
  0
ARC
  5
9E
330
82
100
AcDbEntity
  8
0
  6
Continuous
 62
     0
370
    30
100
AcDbCircle
 10
234.133461
 20
219.238526
 30
0.0
 40
0.4999999999918618
100
AcDbArc
 50
180.0
 51
270.0
  0
LWPOLYLINE
  5
9F
330
82
100
AcDbEntity
  8
0
  6
Continuous
 62
     0
370
     0
100
AcDbPolyline
 90
        4
 70
     0
 43
0.0
 10
234.133453
 20
218.738525
 10
234.133453
 20
218.807648
 10
234.133469
 20
218.976181
 10
234.133453
 20
219.238525
  0
LINE
  5
A0
330
82
100
AcDbEntity
  8
0
  6
Continuous
 62
     0
370
     0
100
AcDbLine
 10
234.133461
 20
219.238526
 30
0.0
 11
233.633461
 21
219.238526
 31
0.0
  0
LINE
  5
A1
330
82
100
AcDbEntity
  8
0
  6
Continuous
 62
     0
370
     0
100
AcDbLine
 10
382.633461
 20
219.238526
 30
0.0
 11
382.133461
 21
219.238526
 31
0.0
  0
LINE
  5
A2
330
82
100
AcDbEntity
  8
0
  6
Continuous
 62
     0
370
     0
100
AcDbLine
 10
382.133461
 20
219.238526
 30
0.0
 11
382.133461
 21
218.738526
 31
0.0
  0
ARC
  5
A3
330
82
100
AcDbEntity
  8
0
  6
Continuous
 62
     0
370
    30
100
AcDbCircle
 10
382.133461
 20
219.238526
 30
0.0
 40
0.4999999999999997
100
AcDbArc
 50
270.0
 51
360.0
  0
LWPOLYLINE
  5
A4
330
82
100
AcDbEntity
  8
0
  6
Continuous
 62
     0
370
     0
100
AcDbPolyline
 90
        9
 70
     0
 43
0.0
 10
382.133453
 20
218.738525
 10
382.133453
 20
218.663696
 10
382.133453
 20
218.448486
 10
382.133453
 20
218.111206
 10
382.133453
 20
217.673965
 10
382.133453
 20
217.132523
 10
382.133453
 20
216.464249
 10
382.133453
 20
215.672256
 10
382.133453
 20
214.738525
  0
LINE
  5
A5
330
82
100
AcDbEntity
  8
0
  6
Continuous
 62
     0
370
     0
100
AcDbLine
 10
382.133461
 20
233.438526
 30
0.0
 11
382.133461
 21
219.238526
 31
0.0
  0
LINE
  5
A6
330
82
100
AcDbEntity
  8
0
  6
Continuous
 62
     0
370
    30
100
AcDbLine
 10
234.133461
 20
218.738526
 30
0.0
 11
382.133461
 21
218.738526
 31
0.0
  0
LINE
  5
A7
330
82
100
AcDbEntity
  8
0
  6
Continuous
 62
     0
370
     0
100
AcDbLine
 10
382.133461
 20
219.238526
 30
0.0
 11
234.133461
 21
219.238526
 31
0.0
  0
LINE
  5
A8
330
82
100
AcDbEntity
  8
0
  6
Continuous
 62
     0
370
    30
100
AcDbLine
 10
233.633461
 20
233.438526
 30
0.0
 11
233.633461
 21
219.238526
 31
0.0
  0
LINE
  5
A9
330
82
100
AcDbEntity
  8
0
  6
Continuous
 62
     0
370
     0
100
AcDbLine
 10
234.133461
 20
219.238526
 30
0.0
 11
234.133461
 21
233.438526
 31
0.0
  0
LWPOLYLINE
  5
AA
330
82
100
AcDbEntity
  8
0
  6
Continuous
 62
     0
370
     0
100
AcDbPolyline
 90
        4
 70
     0
 43
0.0
 10
233.633453
 20
214.988525
 10
233.693314
 20
214.869919
 10
233.874496
 20
214.774673
 10
234.133453
 20
214.738525
  0
LINE
  5
AB
330
82
100
AcDbEntity
  8
0
  6
Continuous
 62
     0
370
     0
100
AcDbLine
 10
234.133461
 20
214.738529
 30
0.0
 11
234.133461
 21
218.738528
 31
0.0
  0
LWPOLYLINE
  5
AC
330
82
100
AcDbEntity
  8
0
  6
Continuous
 62
     0
370
    30
100
AcDbPolyline
 90
        9
 70
     0
 43
0.0
 10
233.633453
 20
219.238525
 10
233.633453
 20
219.178986
 10
233.633453
 20
218.990997
 10
233.633453
 20
218.663895
 10
233.633453
 20
218.192947
 10
233.633453
 20
217.580765
 10
233.633469
 20
216.837952
 10
233.633469
 20
215.982758
 10
233.633453
 20
214.988525
  0
LINE
  5
AD
330
82
100
AcDbEntity
  8
0
  6
Continuous
 62
     0
370
    30
100
AcDbLine
 10
233.633461
 20
214.988529
 30
0.0
 11
233.633461
 21
104.488531
 31
0.0
  0
ENDBLK
  5
AF
330
82
100
AcDbEntity
  8
0
100
AcDbBlockEnd
  0
BLOCK
  5
DB
330
B1
100
AcDbEntity
  8
0
100
AcDbBlockBegin
  2
c
 70
     0
 10
265.101776
 20
96.494896
 30
0.0
  3
c
  1

  0
LWPOLYLINE
  5
B2
330
B1
100
AcDbEntity
  8
0
  6
Continuous
 62
     0
370
     0
100
AcDbPolyline
 90
        5
 70
     0
 43
0.0
 10
602.982056
 20
414.475372
 10
602.952271
 20
414.423767
 10
602.862061
 20
414.267517
 10
602.732178
 20
414.042572
 10
602.732056
 20
414.042358
  0
ARC
  5
B3
330
B1
100
AcDbEntity
  8
0
  6
Continuous
 62
     0
370
     0
100
AcDbCircle
 10
602.482045
 20
413.609344
 30
0.0
 40
0.5000000000015354
100
AcDbArc
 50
0.0
 51
60.0
  0
LINE
  5
B4
330
B1
100
AcDbEntity
  8
0
  6
Continuous
 62
     0
370
     0
100
AcDbLine
 10
602.982045
 20
413.609344
 30
0.0
 11
603.482045
 21
413.609344
 31
0.0
  0
ARC
  5
B5
330
B1
100
AcDbEntity
  8
0
  6
Continuous
 62
     0
370
    30
100
AcDbCircle
 10
602.482045
 20
413.609344
 30
0.0
 40
1.000000000002549
100
AcDbArc
 50
0.0
 51
60.0
  0
LINE
  5
B6
330
B1
100
AcDbEntity
  8
0
  6
Continuous
 62
     0
370
    30
100
AcDbLine
 10
492.482045
 20
478.272574
 30
0.0
 11
602.982045
 21
414.475369
 31
0.0
  0
LWPOLYLINE
  5
B7
330
B1
100
AcDbEntity
  8
0
  6
Continuous
 62
     0
370
     0
100
AcDbPolyline
 90
        5
 70
     0
 43
0.0
 10
603.482056
 20
398.598236
 10
603.422485
 20
398.598236
 10
603.242004
 20
398.598236
 10
602.9823
 20
398.598236
 10
602.982056
 20
398.598236
  0
ARC
  5
B8
330
B1
100
AcDbEntity
  8
0
  6
Continuous
 62
     0
370
     0
100
AcDbCircle
 10
602.482045
 20
398.598237
 30
0.0
 40
0.5000000000020437
100
AcDbArc
 50
240.0
 51
360.0
  0
LINE
  5
B9
330
B1
100
AcDbEntity
  8
0
  6
Continuous
 62
     0
370
     0
100
AcDbLine
 10
602.232045
 20
398.165224
 30
0.0
 11
601.982045
 21
397.732211
 31
0.0
  0
ARC
  5
BA
330
B1
100
AcDbEntity
  8
0
  6
Continuous
 62
     0
370
    30
100
AcDbCircle
 10
602.482045
 20
398.598237
 30
0.0
 40
0.9999999999993165
100
AcDbArc
 50
240.0
 51
360.0
  0
LINE
  5
BB
330
B1
100
AcDbEntity
  8
0
  6
Continuous
 62
     0
370
     0
100
AcDbLine
 10
602.982045
 20
413.609344
 30
0.0
 11
602.982045
 21
398.598237
 31
0.0
  0
LINE
  5
BC
330
B1
100
AcDbEntity
  8
0
  6
Continuous
 62
     0
370
    30
100
AcDbLine
 10
603.482045
 20
398.598237
 30
0.0
 11
603.482045
 21
413.609344
 31
0.0
  0
ARC
  5
BD
330
B1
100
AcDbEntity
  8
0
  6
Continuous
 62
     0
370
    30
100
AcDbCircle
 10
473.782045
 20
542.961467
 30
0.0
 40
0.3
100
AcDbArc
 50
90.0
 51
180.0
  0
ARC
  5
BE
330
B1
100
AcDbEntity
  8
0
  6
Continuous
 62
     0
370
    30
100
AcDbCircle
 10
473.782045
 20
463.561467
 30
0.0
 40
0.3
100
AcDbArc
 50
180.0
 51
270.0
  0
LINE
  5
BF
330
B1
100
AcDbEntity
  8
0
  6
Continuous
 62
     0
370
     0
100
AcDbLine
 10
473.482045
 20
542.761467
 30
0.0
 11
473.782045
 21
542.761467
 31
0.0
  0
LINE
  5
C0
330
B1
100
AcDbEntity
  8
0
  6
Continuous
 62
     0
370
     0
100
AcDbLine
 10
473.782045
 20
542.761467
 30
0.0
 11
473.782045
 21
543.261467
 31
0.0
  0
LINE
  5
C1
330
B1
100
AcDbEntity
  8
0
  6
Continuous
 62
     0
370
    30
100
AcDbLine
 10
473.482045
 20
542.961467
 30
0.0
 11
473.482045
 21
542.761467
 31
0.0
  0
LINE
  5
C2
330
B1
100
AcDbEntity
  8
0
  6
Continuous
 62
     0
370
     0
100
AcDbLine
 10
473.782045
 20
463.761467
 30
0.0
 11
473.482045
 21
463.761467
 31
0.0
  0
LINE
  5
C3
330
B1
100
AcDbEntity
  8
0
  6
Continuous
 62
     0
370
    30
100
AcDbLine
 10
473.482045
 20
463.761467
 30
0.0
 11
473.482045
 21
463.561467
 31
0.0
  0
LINE
  5
C4
330
B1
100
AcDbEntity
  8
0
  6
Continuous
 62
     0
370
     0
100
AcDbLine
 10
473.782045
 20
463.261467
 30
0.0
 11
473.782045
 21
463.761467
 31
0.0
  0
LINE
  5
C5
330
B1
100
AcDbEntity
  8
0
  6
Continuous
 62
     0
370
    30
100
AcDbLine
 10
473.482045
 20
542.761467
 30
0.0
 11
473.482045
 21
463.761467
 31
0.0
  0
LINE
  5
C6
330
B1
100
AcDbEntity
  8
0
  6
Continuous
 62
     0
370
     0
100
AcDbLine
 10
473.782045
 20
463.761467
 30
0.0
 11
473.782045
 21
542.761467
 31
0.0
  0
LINE
  5
C7
330
B1
100
AcDbEntity
  8
0
  6
Continuous
 62
     0
370
    30
100
AcDbLine
 10
473.782045
 20
463.261467
 30
0.0
 11
487.410248
 21
463.261467
 31
0.0
  0
LINE
  5
C8
330
B1
100
AcDbEntity
  8
0
  6
Continuous
 62
     0
370
     0
100
AcDbLine
 10
487.410248
 20
463.261467
 30
0.0
 11
487.410248
 21
463.761467
 31
0.0
  0
LINE
  5
C9
330
B1
100
AcDbEntity
  8
0
  6
Continuous
 62
     0
370
     0
100
AcDbLine
 10
487.410248
 20
463.761467
 30
0.0
 11
473.782045
 21
463.761467
 31
0.0
  0
LINE
  5
CA
330
B1
100
AcDbEntity
  8
0
  6
Continuous
 62
     0
370
     0
100
AcDbLine
 10
487.982045
 20
542.761467
 30
0.0
 11
488.482045
 21
542.761467
 31
0.0
  0
ARC
  5
CB
330
B1
100
AcDbEntity
  8
0
  6
Continuous
 62
     0
370
    30
100
AcDbCircle
 10
487.982045
 20
542.761467
 30
0.0
 40
0.4999999999991295
100
AcDbArc
 50
360.0
 51
90.0
  0
LINE
  5
CC
330
B1
100
AcDbEntity
  8
0
  6
Continuous
 62
     0
370
     0
100
AcDbLine
 10
487.982045
 20
543.261467
 30
0.0
 11
487.982045
 21
542.761467
 31
0.0
  0
LINE
  5
CD
330
B1
100
AcDbEntity
  8
0
  6
Continuous
 62
     0
370
     0
100
AcDbLine
 10
473.782045
 20
542.761467
 30
0.0
 11
487.982045
 21
542.761467
 31
0.0
  0
LINE
  5
CE
330
B1
100
AcDbEntity
  8
0
  6
Continuous
 62
     0
370
    30
100
AcDbLine
 10
487.982045
 20
543.261467
 30
0.0
 11
473.782045
 21
543.261467
 31
0.0
  0
LINE
  5
CF
330
B1
100
AcDbEntity
  8
0
  6
Continuous
 62
     0
370
     0
100
AcDbLine
 10
487.982045
 20
485.200777
 30
0.0
 11
488.482045
 21
485.200777
 31
0.0
  0
LINE
  5
D0
330
B1
100
AcDbEntity
  8
0
  6
Continuous
 62
     0
370
    30
100
AcDbLine
 10
488.482045
 20
485.200777
 30
0.0
 11
488.482045
 21
542.761467
 31
0.0
  0
LINE
  5
D1
330
B1
100
AcDbEntity
  8
0
  6
Continuous
 62
     0
370
     0
100
AcDbLine
 10
487.982045
 20
542.761467
 30
0.0
 11
487.982045
 21
485.200777
 31
0.0
  0
LINE
  5
D2
330
B1
100
AcDbEntity
  8
0
  6
Continuous
 62
     0
370
     0
100
AcDbLine
 10
492.232045
 20
477.839561
 30
0.0
 11
492.482045
 21
478.272574
 31
0.0
  0
ARC
  5
D3
330
B1
100
AcDbEntity
  8
0
  6
Continuous
 62
     0
370
    30
100
AcDbCircle
 10
496.482045
 20
485.200777
 30
0.0
 40
8.000000000000002
100
AcDbArc
 50
180.0
 51
240.0
  0
ARC
  5
D4
330
B1
100
AcDbEntity
  8
0
  6
Continuous
 62
     0
370
     0
100
AcDbCircle
 10
496.482045
 20
485.200777
 30
0.0
 40
8.500000000000018
100
AcDbArc
 50
180.0
 51
240.0
  0
LINE
  5
D5
330
B1
100
AcDbEntity
  8
0
  6
Continuous
 62
     0
370
     0
100
AcDbLine
 10
492.232045
 20
477.839561
 30
0.0
 11
602.732045
 21
414.042357
 31
0.0
  0
LINE
  5
D6
330
B1
100
AcDbEntity
  8
0
  6
Continuous
 62
     0
370
     0
100
AcDbLine
 10
602.232045
 20
398.165224
 30
0.0
 11
489.660248
 21
463.158581
 31
0.0
  0
LINE
  5
D7
330
B1
100
AcDbEntity
  8
0
  6
Continuous
 62
     0
370
     0
100
AcDbLine
 10
489.660248
 20
463.158581
 30
0.0
 11
489.410248
 21
462.725569
 31
0.0
  0
LINE
  5
D8
330
B1
100
AcDbEntity
  8
0
  6
Continuous
 62
     0
370
    30
100
AcDbLine
 10
489.410248
 20
462.725569
 30
0.0
 11
601.982045
 21
397.732211
 31
0.0
  0
ARC
  5
D9
330
B1
100
AcDbEntity
  8
0
  6
Continuous
 62
     0
370
     0
100
AcDbCircle
 10
487.410248
 20
459.261467
 30
0.0
 40
4.499999999999973
100
AcDbArc
 50
60.0
 51
90.0
  0
LWPOLYLINE
  5
DA
330
B1
100
AcDbEntity
  8
0
  6
Continuous
 62
     0
370
    30
100
AcDbPolyline
 90
        9
 70
     0
 43
0.0
 10
489.410248
 20
462.725555
 10
489.180237
 20
462.848541
 10
488.942657
 20
462.956299
 10
488.698578
 20
463.048309
 10
488.449005
 20
463.124237
 10
488.195038
 20
463.183685
 10
487.937714
 20
463.226562
 10
487.678162
 20
463.252747
 10
487.410248
 20
463.261475
  0
ENDBLK
  5
DC
330
B1
100
AcDbEntity
  8
0
100
AcDbBlockEnd
  0
BLOCK
  5
131
330
DE
100
AcDbEntity
  8
0
100
AcDbBlockBegin
  2
d
 70
     0
 10
256.681427
 20
45.278469
 30
0.0
  3
d
  1

  0
LWPOLYLINE
  5
DF
330
DE
100
AcDbEntity
  8
0
  6
Continuous
 62
     0
370
     0
100
AcDbPolyline
 90
        3
 70
     0
 43
0.0
 10
461.923309
 20
143.829193
 10
461.779755
 20
143.924316
 10
461.705536
 20
143.95517
  0
LWPOLYLINE
  5
E0
330
DE
100
AcDbEntity
  8
0
  6
Continuous
 62
     0
370
     0
100
AcDbPolyline
 90
        3
 70
     0
 43
0.0
 10
461.423309
 20
143.216827
 10
461.440247
 20
143.12558
 10
461.569733
 20
142.966827
  0
LWPOLYLINE
  5
E1
330
DE
100
AcDbEntity
  8
0
  6
Continuous
 62
     0
370
     0
100
AcDbPolyline
 90
        4
 70
     0
 43
0.0
 10
461.569733
 20
142.966827
 10
461.601074
 20
143.197098
 10
461.698822
 20
143.465408
 10
461.923309
 20
143.829193
  0
LWPOLYLINE
  5
E2
330
DE
100
AcDbEntity
  8
0
  6
Continuous
 62
     0
370
     0
100
AcDbPolyline
 90
        4
 70
     0
 43
0.0
 10
567.105408
 20
69.39801
 10
566.986267
 20
69.507858
 10
566.801147
 20
69.659912
 10
566.575073
 20
69.829193
  0
LWPOLYLINE
  5
E3
330
DE
100
AcDbEntity
  8
0
  6
Continuous
 62
     0
370
     0
100
AcDbPolyline
 90
        4
 70
     0
 43
0.0
 10
566.575073
 20
69.829193
 10
566.400391
 20
69.563324
 10
566.286377
 20
69.308388
 10
566.221558
 20
68.96682
  0
LWPOLYLINE
  5
E4
330
DE
100
AcDbEntity
  8
0
  6
Continuous
 62
     0
370
     0
100
AcDbPolyline
 90
        4
 70
     0
 43
0.0
 10
566.221558
 20
68.96682
 10
566.41925
 20
68.880875
 10
566.668884
 20
68.869537
 10
566.92865
 20
68.96682
  0
LWPOLYLINE
  5
E5
330
DE
100
AcDbEntity
  8
0
  6
Continuous
 62
     0
370
     0
100
AcDbPolyline
 90
        3
 70
     0
 43
0.0
 10
566.92865
 20
68.96682
 10
566.963928
 20
69.145767
 10
567.105408
 20
69.39801
  0
LINE
  5
E6
330
DE
100
AcDbEntity
  8
0
  6
Continuous
 62
     0
370
     0
100
AcDbLine
 10
566.5751
 20
69.829194
 30
0.0
 11
461.923296
 21
143.829197
 31
0.0
  0
LINE
  5
E7
330
DE
100
AcDbEntity
  8
0
  6
Continuous
 62
     0
370
     0
100
AcDbLine
 10
461.569743
 20
142.966824
 30
0.0
 11
566.221547
 21
68.966822
 31
0.0
  0
LINE
  5
E8
330
DE
100
AcDbEntity
  8
0
  6
Continuous
 62
     0
370
     0
100
AcDbLine
 10
566.5751
 20
69.829194
 30
0.0
 11
644.710399
 21
170.190631
 31
0.0
  0
LINE
  5
E9
330
DE
100
AcDbEntity
  8
0
  6
Continuous
 62
     0
370
     0
100
AcDbLine
 10
644.710399
 20
170.190631
 30
0.0
 11
540.058596
 21
244.190633
 31
0.0
  0
LINE
  5
EA
330
DE
100
AcDbEntity
  8
0
  6
Continuous
 62
     0
370
     0
100
AcDbLine
 10
540.058596
 20
244.190633
 30
0.0
 11
461.923296
 21
143.829197
 31
0.0
  0
LINE
  5
EB
330
DE
100
AcDbEntity
  8
0
  6
Continuous
 62
     0
370
     0
100
AcDbLine
 10
567.10543
 20
69.398008
 30
0.0
 11
645.240729
 21
169.759445
 31
0.0
  0
ELLIPSE
  5
EC
330
DE
100
AcDbEntity
  8
0
  6
Continuous
 62
     0
370
     0
100
AcDbEllipse
 10
644.887176
 20
170.009445
 30
0.0
 11
0.3945305087574281
 21
-0.3071574151141478
 31
0.0
210
0.0
220
0.0
230
1.0
 40
0.079459
 41
0.5254310334274139
 42
2.096227360222278
  0
LINE
  5
ED
330
DE
100
AcDbEntity
  8
0
  6
Continuous
 62
     0
370
     0
100
AcDbLine
 10
566.928653
 20
58.352367
 30
0.0
 11
566.928653
 21
68.966822
 31
0.0
  0
LWPOLYLINE
  5
EE
330
DE
100
AcDbEntity
  8
0
  6
Continuous
 62
     0
370
     0
100
AcDbPolyline
 90
        5
 70
     0
 43
0.0
 10
567.458984
 20
58.421181
 10
567.285767
 20
58.251354
 10
567.111267
 20
58.172009
 10
566.981506
 20
58.203781
 10
566.92865
 20
58.352367
  0
LINE
  5
EF
330
DE
100
AcDbEntity
  8
0
  6
Continuous
 62
     0
370
     0
100
AcDbLine
 10
647.059264
 20
160.664323
 30
0.0
 11
567.458983
 21
58.421181
 31
0.0
  0
LWPOLYLINE
  5
F0
330
DE
100
AcDbEntity
  8
0
  6
Continuous
 62
     0
370
     0
100
AcDbPolyline
 90
        4
 70
     0
 43
0.0
 10
648.650269
 20
162.215622
 10
648.166809
 20
161.836823
 10
647.690674
 20
161.388947
 10
647.059265
 20
160.664322
  0
LINE
  5
F1
330
DE
100
AcDbEntity
  8
0
  6
Continuous
 62
     0
370
     0
100
AcDbLine
 10
658.286849
 20
169.029729
 30
0.0
 11
648.650255
 21
162.215627
 31
0.0
  0
LINE
  5
F2
330
DE
100
AcDbEntity
  8
0
  6
Continuous
 62
     0
370
     0
100
AcDbLine
 10
658.286849
 20
224.891163
 30
0.0
 11
658.286849
 21
169.029729
 31
0.0
  0
LINE
  5
F3
330
DE
100
AcDbEntity
  8
0
  6
Continuous
 62
     0
370
     0
100
AcDbLine
 10
648.245933
 20
217.791163
 30
0.0
 11
658.286849
 21
224.891163
 31
0.0
  0
LINE
  5
F4
330
DE
100
AcDbEntity
  8
0
  6
Continuous
 62
     0
370
     0
100
AcDbLine
 10
648.245933
 20
177.08961
 30
0.0
 11
648.245933
 21
217.791163
 31
0.0
  0
LWPOLYLINE
  5
F5
330
DE
100
AcDbEntity
  8
0
  6
Continuous
 62
     0
370
     0
100
AcDbPolyline
 90
        9
 70
     0
 43
0.0
 10
645.240723
 20
169.759445
 10
645.866333
 20
170.617203
 10
646.449158
 20
171.533066
 10
646.971191
 20
172.487122
 10
647.416321
 20
173.455994
 10
647.771851
 20
174.414673
 10
648.029602
 20
175.338669
 10
648.186707
 20
176.205933
 10
648.245911
 20
177.089615
  0
LINE
  5
F6
330
DE
100
AcDbEntity
  8
0
  6
Continuous
 62
     0
370
     0
100
AcDbLine
 10
566.221547
 20
68.966822
 30
0.0
 11
566.221547
 21
58.352367
 31
0.0
  0
ELLIPSE
  5
F7
330
DE
100
AcDbEntity
  8
0
  6
Continuous
 62
     0
370
     0
100
AcDbEllipse
 10
566.5751
 20
58.602367
 30
0.0
 11
-0.5
 21
-8.655628333024955E-18
 31
0.0
210
0.0
220
0.0
230
1.0
 40
0.707107
 41
0.78539816339745
 42
2.356194490192355
  0
LWPOLYLINE
  5
F8
330
DE
100
AcDbEntity
  8
0
  6
Continuous
 62
     0
370
     0
100
AcDbPolyline
 90
        3
 70
     0
 43
0.0
 10
461.569733
 20
132.352371
 10
461.497406
 20
132.41713
 10
461.423309
 20
132.602371
  0
LWPOLYLINE
  5
F9
330
DE
100
AcDbEntity
  8
0
  6
Continuous
 62
     0
370
     0
100
AcDbPolyline
 90
        3
 70
     0
 43
0.0
 10
461.699493
 20
132.035873
 10
461.616821
 20
132.131973
 10
461.569733
 20
132.352371
  0
LWPOLYLINE
  5
FA
330
DE
100
AcDbEntity
  8
0
  6
Continuous
 62
     0
370
     0
100
AcDbPolyline
 90
        3
 70
     0
 43
0.0
 10
566.221558
 20
58.352367
 10
566.238037
 20
58.212246
 10
566.351318
 20
58.03587
  0
LWPOLYLINE
  5
FB
330
DE
100
AcDbEntity
  8
0
  6
Continuous
 62
     0
370
     0
100
AcDbPolyline
 90
        3
 70
     0
 43
0.0
 10
567.433777
 20
58.390144
 10
567.499939
 20
58.363987
 10
567.458984
 20
58.421181
  0
LINE
  5
FC
330
DE
100
AcDbEntity
  8
0
  6
Continuous
 62
     0
370
     0
100
AcDbLine
 10
566.221547
 20
58.352367
 30
0.0
 11
461.569743
 21
132.352369
 31
0.0
  0
LINE
  5
FD
330
DE
100
AcDbEntity
  8
0
  6
Continuous
 62
     0
370
     0
100
AcDbLine
 10
461.569743
 20
132.352369
 30
0.0
 11
461.569743
 21
142.966824
 31
0.0
  0
LINE
  5
FE
330
DE
100
AcDbEntity
  8
0
  6
Continuous
 62
     0
370
    30
100
AcDbLine
 10
562.686013
 20
67.63243
 30
0.0
 11
562.686013
 21
66.218216
 31
0.0
  0
LINE
  5
FF
330
DE
100
AcDbEntity
  8
0
  6
Continuous
 62
     0
370
    30
100
AcDbLine
 10
562.686013
 20
66.218216
 30
0.0
 11
465.105277
 21
135.218219
 31
0.0
  0
LINE
  5
100
330
DE
100
AcDbEntity
  8
0
  6
Continuous
 62
     0
370
    30
100
AcDbLine
 10
465.105277
 20
135.218219
 30
0.0
 11
465.105277
 21
136.632432
 31
0.0
  0
LINE
  5
101
330
DE
100
AcDbEntity
  8
0
  6
Continuous
 62
     0
370
    30
100
AcDbLine
 10
465.105277
 20
136.632432
 30
0.0
 11
562.686013
 21
67.63243
 31
0.0
  0
ELLIPSE
  5
102
330
DE
100
AcDbEntity
  8
0
  6
Continuous
 62
     0
370
     0
100
AcDbEllipse
 10
658.074717
 20
225.041163
 30
0.0
 11
0.3
 21
5.193194860397852E-18
 31
0.0
210
0.0
220
0.0
230
-1.0
 40
0.707107
 41
0.0000000209016394
 42
0.785398163397481
  0
ELLIPSE
  5
103
330
DE
100
AcDbEntity
  8
0
  6
Continuous
 62
     0
370
     0
100
AcDbEllipse
 10
658.074717
 20
169.179729
 30
0.0
 11
-0.3
 21
-5.193194860397852E-18
 31
0.0
210
0.0
220
0.0
230
1.0
 40
0.707107
 41
2.356194490192319
 42
3.141592632688123
  0
LWPOLYLINE
  5
104
330
DE
100
AcDbEntity
  8
0
  6
Continuous
 62
     0
370
     0
100
AcDbPolyline
 90
        3
 70
     0
 43
0.0
 10
658.106506
 20
225.527527
 10
658.07312
 20
225.540985
 10
657.933289
 20
225.49472
  0
LWPOLYLINE
  5
105
330
DE
100
AcDbEntity
  8
0
  6
Continuous
 62
     0
370
     0
100
AcDbPolyline
 90
        4
 70
     0
 43
0.0
 10
657.933289
 20
225.49472
 10
658.093628
 20
225.34288
 10
658.226685
 20
225.131058
 10
658.286865
 20
224.891159
  0
LWPOLYLINE
  5
106
330
DE
100
AcDbEntity
  8
0
  6
Continuous
 62
     0
370
     0
100
AcDbPolyline
 90
        3
 70
     0
 43
0.0
 10
658.286865
 20
169.029724
 10
658.285828
 20
169.003769
 10
658.221985
 20
168.871475
  0
ELLIPSE
  5
107
330
DE
100
AcDbEntity
  8
0
  6
Continuous
 62
     0
370
     0
100
AcDbEllipse
 10
553.281492
 20
299.282587
 30
0.0
 11
0.1732050846354934
 21
0.2449489715357294
 31
0.0
210
0.0
220
0.0
230
0.9999999999999998
 40
0.5
 41
6.28318526681822
 42
7.238501956972732
  0
LINE
  5
108
330
DE
100
AcDbEntity
  8
0
  6
Continuous
 62
     0
370
     0
100
AcDbLine
 10
553.281492
 20
299.494719
 30
0.0
 11
657.933296
 21
225.494717
 31
0.0
  0
LWPOLYLINE
  5
109
330
DE
100
AcDbEntity
  8
0
  6
Continuous
 62
     0
370
     0
100
AcDbPolyline
 90
        3
 70
     0
 43
0.0
 10
552.992798
 20
299.549408
 10
553.104248
 20
299.572418
 10
553.281494
 20
299.49472
  0
ELLIPSE
  5
10A
330
DE
100
AcDbEntity
  8
0
  6
Continuous
 62
     0
370
     0
100
AcDbEllipse
 10
648.296701
 20
162.465627
 30
0.0
 11
-0.2886751410591558
 21
0.4082482858928824
 31
0.0
210
0.0
220
0.0
230
-1.0
 40
0.5
 41
2.526112976588096
 42
3.141592593522063
  0
ELLIPSE
  5
10B
330
DE
100
AcDbEntity
  8
0
  6
Continuous
 62
     0
370
     0
100
AcDbEllipse
 10
646.705711
 20
160.914323
 30
0.0
 11
0.3945305087574281
 21
-0.3071574151141479
 31
0.0
210
0.0
220
0.0
230
1.0
 40
0.079459
 41
0.0000000445216486
 42
0.5254310334273731
  0
LWPOLYLINE
  5
10C
330
DE
100
AcDbEntity
  8
0
  6
Continuous
 62
     0
370
     0
100
AcDbPolyline
 90
        3
 70
     0
 43
0.0
 10
542.740601
 20
292.041229
 10
542.757507
 20
291.949921
 10
542.887024
 20
291.791168
  0
LWPOLYLINE
  5
10D
330
DE
100
AcDbEntity
  8
0
  6
Continuous
 62
     0
370
     0
100
AcDbPolyline
 90
        4
 70
     0
 43
0.0
 10
542.887024
 20
291.791168
 10
542.931519
 20
291.994385
 10
543.040527
 20
292.191254
 10
543.240601
 20
292.394714
  0
LWPOLYLINE
  5
10E
330
DE
100
AcDbEntity
  8
0
  6
Continuous
 62
     0
370
     0
100
AcDbPolyline
 90
        3
 70
     0
 43
0.0
 10
543.240601
 20
292.394714
 10
543.104797
 20
292.463623
 10
542.951904
 20
292.449402
  0
LWPOLYLINE
  5
10F
330
DE
100
AcDbEntity
  8
0
  6
Continuous
 62
     0
370
     0
100
AcDbPolyline
 90
        4
 70
     0
 43
0.0
 10
648.245911
 20
217.791168
 10
648.207458
 20
217.978714
 10
648.089722
 20
218.194992
 10
647.892395
 20
218.394714
  0
LWPOLYLINE
  5
110
330
DE
100
AcDbEntity
  8
0
  6
Continuous
 62
     0
370
     0
100
AcDbPolyline
 90
        4
 70
     0
 43
0.0
 10
647.892395
 20
218.394714
 10
647.720642
 20
218.228775
 10
647.60083
 20
218.035034
 10
647.538818
 20
217.791168
  0
LWPOLYLINE
  5
111
330
DE
100
AcDbEntity
  8
0
  6
Continuous
 62
     0
370
     0
100
AcDbPolyline
 90
        4
 70
     0
 43
0.0
 10
647.538818
 20
217.791168
 10
647.736572
 20
217.705215
 10
647.986145
 20
217.693878
 10
648.245911
 20
217.791168
  0
ELLIPSE
  5
112
330
DE
100
AcDbEntity
  8
0
  6
Continuous
 62
     0
370
     0
100
AcDbEllipse
 10
647.89238
 20
177.33961
 30
0.0
 11
-0.5
 21
-3.641077228876333E-17
 31
0.0
210
0.0
220
0.0
230
1.0
 40
0.707107
 41
0.7853981633974483
 42
2.356194490192344
  0
LINE
  5
113
330
DE
100
AcDbEntity
  8
0
  6
Continuous
 62
     0
370
     0
100
AcDbLine
 10
647.538826
 20
217.791163
 30
0.0
 11
647.538826
 21
177.08961
 31
0.0
  0
LWPOLYLINE
  5
114
330
DE
100
AcDbEntity
  8
0
  6
Continuous
 62
     0
370
     0
100
AcDbPolyline
 90
        8
 70
     0
 43
0.0
 10
647.538818
 20
177.089615
 10
647.469604
 20
176.158356
 10
647.272278
 20
175.185226
 10
646.967407
 20
174.208054
 10
646.57312
 20
173.24559
 10
646.066772
 20
172.242432
 10
645.444153
 20
171.214081
 10
644.710388
 20
170.190628
  0
LINE
  5
115
330
DE
100
AcDbEntity
  8
0
  6
Continuous
 62
     0
370
     0
100
AcDbLine
 10
657.933296
 20
225.494717
 30
0.0
 11
647.89238
 21
218.394716
 31
0.0
  0
LINE
  5
116
330
DE
100
AcDbEntity
  8
0
  6
Continuous
 62
     0
370
     0
100
AcDbLine
 10
542.887023
 20
291.791165
 30
0.0
 11
647.538826
 21
217.791163
 31
0.0
  0
LINE
  5
117
330
DE
100
AcDbEntity
  8
0
  6
Continuous
 62
     0
370
     0
100
AcDbLine
 10
647.89238
 20
218.394716
 30
0.0
 11
543.240576
 21
292.394719
 31
0.0
  0
LINE
  5
118
330
DE
100
AcDbEntity
  8
0
  6
Continuous
 62
     0
370
     0
100
AcDbLine
 10
543.240576
 20
292.394719
 30
0.0
 11
553.281492
 21
299.494719
 31
0.0
  0
ELLIPSE
  5
119
330
DE
100
AcDbEntity
  8
0
  6
Continuous
 62
     0
370
     0
100
AcDbEllipse
 10
543.240576
 20
251.339613
 30
0.0
 11
-0.5
 21
-8.654741617044375E-18
 31
0.0
210
0.0
220
0.0
230
1.0
 40
0.707107
 41
6.283185286277927
 42
7.068583470577043
  0
LINE
  5
11A
330
DE
100
AcDbEntity
  8
0
  6
Continuous
 62
     0
370
     0
100
AcDbLine
 10
542.887023
 20
251.089613
 30
0.0
 11
542.887023
 21
291.791165
 31
0.0
  0
LWPOLYLINE
  5
11B
330
DE
100
AcDbEntity
  8
0
  6
Continuous
 62
     0
370
     0
100
AcDbPolyline
 90
        3
 70
     0
 43
0.0
 10
539.84082
 20
244.316605
 10
539.904846
 20
244.291718
 10
540.058594
 20
244.190628
  0
LWPOLYLINE
  5
11C
330
DE
100
AcDbEntity
  8
0
  6
Continuous
 62
     0
370
     0
100
AcDbPolyline
 90
        8
 70
     0
 43
0.0
 10
540.058594
 20
244.190628
 10
540.7771
 20
245.190933
 10
541.416382
 20
246.245087
 10
541.953064
 20
247.315628
 10
542.371094
 20
248.364471
 10
542.663513
 20
249.357239
 10
542.832397
 20
250.266708
 10
542.887024
 20
251.089615
  0
LINE
  5
11D
330
DE
100
AcDbEntity
  8
0
  6
Continuous
 62
     0
370
     0
100
AcDbLine
 10
542.887023
 20
251.089613
 30
0.0
 11
647.538826
 21
177.08961
 31
0.0
  0
LINE
  5
11E
330
DE
100
AcDbEntity
  8
0
  6
Continuous
 62
     0
370
    30
100
AcDbLine
 10
466.105277
 20
135.925325
 30
0.0
 11
465.105277
 21
135.218219
 31
0.0
  0
LWPOLYLINE
  5
11F
330
DE
100
AcDbEntity
  8
0
  6
Continuous
 62
     0
370
    30
100
AcDbPolyline
 90
        9
 70
     0
 43
0.0
 10
647.10022
 20
160.607162
 10
647.270081
 20
160.818176
 10
647.445251
 20
161.021835
 10
647.624939
 20
161.217148
 10
647.808289
 20
161.403275
 10
647.994446
 20
161.579315
 10
648.182434
 20
161.744583
 10
648.371399
 20
161.898438
 10
648.585388
 20
162.057373
  0
LINE
  5
120
330
DE
100
AcDbEntity
  8
0
  6
Continuous
 62
     0
370
    30
100
AcDbLine
 10
539.840842
 20
244.316605
 30
0.0
 11
461.705542
 21
143.955168
 31
0.0
  0
LWPOLYLINE
  5
121
330
DE
100
AcDbEntity
  8
0
  6
Continuous
 62
     0
370
    30
100
AcDbPolyline
 90
        9
 70
     0
 43
0.0
 10
539.84082
 20
244.316605
 10
540.467041
 20
245.177032
 10
541.034119
 20
246.072678
 10
541.532288
 20
246.9879
 10
541.95282
 20
247.906494
 10
542.288574
 20
248.811859
 10
542.533813
 20
249.68718
 10
542.684875
 20
250.515457
 10
542.740845
 20
251.327454
  0
LINE
  5
122
330
DE
100
AcDbEntity
  8
0
  6
Continuous
 62
     0
370
    30
100
AcDbLine
 10
542.740576
 20
292.041165
 30
0.0
 11
542.740576
 21
251.339613
 31
0.0
  0
LINE
  5
123
330
DE
100
AcDbEntity
  8
0
  6
Continuous
 62
     0
370
    30
100
AcDbLine
 10
552.992817
 20
299.549414
 30
0.0
 11
542.951901
 21
292.449414
 31
0.0
  0
ARC
  5
124
330
DE
100
AcDbEntity
  8
0
  6
Continuous
 62
     0
370
    30
100
AcDbCircle
 10
543.240427
 20
292.041243
 30
0.0
 40
0.499850658633347
100
AcDbArc
 50
125.255431
 51
180.008864
  0
LINE
  5
125
330
DE
100
AcDbEntity
  8
0
  6
Continuous
 62
     0
370
    30
100
AcDbLine
 10
647.100241
 20
160.607165
 30
0.0
 11
567.499961
 21
58.364023
 31
0.0
  0
LINE
  5
126
330
DE
100
AcDbEntity
  8
0
  6
Continuous
 62
     0
370
    30
100
AcDbLine
 10
658.221971
 20
168.871481
 30
0.0
 11
648.585376
 21
162.057379
 31
0.0
  0
LWPOLYLINE
  5
127
330
DE
100
AcDbEntity
  8
0
  6
Continuous
 62
     0
370
    30
100
AcDbPolyline
 90
        4
 70
     0
 43
0.0
 10
552.992798
 20
299.549408
 10
553.111389
 20
299.603638
 10
553.240479
 20
299.612183
 10
553.454712
 20
299.527527
  0
LINE
  5
128
330
DE
100
AcDbEntity
  8
0
  6
Continuous
 62
     0
370
    30
100
AcDbLine
 10
658.106501
 20
225.527533
 30
0.0
 11
553.454698
 21
299.527536
 31
0.0
  0
ARC
  5
129
330
DE
100
AcDbEntity
  8
0
  6
Continuous
 62
     0
370
    30
100
AcDbCircle
 10
658.004208
 20
169.171358
 30
0.0
 40
0.3706035827719748
100
AcDbArc
 50
305.986148
 51
1.294279
  0
LWPOLYLINE
  5
12A
330
DE
100
AcDbEntity
  8
0
  6
Continuous
 62
     0
370
    30
100
AcDbPolyline
 90
        4
 70
     0
 43
0.0
 10
658.106506
 20
225.527527
 10
658.216431
 20
225.427322
 10
658.30304
 20
225.302933
 10
658.374695
 20
225.041168
  0
LINE
  5
12B
330
DE
100
AcDbEntity
  8
0
  6
Continuous
 62
     0
370
    30
100
AcDbLine
 10
658.374717
 20
225.041163
 30
0.0
 11
658.374717
 21
169.179729
 31
0.0
  0
LINE
  5
12C
330
DE
100
AcDbEntity
  8
0
  6
Continuous
 62
     0
370
    30
100
AcDbLine
 10
461.423296
 20
143.216824
 30
0.0
 11
461.423296
 21
132.602369
 31
0.0
  0
LINE
  5
12D
330
DE
100
AcDbEntity
  8
0
  6
Continuous
 62
     0
370
    30
100
AcDbLine
 10
566.351303
 20
58.03587
 30
0.0
 11
461.699499
 21
132.035873
 31
0.0
  0
LWPOLYLINE
  5
12E
330
DE
100
AcDbEntity
  8
0
  6
Continuous
 62
     0
370
    30
100
AcDbPolyline
 90
        6
 70
     0
 43
0.0
 10
566.351318
 20
58.03587
 10
566.578674
 20
57.935318
 10
566.824158
 20
57.926563
 10
567.058411
 20
57.997345
 10
567.269897
 20
58.12999
 10
567.499939
 20
58.364021
  0
LWPOLYLINE
  5
12F
330
DE
100
AcDbEntity
  8
0
  6
Continuous
 62
     0
370
    30
100
AcDbPolyline
 90
        4
 70
     0
 43
0.0
 10
461.423309
 20
132.602371
 10
461.441162
 20
132.434143
 10
461.497223
 20
132.273254
 10
461.699493
 20
132.035873
  0
LWPOLYLINE
  5
130
330
DE
100
AcDbEntity
  8
0
  6
Continuous
 62
     0
370
    30
100
AcDbPolyline
 90
        4
 70
     0
 43
0.0
 10
461.705536
 20
143.95517
 10
461.587006
 20
143.778122
 10
461.496735
 20
143.588318
 10
461.423309
 20
143.216827
  0
ENDBLK
  5
132
330
DE
100
AcDbEntity
  8
0
100
AcDbBlockEnd
  0
BLOCK
  5
15E
330
134
100
AcDbEntity
  8
0
100
AcDbBlockBegin
  2
e
 70
     0
 10
163.763794
 20
0.0
 30
0.0
  3
e
  1

  0
LINE
  5
135
330
134
100
AcDbEntity
  8
0
  6
Continuous
 62
     0
370
     0
100
AcDbLine
 10
1.047623
 20
414.042364
 30
0.0
 11
0.797623
 21
414.475377
 31
0.0
  0
ARC
  5
136
330
134
100
AcDbEntity
  8
0
  6
Continuous
 62
     0
370
    30
100
AcDbCircle
 10
1.297623
 20
413.609351
 30
0.0
 40
1.000000000000774
100
AcDbArc
 50
120.0
 51
180.0
  0
LWPOLYLINE
  5
137
330
134
100
AcDbEntity
  8
0
  6
Continuous
 62
     0
370
     0
100
AcDbPolyline
 90
        4
 70
     0
 43
0.0
 10
0.297623
 20
413.609344
 10
0.357259
 20
413.609344
 10
0.537859
 20
413.609344
 10
0.797623
 20
413.609344
  0
ARC
  5
138
330
134
100
AcDbEntity
  8
0
  6
Continuous
 62
     0
370
     0
100
AcDbCircle
 10
1.297623
 20
413.609351
 30
0.0
 40
0.500000000001181
100
AcDbArc
 50
120.0
 51
180.0
  0
LINE
  5
139
330
134
100
AcDbEntity
  8
0
  6
Continuous
 62
     0
370
    30
100
AcDbLine
 10
0.797623
 20
414.475377
 30
0.0
 11
111.297623
 21
478.272582
 31
0.0
  0
LINE
  5
13A
330
134
100
AcDbEntity
  8
0
  6
Continuous
 62
     0
370
     0
100
AcDbLine
 10
1.047623
 20
414.042364
 30
0.0
 11
111.547623
 21
477.839569
 31
0.0
  0
LINE
  5
13B
330
134
100
AcDbEntity
  8
0
  6
Continuous
 62
     0
370
     0
100
AcDbLine
 10
111.547623
 20
477.839569
 30
0.0
 11
111.297623
 21
478.272582
 31
0.0
  0
LINE
  5
13C
330
134
100
AcDbEntity
  8
0
  6
Continuous
 62
     0
370
     0
100
AcDbLine
 10
0.797623
 20
398.598244
 30
0.0
 11
0.797623
 21
413.609351
 31
0.0
  0
ARC
  5
13D
330
134
100
AcDbEntity
  8
0
  6
Continuous
 62
     0
370
     0
100
AcDbCircle
 10
1.297623
 20
398.598244
 30
0.0
 40
0.4999999999999139
100
AcDbArc
 50
180.0
 51
300.0
  0
LINE
  5
13E
330
134
100
AcDbEntity
  8
0
  6
Continuous
 62
     0
370
     0
100
AcDbLine
 10
114.119419
 20
463.158589
 30
0.0
 11
1.547623
 21
398.165232
 31
0.0
  0
ARC
  5
13F
330
134
100
AcDbEntity
  8
0
  6
Continuous
 62
     0
370
     0
100
AcDbCircle
 10
116.369419
 20
459.261475
 30
0.0
 40
4.50000000000004
100
AcDbArc
 50
90.0
 51
120.0
  0
LINE
  5
140
330
134
100
AcDbEntity
  8
0
  6
Continuous
 62
     0
370
     0
100
AcDbLine
 10
129.997623
 20
463.761475
 30
0.0
 11
116.369419
 21
463.761475
 31
0.0
  0
LINE
  5
141
330
134
100
AcDbEntity
  8
0
  6
Continuous
 62
     0
370
     0
100
AcDbLine
 10
129.997623
 20
542.761475
 30
0.0
 11
129.997623
 21
463.761475
 31
0.0
  0
LINE
  5
142
330
134
100
AcDbEntity
  8
0
  6
Continuous
 62
     0
370
     0
100
AcDbLine
 10
115.797623
 20
542.761475
 30
0.0
 11
129.997623
 21
542.761475
 31
0.0
  0
LINE
  5
143
330
134
100
AcDbEntity
  8
0
  6
Continuous
 62
     0
370
     0
100
AcDbLine
 10
115.797623
 20
485.200785
 30
0.0
 11
115.797623
 21
542.761475
 31
0.0
  0
ARC
  5
144
330
134
100
AcDbEntity
  8
0
  6
Continuous
 62
     0
370
     0
100
AcDbCircle
 10
107.297623
 20
485.200785
 30
0.0
 40
8.499999999999996
100
AcDbArc
 50
300.0
 51
360.0
  0
LINE
  5
145
330
134
100
AcDbEntity
  8
0
  6
Continuous
 62
     0
370
    30
100
AcDbLine
 10
0.297623
 20
413.609351
 30
0.0
 11
0.297623
 21
398.598244
 31
0.0
  0
LINE
  5
146
330
134
100
AcDbEntity
  8
0
  6
Continuous
 62
     0
370
     0
100
AcDbLine
 10
0.297623
 20
398.598244
 30
0.0
 11
0.797623
 21
398.598244
 31
0.0
  0
ARC
  5
147
330
134
100
AcDbEntity
  8
0
  6
Continuous
 62
     0
370
    30
100
AcDbCircle
 10
1.297623
 20
398.598244
 30
0.0
 40
0.9999999999995202
100
AcDbArc
 50
180.0
 51
300.0
  0
LINE
  5
148
330
134
100
AcDbEntity
  8
0
  6
Continuous
 62
     0
370
     0
100
AcDbLine
 10
1.797623
 20
397.732219
 30
0.0
 11
1.547623
 21
398.165232
 31
0.0
  0
LINE
  5
149
330
134
100
AcDbEntity
  8
0
  6
Continuous
 62
     0
370
     0
100
AcDbLine
 10
130.297623
 20
542.761475
 30
0.0
 11
129.997623
 21
542.761475
 31
0.0
  0
LINE
  5
14A
330
134
100
AcDbEntity
  8
0
  6
Continuous
 62
     0
370
     0
100
AcDbLine
 10
129.997623
 20
463.761475
 30
0.0
 11
130.297623
 21
463.761475
 31
0.0
  0
LINE
  5
14B
330
134
100
AcDbEntity
  8
0
  6
Continuous
 62
     0
370
    30
100
AcDbLine
 10
130.297623
 20
463.761475
 30
0.0
 11
130.297623
 21
542.761475
 31
0.0
  0
ARC
  5
14C
330
134
100
AcDbEntity
  8
0
  6
Continuous
 62
     0
370
    30
100
AcDbCircle
 10
129.997623
 20
542.961475
 30
0.0
 40
0.3000000000005629
100
AcDbArc
 50
0.0
 51
90.0
  0
LINE
  5
14D
330
134
100
AcDbEntity
  8
0
  6
Continuous
 62
     0
370
     0
100
AcDbLine
 10
129.997623
 20
543.261475
 30
0.0
 11
129.997623
 21
542.761475
 31
0.0
  0
LINE
  5
14E
330
134
100
AcDbEntity
  8
0
  6
Continuous
 62
     0
370
    30
100
AcDbLine
 10
130.297623
 20
542.761475
 30
0.0
 11
130.297623
 21
542.961475
 31
0.0
  0
ARC
  5
14F
330
134
100
AcDbEntity
  8
0
  6
Continuous
 62
     0
370
    30
100
AcDbCircle
 10
129.997623
 20
463.561475
 30
0.0
 40
0.3000000000000216
100
AcDbArc
 50
270.0
 51
360.0
  0
LINE
  5
150
330
134
100
AcDbEntity
  8
0
  6
Continuous
 62
     0
370
    30
100
AcDbLine
 10
130.297623
 20
463.561475
 30
0.0
 11
130.297623
 21
463.761475
 31
0.0
  0
LINE
  5
151
330
134
100
AcDbEntity
  8
0
  6
Continuous
 62
     0
370
     0
100
AcDbLine
 10
129.997623
 20
463.761475
 30
0.0
 11
129.997623
 21
463.261475
 31
0.0
  0
LINE
  5
152
330
134
100
AcDbEntity
  8
0
  6
Continuous
 62
     0
370
    30
100
AcDbLine
 10
129.997623
 20
463.261475
 30
0.0
 11
116.369419
 21
463.261475
 31
0.0
  0
LINE
  5
153
330
134
100
AcDbEntity
  8
0
  6
Continuous
 62
     0
370
     0
100
AcDbLine
 10
116.369419
 20
463.761475
 30
0.0
 11
116.369419
 21
463.261475
 31
0.0
  0
LINE
  5
154
330
134
100
AcDbEntity
  8
0
  6
Continuous
 62
     0
370
    30
100
AcDbLine
 10
1.797623
 20
397.732219
 30
0.0
 11
114.369419
 21
462.725576
 31
0.0
  0
LINE
  5
155
330
134
100
AcDbEntity
  8
0
  6
Continuous
 62
     0
370
     0
100
AcDbLine
 10
114.369419
 20
462.725576
 30
0.0
 11
114.119419
 21
463.158589
 31
0.0
  0
LINE
  5
156
330
134
100
AcDbEntity
  8
0
  6
Continuous
 62
     0
370
     0
100
AcDbLine
 10
115.797623
 20
542.761475
 30
0.0
 11
115.797623
 21
543.261475
 31
0.0
  0
ARC
  5
157
330
134
100
AcDbEntity
  8
0
  6
Continuous
 62
     0
370
    30
100
AcDbCircle
 10
115.797623
 20
542.761475
 30
0.0
 40
0.5000000000010241
100
AcDbArc
 50
90.0
 51
180.0
  0
LWPOLYLINE
  5
158
330
134
100
AcDbEntity
  8
0
  6
Continuous
 62
     0
370
     0
100
AcDbPolyline
 90
        4
 70
     0
 43
0.0
 10
115.297623
 20
542.761475
 10
115.357262
 20
542.761475
 10
115.537857
 20
542.761475
 10
115.797623
 20
542.761475
  0
LINE
  5
159
330
134
100
AcDbEntity
  8
0
  6
Continuous
 62
     0
370
     0
100
AcDbLine
 10
115.297623
 20
485.200785
 30
0.0
 11
115.797623
 21
485.200785
 31
0.0
  0
LINE
  5
15A
330
134
100
AcDbEntity
  8
0
  6
Continuous
 62
     0
370
    30
100
AcDbLine
 10
115.297623
 20
542.761475
 30
0.0
 11
115.297623
 21
485.200785
 31
0.0
  0
ARC
  5
15B
330
134
100
AcDbEntity
  8
0
  6
Continuous
 62
     0
370
    30
100
AcDbCircle
 10
107.297623
 20
485.200785
 30
0.0
 40
8.000000000000021
100
AcDbArc
 50
300.0
 51
360.0
  0
LINE
  5
15C
330
134
100
AcDbEntity
  8
0
  6
Continuous
 62
     0
370
    30
100
AcDbLine
 10
129.997623
 20
543.261475
 30
0.0
 11
115.797623
 21
543.261475
 31
0.0
  0
ARC
  5
15D
330
134
100
AcDbEntity
  8
0
  6
Continuous
 62
     0
370
    30
100
AcDbCircle
 10
116.369419
 20
459.261475
 30
0.0
 40
3.999999999999996
100
AcDbArc
 50
90.0
 51
120.0
  0
ENDBLK
  5
15F
330
134
100
AcDbEntity
  8
0
100
AcDbBlockEnd
  0
ENDSEC
  0
SECTION
  2
ENTITIES
  0
INSERT
  5
81
330
1F
100
AcDbEntity
  8
0
  6
Continuous
 62
   250
370
     0
100
AcDbBlockReference
  2
a
 10
204.673248
 20
105.241631
 30
0.0
  0
INSERT
  5
B0
330
1F
100
AcDbEntity
  8
0
  6
Continuous
 62
   250
370
     0
100
AcDbBlockReference
  2
b
 10
214.553257
 20
105.241631
 30
0.0
  0
INSERT
  5
DD
330
1F
100
AcDbEntity
  8
0
  6
Continuous
 62
   250
370
     0
100
AcDbBlockReference
  2
c
 10
265.101776
 20
96.494896
 30
0.0
  0
INSERT
  5
133
330
1F
100
AcDbEntity
  8
0
  6
Continuous
 62
   250
370
     0
100
AcDbBlockReference
  2
d
 10
256.681427
 20
45.278469
 30
0.0
  0
INSERT
  5
160
330
1F
100
AcDbEntity
  8
0
  6
Continuous
 62
   250
370
     0
100
AcDbBlockReference
  2
e
 10
163.763794
 20
0.0
 30
0.0
  0
ENDSEC
  0
SECTION
  2
OBJECTS
  0
DICTIONARY
  5
C
330
0
100
AcDbDictionary
281
     1
  3
ACAD_GROUP
350
D
  3
ACAD_LAYOUT
350
1A
  3
ACAD_MLEADERSTYLE
350
163
  3
ACAD_MLINESTYLE
350
17
  3
ACAD_PLOTSETTINGS
350
19
  3
ACAD_PLOTSTYLENAME
350
E
  3
ACAD_VISUALSTYLE
350
2A
  3
AcDbVariableDictionary
350
161
  0
DICTIONARY
  5
D
102
{ACAD_REACTORS
330
C
102
}
330
C
100
AcDbDictionary
281
     1
  0
DICTIONARY
  5
1A
102
{ACAD_REACTORS
330
C
102
}
330
C
100
AcDbDictionary
281
     1
  3
Layout1
350
1E
  3
Layout2
350
26
  3
Model
350
22
  0
DICTIONARY
  5
163
102
{ACAD_REACTORS
330
C
102
}
330
C
100
AcDbDictionary
281
     1
  0
DICTIONARY
  5
17
102
{ACAD_REACTORS
330
C
102
}
330
C
100
AcDbDictionary
281
     1
  3
Standard
350
18
  0
DICTIONARY
  5
19
102
{ACAD_REACTORS
330
C
102
}
330
C
100
AcDbDictionary
281
     1
  0
ACDBDICTIONARYWDFLT
  5
E
102
{ACAD_REACTORS
330
C
102
}
330
C
100
AcDbDictionary
281
     1
  3
Normal
350
F
100
AcDbDictionaryWithDefault
340
F
  0
DICTIONARY
  5
2A
102
{ACAD_REACTORS
330
C
102
}
330
C
100
AcDbDictionary
281
     1
  3
2dWireframe
350
2F
  3
3D Hidden
350
31
  3
3dWireframe
350
30
  3
Basic
350
32
  3
Brighten
350
36
  3
ColorChange
350
3A
  3
Conceptual
350
34
  3
Dim
350
35
  3
Facepattern
350
39
  3
Flat
350
2B
  3
FlatWithEdges
350
2C
  3
Gouraud
350
2D
  3
GouraudWithEdges
350
2E
  3
Linepattern
350
38
  3
Realistic
350
33
  3
Thicken
350
37
  0
DICTIONARY
  5
161
102
{ACAD_REACTORS
330
C
102
}
330
C
100
AcDbDictionary
281
     1
  3
PSOLHEIGHT
350
165
  3
PSOLWIDTH
350
164
  0
LAYOUT
  5
1E
102
{ACAD_REACTORS
330
1A
102
}
330
1A
100
AcDbPlotSettings
  1

  2
none_device
  4

  6

 40
0.0
 41
0.0
 42
0.0
 43
0.0
 44
0.0
 45
0.0
 46
0.0
 47
0.0
 48
0.0
 49
0.0
140
0.0
141
0.0
142
1.0
143
1.0
 70
   688
 72
     0
 73
     0
 74
     5
  7

 75
    16
147
1.0
148
0.0
149
0.0
100
AcDbLayout
  1
Layout1
 70
     1
 71
     1
 10
0.0
 20
0.0
 11
420.0
 21
297.0
 12
0.0
 22
0.0
 32
0.0
 14
1.000000E+20
 24
1.000000E+20
 34
1.000000E+20
 15
-1.000000E+20
 25
-1.000000E+20
 35
-1.000000E+20
146
0.0
 13
0.0
 23
0.0
 33
0.0
 16
1.0
 26
0.0
 36
0.0
 17
0.0
 27
1.0
 37
0.0
 76
     0
330
1B
  0
LAYOUT
  5
26
102
{ACAD_REACTORS
330
1A
102
}
330
1A
100
AcDbPlotSettings
  1

  2
none_device
  4

  6

 40
0.0
 41
0.0
 42
0.0
 43
0.0
 44
0.0
 45
0.0
 46
0.0
 47
0.0
 48
0.0
 49
0.0
140
0.0
141
0.0
142
1.0
143
1.0
 70
   688
 72
     0
 73
     0
 74
     5
  7

 75
    16
147
1.0
148
0.0
149
0.0
100
AcDbLayout
  1
Layout2
 70
     1
 71
     2
 10
0.0
 20
0.0
 11
0.0
 21
0.0
 12
0.0
 22
0.0
 32
0.0
 14
0.0
 24
0.0
 34
0.0
 15
0.0
 25
0.0
 35
0.0
146
0.0
 13
0.0
 23
0.0
 33
0.0
 16
1.0
 26
0.0
 36
0.0
 17
0.0
 27
1.0
 37
0.0
 76
     0
330
23
  0
LAYOUT
  5
22
102
{ACAD_REACTORS
330
1A
102
}
330
1A
100
AcDbPlotSettings
  1

  2
none_device
  4

  6

 40
0.0
 41
0.0
 42
0.0
 43
0.0
 44
0.0
 45
0.0
 46
0.0
 47
0.0
 48
0.0
 49
0.0
140
0.0
141
0.0
142
1.0
143
1.0
 70
  1712
 72
     0
 73
     0
 74
     0
  7

 75
     0
147
1.0
148
0.0
149
0.0
100
AcDbLayout
  1
Model
 70
     1
 71
     0
 10
0.297623
 20
45.501911
 11
658.374695
 21
543.261475
 12
0.0
 22
0.0
 32
0.0
 14
0.297623
 24
45.501911
 34
0.0
 15
658.374695
 25
543.261475
 35
0.0
146
0.0
 13
0.0
 23
0.0
 33
0.0
 16
1.0
 26
0.0
 36
0.0
 17
0.0
 27
1.0
 37
0.0
 76
     0
330
1F
331
29
  0
MLINESTYLE
  5
18
102
{ACAD_REACTORS
330
17
102
}
330
17
100
AcDbMlineStyle
  2
Standard
 70
     0
  3

 62
   256
 51
90.0
 52
90.0
 71
     2
 49
0.5
 62
   256
  6
BYLAYER
 49
-0.5
 62
   256
  6
BYLAYER
  0
ACDBPLACEHOLDER
  5
F
102
{ACAD_REACTORS
330
E
102
}
330
E
  0
VISUALSTYLE
  5
2F
102
{ACAD_REACTORS
330
2A
102
}
330
2A
100
AcDbVisualStyle
  2
2dWireframe
 70
     4
 71
     0
 72
     2
 73
     0
 90
        0
 40
-0.6
 41
-30.0
 62
     5
 63
     7
 74
     1
 91
        4
 64
     7
 65
   257
 75
     1
175
     1
 42
1.0
 92
        0
 66
   257
 43
1.0
 76
     1
 77
     6
 78
     2
 67
     7
 79
     5
170
     0
171
     0
290
     0
174
     0
 93
        1
 44
0.0
173
     0
291
     0
 45
0.0
1001
ACAD
1000
AcDbSavedByObjectVersion
1070
     0
  0
VISUALSTYLE
  5
31
102
{ACAD_REACTORS
330
2A
102
}
330
2A
100
AcDbVisualStyle
  2
3D Hidden
 70
     6
 71
     1
 72
     2
 73
     2
 90
        0
 40
-0.6
 41
-30.0
 62
     5
 63
     7
 74
     2
 91
        2
 64
     7
 65
   257
 75
     2
175
     1
 42
40.0
 92
        0
 66
   257
 43
1.0
 76
     1
 77
     6
 78
     2
 67
     7
 79
     3
170
     0
171
     0
290
     0
174
     0
 93
        1
 44
0.0
173
     0
291
     0
 45
0.0
1001
ACAD
1000
AcDbSavedByObjectVersion
1070
     0
  0
VISUALSTYLE
  5
30
102
{ACAD_REACTORS
330
2A
102
}
330
2A
100
AcDbVisualStyle
  2
3dWireframe
 70
     5
 71
     0
 72
     2
 73
     0
 90
        0
 40
-0.6
 41
-30.0
 62
     5
 63
     7
 74
     1
 91
        4
 64
     7
 65
   257
 75
     1
175
     1
 42
1.0
 92
        0
 66
   257
 43
1.0
 76
     1
 77
     6
 78
     2
 67
     7
 79
     5
170
     0
171
     0
290
     0
174
     0
 93
        1
 44
0.0
173
     0
291
     0
 45
0.0
1001
ACAD
1000
AcDbSavedByObjectVersion
1070
     0
  0
VISUALSTYLE
  5
32
102
{ACAD_REACTORS
330
2A
102
}
330
2A
100
AcDbVisualStyle
  2
Basic
 70
     7
 71
     1
 72
     0
 73
     1
 90
        0
 40
-0.6
 41
-30.0
 62
     5
 63
     7
 74
     0
 91
        4
 64
     7
 65
   257
 75
     1
175
     1
 42
1.0
 92
        8
 66
     7
 43
1.0
 76
     1
 77
     6
 78
     2
 67
     7
 79
     5
170
     0
171
     0
290
     0
174
     0
 93
        1
 44
0.0
173
     0
291
     1
 45
0.0
1001
ACAD
1000
AcDbSavedByObjectVersion
1070
     0
  0
VISUALSTYLE
  5
36
102
{ACAD_REACTORS
330
2A
102
}
330
2A
100
AcDbVisualStyle
  2
Brighten
 70
    12
 71
     2
 72
     2
 73
     0
 90
        0
 40
-0.6
 41
-30.0
 62
     5
 63
     7
 74
     1
 91
        4
 64
     7
 65
   257
 75
     1
175
     1
 42
1.0
 92
        8
 66
     7
 43
1.0
 76
     1
 77
     6
 78
     2
 67
     7
 79
     5
170
     0
171
     0
290
     0
174
     0
 93
        1
 44
50.0
173
     0
291
     1
 45
0.0
1001
ACAD
1000
AcDbSavedByObjectVersion
1070
     0
  0
VISUALSTYLE
  5
3A
102
{ACAD_REACTORS
330
2A
102
}
330
2A
100
AcDbVisualStyle
  2
ColorChange
 70
    16
 71
     2
 72
     2
 73
     3
 90
        0
 40
-0.6
 41
-30.0
 62
     5
 63
     8
 74
     1
 91
        4
 64
     7
 65
   257
 75
     1
175
     1
 42
1.0
 92
        8
 66
     8
 43
1.0
 76
     1
 77
     6
 78
     2
 67
     7
 79
     5
170
     0
171
     0
290
     0
174
     0
 93
        1
 44
0.0
173
     0
291
     1
 45
0.0
1001
ACAD
1000
AcDbSavedByObjectVersion
1070
     0
  0
VISUALSTYLE
  5
34
102
{ACAD_REACTORS
330
2A
102
}
330
2A
100
AcDbVisualStyle
  2
Conceptual
 70
     9
 71
     3
 72
     2
 73
     0
 90
        0
 40
-0.6
 41
-30.0
 62
     5
 63
     7
 74
     2
 91
        2
 64
     7
 65
   257
 75
     1
175
     1
 42
40.0
 92
        8
 66
     7
 43
1.0
 76
     1
 77
     6
 78
     2
 67
     7
 79
     3
170
     0
171
     0
290
     0
174
     0
 93
        1
 44
0.0
173
     0
291
     0
 45
0.0
1001
ACAD
1000
AcDbSavedByObjectVersion
1070
     0
  0
VISUALSTYLE
  5
35
102
{ACAD_REACTORS
330
2A
102
}
330
2A
100
AcDbVisualStyle
  2
Dim
 70
    11
 71
     2
 72
     2
 73
     0
 90
        0
 40
-0.6
 41
-30.0
 62
     5
 63
     7
 74
     1
 91
        4
 64
     7
 65
   257
 75
     1
175
     1
 42
1.0
 92
        8
 66
     7
 43
1.0
 76
     1
 77
     6
 78
     2
 67
     7
 79
     5
170
     0
171
     0
290
     0
174
     0
 93
        1
 44
-50.0
173
     0
291
     1
 45
0.0
1001
ACAD
1000
AcDbSavedByObjectVersion
1070
     0
  0
VISUALSTYLE
  5
39
102
{ACAD_REACTORS
330
2A
102
}
330
2A
100
AcDbVisualStyle
  2
Facepattern
 70
    15
 71
     2
 72
     2
 73
     0
 90
        0
 40
-0.6
 41
-30.0
 62
     5
 63
     7
 74
     1
 91
        4
 64
     7
 65
   257
 75
     1
175
     1
 42
1.0
 92
        8
 66
     7
 43
1.0
 76
     1
 77
     6
 78
     2
 67
     7
 79
     5
170
     0
171
     0
290
     0
174
     0
 93
        1
 44
0.0
173
     0
291
     1
 45
0.0
1001
ACAD
1000
AcDbSavedByObjectVersion
1070
     0
  0
VISUALSTYLE
  5
2B
102
{ACAD_REACTORS
330
2A
102
}
330
2A
100
AcDbVisualStyle
  2
Flat
 70
     0
 71
     2
 72
     1
 73
     1
 90
        2
 40
-0.6
 41
30.0
 62
     5
 63
     7
 74
     0
 91
        4
 64
     7
 65
   257
 75
     1
175
     1
 42
1.0
 92
        8
 66
     7
 43
1.0
 76
     1
 77
     6
 78
     2
 67
     7
 79
     5
170
     0
171
     0
290
     0
174
     0
 93
       13
 44
0.0
173
     0
291
     1
 45
0.0
1001
ACAD
1000
AcDbSavedByObjectVersion
1070
     0
  0
VISUALSTYLE
  5
2C
102
{ACAD_REACTORS
330
2A
102
}
330
2A
100
AcDbVisualStyle
  2
FlatWithEdges
 70
     1
 71
     2
 72
     1
 73
     1
 90
        2
 40
-0.6
 41
30.0
 62
     5
 63
     7
 74
     1
 91
        4
 64
     7
 65
   257
 75
     1
175
     1
 42
1.0
 92
        0
 66
   257
 43
1.0
 76
     1
 77
     6
 78
     2
 67
     7
 79
     5
170
     0
171
     0
290
     0
174
     0
 93
       13
 44
0.0
173
     0
291
     1
 45
0.0
1001
ACAD
1000
AcDbSavedByObjectVersion
1070
     0
  0
VISUALSTYLE
  5
2D
102
{ACAD_REACTORS
330
2A
102
}
330
2A
100
AcDbVisualStyle
  2
Gouraud
 70
     2
 71
     2
 72
     2
 73
     1
 90
        2
 40
-0.6
 41
30.0
 62
     5
 63
     7
 74
     0
 91
        4
 64
     7
 65
   257
 75
     1
175
     1
 42
1.0
 92
        0
 66
     7
 43
1.0
 76
     1
 77
     6
 78
     2
 67
     7
 79
     5
170
     0
171
     0
290
     0
174
     0
 93
       13
 44
0.0
173
     0
291
     1
 45
0.0
1001
ACAD
1000
AcDbSavedByObjectVersion
1070
     0
  0
VISUALSTYLE
  5
2E
102
{ACAD_REACTORS
330
2A
102
}
330
2A
100
AcDbVisualStyle
  2
GouraudWithEdges
 70
     3
 71
     2
 72
     2
 73
     1
 90
        2
 40
-0.6
 41
30.0
 62
     5
 63
     7
 74
     1
 91
        4
 64
     7
 65
   257
 75
     1
175
     1
 42
1.0
 92
        0
 66
   257
 43
1.0
 76
     1
 77
     6
 78
     2
 67
     7
 79
     5
170
     0
171
     0
290
     0
174
     0
 93
       13
 44
0.0
173
     0
291
     1
 45
0.0
1001
ACAD
1000
AcDbSavedByObjectVersion
1070
     0
  0
VISUALSTYLE
  5
38
102
{ACAD_REACTORS
330
2A
102
}
330
2A
100
AcDbVisualStyle
  2
Linepattern
 70
    14
 71
     2
 72
     2
 73
     0
 90
        0
 40
-0.6
 41
-30.0
 62
     5
 63
     7
 74
     1
 91
        4
 64
     7
 65
   257
 75
     7
175
     7
 42
1.0
 92
        8
 66
     7
 43
1.0
 76
     1
 77
     6
 78
     2
 67
     7
 79
     5
170
     0
171
     0
290
     0
174
     0
 93
        1
 44
0.0
173
     0
291
     1
 45
0.0
1001
ACAD
1000
AcDbSavedByObjectVersion
1070
     0
  0
VISUALSTYLE
  5
33
102
{ACAD_REACTORS
330
2A
102
}
330
2A
100
AcDbVisualStyle
  2
Realistic
 70
     8
 71
     2
 72
     2
 73
     0
 90
        0
 40
-0.6
 41
-30.0
 62
     5
 63
     7
 74
     1
 91
        0
 64
     7
 65
   257
 75
     1
175
     1
 42
1.0
 92
        8
 66
     8
 43
1.0
 76
     1
 77
     6
 78
     2
 67
     7
 79
     5
170
     0
171
     0
290
     0
174
     0
 93
       13
 44
0.0
173
     0
291
     0
 45
0.0
1001
ACAD
1000
AcDbSavedByObjectVersion
1070
     0
  0
VISUALSTYLE
  5
37
102
{ACAD_REACTORS
330
2A
102
}
330
2A
100
AcDbVisualStyle
  2
Thicken
 70
    13
 71
     2
 72
     2
 73
     0
 90
        0
 40
-0.6
 41
-30.0
 62
     5
 63
     7
 74
     1
 91
        4
 64
     7
 65
   257
 75
     1
175
     1
 42
1.0
 92
       12
 66
     7
 43
1.0
 76
     1
 77
     6
 78
     2
 67
     7
 79
     5
170
     0
171
     0
290
     0
174
     0
 93
        1
 44
0.0
173
     0
291
     1
 45
0.0
1001
ACAD
1000
AcDbSavedByObjectVersion
1070
     0
  0
DICTIONARYVAR
  5
165
102
{ACAD_REACTORS
330
161
102
}
330
161
100
DictionaryVariables
280
     0
  1
80.000000
  0
DICTIONARYVAR
  5
164
102
{ACAD_REACTORS
330
161
102
}
330
161
100
DictionaryVariables
280
     0
  1
5.000000
  0
ENDSEC
  0
EOF
