  0
SECTION
  2
HEADER
  9
$ACADVER
  1
AC1024
  9
$ACADMAINTVER
 70
     6
  9
$DWGCODEPAGE
  3
ANSI_1252
  9
$INSBASE
 10
0.0
 20
0.0
 30
0.0
  9
$EXTMIN
 10
1.000000E+20
 20
1.000000E+20
 30
1.000000E+20
  9
$EXTMAX
 10
-1.000000E+20
 20
-1.000000E+20
 30
-1.000000E+20
  9
$LIMMIN
 10
0.0
 20
0.0
  9
$LIMMAX
 10
420.0
 20
297.0
  9
$ORTHOMODE
 70
     0
  9
$REGENMODE
 70
     1
  9
$FILLMODE
 70
     1
  9
$QTEXTMODE
 70
     0
  9
$MIRRTEXT
 70
     1
  9
$LTSCALE
 40
1.0
  9
$ATTMODE
 70
     1
  9
$TEXTSIZE
 40
2.5
  9
$TRACEWID
 40
1.0
  9
$TEXTSTYLE
  7
Standard
  9
$CLAYER
  8
0
  9
$CELTYPE
  6
ByLayer
  9
$CECOLOR
 62
   256
  9
$CELTSCALE
 40
1.0
  9
$DISPSILH
 70
     0
  9
$DIMSCALE
 40
1.0
  9
$DIMASZ
 40
2.5
  9
$DIMEXO
 40
0.625
  9
$DIMDLI
 40
3.75
  9
$DIMRND
 40
0.0
  9
$DIMDLE
 40
0.0
  9
$DIMEXE
 40
1.25
  9
$DIMTP
 40
0.0
  9
$DIMTM
 40
0.0
  9
$DIMTXT
 40
2.5
  9
$DIMCEN
 40
2.5
  9
$DIMTSZ
 40
0.0
  9
$DIMTOL
 70
     0
  9
$DIMLIM
 70
     0
  9
$DIMTIH
 70
     0
  9
$DIMTOH
 70
     0
  9
$DIMSE1
 70
     0
  9
$DIMSE2
 70
     0
  9
$DIMTAD
 70
     1
  9
$DIMZIN
 70
     8
  9
$DIMBLK
  1

  9
$DIMASO
 70
     1
  9
$DIMSHO
 70
     1
  9
$DIMPOST
  1

  9
$DIMAPOST
  1

  9
$DIMALT
 70
     0
  9
$DIMALTD
 70
     3
  9
$DIMALTF
 40
0.03937
  9
$DIMLFAC
 40
1.0
  9
$DIMTOFL
 70
     1
  9
$DIMTVP
 40
0.0
  9
$DIMTIX
 70
     0
  9
$DIMSOXD
 70
     0
  9
$DIMSAH
 70
     0
  9
$DIMBLK1
  1

  9
$DIMBLK2
  1

  9
$DIMSTYLE
  2
ISO-25
  9
$DIMCLRD
 70
     0
  9
$DIMCLRE
 70
     0
  9
$DIMCLRT
 70
     0
  9
$DIMTFAC
 40
1.0
  9
$DIMGAP
 40
0.625
  9
$DIMJUST
 70
     0
  9
$DIMSD1
 70
     0
  9
$DIMSD2
 70
     0
  9
$DIMTOLJ
 70
     0
  9
$DIMTZIN
 70
     8
  9
$DIMALTZ
 70
     0
  9
$DIMALTTZ
 70
     0
  9
$DIMUPT
 70
     0
  9
$DIMDEC
 70
     2
  9
$DIMTDEC
 70
     2
  9
$DIMALTU
 70
     2
  9
$DIMALTTD
 70
     3
  9
$DIMTXSTY
  7
Standard
  9
$DIMAUNIT
 70
     0
  9
$DIMADEC
 70
     0
  9
$DIMALTRND
 40
0.0
  9
$DIMAZIN
 70
     0
  9
$DIMDSEP
 70
    44
  9
$DIMATFIT
 70
     3
  9
$DIMFRAC
 70
     0
  9
$DIMLDRBLK
  1

  9
$DIMLUNIT
 70
     2
  9
$DIMLWD
 70
    -2
  9
$DIMLWE
 70
    -2
  9
$DIMTMOVE
 70
     0
  9
$DIMFXL
 40
1.0
  9
$DIMFXLON
 70
     0
  9
$DIMJOGANG
 40
0.785398
  9
$DIMTFILL
 70
     0
  9
$DIMTFILLCLR
 70
     0
  9
$DIMARCSYM
 70
     0
  9
$DIMLTYPE
  6

  9
$DIMLTEX1
  6

  9
$DIMLTEX2
  6

  9
$DIMTXTDIRECTION
 70
     0
  9
$LUNITS
 70
     2
  9
$LUPREC
 70
     4
  9
$SKETCHINC
 40
1.0
  9
$FILLETRAD
 40
10.0
  9
$AUNITS
 70
     0
  9
$AUPREC
 70
     0
  9
$MENU
  1
.
  9
$ELEVATION
 40
0.0
  9
$PELEVATION
 40
0.0
  9
$THICKNESS
 40
0.0
  9
$LIMCHECK
 70
     0
  9
$CHAMFERA
 40
0.0
  9
$CHAMFERB
 40
0.0
  9
$CHAMFERC
 40
0.0
  9
$CHAMFERD
 40
0.0
  9
$SKPOLY
 70
     0
  9
$TDCREATE
 40
2457809.474895046
  9
$TDUCREATE
 40
2457809.43322838
  9
$TDUPDATE
 40
2457809.474895764
  9
$TDUUPDATE
 40
2457809.433229097
  9
$TDINDWG
 40
0.0000000116
  9
$TDUSRTIMER
 40
0.0000000116
  9
$USRTIMER
 70
     1
  9
$ANGBASE
 50
0.0
  9
$ANGDIR
 70
     0
  9
$PDMODE
 70
     0
  9
$PDSIZE
 40
0.0
  9
$PLINEWID
 40
0.0
  9
$SPLFRAME
 70
     0
  9
$SPLINETYPE
 70
     6
  9
$SPLINESEGS
 70
     8
  9
$HANDSEED
  5
3EE
  9
$SURFTAB1
 70
     6
  9
$SURFTAB2
 70
     6
  9
$SURFTYPE
 70
     6
  9
$SURFU
 70
     6
  9
$SURFV
 70
     6
  9
$UCSBASE
  2

  9
$UCSNAME
  2

  9
$UCSORG
 10
0.0
 20
0.0
 30
0.0
  9
$UCSXDIR
 10
1.0
 20
0.0
 30
0.0
  9
$UCSYDIR
 10
0.0
 20
1.0
 30
0.0
  9
$UCSORTHOREF
  2

  9
$UCSORTHOVIEW
 70
     0
  9
$UCSORGTOP
 10
0.0
 20
0.0
 30
0.0
  9
$UCSORGBOTTOM
 10
0.0
 20
0.0
 30
0.0
  9
$UCSORGLEFT
 10
0.0
 20
0.0
 30
0.0
  9
$UCSORGRIGHT
 10
0.0
 20
0.0
 30
0.0
  9
$UCSORGFRONT
 10
0.0
 20
0.0
 30
0.0
  9
$UCSORGBACK
 10
0.0
 20
0.0
 30
0.0
  9
$PUCSBASE
  2

  9
$PUCSNAME
  2

  9
$PUCSORG
 10
0.0
 20
0.0
 30
0.0
  9
$PUCSXDIR
 10
1.0
 20
0.0
 30
0.0
  9
$PUCSYDIR
 10
0.0
 20
1.0
 30
0.0
  9
$PUCSORTHOREF
  2

  9
$PUCSORTHOVIEW
 70
     0
  9
$PUCSORGTOP
 10
0.0
 20
0.0
 30
0.0
  9
$PUCSORGBOTTOM
 10
0.0
 20
0.0
 30
0.0
  9
$PUCSORGLEFT
 10
0.0
 20
0.0
 30
0.0
  9
$PUCSORGRIGHT
 10
0.0
 20
0.0
 30
0.0
  9
$PUCSORGFRONT
 10
0.0
 20
0.0
 30
0.0
  9
$PUCSORGBACK
 10
0.0
 20
0.0
 30
0.0
  9
$USERI1
 70
     0
  9
$USERI2
 70
     0
  9
$USERI3
 70
     0
  9
$USERI4
 70
     0
  9
$USERI5
 70
     0
  9
$USERR1
 40
0.0
  9
$USERR2
 40
0.0
  9
$USERR3
 40
0.0
  9
$USERR4
 40
0.0
  9
$USERR5
 40
0.0
  9
$WORLDVIEW
 70
     1
  9
$SHADEDGE
 70
     3
  9
$SHADEDIF
 70
    70
  9
$TILEMODE
 70
     1
  9
$MAXACTVP
 70
    64
  9
$PINSBASE
 10
0.0
 20
0.0
 30
0.0
  9
$PLIMCHECK
 70
     0
  9
$PEXTMIN
 10
1.000000E+20
 20
1.000000E+20
 30
1.000000E+20
  9
$PEXTMAX
 10
-1.000000E+20
 20
-1.000000E+20
 30
-1.000000E+20
  9
$PLIMMIN
 10
0.0
 20
0.0
  9
$PLIMMAX
 10
420.0
 20
297.0
  9
$UNITMODE
 70
     0
  9
$VISRETAIN
 70
     1
  9
$PLINEGEN
 70
     0
  9
$PSLTSCALE
 70
     1
  9
$TREEDEPTH
 70
  3020
  9
$CMLSTYLE
  2
Standard
  9
$CMLJUST
 70
     0
  9
$CMLSCALE
 40
20.0
  9
$PROXYGRAPHICS
 70
     1
  9
$MEASUREMENT
 70
     1
  9
$CELWEIGHT
370
    -1
  9
$ENDCAPS
280
     0
  9
$JOINSTYLE
280
     0
  9
$LWDISPLAY
290
     0
  9
$INSUNITS
 70
     4
  9
$HYPERLINKBASE
  1

  9
$STYLESHEET
  1

  9
$XEDIT
290
     1
  9
$CEPSNTYPE
380
     0
  9
$PSTYLEMODE
290
     1
  9
$FINGERPRINTGUID
  2
{ACA87229-84A0-4A66-BA1B-BA40B37A5977}
  9
$VERSIONGUID
  2
{FAEB1C32-E019-11D5-929B-00C0DF256EC4}
  9
$EXTNAMES
290
     1
  9
$PSVPSCALE
 40
0.0
  9
$OLESTARTUP
290
     0
  9
$SORTENTS
280
   127
  9
$INDEXCTL
280
     0
  9
$HIDETEXT
280
     1
  9
$XCLIPFRAME
280
     2
  9
$HALOGAP
280
     0
  9
$OBSCOLOR
 70
   257
  9
$OBSLTYPE
280
     0
  9
$INTERSECTIONDISPLAY
280
     0
  9
$INTERSECTIONCOLOR
 70
   257
  9
$DIMASSOC
280
     2
  9
$PROJECTNAME
  1

  9
$CAMERADISPLAY
290
     0
  9
$LENSLENGTH
 40
50.0
  9
$CAMERAHEIGHT
 40
0.0
  9
$STEPSPERSEC
 40
2.0
  9
$STEPSIZE
 40
6.0
  9
$3DDWFPREC
 40
2.0
  9
$PSOLWIDTH
 40
5.0
  9
$PSOLHEIGHT
 40
80.0
  9
$LOFTANG1
 40
1.570796
  9
$LOFTANG2
 40
1.570796
  9
$LOFTMAG1
 40
0.0
  9
$LOFTMAG2
 40
0.0
  9
$LOFTPARAM
 70
     7
  9
$LOFTNORMALS
280
     1
  9
$LATITUDE
 40
37.795
  9
$LONGITUDE
 40
-122.394
  9
$NORTHDIRECTION
 40
0.0
  9
$TIMEZONE
 70
 -8000
  9
$LIGHTGLYPHDISPLAY
280
     1
  9
$TILEMODELIGHTSYNCH
280
     1
  9
$CMATERIAL
347
44
  9
$SOLIDHIST
280
     0
  9
$SHOWHIST
280
     1
  9
$DWFFRAME
280
     2
  9
$DGNFRAME
280
     2
  9
$REALWORLDSCALE
290
     1
  9
$INTERFERECOLOR
 62
   256
  9
$CSHADOW
280
     0
  9
$SHADOWPLANELOCATION
 40
0.0
  0
ENDSEC
  0
SECTION
  2
CLASSES
  0
CLASS
  1
ACDBDICTIONARYWDFLT
  2
AcDbDictionaryWithDefault
  3
ObjectDBX Classes
 90
        0
 91
        4
280
     0
281
     0
  0
CLASS
  1
VISUALSTYLE
  2
AcDbVisualStyle
  3
ObjectDBX Classes
 90
     4095
 91
        4
280
     0
281
     0
  0
CLASS
  1
MATERIAL
  2
AcDbMaterial
  3
ObjectDBX Classes
 90
     1153
 91
        4
280
     0
281
     0
  0
CLASS
  1
SCALE
  2
AcDbScale
  3
ObjectDBX Classes
 90
     1153
 91
        4
280
     0
281
     0
  0
CLASS
  1
TABLESTYLE
  2
AcDbTableStyle
  3
ObjectDBX Classes
 90
     4095
 91
        4
280
     0
281
     0
  0
CLASS
  1
MLEADERSTYLE
  2
AcDbMLeaderStyle
  3
ACDB_MLEADERSTYLE_CLASS
 90
     4095
 91
        4
280
     0
281
     0
  0
CLASS
  1
SUN
  2
AcDbSun
  3
SCENEOE
 90
     1153
 91
        4
280
     0
281
     0
  0
CLASS
  1
DICTIONARYVAR
  2
AcDbDictionaryVar
  3
ObjectDBX Classes
 90
        0
 91
        4
280
     0
281
     0
  0
CLASS
  1
CELLSTYLEMAP
  2
AcDbCellStyleMap
  3
ObjectDBX Classes
 90
     1152
 91
        4
280
     0
281
     0
  0
ENDSEC
  0
SECTION
  2
TABLES
  0
TABLE
  2
VPORT
  5
8
330
0
100
AcDbSymbolTable
 70
     1
  0
VPORT
  5
29
330
8
100
AcDbSymbolTableRecord
100
AcDbViewportTableRecord
  2
*Active
 70
     0
 10
0.0
 20
0.0
 11
1.0
 21
1.0
 12
344.186916
 22
148.5
 13
0.0
 23
0.0
 14
10.0
 24
10.0
 15
10.0
 25
10.0
 16
0.0
 26
0.0
 36
1.0
 17
0.0
 27
0.0
 37
0.0
 40
297.0
 41
1.972973
 42
50.0
 43
0.0
 44
0.0
 50
0.0
 51
0.0
 71
     0
 72
   100
 73
     1
 74
     3
 75
     0
 76
     0
 77
     0
 78
     0
281
     0
 65
     1
110
0.0
120
0.0
130
0.0
111
1.0
121
0.0
131
0.0
112
0.0
122
1.0
132
0.0
 79
     0
146
0.0
348
2F
 60
     3
 61
     5
292
     1
282
     1
141
0.0
142
0.0
 63
   250
361
6D
  0
ENDTAB
  0
TABLE
  2
LTYPE
  5
5
330
0
100
AcDbSymbolTable
 70
     1
  0
LTYPE
  5
14
330
5
100
AcDbSymbolTableRecord
100
AcDbLinetypeTableRecord
  2
ByBlock
 70
     0
  3

 72
    65
 73
     0
 40
0.0
  0
LTYPE
  5
15
330
5
100
AcDbSymbolTableRecord
100
AcDbLinetypeTableRecord
  2
ByLayer
 70
     0
  3

 72
    65
 73
     0
 40
0.0
  0
LTYPE
  5
16
330
5
100
AcDbSymbolTableRecord
100
AcDbLinetypeTableRecord
  2
Continuous
 70
     0
  3
Solid line
 72
    65
 73
     0
 40
0.0
  0
ENDTAB
  0
TABLE
  2
LAYER
  5
2
330
0
100
AcDbSymbolTable
 70
     1
  0
LAYER
  5
10
330
2
100
AcDbSymbolTableRecord
100
AcDbLayerTableRecord
  2
0
 70
     0
 62
   106
  6
Continuous
370
     0
390
F
347
46
  0
ENDTAB
  0
TABLE
  2
STYLE
  5
3
330
0
100
AcDbSymbolTable
 70
     4
  0
STYLE
  5
11
330
3
100
AcDbSymbolTableRecord
100
AcDbTextStyleTableRecord
  2
Standard
 70
     0
 40
0.0
 41
1.0
 50
0.0
 71
     0
 42
2.5
  3
txt
  4

  0
STYLE
  5
6E
330
3
100
AcDbSymbolTableRecord
100
AcDbTextStyleTableRecord
  2
Default
 70
     0
 40
0.0
 41
1.0
 50
0.0
 71
     0
 42
2.5
  3

  4

1001
ACAD
1000
txt
1071
        0
  0
STYLE
  5
6F
330
3
100
AcDbSymbolTableRecord
100
AcDbTextStyleTableRecord
  2
ISO
 70
     0
 40
0.0
 41
1.0
 50
0.0
 71
     0
 42
2.5
  3

  4

1001
ACAD
1000
txt
1071
        0
  0
STYLE
  5
70
330
3
100
AcDbSymbolTableRecord
100
AcDbTextStyleTableRecord
  2
zucchetti
 70
     0
 40
0.0
 41
1.0
 50
0.0
 71
     0
 42
2.5
  3

  4

1001
ACAD
1000
Arial
1071
        0
  0
ENDTAB
  0
TABLE
  2
VIEW
  5
6
330
0
100
AcDbSymbolTable
 70
     0
  0
ENDTAB
  0
TABLE
  2
UCS
  5
7
330
0
100
AcDbSymbolTable
 70
     0
  0
ENDTAB
  0
TABLE
  2
APPID
  5
9
330
0
100
AcDbSymbolTable
 70
     1
  0
APPID
  5
12
330
9
100
AcDbSymbolTableRecord
100
AcDbRegAppTableRecord
  2
ACAD
 70
     0
  0
ENDTAB
  0
TABLE
  2
DIMSTYLE
  5
A
330
0
100
AcDbSymbolTable
 70
     4
100
AcDbDimStyleTable
  0
DIMSTYLE
105
27
330
A
100
AcDbSymbolTableRecord
100
AcDbDimStyleTableRecord
  2
ISO-25
 70
     0
 41
2.5
 42
0.625
 43
3.75
 44
1.25
 73
     0
 74
     0
 77
     1
 78
     8
140
2.5
141
2.5
143
0.03937
147
0.625
171
     3
172
     1
178
     0
271
     2
272
     2
274
     3
278
    44
283
     0
284
     8
340
11
  0
DIMSTYLE
105
71
330
A
100
AcDbSymbolTableRecord
100
AcDbDimStyleTableRecord
  2
Default
 70
     0
  3
<>
 41
4.375
 42
1.05
 44
2.1
 49
10.01
 73
     0
 74
     0
 77
     1
 78
     8
140
3.5
146
0.4
147
1.75
172
     1
271
     2
178
     3
271
     2
272
     3
284
     8
340
6E
341
72
342
72
  0
DIMSTYLE
105
79
330
A
100
AcDbSymbolTableRecord
100
AcDbDimStyleTableRecord
  2
ISO
 70
     0
  3
<>
 41
4.375
 42
1.05
 44
2.1
 49
10.01
 73
     0
 74
     0
 77
     1
 78
     8
140
3.5
146
0.4
147
1.75
172
     1
271
     2
178
     3
271
     2
272
     3
284
     8
340
6F
341
72
342
72
  0
DIMSTYLE
105
7A
330
A
100
AcDbSymbolTableRecord
100
AcDbDimStyleTableRecord
  2
zucchetti
 70
     0
  3
<>
 41
3.0
 42
0.9
 44
1.8
 49
8.58
 73
     0
 74
     0
 77
     1
 78
     8
140
3.0
146
0.6
147
1.5
172
     1
176
     3
177
     3
271
     2
178
     3
271
     2
272
     2
284
     8
340
70
  0
ENDTAB
  0
TABLE
  2
BLOCK_RECORD
  5
1
330
0
100
AcDbSymbolTable
 70
     7
  0
BLOCK_RECORD
  5
1F
330
1
100
AcDbSymbolTableRecord
100
AcDbBlockTableRecord
  2
*Model_Space
340
22
 70
     0
280
     1
281
     0
  0
BLOCK_RECORD
  5
1B
330
1
100
AcDbSymbolTableRecord
100
AcDbBlockTableRecord
  2
*Paper_Space
340
1E
 70
     0
280
     1
281
     0
  0
BLOCK_RECORD
  5
23
330
1
100
AcDbSymbolTableRecord
100
AcDbBlockTableRecord
  2
*Paper_Space0
340
26
 70
     0
280
     1
281
     0
  0
BLOCK_RECORD
  5
72
330
1
100
AcDbSymbolTableRecord
100
AcDbBlockTableRecord
  2
_CLOSED
340
0
 70
     0
280
     1
281
     0
  0
BLOCK_RECORD
  5
7B
330
1
100
AcDbSymbolTableRecord
100
AcDbBlockTableRecord
  2
a
340
0
102
{BLKREFS
331
110
102
}
 70
     0
280
     1
281
     0
  0
BLOCK_RECORD
  5
111
330
1
100
AcDbSymbolTableRecord
100
AcDbBlockTableRecord
  2
b
340
0
102
{BLKREFS
331
19A
102
}
 70
     0
280
     1
281
     0
  0
BLOCK_RECORD
  5
19B
330
1
100
AcDbSymbolTableRecord
100
AcDbBlockTableRecord
  2
c
340
0
102
{BLKREFS
331
227
102
}
 70
     0
280
     1
281
     0
  0
BLOCK_RECORD
  5
228
330
1
100
AcDbSymbolTableRecord
100
AcDbBlockTableRecord
  2
d
340
0
102
{BLKREFS
331
2FE
102
}
 70
     0
280
     1
281
     0
  0
BLOCK_RECORD
  5
2FF
330
1
100
AcDbSymbolTableRecord
100
AcDbBlockTableRecord
  2
e
340
0
102
{BLKREFS
331
3B4
102
}
 70
     0
280
     1
281
     0
  0
ENDTAB
  0
ENDSEC
  0
SECTION
  2
BLOCKS
  0
BLOCK
  5
20
330
1F
100
AcDbEntity
  8
0
100
AcDbBlockBegin
  2
*Model_Space
 70
     0
 10
0.0
 20
0.0
 30
0.0
  3
*Model_Space
  1

  0
ENDBLK
  5
21
330
1F
100
AcDbEntity
  8
0
100
AcDbBlockEnd
  0
BLOCK
  5
1C
330
1B
100
AcDbEntity
 67
     1
  8
0
100
AcDbBlockBegin
  2
*Paper_Space
 70
     0
 10
0.0
 20
0.0
 30
0.0
  3
*Paper_Space
  1

  0
ENDBLK
  5
1D
330
1B
100
AcDbEntity
 67
     1
  8
0
100
AcDbBlockEnd
  0
BLOCK
  5
24
330
23
100
AcDbEntity
  8
0
100
AcDbBlockBegin
  2
*Paper_Space0
 70
     0
 10
0.0
 20
0.0
 30
0.0
  3
*Paper_Space0
  1

  0
ENDBLK
  5
25
330
23
100
AcDbEntity
  8
0
100
AcDbBlockEnd
  0
BLOCK
  5
73
330
72
100
AcDbEntity
  8
0
100
AcDbBlockBegin
  2
_CLOSED
 70
     0
 10
0.0
 20
0.0
 30
0.0
  3
_CLOSED
  1

  0
LINE
  5
75
330
72
100
AcDbEntity
  8
0
  6
ByBlock
 62
     0
370
    -2
100
AcDbLine
 10
-1.0
 20
0.166667
 30
0.0
 11
0.0
 21
0.0
 31
0.0
  0
LINE
  5
76
330
72
100
AcDbEntity
  8
0
  6
ByBlock
 62
     0
370
    -2
100
AcDbLine
 10
0.0
 20
0.0
 30
0.0
 11
-1.0
 21
-0.166667
 31
0.0
  0
LINE
  5
77
330
72
100
AcDbEntity
  8
0
  6
ByBlock
 62
     0
370
    -2
100
AcDbLine
 10
-1.0
 20
0.166667
 30
0.0
 11
-1.0
 21
-0.166667
 31
0.0
  0
LINE
  5
78
330
72
100
AcDbEntity
  8
0
  6
ByBlock
 62
     0
370
    -2
100
AcDbLine
 10
0.0
 20
0.0
 30
0.0
 11
-1.0
 21
0.0
 31
0.0
  0
ENDBLK
  5
74
330
72
100
AcDbEntity
  8
0
100
AcDbBlockEnd
  0
BLOCK
  5
10E
330
7B
100
AcDbEntity
  8
0
100
AcDbBlockBegin
  2
a
 70
     0
 10
32.640823
 20
118.791321
 30
0.0
  3
a
  1

  0
LINE
  5
7C
330
7B
100
AcDbEntity
  8
0
  6
Continuous
 62
     0
370
    30
100
AcDbLine
 10
60.922854
 20
1162.749479
 30
0.0
 11
60.922854
 21
1190.249477
 31
0.0
  0
LINE
  5
7D
330
7B
100
AcDbEntity
  8
0
  6
Continuous
 62
     0
370
    30
100
AcDbLine
 10
60.922854
 20
1135.249481
 30
0.0
 11
60.922854
 21
1162.749479
 31
0.0
  0
LINE
  5
7E
330
7B
100
AcDbEntity
  8
0
  6
Continuous
 62
     0
370
     0
100
AcDbLine
 10
67.422811
 20
1162.749479
 30
0.0
 11
67.422811
 21
1190.249477
 31
0.0
  0
LINE
  5
7F
330
7B
100
AcDbEntity
  8
0
  6
Continuous
 62
     0
370
     0
100
AcDbLine
 10
67.422811
 20
1135.249481
 30
0.0
 11
67.422811
 21
1162.749479
 31
0.0
  0
LINE
  5
80
330
7B
100
AcDbEntity
  8
0
  6
Continuous
 62
     0
370
     0
100
AcDbLine
 10
67.907925
 20
1162.749479
 30
0.0
 11
67.907925
 21
1189.870575
 31
0.0
  0
LINE
  5
81
330
7B
100
AcDbEntity
  8
0
  6
Continuous
 62
     0
370
     0
100
AcDbLine
 10
67.907925
 20
1135.628383
 30
0.0
 11
67.907925
 21
1162.749479
 31
0.0
  0
LINE
  5
82
330
7B
100
AcDbEntity
  8
0
  6
Continuous
 62
     0
370
     0
100
AcDbLine
 10
80.653184
 20
1162.749479
 30
0.0
 11
80.653184
 21
1177.98881
 31
0.0
  0
LINE
  5
83
330
7B
100
AcDbEntity
  8
0
  6
Continuous
 62
     0
370
     0
100
AcDbLine
 10
80.653184
 20
1147.510148
 30
0.0
 11
80.653184
 21
1162.749479
 31
0.0
  0
LINE
  5
84
330
7B
100
AcDbEntity
  8
0
  6
Continuous
 62
     0
370
     0
100
AcDbLine
 10
104.001492
 20
1162.749479
 30
0.0
 11
104.001492
 21
1173.871872
 31
0.0
  0
LINE
  5
85
330
7B
100
AcDbEntity
  8
0
  6
Continuous
 62
     0
370
     0
100
AcDbLine
 10
104.001492
 20
1151.627086
 30
0.0
 11
104.001492
 21
1162.749479
 31
0.0
  0
LINE
  5
86
330
7B
100
AcDbEntity
  8
0
  6
Continuous
 62
     0
370
     0
100
AcDbLine
 10
105.417396
 20
1162.749479
 30
0.0
 11
105.417396
 21
1172.249444
 31
0.0
  0
LINE
  5
87
330
7B
100
AcDbEntity
  8
0
  6
Continuous
 62
     0
370
     0
100
AcDbLine
 10
105.417396
 20
1153.249514
 30
0.0
 11
105.417396
 21
1162.749479
 31
0.0
  0
ARC
  5
88
330
7B
100
AcDbEntity
  8
0
  6
Continuous
 62
     0
370
     0
100
AcDbCircle
 10
126.922854
 20
1162.749479
 30
0.0
 40
10.99999999995368
100
AcDbArc
 50
0.0
 51
180.0
  0
ARC
  5
89
330
7B
100
AcDbEntity
  8
0
  6
Continuous
 62
     0
370
     0
100
AcDbCircle
 10
126.922854
 20
1162.749479
 30
0.0
 40
10.99999999995368
100
AcDbArc
 50
180.0
 51
360.0
  0
LINE
  5
8A
330
7B
100
AcDbEntity
  8
0
  6
Continuous
 62
     0
370
    30
100
AcDbLine
 10
126.922854
 20
1189.749479
 30
0.0
 11
114.922854
 21
1189.749479
 31
0.0
  0
LINE
  5
8B
330
7B
100
AcDbEntity
  8
0
  6
Continuous
 62
     0
370
    30
100
AcDbLine
 10
138.922854
 20
1189.749479
 30
0.0
 11
126.922854
 21
1189.749479
 31
0.0
  0
LINE
  5
8C
330
7B
100
AcDbEntity
  8
0
  6
Continuous
 62
     0
370
     0
100
AcDbLine
 10
126.922854
 20
1187.749479
 30
0.0
 11
112.922854
 21
1187.749479
 31
0.0
  0
LINE
  5
8D
330
7B
100
AcDbEntity
  8
0
  6
Continuous
 62
     0
370
     0
100
AcDbLine
 10
140.922854
 20
1187.749479
 30
0.0
 11
126.922854
 21
1187.749479
 31
0.0
  0
LINE
  5
8E
330
7B
100
AcDbEntity
  8
0
  6
Continuous
 62
     0
370
     0
100
AcDbLine
 10
126.922854
 20
1135.749479
 30
0.0
 11
112.922854
 21
1135.749479
 31
0.0
  0
LINE
  5
8F
330
7B
100
AcDbEntity
  8
0
  6
Continuous
 62
     0
370
     0
100
AcDbLine
 10
140.922854
 20
1135.749479
 30
0.0
 11
126.922854
 21
1135.749479
 31
0.0
  0
LINE
  5
90
330
7B
100
AcDbEntity
  8
0
  6
Continuous
 62
     0
370
    30
100
AcDbLine
 10
126.922854
 20
1133.749479
 30
0.0
 11
114.922854
 21
1133.749479
 31
0.0
  0
LINE
  5
91
330
7B
100
AcDbEntity
  8
0
  6
Continuous
 62
     0
370
    30
100
AcDbLine
 10
138.922854
 20
1133.749479
 30
0.0
 11
126.922854
 21
1133.749479
 31
0.0
  0
ARC
  5
92
330
7B
100
AcDbEntity
  8
0
  6
Continuous
 62
     0
370
    30
100
AcDbCircle
 10
126.923051
 20
1113.547714
 30
0.0
 40
15.00000000000002
100
AcDbArc
 50
270.0
 51
305.915586
  0
LINE
  5
93
330
7B
100
AcDbEntity
  8
0
  6
Continuous
 62
     0
370
     0
100
AcDbLine
 10
137.829357
 20
1102.11735
 30
0.0
 11
128.074255
 21
1102.11735
 31
0.0
  0
LINE
  5
94
330
7B
100
AcDbEntity
  8
0
  6
Continuous
 62
     0
370
     0
100
AcDbLine
 10
128.074255
 20
1102.11735
 30
0.0
 11
116.016744
 21
1102.11735
 31
0.0
  0
LWPOLYLINE
  5
95
330
7B
100
AcDbEntity
  8
0
  6
Continuous
 62
     0
370
    30
100
AcDbPolyline
 90
       21
 70
     0
 43
0.0
 10
116.812515
 20
1101.399536
 10
116.843018
 20
1101.399536
 10
116.932182
 20
1101.399536
 10
117.084068
 20
1101.399536
 10
117.302902
 20
1101.399536
 10
117.591591
 20
1101.399536
 10
117.95179
 20
1101.399536
 10
118.383636
 20
1101.399536
 10
118.88562
 20
1101.399536
 10
119.454498
 20
1101.399536
 10
120.085304
 20
1101.399536
 10
120.771492
 20
1101.399536
 10
121.505135
 20
1101.399536
 10
122.277222
 20
1101.399536
 10
123.078049
 20
1101.399536
 10
123.897598
 20
1101.399536
 10
124.725899
 20
1101.399536
 10
125.553444
 20
1101.399536
 10
126.371437
 20
1101.399536
 10
127.17205
 20
1101.399536
 10
127.990257
 20
1101.399536
  0
LINE
  5
96
330
7B
100
AcDbEntity
  8
0
  6
Continuous
 62
     0
370
    30
100
AcDbLine
 10
127.990258
 20
1101.399482
 30
0.0
 11
137.033585
 21
1101.399482
 31
0.0
  0
LINE
  5
97
330
7B
100
AcDbEntity
  8
0
  6
Continuous
 62
     0
370
     0
100
AcDbLine
 10
141.140764
 20
1105.650611
 30
0.0
 11
128.423788
 21
1105.650611
 31
0.0
  0
LINE
  5
98
330
7B
100
AcDbEntity
  8
0
  6
Continuous
 62
     0
370
     0
100
AcDbLine
 10
128.423788
 20
1105.650611
 30
0.0
 11
112.705337
 21
1105.650611
 31
0.0
  0
LINE
  5
99
330
7B
100
AcDbEntity
  8
0
  6
Continuous
 62
     0
370
     0
100
AcDbLine
 10
141.307117
 20
1105.837339
 30
0.0
 11
128.441347
 21
1105.837339
 31
0.0
  0
LINE
  5
9A
330
7B
100
AcDbEntity
  8
0
  6
Continuous
 62
     0
370
     0
100
AcDbLine
 10
128.441347
 20
1105.837339
 30
0.0
 11
112.538984
 21
1105.837339
 31
0.0
  0
LINE
  5
9B
330
7B
100
AcDbEntity
  8
0
  6
Continuous
 62
     0
370
     0
100
AcDbLine
 10
141.395475
 20
1107.523311
 30
0.0
 11
128.450673
 21
1107.523311
 31
0.0
  0
LINE
  5
9C
330
7B
100
AcDbEntity
  8
0
  6
Continuous
 62
     0
370
     0
100
AcDbLine
 10
128.450673
 20
1107.523311
 30
0.0
 11
112.450626
 21
1107.523311
 31
0.0
  0
LINE
  5
9D
330
7B
100
AcDbEntity
  8
0
  6
Continuous
 62
     0
370
    30
100
AcDbLine
 10
125.44689
 20
1108.049337
 30
0.0
 11
140.907184
 21
1108.049327
 31
0.0
  0
LINE
  5
9E
330
7B
100
AcDbEntity
  8
0
  6
Continuous
 62
     0
370
    30
100
AcDbLine
 10
140.907184
 20
1108.049327
 30
0.0
 11
112.938564
 21
1108.049321
 31
0.0
  0
LINE
  5
9F
330
7B
100
AcDbEntity
  8
0
  6
Continuous
 62
     0
370
    30
100
AcDbLine
 10
112.938564
 20
1108.049321
 30
0.0
 11
125.44689
 21
1108.049337
 31
0.0
  0
LINE
  5
A0
330
7B
100
AcDbEntity
  8
0
  6
Continuous
 62
     0
370
     0
100
AcDbLine
 10
153.410334
 20
1120.892661
 30
0.0
 11
153.36762
 21
1114.799199
 31
0.0
  0
LINE
  5
A1
330
7B
100
AcDbEntity
  8
0
  6
Continuous
 62
     0
370
     0
100
AcDbLine
 10
153.36762
 20
1114.799199
 30
0.0
 11
153.410314
 21
1110.606218
 31
0.0
  0
LINE
  5
A2
330
7B
100
AcDbEntity
  8
0
  6
Continuous
 62
     0
370
     0
100
AcDbLine
 10
149.153739
 20
1115.121288
 30
0.0
 11
149.182203
 21
1112.34943
 31
0.0
  0
LINE
  5
A3
330
7B
100
AcDbEntity
  8
0
  6
Continuous
 62
     0
370
     0
100
AcDbLine
 10
149.182207
 20
1119.14943
 30
0.0
 11
149.153739
 21
1115.121288
 31
0.0
  0
LWPOLYLINE
  5
A4
330
7B
100
AcDbEntity
  8
0
  6
Continuous
 62
     0
370
     0
100
AcDbPolyline
 90
       23
 70
     0
 43
0.0
 10
148.786285
 20
1115.121338
 10
148.787231
 20
1114.688232
 10
148.788727
 20
1114.254639
 10
148.790817
 20
1113.834839
 10
148.793457
 20
1113.444214
 10
148.796616
 20
1113.0979
 10
148.800201
 20
1112.809204
 10
148.804092
 20
1112.587769
 10
148.808151
 20
1112.438721
 10
148.812241
 20
1112.362183
 10
148.816238
 20
1112.353882
 10
148.820023
 20
1112.40625
 10
148.823715
 20
1112.516235
 10
148.827408
 20
1112.69104
 10
148.830978
 20
1112.933716
 10
148.83432
 20
1113.242798
 10
148.83728
 20
1113.612549
 10
148.839752
 20
1114.032471
 10
148.841644
 20
1114.488525
 10
148.842941
 20
1114.964844
 10
148.843597
 20
1115.444824
 10
148.843689
 20
1115.913574
 10
148.843216
 20
1116.377563
  0
LWPOLYLINE
  5
A5
330
7B
100
AcDbEntity
  8
0
  6
Continuous
 62
     0
370
     0
100
AcDbPolyline
 90
       23
 70
     0
 43
0.0
 10
148.843216
 20
1116.377563
 10
148.84227
 20
1116.810669
 10
148.840759
 20
1117.244263
 10
148.838684
 20
1117.664062
 10
148.836044
 20
1118.054688
 10
148.832886
 20
1118.401001
 10
148.8293
 20
1118.689697
 10
148.825409
 20
1118.911133
 10
148.82135
 20
1119.060181
 10
148.817261
 20
1119.136719
 10
148.813263
 20
1119.14502
 10
148.809479
 20
1119.092651
 10
148.805786
 20
1118.982666
 10
148.802094
 20
1118.807861
 10
148.798508
 20
1118.565186
 10
148.795181
 20
1118.256104
 10
148.792221
 20
1117.886353
 10
148.789749
 20
1117.466431
 10
148.787842
 20
1117.010254
 10
148.78656
 20
1116.534058
 10
148.785904
 20
1116.054077
 10
148.785812
 20
1115.585327
 10
148.786285
 20
1115.121338
  0
LWPOLYLINE
  5
A6
330
7B
100
AcDbEntity
  8
0
  6
Continuous
 62
     0
370
     0
100
AcDbPolyline
 90
       14
 70
     0
 43
0.0
 10
147.878784
 20
1114.954956
 10
147.879791
 20
1114.474365
 10
147.881348
 20
1113.991699
 10
147.883469
 20
1113.518921
 10
147.886139
 20
1113.06897
 10
147.889343
 20
1112.655151
 10
147.893021
 20
1112.290039
 10
147.897095
 20
1111.984131
 10
147.901428
 20
1111.744995
 10
147.905945
 20
1111.576538
 10
147.910492
 20
1111.479126
 10
147.914963
 20
1111.449463
 10
147.919266
 20
1111.481812
 10
147.923615
 20
1111.576172
  0
LWPOLYLINE
  5
A7
330
7B
100
AcDbEntity
  8
0
  6
Continuous
 62
     0
370
    30
100
AcDbPolyline
 90
       17
 70
     0
 43
0.0
 10
147.927002
 20
1119.900757
 10
147.922302
 20
1120.052002
 10
147.91748
 20
1120.130249
 10
147.912613
 20
1120.134277
 10
147.907776
 20
1120.063965
 10
147.903061
 20
1119.920532
 10
147.898544
 20
1119.706421
 10
147.894302
 20
1119.425171
 10
147.890396
 20
1119.081665
 10
147.886917
 20
1118.681641
 10
147.883911
 20
1118.231934
 10
147.881424
 20
1117.740234
 10
147.879501
 20
1117.2146
 10
147.878189
 20
1116.664307
 10
147.877472
 20
1116.098389
 10
147.877411
 20
1115.526611
 10
147.878006
 20
1114.937988
  0
LINE
  5
A8
330
7B
100
AcDbEntity
  8
0
  6
Continuous
 62
     0
370
     0
100
AcDbLine
 10
144.689797
 20
1114.886475
 30
0.0
 11
144.728937
 21
1111.078439
 31
0.0
  0
LWPOLYLINE
  5
A9
330
7B
100
AcDbEntity
  8
0
  6
Continuous
 62
     0
370
     0
100
AcDbPolyline
 90
       15
 70
     0
 43
0.0
 10
144.728943
 20
1120.42041
 10
144.724213
 20
1120.387817
 10
144.719711
 20
1120.294067
 10
144.71521
 20
1120.135132
 10
144.710739
 20
1119.905151
 10
144.706406
 20
1119.602051
 10
144.702347
 20
1119.227539
 10
144.698669
 20
1118.787109
 10
144.695511
 20
1118.290161
 10
144.692947
 20
1117.749268
 10
144.691025
 20
1117.179321
 10
144.689774
 20
1116.596069
 10
144.689178
 20
1116.014648
 10
144.689194
 20
1115.448853
 10
144.689804
 20
1114.886475
  0
LINE
  5
AA
330
7B
100
AcDbEntity
  8
0
  6
Continuous
 62
     0
370
     0
100
AcDbLine
 10
142.98287
 20
1114.713655
 30
0.0
 11
143.034977
 21
1110.175858
 31
0.0
  0
LWPOLYLINE
  5
AB
330
7B
100
AcDbEntity
  8
0
  6
Continuous
 62
     0
370
     0
100
AcDbPolyline
 90
       16
 70
     0
 43
0.0
 10
143.03035
 20
1121.355469
 10
143.024979
 20
1121.327026
 10
143.019867
 20
1121.23291
 10
143.014786
 20
1121.071411
 10
143.00972
 20
1120.835327
 10
143.004745
 20
1120.521851
 10
143.000015
 20
1120.131226
 10
142.995651
 20
1119.66748
 10
142.99176
 20
1119.138062
 10
142.988449
 20
1118.554199
 10
142.985809
 20
1117.929443
 10
142.983856
 20
1117.279175
 10
142.98262
 20
1116.619263
 10
142.982086
 20
1115.9646
 10
142.982178
 20
1115.328369
 10
142.982864
 20
1114.713623
  0
LINE
  5
AC
330
7B
100
AcDbEntity
  8
0
  6
Continuous
 62
     0
370
     0
100
AcDbLine
 10
142.184466
 20
1114.640944
 30
0.0
 11
142.23472
 21
1109.74943
 31
0.0
  0
LWPOLYLINE
  5
AD
330
7B
100
AcDbEntity
  8
0
  6
Continuous
 62
     0
370
     0
100
AcDbPolyline
 90
       17
 70
     0
 43
0.0
 10
142.234711
 20
1121.74939
 10
142.229385
 20
1121.716919
 10
142.224304
 20
1121.623901
 10
142.219254
 20
1121.469116
 10
142.214203
 20
1121.24585
 10
142.209229
 20
1120.951294
 10
142.204437
 20
1120.585083
 10
142.199951
 20
1120.149658
 10
142.195862
 20
1119.650391
 10
142.192276
 20
1119.095581
 10
142.189255
 20
1118.49585
 10
142.186859
 20
1117.86377
 10
142.185135
 20
1117.212769
 10
142.184052
 20
1116.556396
 10
142.183609
 20
1115.907104
 10
142.183746
 20
1115.276123
 10
142.184464
 20
1114.640991
  0
LINE
  5
AE
330
7B
100
AcDbEntity
  8
0
  6
Continuous
 62
     0
370
     0
100
AcDbLine
 10
100.391957
 20
1116.699661
 30
0.0
 11
100.435393
 21
1120.892642
 31
0.0
  0
LWPOLYLINE
  5
AF
330
7B
100
AcDbEntity
  8
0
  6
Continuous
 62
     0
370
     0
100
AcDbPolyline
 90
       16
 70
     0
 43
0.0
 10
100.435394
 20
1110.606201
 10
100.430496
 20
1110.633545
 10
100.425835
 20
1110.720337
 10
100.421196
 20
1110.868652
 10
100.416565
 20
1111.084595
 10
100.412033
 20
1111.370972
 10
100.407707
 20
1111.727295
 10
100.403717
 20
1112.150269
 10
100.400162
 20
1112.632812
 10
100.397133
 20
1113.165161
 10
100.394707
 20
1113.734741
 10
100.392906
 20
1114.327881
 10
100.391762
 20
1114.930298
 10
100.391243
 20
1115.528442
 10
100.391312
 20
1116.110229
 10
100.39196
 20
1116.699707
  0
LWPOLYLINE
  5
B0
330
7B
100
AcDbEntity
  8
0
  6
Continuous
 62
     0
370
     0
100
AcDbPolyline
 90
       23
 70
     0
 43
0.0
 10
104.691971
 20
1115.121338
 10
104.691017
 20
1114.688232
 10
104.689514
 20
1114.254639
 10
104.687439
 20
1113.834839
 10
104.684792
 20
1113.444214
 10
104.681633
 20
1113.0979
 10
104.678047
 20
1112.809204
 10
104.674156
 20
1112.587769
 10
104.670097
 20
1112.438721
 10
104.666008
 20
1112.362183
 10
104.662018
 20
1112.353882
 10
104.658226
 20
1112.40625
 10
104.654541
 20
1112.516235
 10
104.650848
 20
1112.69104
 10
104.647263
 20
1112.933716
 10
104.643929
 20
1113.242798
 10
104.640968
 20
1113.612549
 10
104.638496
 20
1114.032471
 10
104.636597
 20
1114.488525
 10
104.635315
 20
1114.964844
 10
104.634651
 20
1115.444824
 10
104.634567
 20
1115.913574
 10
104.635033
 20
1116.377563
  0
LWPOLYLINE
  5
B1
330
7B
100
AcDbEntity
  8
0
  6
Continuous
 62
     0
370
     0
100
AcDbPolyline
 90
       23
 70
     0
 43
0.0
 10
104.635033
 20
1116.377563
 10
104.635979
 20
1116.810669
 10
104.637482
 20
1117.244263
 10
104.639565
 20
1117.664062
 10
104.642212
 20
1118.054688
 10
104.64537
 20
1118.401001
 10
104.648956
 20
1118.689697
 10
104.652847
 20
1118.911133
 10
104.656906
 20
1119.060181
 10
104.660995
 20
1119.136719
 10
104.664986
 20
1119.14502
 10
104.66877
 20
1119.092651
 10
104.672462
 20
1118.982666
 10
104.676155
 20
1118.807861
 10
104.679733
 20
1118.565186
 10
104.683067
 20
1118.256104
 10
104.686028
 20
1117.886353
 10
104.688499
 20
1117.466431
 10
104.690399
 20
1117.010254
 10
104.691689
 20
1116.534058
 10
104.692352
 20
1116.054077
 10
104.692436
 20
1115.585327
 10
104.691971
 20
1115.121338
  0
LINE
  5
B2
330
7B
100
AcDbEntity
  8
0
  6
Continuous
 62
     0
370
     0
100
AcDbLine
 10
105.030958
 20
1112.34943
 30
0.0
 11
105.00249
 21
1116.377572
 31
0.0
  0
LINE
  5
B3
330
7B
100
AcDbEntity
  8
0
  6
Continuous
 62
     0
370
     0
100
AcDbLine
 10
105.00249
 20
1116.377572
 30
0.0
 11
105.030954
 21
1119.14943
 31
0.0
  0
LINE
  5
B4
330
7B
100
AcDbEntity
  8
0
  6
Continuous
 62
     0
370
    30
100
AcDbLine
 10
105.9309
 20
1111.357223
 30
0.0
 11
105.894149
 21
1116.560889
 31
0.0
  0
LINE
  5
B5
330
7B
100
AcDbEntity
  8
0
  6
Continuous
 62
     0
370
     0
100
AcDbLine
 10
109.116777
 20
1111.078439
 30
0.0
 11
109.07769
 21
1116.612385
 31
0.0
  0
LINE
  5
B6
330
7B
100
AcDbEntity
  8
0
  6
Continuous
 62
     0
370
     0
100
AcDbLine
 10
109.07769
 20
1116.612385
 30
0.0
 11
109.116769
 21
1120.420421
 31
0.0
  0
LINE
  5
B7
330
7B
100
AcDbEntity
  8
0
  6
Continuous
 62
     0
370
     0
100
AcDbLine
 10
110.815362
 20
1110.143349
 30
0.0
 11
110.768952
 21
1116.785205
 31
0.0
  0
LINE
  5
B8
330
7B
100
AcDbEntity
  8
0
  6
Continuous
 62
     0
370
     0
100
AcDbLine
 10
110.768952
 20
1116.785205
 30
0.0
 11
110.815361
 21
1121.35551
 31
0.0
  0
LINE
  5
B9
330
7B
100
AcDbEntity
  8
0
  6
Continuous
 62
     0
370
     0
100
AcDbLine
 10
111.611003
 20
1109.74943
 30
0.0
 11
111.560765
 21
1116.857917
 31
0.0
  0
LINE
  5
BA
330
7B
100
AcDbEntity
  8
0
  6
Continuous
 62
     0
370
     0
100
AcDbLine
 10
111.560765
 20
1116.857917
 30
0.0
 11
111.611012
 21
1121.74943
 31
0.0
  0
LINE
  5
BB
330
7B
100
AcDbEntity
  8
0
  6
Continuous
 62
     0
370
     0
100
AcDbLine
 10
141.383743
 20
1108.398222
 30
0.0
 11
112.462005
 21
1108.398222
 31
0.0
  0
ARC
  5
BC
330
7B
100
AcDbEntity
  8
0
  6
Continuous
 62
     0
370
    30
100
AcDbCircle
 10
112.938566
 20
1108.549463
 30
0.0
 40
0.4999837522176158
100
AcDbArc
 50
197.607249
 51
269.99938
  0
LINE
  5
BD
330
7B
100
AcDbEntity
  8
0
  6
Continuous
 62
     0
370
    30
100
AcDbLine
 10
112.152446
 20
1121.74943
 30
0.0
 11
112.114484
 21
1121.899435
 31
0.0
  0
LINE
  5
BE
330
7B
100
AcDbEntity
  8
0
  6
Continuous
 62
     0
370
    30
100
AcDbLine
 10
112.114527
 20
1109.599435
 30
0.0
 11
112.152496
 21
1109.74943
 31
0.0
  0
LINE
  5
BF
330
7B
100
AcDbEntity
  8
0
  6
Continuous
 62
     0
370
     0
100
AcDbLine
 10
141.432655
 20
1122.94488
 30
0.0
 11
112.413094
 21
1122.94488
 31
0.0
  0
ARC
  5
C0
330
7B
100
AcDbEntity
  8
0
  6
Continuous
 62
     0
370
    30
100
AcDbCircle
 10
60.819609
 20
1115.307572
 30
0.0
 40
51.71669830497504
100
AcDbArc
 50
0.489536
 51
7.322898
  0
ARC
  5
C1
330
7B
100
AcDbEntity
  8
0
  6
Continuous
 62
     0
370
    30
100
AcDbCircle
 10
60.820888
 20
1116.190855
 30
0.0
 40
51.71541575631515
100
AcDbArc
 50
352.677413
 51
359.510943
  0
LWPOLYLINE
  5
C2
330
7B
100
AcDbEntity
  8
0
  6
Continuous
 62
     0
370
    30
100
AcDbPolyline
 90
       16
 70
     0
 43
0.0
 10
141.206543
 20
1115.74939
 10
141.21228
 20
1116.409912
 10
141.229416
 20
1117.065063
 10
141.257095
 20
1117.705444
 10
141.294098
 20
1118.321899
 10
141.338623
 20
1118.907715
 10
141.388779
 20
1119.456909
 10
141.442566
 20
1119.963379
 10
141.497589
 20
1120.421631
 10
141.551361
 20
1120.826294
 10
141.601395
 20
1121.171997
 10
141.64534
 20
1121.453491
 10
141.681686
 20
1121.668335
 10
141.709183
 20
1121.814209
 10
141.726547
 20
1121.889282
 10
141.732574
 20
1121.890259
  0
LWPOLYLINE
  5
C3
330
7B
100
AcDbEntity
  8
0
  6
Continuous
 62
     0
370
    30
100
AcDbPolyline
 90
       18
 70
     0
 43
0.0
 10
141.719467
 20
1109.74939
 10
141.730667
 20
1109.640625
 10
141.731644
 20
1109.599609
 10
141.721649
 20
1109.627563
 10
141.70134
 20
1109.723755
 10
141.67189
 20
1109.885986
 10
141.63446
 20
1110.112671
 10
141.590195
 20
1110.401611
 10
141.54068
 20
1110.75
 10
141.488098
 20
1111.153076
 10
141.434723
 20
1111.605591
 10
141.382828
 20
1112.102905
 10
141.334579
 20
1112.639648
 10
141.291763
 20
1113.210327
 10
141.25618
 20
1113.809692
 10
141.229446
 20
1114.431396
 10
141.212662
 20
1115.067139
 10
141.206543
 20
1115.74939
  0
LINE
  5
C4
330
7B
100
AcDbEntity
  8
0
  6
Continuous
 62
     0
370
     0
100
AcDbLine
 10
141.101273
 20
1123.274984
 30
0.0
 11
112.744475
 21
1123.274984
 31
0.0
  0
LINE
  5
C5
330
7B
100
AcDbEntity
  8
0
  6
Continuous
 62
     0
370
     0
100
AcDbLine
 10
133.314168
 20
1125.655828
 30
0.0
 11
120.531581
 21
1125.655828
 31
0.0
  0
LINE
  5
C6
330
7B
100
AcDbEntity
  8
0
  6
Continuous
 62
     0
370
     0
100
AcDbLine
 10
133.172647
 20
1125.847089
 30
0.0
 11
120.673101
 21
1125.847089
 31
0.0
  0
LINE
  5
C7
330
7B
100
AcDbEntity
  8
0
  6
Continuous
 62
     0
370
    30
100
AcDbLine
 10
118.922854
 20
1192.749479
 30
0.0
 11
126.922854
 21
1192.749479
 31
0.0
  0
LINE
  5
C8
330
7B
100
AcDbEntity
  8
0
  6
Continuous
 62
     0
370
    30
100
AcDbLine
 10
126.922854
 20
1192.749479
 30
0.0
 11
134.922854
 21
1192.749479
 31
0.0
  0
LINE
  5
C9
330
7B
100
AcDbEntity
  8
0
  6
Continuous
 62
     0
370
    30
100
AcDbLine
 10
135.422854
 20
1217.731599
 30
0.0
 11
135.422854
 21
1224.304921
 31
0.0
  0
ARC
  5
CA
330
7B
100
AcDbEntity
  8
0
  6
Continuous
 62
     0
370
    30
100
AcDbCircle
 10
126.922854
 20
1210.749479
 30
0.0
 40
11.0
100
AcDbArc
 50
140.599431
 51
39.400569
  0
LINE
  5
CB
330
7B
100
AcDbEntity
  8
0
  6
Continuous
 62
     0
370
    30
100
AcDbLine
 10
118.422854
 20
1224.304921
 30
0.0
 11
118.422854
 21
1217.731599
 31
0.0
  0
ARC
  5
CC
330
7B
100
AcDbEntity
  8
0
  6
Continuous
 62
     0
370
    30
100
AcDbCircle
 10
126.922854
 20
1210.749479
 30
0.0
 40
16.0
100
AcDbArc
 50
122.089951
 51
57.910049
  0
LINE
  5
CD
330
7B
100
AcDbEntity
  8
0
  6
Continuous
 62
     0
370
    30
100
AcDbLine
 10
121.922854
 20
1192.749479
 30
0.0
 11
121.922854
 21
1195.550199
 31
0.0
  0
LINE
  5
CE
330
7B
100
AcDbEntity
  8
0
  6
Continuous
 62
     0
370
    30
100
AcDbLine
 10
131.922854
 20
1192.749479
 30
0.0
 11
131.922854
 21
1195.550201
 31
0.0
  0
LINE
  5
CF
330
7B
100
AcDbEntity
  8
0
  6
Continuous
 62
     0
370
    30
100
AcDbLine
 10
134.922854
 20
1192.749479
 30
0.0
 11
134.922854
 21
1189.749479
 31
0.0
  0
LINE
  5
D0
330
7B
100
AcDbEntity
  8
0
  6
Continuous
 62
     0
370
    30
100
AcDbLine
 10
118.922854
 20
1192.749479
 30
0.0
 11
118.922854
 21
1189.749479
 31
0.0
  0
LINE
  5
D1
330
7B
100
AcDbEntity
  8
0
  6
Continuous
 62
     0
370
    30
100
AcDbLine
 10
133.172874
 20
1125.847088
 30
0.0
 11
133.172874
 21
1133.589819
 31
0.0
  0
LINE
  5
D2
330
7B
100
AcDbEntity
  8
0
  6
Continuous
 62
     0
370
    30
100
AcDbLine
 10
133.3144
 20
1125.655828
 30
0.0
 11
141.101788
 21
1123.274984
 31
0.0
  0
LINE
  5
D3
330
7B
100
AcDbEntity
  8
0
  6
Continuous
 62
     0
370
    30
100
AcDbLine
 10
120.531349
 20
1125.655828
 30
0.0
 11
120.28509
 21
1125.580539
 31
0.0
  0
LINE
  5
D4
330
7B
100
AcDbEntity
  8
0
  6
Continuous
 62
     0
370
    30
100
AcDbLine
 10
112.74396
 20
1123.274984
 30
0.0
 11
115.221692
 21
1124.032503
 31
0.0
  0
LINE
  5
D5
330
7B
100
AcDbEntity
  8
0
  6
Continuous
 62
     0
370
    30
100
AcDbLine
 10
141.384268
 20
1108.398222
 30
0.0
 11
141.732057
 21
1109.600573
 31
0.0
  0
LINE
  5
D6
330
7B
100
AcDbEntity
  8
0
  6
Continuous
 62
     0
370
    30
100
AcDbLine
 10
141.433181
 20
1122.94488
 30
0.0
 11
141.732093
 21
1121.898319
 31
0.0
  0
LINE
  5
D7
330
7B
100
AcDbEntity
  8
0
  6
Continuous
 62
     0
370
    30
100
AcDbLine
 10
112.412567
 20
1122.94488
 30
0.0
 11
112.113355
 21
1121.897174
 31
0.0
  0
LINE
  5
D8
330
7B
100
AcDbEntity
  8
0
  6
Continuous
 62
     0
370
    30
100
AcDbLine
 10
112.113399
 20
1109.601692
 30
0.0
 11
112.46148
 21
1108.398222
 31
0.0
  0
CIRCLE
  5
D9
330
7B
100
AcDbEntity
  8
0
  6
Continuous
 62
     0
370
    30
100
AcDbCircle
 10
126.653646
 20
1115.74943
 30
0.0
 40
7.249999999995743
  0
LINE
  5
DA
330
7B
100
AcDbEntity
  8
0
  6
Continuous
 62
     0
370
    30
100
AcDbLine
 10
111.611003
 20
1109.74943
 30
0.0
 11
112.129405
 21
1109.74943
 31
0.0
  0
LINE
  5
DB
330
7B
100
AcDbEntity
  8
0
  6
Continuous
 62
     0
370
    30
100
AcDbLine
 10
112.129373
 20
1121.74943
 30
0.0
 11
111.611003
 21
1121.74943
 31
0.0
  0
ARC
  5
DC
330
7B
100
AcDbEntity
  8
0
  6
Continuous
 62
     0
370
    30
100
AcDbCircle
 10
111.611205
 20
1120.748542
 30
0.0
 40
1.000887738354271
100
AcDbArc
 50
90.011535
 51
142.668268
  0
ARC
  5
DD
330
7B
100
AcDbEntity
  8
0
  6
Continuous
 62
     0
370
    30
100
AcDbCircle
 10
111.611205
 20
1110.750318
 30
0.0
 40
1.00088773939195
100
AcDbArc
 50
217.331732
 51
269.988465
  0
ARC
  5
DE
330
7B
100
AcDbEntity
  8
0
  6
Continuous
 62
     0
370
    30
100
AcDbCircle
 10
108.907739
 20
1108.688436
 30
0.0
 40
2.399126494015544
100
AcDbArc
 50
38.268993
 51
85.00158
  0
ARC
  5
DF
330
7B
100
AcDbEntity
  8
0
  6
Continuous
 62
     0
370
    30
100
AcDbCircle
 10
108.90727
 20
1122.81127
 30
0.0
 40
2.400010305356077
100
AcDbArc
 50
275.007805
 51
322.658504
  0
LINE
  5
E0
330
7B
100
AcDbEntity
  8
0
  6
Continuous
 62
     0
370
    30
100
AcDbLine
 10
105.930898
 20
1120.141683
 30
0.0
 11
109.116771
 21
1120.420421
 31
0.0
  0
LINE
  5
E1
330
7B
100
AcDbEntity
  8
0
  6
Continuous
 62
     0
370
    30
100
AcDbLine
 10
105.930898
 20
1111.357177
 30
0.0
 11
109.116771
 21
1111.078439
 31
0.0
  0
ARC
  5
E2
330
7B
100
AcDbEntity
  8
0
  6
Continuous
 62
     0
370
    30
100
AcDbCircle
 10
105.035927
 20
1120.041305
 30
0.0
 40
0.8918887831625737
100
AcDbArc
 50
269.68082
 51
354.641917
  0
ARC
  5
E3
330
7B
100
AcDbEntity
  8
0
  6
Continuous
 62
     0
370
    30
100
AcDbCircle
 10
105.02965
 20
1111.447754
 30
0.0
 40
0.9016774849768388
100
AcDbArc
 50
9.598517
 51
89.916835
  0
ARC
  5
E4
330
7B
100
AcDbEntity
  8
0
  6
Continuous
 62
     0
370
    30
100
AcDbCircle
 10
104.664376
 20
1125.150732
 30
0.0
 40
6.001301937016906
100
AcDbArc
 50
225.1965
 51
269.99164
  0
ARC
  5
E5
330
7B
100
AcDbEntity
  8
0
  6
Continuous
 62
     0
370
    30
100
AcDbCircle
 10
104.664376
 20
1106.348128
 30
0.0
 40
6.001301934714659
100
AcDbArc
 50
90.00836
 51
134.8035
  0
ARC
  5
E6
330
7B
100
AcDbEntity
  8
0
  6
Continuous
 62
     0
370
    30
100
AcDbCircle
 10
95.32561
 20
1115.749426
 30
0.0
 40
7.249998127235686
100
AcDbArc
 50
182.550196
 51
314.81322
  0
ARC
  5
E7
330
7B
100
AcDbEntity
  8
0
  6
Continuous
 62
     0
370
    30
100
AcDbCircle
 10
95.32561
 20
1115.749435
 30
0.0
 40
7.249998104309621
100
AcDbArc
 50
45.18678
 51
177.450091
  0
LINE
  5
E8
330
7B
100
AcDbEntity
  8
0
  6
Continuous
 62
     0
370
    30
100
AcDbLine
 10
142.234704
 20
1121.74943
 30
0.0
 11
141.696513
 21
1121.74943
 31
0.0
  0
LINE
  5
E9
330
7B
100
AcDbEntity
  8
0
  6
Continuous
 62
     0
370
    30
100
AcDbLine
 10
142.234704
 20
1109.74943
 30
0.0
 11
141.69643
 21
1109.74943
 31
0.0
  0
ARC
  5
EA
330
7B
100
AcDbEntity
  8
0
  6
Continuous
 62
     0
370
    30
100
AcDbCircle
 10
142.234503
 20
1110.750318
 30
0.0
 40
1.000887739392336
100
AcDbArc
 50
270.011535
 51
322.668268
  0
ARC
  5
EB
330
7B
100
AcDbEntity
  8
0
  6
Continuous
 62
     0
370
    30
100
AcDbCircle
 10
142.234468
 20
1120.748473
 30
0.0
 40
1.000957671672603
100
AcDbArc
 50
37.333713
 51
89.986484
  0
ARC
  5
EC
330
7B
100
AcDbEntity
  8
0
  6
Continuous
 62
     0
370
    30
100
AcDbCircle
 10
144.938458
 20
1122.811307
 30
0.0
 40
2.400048849280233
100
AcDbArc
 50
217.341902
 51
264.991788
  0
ARC
  5
ED
330
7B
100
AcDbEntity
  8
0
  6
Continuous
 62
     0
370
    30
100
AcDbCircle
 10
144.937969
 20
1108.688436
 30
0.0
 40
2.399126494014912
100
AcDbArc
 50
94.99842
 51
141.731007
  0
LINE
  5
EE
330
7B
100
AcDbEntity
  8
0
  6
Continuous
 62
     0
370
    30
100
AcDbLine
 10
147.91481
 20
1111.357177
 30
0.0
 11
144.728937
 21
1111.078439
 31
0.0
  0
LINE
  5
EF
330
7B
100
AcDbEntity
  8
0
  6
Continuous
 62
     0
370
    30
100
AcDbLine
 10
144.728937
 20
1120.420421
 30
0.0
 11
147.91481
 21
1120.141683
 31
0.0
  0
ARC
  5
F0
330
7B
100
AcDbEntity
  8
0
  6
Continuous
 62
     0
370
    30
100
AcDbCircle
 10
148.809793
 20
1111.457537
 30
0.0
 40
0.8919068730057209
100
AcDbArc
 50
89.681621
 51
174.642131
  0
ARC
  5
F1
330
7B
100
AcDbEntity
  8
0
  6
Continuous
 62
     0
370
    30
100
AcDbCircle
 10
148.809781
 20
1120.041305
 30
0.0
 40
0.8918887831620088
100
AcDbArc
 50
185.358083
 51
270.31918
  0
ARC
  5
F2
330
7B
100
AcDbEntity
  8
0
  6
Continuous
 62
     0
370
    30
100
AcDbCircle
 10
149.181332
 20
1106.348128
 30
0.0
 40
6.001301934715242
100
AcDbArc
 50
45.1965
 51
89.99164
  0
ARC
  5
F3
330
7B
100
AcDbEntity
  8
0
  6
Continuous
 62
     0
370
    30
100
AcDbCircle
 10
149.181328
 20
1125.15074
 30
0.0
 40
6.001309663472449
100
AcDbArc
 50
270.00839
 51
314.80347
  0
ARC
  5
F4
330
7B
100
AcDbEntity
  8
0
  6
Continuous
 62
     0
370
    30
100
AcDbCircle
 10
158.520098
 20
1115.749426
 30
0.0
 40
7.249998127235683
100
AcDbArc
 50
225.18678
 51
357.449804
  0
ARC
  5
F5
330
7B
100
AcDbEntity
  8
0
  6
Continuous
 62
     0
370
    30
100
AcDbCircle
 10
158.520098
 20
1115.749435
 30
0.0
 40
7.249998104309634
100
AcDbArc
 50
2.549909
 51
134.81322
  0
LINE
  5
F6
330
7B
100
AcDbEntity
  8
0
  6
Continuous
 62
     0
370
    30
100
AcDbLine
 10
141.307117
 20
1105.837339
 30
0.0
 11
141.393336
 21
1107.482485
 31
0.0
  0
LINE
  5
F7
330
7B
100
AcDbEntity
  8
0
  6
Continuous
 62
     0
370
    30
100
AcDbLine
 10
112.450626
 20
1107.523311
 30
0.0
 11
112.538984
 21
1105.837339
 31
0.0
  0
ARC
  5
F8
330
7B
100
AcDbEntity
  8
0
  6
Continuous
 62
     0
370
    30
100
AcDbCircle
 10
141.808196
 20
1101.706715
 30
0.0
 40
3.999972062090063
100
AcDbArc
 50
101.012406
 51
174.107655
  0
ARC
  5
F9
330
7B
100
AcDbEntity
  8
0
  6
Continuous
 62
     0
370
    30
100
AcDbCircle
 10
112.037725
 20
1101.706547
 30
0.0
 40
4.000168104365217
100
AcDbArc
 50
5.894472
 51
80.392614
  0
ARC
  5
FA
330
7B
100
AcDbEntity
  8
0
  6
Continuous
 62
     0
370
    30
100
AcDbCircle
 10
137.033383
 20
1102.199705
 30
0.0
 40
0.8002232256900155
100
AcDbArc
 50
270.014417
 51
354.092942
  0
ARC
  5
FB
330
7B
100
AcDbEntity
  8
0
  6
Continuous
 62
     0
370
    30
100
AcDbCircle
 10
116.812718
 20
1102.199705
 30
0.0
 40
0.8002232256895766
100
AcDbArc
 50
185.907058
 51
269.985583
  0
ARC
  5
FC
330
7B
100
AcDbEntity
  8
0
  6
Continuous
 62
     0
370
    30
100
AcDbCircle
 10
126.924269
 20
1113.551473
 30
0.0
 40
15.00375962028743
100
AcDbArc
 50
234.089067
 51
269.991367
  0
ARC
  5
FD
330
7B
100
AcDbEntity
  8
0
  6
Continuous
 62
     0
370
    30
100
AcDbCircle
 10
114.922257
 20
1135.748883
 30
0.0
 40
1.999403724216219
100
AcDbArc
 50
179.98291
 51
270.01709
  0
ARC
  5
FE
330
7B
100
AcDbEntity
  8
0
  6
Continuous
 62
     0
370
    30
100
AcDbCircle
 10
138.92345
 20
1135.748883
 30
0.0
 40
1.999403724216326
100
AcDbArc
 50
269.98291
 51
0.01709
  0
LINE
  5
FF
330
7B
100
AcDbEntity
  8
0
  6
Continuous
 62
     0
370
    30
100
AcDbLine
 10
112.922854
 20
1170.749479
 30
0.0
 11
112.922854
 21
1187.749479
 31
0.0
  0
LINE
  5
100
330
7B
100
AcDbEntity
  8
0
  6
Continuous
 62
     0
370
    30
100
AcDbLine
 10
112.922854
 20
1135.749479
 30
0.0
 11
112.922854
 21
1154.749479
 31
0.0
  0
LINE
  5
101
330
7B
100
AcDbEntity
  8
0
  6
Continuous
 62
     0
370
    30
100
AcDbLine
 10
140.922854
 20
1135.749479
 30
0.0
 11
140.922854
 21
1187.749479
 31
0.0
  0
ARC
  5
102
330
7B
100
AcDbEntity
  8
0
  6
Continuous
 62
     0
370
    30
100
AcDbCircle
 10
114.922261
 20
1187.750071
 30
0.0
 40
1.999407612511978
100
AcDbArc
 50
89.991127
 51
180.016976
  0
ARC
  5
103
330
7B
100
AcDbEntity
  8
0
  6
Continuous
 62
     0
370
    30
100
AcDbCircle
 10
138.923446
 20
1187.750071
 30
0.0
 40
1.999407612512033
100
AcDbArc
 50
359.983024
 51
90.008873
  0
LINE
  5
104
330
7B
100
AcDbEntity
  8
0
  6
Continuous
 62
     0
370
    30
100
AcDbLine
 10
105.922853
 20
1170.749479
 30
0.0
 11
119.373019
 21
1170.749479
 31
0.0
  0
LINE
  5
105
330
7B
100
AcDbEntity
  8
0
  6
Continuous
 62
     0
370
    30
100
AcDbLine
 10
105.922853
 20
1154.749479
 30
0.0
 11
119.373019
 21
1154.749479
 31
0.0
  0
ARC
  5
106
330
7B
100
AcDbEntity
  8
0
  6
Continuous
 62
     0
370
    30
100
AcDbCircle
 10
105.418062
 20
1152.246113
 30
0.0
 40
1.003400836876642
100
AcDbArc
 50
90.038026
 51
179.796854
  0
ARC
  5
107
330
7B
100
AcDbEntity
  8
0
  6
Continuous
 62
     0
370
    30
100
AcDbCircle
 10
105.418062
 20
1173.252845
 30
0.0
 40
1.003400836876728
100
AcDbArc
 50
180.203146
 51
269.961974
  0
LINE
  5
108
330
7B
100
AcDbEntity
  8
0
  6
Continuous
 62
     0
370
    30
100
AcDbLine
 10
80.653184
 20
1147.510148
 30
0.0
 11
104.001492
 21
1151.627086
 31
0.0
  0
LINE
  5
109
330
7B
100
AcDbEntity
  8
0
  6
Continuous
 62
     0
370
    30
100
AcDbLine
 10
80.653184
 20
1177.98881
 30
0.0
 11
104.001492
 21
1173.871872
 31
0.0
  0
ARC
  5
10A
330
7B
100
AcDbEntity
  8
0
  6
Continuous
 62
     0
370
    30
100
AcDbCircle
 10
83.432847
 20
1131.75184
 30
0.0
 40
16.00158669547213
100
AcDbArc
 50
100.003693
 51
165.98004
  0
ARC
  5
10B
330
7B
100
AcDbEntity
  8
0
  6
Continuous
 62
     0
370
    30
100
AcDbCircle
 10
83.432847
 20
1193.747118
 30
0.0
 40
16.0015866954722
100
AcDbArc
 50
194.01996
 51
259.996307
  0
LINE
  5
10C
330
7B
100
AcDbEntity
  8
0
  6
Continuous
 62
     0
370
    30
100
AcDbLine
 10
60.922854
 20
1135.249481
 30
0.0
 11
67.422811
 21
1135.249481
 31
0.0
  0
LINE
  5
10D
330
7B
100
AcDbEntity
  8
0
  6
Continuous
 62
     0
370
    30
100
AcDbLine
 10
60.922854
 20
1190.249477
 30
0.0
 11
67.422811
 21
1190.249477
 31
0.0
  0
ENDBLK
  5
10F
330
7B
100
AcDbEntity
  8
0
100
AcDbBlockEnd
  0
BLOCK
  5
198
330
111
100
AcDbEntity
  8
0
100
AcDbBlockBegin
  2
b
 70
     0
 10
32.640823
 20
118.791321
 30
0.0
  3
b
  1

  0
LINE
  5
112
330
111
100
AcDbEntity
  8
0
  6
Continuous
 62
     0
370
    30
100
AcDbLine
 10
60.922854
 20
109.281861
 30
0.0
 11
60.922854
 21
164.281856
 31
0.0
  0
LINE
  5
113
330
111
100
AcDbEntity
  8
0
  6
Continuous
 62
     0
370
    30
100
AcDbLine
 10
60.922854
 20
109.281861
 30
0.0
 11
67.422811
 21
109.281861
 31
0.0
  0
LINE
  5
114
330
111
100
AcDbEntity
  8
0
  6
Continuous
 62
     0
370
     0
100
AcDbLine
 10
67.422811
 20
109.281861
 30
0.0
 11
67.422811
 21
164.281856
 31
0.0
  0
ARC
  5
115
330
111
100
AcDbEntity
  8
0
  6
Continuous
 62
     0
370
    30
100
AcDbCircle
 10
67.422811
 20
109.781861
 30
0.0
 40
0.499999999998
100
AcDbArc
 50
270.000003
 51
345.983729
  0
LINE
  5
116
330
111
100
AcDbEntity
  8
0
  6
Continuous
 62
     0
370
     0
100
AcDbLine
 10
67.907925
 20
109.660762
 30
0.0
 11
67.907925
 21
163.902955
 31
0.0
  0
ARC
  5
117
330
111
100
AcDbEntity
  8
0
  6
Continuous
 62
     0
370
    30
100
AcDbCircle
 10
83.431557
 20
105.785603
 30
0.0
 40
15.999999999936
100
AcDbArc
 50
100.000005
 51
165.983729
  0
LINE
  5
118
330
111
100
AcDbEntity
  8
0
  6
Continuous
 62
     0
370
     0
100
AcDbLine
 10
80.653184
 20
121.542527
 30
0.0
 11
80.653184
 21
152.02119
 31
0.0
  0
LINE
  5
119
330
111
100
AcDbEntity
  8
0
  6
Continuous
 62
     0
370
    30
100
AcDbLine
 10
80.653184
 20
121.542527
 30
0.0
 11
104.001492
 21
125.659466
 31
0.0
  0
LINE
  5
11A
330
111
100
AcDbEntity
  8
0
  6
Continuous
 62
     0
370
     0
100
AcDbLine
 10
104.001492
 20
125.659466
 30
0.0
 11
104.001492
 21
147.904251
 31
0.0
  0
ARC
  5
11B
330
111
100
AcDbEntity
  8
0
  6
Continuous
 62
     0
370
    30
100
AcDbCircle
 10
103.914668
 20
126.15187
 30
0.0
 40
0.499999999998001
100
AcDbArc
 50
280.000005
 51
0.000003
  0
LINE
  5
11C
330
111
100
AcDbEntity
  8
0
  6
Continuous
 62
     0
370
    30
100
AcDbLine
 10
104.414668
 20
126.15187
 30
0.0
 11
104.414668
 21
147.411847
 31
0.0
  0
ARC
  5
11D
330
111
100
AcDbEntity
  8
0
  6
Continuous
 62
     0
370
    30
100
AcDbCircle
 10
105.414668
 20
126.281897
 30
0.0
 40
0.999999999995999
100
AcDbArc
 50
89.843662
 51
180.000003
  0
LINE
  5
11E
330
111
100
AcDbEntity
  8
0
  6
Continuous
 62
     0
370
     0
100
AcDbLine
 10
105.417396
 20
127.281893
 30
0.0
 11
105.417396
 21
146.281824
 31
0.0
  0
ARC
  5
11F
330
111
100
AcDbEntity
  8
0
  6
Continuous
 62
     0
370
    30
100
AcDbCircle
 10
105.422853
 20
127.781864
 30
0.0
 40
0.499999999998
100
AcDbArc
 50
269.374637
 51
0.000003
  0
LINE
  5
120
330
111
100
AcDbEntity
  8
0
  6
Continuous
 62
     0
370
    30
100
AcDbLine
 10
105.922853
 20
127.781864
 30
0.0
 11
105.922853
 21
145.781853
 31
0.0
  0
LINE
  5
121
330
111
100
AcDbEntity
  8
0
  6
Continuous
 62
     0
370
    30
100
AcDbLine
 10
105.922853
 20
128.781859
 30
0.0
 11
105.922853
 21
127.781864
 31
0.0
  0
LINE
  5
122
330
111
100
AcDbEntity
  8
0
  6
Continuous
 62
     0
370
    30
100
AcDbLine
 10
105.922853
 20
145.781853
 30
0.0
 11
105.922853
 21
144.781859
 31
0.0
  0
LINE
  5
123
330
111
100
AcDbEntity
  8
0
  6
Continuous
 62
     0
370
    30
100
AcDbLine
 10
60.922853
 20
861.281828
 30
0.0
 11
60.922853
 21
916.281823
 31
0.0
  0
LINE
  5
124
330
111
100
AcDbEntity
  8
0
  6
Continuous
 62
     0
370
    30
100
AcDbLine
 10
60.922853
 20
861.281828
 30
0.0
 11
67.42281
 21
861.281828
 31
0.0
  0
LINE
  5
125
330
111
100
AcDbEntity
  8
0
  6
Continuous
 62
     0
370
     0
100
AcDbLine
 10
67.42281
 20
861.281828
 30
0.0
 11
67.42281
 21
916.281823
 31
0.0
  0
ARC
  5
126
330
111
100
AcDbEntity
  8
0
  6
Continuous
 62
     0
370
    30
100
AcDbCircle
 10
67.42281
 20
861.781828
 30
0.0
 40
0.499999999998
100
AcDbArc
 50
270.000003
 51
345.983729
  0
LINE
  5
127
330
111
100
AcDbEntity
  8
0
  6
Continuous
 62
     0
370
     0
100
AcDbLine
 10
67.907924
 20
861.660729
 30
0.0
 11
67.907924
 21
915.902922
 31
0.0
  0
ARC
  5
128
330
111
100
AcDbEntity
  8
0
  6
Continuous
 62
     0
370
    30
100
AcDbCircle
 10
83.431555
 20
857.78557
 30
0.0
 40
15.999999999936
100
AcDbArc
 50
100.000005
 51
165.983729
  0
LINE
  5
129
330
111
100
AcDbEntity
  8
0
  6
Continuous
 62
     0
370
     0
100
AcDbLine
 10
80.653183
 20
873.542494
 30
0.0
 11
80.653183
 21
904.021157
 31
0.0
  0
LINE
  5
12A
330
111
100
AcDbEntity
  8
0
  6
Continuous
 62
     0
370
    30
100
AcDbLine
 10
80.653183
 20
873.542494
 30
0.0
 11
104.001491
 21
877.659433
 31
0.0
  0
LINE
  5
12B
330
111
100
AcDbEntity
  8
0
  6
Continuous
 62
     0
370
     0
100
AcDbLine
 10
104.001491
 20
877.659433
 30
0.0
 11
104.001491
 21
899.904218
 31
0.0
  0
ARC
  5
12C
330
111
100
AcDbEntity
  8
0
  6
Continuous
 62
     0
370
    30
100
AcDbCircle
 10
103.914666
 20
878.151837
 30
0.0
 40
0.499999999998001
100
AcDbArc
 50
280.000005
 51
0.000003
  0
LINE
  5
12D
330
111
100
AcDbEntity
  8
0
  6
Continuous
 62
     0
370
    30
100
AcDbLine
 10
104.414666
 20
878.151837
 30
0.0
 11
104.414666
 21
899.411814
 31
0.0
  0
ARC
  5
12E
330
111
100
AcDbEntity
  8
0
  6
Continuous
 62
     0
370
    30
100
AcDbCircle
 10
105.414666
 20
878.281864
 30
0.0
 40
0.999999999995999
100
AcDbArc
 50
89.843662
 51
180.000003
  0
LINE
  5
12F
330
111
100
AcDbEntity
  8
0
  6
Continuous
 62
     0
370
     0
100
AcDbLine
 10
105.417395
 20
879.28186
 30
0.0
 11
105.417395
 21
898.281791
 31
0.0
  0
ARC
  5
130
330
111
100
AcDbEntity
  8
0
  6
Continuous
 62
     0
370
    30
100
AcDbCircle
 10
105.422852
 20
879.781831
 30
0.0
 40
0.499999999998
100
AcDbArc
 50
269.374637
 51
0.000003
  0
LINE
  5
131
330
111
100
AcDbEntity
  8
0
  6
Continuous
 62
     0
370
    30
100
AcDbLine
 10
105.922852
 20
879.781831
 30
0.0
 11
105.922852
 21
897.78182
 31
0.0
  0
LINE
  5
132
330
111
100
AcDbEntity
  8
0
  6
Continuous
 62
     0
370
    30
100
AcDbLine
 10
105.922852
 20
880.781826
 30
0.0
 11
105.922852
 21
879.781831
 31
0.0
  0
LINE
  5
133
330
111
100
AcDbEntity
  8
0
  6
Continuous
 62
     0
370
    30
100
AcDbLine
 10
105.922852
 20
897.78182
 30
0.0
 11
105.922852
 21
896.781826
 31
0.0
  0
LWPOLYLINE
  5
134
330
111
100
AcDbEntity
  8
0
  6
Continuous
 62
     0
370
    30
100
AcDbPolyline
 90
       20
 70
     0
 43
0.0
 10
126.922852
 20
99.78186
 10
127.752876
 20
99.804665
 10
128.601807
 20
99.875595
 10
129.46228
 20
99.997955
 10
130.325912
 20
100.174324
 10
131.183411
 20
100.406303
 10
132.024887
 20
100.694427
 10
132.840164
 20
101.037979
 10
133.619064
 20
101.434937
 10
134.351913
 20
101.882019
 10
135.029816
 20
102.374687
 10
135.645096
 20
102.907364
 10
136.191498
 20
103.473595
 10
136.66449
 20
104.06633
 10
137.061295
 20
104.678185
 10
137.380905
 20
105.301758
 10
137.624039
 20
105.92984
 10
137.792877
 20
106.555687
 10
137.890976
 20
107.17318
 10
137.922852
 20
107.78186
  0
LINE
  5
135
330
111
100
AcDbEntity
  8
0
  6
Continuous
 62
     0
370
     0
100
AcDbLine
 10
137.922854
 20
107.781858
 30
0.0
 11
115.922854
 21
107.781858
 31
0.0
  0
ARC
  5
136
330
111
100
AcDbEntity
  8
0
  6
Continuous
 62
     0
370
    30
100
AcDbCircle
 10
132.193517
 20
108.025319
 30
0.0
 40
5.734507389320955
100
AcDbArc
 50
357.566759
 51
35.589905
  0
LINE
  5
137
330
111
100
AcDbEntity
  8
0
  6
Continuous
 62
     0
370
     0
100
AcDbLine
 10
136.856837
 20
111.362686
 30
0.0
 11
116.98887
 21
111.362686
 31
0.0
  0
ARC
  5
138
330
111
100
AcDbEntity
  8
0
  6
Continuous
 62
     0
370
    30
100
AcDbCircle
 10
140.922854
 20
114.272584
 30
0.0
 40
4.999999999980001
100
AcDbArc
 50
180.0
 51
215.589905
  0
LINE
  5
139
330
111
100
AcDbEntity
  8
0
  6
Continuous
 62
     0
370
     0
100
AcDbLine
 10
135.922854
 20
114.272584
 30
0.0
 11
117.922854
 21
114.272584
 31
0.0
  0
LINE
  5
13A
330
111
100
AcDbEntity
  8
0
  6
Continuous
 62
     0
370
     0
100
AcDbLine
 10
117.922854
 20
911.2911
 30
0.0
 11
135.922854
 21
911.2911
 31
0.0
  0
ARC
  5
13B
330
111
100
AcDbEntity
  8
0
  6
Continuous
 62
     0
370
    30
100
AcDbCircle
 10
140.922854
 20
911.2911
 30
0.0
 40
4.999999999980001
100
AcDbArc
 50
144.410095
 51
180.0
  0
LINE
  5
13C
330
111
100
AcDbEntity
  8
0
  6
Continuous
 62
     0
370
     0
100
AcDbLine
 10
136.856837
 20
914.200998
 30
0.0
 11
116.98887
 21
914.200998
 31
0.0
  0
ARC
  5
13D
330
111
100
AcDbEntity
  8
0
  6
Continuous
 62
     0
370
    30
100
AcDbCircle
 10
132.193517
 20
917.538365
 30
0.0
 40
5.734507389320955
100
AcDbArc
 50
324.410095
 51
2.433241
  0
LINE
  5
13E
330
111
100
AcDbEntity
  8
0
  6
Continuous
 62
     0
370
     0
100
AcDbLine
 10
137.922854
 20
917.781825
 30
0.0
 11
115.922854
 21
917.781825
 31
0.0
  0
LWPOLYLINE
  5
13F
330
111
100
AcDbEntity
  8
0
  6
Continuous
 62
     0
370
    30
100
AcDbPolyline
 90
       20
 70
     0
 43
0.0
 10
137.922852
 20
917.781799
 10
137.891495
 20
918.385498
 10
137.793961
 20
919.002869
 10
137.625717
 20
919.628662
 10
137.383224
 20
920.256775
 10
137.06424
 20
920.880432
 10
136.668076
 20
921.492371
 10
136.195694
 20
922.085327
 10
135.649872
 20
922.651794
 10
135.035141
 20
923.184753
 10
134.357712
 20
923.677795
 10
133.62529
 20
924.125244
 10
132.846725
 20
924.522644
 10
132.031708
 20
924.866638
 10
131.190399
 20
925.155212
 10
130.332993
 20
925.387695
 10
129.469376
 20
925.564514
 10
128.608841
 20
925.687317
 10
127.759789
 20
925.758606
 10
126.922852
 20
925.781799
  0
LINE
  5
140
330
111
100
AcDbEntity
  8
0
  6
Continuous
 62
     0
370
    30
100
AcDbLine
 10
135.922854
 20
114.272584
 30
0.0
 11
135.922854
 21
565.136238
 31
0.0
  0
LWPOLYLINE
  5
141
330
111
100
AcDbEntity
  8
0
  6
Continuous
 62
     0
370
    30
100
AcDbPolyline
 90
       51
 70
     0
 43
0.0
 10
117.922852
 20
144.78186
 10
117.939323
 20
144.763031
 10
117.988884
 20
144.706665
 10
118.071632
 20
144.613052
 10
118.185806
 20
144.483963
 10
118.328346
 20
144.32225
 10
118.496185
 20
144.130722
 10
118.686226
 20
143.912231
 10
118.895538
 20
143.669464
 10
119.121819
 20
143.404282
 10
119.362968
 20
143.118317
 10
119.616913
 20
142.813202
 10
119.881439
 20
142.49025
 10
120.15419
 20
142.150314
 10
120.432823
 20
141.794235
 10
120.714935
 20
141.422775
 10
120.997978
 20
141.036179
 10
121.279312
 20
140.634415
 10
121.556305
 20
140.217484
 10
121.824928
 20
139.7845
 10
122.07795
 20
139.332611
 10
122.307632
 20
138.858688
 10
122.506073
 20
138.35994
 10
122.662682
 20
137.839294
 10
122.764801
 20
137.304062
 10
122.799683
 20
136.761673
 10
122.759354
 20
136.219559
 10
122.65274
 20
135.685165
 10
122.492584
 20
135.165894
 10
122.291527
 20
134.668991
 10
122.059875
 20
134.196793
 10
121.80545
 20
133.746414
 10
121.535957
 20
133.314713
 10
121.258492
 20
132.898956
 10
120.976868
 20
132.498383
 10
120.693771
 20
132.112961
 10
120.411896
 20
131.742645
 10
120.133759
 20
131.387695
 10
119.861641
 20
131.048904
 10
119.597786
 20
130.727051
 10
119.344467
 20
130.423035
 10
119.104042
 20
130.138367
 10
118.878929
 20
129.874908
 10
118.671555
 20
129.634552
 10
118.48439
 20
129.419281
 10
118.320045
 20
129.231491
 10
118.18116
 20
129.073639
 10
118.070312
 20
128.948135
 10
117.989426
 20
128.856796
 10
117.939827
 20
128.800934
 10
117.922852
 20
128.78186
  0
LINE
  5
142
330
111
100
AcDbEntity
  8
0
  6
Continuous
 62
     0
370
    30
100
AcDbLine
 10
135.922854
 20
911.2911
 30
0.0
 11
135.922854
 21
586.583848
 31
0.0
  0
LWPOLYLINE
  5
143
330
111
100
AcDbEntity
  8
0
  6
Continuous
 62
     0
370
    30
100
AcDbPolyline
 90
       51
 70
     0
 43
0.0
 10
117.922852
 20
896.781799
 10
117.939323
 20
896.763
 10
117.988884
 20
896.706604
 10
118.071632
 20
896.613037
 10
118.185806
 20
896.483948
 10
118.328346
 20
896.322205
 10
118.496185
 20
896.130676
 10
118.686226
 20
895.912231
 10
118.895538
 20
895.669434
 10
119.121819
 20
895.404236
 10
119.362968
 20
895.118286
 10
119.616913
 20
894.813171
 10
119.881439
 20
894.490234
 10
120.15419
 20
894.150269
 10
120.432823
 20
893.794189
 10
120.714935
 20
893.422729
 10
120.997978
 20
893.036133
 10
121.279312
 20
892.634399
 10
121.556305
 20
892.217468
 10
121.824928
 20
891.784485
 10
122.07795
 20
891.332581
 10
122.307632
 20
890.858643
 10
122.506073
 20
890.359924
 10
122.662682
 20
889.839294
 10
122.764801
 20
889.304016
 10
122.799683
 20
888.761658
 10
122.759354
 20
888.219543
 10
122.65274
 20
887.68512
 10
122.492584
 20
887.165833
 10
122.291527
 20
886.668945
 10
122.059875
 20
886.196777
 10
121.80545
 20
885.746399
 10
121.535957
 20
885.314697
 10
121.258492
 20
884.898926
 10
120.976868
 20
884.498352
 10
120.693771
 20
884.112915
 10
120.411896
 20
883.742615
 10
120.133759
 20
883.387695
 10
119.861641
 20
883.048889
 10
119.597786
 20
882.72699
 10
119.344467
 20
882.422974
 10
119.104042
 20
882.138306
 10
118.878929
 20
881.874878
 10
118.671555
 20
881.634521
 10
118.48439
 20
881.41925
 10
118.320045
 20
881.231445
 10
118.18116
 20
881.073608
 10
118.070312
 20
880.94812
 10
117.989426
 20
880.85675
 10
117.939827
 20
880.800903
 10
117.922852
 20
880.781799
  0
LINE
  5
144
330
111
100
AcDbEntity
  8
0
  6
Continuous
 62
     0
370
    30
100
AcDbLine
 10
117.922854
 20
896.781825
 30
0.0
 11
105.922852
 21
896.781825
 31
0.0
  0
LINE
  5
145
330
111
100
AcDbEntity
  8
0
  6
Continuous
 62
     0
370
    30
100
AcDbLine
 10
105.922853
 20
144.781858
 30
0.0
 11
117.922854
 21
144.781858
 31
0.0
  0
ARC
  5
146
330
111
100
AcDbEntity
  8
0
  6
Continuous
 62
     0
370
     0
100
AcDbCircle
 10
126.922854
 20
575.860042
 30
0.0
 40
11.99999999995189
100
AcDbArc
 50
90.0
 51
138.189685
  0
ARC
  5
147
330
111
100
AcDbEntity
  8
0
  6
Continuous
 62
     0
370
     0
100
AcDbCircle
 10
126.922854
 20
575.860042
 30
0.0
 40
11.99999999995189
100
AcDbArc
 50
221.810315
 51
270.0
  0
ARC
  5
148
330
111
100
AcDbEntity
  8
0
  6
Continuous
 62
     0
370
     0
100
AcDbCircle
 10
126.922854
 20
575.860042
 30
0.0
 40
11.99999999995189
100
AcDbArc
 50
270.0
 51
318.189685
  0
ARC
  5
149
330
111
100
AcDbEntity
  8
0
  6
Continuous
 62
     0
370
     0
100
AcDbCircle
 10
126.922854
 20
575.860042
 30
0.0
 40
11.99999999995189
100
AcDbArc
 50
41.810315
 51
90.0
  0
ARC
  5
14A
330
111
100
AcDbEntity
  8
0
  6
Continuous
 62
     0
370
    30
100
AcDbCircle
 10
126.922854
 20
575.860042
 30
0.0
 40
13.99999999994392
100
AcDbArc
 50
90.0
 51
145.150095
  0
ARC
  5
14B
330
111
100
AcDbEntity
  8
0
  6
Continuous
 62
     0
370
    30
100
AcDbCircle
 10
126.922854
 20
575.860042
 30
0.0
 40
13.99999999994392
100
AcDbArc
 50
214.849905
 51
270.0
  0
ARC
  5
14C
330
111
100
AcDbEntity
  8
0
  6
Continuous
 62
     0
370
    30
100
AcDbCircle
 10
126.922854
 20
575.860042
 30
0.0
 40
13.99999999994392
100
AcDbArc
 50
270.0
 51
325.150095
  0
ARC
  5
14D
330
111
100
AcDbEntity
  8
0
  6
Continuous
 62
     0
370
    30
100
AcDbCircle
 10
126.922854
 20
575.860042
 30
0.0
 40
13.99999999994392
100
AcDbArc
 50
34.849905
 51
90.0
  0
LINE
  5
14E
330
111
100
AcDbEntity
  8
0
  6
Continuous
 62
     0
370
     0
100
AcDbLine
 10
153.453751
 20
580.689044
 30
0.0
 11
153.366865
 21
570.49116
 31
0.0
  0
LINE
  5
14F
330
111
100
AcDbEntity
  8
0
  6
Continuous
 62
     0
370
     0
100
AcDbLine
 10
149.210675
 20
579.011747
 30
0.0
 11
149.15324
 21
572.270519
 31
0.0
  0
LINE
  5
150
330
111
100
AcDbEntity
  8
0
  6
Continuous
 62
     0
370
     0
100
AcDbLine
 10
148.843217
 20
579.014878
 30
0.0
 11
148.785782
 21
572.27365
 31
0.0
  0
LINE
  5
151
330
111
100
AcDbEntity
  8
0
  6
Continuous
 62
     0
370
    30
100
AcDbLine
 10
147.951558
 20
579.997684
 30
0.0
 11
147.877362
 21
571.289123
 31
0.0
  0
LINE
  5
152
330
111
100
AcDbEntity
  8
0
  6
Continuous
 62
     0
370
     0
100
AcDbLine
 10
144.768017
 20
580.298757
 30
0.0
 11
144.689112
 21
571.037515
 31
0.0
  0
LINE
  5
153
330
111
100
AcDbEntity
  8
0
  6
Continuous
 62
     0
370
     0
100
AcDbLine
 10
143.076755
 20
581.232534
 30
0.0
 11
142.982048
 21
570.116588
 31
0.0
  0
LINE
  5
154
330
111
100
AcDbEntity
  8
0
  6
Continuous
 62
     0
370
     0
100
AcDbLine
 10
100.391957
 20
571.031046
 30
0.0
 11
100.478842
 21
581.22893
 31
0.0
  0
LINE
  5
155
330
111
100
AcDbEntity
  8
0
  6
Continuous
 62
     0
370
     0
100
AcDbLine
 10
104.635032
 20
572.708343
 30
0.0
 11
104.692467
 21
579.449571
 31
0.0
  0
LINE
  5
156
330
111
100
AcDbEntity
  8
0
  6
Continuous
 62
     0
370
     0
100
AcDbLine
 10
105.00249
 20
572.705212
 30
0.0
 11
105.059925
 21
579.44644
 31
0.0
  0
LINE
  5
157
330
111
100
AcDbEntity
  8
0
  6
Continuous
 62
     0
370
    30
100
AcDbLine
 10
105.894149
 20
571.722406
 30
0.0
 11
105.968346
 21
580.430967
 31
0.0
  0
LINE
  5
158
330
111
100
AcDbEntity
  8
0
  6
Continuous
 62
     0
370
     0
100
AcDbLine
 10
109.07769
 20
571.421333
 30
0.0
 11
109.156596
 21
580.682575
 31
0.0
  0
LINE
  5
159
330
111
100
AcDbEntity
  8
0
  6
Continuous
 62
     0
370
     0
100
AcDbLine
 10
110.768952
 20
570.487556
 30
0.0
 11
110.863659
 21
581.603502
 31
0.0
  0
ARC
  5
15A
330
111
100
AcDbEntity
  8
0
  6
Continuous
 62
     0
370
     0
100
AcDbCircle
 10
126.922874
 20
575.860029
 30
0.0
 40
14.51030692388414
100
AcDbArc
 50
33.458533
 51
51.6658
  0
ARC
  5
15B
330
111
100
AcDbEntity
  8
0
  6
Continuous
 62
     0
370
     0
100
AcDbCircle
 10
126.922874
 20
575.860029
 30
0.0
 40
14.51030692388386
100
AcDbArc
 50
128.334406
 51
146.541467
  0
ARC
  5
15C
330
111
100
AcDbEntity
  8
0
  6
Continuous
 62
     0
370
     0
100
AcDbCircle
 10
126.922874
 20
575.860029
 30
0.0
 40
14.51030692388762
100
AcDbArc
 50
213.458383
 51
231.665594
  0
ARC
  5
15D
330
111
100
AcDbEntity
  8
0
  6
Continuous
 62
     0
370
     0
100
AcDbCircle
 10
126.922874
 20
575.860029
 30
0.0
 40
14.51030692388449
100
AcDbArc
 50
308.3342
 51
326.541617
  0
ARC
  5
15E
330
111
100
AcDbEntity
  8
0
  6
Continuous
 62
     0
370
     0
100
AcDbCircle
 10
126.922874
 20
575.860029
 30
0.0
 40
14.17891376171544
100
AcDbArc
 50
34.348091
 51
50.599005
  0
ARC
  5
15F
330
111
100
AcDbEntity
  8
0
  6
Continuous
 62
     0
370
     0
100
AcDbCircle
 10
126.922874
 20
575.860029
 30
0.0
 40
14.17891376171277
100
AcDbArc
 50
129.401209
 51
145.651909
  0
ARC
  5
160
330
111
100
AcDbEntity
  8
0
  6
Continuous
 62
     0
370
     0
100
AcDbCircle
 10
126.922874
 20
575.860029
 30
0.0
 40
14.1789137617134
100
AcDbArc
 50
214.347936
 51
230.598791
  0
ARC
  5
161
330
111
100
AcDbEntity
  8
0
  6
Continuous
 62
     0
370
     0
100
AcDbCircle
 10
126.922874
 20
575.860029
 30
0.0
 40
14.17891376172048
100
AcDbArc
 50
309.400995
 51
325.652064
  0
LINE
  5
162
330
111
100
AcDbEntity
  8
0
  6
Continuous
 62
     0
370
    30
100
AcDbLine
 10
118.422854
 20
567.860041
 30
0.0
 11
135.422854
 21
567.860041
 31
0.0
  0
LINE
  5
163
330
111
100
AcDbEntity
  8
0
  6
Continuous
 62
     0
370
    30
100
AcDbLine
 10
110.922854
 20
567.860041
 30
0.0
 11
118.422854
 21
567.860041
 31
0.0
  0
LINE
  5
164
330
111
100
AcDbEntity
  8
0
  6
Continuous
 62
     0
370
    30
100
AcDbLine
 10
135.422854
 20
567.860041
 30
0.0
 11
142.922854
 21
567.860041
 31
0.0
  0
LINE
  5
165
330
111
100
AcDbEntity
  8
0
  6
Continuous
 62
     0
370
    30
100
AcDbLine
 10
142.922854
 20
583.860041
 30
0.0
 11
135.422854
 21
583.860041
 31
0.0
  0
LINE
  5
166
330
111
100
AcDbEntity
  8
0
  6
Continuous
 62
     0
370
    30
100
AcDbLine
 10
118.422854
 20
583.860041
 30
0.0
 11
110.922854
 21
583.860041
 31
0.0
  0
LINE
  5
167
330
111
100
AcDbEntity
  8
0
  6
Continuous
 62
     0
370
    30
100
AcDbLine
 10
135.422854
 20
583.860041
 30
0.0
 11
118.422854
 21
583.860041
 31
0.0
  0
LINE
  5
168
330
111
100
AcDbEntity
  8
0
  6
Continuous
 62
     0
370
    30
100
AcDbLine
 10
118.422854
 20
583.86004
 30
0.0
 11
118.422854
 21
567.86004
 31
0.0
  0
LINE
  5
169
330
111
100
AcDbEntity
  8
0
  6
Continuous
 62
     0
370
    30
100
AcDbLine
 10
135.422854
 20
567.86004
 30
0.0
 11
135.422854
 21
583.86004
 31
0.0
  0
LINE
  5
16A
330
111
100
AcDbEntity
  8
0
  6
Continuous
 62
     0
370
    30
100
AcDbLine
 10
142.922854
 20
567.860041
 30
0.0
 11
142.922854
 21
583.860041
 31
0.0
  0
LINE
  5
16B
330
111
100
AcDbEntity
  8
0
  6
Continuous
 62
     0
370
    30
100
AcDbLine
 10
110.922854
 20
567.860041
 30
0.0
 11
110.922854
 21
583.860041
 31
0.0
  0
ARC
  5
16C
330
111
100
AcDbEntity
  8
0
  6
Continuous
 62
     0
370
    30
100
AcDbCircle
 10
126.953407
 20
575.835491
 30
0.0
 40
15.63875196192564
100
AcDbArc
 50
125.271192
 51
149.128136
  0
ARC
  5
16D
330
111
100
AcDbEntity
  8
0
  6
Continuous
 62
     0
370
    30
100
AcDbCircle
 10
126.944896
 20
575.877953
 30
0.0
 40
15.62807450371519
100
AcDbArc
 50
210.86688
 51
234.739341
  0
ARC
  5
16E
330
111
100
AcDbEntity
  8
0
  6
Continuous
 62
     0
370
    30
100
AcDbCircle
 10
126.900857
 20
575.842109
 30
0.0
 40
15.62806843225871
100
AcDbArc
 50
30.867013
 51
54.73953
  0
ARC
  5
16F
330
111
100
AcDbEntity
  8
0
  6
Continuous
 62
     0
370
    30
100
AcDbCircle
 10
126.979382
 20
575.801198
 30
0.0
 40
15.51924409574925
100
AcDbArc
 50
305.18951
 51
329.223056
  0
ARC
  5
170
330
111
100
AcDbEntity
  8
0
  6
Continuous
 62
     0
370
    30
100
AcDbCircle
 10
108.846999
 20
568.951092
 30
0.0
 40
2.400879582869307
100
AcDbArc
 50
36.852893
 51
84.502582
  0
ARC
  5
171
330
111
100
AcDbEntity
  8
0
  6
Continuous
 62
     0
370
    30
100
AcDbCircle
 10
108.967342
 20
583.075984
 30
0.0
 40
2.400879582870138
100
AcDbArc
 50
274.521127
 51
322.170816
  0
LINE
  5
172
330
111
100
AcDbEntity
  8
0
  6
Continuous
 62
     0
370
    30
100
AcDbLine
 10
105.968346
 20
580.430991
 30
0.0
 11
109.156596
 21
580.682575
 31
0.0
  0
LINE
  5
173
330
111
100
AcDbEntity
  8
0
  6
Continuous
 62
     0
370
    30
100
AcDbLine
 10
105.893505
 20
571.646801
 30
0.0
 11
109.077005
 21
571.340929
 31
0.0
  0
ARC
  5
174
330
111
100
AcDbEntity
  8
0
  6
Continuous
 62
     0
370
    30
100
AcDbCircle
 10
105.067358
 20
580.346646
 30
0.0
 40
0.9002366628866865
100
AcDbArc
 50
269.526915
 51
359.496794
  0
ARC
  5
175
330
111
100
AcDbEntity
  8
0
  6
Continuous
 62
     0
370
    30
100
AcDbCircle
 10
104.994085
 20
571.746485
 30
0.0
 40
0.900236662890852
100
AcDbArc
 50
359.526915
 51
89.496794
  0
ARC
  5
176
330
111
100
AcDbEntity
  8
0
  6
Continuous
 62
     0
370
    30
100
AcDbCircle
 10
104.744524
 20
585.451577
 30
0.0
 40
6.002231827881713
100
AcDbArc
 50
224.709517
 51
269.503071
  0
ARC
  5
177
330
111
100
AcDbEntity
  8
0
  6
Continuous
 62
     0
370
    30
100
AcDbCircle
 10
104.584317
 20
566.647796
 30
0.0
 40
6.002231827881429
100
AcDbArc
 50
89.520638
 51
134.314192
  0
ARC
  5
178
330
111
100
AcDbEntity
  8
0
  6
Continuous
 62
     0
370
    30
100
AcDbCircle
 10
95.326149
 20
576.127928
 30
0.0
 40
7.250549299483702
100
AcDbArc
 50
44.711159
 51
179.488712
  0
ARC
  5
179
330
111
100
AcDbEntity
  8
0
  6
Continuous
 62
     0
370
    30
100
AcDbCircle
 10
95.326171
 20
576.130567
 30
0.0
 40
7.250549299757793
100
AcDbArc
 50
179.534997
 51
314.31255
  0
ARC
  5
17A
330
111
100
AcDbEntity
  8
0
  6
Continuous
 62
     0
370
    30
100
AcDbCircle
 10
144.878365
 20
568.644106
 30
0.0
 40
2.400879582867052
100
AcDbArc
 50
94.521127
 51
142.170816
  0
ARC
  5
17B
330
111
100
AcDbEntity
  8
0
  6
Continuous
 62
     0
370
    30
100
AcDbCircle
 10
144.998709
 20
582.768998
 30
0.0
 40
2.400879582868139
100
AcDbArc
 50
216.852893
 51
264.502582
  0
LINE
  5
17C
330
111
100
AcDbEntity
  8
0
  6
Continuous
 62
     0
370
    30
100
AcDbLine
 10
147.952202
 20
580.073289
 30
0.0
 11
144.768702
 21
580.379161
 31
0.0
  0
LINE
  5
17D
330
111
100
AcDbEntity
  8
0
  6
Continuous
 62
     0
370
    30
100
AcDbLine
 10
144.689112
 20
571.037515
 30
0.0
 11
147.877361
 21
571.289099
 31
0.0
  0
ARC
  5
17E
330
111
100
AcDbEntity
  8
0
  6
Continuous
 62
     0
370
    30
100
AcDbCircle
 10
148.851622
 20
579.973605
 30
0.0
 40
0.9002366628882688
100
AcDbArc
 50
179.526915
 51
269.496794
  0
ARC
  5
17F
330
111
100
AcDbEntity
  8
0
  6
Continuous
 62
     0
370
    30
100
AcDbCircle
 10
148.778463
 20
571.373329
 30
0.0
 40
0.9003511188100006
100
AcDbArc
 50
89.534191
 51
179.481415
  0
ARC
  5
180
330
111
100
AcDbEntity
  8
0
  6
Continuous
 62
     0
370
    30
100
AcDbCircle
 10
149.261391
 20
585.072294
 30
0.0
 40
6.002231827880827
100
AcDbArc
 50
269.520638
 51
314.314192
  0
ARC
  5
181
330
111
100
AcDbEntity
  8
0
  6
Continuous
 62
     0
370
    30
100
AcDbCircle
 10
149.101184
 20
566.268513
 30
0.0
 40
6.002231827879689
100
AcDbArc
 50
44.709517
 51
89.503071
  0
ARC
  5
182
330
111
100
AcDbEntity
  8
0
  6
Continuous
 62
     0
370
    30
100
AcDbCircle
 10
158.519559
 20
575.592162
 30
0.0
 40
7.250549299898969
100
AcDbArc
 50
224.711159
 51
359.488712
  0
ARC
  5
183
330
111
100
AcDbEntity
  8
0
  6
Continuous
 62
     0
370
    30
100
AcDbCircle
 10
158.519536
 20
575.589523
 30
0.0
 40
7.250549299856747
100
AcDbArc
 50
359.534997
 51
134.31255
  0
LINE
  5
184
330
111
100
AcDbEntity
  8
0
  6
Continuous
 62
     0
370
    30
100
AcDbLine
 10
105.922853
 20
128.781858
 30
0.0
 11
117.922854
 21
128.781858
 31
0.0
  0
LINE
  5
185
330
111
100
AcDbEntity
  8
0
  6
Continuous
 62
     0
370
    30
100
AcDbLine
 10
105.922852
 20
880.781825
 30
0.0
 11
117.922854
 21
880.781825
 31
0.0
  0
LINE
  5
186
330
111
100
AcDbEntity
  8
0
  6
Continuous
 62
     0
370
    30
100
AcDbLine
 10
117.922854
 20
586.583785
 30
0.0
 11
117.922854
 21
880.78182
 31
0.0
  0
LINE
  5
187
330
111
100
AcDbEntity
  8
0
  6
Continuous
 62
     0
370
    30
100
AcDbLine
 10
117.922854
 20
896.781825
 30
0.0
 11
117.922854
 21
911.2911
 31
0.0
  0
LINE
  5
188
330
111
100
AcDbEntity
  8
0
  6
Continuous
 62
     0
370
    30
100
AcDbLine
 10
117.922854
 20
114.272584
 30
0.0
 11
117.922854
 21
128.781853
 31
0.0
  0
LINE
  5
189
330
111
100
AcDbEntity
  8
0
  6
Continuous
 62
     0
370
    30
100
AcDbLine
 10
117.922854
 20
144.781858
 30
0.0
 11
117.922854
 21
565.13597
 31
0.0
  0
LWPOLYLINE
  5
18A
330
111
100
AcDbEntity
  8
0
  6
Continuous
 62
     0
370
    30
100
AcDbPolyline
 90
       23
 70
     0
 43
0.0
 10
126.919739
 20
925.781799
 10
126.241585
 20
925.766602
 10
125.562569
 20
925.720825
 10
124.884796
 20
925.644043
 10
124.210388
 20
925.535767
 10
123.541451
 20
925.395569
 10
122.880104
 20
925.222961
 10
122.228455
 20
925.017395
 10
121.588615
 20
924.778503
 10
120.9627
 20
924.505737
 10
120.353119
 20
924.198486
 10
119.763214
 20
923.855835
 10
119.19648
 20
923.476685
 10
118.656448
 20
923.059937
 10
118.146828
 20
922.604675
 10
117.673302
 20
922.111511
 10
117.242645
 20
921.581848
 10
116.861626
 20
921.01709
 10
116.537033
 20
920.41864
 10
116.275566
 20
919.788269
 10
116.08284
 20
919.132202
 10
115.963676
 20
918.460266
 10
115.922852
 20
917.781799
  0
ARC
  5
18B
330
111
100
AcDbEntity
  8
0
  6
Continuous
 62
     0
370
    30
100
AcDbCircle
 10
121.654422
 20
917.53903
 30
0.0
 40
5.736708761823324
100
AcDbArc
 50
177.574334
 51
215.58233
  0
ARC
  5
18C
330
111
100
AcDbEntity
  8
0
  6
Continuous
 62
     0
370
    30
100
AcDbCircle
 10
112.920915
 20
911.290478
 30
0.0
 40
5.001938745726859
100
AcDbArc
 50
0.007128
 51
35.582777
  0
ARC
  5
18D
330
111
100
AcDbEntity
  8
0
  6
Continuous
 62
     0
370
    30
100
AcDbCircle
 10
112.920915
 20
114.273206
 30
0.0
 40
5.001938745732222
100
AcDbArc
 50
324.417223
 51
359.992872
  0
ARC
  5
18E
330
111
100
AcDbEntity
  8
0
  6
Continuous
 62
     0
370
    30
100
AcDbCircle
 10
121.654422
 20
108.024654
 30
0.0
 40
5.736708761800156
100
AcDbArc
 50
144.41767
 51
182.425666
  0
LWPOLYLINE
  5
18F
330
111
100
AcDbEntity
  8
0
  6
Continuous
 62
     0
370
    30
100
AcDbPolyline
 90
       23
 70
     0
 43
0.0
 10
126.921295
 20
99.78186
 10
126.243065
 20
99.797035
 10
125.563972
 20
99.842751
 10
124.886116
 20
99.919472
 10
124.211624
 20
100.027679
 10
123.542603
 20
100.167847
 10
122.881172
 20
100.340446
 10
122.229431
 20
100.545952
 10
121.589508
 20
100.784843
 10
120.963501
 20
101.057587
 10
120.353836
 20
101.364792
 10
119.76384
 20
101.707451
 10
119.197021
 20
102.086624
 10
118.656898
 20
102.503387
 10
118.147194
 20
102.958649
 10
117.673592
 20
103.45182
 10
117.242859
 20
103.981514
 10
116.861778
 20
104.546318
 10
116.537132
 20
105.144821
 10
116.27562
 20
105.775299
 10
116.082863
 20
106.431419
 10
115.963676
 20
107.103439
 10
115.922852
 20
107.78186
  0
ARC
  5
190
330
111
100
AcDbEntity
  8
0
  6
Continuous
 62
     0
370
    30
100
AcDbCircle
 10
105.418061
 20
899.285191
 30
0.0
 40
1.003400836874516
100
AcDbArc
 50
180.203146
 51
269.961974
  0
LINE
  5
191
330
111
100
AcDbEntity
  8
0
  6
Continuous
 62
     0
370
    30
100
AcDbLine
 10
80.653183
 20
904.021157
 30
0.0
 11
104.001491
 21
899.904218
 31
0.0
  0
ARC
  5
192
330
111
100
AcDbEntity
  8
0
  6
Continuous
 62
     0
370
    30
100
AcDbCircle
 10
83.432845
 20
919.779464
 30
0.0
 40
16.00158669547234
100
AcDbArc
 50
194.01996
 51
259.996307
  0
LINE
  5
193
330
111
100
AcDbEntity
  8
0
  6
Continuous
 62
     0
370
    30
100
AcDbLine
 10
60.922853
 20
916.281823
 30
0.0
 11
67.42281
 21
916.281823
 31
0.0
  0
ARC
  5
194
330
111
100
AcDbEntity
  8
0
  6
Continuous
 62
     0
370
    30
100
AcDbCircle
 10
105.418062
 20
147.285224
 30
0.0
 40
1.003400836881358
100
AcDbArc
 50
180.203146
 51
269.961974
  0
LINE
  5
195
330
111
100
AcDbEntity
  8
0
  6
Continuous
 62
     0
370
    30
100
AcDbLine
 10
80.653184
 20
152.02119
 30
0.0
 11
104.001492
 21
147.904251
 31
0.0
  0
ARC
  5
196
330
111
100
AcDbEntity
  8
0
  6
Continuous
 62
     0
370
    30
100
AcDbCircle
 10
83.432847
 20
167.779497
 30
0.0
 40
16.00158669547668
100
AcDbArc
 50
194.01996
 51
259.996307
  0
LINE
  5
197
330
111
100
AcDbEntity
  8
0
  6
Continuous
 62
     0
370
    30
100
AcDbLine
 10
60.922854
 20
164.281856
 30
0.0
 11
67.422811
 21
164.281856
 31
0.0
  0
ENDBLK
  5
199
330
111
100
AcDbEntity
  8
0
100
AcDbBlockEnd
  0
BLOCK
  5
225
330
19B
100
AcDbEntity
  8
0
100
AcDbBlockBegin
  2
c
 70
     0
 10
32.640823
 20
118.791321
 30
0.0
  3
c
  1

  0
ARC
  5
19C
330
19B
100
AcDbEntity
  8
0
  6
Continuous
 62
     0
370
    30
100
AcDbCircle
 10
1075.99302
 20
1162.749418
 30
0.0
 40
27.4999977128606
100
AcDbArc
 50
0.0
 51
180.0
  0
ARC
  5
19D
330
19B
100
AcDbEntity
  8
0
  6
Continuous
 62
     0
370
    30
100
AcDbCircle
 10
1075.99302
 20
1162.749418
 30
0.0
 40
27.4999977128606
100
AcDbArc
 50
180.0
 51
360.0
  0
ARC
  5
19E
330
19B
100
AcDbEntity
  8
0
  6
Continuous
 62
     0
370
    30
100
AcDbCircle
 10
323.993053
 20
1162.749418
 30
0.0
 40
27.4999977128606
100
AcDbArc
 50
0.0
 51
180.0
  0
ARC
  5
19F
330
19B
100
AcDbEntity
  8
0
  6
Continuous
 62
     0
370
    30
100
AcDbCircle
 10
323.993053
 20
1162.749418
 30
0.0
 40
27.4999977128606
100
AcDbArc
 50
180.0
 51
360.0
  0
LINE
  5
1A0
330
19B
100
AcDbEntity
  8
0
  6
Continuous
 62
     0
370
     0
100
AcDbLine
 10
1104.993017
 20
1173.749418
 30
0.0
 11
1104.993017
 21
1162.749418
 31
0.0
  0
LINE
  5
1A1
330
19B
100
AcDbEntity
  8
0
  6
Continuous
 62
     0
370
     0
100
AcDbLine
 10
1104.993017
 20
1162.749418
 30
0.0
 11
1104.993017
 21
1151.749418
 31
0.0
  0
LINE
  5
1A2
330
19B
100
AcDbEntity
  8
0
  6
Continuous
 62
     0
370
     0
100
AcDbLine
 10
294.99305
 20
1173.749418
 30
0.0
 11
294.99305
 21
1162.749418
 31
0.0
  0
LINE
  5
1A3
330
19B
100
AcDbEntity
  8
0
  6
Continuous
 62
     0
370
     0
100
AcDbLine
 10
294.99305
 20
1162.749418
 30
0.0
 11
294.99305
 21
1151.749418
 31
0.0
  0
LWPOLYLINE
  5
1A4
330
19B
100
AcDbEntity
  8
0
  6
Continuous
 62
     0
370
    30
100
AcDbPolyline
 90
       20
 70
     0
 43
0.0
 10
650.908447
 20
1171.743408
 10
650.888611
 20
1171.711792
 10
650.829102
 20
1171.616943
 10
650.730042
 20
1171.458862
 10
650.593018
 20
1171.239014
 10
650.422852
 20
1170.961304
 10
650.224304
 20
1170.630127
 10
650.002502
 20
1170.249634
 10
649.762268
 20
1169.823975
 10
649.508728
 20
1169.357056
 10
649.247925
 20
1168.850586
 10
648.986084
 20
1168.304932
 10
648.729614
 20
1167.721069
 10
648.484863
 20
1167.099609
 10
648.258118
 20
1166.441162
 10
648.056091
 20
1165.749146
 10
647.885986
 20
1165.029785
 10
647.754944
 20
1164.290161
 10
647.670227
 20
1163.536621
 10
647.638916
 20
1162.74939
  0
LWPOLYLINE
  5
1A5
330
19B
100
AcDbEntity
  8
0
  6
Continuous
 62
     0
370
    30
100
AcDbPolyline
 90
       20
 70
     0
 43
0.0
 10
647.638916
 20
1162.74939
 10
647.668152
 20
1161.988892
 10
647.75116
 20
1161.235107
 10
647.880676
 20
1160.494751
 10
648.0495
 20
1159.774658
 10
648.250488
 20
1159.081543
 10
648.47644
 20
1158.421753
 10
648.720703
 20
1157.79895
 10
648.976868
 20
1157.213745
 10
649.238586
 20
1156.66687
 10
649.499573
 20
1156.158936
 10
649.753479
 20
1155.690552
 10
649.994263
 20
1155.263428
 10
650.216858
 20
1154.881226
 10
650.41626
 20
1154.548218
 10
650.587585
 20
1154.268677
 10
650.72583
 20
1154.046753
 10
650.826355
 20
1153.886353
 10
650.887207
 20
1153.789307
 10
650.908508
 20
1153.755371
  0
LWPOLYLINE
  5
1A6
330
19B
100
AcDbEntity
  8
0
  6
Continuous
 62
     0
370
    30
100
AcDbPolyline
 90
       39
 70
     0
 43
0.0
 10
622.914856
 20
1153.74939
 10
622.93573
 20
1153.781738
 10
622.998291
 20
1153.879395
 10
623.101135
 20
1154.041626
 10
623.240356
 20
1154.264526
 10
623.411743
 20
1154.543823
 10
623.610962
 20
1154.875
 10
623.833191
 20
1155.255127
 10
624.073303
 20
1155.681641
 10
624.32605
 20
1156.152588
 10
624.586243
 20
1156.665649
 10
624.848694
 20
1157.218506
 10
625.107544
 20
1157.80896
 10
625.355408
 20
1158.434204
 10
625.584534
 20
1159.091553
 10
625.787292
 20
1159.778198
 10
625.955994
 20
1160.491333
 10
626.08313
 20
1161.227905
 10
626.163025
 20
1161.981445
 10
626.190979
 20
1162.743408
 10
626.163879
 20
1163.505493
 10
626.084778
 20
1164.259155
 10
625.958313
 20
1164.996094
 10
625.790222
 20
1165.709595
 10
625.587952
 20
1166.396729
 10
625.359192
 20
1167.054565
 10
625.111572
 20
1167.680298
 10
624.852844
 20
1168.271362
 10
624.590454
 20
1168.824829
 10
624.330139
 20
1169.338501
 10
624.077271
 20
1169.810181
 10
623.836914
 20
1170.237427
 10
623.614319
 20
1170.618164
 10
623.414734
 20
1170.950195
 10
623.24292
 20
1171.230347
 10
623.103149
 20
1171.454224
 10
622.999634
 20
1171.617432
 10
622.936401
 20
1171.716064
 10
622.914856
 20
1171.74939
  0
LINE
  5
1A7
330
19B
100
AcDbEntity
  8
0
  6
Continuous
 62
     0
370
    30
100
AcDbLine
 10
648.914833
 20
1189.749418
 30
0.0
 11
624.914833
 21
1189.749418
 31
0.0
  0
ARC
  5
1A8
330
19B
100
AcDbEntity
  8
0
  6
Continuous
 62
     0
370
    30
100
AcDbCircle
 10
624.914833
 20
1187.749418
 30
0.0
 40
1.999999999992
100
AcDbArc
 50
90.0
 51
180.0
  0
LINE
  5
1A9
330
19B
100
AcDbEntity
  8
0
  6
Continuous
 62
     0
370
     0
100
AcDbLine
 10
650.914833
 20
1187.749418
 30
0.0
 11
622.914833
 21
1187.749418
 31
0.0
  0
LINE
  5
1AA
330
19B
100
AcDbEntity
  8
0
  6
Continuous
 62
     0
370
    30
100
AcDbLine
 10
622.914833
 20
1187.749418
 30
0.0
 11
622.914833
 21
1171.749418
 31
0.0
  0
LINE
  5
1AB
330
19B
100
AcDbEntity
  8
0
  6
Continuous
 62
     0
370
    30
100
AcDbLine
 10
622.914833
 20
1153.749418
 30
0.0
 11
622.914833
 21
1135.749418
 31
0.0
  0
LINE
  5
1AC
330
19B
100
AcDbEntity
  8
0
  6
Continuous
 62
     0
370
     0
100
AcDbLine
 10
650.914833
 20
1135.749418
 30
0.0
 11
622.914833
 21
1135.749418
 31
0.0
  0
ARC
  5
1AD
330
19B
100
AcDbEntity
  8
0
  6
Continuous
 62
     0
370
    30
100
AcDbCircle
 10
624.914833
 20
1135.749418
 30
0.0
 40
1.999999999992
100
AcDbArc
 50
180.0
 51
270.0
  0
LINE
  5
1AE
330
19B
100
AcDbEntity
  8
0
  6
Continuous
 62
     0
370
    30
100
AcDbLine
 10
648.914833
 20
1133.749418
 30
0.0
 11
624.914833
 21
1133.749418
 31
0.0
  0
LWPOLYLINE
  5
1AF
330
19B
100
AcDbEntity
  8
0
  6
Continuous
 62
     0
370
     0
100
AcDbPolyline
 90
       38
 70
     0
 43
0.0
 10
647.821228
 20
1102.11731
 10
647.78833
 20
1102.11731
 10
647.686646
 20
1102.11731
 10
647.51239
 20
1102.11731
 10
647.262878
 20
1102.11731
 10
646.937073
 20
1102.11731
 10
646.5354
 20
1102.11731
 10
646.059998
 20
1102.11731
 10
645.514893
 20
1102.11731
 10
644.905518
 20
1102.11731
 10
644.238892
 20
1102.11731
 10
643.523132
 20
1102.11731
 10
642.767273
 20
1102.11731
 10
641.980713
 20
1102.11731
 10
641.173218
 20
1102.11731
 10
640.354187
 20
1102.11731
 10
639.532532
 20
1102.11731
 10
638.716431
 20
1102.11731
 10
637.912292
 20
1102.11731
 10
637.094421
 20
1102.11731
 10
636.252625
 20
1102.11731
 10
635.393616
 20
1102.11731
 10
634.52533
 20
1102.11731
 10
633.656433
 20
1102.11731
 10
632.796448
 20
1102.11731
 10
631.9552
 20
1102.11731
 10
631.142639
 20
1102.11731
 10
630.368469
 20
1102.11731
 10
629.641663
 20
1102.11731
 10
628.970337
 20
1102.11731
 10
628.361145
 20
1102.11731
 10
627.819275
 20
1102.11731
 10
627.348389
 20
1102.11731
 10
626.950439
 20
1102.11731
 10
626.625549
 20
1102.11731
 10
626.372681
 20
1102.11731
 10
626.189148
 20
1102.11731
 10
626.069519
 20
1102.11731
  0
LINE
  5
1B0
330
19B
100
AcDbEntity
  8
0
  6
Continuous
 62
     0
370
    30
100
AcDbLine
 10
626.860841
 20
1101.399421
 30
0.0
 11
647.025427
 21
1101.399421
 31
0.0
  0
LWPOLYLINE
  5
1B1
330
19B
100
AcDbEntity
  8
0
  6
Continuous
 62
     0
370
     0
100
AcDbPolyline
 90
       43
 70
     0
 43
0.0
 10
651.132629
 20
1105.650513
 10
651.099426
 20
1105.650513
 10
650.997131
 20
1105.650513
 10
650.822144
 20
1105.650513
 10
650.571777
 20
1105.650513
 10
650.244446
 20
1105.650513
 10
649.839844
 20
1105.650513
 10
649.358826
 20
1105.650513
 10
648.803833
 20
1105.650513
 10
648.178345
 20
1105.650513
 10
647.487427
 20
1105.650513
 10
646.737061
 20
1105.650513
 10
645.934326
 20
1105.650513
 10
645.087036
 20
1105.650513
 10
644.20343
 20
1105.650513
 10
643.292053
 20
1105.650513
 10
642.361633
 20
1105.650513
 10
641.42041
 20
1105.650513
 10
640.476318
 20
1105.650513
 10
639.536865
 20
1105.650513
 10
638.608582
 20
1105.650513
 10
637.682068
 20
1105.650513
 10
636.72937
 20
1105.650513
 10
635.755005
 20
1105.650513
 10
634.765198
 20
1105.650513
 10
633.767212
 20
1105.650513
 10
632.768921
 20
1105.650513
 10
631.778748
 20
1105.650513
 10
630.805359
 20
1105.650513
 10
629.857788
 20
1105.650513
 10
628.944763
 20
1105.650513
 10
628.074646
 20
1105.650513
 10
627.255188
 20
1105.650513
 10
626.493286
 20
1105.650513
 10
625.794861
 20
1105.650513
 10
625.164429
 20
1105.650513
 10
624.605408
 20
1105.650513
 10
624.119751
 20
1105.650513
 10
623.708313
 20
1105.650513
 10
623.370483
 20
1105.650513
 10
623.104736
 20
1105.650513
 10
622.908447
 20
1105.650513
 10
622.776611
 20
1105.650513
  0
LWPOLYLINE
  5
1B2
330
19B
100
AcDbEntity
  8
0
  6
Continuous
 62
     0
370
     0
100
AcDbPolyline
 90
       43
 70
     0
 43
0.0
 10
651.29895
 20
1105.83728
 10
651.265381
 20
1105.83728
 10
651.161865
 20
1105.83728
 10
650.984741
 20
1105.83728
 10
650.731384
 20
1105.83728
 10
650.400146
 20
1105.83728
 10
649.990662
 20
1105.83728
 10
649.503906
 20
1105.83728
 10
648.942261
 20
1105.83728
 10
648.309326
 20
1105.83728
 10
647.610107
 20
1105.83728
 10
646.850769
 20
1105.83728
 10
646.038452
 20
1105.83728
 10
645.18103
 20
1105.83728
 10
644.286865
 20
1105.83728
 10
643.364685
 20
1105.83728
 10
642.423157
 20
1105.83728
 10
641.470764
 20
1105.83728
 10
640.515564
 20
1105.83728
 10
639.564941
 20
1105.83728
 10
638.625732
 20
1105.83728
 10
637.688171
 20
1105.83728
 10
636.724121
 20
1105.83728
 10
635.738098
 20
1105.83728
 10
634.736572
 20
1105.83728
 10
633.726746
 20
1105.83728
 10
632.716675
 20
1105.83728
 10
631.714783
 20
1105.83728
 10
630.72998
 20
1105.83728
 10
629.771301
 20
1105.83728
 10
628.847595
 20
1105.83728
 10
627.967346
 20
1105.83728
 10
627.138489
 20
1105.83728
 10
626.367859
 20
1105.83728
 10
625.661438
 20
1105.83728
 10
625.023926
 20
1105.83728
 10
624.458618
 20
1105.83728
 10
623.967651
 20
1105.83728
 10
623.551697
 20
1105.83728
 10
623.210327
 20
1105.83728
 10
622.941833
 20
1105.83728
 10
622.743591
 20
1105.83728
 10
622.611206
 20
1105.83728
  0
LWPOLYLINE
  5
1B3
330
19B
100
AcDbEntity
  8
0
  6
Continuous
 62
     0
370
     0
100
AcDbPolyline
 90
       43
 70
     0
 43
0.0
 10
651.387329
 20
1107.523193
 10
651.353516
 20
1107.523193
 10
651.249329
 20
1107.523193
 10
651.071167
 20
1107.523193
 10
650.816162
 20
1107.523193
 10
650.482849
 20
1107.523193
 10
650.070801
 20
1107.523193
 10
649.580994
 20
1107.523193
 10
649.015747
 20
1107.523193
 10
648.378845
 20
1107.523193
 10
647.675232
 20
1107.523193
 10
646.911133
 20
1107.523193
 10
646.09375
 20
1107.523193
 10
645.230896
 20
1107.523193
 10
644.331177
 20
1107.523193
 10
643.403259
 20
1107.523193
 10
642.455872
 20
1107.523193
 10
641.497498
 20
1107.523193
 10
640.536377
 20
1107.523193
 10
639.579895
 20
1107.523193
 10
638.634827
 20
1107.523193
 10
637.691406
 20
1107.523193
 10
636.721313
 20
1107.523193
 10
635.729126
 20
1107.523193
 10
634.721375
 20
1107.523193
 10
633.705261
 20
1107.523193
 10
632.688904
 20
1107.523193
 10
631.680786
 20
1107.523193
 10
630.68988
 20
1107.523193
 10
629.725342
 20
1107.523193
 10
628.795959
 20
1107.523193
 10
627.9104
 20
1107.523193
 10
627.076477
 20
1107.523193
 10
626.301208
 20
1107.523193
 10
625.590576
 20
1107.523193
 10
624.94928
 20
1107.523193
 10
624.380676
 20
1107.523193
 10
623.886841
 20
1107.523193
 10
623.468506
 20
1107.523193
 10
623.125244
 20
1107.523193
 10
622.855286
 20
1107.523193
 10
622.656067
 20
1107.523193
 10
622.523315
 20
1107.523193
  0
LINE
  5
1B4
330
19B
100
AcDbEntity
  8
0
  6
Continuous
 62
     0
370
     0
100
AcDbLine
 10
610.383936
 20
1116.6996
 30
0.0
 11
610.427372
 21
1120.892581
 31
0.0
  0
LWPOLYLINE
  5
1B5
330
19B
100
AcDbEntity
  8
0
  6
Continuous
 62
     0
370
     0
100
AcDbPolyline
 90
       16
 70
     0
 43
0.0
 10
610.427368
 20
1110.606201
 10
610.422485
 20
1110.633423
 10
610.417786
 20
1110.720337
 10
610.413208
 20
1110.86853
 10
610.408569
 20
1111.084595
 10
610.403992
 20
1111.37085
 10
610.399719
 20
1111.727295
 10
610.395691
 20
1112.150146
 10
610.392151
 20
1112.63269
 10
610.389099
 20
1113.165039
 10
610.386658
 20
1113.734741
 10
610.384888
 20
1114.327881
 10
610.383728
 20
1114.930298
 10
610.38324
 20
1115.528442
 10
610.383301
 20
1116.110107
 10
610.383911
 20
1116.699585
  0
LWPOLYLINE
  5
1B6
330
19B
100
AcDbEntity
  8
0
  6
Continuous
 62
     0
370
     0
100
AcDbPolyline
 90
       23
 70
     0
 43
0.0
 10
614.68396
 20
1115.121216
 10
614.682983
 20
1114.68811
 10
614.681519
 20
1114.254639
 10
614.679443
 20
1113.834839
 10
614.676758
 20
1113.444092
 10
614.673584
 20
1113.097778
 10
614.670044
 20
1112.809082
 10
614.666138
 20
1112.587769
 10
614.662048
 20
1112.438721
 10
614.657959
 20
1112.362183
 10
614.653992
 20
1112.353882
 10
614.650208
 20
1112.406128
 10
614.646545
 20
1112.516113
 10
614.642822
 20
1112.69104
 10
614.639221
 20
1112.933594
 10
614.635925
 20
1113.242676
 10
614.632935
 20
1113.612427
 10
614.630493
 20
1114.032349
 10
614.628601
 20
1114.488525
 10
614.627319
 20
1114.964722
 10
614.626648
 20
1115.444702
 10
614.626526
 20
1115.913452
 10
614.627014
 20
1116.377563
  0
LWPOLYLINE
  5
1B7
330
19B
100
AcDbEntity
  8
0
  6
Continuous
 62
     0
370
     0
100
AcDbPolyline
 90
       23
 70
     0
 43
0.0
 10
614.627014
 20
1116.377563
 10
614.62793
 20
1116.810669
 10
614.629456
 20
1117.244141
 10
614.631531
 20
1117.66394
 10
614.634216
 20
1118.054565
 10
614.637329
 20
1118.400879
 10
614.64093
 20
1118.689575
 10
614.644836
 20
1118.911011
 10
614.648865
 20
1119.060059
 10
614.652954
 20
1119.136597
 10
614.656982
 20
1119.144897
 10
614.660767
 20
1119.092651
 10
614.664429
 20
1118.982666
 10
614.668152
 20
1118.807739
 10
614.671692
 20
1118.565186
 10
614.675049
 20
1118.255981
 10
614.67804
 20
1117.886353
 10
614.680481
 20
1117.466309
 10
614.682373
 20
1117.010254
 10
614.683655
 20
1116.533936
 10
614.684326
 20
1116.053955
 10
614.684387
 20
1115.585205
 10
614.68396
 20
1115.121216
  0
LINE
  5
1B8
330
19B
100
AcDbEntity
  8
0
  6
Continuous
 62
     0
370
     0
100
AcDbLine
 10
615.022937
 20
1112.349369
 30
0.0
 11
614.994469
 21
1116.377511
 31
0.0
  0
LINE
  5
1B9
330
19B
100
AcDbEntity
  8
0
  6
Continuous
 62
     0
370
     0
100
AcDbLine
 10
614.994469
 20
1116.377511
 30
0.0
 11
615.022933
 21
1119.149369
 31
0.0
  0
LINE
  5
1BA
330
19B
100
AcDbEntity
  8
0
  6
Continuous
 62
     0
370
    30
100
AcDbLine
 10
615.922879
 20
1111.357162
 30
0.0
 11
615.886129
 21
1116.560828
 31
0.0
  0
LINE
  5
1BB
330
19B
100
AcDbEntity
  8
0
  6
Continuous
 62
     0
370
     0
100
AcDbLine
 10
619.108756
 20
1111.078377
 30
0.0
 11
619.069669
 21
1116.612324
 31
0.0
  0
LINE
  5
1BC
330
19B
100
AcDbEntity
  8
0
  6
Continuous
 62
     0
370
     0
100
AcDbLine
 10
619.069669
 20
1116.612324
 30
0.0
 11
619.10875
 21
1120.42036
 31
0.0
  0
LINE
  5
1BD
330
19B
100
AcDbEntity
  8
0
  6
Continuous
 62
     0
370
     0
100
AcDbLine
 10
620.807341
 20
1110.143288
 30
0.0
 11
620.760931
 21
1116.785144
 31
0.0
  0
LINE
  5
1BE
330
19B
100
AcDbEntity
  8
0
  6
Continuous
 62
     0
370
     0
100
AcDbLine
 10
620.760931
 20
1116.785144
 30
0.0
 11
620.80734
 21
1121.355449
 31
0.0
  0
LINE
  5
1BF
330
19B
100
AcDbEntity
  8
0
  6
Continuous
 62
     0
370
     0
100
AcDbLine
 10
621.602982
 20
1109.749369
 30
0.0
 11
621.552745
 21
1116.857856
 31
0.0
  0
LINE
  5
1C0
330
19B
100
AcDbEntity
  8
0
  6
Continuous
 62
     0
370
     0
100
AcDbLine
 10
621.552745
 20
1116.857856
 30
0.0
 11
621.602991
 21
1121.749369
 31
0.0
  0
LWPOLYLINE
  5
1C1
330
19B
100
AcDbEntity
  8
0
  6
Continuous
 62
     0
370
    30
100
AcDbPolyline
 90
       17
 70
     0
 43
0.0
 10
622.06781
 20
1109.74939
 10
622.06781
 20
1109.785522
 10
622.078186
 20
1109.892944
 10
622.098022
 20
1110.070068
 10
622.126587
 20
1110.315186
 10
622.162415
 20
1110.62561
 10
622.203491
 20
1110.99707
 10
622.247498
 20
1111.424805
 10
622.292236
 20
1111.904297
 10
622.335571
 20
1112.430176
 10
622.375427
 20
1112.99585
 10
622.409851
 20
1113.594482
 10
622.436829
 20
1114.219238
 10
622.454712
 20
1114.862915
 10
622.463135
 20
1115.5177
 10
622.461853
 20
1116.175171
 10
622.449829
 20
1116.85791
  0
LINE
  5
1C2
330
19B
100
AcDbEntity
  8
0
  6
Continuous
 62
     0
370
    30
100
AcDbLine
 10
622.449859
 20
1116.857864
 30
0.0
 11
622.068763
 21
1121.748309
 31
0.0
  0
LINE
  5
1C3
330
19B
100
AcDbEntity
  8
0
  6
Continuous
 62
     0
370
     0
100
AcDbLine
 10
663.402313
 20
1120.8926
 30
0.0
 11
663.359599
 21
1114.799138
 31
0.0
  0
LINE
  5
1C4
330
19B
100
AcDbEntity
  8
0
  6
Continuous
 62
     0
370
     0
100
AcDbLine
 10
663.359599
 20
1114.799138
 30
0.0
 11
663.402293
 21
1110.606157
 31
0.0
  0
LINE
  5
1C5
330
19B
100
AcDbEntity
  8
0
  6
Continuous
 62
     0
370
     0
100
AcDbLine
 10
659.145718
 20
1115.121227
 30
0.0
 11
659.174182
 21
1112.349369
 31
0.0
  0
LINE
  5
1C6
330
19B
100
AcDbEntity
  8
0
  6
Continuous
 62
     0
370
     0
100
AcDbLine
 10
659.174186
 20
1119.149369
 30
0.0
 11
659.145718
 21
1115.121227
 31
0.0
  0
LWPOLYLINE
  5
1C7
330
19B
100
AcDbEntity
  8
0
  6
Continuous
 62
     0
370
     0
100
AcDbPolyline
 90
       23
 70
     0
 43
0.0
 10
658.778259
 20
1115.121216
 10
658.779236
 20
1114.68811
 10
658.780701
 20
1114.254639
 10
658.782776
 20
1113.834839
 10
658.785461
 20
1113.444092
 10
658.788574
 20
1113.097778
 10
658.792175
 20
1112.809082
 10
658.796082
 20
1112.587769
 10
658.80011
 20
1112.438721
 10
658.804199
 20
1112.362183
 10
658.808228
 20
1112.353882
 10
658.812012
 20
1112.406128
 10
658.815674
 20
1112.516113
 10
658.819397
 20
1112.69104
 10
658.822937
 20
1112.933594
 10
658.826294
 20
1113.242676
 10
658.829285
 20
1113.612427
 10
658.831726
 20
1114.032349
 10
658.833618
 20
1114.488525
 10
658.8349
 20
1114.964722
 10
658.835571
 20
1115.444702
 10
658.835632
 20
1115.913452
 10
658.835205
 20
1116.377563
  0
LWPOLYLINE
  5
1C8
330
19B
100
AcDbEntity
  8
0
  6
Continuous
 62
     0
370
     0
100
AcDbPolyline
 90
       23
 70
     0
 43
0.0
 10
658.835205
 20
1116.377563
 10
658.834229
 20
1116.810669
 10
658.832764
 20
1117.244141
 10
658.830688
 20
1117.66394
 10
658.828003
 20
1118.054565
 10
658.82489
 20
1118.400879
 10
658.821289
 20
1118.689575
 10
658.817383
 20
1118.911011
 10
658.813293
 20
1119.060059
 10
658.809265
 20
1119.136597
 10
658.805237
 20
1119.144897
 10
658.801453
 20
1119.092651
 10
658.797791
 20
1118.982666
 10
658.794067
 20
1118.807739
 10
658.790466
 20
1118.565186
 10
658.78717
 20
1118.255981
 10
658.78418
 20
1117.886353
 10
658.781738
 20
1117.466309
 10
658.779846
 20
1117.010254
 10
658.778564
 20
1116.533936
 10
658.777893
 20
1116.053955
 10
658.777771
 20
1115.585205
 10
658.778259
 20
1115.121216
  0
LWPOLYLINE
  5
1C9
330
19B
100
AcDbEntity
  8
0
  6
Continuous
 62
     0
370
     0
100
AcDbPolyline
 90
       14
 70
     0
 43
0.0
 10
657.870728
 20
1114.954956
 10
657.871765
 20
1114.474243
 10
657.873352
 20
1113.991699
 10
657.875427
 20
1113.518799
 10
657.878113
 20
1113.068848
 10
657.881348
 20
1112.655151
 10
657.88501
 20
1112.290039
 10
657.889038
 20
1111.984131
 10
657.893433
 20
1111.744995
 10
657.897949
 20
1111.576538
 10
657.902466
 20
1111.479004
 10
657.906921
 20
1111.449463
 10
657.911255
 20
1111.481812
 10
657.915588
 20
1111.576172
  0
LWPOLYLINE
  5
1CA
330
19B
100
AcDbEntity
  8
0
  6
Continuous
 62
     0
370
    30
100
AcDbPolyline
 90
       17
 70
     0
 43
0.0
 10
657.919006
 20
1119.900635
 10
657.914307
 20
1120.05188
 10
657.909485
 20
1120.130249
 10
657.904602
 20
1120.134155
 10
657.89978
 20
1120.063965
 10
657.89502
 20
1119.92041
 10
657.890503
 20
1119.706299
 10
657.886292
 20
1119.425171
 10
657.882385
 20
1119.081543
 10
657.878906
 20
1118.681641
 10
657.875916
 20
1118.231812
 10
657.873413
 20
1117.740112
 10
657.87146
 20
1117.2146
 10
657.870178
 20
1116.664185
 10
657.869446
 20
1116.098389
 10
657.869385
 20
1115.526611
 10
657.869995
 20
1114.937866
  0
LINE
  5
1CB
330
19B
100
AcDbEntity
  8
0
  6
Continuous
 62
     0
370
     0
100
AcDbLine
 10
654.681776
 20
1114.886414
 30
0.0
 11
654.720916
 21
1111.078378
 31
0.0
  0
LWPOLYLINE
  5
1CC
330
19B
100
AcDbEntity
  8
0
  6
Continuous
 62
     0
370
     0
100
AcDbPolyline
 90
       15
 70
     0
 43
0.0
 10
654.720947
 20
1120.42041
 10
654.716187
 20
1120.387817
 10
654.71167
 20
1120.294067
 10
654.707214
 20
1120.135132
 10
654.702698
 20
1119.905029
 10
654.698364
 20
1119.601929
 10
654.694336
 20
1119.227417
 10
654.690674
 20
1118.786987
 10
654.6875
 20
1118.290039
 10
654.684937
 20
1117.749268
 10
654.682983
 20
1117.179321
 10
654.681763
 20
1116.596069
 10
654.681152
 20
1116.014648
 10
654.681152
 20
1115.448853
 10
654.681763
 20
1114.886475
  0
LINE
  5
1CD
330
19B
100
AcDbEntity
  8
0
  6
Continuous
 62
     0
370
     0
100
AcDbLine
 10
652.97485
 20
1114.713594
 30
0.0
 11
653.026956
 21
1110.175797
 31
0.0
  0
LWPOLYLINE
  5
1CE
330
19B
100
AcDbEntity
  8
0
  6
Continuous
 62
     0
370
     0
100
AcDbPolyline
 90
       16
 70
     0
 43
0.0
 10
653.022339
 20
1121.355469
 10
653.016968
 20
1121.327026
 10
653.011841
 20
1121.23291
 10
653.006775
 20
1121.071289
 10
653.001709
 20
1120.835205
 10
652.996704
 20
1120.521729
 10
652.992004
 20
1120.131226
 10
652.98761
 20
1119.667358
 10
652.983765
 20
1119.138062
 10
652.980408
 20
1118.554077
 10
652.977783
 20
1117.929321
 10
652.97583
 20
1117.279175
 10
652.974609
 20
1116.619263
 10
652.97406
 20
1115.964478
 10
652.974182
 20
1115.328369
 10
652.974854
 20
1114.713623
  0
LINE
  5
1CF
330
19B
100
AcDbEntity
  8
0
  6
Continuous
 62
     0
370
     0
100
AcDbLine
 10
652.176446
 20
1114.640883
 30
0.0
 11
652.226699
 21
1109.749369
 31
0.0
  0
LWPOLYLINE
  5
1D0
330
19B
100
AcDbEntity
  8
0
  6
Continuous
 62
     0
370
     0
100
AcDbPolyline
 90
       17
 70
     0
 43
0.0
 10
652.226685
 20
1121.74939
 10
652.221375
 20
1121.716797
 10
652.216309
 20
1121.623901
 10
652.211243
 20
1121.468994
 10
652.206177
 20
1121.245728
 10
652.201233
 20
1120.951172
 10
652.196411
 20
1120.585083
 10
652.191956
 20
1120.149658
 10
652.187866
 20
1119.650269
 10
652.184265
 20
1119.095459
 10
652.181213
 20
1118.495728
 10
652.178833
 20
1117.86377
 10
652.177124
 20
1117.212769
 10
652.176025
 20
1116.556274
 10
652.175598
 20
1115.907104
 10
652.17572
 20
1115.276001
 10
652.176453
 20
1114.640869
  0
LWPOLYLINE
  5
1D1
330
19B
100
AcDbEntity
  8
0
  6
Continuous
 62
     0
370
    30
100
AcDbPolyline
 90
       14
 70
     0
 43
0.0
 10
651.279358
 20
1114.640869
 10
651.304199
 20
1113.992676
 10
651.339172
 20
1113.363159
 10
651.382263
 20
1112.760376
 10
651.431213
 20
1112.194824
 10
651.483765
 20
1111.675903
 10
651.537537
 20
1111.209351
 10
651.590088
 20
1110.800049
 10
651.638916
 20
1110.452515
 10
651.681885
 20
1110.171509
 10
651.717224
 20
1109.959595
 10
651.743469
 20
1109.819702
 10
651.759094
 20
1109.754272
 10
651.763062
 20
1109.765869
  0
LWPOLYLINE
  5
1D2
330
19B
100
AcDbEntity
  8
0
  6
Continuous
 62
     0
370
    30
100
AcDbPolyline
 90
       29
 70
     0
 43
0.0
 10
651.379883
 20
1116.85791
 10
651.401978
 20
1117.510986
 10
651.432739
 20
1118.141724
 10
651.470276
 20
1118.74231
 10
651.512695
 20
1119.305176
 10
651.557922
 20
1119.822754
 10
651.603699
 20
1120.289307
 10
651.647461
 20
1120.699341
 10
651.68689
 20
1121.047607
 10
651.719604
 20
1121.328857
 10
651.744141
 20
1121.540405
 10
651.759155
 20
1121.67981
 10
651.763367
 20
1121.744629
 10
651.755798
 20
1121.733154
 10
651.737122
 20
1121.646484
 10
651.708435
 20
1121.486084
 10
651.670776
 20
1121.253784
 10
651.625488
 20
1120.951782
 10
651.574829
 20
1120.584717
 10
651.521301
 20
1120.157715
 10
651.467407
 20
1119.676025
 10
651.41571
 20
1119.145142
 10
651.368347
 20
1118.571411
 10
651.327637
 20
1117.961304
 10
651.295715
 20
1117.321655
 10
651.274536
 20
1116.659912
 10
651.264526
 20
1115.986816
 10
651.265991
 20
1115.314453
 10
651.279358
 20
1114.640869
  0
LINE
  5
1D3
330
19B
100
AcDbEntity
  8
0
  6
Continuous
 62
     0
370
     0
100
AcDbLine
 10
636.791643
 20
1108.398161
 30
0.0
 11
622.453455
 21
1108.398161
 31
0.0
  0
LWPOLYLINE
  5
1D4
330
19B
100
AcDbEntity
  8
0
  6
Continuous
 62
     0
370
     0
100
AcDbPolyline
 90
       23
 70
     0
 43
0.0
 10
651.376221
 20
1108.398193
 10
651.345459
 20
1108.398193
 10
651.250122
 20
1108.398193
 10
651.086182
 20
1108.398193
 10
650.850159
 20
1108.398193
 10
650.539612
 20
1108.398193
 10
650.152954
 20
1108.398193
 10
649.689941
 20
1108.398193
 10
649.151489
 20
1108.398193
 10
648.539917
 20
1108.398193
 10
647.858826
 20
1108.398193
 10
647.113159
 20
1108.398193
 10
646.309021
 20
1108.398193
 10
645.45343
 20
1108.398193
 10
644.554321
 20
1108.398193
 10
643.620117
 20
1108.398193
 10
642.659546
 20
1108.398193
 10
641.681458
 20
1108.398193
 10
640.694519
 20
1108.398193
 10
639.706909
 20
1108.398193
 10
638.726257
 20
1108.398193
 10
637.759521
 20
1108.398193
 10
636.791626
 20
1108.398193
  0
LINE
  5
1D5
330
19B
100
AcDbEntity
  8
0
  6
Continuous
 62
     0
370
     0
100
AcDbLine
 10
635.75187
 20
1122.944819
 30
0.0
 11
622.404542
 21
1122.944819
 31
0.0
  0
LWPOLYLINE
  5
1D6
330
19B
100
AcDbEntity
  8
0
  6
Continuous
 62
     0
370
     0
100
AcDbPolyline
 90
       22
 70
     0
 43
0.0
 10
651.425171
 20
1122.944824
 10
651.393494
 20
1122.944824
 10
651.295471
 20
1122.944824
 10
651.126709
 20
1122.944824
 10
650.88385
 20
1122.944824
 10
650.564209
 20
1122.944824
 10
650.166321
 20
1122.944824
 10
649.689941
 20
1122.944824
 10
649.136169
 20
1122.944824
 10
648.507507
 20
1122.944824
 10
647.807922
 20
1122.944824
 10
647.042664
 20
1122.944824
 10
646.21814
 20
1122.944824
 10
645.341919
 20
1122.944824
 10
644.422302
 20
1122.944824
 10
643.468079
 20
1122.944824
 10
642.488525
 20
1122.944824
 10
641.492615
 20
1122.944824
 10
640.489441
 20
1122.944824
 10
639.487305
 20
1122.944824
 10
638.494141
 20
1122.944824
 10
637.508545
 20
1122.944824
  0
LINE
  5
1D7
330
19B
100
AcDbEntity
  8
0
  6
Continuous
 62
     0
370
     0
100
AcDbLine
 10
636.79405
 20
1123.274923
 30
0.0
 11
622.735935
 21
1123.274923
 31
0.0
  0
LWPOLYLINE
  5
1D8
330
19B
100
AcDbEntity
  8
0
  6
Continuous
 62
     0
370
     0
100
AcDbPolyline
 90
       23
 70
     0
 43
0.0
 10
651.09375
 20
1123.274902
 10
651.063599
 20
1123.274902
 10
650.970215
 20
1123.274902
 10
650.809631
 20
1123.274902
 10
650.578491
 20
1123.274902
 10
650.274292
 20
1123.274902
 10
649.895569
 20
1123.274902
 10
649.442017
 20
1123.274902
 10
648.914612
 20
1123.274902
 10
648.315613
 20
1123.274902
 10
647.648438
 20
1123.274902
 10
646.91803
 20
1123.274902
 10
646.130249
 20
1123.274902
 10
645.292053
 20
1123.274902
 10
644.411194
 20
1123.274902
 10
643.49585
 20
1123.274902
 10
642.554688
 20
1123.274902
 10
641.596313
 20
1123.274902
 10
640.629089
 20
1123.274902
 10
639.661194
 20
1123.274902
 10
638.700073
 20
1123.274902
 10
637.752563
 20
1123.274902
 10
636.794067
 20
1123.274902
  0
LINE
  5
1D9
330
19B
100
AcDbEntity
  8
0
  6
Continuous
 62
     0
370
     0
100
AcDbLine
 10
636.860395
 20
1125.655767
 30
0.0
 11
630.523323
 21
1125.655767
 31
0.0
  0
LWPOLYLINE
  5
1DA
330
19B
100
AcDbEntity
  8
0
  6
Continuous
 62
     0
370
     0
100
AcDbPolyline
 90
       16
 70
     0
 43
0.0
 10
643.306396
 20
1125.655762
 10
643.276917
 20
1125.655762
 10
643.18457
 20
1125.655762
 10
643.024353
 20
1125.655762
 10
642.79303
 20
1125.655762
 10
642.489502
 20
1125.655762
 10
642.115234
 20
1125.655762
 10
641.6745
 20
1125.655762
 10
641.174072
 20
1125.655762
 10
640.622925
 20
1125.655762
 10
640.032043
 20
1125.655762
 10
639.413147
 20
1125.655762
 10
638.778381
 20
1125.655762
 10
638.139648
 20
1125.655762
 10
637.507568
 20
1125.655762
 10
636.860413
 20
1125.655762
  0
LINE
  5
1DB
330
19B
100
AcDbEntity
  8
0
  6
Continuous
 62
     0
370
     0
100
AcDbLine
 10
636.861601
 20
1125.847028
 30
0.0
 11
630.66485
 21
1125.847028
 31
0.0
  0
LWPOLYLINE
  5
1DC
330
19B
100
AcDbEntity
  8
0
  6
Continuous
 62
     0
370
     0
100
AcDbPolyline
 90
       15
 70
     0
 43
0.0
 10
643.164856
 20
1125.847046
 10
643.124817
 20
1125.847046
 10
643.005981
 20
1125.847046
 10
642.810059
 20
1125.847046
 10
642.539001
 20
1125.847046
 10
642.196106
 20
1125.847046
 10
641.786499
 20
1125.847046
 10
641.315308
 20
1125.847046
 10
640.788086
 20
1125.847046
 10
640.211548
 20
1125.847046
 10
639.592896
 20
1125.847046
 10
638.939209
 20
1125.847046
 10
638.259216
 20
1125.847046
 10
637.563416
 20
1125.847046
 10
636.861572
 20
1125.847046
  0
LINE
  5
1DD
330
19B
100
AcDbEntity
  8
0
  6
Continuous
 62
     0
370
    30
100
AcDbLine
 10
628.914833
 20
1192.749418
 30
0.0
 11
644.914833
 21
1192.749418
 31
0.0
  0
LINE
  5
1DE
330
19B
100
AcDbEntity
  8
0
  6
Continuous
 62
     0
370
    30
100
AcDbLine
 10
628.914833
 20
1192.749418
 30
0.0
 11
628.914833
 21
1189.749418
 31
0.0
  0
LINE
  5
1DF
330
19B
100
AcDbEntity
  8
0
  6
Continuous
 62
     0
370
    30
100
AcDbLine
 10
644.914833
 20
1194.749418
 30
0.0
 11
644.914833
 21
1224.30486
 31
0.0
  0
LINE
  5
1E0
330
19B
100
AcDbEntity
  8
0
  6
Continuous
 62
     0
370
    30
100
AcDbLine
 10
628.914833
 20
1224.30486
 30
0.0
 11
628.914833
 21
1194.749418
 31
0.0
  0
LINE
  5
1E1
330
19B
100
AcDbEntity
  8
0
  6
Continuous
 62
     0
370
    30
100
AcDbLine
 10
628.914833
 20
1224.30486
 30
0.0
 11
644.914833
 21
1224.30486
 31
0.0
  0
LWPOLYLINE
  5
1E2
330
19B
100
AcDbEntity
  8
0
  6
Continuous
 62
     0
370
    30
100
AcDbPolyline
 90
       27
 70
     0
 43
0.0
 10
641.914795
 20
1194.74939
 10
641.877319
 20
1194.761353
 10
641.766968
 20
1194.79541
 10
641.586487
 20
1194.849121
 10
641.338806
 20
1194.9198
 10
641.027466
 20
1195.00415
 10
640.657532
 20
1195.096802
 10
640.234009
 20
1195.192627
 10
639.762085
 20
1195.286133
 10
639.248108
 20
1195.372314
 10
638.699402
 20
1195.446289
 10
638.123169
 20
1195.502808
 10
637.5271
 20
1195.537598
 10
636.920715
 20
1195.549438
 10
636.314209
 20
1195.538086
 10
635.717834
 20
1195.503784
 10
635.141174
 20
1195.44751
 10
634.591797
 20
1195.373901
 10
634.077087
 20
1195.287842
 10
633.60437
 20
1195.194458
 10
633.179993
 20
1195.098877
 10
632.808899
 20
1195.006104
 10
632.496155
 20
1194.921509
 10
632.246582
 20
1194.849976
 10
632.06427
 20
1194.79541
 10
631.952942
 20
1194.76123
 10
631.914856
 20
1194.74939
  0
LINE
  5
1E3
330
19B
100
AcDbEntity
  8
0
  6
Continuous
 62
     0
370
    30
100
AcDbLine
 10
631.914833
 20
1194.749418
 30
0.0
 11
631.914833
 21
1192.749418
 31
0.0
  0
LINE
  5
1E4
330
19B
100
AcDbEntity
  8
0
  6
Continuous
 62
     0
370
    30
100
AcDbLine
 10
641.914833
 20
1192.749418
 30
0.0
 11
641.914833
 21
1194.749418
 31
0.0
  0
LINE
  5
1E5
330
19B
100
AcDbEntity
  8
0
  6
Continuous
 62
     0
370
    30
100
AcDbLine
 10
644.914833
 20
1194.749418
 30
0.0
 11
641.914819
 21
1194.749418
 31
0.0
  0
LINE
  5
1E6
330
19B
100
AcDbEntity
  8
0
  6
Continuous
 62
     0
370
    30
100
AcDbLine
 10
631.914833
 20
1194.749418
 30
0.0
 11
628.914833
 21
1194.749418
 31
0.0
  0
LINE
  5
1E7
330
19B
100
AcDbEntity
  8
0
  6
Continuous
 62
     0
370
    30
100
AcDbLine
 10
644.914833
 20
1192.749418
 30
0.0
 11
644.914833
 21
1189.749418
 31
0.0
  0
LINE
  5
1E8
330
19B
100
AcDbEntity
  8
0
  6
Continuous
 62
     0
370
    30
100
AcDbLine
 10
630.664849
 20
1125.847027
 30
0.0
 11
630.664849
 21
1133.749418
 31
0.0
  0
LINE
  5
1E9
330
19B
100
AcDbEntity
  8
0
  6
Continuous
 62
     0
370
    30
100
AcDbLine
 10
643.164849
 20
1133.749418
 30
0.0
 11
643.164849
 21
1125.847027
 31
0.0
  0
LINE
  5
1EA
330
19B
100
AcDbEntity
  8
0
  6
Continuous
 62
     0
370
    30
100
AcDbLine
 10
622.735935
 20
1123.274923
 30
0.0
 11
630.523323
 21
1125.655767
 31
0.0
  0
LINE
  5
1EB
330
19B
100
AcDbEntity
  8
0
  6
Continuous
 62
     0
370
    30
100
AcDbLine
 10
643.306374
 20
1125.655767
 30
0.0
 11
651.093762
 21
1123.274923
 31
0.0
  0
LINE
  5
1EC
330
19B
100
AcDbEntity
  8
0
  6
Continuous
 62
     0
370
    30
100
AcDbLine
 10
622.453455
 20
1108.398161
 30
0.0
 11
622.066906
 21
1109.750663
 31
0.0
  0
LINE
  5
1ED
330
19B
100
AcDbEntity
  8
0
  6
Continuous
 62
     0
370
    30
100
AcDbLine
 10
622.404542
 20
1122.944819
 30
0.0
 11
622.066824
 21
1121.747925
 31
0.0
  0
LINE
  5
1EE
330
19B
100
AcDbEntity
  8
0
  6
Continuous
 62
     0
370
    30
100
AcDbLine
 10
651.425156
 20
1122.944819
 30
0.0
 11
651.762874
 21
1121.747924
 31
0.0
  0
LINE
  5
1EF
330
19B
100
AcDbEntity
  8
0
  6
Continuous
 62
     0
370
    30
100
AcDbLine
 10
651.376243
 20
1108.398161
 30
0.0
 11
651.762792
 21
1109.750664
 31
0.0
  0
LINE
  5
1F0
330
19B
100
AcDbEntity
  8
0
  6
Continuous
 62
     0
370
    30
100
AcDbLine
 10
652.226683
 20
1109.749369
 30
0.0
 11
651.761874
 21
1109.749369
 31
0.0
  0
LINE
  5
1F1
330
19B
100
AcDbEntity
  8
0
  6
Continuous
 62
     0
370
    30
100
AcDbLine
 10
651.761977
 20
1121.749369
 30
0.0
 11
652.226683
 21
1121.749369
 31
0.0
  0
ARC
  5
1F2
330
19B
100
AcDbEntity
  8
0
  6
Continuous
 62
     0
370
    30
100
AcDbCircle
 10
652.226482
 20
1120.748481
 30
0.0
 40
1.000887732533221
100
AcDbArc
 50
37.331732
 51
89.988465
  0
ARC
  5
1F3
330
19B
100
AcDbEntity
  8
0
  6
Continuous
 62
     0
370
    30
100
AcDbCircle
 10
652.226482
 20
1110.750257
 30
0.0
 40
1.00088773356345
100
AcDbArc
 50
270.011535
 51
322.668268
  0
ARC
  5
1F4
330
19B
100
AcDbEntity
  8
0
  6
Continuous
 62
     0
370
    30
100
AcDbCircle
 10
654.929948
 20
1108.688375
 30
0.0
 40
2.399126502545845
100
AcDbArc
 50
94.99842
 51
141.731007
  0
ARC
  5
1F5
330
19B
100
AcDbEntity
  8
0
  6
Continuous
 62
     0
370
    30
100
AcDbCircle
 10
654.930416
 20
1122.811209
 30
0.0
 40
2.400010314061912
100
AcDbArc
 50
217.341496
 51
264.992194
  0
LINE
  5
1F6
330
19B
100
AcDbEntity
  8
0
  6
Continuous
 62
     0
370
    30
100
AcDbLine
 10
657.906789
 20
1120.141622
 30
0.0
 11
654.720916
 21
1120.42036
 31
0.0
  0
LINE
  5
1F7
330
19B
100
AcDbEntity
  8
0
  6
Continuous
 62
     0
370
    30
100
AcDbLine
 10
657.906789
 20
1111.357116
 30
0.0
 11
654.720916
 21
1111.078378
 31
0.0
  0
ARC
  5
1F8
330
19B
100
AcDbEntity
  8
0
  6
Continuous
 62
     0
370
    30
100
AcDbCircle
 10
658.80176
 20
1120.041244
 30
0.0
 40
0.8918888351930887
100
AcDbArc
 50
185.358086
 51
270.319179
  0
ARC
  5
1F9
330
19B
100
AcDbEntity
  8
0
  6
Continuous
 62
     0
370
    30
100
AcDbCircle
 10
658.801772
 20
1111.457476
 30
0.0
 40
0.8919069249839825
100
AcDbArc
 50
89.681623
 51
174.642128
  0
ARC
  5
1FA
330
19B
100
AcDbEntity
  8
0
  6
Continuous
 62
     0
370
    30
100
AcDbCircle
 10
659.173311
 20
1125.150671
 30
0.0
 40
6.001301946517047
100
AcDbArc
 50
270.00836
 51
314.8035
  0
ARC
  5
1FB
330
19B
100
AcDbEntity
  8
0
  6
Continuous
 62
     0
370
    30
100
AcDbCircle
 10
659.173311
 20
1106.348067
 30
0.0
 40
6.001301944212525
100
AcDbArc
 50
45.1965
 51
89.99164
  0
ARC
  5
1FC
330
19B
100
AcDbEntity
  8
0
  6
Continuous
 62
     0
370
    30
100
AcDbCircle
 10
668.512077
 20
1115.749365
 30
0.0
 40
7.249998127236342
100
AcDbArc
 50
225.18678
 51
357.449804
  0
ARC
  5
1FD
330
19B
100
AcDbEntity
  8
0
  6
Continuous
 62
     0
370
    30
100
AcDbCircle
 10
668.512077
 20
1115.749374
 30
0.0
 40
7.249998104309338
100
AcDbArc
 50
2.549909
 51
134.81322
  0
CIRCLE
  5
1FE
330
19B
100
AcDbEntity
  8
0
  6
Continuous
 62
     0
370
    30
100
AcDbCircle
 10
636.645627
 20
1115.749369
 30
0.0
 40
7.24999999999574
  0
LINE
  5
1FF
330
19B
100
AcDbEntity
  8
0
  6
Continuous
 62
     0
370
    30
100
AcDbLine
 10
621.602982
 20
1121.749369
 30
0.0
 11
622.067721
 21
1121.749369
 31
0.0
  0
LINE
  5
200
330
19B
100
AcDbEntity
  8
0
  6
Continuous
 62
     0
370
    30
100
AcDbLine
 10
621.602982
 20
1109.749369
 30
0.0
 11
622.067822
 21
1109.749369
 31
0.0
  0
ARC
  5
201
330
19B
100
AcDbEntity
  8
0
  6
Continuous
 62
     0
370
    30
100
AcDbCircle
 10
621.603184
 20
1110.750257
 30
0.0
 40
1.000887733571326
100
AcDbArc
 50
217.331732
 51
269.988465
  0
ARC
  5
202
330
19B
100
AcDbEntity
  8
0
  6
Continuous
 62
     0
370
    30
100
AcDbCircle
 10
621.603218
 20
1120.748412
 30
0.0
 40
1.000957665846831
100
AcDbArc
 50
90.013516
 51
142.666287
  0
ARC
  5
203
330
19B
100
AcDbEntity
  8
0
  6
Continuous
 62
     0
370
    30
100
AcDbCircle
 10
618.899229
 20
1122.811246
 30
0.0
 40
2.400048857987548
100
AcDbArc
 50
275.008212
 51
322.658098
  0
ARC
  5
204
330
19B
100
AcDbEntity
  8
0
  6
Continuous
 62
     0
370
    30
100
AcDbCircle
 10
618.899718
 20
1108.688375
 30
0.0
 40
2.399126502545604
100
AcDbArc
 50
38.268993
 51
85.00158
  0
LINE
  5
205
330
19B
100
AcDbEntity
  8
0
  6
Continuous
 62
     0
370
    30
100
AcDbLine
 10
615.922877
 20
1111.357116
 30
0.0
 11
619.10875
 21
1111.078378
 31
0.0
  0
LINE
  5
206
330
19B
100
AcDbEntity
  8
0
  6
Continuous
 62
     0
370
    30
100
AcDbLine
 10
619.10875
 20
1120.42036
 30
0.0
 11
615.922877
 21
1120.141622
 31
0.0
  0
ARC
  5
207
330
19B
100
AcDbEntity
  8
0
  6
Continuous
 62
     0
370
    30
100
AcDbCircle
 10
615.021629
 20
1111.447693
 30
0.0
 40
0.9016775036409936
100
AcDbArc
 50
9.598518
 51
89.916835
  0
ARC
  5
208
330
19B
100
AcDbEntity
  8
0
  6
Continuous
 62
     0
370
    30
100
AcDbCircle
 10
615.027906
 20
1120.041244
 30
0.0
 40
0.8918888351900973
100
AcDbArc
 50
269.680821
 51
354.641914
  0
ARC
  5
209
330
19B
100
AcDbEntity
  8
0
  6
Continuous
 62
     0
370
    30
100
AcDbCircle
 10
614.656355
 20
1106.348067
 30
0.0
 40
6.00130194421437
100
AcDbArc
 50
90.00836
 51
134.8035
  0
ARC
  5
20A
330
19B
100
AcDbEntity
  8
0
  6
Continuous
 62
     0
370
    30
100
AcDbCircle
 10
614.656358
 20
1125.150679
 30
0.0
 40
6.001309672972977
100
AcDbArc
 50
225.19653
 51
269.99161
  0
ARC
  5
20B
330
19B
100
AcDbEntity
  8
0
  6
Continuous
 62
     0
370
    30
100
AcDbCircle
 10
605.317589
 20
1115.749365
 30
0.0
 40
7.24999812723645
100
AcDbArc
 50
182.550196
 51
314.81322
  0
ARC
  5
20C
330
19B
100
AcDbEntity
  8
0
  6
Continuous
 62
     0
370
    30
100
AcDbCircle
 10
605.317589
 20
1115.749374
 30
0.0
 40
7.249998104309404
100
AcDbArc
 50
45.18678
 51
177.450091
  0
LINE
  5
20D
330
19B
100
AcDbEntity
  8
0
  6
Continuous
 62
     0
370
    30
100
AcDbLine
 10
622.530827
 20
1105.837278
 30
0.0
 11
622.444608
 21
1107.482424
 31
0.0
  0
LINE
  5
20E
330
19B
100
AcDbEntity
  8
0
  6
Continuous
 62
     0
370
    30
100
AcDbLine
 10
651.387318
 20
1107.52325
 30
0.0
 11
651.29896
 21
1105.837278
 31
0.0
  0
ARC
  5
20F
330
19B
100
AcDbEntity
  8
0
  6
Continuous
 62
     0
370
    30
100
AcDbCircle
 10
622.029748
 20
1101.706654
 30
0.0
 40
3.999972062089562
100
AcDbArc
 50
5.892345
 51
78.987594
  0
ARC
  5
210
330
19B
100
AcDbEntity
  8
0
  6
Continuous
 62
     0
370
    30
100
AcDbCircle
 10
651.800218
 20
1101.706486
 30
0.0
 40
4.000168104365321
100
AcDbArc
 50
99.607386
 51
174.105528
  0
ARC
  5
211
330
19B
100
AcDbEntity
  8
0
  6
Continuous
 62
     0
370
    30
100
AcDbCircle
 10
626.804561
 20
1102.199644
 30
0.0
 40
0.8002232256908575
100
AcDbArc
 50
185.907058
 51
269.985583
  0
ARC
  5
212
330
19B
100
AcDbEntity
  8
0
  6
Continuous
 62
     0
370
    30
100
AcDbCircle
 10
647.025226
 20
1102.199644
 30
0.0
 40
0.8002232256929648
100
AcDbArc
 50
270.014417
 51
354.092942
  0
ARC
  5
213
330
19B
100
AcDbEntity
  8
0
  6
Continuous
 62
     0
370
    30
100
AcDbCircle
 10
636.899549
 20
1113.551412
 30
0.0
 40
15.00375961986849
100
AcDbArc
 50
234.089067
 51
269.991367
  0
ARC
  5
214
330
19B
100
AcDbEntity
  8
0
  6
Continuous
 62
     0
370
    30
100
AcDbCircle
 10
636.897111
 20
1113.551412
 30
0.0
 40
15.00375961986779
100
AcDbArc
 50
270.008633
 51
305.910933
  0
ARC
  5
215
330
19B
100
AcDbEntity
  8
0
  6
Continuous
 62
     0
370
    30
100
AcDbCircle
 10
648.915429
 20
1135.748822
 30
0.0
 40
1.999403724216709
100
AcDbArc
 50
269.98291
 51
0.01709
  0
LINE
  5
216
330
19B
100
AcDbEntity
  8
0
  6
Continuous
 62
     0
370
    30
100
AcDbLine
 10
650.914833
 20
1135.749418
 30
0.0
 11
650.914833
 21
1153.755432
 31
0.0
  0
LINE
  5
217
330
19B
100
AcDbEntity
  8
0
  6
Continuous
 62
     0
370
    30
100
AcDbLine
 10
650.914833
 20
1171.743407
 30
0.0
 11
650.914833
 21
1187.749418
 31
0.0
  0
ARC
  5
218
330
19B
100
AcDbEntity
  8
0
  6
Continuous
 62
     0
370
    30
100
AcDbCircle
 10
648.915425
 20
1187.75001
 30
0.0
 40
1.999407612511622
100
AcDbArc
 50
359.983024
 51
90.008873
  0
LINE
  5
219
330
19B
100
AcDbEntity
  8
0
  6
Continuous
 62
     0
370
    30
100
AcDbLine
 10
622.914833
 20
1153.749418
 30
0.0
 11
349.978621
 21
1153.749418
 31
0.0
  0
LINE
  5
21A
330
19B
100
AcDbEntity
  8
0
  6
Continuous
 62
     0
370
    30
100
AcDbLine
 10
622.914833
 20
1171.749418
 30
0.0
 11
349.978621
 21
1171.749418
 31
0.0
  0
LINE
  5
21B
330
19B
100
AcDbEntity
  8
0
  6
Continuous
 62
     0
370
    30
100
AcDbLine
 10
1050.007447
 20
1153.749418
 30
0.0
 11
650.908513
 21
1153.749418
 31
0.0
  0
LINE
  5
21C
330
19B
100
AcDbEntity
  8
0
  6
Continuous
 62
     0
370
    30
100
AcDbLine
 10
1050.007447
 20
1171.749418
 30
0.0
 11
650.9085
 21
1171.749418
 31
0.0
  0
LWPOLYLINE
  5
21D
330
19B
100
AcDbEntity
  8
0
  6
Continuous
 62
     0
370
    30
100
AcDbPolyline
 90
       23
 70
     0
 43
0.0
 10
286.993042
 20
1162.752563
 10
287.008301
 20
1163.430664
 10
287.054077
 20
1164.109741
 10
287.130859
 20
1164.787476
 10
287.239105
 20
1165.461914
 10
287.379303
 20
1166.130859
 10
287.551941
 20
1166.792114
 10
287.757477
 20
1167.443848
 10
287.996399
 20
1168.083618
 10
288.269165
 20
1168.709595
 10
288.576385
 20
1169.319092
 10
288.919037
 20
1169.909058
 10
289.298218
 20
1170.47583
 10
289.714966
 20
1171.015869
 10
290.170197
 20
1171.525391
 10
290.66333
 20
1171.999023
 10
291.192993
 20
1172.429688
 10
291.757751
 20
1172.810669
 10
292.356201
 20
1173.135254
 10
292.986633
 20
1173.396729
 10
293.64267
 20
1173.589478
 10
294.314606
 20
1173.708618
 10
294.993042
 20
1173.74939
  0
LWPOLYLINE
  5
21E
330
19B
100
AcDbEntity
  8
0
  6
Continuous
 62
     0
370
    30
100
AcDbPolyline
 90
       23
 70
     0
 43
0.0
 10
286.993042
 20
1162.746338
 10
287.008301
 20
1162.068115
 10
287.054077
 20
1161.38916
 10
287.130859
 20
1160.711304
 10
287.239105
 20
1160.036987
 10
287.379303
 20
1159.368042
 10
287.551941
 20
1158.706665
 10
287.757477
 20
1158.055054
 10
287.996399
 20
1157.415161
 10
288.269165
 20
1156.789307
 10
288.576385
 20
1156.179688
 10
288.919037
 20
1155.589722
 10
289.298218
 20
1155.023071
 10
289.714966
 20
1154.483032
 10
290.170197
 20
1153.973389
 10
290.66333
 20
1153.499878
 10
291.192993
 20
1153.069214
 10
291.757751
 20
1152.688232
 10
292.356201
 20
1152.363647
 10
292.986633
 20
1152.102173
 10
293.64267
 20
1151.909424
 10
294.314606
 20
1151.790283
 10
294.993042
 20
1151.74939
  0
ARC
  5
21F
330
19B
100
AcDbEntity
  8
0
  6
Continuous
 62
     0
370
    30
100
AcDbCircle
 10
295.233508
 20
1157.489675
 30
0.0
 40
5.745291144355564
100
AcDbArc
 50
267.601299
 51
303.414232
  0
ARC
  5
220
330
19B
100
AcDbEntity
  8
0
  6
Continuous
 62
     0
370
    30
100
AcDbCircle
 10
295.233508
 20
1168.009161
 30
0.0
 40
5.745291144351528
100
AcDbArc
 50
56.585768
 51
92.398701
  0
ARC
  5
221
330
19B
100
AcDbEntity
  8
0
  6
Continuous
 62
     0
370
    30
100
AcDbCircle
 10
1104.745752
 20
1157.450901
 30
0.0
 40
5.706841970991102
100
AcDbArc
 50
236.423422
 51
272.483279
  0
ARC
  5
222
330
19B
100
AcDbEntity
  8
0
  6
Continuous
 62
     0
370
    30
100
AcDbCircle
 10
1104.745752
 20
1168.047935
 30
0.0
 40
5.706841971025778
100
AcDbArc
 50
87.516721
 51
123.576578
  0
LWPOLYLINE
  5
223
330
19B
100
AcDbEntity
  8
0
  6
Continuous
 62
     0
370
    30
100
AcDbPolyline
 90
       23
 70
     0
 43
0.0
 10
1112.993042
 20
1162.747803
 10
1112.977783
 20
1162.06958
 10
1112.932129
 20
1161.390503
 10
1112.855347
 20
1160.712646
 10
1112.747192
 20
1160.038208
 10
1112.607056
 20
1159.369141
 10
1112.434448
 20
1158.707764
 10
1112.228882
 20
1158.05603
 10
1111.98999
 20
1157.416016
 10
1111.717285
 20
1156.790039
 10
1111.410034
 20
1156.18042
 10
1111.067383
 20
1155.590454
 10
1110.688232
 20
1155.02356
 10
1110.271484
 20
1154.483521
 10
1109.816284
 20
1153.973755
 10
1109.322998
 20
1153.500122
 10
1108.793335
 20
1153.069458
 10
1108.228516
 20
1152.688354
 10
1107.630005
 20
1152.363647
 10
1106.999634
 20
1152.102173
 10
1106.343506
 20
1151.909424
 10
1105.671387
 20
1151.790283
 10
1104.993042
 20
1151.74939
  0
LWPOLYLINE
  5
224
330
19B
100
AcDbEntity
  8
0
  6
Continuous
 62
     0
370
    30
100
AcDbPolyline
 90
       23
 70
     0
 43
0.0
 10
1112.993042
 20
1162.750977
 10
1112.977783
 20
1163.429199
 10
1112.932129
 20
1164.108276
 10
1112.855347
 20
1164.786133
 10
1112.747192
 20
1165.460693
 10
1112.607056
 20
1166.129639
 10
1112.434448
 20
1166.791138
 10
1112.228882
 20
1167.442871
 10
1111.98999
 20
1168.082764
 10
1111.717285
 20
1168.70874
 10
1111.410034
 20
1169.318481
 10
1111.067383
 20
1169.908447
 10
1110.688232
 20
1170.47522
 10
1110.271484
 20
1171.015381
 10
1109.816284
 20
1171.525024
 10
1109.322998
 20
1171.998657
 10
1108.793335
 20
1172.429443
 10
1108.228516
 20
1172.810547
 10
1107.630005
 20
1173.135132
 10
1106.999634
 20
1173.396606
 10
1106.343506
 20
1173.589355
 10
1105.671387
 20
1173.708618
 10
1104.993042
 20
1173.74939
  0
ENDBLK
  5
226
330
19B
100
AcDbEntity
  8
0
100
AcDbBlockEnd
  0
BLOCK
  5
2FC
330
228
100
AcDbEntity
  8
0
100
AcDbBlockBegin
  2
d
 70
     0
 10
32.640823
 20
118.791321
 30
0.0
  3
d
  1

  0
ELLIPSE
  5
229
330
228
100
AcDbEntity
  8
0
  6
Continuous
 62
     0
370
    30
100
AcDbEllipse
 10
834.486099
 20
167.885749
 30
0.0
 11
13.7499988564303
 21
-23.81569662335124
 31
0.0
210
0.0
220
0.0
230
1.0
 40
0.57735
 41
0.7853981633974483
 42
3.926990816987241
  0
ELLIPSE
  5
22A
330
228
100
AcDbEntity
  8
0
  6
Continuous
 62
     0
370
    30
100
AcDbEllipse
 10
834.486099
 20
167.885749
 30
0.0
 11
13.7499988564303
 21
-23.81569662335124
 31
0.0
210
0.0
220
0.0
230
1.0
 40
0.57735
 41
3.926990816987241
 42
7.068583470577035
  0
ELLIPSE
  5
22B
330
228
100
AcDbEntity
  8
0
  6
Continuous
 62
     0
370
     0
100
AcDbEllipse
 10
839.082263
 20
170.539346
 30
0.0
 11
13.7499988564303
 21
-23.81569662335124
 31
0.0
210
0.0
220
0.0
230
1.0
 40
0.57735
 41
0.7853981633974483
 42
3.141592685079635
  0
ELLIPSE
  5
22C
330
228
100
AcDbEntity
  8
0
  6
Continuous
 62
     0
370
     0
100
AcDbEllipse
 10
839.082263
 20
170.539346
 30
0.0
 11
13.7499988564303
 21
-23.81569662335124
 31
0.0
210
0.0
220
0.0
230
1.0
 40
0.57735
 41
0.000000031489841
 42
0.7853981633974483
  0
ELLIPSE
  5
22D
330
228
100
AcDbEntity
  8
0
  6
Continuous
 62
     0
370
     0
100
AcDbEllipse
 10
848.437549
 20
175.940623
 30
0.0
 11
7.619665695617984
 21
-13.1976481215
 31
0.0
210
0.0
220
0.0
230
1.0
 40
0.57735
 41
0.7853981633974483
 42
2.802681347436903
  0
ELLIPSE
  5
22E
330
228
100
AcDbEntity
  8
0
  6
Continuous
 62
     0
370
     0
100
AcDbEllipse
 10
848.437549
 20
175.940623
 30
0.0
 11
7.619665695617984
 21
-13.1976481215
 31
0.0
210
0.0
220
0.0
230
1.0
 40
0.57735
 41
0.3388682666913994
 42
0.7853981633974483
  0
ELLIPSE
  5
22F
330
228
100
AcDbEntity
  8
0
  6
Continuous
 62
     0
370
     0
100
AcDbEllipse
 10
864.947296
 20
185.472529
 30
0.0
 11
5.561196378907142
 21
-9.63227467913523
 31
0.0
210
0.0
220
0.0
230
1.0
 40
0.57735
 41
0.7853981633974483
 42
3.016585295069613
  0
ELLIPSE
  5
230
330
228
100
AcDbEntity
  8
0
  6
Continuous
 62
     0
370
     0
100
AcDbEllipse
 10
864.947296
 20
185.472529
 30
0.0
 11
5.561196378907142
 21
-9.63227467913523
 31
0.0
210
0.0
220
0.0
230
1.0
 40
0.57735
 41
0.1250074214998662
 42
0.7853981633974483
  0
ELLIPSE
  5
231
330
228
100
AcDbEntity
  8
0
  6
Continuous
 62
     0
370
    30
100
AcDbEllipse
 10
302.741822
 20
474.88845
 30
0.0
 11
13.7499988564303
 21
-23.81569662335124
 31
0.0
210
0.0
220
0.0
230
1.0
 40
0.57735
 41
0.7853981633974483
 42
3.926990816987241
  0
ELLIPSE
  5
232
330
228
100
AcDbEntity
  8
0
  6
Continuous
 62
     0
370
    30
100
AcDbEllipse
 10
302.741822
 20
474.88845
 30
0.0
 11
13.7499988564303
 21
-23.81569662335124
 31
0.0
210
0.0
220
0.0
230
1.0
 40
0.57735
 41
3.926990816987242
 42
7.068583470577035
  0
ELLIPSE
  5
233
330
228
100
AcDbEntity
  8
0
  6
Continuous
 62
     0
370
     0
100
AcDbEllipse
 10
307.337986
 20
477.542046
 30
0.0
 11
13.7499988564303
 21
-23.81569662335124
 31
0.0
210
0.0
220
0.0
230
1.0
 40
0.57735
 41
0.7853981633974483
 42
3.141592685079637
  0
ELLIPSE
  5
234
330
228
100
AcDbEntity
  8
0
  6
Continuous
 62
     0
370
     0
100
AcDbEllipse
 10
307.337986
 20
477.542046
 30
0.0
 11
13.7499988564303
 21
-23.81569662335124
 31
0.0
210
0.0
220
0.0
230
1.0
 40
0.57735
 41
0.0000000314898445
 42
0.7853981633974483
  0
ELLIPSE
  5
235
330
228
100
AcDbEntity
  8
0
  6
Continuous
 62
     0
370
     0
100
AcDbEllipse
 10
316.693273
 20
482.943323
 30
0.0
 11
7.619665695617984
 21
-13.1976481215
 31
0.0
210
0.0
220
0.0
230
1.0
 40
0.57735
 41
0.7853981633974492
 42
2.802681347436905
  0
ELLIPSE
  5
236
330
228
100
AcDbEntity
  8
0
  6
Continuous
 62
     0
370
     0
100
AcDbEllipse
 10
316.693273
 20
482.943323
 30
0.0
 11
7.619665695617984
 21
-13.1976481215
 31
0.0
210
0.0
220
0.0
230
1.0
 40
0.57735
 41
0.3388682666914207
 42
0.7853981633974483
  0
ELLIPSE
  5
237
330
228
100
AcDbEntity
  8
0
  6
Continuous
 62
     0
370
     0
100
AcDbEllipse
 10
333.203019
 20
492.47523
 30
0.0
 11
5.561196378907129
 21
-9.632274679135207
 31
0.0
210
0.0
220
0.0
230
1.0
 40
0.57735
 41
0.7853981633974474
 42
3.016585295069601
  0
ELLIPSE
  5
238
330
228
100
AcDbEntity
  8
0
  6
Continuous
 62
     0
370
     0
100
AcDbEllipse
 10
333.203019
 20
492.47523
 30
0.0
 11
5.561196378907129
 21
-9.632274679135207
 31
0.0
210
0.0
220
0.0
230
1.0
 40
0.57735
 41
0.1250074214998573
 42
0.7853981633974474
  0
ELLIPSE
  5
239
330
228
100
AcDbEntity
  8
0
  6
Continuous
 62
     0
370
     0
100
AcDbEllipse
 10
901.661243
 20
182.990936
 30
0.0
 11
5.499999999976839
 21
9.526279441588708
 31
0.0
210
0.0
220
0.0
230
1.0
 40
0.57735
 41
6.253134220623721
 42
8.639379797371927
  0
ELLIPSE
  5
23A
330
228
100
AcDbEntity
  8
0
  6
Continuous
 62
     0
370
     0
100
AcDbEllipse
 10
901.661243
 20
182.990936
 30
0.0
 11
5.499999999976839
 21
9.526279441588708
 31
0.0
210
0.0
220
0.0
230
1.0
 40
0.57735
 41
2.35619449019234
 42
3.171643975754935
  0
ELLIPSE
  5
23B
330
228
100
AcDbEntity
  8
0
  6
Continuous
 62
     0
370
     0
100
AcDbEllipse
 10
899.129216
 20
184.452802
 30
0.0
 11
4.966991718362347
 21
8.603082016977426
 31
0.0
210
0.0
220
0.0
230
1.0
 40
0.57735
 41
0.5305920605198677
 42
2.35619449019235
  0
ELLIPSE
  5
23C
330
228
100
AcDbEntity
  8
0
  6
Continuous
 62
     0
370
     0
100
AcDbEllipse
 10
899.129216
 20
184.452802
 30
0.0
 11
4.966991718362347
 21
8.603082016977426
 31
0.0
210
0.0
220
0.0
230
1.0
 40
0.57735
 41
2.356194490192351
 42
2.611000285644877
  0
ELLIPSE
  5
23D
330
228
100
AcDbEntity
  8
0
  6
Continuous
 62
     0
370
     0
100
AcDbEllipse
 10
897.071607
 20
185.640763
 30
0.0
 11
4.49999999998226
 21
7.79422863402922
 31
0.0
210
0.0
220
0.0
230
1.0
 40
0.57735
 41
0.0136354929843865
 42
2.356194490192345
  0
ELLIPSE
  5
23E
330
228
100
AcDbEntity
  8
0
  6
Continuous
 62
     0
370
     0
100
AcDbEllipse
 10
897.071607
 20
185.640763
 30
0.0
 11
4.49999999998226
 21
7.79422863402922
 31
0.0
210
0.0
220
0.0
230
1.0
 40
0.57735
 41
2.356194490192345
 42
3.127957114905103
  0
ELLIPSE
  5
23F
330
228
100
AcDbEntity
  8
0
  6
Continuous
 62
     0
370
     0
100
AcDbEllipse
 10
333.49441
 20
511.02221
 30
0.0
 11
-4.499999999982117
 21
-7.794228634028974
 31
0.0
210
0.0
220
0.0
230
-1.0
 40
0.57735
 41
0.0000000228501514
 42
0.7853981633974483
  0
ELLIPSE
  5
240
330
228
100
AcDbEntity
  8
0
  6
Continuous
 62
     0
370
     0
100
AcDbEllipse
 10
333.49441
 20
511.02221
 30
0.0
 11
-4.499999999982117
 21
-7.794228634028974
 31
0.0
210
0.0
220
0.0
230
-1.0
 40
0.57735
 41
0.7853981633974483
 42
3.141592676439948
  0
ELLIPSE
  5
241
330
228
100
AcDbEntity
  8
0
  6
Continuous
 62
     0
370
     0
100
AcDbEllipse
 10
331.436801
 20
512.210171
 30
0.0
 11
4.96699171836238
 21
8.603082016977485
 31
0.0
210
0.0
220
0.0
230
1.0
 40
0.57735
 41
5.852172533079606
 42
8.639379797371932
  0
ELLIPSE
  5
242
330
228
100
AcDbEntity
  8
0
  6
Continuous
 62
     0
370
     0
100
AcDbEllipse
 10
331.436801
 20
512.210171
 30
0.0
 11
4.96699171836238
 21
8.603082016977485
 31
0.0
210
0.0
220
0.0
230
1.0
 40
0.57735
 41
2.356194490192346
 42
3.572605381989467
  0
ELLIPSE
  5
243
330
228
100
AcDbEntity
  8
0
  6
Continuous
 62
     0
370
     0
100
AcDbEllipse
 10
328.904774
 20
513.672038
 30
0.0
 11
5.499999999978113
 21
9.526279441590914
 31
0.0
210
0.0
220
0.0
230
1.0
 40
0.57735
 41
0.0000009133922472
 42
2.356194490192345
  0
ELLIPSE
  5
244
330
228
100
AcDbEntity
  8
0
  6
Continuous
 62
     0
370
     0
100
AcDbEllipse
 10
328.904774
 20
513.672038
 30
0.0
 11
5.499999999978113
 21
9.526279441590914
 31
0.0
210
0.0
220
0.0
230
1.0
 40
0.57735
 41
2.356194490192345
 42
3.141591447163338
  0
LWPOLYLINE
  5
245
330
228
100
AcDbEntity
  8
0
  6
Continuous
 62
     0
370
    30
100
AcDbPolyline
 90
       31
 70
     0
 43
0.0
 10
584.063599
 20
376.748322
 10
583.891113
 20
376.839172
 10
583.685852
 20
376.886993
 10
583.445557
 20
376.893433
 10
583.168884
 20
376.858582
 10
582.854858
 20
376.78241
 10
582.502319
 20
376.664825
 10
582.110352
 20
376.505798
 10
581.67804
 20
376.305359
 10
581.207825
 20
376.065155
 10
580.704895
 20
375.788208
 10
580.174683
 20
375.477631
 10
579.622437
 20
375.136444
 10
579.053467
 20
374.7677
 10
578.473145
 20
374.374451
 10
577.886719
 20
373.95929
 10
577.299316
 20
373.524628
 10
576.716248
 20
373.073029
 10
576.1427
 20
372.606934
 10
575.583862
 20
372.128815
 10
575.044861
 20
371.639893
 10
574.530762
 20
371.13913
 10
574.046509
 20
370.625244
 10
573.597046
 20
370.097046
 10
573.187439
 20
369.553223
 10
572.822754
 20
368.992737
 10
572.508972
 20
368.417206
 10
572.25293
 20
367.83017
 10
572.061401
 20
367.235229
 10
571.941162
 20
366.635986
 10
571.899109
 20
366.030731
  0
LWPOLYLINE
  5
246
330
228
100
AcDbEntity
  8
0
  6
Continuous
 62
     0
370
    30
100
AcDbPolyline
 90
       12
 70
     0
 43
0.0
 10
571.899109
 20
366.030731
 10
571.93457
 20
365.478668
 10
572.037354
 20
364.934021
 10
572.202087
 20
364.401733
 10
572.42334
 20
363.886749
 10
572.695862
 20
363.394012
 10
573.014099
 20
362.928467
 10
573.372986
 20
362.494629
 10
573.76825
 20
362.095001
 10
574.195862
 20
361.731293
 10
574.651978
 20
361.405334
 10
575.162903
 20
361.102509
  0
LWPOLYLINE
  5
247
330
228
100
AcDbEntity
  8
0
  6
Continuous
 62
     0
370
    30
100
AcDbPolyline
 90
       40
 70
     0
 43
0.0
 10
872.205933
 20
198.900528
 10
872.628601
 20
199.12973
 10
873.065613
 20
199.33754
 10
873.515015
 20
199.523117
 10
873.974976
 20
199.685669
 10
874.443848
 20
199.824417
 10
874.919922
 20
199.938538
 10
875.401184
 20
200.026169
 10
875.884766
 20
200.082565
 10
876.367737
 20
200.102585
 10
876.846985
 20
200.081116
 10
877.314697
 20
200.013306
 10
877.758179
 20
199.894623
 10
878.164368
 20
199.720551
 10
878.521606
 20
199.487808
 10
878.828674
 20
199.202332
 10
879.08905
 20
198.874191
 10
879.306091
 20
198.513443
 10
879.48407
 20
198.128387
 10
879.6297
 20
197.722595
 10
879.749878
 20
197.298813
 10
879.851501
 20
196.859772
 10
879.939331
 20
196.407364
 10
880.015137
 20
195.942581
 10
880.08075
 20
195.466324
 10
880.137817
 20
194.979492
 10
880.187622
 20
194.483063
 10
880.231079
 20
193.977997
 10
880.269104
 20
193.46524
 10
880.302429
 20
192.945953
 10
880.331665
 20
192.421799
 10
880.356995
 20
191.894592
 10
880.378845
 20
191.366165
 10
880.397522
 20
190.838943
 10
880.413086
 20
190.316208
 10
880.42572
 20
189.8013
 10
880.435486
 20
189.297623
 10
880.442444
 20
188.809036
 10
880.446655
 20
188.339737
 10
880.448059
 20
187.889908
  0
LWPOLYLINE
  5
248
330
228
100
AcDbEntity
  8
0
  6
Continuous
 62
     0
370
    30
100
AcDbPolyline
 90
       10
 70
     0
 43
0.0
 10
880.448059
 20
187.889908
 10
880.445312
 20
187.310699
 10
880.437134
 20
186.792313
 10
880.423401
 20
186.340881
 10
880.403992
 20
185.959549
 10
880.378601
 20
185.64743
 10
880.346741
 20
185.403122
 10
880.307678
 20
185.223572
 10
880.260559
 20
185.104889
 10
880.200134
 20
185.041168
  0
LWPOLYLINE
  5
249
330
228
100
AcDbEntity
  8
0
  6
Continuous
 62
     0
370
    30
100
AcDbPolyline
 90
       40
 70
     0
 43
0.0
 10
340.46167
 20
505.903229
 10
340.884308
 20
506.132446
 10
341.32135
 20
506.34024
 10
341.770721
 20
506.525818
 10
342.230713
 20
506.688385
 10
342.699554
 20
506.827118
 10
343.175629
 20
506.941254
 10
343.656891
 20
507.02887
 10
344.140472
 20
507.085266
 10
344.623444
 20
507.105286
 10
345.102692
 20
507.083832
 10
345.570435
 20
507.016022
 10
346.013916
 20
506.897339
 10
346.420074
 20
506.723236
 10
346.777313
 20
506.490509
 10
347.084412
 20
506.205017
 10
347.344757
 20
505.876892
 10
347.561798
 20
505.516144
 10
347.739807
 20
505.131104
 10
347.885406
 20
504.725311
 10
348.005585
 20
504.301514
 10
348.107239
 20
503.862457
 10
348.195038
 20
503.410065
 10
348.270844
 20
502.945282
 10
348.336456
 20
502.469025
 10
348.393555
 20
501.982208
 10
348.44339
 20
501.485779
 10
348.486816
 20
500.980682
 10
348.524811
 20
500.467957
 10
348.558167
 20
499.948639
 10
348.587372
 20
499.4245
 10
348.612701
 20
498.897308
 10
348.634583
 20
498.368866
 10
348.653259
 20
497.841644
 10
348.668823
 20
497.318909
 10
348.681458
 20
496.804016
 10
348.691223
 20
496.300323
 10
348.698181
 20
495.811737
 10
348.702362
 20
495.342438
 10
348.703766
 20
494.892609
  0
LWPOLYLINE
  5
24A
330
228
100
AcDbEntity
  8
0
  6
Continuous
 62
     0
370
    30
100
AcDbPolyline
 90
       10
 70
     0
 43
0.0
 10
348.703766
 20
494.892609
 10
348.70105
 20
494.313385
 10
348.692841
 20
493.795013
 10
348.679138
 20
493.343567
 10
348.659729
 20
492.96225
 10
348.634308
 20
492.650116
 10
348.602448
 20
492.405823
 10
348.563416
 20
492.226288
 10
348.516296
 20
492.107574
 10
348.455872
 20
492.043854
  0
ELLIPSE
  5
24B
330
228
100
AcDbEntity
  8
0
  6
Continuous
 62
     0
370
     0
100
AcDbEllipse
 10
570.679985
 20
396.128462
 30
0.0
 11
11.99999999995189
 21
0.0
 31
0.0
210
0.0
220
0.0
230
-1.0
 40
0.57735
 41
0.7853981633974484
 42
3.790953497113299
  0
ELLIPSE
  5
24C
330
228
100
AcDbEntity
  8
0
  6
Continuous
 62
     0
370
     0
100
AcDbEllipse
 10
570.679985
 20
396.128462
 30
0.0
 11
11.99999999995189
 21
0.0
 31
0.0
210
0.0
220
0.0
230
-1.0
 40
0.57735
 41
5.658806303676426
 42
7.068583470577035
  0
ELLIPSE
  5
24D
330
228
100
AcDbEntity
  8
0
  6
Continuous
 62
     0
370
    30
100
AcDbEllipse
 10
570.679985
 20
396.128462
 30
0.0
 11
-7.99999999996817
 21
0.0
 31
0.0
210
0.0
220
0.0
230
1.0
 40
0.57735
 41
2.356194490192345
 42
3.141592644950106
  0
ELLIPSE
  5
24E
330
228
100
AcDbEntity
  8
0
  6
Continuous
 62
     0
370
    30
100
AcDbEllipse
 10
570.679985
 20
396.128462
 30
0.0
 11
-7.99999999996817
 21
0.0
 31
0.0
210
0.0
220
0.0
230
1.0
 40
0.57735
 41
-0.0000000086396863
 42
2.356194490192345
  0
ELLIPSE
  5
24F
330
228
100
AcDbEntity
  8
0
  6
Continuous
 62
     0
370
     0
100
AcDbEllipse
 10
570.679985
 20
394.495469
 30
0.0
 11
13.99999999994392
 21
0.0
 31
0.0
210
0.0
220
0.0
230
-1.0
 40
0.57735
 41
0.7853981633974484
 42
3.141592700004531
  0
ELLIPSE
  5
250
330
228
100
AcDbEntity
  8
0
  6
Continuous
 62
     0
370
     0
100
AcDbEllipse
 10
570.679985
 20
394.495469
 30
0.0
 11
13.99999999994392
 21
0.0
 31
0.0
210
0.0
220
0.0
230
-1.0
 40
0.57735
 41
6.283182397161669
 42
7.068583470577035
  0
ELLIPSE
  5
251
330
228
100
AcDbEntity
  8
0
  6
Continuous
 62
     0
370
     0
100
AcDbEllipse
 10
570.679985
 20
352.037647
 30
0.0
 11
13.99999999994425
 21
0.0
 31
0.0
210
0.0
220
0.0
230
-1.0
 40
0.57735
 41
0.7853981633974481
 42
3.14159266222948
  0
ELLIPSE
  5
252
330
228
100
AcDbEntity
  8
0
  6
Continuous
 62
     0
370
     0
100
AcDbEllipse
 10
570.679985
 20
352.037647
 30
0.0
 11
13.99999999994425
 21
0.0
 31
0.0
210
0.0
220
0.0
230
-1.0
 40
0.57735
 41
0.0000000086396866
 42
0.7853981633974481
  0
LINE
  5
253
330
228
100
AcDbEntity
  8
0
  6
Continuous
 62
     0
370
     0
100
AcDbLine
 10
579.816635
 20
321.138557
 30
0.0
 11
579.163033
 21
320.619554
 31
0.0
  0
ARC
  5
254
330
228
100
AcDbEntity
  8
0
  6
Continuous
 62
     0
370
     0
100
AcDbCircle
 10
570.755006
 20
334.520504
 30
0.0
 40
16.24596361524724
100
AcDbArc
 50
235.464747
 51
301.167759
  0
LINE
  5
255
330
228
100
AcDbEntity
  8
0
  6
Continuous
 62
     0
370
     0
100
AcDbLine
 10
583.012609
 20
323.340113
 30
0.0
 11
581.868015
 21
322.394919
 31
0.0
  0
LWPOLYLINE
  5
256
330
228
100
AcDbEntity
  8
0
  6
Continuous
 62
     0
370
     0
100
AcDbPolyline
 90
       26
 70
     0
 43
0.0
 10
581.868042
 20
322.394928
 10
581.192749
 20
321.94632
 10
580.442993
 20
321.515686
 10
579.619751
 20
321.108521
 10
578.725647
 20
320.730469
 10
577.764893
 20
320.387085
 10
576.74353
 20
320.083771
 10
575.668945
 20
319.825378
 10
574.550293
 20
319.61615
 10
573.397827
 20
319.459473
 10
572.222839
 20
319.357788
 10
571.037231
 20
319.312469
 10
569.853149
 20
319.323639
 10
568.682556
 20
319.390381
 10
567.536743
 20
319.51062
 10
566.426147
 20
319.681396
 10
565.359985
 20
319.898834
 10
564.346008
 20
320.158447
 10
563.390564
 20
320.455322
 10
562.49823
 20
320.784302
 10
561.672119
 20
321.140076
 10
560.893982
 20
321.528168
 10
560.146606
 20
321.95929
 10
559.439514
 20
322.432861
 10
558.782471
 20
322.947418
 10
558.174866
 20
323.510925
  0
ARC
  5
257
330
228
100
AcDbEntity
  8
0
  6
Continuous
 62
     0
370
     0
100
AcDbCircle
 10
570.707847
 20
342.490563
 30
0.0
 40
21.85617604519154
100
AcDbArc
 50
238.091977
 51
300.914802
  0
LWPOLYLINE
  5
258
330
228
100
AcDbEntity
  8
0
  6
Continuous
 62
     0
370
     0
100
AcDbPolyline
 90
       28
 70
     0
 43
0.0
 10
586.025574
 20
349.286163
 10
586.116821
 20
349.668488
 10
586.253479
 20
350.02652
 10
586.437622
 20
350.349915
 10
586.669617
 20
350.628296
 10
586.947815
 20
350.852173
 10
587.26825
 20
351.013794
 10
587.624939
 20
351.107727
 10
588.010132
 20
351.13147
 10
588.414734
 20
351.085663
 10
588.829224
 20
350.973938
 10
589.244324
 20
350.80246
 10
589.65155
 20
350.579346
 10
590.043518
 20
350.313751
 10
590.418335
 20
350.012024
 10
590.794556
 20
349.659271
 10
591.169067
 20
349.253296
 10
591.533569
 20
348.797333
 10
591.87915
 20
348.297363
 10
592.19696
 20
347.761871
 10
592.478638
 20
347.201477
 10
592.717285
 20
346.628418
 10
592.907715
 20
346.055511
 10
593.04718
 20
345.495361
 10
593.135071
 20
344.95932
 10
593.172974
 20
344.45694
 10
593.16449
 20
343.995453
 10
593.113037
 20
343.572144
  0
LINE
  5
259
330
228
100
AcDbEntity
  8
0
  6
Continuous
 62
     0
370
     0
100
AcDbLine
 10
585.97406
 20
348.862097
 30
0.0
 11
586.025544
 21
349.286159
 31
0.0
  0
ARC
  5
25A
330
228
100
AcDbEntity
  8
0
  6
Continuous
 62
     0
370
     0
100
AcDbCircle
 10
591.062441
 20
343.730109
 30
0.0
 40
2.056663323780266
100
AcDbArc
 50
232.646231
 51
355.595184
  0
LINE
  5
25B
330
228
100
AcDbEntity
  8
0
  6
Continuous
 62
     0
370
     0
100
AcDbLine
 10
588.896389
 20
342.828995
 30
0.0
 11
588.728135
 21
342.303179
 31
0.0
  0
ARC
  5
25C
330
228
100
AcDbEntity
  8
0
  6
Continuous
 62
     0
370
     0
100
AcDbCircle
 10
584.113514
 20
343.254857
 30
0.0
 40
4.801796514538532
100
AcDbArc
 50
354.911862
 51
72.022685
  0
ARC
  5
25D
330
228
100
AcDbEntity
  8
0
  6
Continuous
 62
     0
370
     0
100
AcDbCircle
 10
583.353285
 20
342.900996
 30
0.0
 40
5.325089998686124
100
AcDbArc
 50
2.14676
 51
57.00894
  0
LWPOLYLINE
  5
25E
330
228
100
AcDbEntity
  8
0
  6
Continuous
 62
     0
370
    30
100
AcDbPolyline
 90
       10
 70
     0
 43
0.0
 10
588.676208
 20
341.764801
 10
588.588257
 20
341.406433
 10
588.459534
 20
341.086884
 10
588.291748
 20
340.810638
 10
588.087219
 20
340.581604
 10
587.848999
 20
340.40274
 10
587.580139
 20
340.276794
 10
587.284424
 20
340.205414
 10
586.966125
 20
340.189423
 10
586.580811
 20
340.239502
  0
LWPOLYLINE
  5
25F
330
228
100
AcDbEntity
  8
0
  6
Continuous
 62
     0
370
    30
100
AcDbPolyline
 90
       22
 70
     0
 43
0.0
 10
583.071838
 20
347.679535
 10
583.313293
 20
347.912384
 10
583.594543
 20
348.082031
 10
583.91095
 20
348.185394
 10
584.257019
 20
348.221008
 10
584.626831
 20
348.187927
 10
585.014099
 20
348.086975
 10
585.41217
 20
347.9198
 10
585.814392
 20
347.689148
 10
586.213745
 20
347.39917
 10
586.603516
 20
347.054565
 10
586.97699
 20
346.661407
 10
587.32782
 20
346.226349
 10
587.650024
 20
345.756744
 10
587.938171
 20
345.260712
 10
588.187195
 20
344.746582
 10
588.393005
 20
344.223267
 10
588.55188
 20
343.699646
 10
588.661377
 20
343.18457
 10
588.719482
 20
342.686951
 10
588.725159
 20
342.21521
 10
588.676208
 20
341.764801
  0
ARC
  5
260
330
228
100
AcDbEntity
  8
0
  6
Continuous
 62
     0
370
     0
100
AcDbCircle
 10
584.335297
 20
340.650547
 30
0.0
 40
2.284974972705344
100
AcDbArc
 50
318.998
 51
351.69336
  0
ARC
  5
261
330
228
100
AcDbEntity
  8
0
  6
Continuous
 62
     0
370
     0
100
AcDbCircle
 10
579.793822
 20
340.833763
 30
0.0
 40
6.821819295958386
100
AcDbArc
 50
355.684528
 51
67.100286
  0
ARC
  5
262
330
228
100
AcDbEntity
  8
0
  6
Continuous
 62
     0
370
     0
100
AcDbCircle
 10
577.295589
 20
339.423578
 30
0.0
 40
8.84164246851756
100
AcDbArc
 50
15.011438
 51
56.811941
  0
LWPOLYLINE
  5
263
330
228
100
AcDbEntity
  8
0
  6
Continuous
 62
     0
370
     0
100
AcDbPolyline
 90
       26
 70
     0
 43
0.0
 10
548.505188
 20
345.343292
 10
548.596558
 20
345.825348
 10
548.732788
 20
346.335266
 10
548.916016
 20
346.865509
 10
549.146729
 20
347.406647
 10
549.42334
 20
347.947754
 10
549.742188
 20
348.476929
 10
550.097473
 20
348.982208
 10
550.481689
 20
349.452393
 10
550.886108
 20
349.877777
 10
551.301514
 20
350.250946
 10
551.718689
 20
350.567047
 10
552.12915
 20
350.823914
 10
552.525574
 20
351.021912
 10
552.903625
 20
351.164001
 10
553.280762
 20
351.257843
 10
553.657715
 20
351.299255
 10
554.02655
 20
351.28183
 10
554.378662
 20
351.200867
 10
554.705261
 20
351.053925
 10
554.998047
 20
350.841278
 10
555.249817
 20
350.566101
 10
555.455017
 20
350.234344
 10
555.610291
 20
349.854309
 10
555.714355
 20
349.436005
 10
555.769165
 20
348.97525
  0
LWPOLYLINE
  5
264
330
228
100
AcDbEntity
  8
0
  6
Continuous
 62
     0
370
     0
100
AcDbPolyline
 90
       16
 70
     0
 43
0.0
 10
551.830933
 20
342.2677
 10
551.454956
 20
342.10965
 10
551.087769
 20
342.000092
 10
550.718018
 20
341.937988
 10
550.352783
 20
341.92981
 10
549.999939
 20
341.980713
 10
549.667664
 20
342.093994
 10
549.364014
 20
342.27066
 10
549.096313
 20
342.509033
 10
548.870667
 20
342.804871
 10
548.691223
 20
343.151489
 10
548.560486
 20
343.540344
 10
548.478516
 20
343.961578
 10
548.443726
 20
344.404877
 10
548.452881
 20
344.860168
 10
548.505188
 20
345.343292
  0
ARC
  5
265
330
228
100
AcDbEntity
  8
0
  6
Continuous
 62
     0
370
     0
100
AcDbCircle
 10
555.355515
 20
343.532793
 30
0.0
 40
2.710514544570771
100
AcDbArc
 50
169.368958
 51
201.342069
  0
ARC
  5
266
330
228
100
AcDbEntity
  8
0
  6
Continuous
 62
     0
370
     0
100
AcDbCircle
 10
557.372248
 20
343.447738
 30
0.0
 40
4.7171503521794
100
AcDbArc
 50
106.746486
 51
172.87485
  0
ARC
  5
267
330
228
100
AcDbEntity
  8
0
  6
Continuous
 62
     0
370
     0
100
AcDbCircle
 10
558.245867
 20
342.987108
 30
0.0
 40
5.371712950673091
100
AcDbArc
 50
123.284665
 51
170.415089
  0
LWPOLYLINE
  5
268
330
228
100
AcDbEntity
  8
0
  6
Continuous
 62
     0
370
    30
100
AcDbPolyline
 90
        8
 70
     0
 43
0.0
 10
553.613953
 20
340.64502
 10
553.367126
 20
340.870422
 10
553.163269
 20
341.153442
 10
553.005981
 20
341.489685
 10
552.897705
 20
341.873322
 10
552.840332
 20
342.298065
 10
552.834839
 20
342.756927
 10
552.884705
 20
343.265991
  0
LWPOLYLINE
  5
269
330
228
100
AcDbEntity
  8
0
  6
Continuous
 62
     0
370
    30
100
AcDbPolyline
 90
       17
 70
     0
 43
0.0
 10
552.884705
 20
343.265991
 10
552.98468
 20
343.770447
 10
553.134094
 20
344.284576
 10
553.330505
 20
344.799774
 10
553.570618
 20
345.307556
 10
553.850403
 20
345.799438
 10
554.165405
 20
346.267181
 10
554.510132
 20
346.703217
 10
554.879028
 20
347.100098
 10
555.26593
 20
347.451355
 10
555.664429
 20
347.75116
 10
556.06781
 20
347.994354
 10
556.469543
 20
348.177246
 10
556.862793
 20
348.296417
 10
557.24115
 20
348.350159
 10
557.598206
 20
348.337494
 10
557.944885
 20
348.252441
  0
ARC
  5
26A
330
228
100
AcDbEntity
  8
0
  6
Continuous
 62
     0
370
     0
100
AcDbCircle
 10
558.05402
 20
341.183172
 30
0.0
 40
3.20890264549707
100
AcDbArc
 50
167.358591
 51
214.181761
  0
ARC
  5
26B
330
228
100
AcDbEntity
  8
0
  6
Continuous
 62
     0
370
     0
100
AcDbCircle
 10
561.815699
 20
340.836232
 30
0.0
 40
6.97219066471258
100
AcDbArc
 50
114.947445
 51
171.345016
  0
ARC
  5
26C
330
228
100
AcDbEntity
  8
0
  6
Continuous
 62
     0
370
     0
100
AcDbCircle
 10
564.626453
 20
339.253843
 30
0.0
 40
9.344563353223133
100
AcDbArc
 50
134.063882
 51
161.43356
  0
ARC
  5
26D
330
228
100
AcDbEntity
  8
0
  6
Continuous
 62
     0
370
     0
100
AcDbCircle
 10
547.249692
 20
322.36401
 30
0.0
 40
8.191284100921848
100
AcDbArc
 50
9.251514
 51
56.781459
  0
LINE
  5
26E
330
228
100
AcDbEntity
  8
0
  6
Continuous
 62
     0
370
     0
100
AcDbLine
 10
555.395518
 20
322.771398
 30
0.0
 11
555.334425
 21
323.680911
 31
0.0
  0
ARC
  5
26F
330
228
100
AcDbEntity
  8
0
  6
Continuous
 62
     0
370
     0
100
AcDbCircle
 10
555.243152
 20
325.286983
 30
0.0
 40
1.982764491980711
100
AcDbArc
 50
308.759381
 51
16.042149
  0
LWPOLYLINE
  5
270
330
228
100
AcDbEntity
  8
0
  6
Continuous
 62
     0
370
     0
100
AcDbPolyline
 90
       16
 70
     0
 43
0.0
 10
557.148682
 20
325.8349
 10
557.069031
 20
326.241028
 10
556.942261
 20
326.674957
 10
556.766479
 20
327.125732
 10
556.542786
 20
327.579437
 10
556.275696
 20
328.020416
 10
555.973267
 20
328.432892
 10
555.645935
 20
328.802673
 10
555.305664
 20
329.118866
 10
554.964355
 20
329.374817
 10
554.632812
 20
329.568268
 10
554.319336
 20
329.701233
 10
554.010132
 20
329.781952
 10
553.702332
 20
329.806488
 10
553.406494
 20
329.766815
 10
553.127808
 20
329.654663
  0
ARC
  5
271
330
228
100
AcDbEntity
  8
0
  6
Continuous
 62
     0
370
     0
100
AcDbCircle
 10
555.505199
 20
325.435719
 30
0.0
 40
1.982763574721753
100
AcDbArc
 50
308.759327
 51
16.04216
  0
LWPOLYLINE
  5
272
330
228
100
AcDbEntity
  8
0
  6
Continuous
 62
     0
370
     0
100
AcDbPolyline
 90
       16
 70
     0
 43
0.0
 10
557.410767
 20
325.983643
 10
557.331055
 20
326.389771
 10
557.204346
 20
326.8237
 10
557.028503
 20
327.274445
 10
556.80481
 20
327.728149
 10
556.53772
 20
328.169159
 10
556.235291
 20
328.581635
 10
555.907959
 20
328.951416
 10
555.567688
 20
329.267609
 10
555.226379
 20
329.523529
 10
554.894897
 20
329.71701
 10
554.58136
 20
329.849976
 10
554.272217
 20
329.930664
 10
553.964417
 20
329.9552
 10
553.668518
 20
329.915558
 10
553.389893
 20
329.803375
  0
LWPOLYLINE
  5
273
330
228
100
AcDbEntity
  8
0
  6
Continuous
 62
     0
370
     0
100
AcDbPolyline
 90
       14
 70
     0
 43
0.0
 10
556.118896
 20
323.492157
 10
556.454651
 20
323.371307
 10
556.791992
 20
323.29834
 10
557.126343
 20
323.279694
 10
557.448914
 20
323.321625
 10
557.750488
 20
323.42807
 10
558.022034
 20
323.600037
 10
558.255554
 20
323.835175
 10
558.444824
 20
324.127777
 10
558.585876
 20
324.46933
 10
558.677307
 20
324.849243
 10
558.720215
 20
325.255798
 10
558.717896
 20
325.677307
 10
558.672607
 20
326.119537
  0
LWPOLYLINE
  5
274
330
228
100
AcDbEntity
  8
0
  6
Continuous
 62
     0
370
    30
100
AcDbPolyline
 90
       23
 70
     0
 43
0.0
 10
558.736206
 20
326.0961
 10
558.638245
 20
326.600037
 10
558.492065
 20
327.114075
 10
558.299866
 20
327.629669
 10
558.06488
 20
328.138367
 10
557.791138
 20
328.631744
 10
557.482971
 20
329.101654
 10
557.145569
 20
329.540405
 10
556.784424
 20
329.940613
 10
556.405579
 20
330.295807
 10
556.015259
 20
330.600128
 10
555.619873
 20
330.848389
 10
555.225952
 20
331.036743
 10
554.840088
 20
331.161804
 10
554.468506
 20
331.22171
 10
554.117493
 20
331.215454
 10
553.792725
 20
331.142944
 10
553.499573
 20
331.005707
 10
553.243042
 20
330.805664
 10
553.0271
 20
330.546387
 10
552.855469
 20
330.232056
 10
552.731018
 20
329.867737
 10
552.65332
 20
329.439545
  0
ARC
  5
275
330
228
100
AcDbEntity
  8
0
  6
Continuous
 62
     0
370
     0
100
AcDbCircle
 10
558.7122
 20
326.543015
 30
0.0
 40
2.604983815071765
100
AcDbArc
 50
303.271782
 51
17.236636
  0
LWPOLYLINE
  5
276
330
228
100
AcDbEntity
  8
0
  6
Continuous
 62
     0
370
     0
100
AcDbPolyline
 90
       23
 70
     0
 43
0.0
 10
561.200195
 20
327.314911
 10
561.110229
 20
327.790436
 10
560.973206
 20
328.29541
 10
560.786926
 20
328.820953
 10
560.551331
 20
329.355835
 10
560.268799
 20
329.887054
 10
559.944458
 20
330.400848
 10
559.585693
 20
330.883606
 10
559.201782
 20
331.323273
 10
558.80304
 20
331.710083
 10
558.399963
 20
332.037476
 10
558.002319
 20
332.302124
 10
557.61853
 20
332.504028
 10
557.253479
 20
332.646393
 10
556.889099
 20
332.737305
 10
556.526001
 20
332.771515
 10
556.173401
 20
332.741852
 10
555.841003
 20
332.643463
 10
555.538696
 20
332.474487
 10
555.27533
 20
332.236603
 10
555.058167
 20
331.934967
 10
554.892151
 20
331.578094
 10
554.779175
 20
331.175873
  0
LWPOLYLINE
  5
277
330
228
100
AcDbEntity
  8
0
  6
Continuous
 62
     0
370
     0
100
AcDbPolyline
 90
       15
 70
     0
 43
0.0
 10
559.912231
 20
324.265564
 10
560.30603
 20
324.144318
 10
560.702209
 20
324.075104
 10
561.093201
 20
324.064972
 10
561.470581
 20
324.119629
 10
561.825562
 20
324.242615
 10
562.149475
 20
324.434998
 10
562.434509
 20
324.694885
 10
562.674255
 20
325.017578
 10
562.864258
 20
325.395782
 10
563.002075
 20
325.820068
 10
563.087646
 20
326.279724
 10
563.122742
 20
326.763458
 10
563.110962
 20
327.260193
 10
563.056396
 20
327.765259
  0
LWPOLYLINE
  5
278
330
228
100
AcDbEntity
  8
0
  6
Continuous
 62
     0
370
     0
100
AcDbPolyline
 90
       26
 70
     0
 43
0.0
 10
563.056396
 20
327.765259
 10
562.963684
 20
328.268097
 10
562.827148
 20
328.799408
 10
562.644653
 20
329.352234
 10
562.415527
 20
329.917694
 10
562.140991
 20
330.485565
 10
561.824036
 20
331.044617
 10
561.469727
 20
331.583252
 10
561.084656
 20
332.090485
 10
560.676636
 20
332.556366
 10
560.254333
 20
332.972931
 10
559.826355
 20
333.334381
 10
559.401184
 20
333.637421
 10
558.986145
 20
333.881134
 10
558.587585
 20
334.066864
 10
558.203125
 20
334.199646
 10
557.815735
 20
334.284363
 10
557.430847
 20
334.314697
 10
557.05603
 20
334.284851
 10
556.699524
 20
334.190704
 10
556.369446
 20
334.030304
 10
556.073547
 20
333.80426
 10
555.818359
 20
333.515869
 10
555.60907
 20
333.170868
 10
555.44873
 20
332.777252
 10
555.335632
 20
332.328705
  0
LWPOLYLINE
  5
279
330
228
100
AcDbEntity
  8
0
  6
Continuous
 62
     0
370
     0
100
AcDbPolyline
 90
       14
 70
     0
 43
0.0
 10
561.154114
 20
324.069214
 10
561.560974
 20
324.025024
 10
561.959167
 20
324.042206
 10
562.340271
 20
324.125397
 10
562.695923
 20
324.2771
 10
563.018005
 20
324.497375
 10
563.299561
 20
324.7836
 10
563.534851
 20
325.130554
 10
563.719971
 20
325.530701
 10
563.85321
 20
325.974731
 10
563.934631
 20
326.45224
 10
563.966309
 20
326.952454
 10
563.951782
 20
327.464813
 10
563.894531
 20
327.987213
  0
LWPOLYLINE
  5
27A
330
228
100
AcDbEntity
  8
0
  6
Continuous
 62
     0
370
     0
100
AcDbPolyline
 90
       25
 70
     0
 43
0.0
 10
563.894531
 20
327.987213
 10
563.797119
 20
328.517365
 10
563.654114
 20
329.077271
 10
563.463379
 20
329.659729
 10
563.224121
 20
330.255798
 10
562.937561
 20
330.855011
 10
562.606628
 20
331.445892
 10
562.236267
 20
332.016632
 10
561.833191
 20
332.555756
 10
561.405273
 20
333.05304
 10
560.961304
 20
333.499939
 10
560.510193
 20
333.890259
 10
560.060608
 20
334.220215
 10
559.620361
 20
334.488525
 10
559.196106
 20
334.696075
 10
558.78949
 20
334.846832
 10
558.381348
 20
334.948029
 10
557.973999
 20
334.994232
 10
557.575195
 20
334.979218
 10
557.193115
 20
334.898193
 10
556.836243
 20
334.748627
 10
556.512756
 20
334.530365
 10
556.229675
 20
334.245911
 10
555.992737
 20
333.900482
 10
555.803711
 20
333.495575
  0
LINE
  5
27B
330
228
100
AcDbEntity
  8
0
  6
Continuous
 62
     0
370
     0
100
AcDbLine
 10
563.213421
 20
324.684177
 30
0.0
 11
563.780131
 21
324.892409
 31
0.0
  0
LINE
  5
27C
330
228
100
AcDbEntity
  8
0
  6
Continuous
 62
     0
370
     0
100
AcDbLine
 10
557.876226
 20
335.339444
 30
0.0
 11
557.387482
 21
334.948423
 31
0.0
  0
ARC
  5
27D
330
228
100
AcDbEntity
  8
0
  6
Continuous
 62
     0
370
     0
100
AcDbCircle
 10
593.343422
 20
322.46448
 30
0.0
 40
7.713159887115212
100
AcDbArc
 50
122.112267
 51
183.600563
  0
ARC
  5
27E
330
228
100
AcDbEntity
  8
0
  6
Continuous
 62
     0
370
     0
100
AcDbCircle
 10
585.384108
 20
324.857649
 30
0.0
 40
1.492215757308152
100
AcDbArc
 50
186.931923
 51
236.654197
  0
LWPOLYLINE
  5
27F
330
228
100
AcDbEntity
  8
0
  6
Continuous
 62
     0
370
     0
100
AcDbPolyline
 90
       19
 70
     0
 43
0.0
 10
588.007385
 20
329.474731
 10
587.737244
 20
329.590393
 10
587.434448
 20
329.639648
 10
587.10907
 20
329.621368
 10
586.772339
 20
329.538757
 10
586.435364
 20
329.398682
 10
586.107971
 20
329.210724
 10
585.798035
 20
328.985565
 10
585.492676
 20
328.716278
 10
585.18811
 20
328.395355
 10
584.894165
 20
328.02652
 10
584.621399
 20
327.617157
 10
584.380249
 20
327.178162
 10
584.179626
 20
326.723114
 10
584.026001
 20
326.266815
 10
583.922729
 20
325.823914
 10
583.869812
 20
325.407196
 10
583.864258
 20
325.026672
 10
583.902771
 20
324.677551
  0
ARC
  5
280
330
228
100
AcDbEntity
  8
0
  6
Continuous
 62
     0
370
     0
100
AcDbCircle
 10
585.126487
 20
325.00894
 30
0.0
 40
1.492212448451939
100
AcDbArc
 50
186.931884
 51
236.654561
  0
LWPOLYLINE
  5
281
330
228
100
AcDbEntity
  8
0
  6
Continuous
 62
     0
370
     0
100
AcDbPolyline
 90
       19
 70
     0
 43
0.0
 10
587.749756
 20
329.626007
 10
587.479614
 20
329.741669
 10
587.176819
 20
329.790924
 10
586.851501
 20
329.772675
 10
586.514709
 20
329.690033
 10
586.177734
 20
329.549957
 10
585.850342
 20
329.362
 10
585.540466
 20
329.136841
 10
585.235107
 20
328.867584
 10
584.930481
 20
328.546661
 10
584.636536
 20
328.177795
 10
584.36377
 20
327.768433
 10
584.12262
 20
327.329468
 10
583.921997
 20
326.87439
 10
583.768372
 20
326.418121
 10
583.6651
 20
325.97522
 10
583.612183
 20
325.558502
 10
583.606628
 20
325.177979
 10
583.645203
 20
324.828857
  0
ARC
  5
282
330
228
100
AcDbEntity
  8
0
  6
Continuous
 62
     0
370
     0
100
AcDbCircle
 10
584.101204
 20
324.837024
 30
0.0
 40
1.722739365521663
100
AcDbArc
 50
184.37469
 51
299.444052
  0
LWPOLYLINE
  5
283
330
228
100
AcDbEntity
  8
0
  6
Continuous
 62
     0
370
    30
100
AcDbPolyline
 90
       25
 70
     0
 43
0.0
 10
588.475281
 20
329.474487
 10
588.373535
 20
329.870544
 10
588.221069
 20
330.218781
 10
588.020386
 20
330.513092
 10
587.774902
 20
330.748596
 10
587.488892
 20
330.921326
 10
587.167114
 20
331.028046
 10
586.815186
 20
331.067322
 10
586.439026
 20
331.038116
 10
586.045044
 20
330.941223
 10
585.640076
 20
330.778137
 10
585.230896
 20
330.551605
 10
584.824585
 20
330.265717
 10
584.42804
 20
329.925049
 10
584.048035
 20
329.535645
 10
583.691101
 20
329.104065
 10
583.36322
 20
328.637634
 10
583.070007
 20
328.14444
 10
582.81665
 20
327.632721
 10
582.607178
 20
327.111359
 10
582.445435
 20
326.589233
 10
582.333984
 20
326.075165
 10
582.274841
 20
325.578033
 10
582.268982
 20
325.106262
 10
582.318848
 20
324.654999
  0
LINE
  5
284
330
228
100
AcDbEntity
  8
0
  6
Continuous
 62
     0
370
     0
100
AcDbLine
 10
586.413894
 20
329.387915
 30
0.0
 11
586.456237
 21
329.669707
 31
0.0
  0
LINE
  5
285
330
228
100
AcDbEntity
  8
0
  6
Continuous
 62
     0
370
     0
100
AcDbLine
 10
583.637972
 20
324.870805
 30
0.0
 11
583.863447
 21
325.045049
 31
0.0
  0
ARC
  5
286
330
228
100
AcDbEntity
  8
0
  6
Continuous
 62
     0
370
     0
100
AcDbCircle
 10
581.732457
 20
325.942099
 30
0.0
 40
1.846998591813171
100
AcDbArc
 50
183.983601
 51
294.638224
  0
LWPOLYLINE
  5
287
330
228
100
AcDbEntity
  8
0
  6
Continuous
 62
     0
370
     0
100
AcDbPolyline
 90
       22
 70
     0
 43
0.0
 10
585.671204
 20
332.310028
 10
585.367798
 20
332.486877
 10
585.024719
 20
332.595764
 10
584.65033
 20
332.633179
 10
584.254395
 20
332.599152
 10
583.847412
 20
332.497223
 10
583.439819
 20
332.333984
 10
583.041016
 20
332.118195
 10
582.658936
 20
331.859894
 10
582.291565
 20
331.562439
 10
581.921753
 20
331.210602
 10
581.556396
 20
330.80484
 10
581.204956
 20
330.34967
 10
580.87738
 20
329.852661
 10
580.583435
 20
329.324127
 10
580.331482
 20
328.776642
 10
580.128052
 20
328.223999
 10
579.977356
 20
327.680084
 10
579.880493
 20
327.157745
 10
579.836304
 20
326.667877
 10
579.841064
 20
326.21875
 10
579.889893
 20
325.813782
  0
LINE
  5
288
330
228
100
AcDbEntity
  8
0
  6
Continuous
 62
     0
370
     0
100
AcDbLine
 10
585.371195
 20
328.594961
 30
0.0
 11
585.587783
 21
329.174278
 31
0.0
  0
LINE
  5
289
330
228
100
AcDbEntity
  8
0
  6
Continuous
 62
     0
370
     0
100
AcDbLine
 10
583.647616
 20
325.870589
 30
0.0
 11
584.048055
 21
326.341936
 31
0.0
  0
ARC
  5
28A
330
228
100
AcDbEntity
  8
0
  6
Continuous
 62
     0
370
     0
100
AcDbCircle
 10
580.258968
 20
326.156643
 30
0.0
 40
2.221354399916806
100
AcDbArc
 50
184.040153
 51
295.464383
  0
LWPOLYLINE
  5
28B
330
228
100
AcDbEntity
  8
0
  6
Continuous
 62
     0
370
     0
100
AcDbPolyline
 90
       29
 70
     0
 43
0.0
 10
585.901428
 20
332.151886
 10
585.804626
 20
332.555176
 10
585.661194
 20
332.934692
 10
585.468811
 20
333.280273
 10
585.22699
 20
333.581787
 10
584.937134
 20
333.829773
 10
584.602783
 20
334.016296
 10
584.229492
 20
334.135437
 10
583.824768
 20
334.184052
 10
583.397278
 20
334.161804
 10
582.95636
 20
334.07135
 10
582.511475
 20
333.917877
 10
582.071533
 20
333.708557
 10
581.644226
 20
333.451996
 10
581.236084
 20
333.157471
 10
580.835876
 20
332.819794
 10
580.433289
 20
332.427368
 10
580.036072
 20
331.981995
 10
579.652771
 20
331.487885
 10
579.292297
 20
330.951721
 10
578.96344
 20
330.382507
 10
578.674072
 20
329.791138
 10
578.430725
 20
329.189789
 10
578.237854
 20
328.590942
 10
578.098022
 20
328.006775
 10
578.01123
 20
327.448151
 10
577.975586
 20
326.924133
 10
577.98761
 20
326.441589
 10
578.043152
 20
326.000122
  0
LINE
  5
28C
330
228
100
AcDbEntity
  8
0
  6
Continuous
 62
     0
370
     0
100
AcDbLine
 10
583.907358
 20
326.83624
 30
0.0
 11
584.870964
 21
328.477056
 31
0.0
  0
ARC
  5
28D
330
228
100
AcDbEntity
  8
0
  6
Continuous
 62
     0
370
     0
100
AcDbCircle
 10
579.533423
 20
326.258216
 30
0.0
 40
2.328174582394903
100
AcDbArc
 50
183.611127
 51
281.336123
  0
LWPOLYLINE
  5
28E
330
228
100
AcDbEntity
  8
0
  6
Continuous
 62
     0
370
     0
100
AcDbPolyline
 90
       29
 70
     0
 43
0.0
 10
585.461731
 20
333.290833
 10
585.297729
 20
333.665009
 10
585.086182
 20
334.003052
 10
584.827087
 20
334.295776
 10
584.522217
 20
334.534821
 10
584.175293
 20
334.713226
 10
583.791748
 20
334.825989
 10
583.37854
 20
334.870514
 10
582.943726
 20
334.84671
 10
582.495911
 20
334.757019
 10
582.043762
 20
334.60611
 10
581.595459
 20
334.400513
 10
581.158325
 20
334.147919
 10
580.738403
 20
333.856781
 10
580.332397
 20
333.528595
 10
579.923218
 20
333.148376
 10
579.516418
 20
332.716187
 10
579.119568
 20
332.234955
 10
578.740723
 20
331.709869
 10
578.388184
 20
331.148163
 10
578.06958
 20
330.558929
 10
577.791748
 20
329.952789
 10
577.559937
 20
329.341034
 10
577.377869
 20
328.735138
 10
577.247131
 20
328.146027
 10
577.167419
 20
327.583344
 10
577.13678
 20
327.055115
 10
577.151672
 20
326.567352
 10
577.2099
 20
326.111572
  0
LWPOLYLINE
  5
28F
330
228
100
AcDbEntity
  8
0
  6
Continuous
 62
     0
370
    30
100
AcDbPolyline
 90
        7
 70
     0
 43
0.0
 10
576.580933
 20
326.480927
 10
576.691772
 20
326.063873
 10
576.847778
 20
325.677551
 10
577.046814
 20
325.325897
 10
577.285767
 20
325.013885
 10
577.561279
 20
324.746429
 10
577.924133
 20
324.495209
  0
LWPOLYLINE
  5
290
330
228
100
AcDbEntity
  8
0
  6
Continuous
 62
     0
370
    30
100
AcDbPolyline
 90
       23
 70
     0
 43
0.0
 10
583.970093
 20
334.860504
 10
583.638489
 20
335.009094
 10
583.269531
 20
335.087891
 10
582.866272
 20
335.095856
 10
582.432678
 20
335.033356
 10
581.97406
 20
334.902466
 10
581.49585
 20
334.705353
 10
581.003601
 20
334.444275
 10
580.503784
 20
334.122742
 10
580.003845
 20
333.745636
 10
579.51123
 20
333.317749
 10
579.033447
 20
332.844055
 10
578.577698
 20
332.330414
 10
578.151184
 20
331.783295
 10
577.760864
 20
331.209167
 10
577.413818
 20
330.614624
 10
577.11554
 20
330.006317
 10
576.870911
 20
329.391022
 10
576.684753
 20
328.775482
 10
576.561401
 20
328.166962
 10
576.502625
 20
327.575287
 10
576.509033
 20
327.011292
 10
576.580933
 20
326.480927
  0
LINE
  5
291
330
228
100
AcDbEntity
  8
0
  6
Continuous
 62
     0
370
     0
100
AcDbLine
 10
560.367512
 20
323.852115
 30
0.0
 11
559.789425
 21
324.212201
 31
0.0
  0
ARC
  5
292
330
228
100
AcDbEntity
  8
0
  6
Continuous
 62
     0
370
     0
100
AcDbCircle
 10
570.6516
 20
343.784478
 30
0.0
 40
22.42903471271373
100
AcDbArc
 50
242.708562
 51
298.542704
  0
LWPOLYLINE
  5
293
330
228
100
AcDbEntity
  8
0
  6
Continuous
 62
     0
370
    30
100
AcDbPolyline
 90
       10
 70
     0
 43
0.0
 10
556.772278
 20
334.749451
 10
557.013306
 20
334.994843
 10
557.294312
 20
335.181274
 10
557.615845
 20
335.306915
 10
557.974243
 20
335.370453
 10
558.362915
 20
335.37085
 10
558.775391
 20
335.307129
 10
559.205139
 20
335.178314
 10
559.6474
 20
334.987305
 10
560.11969
 20
334.735138
  0
LWPOLYLINE
  5
294
330
228
100
AcDbEntity
  8
0
  6
Continuous
 62
     0
370
     0
100
AcDbPolyline
 90
       22
 70
     0
 43
0.0
 10
560.332642
 20
335.709625
 10
559.720764
 20
336.092041
 10
559.138
 20
336.505615
 10
558.590637
 20
336.949677
 10
558.0849
 20
337.422943
 10
557.626953
 20
337.923676
 10
557.222717
 20
338.449554
 10
556.877686
 20
338.997803
 10
556.596802
 20
339.565063
 10
556.384216
 20
340.147552
 10
556.243103
 20
340.741119
 10
556.17572
 20
341.341339
 10
556.183167
 20
341.943634
 10
556.265381
 20
342.543304
 10
556.421204
 20
343.135742
 10
556.648315
 20
343.716583
 10
556.943359
 20
344.281677
 10
557.302124
 20
344.827271
 10
557.719666
 20
345.350067
 10
558.190369
 20
345.84726
 10
558.708313
 20
346.316589
 10
559.286194
 20
346.770233
  0
LWPOLYLINE
  5
295
330
228
100
AcDbEntity
  8
0
  6
Continuous
 62
     0
370
     0
100
AcDbPolyline
 90
       38
 70
     0
 43
0.0
 10
584.837463
 20
343.419037
 10
585.031067
 20
342.820618
 10
585.149292
 20
342.212158
 10
585.190308
 20
341.59845
 10
585.153259
 20
340.984436
 10
585.038757
 20
340.375031
 10
584.848511
 20
339.775055
 10
584.585449
 20
339.189117
 10
584.25354
 20
338.621368
 10
583.857666
 20
338.075653
 10
583.403442
 20
337.555176
 10
582.896973
 20
337.062622
 10
582.344849
 20
336.600098
 10
581.753723
 20
336.169128
 10
581.130249
 20
335.77063
 10
580.475281
 20
335.402069
 10
579.766846
 20
335.051331
 10
579.00293
 20
334.720337
 10
578.185364
 20
334.412933
 10
577.317078
 20
334.132935
 10
576.401794
 20
333.884033
 10
575.44458
 20
333.669708
 10
574.451172
 20
333.493103
 10
573.428406
 20
333.356842
 10
572.383606
 20
333.263153
 10
571.32489
 20
333.21347
 10
570.26062
 20
333.20871
 10
569.199463
 20
333.248932
 10
568.14978
 20
333.333557
 10
567.119873
 20
333.461273
 10
566.117371
 20
333.630157
 10
565.149231
 20
333.837646
 10
564.221741
 20
334.08075
 10
563.340027
 20
334.356079
 10
562.508362
 20
334.660004
 10
561.729919
 20
334.988678
 10
561.006897
 20
335.338287
 10
560.332642
 20
335.709625
  0
ARC
  5
296
330
228
100
AcDbEntity
  8
0
  6
Continuous
 62
     0
370
    30
100
AcDbCircle
 10
555.110907
 20
326.424193
 30
0.0
 40
9.703593090759195
100
AcDbArc
 50
5.610381
 51
58.923807
  0
ARC
  5
297
330
228
100
AcDbEntity
  8
0
  6
Continuous
 62
     0
370
    30
100
AcDbCircle
 10
561.79564
 20
327.061792
 30
0.0
 40
2.988609184370715
100
AcDbArc
 50
288.421894
 51
5.974176
  0
LWPOLYLINE
  5
298
330
228
100
AcDbEntity
  8
0
  6
Continuous
 62
     0
370
     0
100
AcDbPolyline
 90
       21
 70
     0
 43
0.0
 10
560.56897
 20
336.113281
 10
559.953491
 20
336.498657
 10
559.368408
 20
336.916351
 10
558.820435
 20
337.36554
 10
558.316162
 20
337.84491
 10
557.862244
 20
338.352448
 10
557.464844
 20
338.885712
 10
557.129822
 20
339.441559
 10
556.862305
 20
340.016296
 10
556.666443
 20
340.605835
 10
556.54541
 20
341.205627
 10
556.501282
 20
341.810913
 10
556.534851
 20
342.416748
 10
556.64563
 20
343.018127
 10
556.831909
 20
343.610199
 10
557.090698
 20
344.188416
 10
557.418152
 20
344.748474
 10
557.809204
 20
345.286621
 10
558.258362
 20
345.799591
 10
558.759338
 20
346.284668
 10
559.313538
 20
346.745972
  0
LWPOLYLINE
  5
299
330
228
100
AcDbEntity
  8
0
  6
Continuous
 62
     0
370
     0
100
AcDbPolyline
 90
       44
 70
     0
 43
0.0
 10
582.047791
 20
346.744934
 10
582.587036
 20
346.296906
 10
583.082703
 20
345.819427
 10
583.528442
 20
345.314423
 10
583.918213
 20
344.784363
 10
584.246399
 20
344.232391
 10
584.508118
 20
343.662018
 10
584.69928
 20
343.077332
 10
584.816833
 20
342.482697
 10
584.858826
 20
341.882843
 10
584.824524
 20
341.282532
 10
584.714478
 20
340.686646
 10
584.530212
 20
340.099854
 10
584.274719
 20
339.526672
 10
583.951782
 20
338.971222
 10
583.566162
 20
338.437195
 10
583.123352
 20
337.927795
 10
582.629395
 20
337.445679
 10
582.090515
 20
336.992859
 10
581.513428
 20
336.570892
 10
580.90448
 20
336.180634
 10
580.265076
 20
335.819885
 10
579.573669
 20
335.476685
 10
578.827942
 20
335.152679
 10
578.029724
 20
334.851715
 10
577.181763
 20
334.577454
 10
576.287842
 20
334.333557
 10
575.352783
 20
334.123383
 10
574.382263
 20
333.950043
 10
573.382812
 20
333.816162
 10
572.361755
 20
333.723846
 10
571.326965
 20
333.674591
 10
570.28656
 20
333.66922
 10
569.249084
 20
333.707855
 10
568.222778
 20
333.789948
 10
567.215576
 20
333.914185
 10
566.235107
 20
334.078705
 10
565.288269
 20
334.281036
 10
564.380981
 20
334.51825
 10
563.518433
 20
334.787018
 10
562.704773
 20
335.083771
 10
561.943115
 20
335.404816
 10
561.235657
 20
335.746368
 10
560.56897
 20
336.113281
  0
ARC
  5
29A
330
228
100
AcDbEntity
  8
0
  6
Continuous
 62
     0
370
     0
100
AcDbCircle
 10
567.358671
 20
344.002394
 30
0.0
 40
3.054631969484941
100
AcDbArc
 50
178.964732
 51
246.121884
  0
LWPOLYLINE
  5
29B
330
228
100
AcDbEntity
  8
0
  6
Continuous
 62
     0
370
     0
100
AcDbPolyline
 90
       24
 70
     0
 43
0.0
 10
577.055603
 20
344.056854
 10
577.066223
 20
343.645874
 10
576.997864
 20
343.237488
 10
576.852844
 20
342.839172
 10
576.636292
 20
342.457733
 10
576.35553
 20
342.099121
 10
576.019531
 20
341.767975
 10
575.638245
 20
341.467621
 10
575.222046
 20
341.199982
 10
574.767395
 20
340.959259
 10
574.256409
 20
340.737823
 10
573.691589
 20
340.541382
 10
573.078247
 20
340.375671
 10
572.423889
 20
340.246063
 10
571.738403
 20
340.157013
 10
571.033264
 20
340.111694
 10
570.321289
 20
340.111877
 10
569.615601
 20
340.157593
 10
568.929077
 20
340.247223
 10
568.273315
 20
340.377686
 10
567.658325
 20
340.544495
 10
567.091797
 20
340.742462
 10
566.579224
 20
340.965698
 10
566.122192
 20
341.209198
  0
LWPOLYLINE
  5
29C
330
228
100
AcDbEntity
  8
0
  6
Continuous
 62
     0
370
     0
100
AcDbPolyline
 90
        8
 70
     0
 43
0.0
 10
566.223083
 20
341.422668
 10
565.767151
 20
341.722321
 10
565.369629
 20
342.050507
 10
565.036316
 20
342.402466
 10
564.772949
 20
342.773376
 10
564.58313
 20
343.158539
 10
564.468384
 20
343.553223
 10
564.429993
 20
343.959351
  0
LWPOLYLINE
  5
29D
330
228
100
AcDbEntity
  8
0
  6
Continuous
 62
     0
370
     0
100
AcDbPolyline
 90
       22
 70
     0
 43
0.0
 10
576.929993
 20
343.956116
 10
576.890869
 20
343.550568
 10
576.773132
 20
343.150055
 10
576.578613
 20
342.759674
 10
576.309143
 20
342.384521
 10
575.967957
 20
342.029266
 10
575.56012
 20
341.698242
 10
575.090576
 20
341.395752
 10
574.56488
 20
341.125854
 10
573.989868
 20
340.891724
 10
573.373169
 20
340.696198
 10
572.722229
 20
340.542084
 10
572.045288
 20
340.431396
 10
571.351074
 20
340.365051
 10
570.648621
 20
340.343994
 10
569.946716
 20
340.368866
 10
569.253967
 20
340.439148
 10
568.578857
 20
340.553894
 10
567.929871
 20
340.71225
 10
567.315613
 20
340.911987
 10
566.744507
 20
341.149567
 10
566.223083
 20
341.422668
  0
ELLIPSE
  5
29E
330
228
100
AcDbEntity
  8
0
  6
Continuous
 62
     0
370
    30
100
AcDbEllipse
 10
570.679985
 20
398.577952
 30
0.0
 11
-7.999999999968182
 21
0.0
 31
0.0
210
0.0
220
0.0
230
1.0
 40
0.57735
 41
6.114586388538005
 42
8.63937979737193
  0
ELLIPSE
  5
29F
330
228
100
AcDbEntity
  8
0
  6
Continuous
 62
     0
370
    30
100
AcDbEllipse
 10
570.679985
 20
398.577952
 30
0.0
 11
-7.999999999968182
 21
0.0
 31
0.0
210
0.0
220
0.0
230
1.0
 40
0.57735
 41
2.356194490192345
 42
3.141592644950106
  0
ELLIPSE
  5
2A0
330
228
100
AcDbEntity
  8
0
  6
Continuous
 62
     0
370
    30
100
AcDbEllipse
 10
570.679985
 20
398.577952
 30
0.0
 11
4.999999999980234
 21
0.0
 31
0.0
210
0.0
220
0.0
230
-1.0
 40
0.57735
 41
1.944987714822959
 42
2.744680870746851
  0
LINE
  5
2A1
330
228
100
AcDbEntity
  8
0
  6
Continuous
 62
     0
370
    30
100
AcDbLine
 10
582.347247
 20
419.179891
 30
0.0
 11
582.347247
 21
424.546986
 31
0.0
  0
ELLIPSE
  5
2A2
330
228
100
AcDbEntity
  8
0
  6
Continuous
 62
     0
370
    30
100
AcDbEllipse
 10
576.336839
 20
410.008904
 30
0.0
 11
5.500000000000001
 21
9.526279441628827
 31
0.0
210
0.0
220
0.0
230
1.0
 40
0.57735
 41
1.668524838281223
 42
6.18545679569326
  0
LINE
  5
2A3
330
228
100
AcDbEntity
  8
0
  6
Continuous
 62
     0
370
    30
100
AcDbLine
 10
570.326431
 20
417.606765
 30
0.0
 11
570.326431
 21
412.239671
 31
0.0
  0
ELLIPSE
  5
2A4
330
228
100
AcDbEntity
  8
0
  6
Continuous
 62
     0
370
    30
100
AcDbEllipse
 10
576.336839
 20
410.008904
 30
0.0
 11
-8.000000000000002
 21
-13.85640646055102
 31
0.0
210
0.0
220
0.0
230
-1.0
 40
0.57735
 41
2.916269796418927
 42
8.079304491145347
  0
LINE
  5
2A5
330
228
100
AcDbEntity
  8
0
  6
Continuous
 62
     0
370
    30
100
AcDbLine
 10
571.033538
 20
431.078959
 30
0.0
 11
571.033538
 21
425.711864
 31
0.0
  0
ELLIPSE
  5
2A6
330
228
100
AcDbEntity
  8
0
  6
Continuous
 62
     0
370
    30
100
AcDbEllipse
 10
565.023131
 20
416.540877
 30
0.0
 11
8.000000000000002
 21
13.85640646055102
 31
0.0
210
0.0
220
0.0
230
1.0
 40
0.57735
 41
-0.0000000228501555
 42
0.225322857170867
  0
ELLIPSE
  5
2A7
330
228
100
AcDbEntity
  8
0
  6
Continuous
 62
     0
370
    30
100
AcDbEllipse
 10
565.023131
 20
416.540877
 30
0.0
 11
8.000000000000002
 21
13.85640646055102
 31
0.0
210
0.0
220
0.0
230
1.0
 40
0.57735
 41
1.345473469624031
 42
3.141592630739637
  0
ELLIPSE
  5
2A8
330
228
100
AcDbEntity
  8
0
  6
Continuous
 62
     0
370
    30
100
AcDbEllipse
 10
565.023131
 20
416.540877
 30
0.0
 11
-5.500000000000001
 21
-9.526279441628827
 31
0.0
210
0.0
220
0.0
230
-1.0
 40
0.57735
 41
3.239321165076119
 42
4.7475418654376
  0
LINE
  5
2A9
330
228
100
AcDbEntity
  8
0
  6
Continuous
 62
     0
370
    30
100
AcDbLine
 10
559.012723
 20
424.138738
 30
0.0
 11
570.326431
 21
417.606765
 31
0.0
  0
LINE
  5
2AA
330
228
100
AcDbEntity
  8
0
  6
Continuous
 62
     0
370
    30
100
AcDbLine
 10
571.033538
 20
425.711864
 30
0.0
 11
582.347247
 21
419.179891
 31
0.0
  0
LINE
  5
2AB
330
228
100
AcDbEntity
  8
0
  6
Continuous
 62
     0
370
    30
100
AcDbLine
 10
582.347247
 20
424.546986
 30
0.0
 11
571.033538
 21
431.078959
 31
0.0
  0
LINE
  5
2AC
330
228
100
AcDbEntity
  8
0
  6
Continuous
 62
     0
370
    30
100
AcDbLine
 10
584.336839
 20
423.86531
 30
0.0
 11
573.023131
 21
430.397283
 31
0.0
  0
LINE
  5
2AD
330
228
100
AcDbEntity
  8
0
  6
Continuous
 62
     0
370
    30
100
AcDbLine
 10
568.336839
 20
396.152498
 30
0.0
 11
557.02313
 21
402.68447
 31
0.0
  0
LINE
  5
2AE
330
228
100
AcDbEntity
  8
0
  6
Continuous
 62
     0
370
    30
100
AcDbLine
 10
578.679985
 20
398.577952
 30
0.0
 11
578.679985
 21
396.128462
 31
0.0
  0
LINE
  5
2AF
330
228
100
AcDbEntity
  8
0
  6
Continuous
 62
     0
370
    30
100
AcDbLine
 10
562.679985
 20
398.577952
 30
0.0
 11
562.679985
 21
396.128462
 31
0.0
  0
LWPOLYLINE
  5
2B0
330
228
100
AcDbEntity
  8
0
  6
Continuous
 62
     0
370
    30
100
AcDbPolyline
 90
        7
 70
     0
 43
0.0
 10
582.107727
 20
346.798096
 10
582.725891
 20
346.296967
 10
583.282654
 20
345.768585
 10
583.77478
 20
345.214844
 10
584.199219
 20
344.638336
 10
584.552979
 20
344.042328
 10
584.837463
 20
343.419037
  0
LWPOLYLINE
  5
2B1
330
228
100
AcDbEntity
  8
0
  6
Continuous
 62
     0
370
    30
100
AcDbPolyline
 90
        7
 70
     0
 43
0.0
 10
556.522583
 20
343.419098
 10
556.801636
 20
344.032104
 10
557.154297
 20
344.628784
 10
557.577637
 20
345.205688
 10
558.068787
 20
345.759674
 10
558.624634
 20
346.288544
 10
559.253845
 20
346.799133
  0
ARC
  5
2B2
330
228
100
AcDbEntity
  8
0
  6
Continuous
 62
     0
370
    30
100
AcDbCircle
 10
576.445178
 20
335.702495
 30
0.0
 40
21.36481158290488
100
AcDbArc
 50
158.827132
 51
188.758231
  0
ARC
  5
2B3
330
228
100
AcDbEntity
  8
0
  6
Continuous
 62
     0
370
    30
100
AcDbCircle
 10
564.97742
 20
335.712326
 30
0.0
 40
21.30291279402314
100
AcDbArc
 50
350.369144
 51
21.209
  0
ARC
  5
2B4
330
228
100
AcDbEntity
  8
0
  6
Continuous
 62
     0
370
    30
100
AcDbCircle
 10
582.698606
 20
331.842104
 30
0.0
 40
3.249520135488207
100
AcDbArc
 50
5.549284
 51
57.317927
  0
ARC
  5
2B5
330
228
100
AcDbEntity
  8
0
  6
Continuous
 62
     0
370
    30
100
AcDbCircle
 10
579.913265
 20
327.108949
 30
0.0
 40
3.263819260490846
100
AcDbArc
 50
241.909216
 51
294.250981
  0
LINE
  5
2B6
330
228
100
AcDbEntity
  8
0
  6
Continuous
 62
     0
370
    30
100
AcDbLine
 10
587.755106
 20
330.763582
 30
0.0
 11
585.671191
 21
332.310024
 31
0.0
  0
LINE
  5
2B7
330
228
100
AcDbEntity
  8
0
  6
Continuous
 62
     0
370
    30
100
AcDbLine
 10
583.315341
 20
323.203612
 30
0.0
 11
580.949673
 21
324.270289
 31
0.0
  0
ARC
  5
2B8
330
228
100
AcDbEntity
  8
0
  6
Continuous
 62
     0
370
    30
100
AcDbCircle
 10
589.232089
 20
331.375269
 30
0.0
 40
2.260967790778103
100
AcDbArc
 50
237.202703
 51
277.705218
  0
ARC
  5
2B9
330
228
100
AcDbEntity
  8
0
  6
Continuous
 62
     0
370
    30
100
AcDbCircle
 10
583.410284
 20
321.526426
 30
0.0
 40
2.382557005515609
100
AcDbArc
 50
23.941102
 51
61.041775
  0
ARC
  5
2BA
330
228
100
AcDbEntity
  8
0
  6
Continuous
 62
     0
370
    30
100
AcDbCircle
 10
592.831958
 20
322.698388
 30
0.0
 40
7.249735931642023
100
AcDbArc
 50
190.263796
 51
119.670455
  0
LINE
  5
2BB
330
228
100
AcDbEntity
  8
0
  6
Continuous
 62
     0
370
    30
100
AcDbLine
 10
585.582551
 20
322.764183
 30
0.0
 11
585.698233
 21
321.406626
 31
0.0
  0
LINE
  5
2BC
330
228
100
AcDbEntity
  8
0
  6
Continuous
 62
     0
370
    30
100
AcDbLine
 10
562.722368
 20
324.291844
 30
0.0
 11
563.780208
 21
324.892269
 31
0.0
  0
ARC
  5
2BD
330
228
100
AcDbEntity
  8
0
  6
Continuous
 62
     0
370
    30
100
AcDbCircle
 10
561.257112
 20
327.141444
 30
0.0
 40
3.204245752089395
100
AcDbArc
 50
244.4743
 51
297.212087
  0
ARC
  5
2BE
330
228
100
AcDbEntity
  8
0
  6
Continuous
 62
     0
370
    30
100
AcDbCircle
 10
558.481319
 20
332.021248
 30
0.0
 40
3.18697860933879
100
AcDbArc
 50
121.864331
 51
174.831362
  0
LINE
  5
2BF
330
228
100
AcDbEntity
  8
0
  6
Continuous
 62
     0
370
    30
100
AcDbLine
 10
553.412368
 20
330.94768
 30
0.0
 11
555.538506
 21
332.474375
 31
0.0
  0
LINE
  5
2C0
330
228
100
AcDbEntity
  8
0
  6
Continuous
 62
     0
370
    30
100
AcDbLine
 10
557.740516
 20
323.322269
 30
0.0
 11
560.141324
 21
324.365047
 31
0.0
  0
ARC
  5
2C1
330
228
100
AcDbEntity
  8
0
  6
Continuous
 62
     0
370
    30
100
AcDbCircle
 10
551.816537
 20
331.879394
 30
0.0
 40
2.582429211977194
100
AcDbArc
 50
268.344951
 51
300.515514
  0
ARC
  5
2C2
330
228
100
AcDbEntity
  8
0
  6
Continuous
 62
     0
370
    30
100
AcDbCircle
 10
557.772938
 20
321.421714
 30
0.0
 40
2.653036414202673
100
AcDbArc
 50
119.055736
 51
150.351464
  0
ARC
  5
2C3
330
228
100
AcDbEntity
  8
0
  6
Continuous
 62
     0
370
    30
100
AcDbCircle
 10
548.147039
 20
322.917473
 30
0.0
 40
7.249951228215633
100
AcDbArc
 50
188.382134
 51
358.845526
  0
ARC
  5
2C4
330
228
100
AcDbEntity
  8
0
  6
Continuous
 62
     0
370
    30
100
AcDbCircle
 10
548.149001
 20
322.915134
 30
0.0
 40
7.251551826859625
100
AcDbArc
 50
60.342342
 51
188.361505
  0
ARC
  5
2C5
330
228
100
AcDbEntity
  8
0
  6
Continuous
 62
     0
370
    30
100
AcDbCircle
 10
562.199589
 20
339.973462
 30
0.0
 40
6.815477187982097
100
AcDbArc
 50
160.672246
 51
184.650266
  0
LINE
  5
2C6
330
228
100
AcDbEntity
  8
0
  6
Continuous
 62
     0
370
    30
100
AcDbLine
 10
553.604864
 20
340.651768
 30
0.0
 11
555.390166
 21
339.326922
 31
0.0
  0
LINE
  5
2C7
330
228
100
AcDbEntity
  8
0
  6
Continuous
 62
     0
370
    30
100
AcDbLine
 10
551.824717
 20
342.28062
 30
0.0
 11
552.851615
 21
342.171262
 31
0.0
  0
LINE
  5
2C8
330
228
100
AcDbEntity
  8
0
  6
Continuous
 62
     0
370
    30
100
AcDbLine
 10
556.351746
 20
348.129839
 30
0.0
 11
555.75531
 21
348.974394
 31
0.0
  0
ARC
  5
2C9
330
228
100
AcDbEntity
  8
0
  6
Continuous
 62
     0
370
    30
100
AcDbCircle
 10
548.529066
 20
348.716325
 30
0.0
 40
7.24863827862837
100
AcDbArc
 50
2.045329
 51
297.116439
  0
LINE
  5
2CA
330
228
100
AcDbEntity
  8
0
  6
Continuous
 62
     0
370
    30
100
AcDbLine
 10
582.142739
 20
346.829576
 30
0.0
 11
583.606436
 21
345.640878
 31
0.0
  0
ARC
  5
2CB
330
228
100
AcDbEntity
  8
0
  6
Continuous
 62
     0
370
    30
100
AcDbCircle
 10
579.761287
 20
339.901198
 30
0.0
 40
6.338859638767479
100
AcDbArc
 50
351.393131
 51
16.614449
  0
LINE
  5
2CC
330
228
100
AcDbEntity
  8
0
  6
Continuous
 62
     0
370
    30
100
AcDbLine
 10
587.947601
 20
340.467671
 30
0.0
 11
586.053685
 21
339.107724
 31
0.0
  0
LINE
  5
2CD
330
228
100
AcDbEntity
  8
0
  6
Continuous
 62
     0
370
    30
100
AcDbLine
 10
583.139995
 20
347.884831
 30
0.0
 11
583.619453
 21
348.093081
 31
0.0
  0
LINE
  5
2CE
330
228
100
AcDbEntity
  8
0
  6
Continuous
 62
     0
370
    30
100
AcDbLine
 10
585.98789
 20
348.900266
 30
0.0
 11
585.303457
 21
347.971611
 31
0.0
  0
ARC
  5
2CF
330
228
100
AcDbEntity
  8
0
  6
Continuous
 62
     0
370
    30
100
AcDbCircle
 10
589.478889
 20
340.029673
 30
0.0
 40
2.091647878479459
100
AcDbArc
 50
79.643561
 51
111.675232
  0
ARC
  5
2D0
330
228
100
AcDbEntity
  8
0
  6
Continuous
 62
     0
370
    30
100
AcDbCircle
 10
593.212793
 20
348.497578
 30
0.0
 40
7.250110300548378
100
AcDbArc
 50
242.35342
 51
345.121121
  0
ARC
  5
2D1
330
228
100
AcDbEntity
  8
0
  6
Continuous
 62
     0
370
    30
100
AcDbCircle
 10
593.232677
 20
348.487933
 30
0.0
 40
7.270579073283821
100
AcDbArc
 50
134.935425
 51
173.680111
  0
LWPOLYLINE
  5
2D2
330
228
100
AcDbEntity
  8
0
  6
Continuous
 62
     0
370
    30
100
AcDbPolyline
 90
       25
 70
     0
 43
0.0
 10
580.240173
 20
321.409515
 10
579.727356
 20
320.89859
 10
579.144348
 20
320.422516
 10
578.496033
 20
319.983368
 10
577.787598
 20
319.583282
 10
577.024841
 20
319.224182
 10
576.213745
 20
318.90799
 10
575.360229
 20
318.636688
 10
574.470276
 20
318.412201
 10
573.55011
 20
318.236206
 10
572.607178
 20
318.109558
 10
571.64917
 20
318.032928
 10
570.683655
 20
318.006958
 10
569.718384
 20
318.032318
 10
568.760742
 20
318.108917
 10
567.818054
 20
318.235657
 10
566.897522
 20
318.411407
 10
566.006348
 20
318.63504
 10
565.151855
 20
318.905365
 10
564.340698
 20
319.221008
 10
563.578369
 20
319.579895
 10
562.870178
 20
319.97998
 10
562.221497
 20
320.419098
 10
561.637695
 20
320.895233
 10
561.121338
 20
321.408905
  0
LWPOLYLINE
  5
2D3
330
228
100
AcDbEntity
  8
0
  6
Continuous
 62
     0
370
    30
100
AcDbPolyline
 90
       46
 70
     0
 43
0.0
 10
556.679993
 20
352.037659
 10
556.720154
 20
351.352081
 10
556.838379
 20
350.67218
 10
557.031555
 20
350.004822
 10
557.296265
 20
349.356873
 10
557.62915
 20
348.734528
 10
558.026245
 20
348.140106
 10
558.483032
 20
347.574738
 10
558.995422
 20
347.039581
 10
559.55957
 20
346.535492
 10
560.172546
 20
346.063171
 10
560.831421
 20
345.623322
 10
561.533325
 20
345.216583
 10
562.27533
 20
344.843597
 10
563.054565
 20
344.505066
 10
563.867981
 20
344.20163
 10
564.712158
 20
343.93399
 10
565.582947
 20
343.702698
 10
566.476501
 20
343.508453
 10
567.388672
 20
343.351898
 10
568.315552
 20
343.233643
 10
569.253113
 20
343.154358
 10
570.197327
 20
343.114624
 10
571.144043
 20
343.114594
 10
572.088867
 20
343.153931
 10
573.027405
 20
343.2323
 10
573.955444
 20
343.349274
 10
574.868469
 20
343.504517
 10
575.762146
 20
343.697662
 10
576.632263
 20
343.928284
 10
577.475403
 20
344.195679
 10
578.288391
 20
344.499054
 10
579.068115
 20
344.837555
 10
579.811401
 20
345.210388
 10
580.515198
 20
345.61673
 10
581.176331
 20
346.055756
 10
581.791565
 20
346.526794
 10
582.357483
 20
347.02951
 10
582.870483
 20
347.563721
 10
583.327087
 20
348.129089
 10
583.723755
 20
348.725433
 10
584.056946
 20
349.350616
 10
584.322876
 20
349.999207
 10
584.517883
 20
350.665253
 10
584.638123
 20
351.342896
 10
584.679993
 20
352.037628
  0
LINE
  5
2D4
330
228
100
AcDbEntity
  8
0
  6
Continuous
 62
     0
370
    30
100
AcDbLine
 10
556.679985
 20
352.037647
 30
0.0
 11
556.679985
 21
394.495469
 31
0.0
  0
LINE
  5
2D5
330
228
100
AcDbEntity
  8
0
  6
Continuous
 62
     0
370
    30
100
AcDbLine
 10
584.679985
 20
376.392455
 30
0.0
 11
584.679985
 21
394.495469
 31
0.0
  0
LINE
  5
2D6
330
228
100
AcDbEntity
  8
0
  6
Continuous
 62
     0
370
    30
100
AcDbLine
 10
584.679985
 20
352.037647
 30
0.0
 11
584.679985
 21
355.607845
 31
0.0
  0
ARC
  5
2D7
330
228
100
AcDbEntity
  8
0
  6
Continuous
 62
     0
370
    30
100
AcDbCircle
 10
577.072364
 20
394.082638
 30
0.0
 40
7.618813990596465
100
AcDbArc
 50
3.106132
 51
59.941054
  0
ARC
  5
2D8
330
228
100
AcDbEntity
  8
0
  6
Continuous
 62
     0
370
    30
100
AcDbCircle
 10
564.289131
 20
394.082597
 30
0.0
 40
7.620338754660889
100
AcDbArc
 50
119.945541
 51
176.894178
  0
LINE
  5
2D9
330
228
100
AcDbEntity
  8
0
  6
Continuous
 62
     0
370
    30
100
AcDbLine
 10
864.899022
 20
194.682263
 30
0.0
 11
872.205776
 21
198.900819
 31
0.0
  0
LINE
  5
2DA
330
228
100
AcDbEntity
  8
0
  6
Continuous
 62
     0
370
    30
100
AcDbLine
 10
872.945829
 20
180.85288
 30
0.0
 11
880.205538
 21
185.044275
 31
0.0
  0
LINE
  5
2DB
330
228
100
AcDbEntity
  8
0
  6
Continuous
 62
     0
370
    30
100
AcDbLine
 10
333.154745
 20
501.684963
 30
0.0
 11
340.4615
 21
505.90352
 31
0.0
  0
LINE
  5
2DC
330
228
100
AcDbEntity
  8
0
  6
Continuous
 62
     0
370
    30
100
AcDbLine
 10
341.201552
 20
487.855581
 30
0.0
 11
348.461262
 21
492.046976
 31
0.0
  0
LINE
  5
2DD
330
228
100
AcDbEntity
  8
0
  6
Continuous
 62
     0
370
    30
100
AcDbLine
 10
556.679985
 20
371.773653
 30
0.0
 11
348.436066
 21
492.003336
 31
0.0
  0
LINE
  5
2DE
330
228
100
AcDbEntity
  8
0
  6
Continuous
 62
     0
370
    30
100
AcDbLine
 10
330.018187
 20
502.636903
 30
0.0
 11
328.99441
 21
503.227981
 31
0.0
  0
LINE
  5
2DF
330
228
100
AcDbEntity
  8
0
  6
Continuous
 62
     0
370
    30
100
AcDbLine
 10
556.679985
 20
392.558263
 30
0.0
 11
337.99441
 21
518.816438
 31
0.0
  0
LINE
  5
2E0
330
228
100
AcDbEntity
  8
0
  6
Continuous
 62
     0
370
    30
100
AcDbLine
 10
892.571607
 20
177.846535
 30
0.0
 11
880.180342
 21
185.000635
 31
0.0
  0
LINE
  5
2E1
330
228
100
AcDbEntity
  8
0
  6
Continuous
 62
     0
370
    30
100
AcDbLine
 10
861.762462
 20
195.634203
 30
0.0
 11
574.995911
 21
361.198948
 31
0.0
  0
LINE
  5
2E2
330
228
100
AcDbEntity
  8
0
  6
Continuous
 62
     0
370
    30
100
AcDbLine
 10
901.571607
 20
193.434992
 30
0.0
 11
583.996349
 21
376.787153
 31
0.0
  0
LWPOLYLINE
  5
2E3
330
228
100
AcDbEntity
  8
0
  6
Continuous
 62
     0
370
    30
100
AcDbPolyline
 90
       41
 70
     0
 43
0.0
 10
323.404785
 20
504.145752
 10
322.759979
 20
504.563416
 10
322.158691
 20
505.045563
 10
321.607513
 20
505.586487
 10
321.111969
 20
506.180389
 10
320.67392
 20
506.820862
 10
320.294617
 20
507.501434
 10
319.97525
 20
508.215576
 10
319.717041
 20
508.956787
 10
319.520569
 20
509.718994
 10
319.384674
 20
510.497406
 10
319.30777
 20
511.287476
 10
319.288361
 20
512.084656
 10
319.32489
 20
512.884399
 10
319.415833
 20
513.68219
 10
319.559601
 20
514.473511
 10
319.754578
 20
515.254761
 10
319.998993
 20
516.023071
 10
320.291138
 20
516.775513
 10
320.629211
 20
517.509277
 10
321.011536
 20
518.221436
 10
321.43634
 20
518.909058
 10
321.902069
 20
519.569275
 10
322.407043
 20
520.199097
 10
322.949677
 20
520.795471
 10
323.52832
 20
521.355591
 10
324.141327
 20
521.876404
 10
324.786316
 20
522.354614
 10
325.460236
 20
522.786804
 10
326.159912
 20
523.169312
 10
326.882233
 20
523.498657
 10
327.624084
 20
523.77124
 10
328.382324
 20
523.983521
 10
329.153229
 20
524.132141
 10
329.931244
 20
524.214355
 10
330.710297
 20
524.227539
 10
331.484467
 20
524.169006
 10
332.247589
 20
524.036377
 10
332.992371
 20
523.830017
 10
333.710693
 20
523.551941
 10
334.404785
 20
523.198303
  0
ARC
  5
2E4
330
228
100
AcDbEntity
  8
0
  6
Continuous
 62
     0
370
    30
100
AcDbCircle
 10
327.42619
 20
510.785216
 30
0.0
 40
7.763744106089382
100
AcDbArc
 50
237.388473
 51
281.718533
  0
ARC
  5
2E5
330
228
100
AcDbEntity
  8
0
  6
Continuous
 62
     0
370
    30
100
AcDbCircle
 10
330.665542
 20
516.395939
 30
0.0
 40
7.763744160680796
100
AcDbArc
 50
18.281465
 51
62.611525
  0
ARC
  5
2E6
330
228
100
AcDbEntity
  8
0
  6
Continuous
 62
     0
370
    30
100
AcDbCircle
 10
899.957859
 20
180.330684
 30
0.0
 40
7.846687457332773
100
AcDbArc
 50
193.613451
 51
242.453279
  0
ARC
  5
2E7
330
228
100
AcDbEntity
  8
0
  6
Continuous
 62
     0
370
    30
100
AcDbCircle
 10
903.113363
 20
185.780825
 30
0.0
 40
7.861463778064717
100
AcDbArc
 50
58.998303
 51
106.354628
  0
ARC
  5
2E8
330
228
100
AcDbEntity
  8
0
  6
Continuous
 62
     0
370
    30
100
AcDbCircle
 10
902.498761
 20
185.068255
 30
0.0
 40
8.787818100199164
100
AcDbArc
 50
357.609998
 51
57.956568
  0
LWPOLYLINE
  5
2E9
330
228
100
AcDbEntity
  8
0
  6
Continuous
 62
     0
370
    30
100
AcDbPolyline
 90
       29
 70
     0
 43
0.0
 10
896.161255
 20
173.464661
 10
896.849426
 20
173.113266
 10
897.572083
 20
172.832626
 10
898.321106
 20
172.625504
 10
899.088745
 20
172.493637
 10
899.86792
 20
172.435638
 10
900.651672
 20
172.449539
 10
901.432922
 20
172.533417
 10
902.205444
 20
172.684998
 10
902.965454
 20
172.900925
 10
903.709656
 20
173.177643
 10
904.434753
 20
173.51152
 10
905.137573
 20
173.899002
 10
905.81488
 20
174.336456
 10
906.463379
 20
174.820328
 10
907.079834
 20
175.347
 10
907.661011
 20
175.912933
 10
908.204834
 20
176.515045
 10
908.709717
 20
177.150635
 10
909.174194
 20
177.816956
 10
909.596863
 20
178.511307
 10
909.976074
 20
179.230972
 10
910.310486
 20
179.973221
 10
910.59845
 20
180.735001
 10
910.838257
 20
181.51236
 10
911.028015
 20
182.301193
 10
911.165894
 20
183.097458
 10
911.250183
 20
183.897034
 10
911.278931
 20
184.701797
  0
ARC
  5
2EA
330
228
100
AcDbEntity
  8
0
  6
Continuous
 62
     0
370
    30
100
AcDbCircle
 10
326.454328
 20
488.579802
 30
0.0
 40
14.64537316026153
100
AcDbArc
 50
3.564785
 51
56.434414
  0
LINE
  5
2EB
330
228
100
AcDbEntity
  8
0
  6
Continuous
 62
     0
370
    30
100
AcDbLine
 10
341.156807
 20
487.933081
 30
0.0
 11
341.158162
 21
488.10011
 31
0.0
  0
LWPOLYLINE
  5
2EC
330
228
100
AcDbEntity
  8
0
  6
Continuous
 62
     0
370
    30
100
AcDbPolyline
 90
       28
 70
     0
 43
0.0
 10
328.378601
 20
502.432678
 10
328.938965
 20
502.570404
 10
329.526886
 20
502.636017
 10
330.137115
 20
502.63031
 10
330.764435
 20
502.554138
 10
331.403656
 20
502.408447
 10
332.050537
 20
502.194885
 10
332.701538
 20
501.916016
 10
333.353241
 20
501.57431
 10
334.002228
 20
501.172272
 10
334.64502
 20
500.712433
 10
335.277771
 20
500.197845
 10
335.896332
 20
499.632111
 10
336.496368
 20
499.018982
 10
337.0737
 20
498.362152
 10
337.624725
 20
497.666046
 10
338.146545
 20
496.935699
 10
338.636108
 20
496.176117
 10
339.090546
 20
495.392426
 10
339.506836
 20
494.58963
 10
339.882019
 20
493.772797
 10
340.213196
 20
492.946991
 10
340.497375
 20
492.117249
 10
340.732208
 20
491.28894
 10
340.916595
 20
490.468079
 10
341.049652
 20
489.660797
 10
341.130463
 20
488.873169
 10
341.158173
 20
488.100098
  0
LINE
  5
2ED
330
228
100
AcDbEntity
  8
0
  6
Continuous
 62
     0
370
    30
100
AcDbLine
 10
326.482957
 20
471.560515
 30
0.0
 11
339.414201
 21
483.318442
 31
0.0
  0
LINE
  5
2EE
330
228
100
AcDbEntity
  8
0
  6
Continuous
 62
     0
370
    30
100
AcDbLine
 10
311.730577
 20
497.112928
 30
0.0
 11
328.378599
 21
502.432665
 31
0.0
  0
LWPOLYLINE
  5
2EF
330
228
100
AcDbEntity
  8
0
  6
Continuous
 62
     0
370
    30
100
AcDbPolyline
 90
       16
 70
     0
 43
0.0
 10
321.087982
 20
453.726349
 10
321.811188
 20
454.188782
 10
322.493805
 20
454.717072
 10
323.133148
 20
455.308929
 10
323.726685
 20
455.962006
 10
324.272858
 20
456.674133
 10
324.77063
 20
457.443054
 10
325.218964
 20
458.26651
 10
325.61673
 20
459.142303
 10
325.962891
 20
460.068176
 10
326.256653
 20
461.041534
 10
326.497711
 20
462.059052
 10
326.685791
 20
463.117249
 10
326.820679
 20
464.212738
 10
326.90213
 20
465.342102
 10
326.929871
 20
466.519348
  0
LWPOLYLINE
  5
2F0
330
228
100
AcDbEntity
  8
0
  6
Continuous
 62
     0
370
    30
100
AcDbPolyline
 90
       46
 70
     0
 43
0.0
 10
293.587982
 20
501.357758
 10
294.346313
 20
501.750702
 10
295.141937
 20
502.076141
 10
295.97168
 20
502.333374
 10
296.832367
 20
502.521667
 10
297.720886
 20
502.64032
 10
298.634064
 20
502.688568
 10
299.56897
 20
502.66626
 10
300.523071
 20
502.574188
 10
301.493927
 20
502.413269
 10
302.479004
 20
502.184357
 10
303.475861
 20
501.888367
 10
304.481995
 20
501.526184
 10
305.494934
 20
501.098724
 10
306.512177
 20
500.607056
 10
307.531067
 20
500.052856
 10
308.54895
 20
499.437836
 10
309.563141
 20
498.763763
 10
310.571045
 20
498.032379
 10
311.569946
 20
497.245392
 10
312.55722
 20
496.404663
 10
313.530334
 20
495.512665
 10
314.486786
 20
494.572113
 10
315.424133
 20
493.585785
 10
316.339844
 20
492.556396
 10
317.231415
 20
491.486755
 10
318.096405
 20
490.379547
 10
318.932281
 20
489.237579
 10
319.736664
 20
488.06366
 10
320.507538
 20
486.861115
 10
321.243011
 20
485.633392
 10
321.941193
 20
484.383911
 10
322.600189
 20
483.11615
 10
323.218109
 20
481.833588
 10
323.793091
 20
480.539581
 10
324.323273
 20
479.237671
 10
324.807373
 20
477.931274
 10
325.244324
 20
476.62384
 10
325.633179
 20
475.318817
 10
325.972931
 20
474.019714
 10
326.262573
 20
472.72998
 10
326.501129
 20
471.453033
 10
326.687622
 20
470.192383
 10
326.82135
 20
468.951538
 10
326.90213
 20
467.734161
 10
326.929871
 20
466.519348
  0
LINE
  5
2F1
330
228
100
AcDbEntity
  8
0
  6
Continuous
 62
     0
370
    30
100
AcDbLine
 10
316.491822
 20
451.072753
 30
0.0
 11
321.087985
 21
453.72635
 31
0.0
  0
LINE
  5
2F2
330
228
100
AcDbEntity
  8
0
  6
Continuous
 62
     0
370
    30
100
AcDbLine
 10
288.991823
 20
498.704146
 30
0.0
 11
293.587987
 21
501.357742
 31
0.0
  0
ARC
  5
2F3
330
228
100
AcDbEntity
  8
0
  6
Continuous
 62
     0
370
    30
100
AcDbCircle
 10
858.198605
 20
181.577102
 30
0.0
 40
14.64537316026265
100
AcDbArc
 50
3.564785
 51
56.434414
  0
LINE
  5
2F4
330
228
100
AcDbEntity
  8
0
  6
Continuous
 62
     0
370
    30
100
AcDbLine
 10
872.901084
 20
180.930381
 30
0.0
 11
872.902439
 21
181.09741
 31
0.0
  0
LWPOLYLINE
  5
2F5
330
228
100
AcDbEntity
  8
0
  6
Continuous
 62
     0
370
    30
100
AcDbPolyline
 90
       28
 70
     0
 43
0.0
 10
860.122864
 20
195.429962
 10
860.683228
 20
195.567703
 10
861.271179
 20
195.633301
 10
861.881409
 20
195.627609
 10
862.508728
 20
195.551453
 10
863.147949
 20
195.405731
 10
863.7948
 20
195.1922
 10
864.445801
 20
194.913315
 10
865.097534
 20
194.571609
 10
865.746521
 20
194.169571
 10
866.389282
 20
193.709732
 10
867.022034
 20
193.195129
 10
867.640625
 20
192.629425
 10
868.240662
 20
192.016296
 10
868.817993
 20
191.359467
 10
869.369019
 20
190.663345
 10
869.890808
 20
189.932983
 10
870.380371
 20
189.173431
 10
870.834839
 20
188.389725
 10
871.251099
 20
187.586945
 10
871.626282
 20
186.770111
 10
871.957458
 20
185.94429
 10
872.241638
 20
185.114548
 10
872.476501
 20
184.28624
 10
872.660889
 20
183.465378
 10
872.793945
 20
182.658096
 10
872.874756
 20
181.870468
 10
872.902466
 20
181.097412
  0
LINE
  5
2F6
330
228
100
AcDbEntity
  8
0
  6
Continuous
 62
     0
370
    30
100
AcDbLine
 10
858.227234
 20
164.557814
 30
0.0
 11
871.158478
 21
176.315742
 31
0.0
  0
LINE
  5
2F7
330
228
100
AcDbEntity
  8
0
  6
Continuous
 62
     0
370
    30
100
AcDbLine
 10
843.474854
 20
190.110227
 30
0.0
 11
860.122876
 21
195.429965
 31
0.0
  0
LWPOLYLINE
  5
2F8
330
228
100
AcDbEntity
  8
0
  6
Continuous
 62
     0
370
    30
100
AcDbPolyline
 90
       16
 70
     0
 43
0.0
 10
852.832275
 20
146.723648
 10
853.555481
 20
147.186096
 10
854.238098
 20
147.714371
 10
854.877441
 20
148.306213
 10
855.470947
 20
148.95932
 10
856.017151
 20
149.671448
 10
856.514893
 20
150.440353
 10
856.963257
 20
151.263809
 10
857.361023
 20
152.139603
 10
857.707153
 20
153.065475
 10
858.000916
 20
154.038849
 10
858.242004
 20
155.056351
 10
858.430054
 20
156.114548
 10
858.564941
 20
157.210052
 10
858.646423
 20
158.339401
 10
858.674133
 20
159.516647
  0
LWPOLYLINE
  5
2F9
330
228
100
AcDbEntity
  8
0
  6
Continuous
 62
     0
370
    30
100
AcDbPolyline
 90
       46
 70
     0
 43
0.0
 10
825.332275
 20
194.355042
 10
826.090576
 20
194.747986
 10
826.88623
 20
195.073441
 10
827.715942
 20
195.330673
 10
828.57666
 20
195.518982
 10
829.465149
 20
195.637619
 10
830.378357
 20
195.685867
 10
831.313232
 20
195.663559
 10
832.267334
 20
195.571503
 10
833.23822
 20
195.410553
 10
834.223267
 20
195.181641
 10
835.220154
 20
194.885651
 10
836.226257
 20
194.523483
 10
837.239197
 20
194.096008
 10
838.25647
 20
193.604355
 10
839.27533
 20
193.050156
 10
840.293213
 20
192.43515
 10
841.307434
 20
191.761078
 10
842.315308
 20
191.029678
 10
843.314209
 20
190.242706
 10
844.301514
 20
189.401978
 10
845.274597
 20
188.509964
 10
846.231079
 20
187.569412
 10
847.168396
 20
186.583069
 10
848.084106
 20
185.553711
 10
848.975708
 20
184.484055
 10
849.840698
 20
183.376862
 10
850.676575
 20
182.234879
 10
851.480957
 20
181.060959
 10
852.251831
 20
179.858414
 10
852.987244
 20
178.630676
 10
853.685425
 20
177.38121
 10
854.344482
 20
176.113464
 10
854.962402
 20
174.830872
 10
855.537354
 20
173.536896
 10
856.067566
 20
172.23497
 10
856.551636
 20
170.928558
 10
856.988586
 20
169.621124
 10
857.377441
 20
168.316132
 10
857.717224
 20
167.017029
 10
858.006836
 20
165.72728
 10
858.245422
 20
164.450333
 10
858.431885
 20
163.189667
 10
858.565613
 20
161.948822
 10
858.646423
 20
160.731461
 10
858.674133
 20
159.516647
  0
LINE
  5
2FA
330
228
100
AcDbEntity
  8
0
  6
Continuous
 62
     0
370
    30
100
AcDbLine
 10
848.236099
 20
144.070053
 30
0.0
 11
852.832262
 21
146.723649
 31
0.0
  0
LINE
  5
2FB
330
228
100
AcDbEntity
  8
0
  6
Continuous
 62
     0
370
    30
100
AcDbLine
 10
820.7361
 20
191.701446
 30
0.0
 11
825.332264
 21
194.355042
 31
0.0
  0
ENDBLK
  5
2FD
330
228
100
AcDbEntity
  8
0
100
AcDbBlockEnd
  0
BLOCK
  5
3B2
330
2FF
100
AcDbEntity
  8
0
100
AcDbBlockBegin
  2
e
 70
     0
 10
-14.826843
 20
0.0
 30
0.0
  3
e
  1

  0
ARC
  5
300
330
2FF
100
AcDbEntity
  8
0
  6
Continuous
 62
     0
370
    30
100
AcDbCircle
 10
-872.358066
 20
1162.749418
 30
0.0
 40
27.4999977128606
100
AcDbArc
 50
19.103326
 51
158.557371
  0
ARC
  5
301
330
2FF
100
AcDbEntity
  8
0
  6
Continuous
 62
     0
370
    30
100
AcDbCircle
 10
-872.358066
 20
1162.749418
 30
0.0
 40
27.4999977128606
100
AcDbArc
 50
201.442629
 51
340.896674
  0
ARC
  5
302
330
2FF
100
AcDbEntity
  8
0
  6
Continuous
 62
     0
370
     0
100
AcDbCircle
 10
-872.358066
 20
1162.749418
 30
0.0
 40
27.12109614897486
100
AcDbArc
 50
19.380797
 51
158.738804
  0
ARC
  5
303
330
2FF
100
AcDbEntity
  8
0
  6
Continuous
 62
     0
370
     0
100
AcDbCircle
 10
-872.358066
 20
1162.749418
 30
0.0
 40
27.12109614897486
100
AcDbArc
 50
201.261196
 51
340.619203
  0
ARC
  5
304
330
2FF
100
AcDbEntity
  8
0
  6
Continuous
 62
     0
370
     0
100
AcDbCircle
 10
-872.358066
 20
1162.749418
 30
0.0
 40
15.23933139123596
100
AcDbArc
 50
36.197971
 51
143.802029
  0
ARC
  5
305
330
2FF
100
AcDbEntity
  8
0
  6
Continuous
 62
     0
370
     0
100
AcDbCircle
 10
-872.358066
 20
1162.749418
 30
0.0
 40
15.23933139123596
100
AcDbArc
 50
216.197971
 51
323.802029
  0
ARC
  5
306
330
2FF
100
AcDbEntity
  8
0
  6
Continuous
 62
     0
370
     0
100
AcDbCircle
 10
-872.358067
 20
1162.749418
 30
0.0
 40
11.12239275781428
100
AcDbArc
 50
54.015737
 51
125.984263
  0
ARC
  5
307
330
2FF
100
AcDbEntity
  8
0
  6
Continuous
 62
     0
370
     0
100
AcDbCircle
 10
-872.358067
 20
1162.749418
 30
0.0
 40
11.12239275781428
100
AcDbArc
 50
234.015737
 51
305.984263
  0
ARC
  5
308
330
2FF
100
AcDbEntity
  8
0
  6
Continuous
 62
     0
370
     0
100
AcDbCircle
 10
-872.358068
 20
1162.749418
 30
0.0
 40
10.62998886704486
100
AcDbArc
 50
57.850368
 51
122.149632
  0
ARC
  5
309
330
2FF
100
AcDbEntity
  8
0
  6
Continuous
 62
     0
370
     0
100
AcDbCircle
 10
-872.358068
 20
1162.749418
 30
0.0
 40
10.62998886704486
100
AcDbArc
 50
237.850368
 51
302.149632
  0
ARC
  5
30A
330
2FF
100
AcDbEntity
  8
0
  6
Continuous
 62
     0
370
     0
100
AcDbCircle
 10
-872.358068
 20
1162.749418
 30
0.0
 40
10.49996139541383
100
AcDbArc
 50
58.997631
 51
121.002369
  0
ARC
  5
30B
330
2FF
100
AcDbEntity
  8
0
  6
Continuous
 62
     0
370
     0
100
AcDbCircle
 10
-872.358068
 20
1162.749418
 30
0.0
 40
10.49996139541383
100
AcDbArc
 50
238.997631
 51
301.002369
  0
ARC
  5
30C
330
2FF
100
AcDbEntity
  8
0
  6
Continuous
 62
     0
370
     0
100
AcDbCircle
 10
-872.358068
 20
1162.749418
 30
0.0
 40
9.499965074346052
100
AcDbArc
 50
71.328905
 51
108.671095
  0
ARC
  5
30D
330
2FF
100
AcDbEntity
  8
0
  6
Continuous
 62
     0
370
     0
100
AcDbCircle
 10
-872.358068
 20
1162.749418
 30
0.0
 40
9.499965074346052
100
AcDbArc
 50
251.328905
 51
288.671095
  0
ARC
  5
30E
330
2FF
100
AcDbEntity
  8
0
  6
Continuous
 62
     0
370
    30
100
AcDbCircle
 10
-120.358099
 20
1162.749418
 30
0.0
 40
27.4999977128606
100
AcDbArc
 50
21.447651
 51
160.896674
  0
ARC
  5
30F
330
2FF
100
AcDbEntity
  8
0
  6
Continuous
 62
     0
370
    30
100
AcDbCircle
 10
-120.358099
 20
1162.749418
 30
0.0
 40
27.4999977128606
100
AcDbArc
 50
199.103326
 51
338.552349
  0
ARC
  5
310
330
2FF
100
AcDbEntity
  8
0
  6
Continuous
 62
     0
370
     0
100
AcDbCircle
 10
-120.358099
 20
1162.749418
 30
0.0
 40
27.12109614897486
100
AcDbArc
 50
21.265104
 51
160.619203
  0
ARC
  5
311
330
2FF
100
AcDbEntity
  8
0
  6
Continuous
 62
     0
370
     0
100
AcDbCircle
 10
-120.358099
 20
1162.749418
 30
0.0
 40
27.12109614897486
100
AcDbArc
 50
199.380797
 51
338.734896
  0
ARC
  5
312
330
2FF
100
AcDbEntity
  8
0
  6
Continuous
 62
     0
370
     0
100
AcDbCircle
 10
-120.358099
 20
1162.749418
 30
0.0
 40
15.23933139123596
100
AcDbArc
 50
36.197971
 51
143.802029
  0
ARC
  5
313
330
2FF
100
AcDbEntity
  8
0
  6
Continuous
 62
     0
370
     0
100
AcDbCircle
 10
-120.358099
 20
1162.749418
 30
0.0
 40
15.23933139123596
100
AcDbArc
 50
216.197971
 51
323.802029
  0
ARC
  5
314
330
2FF
100
AcDbEntity
  8
0
  6
Continuous
 62
     0
370
     0
100
AcDbCircle
 10
-120.3581
 20
1162.749418
 30
0.0
 40
11.12239275781426
100
AcDbArc
 50
54.015737
 51
125.984263
  0
ARC
  5
315
330
2FF
100
AcDbEntity
  8
0
  6
Continuous
 62
     0
370
     0
100
AcDbCircle
 10
-120.3581
 20
1162.749418
 30
0.0
 40
11.12239275781426
100
AcDbArc
 50
234.015737
 51
305.984263
  0
ARC
  5
316
330
2FF
100
AcDbEntity
  8
0
  6
Continuous
 62
     0
370
     0
100
AcDbCircle
 10
-120.3581
 20
1162.749418
 30
0.0
 40
10.62998886704486
100
AcDbArc
 50
57.850368
 51
122.149632
  0
ARC
  5
317
330
2FF
100
AcDbEntity
  8
0
  6
Continuous
 62
     0
370
     0
100
AcDbCircle
 10
-120.3581
 20
1162.749418
 30
0.0
 40
10.62998886704486
100
AcDbArc
 50
237.850368
 51
302.149632
  0
ARC
  5
318
330
2FF
100
AcDbEntity
  8
0
  6
Continuous
 62
     0
370
     0
100
AcDbCircle
 10
-120.3581
 20
1162.749418
 30
0.0
 40
10.49996139541383
100
AcDbArc
 50
58.997631
 51
121.002369
  0
ARC
  5
319
330
2FF
100
AcDbEntity
  8
0
  6
Continuous
 62
     0
370
     0
100
AcDbCircle
 10
-120.3581
 20
1162.749418
 30
0.0
 40
10.49996139541383
100
AcDbArc
 50
238.997631
 51
301.002369
  0
ARC
  5
31A
330
2FF
100
AcDbEntity
  8
0
  6
Continuous
 62
     0
370
     0
100
AcDbCircle
 10
-120.358101
 20
1162.749418
 30
0.0
 40
9.499965074346052
100
AcDbArc
 50
71.328905
 51
108.671095
  0
ARC
  5
31B
330
2FF
100
AcDbEntity
  8
0
  6
Continuous
 62
     0
370
     0
100
AcDbCircle
 10
-120.358101
 20
1162.749418
 30
0.0
 40
9.499965074346052
100
AcDbArc
 50
251.328905
 51
288.671095
  0
LINE
  5
31C
330
2FF
100
AcDbEntity
  8
0
  6
Continuous
 62
     0
370
     0
100
AcDbLine
 10
-901.358068
 20
1162.749418
 30
0.0
 11
-901.358068
 21
1173.749418
 31
0.0
  0
LINE
  5
31D
330
2FF
100
AcDbEntity
  8
0
  6
Continuous
 62
     0
370
     0
100
AcDbLine
 10
-901.358068
 20
1151.749418
 30
0.0
 11
-901.358068
 21
1162.749418
 31
0.0
  0
LINE
  5
31E
330
2FF
100
AcDbEntity
  8
0
  6
Continuous
 62
     0
370
     0
100
AcDbLine
 10
-897.777241
 20
1162.749418
 30
0.0
 11
-897.777241
 21
1172.683401
 31
0.0
  0
LINE
  5
31F
330
2FF
100
AcDbEntity
  8
0
  6
Continuous
 62
     0
370
     0
100
AcDbLine
 10
-897.777241
 20
1152.815435
 30
0.0
 11
-897.777241
 21
1162.749418
 31
0.0
  0
LINE
  5
320
330
2FF
100
AcDbEntity
  8
0
  6
Continuous
 62
     0
370
     0
100
AcDbLine
 10
-894.867343
 20
1162.749418
 30
0.0
 11
-894.867343
 21
1171.749418
 31
0.0
  0
LINE
  5
321
330
2FF
100
AcDbEntity
  8
0
  6
Continuous
 62
     0
370
     0
100
AcDbLine
 10
-894.867343
 20
1153.749418
 30
0.0
 11
-894.867343
 21
1162.749418
 31
0.0
  0
LINE
  5
322
330
2FF
100
AcDbEntity
  8
0
  6
Continuous
 62
     0
370
     0
100
AcDbLine
 10
-97.848827
 20
1162.749418
 30
0.0
 11
-97.848827
 21
1153.749418
 31
0.0
  0
LINE
  5
323
330
2FF
100
AcDbEntity
  8
0
  6
Continuous
 62
     0
370
     0
100
AcDbLine
 10
-97.848827
 20
1171.749418
 30
0.0
 11
-97.848827
 21
1162.749418
 31
0.0
  0
LINE
  5
324
330
2FF
100
AcDbEntity
  8
0
  6
Continuous
 62
     0
370
     0
100
AcDbLine
 10
-94.938929
 20
1162.749418
 30
0.0
 11
-94.938929
 21
1172.683401
 31
0.0
  0
LINE
  5
325
330
2FF
100
AcDbEntity
  8
0
  6
Continuous
 62
     0
370
     0
100
AcDbLine
 10
-94.938929
 20
1152.815435
 30
0.0
 11
-94.938929
 21
1162.749418
 31
0.0
  0
LINE
  5
326
330
2FF
100
AcDbEntity
  8
0
  6
Continuous
 62
     0
370
     0
100
AcDbLine
 10
-91.358101
 20
1162.749418
 30
0.0
 11
-91.358101
 21
1173.749418
 31
0.0
  0
LINE
  5
327
330
2FF
100
AcDbEntity
  8
0
  6
Continuous
 62
     0
370
     0
100
AcDbLine
 10
-91.358101
 20
1151.749418
 30
0.0
 11
-91.358101
 21
1162.749418
 31
0.0
  0
LWPOLYLINE
  5
328
330
2FF
100
AcDbEntity
  8
0
  6
Continuous
 62
     0
370
    30
100
AcDbPolyline
 90
       20
 70
     0
 43
0.0
 10
-444.003693
 20
1162.74939
 10
-444.031006
 20
1163.507568
 10
-444.111389
 20
1164.26001
 10
-444.240814
 20
1165.00061
 10
-444.411407
 20
1165.722046
 10
-444.614716
 20
1166.41687
 10
-444.842438
 20
1167.077637
 10
-445.087433
 20
1167.700928
 10
-445.343628
 20
1168.286255
 10
-445.604919
 20
1168.832764
 10
-445.865265
 20
1169.340332
 10
-446.118591
 20
1169.808228
 10
-446.3591
 20
1170.235229
 10
-446.581604
 20
1170.61731
 10
-446.781097
 20
1170.950439
 10
-446.952545
 20
1171.230103
 10
-447.090912
 20
1171.452148
 10
-447.191467
 20
1171.612549
 10
-447.252319
 20
1171.709595
 10
-447.273529
 20
1171.743408
  0
LWPOLYLINE
  5
329
330
2FF
100
AcDbEntity
  8
0
  6
Continuous
 62
     0
370
    30
100
AcDbPolyline
 90
       20
 70
     0
 43
0.0
 10
-447.273529
 20
1153.755371
 10
-447.253723
 20
1153.786987
 10
-447.194214
 20
1153.881958
 10
-447.095001
 20
1154.040039
 10
-446.957825
 20
1154.26001
 10
-446.787415
 20
1154.53772
 10
-446.588776
 20
1154.869019
 10
-446.367004
 20
1155.249512
 10
-446.127106
 20
1155.675049
 10
-445.874207
 20
1156.141602
 10
-445.614105
 20
1156.647705
 10
-445.352814
 20
1157.192993
 10
-445.096375
 20
1157.776855
 10
-444.8508
 20
1158.398926
 10
-444.622131
 20
1159.058472
 10
-444.41748
 20
1159.752197
 10
-444.245392
 20
1160.472778
 10
-444.11441
 20
1161.212891
 10
-444.032593
 20
1161.965088
 10
-444.003693
 20
1162.74939
  0
LWPOLYLINE
  5
32A
330
2FF
100
AcDbEntity
  8
0
  6
Continuous
 62
     0
370
    30
100
AcDbPolyline
 90
       20
 70
     0
 43
0.0
 10
-422.556091
 20
1162.74939
 10
-422.528534
 20
1161.984619
 10
-422.448059
 20
1161.226196
 10
-422.319672
 20
1160.484863
 10
-422.149719
 20
1159.768921
 10
-421.946259
 20
1159.081787
 10
-421.717468
 20
1158.426147
 10
-421.470795
 20
1157.803955
 10
-421.213104
 20
1157.216797
 10
-420.951172
 20
1156.666504
 10
-420.690918
 20
1156.154907
 10
-420.437927
 20
1155.684082
 10
-420.197754
 20
1155.256348
 10
-419.975586
 20
1154.875
 10
-419.776581
 20
1154.543335
 10
-419.60556
 20
1154.264893
 10
-419.466858
 20
1154.043091
 10
-419.364563
 20
1153.881592
 10
-419.301605
 20
1153.783081
 10
-419.279877
 20
1153.74939
  0
LWPOLYLINE
  5
32B
330
2FF
100
AcDbEntity
  8
0
  6
Continuous
 62
     0
370
    30
100
AcDbPolyline
 90
       20
 70
     0
 43
0.0
 10
-419.279877
 20
1171.74939
 10
-419.300964
 20
1171.716797
 10
-419.363342
 20
1171.619263
 10
-419.465027
 20
1171.458618
 10
-419.603241
 20
1171.237793
 10
-419.773804
 20
1170.960083
 10
-419.972412
 20
1170.62915
 10
-420.194275
 20
1170.248535
 10
-420.434235
 20
1169.821411
 10
-420.687042
 20
1169.351318
 10
-420.947235
 20
1168.84021
 10
-421.209198
 20
1168.290527
 10
-421.46698
 20
1167.703979
 10
-421.713867
 20
1167.082275
 10
-421.942993
 20
1166.427124
 10
-422.146881
 20
1165.740479
 10
-422.317413
 20
1165.024902
 10
-422.446472
 20
1164.283936
 10
-422.52771
 20
1163.525635
 10
-422.556091
 20
1162.74939
  0
LINE
  5
32C
330
2FF
100
AcDbEntity
  8
0
  6
Continuous
 62
     0
370
    30
100
AcDbLine
 10
-421.279884
 20
1189.749418
 30
0.0
 11
-445.279884
 21
1189.749418
 31
0.0
  0
ARC
  5
32D
330
2FF
100
AcDbEntity
  8
0
  6
Continuous
 62
     0
370
    30
100
AcDbCircle
 10
-421.279884
 20
1187.749418
 30
0.0
 40
1.999999999992
100
AcDbArc
 50
0.0
 51
90.0
  0
LINE
  5
32E
330
2FF
100
AcDbEntity
  8
0
  6
Continuous
 62
     0
370
     0
100
AcDbLine
 10
-419.279884
 20
1187.749418
 30
0.0
 11
-447.279884
 21
1187.749418
 31
0.0
  0
LINE
  5
32F
330
2FF
100
AcDbEntity
  8
0
  6
Continuous
 62
     0
370
    30
100
AcDbLine
 10
-419.279884
 20
1187.749418
 30
0.0
 11
-419.279884
 21
1171.749418
 31
0.0
  0
LINE
  5
330
330
2FF
100
AcDbEntity
  8
0
  6
Continuous
 62
     0
370
    30
100
AcDbLine
 10
-419.279884
 20
1153.749418
 30
0.0
 11
-419.279884
 21
1135.749418
 31
0.0
  0
LINE
  5
331
330
2FF
100
AcDbEntity
  8
0
  6
Continuous
 62
     0
370
     0
100
AcDbLine
 10
-419.279884
 20
1135.749418
 30
0.0
 11
-447.279884
 21
1135.749418
 31
0.0
  0
ARC
  5
332
330
2FF
100
AcDbEntity
  8
0
  6
Continuous
 62
     0
370
    30
100
AcDbCircle
 10
-421.279884
 20
1135.749418
 30
0.0
 40
1.999999999992
100
AcDbArc
 50
270.0
 51
0.0
  0
LINE
  5
333
330
2FF
100
AcDbEntity
  8
0
  6
Continuous
 62
     0
370
    30
100
AcDbLine
 10
-421.279884
 20
1133.749418
 30
0.0
 11
-445.279884
 21
1133.749418
 31
0.0
  0
LINE
  5
334
330
2FF
100
AcDbEntity
  8
0
  6
Continuous
 62
     0
370
     0
100
AcDbLine
 10
-422.373638
 20
1102.117289
 30
0.0
 11
-444.125324
 21
1102.117289
 31
0.0
  0
LINE
  5
335
330
2FF
100
AcDbEntity
  8
0
  6
Continuous
 62
     0
370
    30
100
AcDbLine
 10
-443.333997
 20
1101.399421
 30
0.0
 11
-423.16941
 21
1101.399421
 31
0.0
  0
LINE
  5
336
330
2FF
100
AcDbEntity
  8
0
  6
Continuous
 62
     0
370
     0
100
AcDbLine
 10
-419.062231
 20
1105.65055
 30
0.0
 11
-447.418232
 21
1105.65055
 31
0.0
  0
LINE
  5
337
330
2FF
100
AcDbEntity
  8
0
  6
Continuous
 62
     0
370
     0
100
AcDbLine
 10
-418.895878
 20
1105.837278
 30
0.0
 11
-447.583656
 21
1105.837278
 31
0.0
  0
LINE
  5
338
330
2FF
100
AcDbEntity
  8
0
  6
Continuous
 62
     0
370
     0
100
AcDbLine
 10
-418.80752
 20
1107.52325
 30
0.0
 11
-447.67152
 21
1107.52325
 31
0.0
  0
LINE
  5
339
330
2FF
100
AcDbEntity
  8
0
  6
Continuous
 62
     0
370
    30
100
AcDbLine
 10
-419.295828
 20
1108.04925
 30
0.0
 11
-433.399046
 21
1108.049266
 31
0.0
  0
LINE
  5
33A
330
2FF
100
AcDbEntity
  8
0
  6
Continuous
 62
     0
370
    30
100
AcDbLine
 10
-447.263743
 20
1108.049268
 30
0.0
 11
-433.160753
 21
1108.04926
 31
0.0
  0
LINE
  5
33B
330
2FF
100
AcDbEntity
  8
0
  6
Continuous
 62
     0
370
    30
100
AcDbLine
 10
-433.399046
 20
1108.049266
 30
0.0
 11
-447.263743
 21
1108.049268
 31
0.0
  0
LINE
  5
33C
330
2FF
100
AcDbEntity
  8
0
  6
Continuous
 62
     0
370
    30
100
AcDbLine
 10
-433.160753
 20
1108.04926
 30
0.0
 11
-419.373189
 21
1108.049276
 31
0.0
  0
LINE
  5
33D
330
2FF
100
AcDbEntity
  8
0
  6
Continuous
 62
     0
370
     0
100
AcDbLine
 10
-406.792404
 20
1120.8926
 30
0.0
 11
-406.835118
 21
1114.799138
 31
0.0
  0
LINE
  5
33E
330
2FF
100
AcDbEntity
  8
0
  6
Continuous
 62
     0
370
     0
100
AcDbLine
 10
-406.835118
 20
1114.799138
 30
0.0
 11
-406.792423
 21
1110.606157
 31
0.0
  0
LINE
  5
33F
330
2FF
100
AcDbEntity
  8
0
  6
Continuous
 62
     0
370
     0
100
AcDbLine
 10
-411.048999
 20
1115.121227
 30
0.0
 11
-411.020535
 21
1112.349369
 31
0.0
  0
LINE
  5
340
330
2FF
100
AcDbEntity
  8
0
  6
Continuous
 62
     0
370
     0
100
AcDbLine
 10
-411.020529
 20
1119.149369
 30
0.0
 11
-411.048999
 21
1115.121227
 31
0.0
  0
LWPOLYLINE
  5
341
330
2FF
100
AcDbEntity
  8
0
  6
Continuous
 62
     0
370
     0
100
AcDbPolyline
 90
       23
 70
     0
 43
0.0
 10
-411.416443
 20
1115.121216
 10
-411.415497
 20
1114.68811
 10
-411.414001
 20
1114.254639
 10
-411.411926
 20
1113.834839
 10
-411.409271
 20
1113.444092
 10
-411.406128
 20
1113.097778
 10
-411.402527
 20
1112.809082
 10
-411.398651
 20
1112.587769
 10
-411.394592
 20
1112.438721
 10
-411.390503
 20
1112.362183
 10
-411.386505
 20
1112.353882
 10
-411.382721
 20
1112.406128
 10
-411.379028
 20
1112.516113
 10
-411.375336
 20
1112.69104
 10
-411.371765
 20
1112.933594
 10
-411.368408
 20
1113.242676
 10
-411.365448
 20
1113.612427
 10
-411.362976
 20
1114.032349
 10
-411.361084
 20
1114.488525
 10
-411.359802
 20
1114.964722
 10
-411.359131
 20
1115.444702
 10
-411.35907
 20
1115.913452
 10
-411.359528
 20
1116.377563
  0
LWPOLYLINE
  5
342
330
2FF
100
AcDbEntity
  8
0
  6
Continuous
 62
     0
370
     0
100
AcDbPolyline
 90
       23
 70
     0
 43
0.0
 10
-411.359528
 20
1116.377563
 10
-411.360474
 20
1116.810669
 10
-411.361969
 20
1117.244141
 10
-411.364044
 20
1117.66394
 10
-411.366699
 20
1118.054565
 10
-411.369843
 20
1118.400879
 10
-411.373444
 20
1118.689575
 10
-411.377319
 20
1118.911011
 10
-411.381409
 20
1119.060059
 10
-411.385468
 20
1119.136597
 10
-411.389465
 20
1119.144897
 10
-411.39325
 20
1119.092651
 10
-411.396942
 20
1118.982666
 10
-411.400635
 20
1118.807739
 10
-411.404236
 20
1118.565186
 10
-411.407562
 20
1118.255981
 10
-411.410522
 20
1117.886353
 10
-411.412994
 20
1117.466309
 10
-411.414886
 20
1117.010254
 10
-411.416168
 20
1116.533936
 10
-411.41684
 20
1116.053955
 10
-411.416931
 20
1115.585205
 10
-411.416443
 20
1115.121216
  0
LWPOLYLINE
  5
343
330
2FF
100
AcDbEntity
  8
0
  6
Continuous
 62
     0
370
     0
100
AcDbPolyline
 90
       14
 70
     0
 43
0.0
 10
-412.323975
 20
1114.954956
 10
-412.322937
 20
1114.474243
 10
-412.321381
 20
1113.991699
 10
-412.319275
 20
1113.518799
 10
-412.316589
 20
1113.068848
 10
-412.313385
 20
1112.655151
 10
-412.309723
 20
1112.290039
 10
-412.305664
 20
1111.984131
 10
-412.3013
 20
1111.744995
 10
-412.296783
 20
1111.576538
 10
-412.292236
 20
1111.479004
 10
-412.287781
 20
1111.449463
 10
-412.283478
 20
1111.481812
 10
-412.279114
 20
1111.576172
  0
LWPOLYLINE
  5
344
330
2FF
100
AcDbEntity
  8
0
  6
Continuous
 62
     0
370
    30
100
AcDbPolyline
 90
       17
 70
     0
 43
0.0
 10
-412.275726
 20
1119.900635
 10
-412.280426
 20
1120.05188
 10
-412.285248
 20
1120.130249
 10
-412.290131
 20
1120.134155
 10
-412.294952
 20
1120.063965
 10
-412.299683
 20
1119.92041
 10
-412.304199
 20
1119.706299
 10
-412.308441
 20
1119.425171
 10
-412.312347
 20
1119.081543
 10
-412.315826
 20
1118.681641
 10
-412.318817
 20
1118.231812
 10
-412.32132
 20
1117.740112
 10
-412.323242
 20
1117.2146
 10
-412.324554
 20
1116.664185
 10
-412.325256
 20
1116.098389
 10
-412.325317
 20
1115.526611
 10
-412.324738
 20
1114.937866
  0
LINE
  5
345
330
2FF
100
AcDbEntity
  8
0
  6
Continuous
 62
     0
370
     0
100
AcDbLine
 10
-415.512941
 20
1114.886414
 30
0.0
 11
-415.473801
 21
1111.078378
 31
0.0
  0
LWPOLYLINE
  5
346
330
2FF
100
AcDbEntity
  8
0
  6
Continuous
 62
     0
370
     0
100
AcDbPolyline
 90
       15
 70
     0
 43
0.0
 10
-415.473785
 20
1120.42041
 10
-415.478516
 20
1120.387817
 10
-415.483032
 20
1120.294067
 10
-415.487518
 20
1120.135132
 10
-415.492004
 20
1119.905029
 10
-415.496338
 20
1119.601929
 10
-415.500397
 20
1119.227417
 10
-415.504059
 20
1118.786987
 10
-415.507233
 20
1118.290039
 10
-415.509796
 20
1117.749268
 10
-415.511719
 20
1117.179321
 10
-415.51297
 20
1116.596069
 10
-415.51355
 20
1116.014648
 10
-415.51355
 20
1115.448853
 10
-415.512939
 20
1114.886475
  0
LINE
  5
347
330
2FF
100
AcDbEntity
  8
0
  6
Continuous
 62
     0
370
     0
100
AcDbLine
 10
-417.219868
 20
1114.713594
 30
0.0
 11
-417.167761
 21
1110.175797
 31
0.0
  0
LWPOLYLINE
  5
348
330
2FF
100
AcDbEntity
  8
0
  6
Continuous
 62
     0
370
     0
100
AcDbPolyline
 90
       16
 70
     0
 43
0.0
 10
-417.172394
 20
1121.355469
 10
-417.177765
 20
1121.327026
 10
-417.182861
 20
1121.23291
 10
-417.187958
 20
1121.071289
 10
-417.193024
 20
1120.835205
 10
-417.197998
 20
1120.521729
 10
-417.202728
 20
1120.131226
 10
-417.207092
 20
1119.667358
 10
-417.210968
 20
1119.138062
 10
-417.214294
 20
1118.554077
 10
-417.216919
 20
1117.929321
 10
-417.218872
 20
1117.279175
 10
-417.220123
 20
1116.619263
 10
-417.220642
 20
1115.964478
 10
-417.220551
 20
1115.328369
 10
-417.219879
 20
1114.713623
  0
LINE
  5
349
330
2FF
100
AcDbEntity
  8
0
  6
Continuous
 62
     0
370
     0
100
AcDbLine
 10
-418.018272
 20
1114.640883
 30
0.0
 11
-417.968018
 21
1109.749369
 31
0.0
  0
LWPOLYLINE
  5
34A
330
2FF
100
AcDbEntity
  8
0
  6
Continuous
 62
     0
370
     0
100
AcDbPolyline
 90
       17
 70
     0
 43
0.0
 10
-417.968018
 20
1121.74939
 10
-417.973358
 20
1121.716797
 10
-417.978424
 20
1121.623901
 10
-417.98349
 20
1121.468994
 10
-417.988525
 20
1121.245728
 10
-417.9935
 20
1120.951172
 10
-417.998291
 20
1120.585083
 10
-418.002777
 20
1120.149658
 10
-418.006866
 20
1119.650269
 10
-418.010468
 20
1119.095459
 10
-418.013489
 20
1118.495728
 10
-418.015869
 20
1117.86377
 10
-418.017609
 20
1117.212769
 10
-418.018677
 20
1116.556274
 10
-418.019135
 20
1115.907104
 10
-418.018982
 20
1115.276001
 10
-418.01828
 20
1114.640869
  0
LWPOLYLINE
  5
34B
330
2FF
100
AcDbEntity
  8
0
  6
Continuous
 62
     0
370
    30
100
AcDbPolyline
 90
       14
 70
     0
 43
0.0
 10
-418.915375
 20
1114.640869
 10
-418.890533
 20
1113.992676
 10
-418.85556
 20
1113.363159
 10
-418.812469
 20
1112.760376
 10
-418.763519
 20
1112.194824
 10
-418.710968
 20
1111.675903
 10
-418.657196
 20
1111.209351
 10
-418.604675
 20
1110.800049
 10
-418.555786
 20
1110.452515
 10
-418.512878
 20
1110.171509
 10
-418.477539
 20
1109.959595
 10
-418.451294
 20
1109.819702
 10
-418.435638
 20
1109.754272
 10
-418.431671
 20
1109.765869
  0
LWPOLYLINE
  5
34C
330
2FF
100
AcDbEntity
  8
0
  6
Continuous
 62
     0
370
    30
100
AcDbPolyline
 90
       29
 70
     0
 43
0.0
 10
-418.814911
 20
1116.85791
 10
-418.792816
 20
1117.510986
 10
-418.762024
 20
1118.141724
 10
-418.724487
 20
1118.74231
 10
-418.682068
 20
1119.305176
 10
-418.63681
 20
1119.822754
 10
-418.591064
 20
1120.289307
 10
-418.547272
 20
1120.699341
 10
-418.507874
 20
1121.047607
 10
-418.475159
 20
1121.328857
 10
-418.450623
 20
1121.540405
 10
-418.435608
 20
1121.67981
 10
-418.431396
 20
1121.744629
 10
-418.438965
 20
1121.733154
 10
-418.457642
 20
1121.646484
 10
-418.486328
 20
1121.486084
 10
-418.523956
 20
1121.253784
 10
-418.569244
 20
1120.951782
 10
-418.619934
 20
1120.584717
 10
-418.673462
 20
1120.157715
 10
-418.727325
 20
1119.676025
 10
-418.779053
 20
1119.145142
 10
-418.826355
 20
1118.571411
 10
-418.867096
 20
1117.961304
 10
-418.898987
 20
1117.321655
 10
-418.920227
 20
1116.659912
 10
-418.930206
 20
1115.986816
 10
-418.928772
 20
1115.314453
 10
-418.915375
 20
1114.640869
  0
LINE
  5
34D
330
2FF
100
AcDbEntity
  8
0
  6
Continuous
 62
     0
370
     0
100
AcDbLine
 10
-459.810781
 20
1116.6996
 30
0.0
 11
-459.767345
 21
1120.892581
 31
0.0
  0
LWPOLYLINE
  5
34E
330
2FF
100
AcDbEntity
  8
0
  6
Continuous
 62
     0
370
     0
100
AcDbPolyline
 90
       16
 70
     0
 43
0.0
 10
-459.767334
 20
1110.606201
 10
-459.772247
 20
1110.633423
 10
-459.776917
 20
1110.720337
 10
-459.781525
 20
1110.86853
 10
-459.786163
 20
1111.084595
 10
-459.79071
 20
1111.37085
 10
-459.795013
 20
1111.727295
 10
-459.799011
 20
1112.150146
 10
-459.802582
 20
1112.63269
 10
-459.805603
 20
1113.165039
 10
-459.808044
 20
1113.734741
 10
-459.809814
 20
1114.327881
 10
-459.810974
 20
1114.930298
 10
-459.811493
 20
1115.528442
 10
-459.811432
 20
1116.110107
 10
-459.810791
 20
1116.699585
  0
LWPOLYLINE
  5
34F
330
2FF
100
AcDbEntity
  8
0
  6
Continuous
 62
     0
370
     0
100
AcDbPolyline
 90
       23
 70
     0
 43
0.0
 10
-455.510773
 20
1115.121216
 10
-455.511719
 20
1114.68811
 10
-455.513214
 20
1114.254639
 10
-455.515289
 20
1113.834839
 10
-455.517944
 20
1113.444092
 10
-455.521118
 20
1113.097778
 10
-455.524689
 20
1112.809082
 10
-455.528595
 20
1112.587769
 10
-455.532654
 20
1112.438721
 10
-455.536743
 20
1112.362183
 10
-455.54071
 20
1112.353882
 10
-455.544495
 20
1112.406128
 10
-455.548187
 20
1112.516113
 10
-455.55188
 20
1112.69104
 10
-455.555481
 20
1112.933594
 10
-455.558807
 20
1113.242676
 10
-455.561768
 20
1113.612427
 10
-455.56424
 20
1114.032349
 10
-455.566132
 20
1114.488525
 10
-455.567413
 20
1114.964722
 10
-455.568085
 20
1115.444702
 10
-455.568176
 20
1115.913452
 10
-455.567719
 20
1116.377563
  0
LWPOLYLINE
  5
350
330
2FF
100
AcDbEntity
  8
0
  6
Continuous
 62
     0
370
     0
100
AcDbPolyline
 90
       23
 70
     0
 43
0.0
 10
-455.567719
 20
1116.377563
 10
-455.566772
 20
1116.810669
 10
-455.565247
 20
1117.244141
 10
-455.563171
 20
1117.66394
 10
-455.560516
 20
1118.054565
 10
-455.557373
 20
1118.400879
 10
-455.553772
 20
1118.689575
 10
-455.549896
 20
1118.911011
 10
-455.545837
 20
1119.060059
 10
-455.541748
 20
1119.136597
 10
-455.53775
 20
1119.144897
 10
-455.533966
 20
1119.092651
 10
-455.530273
 20
1118.982666
 10
-455.526581
 20
1118.807739
 10
-455.52301
 20
1118.565186
 10
-455.519653
 20
1118.255981
 10
-455.516693
 20
1117.886353
 10
-455.514221
 20
1117.466309
 10
-455.512329
 20
1117.010254
 10
-455.511047
 20
1116.533936
 10
-455.510376
 20
1116.053955
 10
-455.510315
 20
1115.585205
 10
-455.510773
 20
1115.121216
  0
LINE
  5
351
330
2FF
100
AcDbEntity
  8
0
  6
Continuous
 62
     0
370
     0
100
AcDbLine
 10
-455.171779
 20
1112.349369
 30
0.0
 11
-455.200248
 21
1116.377511
 31
0.0
  0
LINE
  5
352
330
2FF
100
AcDbEntity
  8
0
  6
Continuous
 62
     0
370
     0
100
AcDbLine
 10
-455.200248
 20
1116.377511
 30
0.0
 11
-455.171783
 21
1119.149369
 31
0.0
  0
LINE
  5
353
330
2FF
100
AcDbEntity
  8
0
  6
Continuous
 62
     0
370
    30
100
AcDbLine
 10
-454.271838
 20
1111.357162
 30
0.0
 11
-454.308589
 21
1116.560828
 31
0.0
  0
LINE
  5
354
330
2FF
100
AcDbEntity
  8
0
  6
Continuous
 62
     0
370
     0
100
AcDbLine
 10
-451.08596
 20
1111.078377
 30
0.0
 11
-451.125048
 21
1116.612324
 31
0.0
  0
LINE
  5
355
330
2FF
100
AcDbEntity
  8
0
  6
Continuous
 62
     0
370
     0
100
AcDbLine
 10
-451.125048
 20
1116.612324
 30
0.0
 11
-451.085967
 21
1120.42036
 31
0.0
  0
LINE
  5
356
330
2FF
100
AcDbEntity
  8
0
  6
Continuous
 62
     0
370
     0
100
AcDbLine
 10
-449.387376
 20
1110.143288
 30
0.0
 11
-449.433786
 21
1116.785144
 31
0.0
  0
LINE
  5
357
330
2FF
100
AcDbEntity
  8
0
  6
Continuous
 62
     0
370
     0
100
AcDbLine
 10
-449.433786
 20
1116.785144
 30
0.0
 11
-449.387376
 21
1121.355449
 31
0.0
  0
LINE
  5
358
330
2FF
100
AcDbEntity
  8
0
  6
Continuous
 62
     0
370
     0
100
AcDbLine
 10
-448.591735
 20
1109.749369
 30
0.0
 11
-448.641973
 21
1116.857856
 31
0.0
  0
LINE
  5
359
330
2FF
100
AcDbEntity
  8
0
  6
Continuous
 62
     0
370
     0
100
AcDbLine
 10
-448.641973
 20
1116.857856
 30
0.0
 11
-448.591726
 21
1121.749369
 31
0.0
  0
LWPOLYLINE
  5
35A
330
2FF
100
AcDbEntity
  8
0
  6
Continuous
 62
     0
370
    30
100
AcDbPolyline
 90
       17
 70
     0
 43
0.0
 10
-448.126923
 20
1109.74939
 10
-448.126953
 20
1109.785522
 10
-448.116577
 20
1109.892944
 10
-448.09671
 20
1110.070068
 10
-448.068207
 20
1110.315186
 10
-448.032349
 20
1110.62561
 10
-447.991272
 20
1110.99707
 10
-447.947266
 20
1111.424805
 10
-447.902496
 20
1111.904297
 10
-447.859192
 20
1112.430176
 10
-447.819336
 20
1112.99585
 10
-447.784943
 20
1113.594482
 10
-447.757935
 20
1114.219238
 10
-447.740021
 20
1114.862915
 10
-447.731628
 20
1115.5177
 10
-447.73291
 20
1116.175171
 10
-447.744904
 20
1116.85791
  0
LINE
  5
35B
330
2FF
100
AcDbEntity
  8
0
  6
Continuous
 62
     0
370
    30
100
AcDbLine
 10
-447.744907
 20
1116.857864
 30
0.0
 11
-448.125985
 21
1121.748309
 31
0.0
  0
LINE
  5
35C
330
2FF
100
AcDbEntity
  8
0
  6
Continuous
 62
     0
370
     0
100
AcDbLine
 10
-418.818506
 20
1108.398161
 30
0.0
 11
-433.403107
 21
1108.398161
 31
0.0
  0
LINE
  5
35D
330
2FF
100
AcDbEntity
  8
0
  6
Continuous
 62
     0
370
     0
100
AcDbLine
 10
-433.403107
 20
1108.398161
 30
0.0
 11
-447.741294
 21
1108.398161
 31
0.0
  0
LINE
  5
35E
330
2FF
100
AcDbEntity
  8
0
  6
Continuous
 62
     0
370
     0
100
AcDbLine
 10
-418.769593
 20
1122.944819
 30
0.0
 11
-432.686198
 21
1122.944819
 31
0.0
  0
LINE
  5
35F
330
2FF
100
AcDbEntity
  8
0
  6
Continuous
 62
     0
370
     0
100
AcDbLine
 10
-434.442848
 20
1122.944819
 30
0.0
 11
-447.790207
 21
1122.944819
 31
0.0
  0
LINE
  5
360
330
2FF
100
AcDbEntity
  8
0
  6
Continuous
 62
     0
370
     0
100
AcDbLine
 10
-419.100986
 20
1123.274923
 30
0.0
 11
-433.4007
 21
1123.274923
 31
0.0
  0
LINE
  5
361
330
2FF
100
AcDbEntity
  8
0
  6
Continuous
 62
     0
370
     0
100
AcDbLine
 10
-433.4007
 20
1123.274923
 30
0.0
 11
-447.458814
 21
1123.274923
 31
0.0
  0
LINE
  5
362
330
2FF
100
AcDbEntity
  8
0
  6
Continuous
 62
     0
370
     0
100
AcDbLine
 10
-426.888374
 20
1125.655767
 30
0.0
 11
-433.334354
 21
1125.655767
 31
0.0
  0
LINE
  5
363
330
2FF
100
AcDbEntity
  8
0
  6
Continuous
 62
     0
370
     0
100
AcDbLine
 10
-433.334354
 20
1125.655767
 30
0.0
 11
-439.671426
 21
1125.655767
 31
0.0
  0
LINE
  5
364
330
2FF
100
AcDbEntity
  8
0
  6
Continuous
 62
     0
370
     0
100
AcDbLine
 10
-427.029901
 20
1125.847028
 30
0.0
 11
-433.333148
 21
1125.847028
 31
0.0
  0
LINE
  5
365
330
2FF
100
AcDbEntity
  8
0
  6
Continuous
 62
     0
370
     0
100
AcDbLine
 10
-433.333148
 20
1125.847028
 30
0.0
 11
-439.529896
 21
1125.847028
 31
0.0
  0
LINE
  5
366
330
2FF
100
AcDbEntity
  8
0
  6
Continuous
 62
     0
370
    30
100
AcDbLine
 10
-441.279884
 20
1192.749418
 30
0.0
 11
-425.279884
 21
1192.749418
 31
0.0
  0
LINE
  5
367
330
2FF
100
AcDbEntity
  8
0
  6
Continuous
 62
     0
370
    30
100
AcDbLine
 10
-425.279884
 20
1192.749418
 30
0.0
 11
-425.279884
 21
1189.749418
 31
0.0
  0
LINE
  5
368
330
2FF
100
AcDbEntity
  8
0
  6
Continuous
 62
     0
370
    30
100
AcDbLine
 10
-441.279884
 20
1224.30486
 30
0.0
 11
-441.279884
 21
1194.749418
 31
0.0
  0
LINE
  5
369
330
2FF
100
AcDbEntity
  8
0
  6
Continuous
 62
     0
370
    30
100
AcDbLine
 10
-425.279884
 20
1194.749418
 30
0.0
 11
-425.279884
 21
1224.30486
 31
0.0
  0
LINE
  5
36A
330
2FF
100
AcDbEntity
  8
0
  6
Continuous
 62
     0
370
    30
100
AcDbLine
 10
-441.279884
 20
1224.30486
 30
0.0
 11
-425.279884
 21
1224.30486
 31
0.0
  0
LWPOLYLINE
  5
36B
330
2FF
100
AcDbEntity
  8
0
  6
Continuous
 62
     0
370
    30
100
AcDbPolyline
 90
       27
 70
     0
 43
0.0
 10
-428.279877
 20
1194.74939
 10
-428.316559
 20
1194.760742
 10
-428.426544
 20
1194.794556
 10
-428.607452
 20
1194.848755
 10
-428.855682
 20
1194.919922
 10
-429.167236
 20
1195.004395
 10
-429.537201
 20
1195.097046
 10
-429.960602
 20
1195.192627
 10
-430.432404
 20
1195.286133
 10
-430.94635
 20
1195.372314
 10
-431.495117
 20
1195.446167
 10
-432.07135
 20
1195.502808
 10
-432.667419
 20
1195.537598
 10
-433.273865
 20
1195.549438
 10
-433.880341
 20
1195.538086
 10
-434.476685
 20
1195.503662
 10
-435.053284
 20
1195.44751
 10
-435.6026
 20
1195.373901
 10
-436.11731
 20
1195.287842
 10
-436.590149
 20
1195.194458
 10
-437.014832
 20
1195.098633
 10
-437.386047
 20
1195.005859
 10
-437.698669
 20
1194.921387
 10
-437.947693
 20
1194.850342
 10
-438.129425
 20
1194.796265
 10
-438.241089
 20
1194.761841
 10
-438.279877
 20
1194.74939
  0
LINE
  5
36C
330
2FF
100
AcDbEntity
  8
0
  6
Continuous
 62
     0
370
    30
100
AcDbLine
 10
-428.279884
 20
1194.749418
 30
0.0
 11
-428.279884
 21
1192.749418
 31
0.0
  0
LINE
  5
36D
330
2FF
100
AcDbEntity
  8
0
  6
Continuous
 62
     0
370
    30
100
AcDbLine
 10
-438.279884
 20
1192.749418
 30
0.0
 11
-438.279884
 21
1194.749418
 31
0.0
  0
LINE
  5
36E
330
2FF
100
AcDbEntity
  8
0
  6
Continuous
 62
     0
370
    30
100
AcDbLine
 10
-441.279884
 20
1194.749418
 30
0.0
 11
-438.27987
 21
1194.749418
 31
0.0
  0
LINE
  5
36F
330
2FF
100
AcDbEntity
  8
0
  6
Continuous
 62
     0
370
    30
100
AcDbLine
 10
-428.279884
 20
1194.749418
 30
0.0
 11
-425.279884
 21
1194.749418
 31
0.0
  0
LINE
  5
370
330
2FF
100
AcDbEntity
  8
0
  6
Continuous
 62
     0
370
    30
100
AcDbLine
 10
-441.279884
 20
1192.749418
 30
0.0
 11
-441.279884
 21
1189.749418
 31
0.0
  0
LINE
  5
371
330
2FF
100
AcDbEntity
  8
0
  6
Continuous
 62
     0
370
    30
100
AcDbLine
 10
-427.0299
 20
1125.847027
 30
0.0
 11
-427.0299
 21
1133.749418
 31
0.0
  0
LINE
  5
372
330
2FF
100
AcDbEntity
  8
0
  6
Continuous
 62
     0
370
    30
100
AcDbLine
 10
-439.5299
 20
1133.749418
 30
0.0
 11
-439.5299
 21
1125.847027
 31
0.0
  0
LINE
  5
373
330
2FF
100
AcDbEntity
  8
0
  6
Continuous
 62
     0
370
    30
100
AcDbLine
 10
-419.100986
 20
1123.274923
 30
0.0
 11
-426.888374
 21
1125.655767
 31
0.0
  0
LINE
  5
374
330
2FF
100
AcDbEntity
  8
0
  6
Continuous
 62
     0
370
    30
100
AcDbLine
 10
-439.671426
 20
1125.655767
 30
0.0
 11
-447.458814
 21
1123.274923
 31
0.0
  0
LINE
  5
375
330
2FF
100
AcDbEntity
  8
0
  6
Continuous
 62
     0
370
    30
100
AcDbLine
 10
-418.818506
 20
1108.398161
 30
0.0
 11
-418.431957
 21
1109.750663
 31
0.0
  0
LINE
  5
376
330
2FF
100
AcDbEntity
  8
0
  6
Continuous
 62
     0
370
    30
100
AcDbLine
 10
-418.769593
 20
1122.944819
 30
0.0
 11
-418.431875
 21
1121.747925
 31
0.0
  0
LINE
  5
377
330
2FF
100
AcDbEntity
  8
0
  6
Continuous
 62
     0
370
    30
100
AcDbLine
 10
-447.790207
 20
1122.944819
 30
0.0
 11
-448.127925
 21
1121.747924
 31
0.0
  0
LINE
  5
378
330
2FF
100
AcDbEntity
  8
0
  6
Continuous
 62
     0
370
    30
100
AcDbLine
 10
-447.741294
 20
1108.398161
 30
0.0
 11
-448.127843
 21
1109.750664
 31
0.0
  0
LINE
  5
379
330
2FF
100
AcDbEntity
  8
0
  6
Continuous
 62
     0
370
    30
100
AcDbLine
 10
-448.591735
 20
1109.749369
 30
0.0
 11
-448.126926
 21
1109.749369
 31
0.0
  0
LINE
  5
37A
330
2FF
100
AcDbEntity
  8
0
  6
Continuous
 62
     0
370
    30
100
AcDbLine
 10
-448.127028
 20
1121.749369
 30
0.0
 11
-448.591735
 21
1121.749369
 31
0.0
  0
ARC
  5
37B
330
2FF
100
AcDbEntity
  8
0
  6
Continuous
 62
     0
370
    30
100
AcDbCircle
 10
-448.591533
 20
1120.748481
 30
0.0
 40
1.000887744176277
100
AcDbArc
 50
90.011535
 51
142.668268
  0
ARC
  5
37C
330
2FF
100
AcDbEntity
  8
0
  6
Continuous
 62
     0
370
    30
100
AcDbCircle
 10
-448.591533
 20
1110.750257
 30
0.0
 40
1.000887745210514
100
AcDbArc
 50
217.331732
 51
269.988465
  0
ARC
  5
37D
330
2FF
100
AcDbEntity
  8
0
  6
Continuous
 62
     0
370
    30
100
AcDbCircle
 10
-451.294999
 20
1108.688375
 30
0.0
 40
2.399126485485709
100
AcDbArc
 50
38.268993
 51
85.00158
  0
ARC
  5
37E
330
2FF
100
AcDbEntity
  8
0
  6
Continuous
 62
     0
370
    30
100
AcDbCircle
 10
-451.295467
 20
1122.811209
 30
0.0
 40
2.400010296648368
100
AcDbArc
 50
275.007805
 51
322.658504
  0
LINE
  5
37F
330
2FF
100
AcDbEntity
  8
0
  6
Continuous
 62
     0
370
    30
100
AcDbLine
 10
-454.27184
 20
1120.141622
 30
0.0
 11
-451.085967
 21
1120.42036
 31
0.0
  0
LINE
  5
380
330
2FF
100
AcDbEntity
  8
0
  6
Continuous
 62
     0
370
    30
100
AcDbLine
 10
-454.27184
 20
1111.357116
 30
0.0
 11
-451.085967
 21
1111.078378
 31
0.0
  0
ARC
  5
381
330
2FF
100
AcDbEntity
  8
0
  6
Continuous
 62
     0
370
    30
100
AcDbCircle
 10
-455.166811
 20
1120.041244
 30
0.0
 40
0.8918887311335453
100
AcDbArc
 50
269.680818
 51
354.64192
  0
ARC
  5
382
330
2FF
100
AcDbEntity
  8
0
  6
Continuous
 62
     0
370
    30
100
AcDbCircle
 10
-455.173088
 20
1111.447693
 30
0.0
 40
0.9016774663123299
100
AcDbArc
 50
9.598516
 51
89.916836
  0
ARC
  5
383
330
2FF
100
AcDbEntity
  8
0
  6
Continuous
 62
     0
370
    30
100
AcDbCircle
 10
-455.538362
 20
1125.150671
 30
0.0
 40
6.001301927516838
100
AcDbArc
 50
225.1965
 51
269.99164
  0
ARC
  5
384
330
2FF
100
AcDbEntity
  8
0
  6
Continuous
 62
     0
370
    30
100
AcDbCircle
 10
-455.538362
 20
1106.348067
 30
0.0
 40
6.001301925214152
100
AcDbArc
 50
90.00836
 51
134.8035
  0
ARC
  5
385
330
2FF
100
AcDbEntity
  8
0
  6
Continuous
 62
     0
370
    30
100
AcDbCircle
 10
-464.877128
 20
1115.749365
 30
0.0
 40
7.249998127234733
100
AcDbArc
 50
182.550196
 51
314.81322
  0
ARC
  5
386
330
2FF
100
AcDbEntity
  8
0
  6
Continuous
 62
     0
370
    30
100
AcDbCircle
 10
-464.877128
 20
1115.749374
 30
0.0
 40
7.2499981043097
100
AcDbArc
 50
45.18678
 51
177.450091
  0
LINE
  5
387
330
2FF
100
AcDbEntity
  8
0
  6
Continuous
 62
     0
370
    30
100
AcDbLine
 10
-417.968033
 20
1121.749369
 30
0.0
 11
-418.432772
 21
1121.749369
 31
0.0
  0
LINE
  5
388
330
2FF
100
AcDbEntity
  8
0
  6
Continuous
 62
     0
370
    30
100
AcDbLine
 10
-417.968033
 20
1109.749369
 30
0.0
 11
-418.432874
 21
1109.749369
 31
0.0
  0
ARC
  5
389
330
2FF
100
AcDbEntity
  8
0
  6
Continuous
 62
     0
370
    30
100
AcDbCircle
 10
-417.968235
 20
1110.750257
 30
0.0
 40
1.000887745214372
100
AcDbArc
 50
270.011535
 51
322.668268
  0
ARC
  5
38A
330
2FF
100
AcDbEntity
  8
0
  6
Continuous
 62
     0
370
    30
100
AcDbCircle
 10
-417.96827
 20
1120.748412
 30
0.0
 40
1.000957677499298
100
AcDbArc
 50
37.333713
 51
89.986484
  0
ARC
  5
38B
330
2FF
100
AcDbEntity
  8
0
  6
Continuous
 62
     0
370
    30
100
AcDbCircle
 10
-415.26428
 20
1122.811246
 30
0.0
 40
2.40004884057229
100
AcDbArc
 50
217.341902
 51
264.991788
  0
ARC
  5
38C
330
2FF
100
AcDbEntity
  8
0
  6
Continuous
 62
     0
370
    30
100
AcDbCircle
 10
-415.264769
 20
1108.688375
 30
0.0
 40
2.399126485487948
100
AcDbArc
 50
94.99842
 51
141.731007
  0
LINE
  5
38D
330
2FF
100
AcDbEntity
  8
0
  6
Continuous
 62
     0
370
    30
100
AcDbLine
 10
-412.287928
 20
1111.357116
 30
0.0
 11
-415.473801
 21
1111.078378
 31
0.0
  0
LINE
  5
38E
330
2FF
100
AcDbEntity
  8
0
  6
Continuous
 62
     0
370
    30
100
AcDbLine
 10
-415.473801
 20
1120.42036
 30
0.0
 11
-412.287928
 21
1120.141622
 31
0.0
  0
ARC
  5
38F
330
2FF
100
AcDbEntity
  8
0
  6
Continuous
 62
     0
370
    30
100
AcDbCircle
 10
-411.392945
 20
1111.457476
 30
0.0
 40
0.8919068210264466
100
AcDbArc
 50
89.68162
 51
174.642134
  0
ARC
  5
390
330
2FF
100
AcDbEntity
  8
0
  6
Continuous
 62
     0
370
    30
100
AcDbCircle
 10
-411.392957
 20
1120.041244
 30
0.0
 40
0.8918887311334631
100
AcDbArc
 50
185.35808
 51
270.319182
  0
ARC
  5
391
330
2FF
100
AcDbEntity
  8
0
  6
Continuous
 62
     0
370
    30
100
AcDbCircle
 10
-411.021406
 20
1106.348067
 30
0.0
 40
6.001301925215424
100
AcDbArc
 50
45.1965
 51
89.99164
  0
ARC
  5
392
330
2FF
100
AcDbEntity
  8
0
  6
Continuous
 62
     0
370
    30
100
AcDbCircle
 10
-411.021409
 20
1125.150679
 30
0.0
 40
6.001309653973547
100
AcDbArc
 50
270.00839
 51
314.80347
  0
ARC
  5
393
330
2FF
100
AcDbEntity
  8
0
  6
Continuous
 62
     0
370
    30
100
AcDbCircle
 10
-401.68264
 20
1115.749365
 30
0.0
 40
7.2499981272348
100
AcDbArc
 50
225.18678
 51
357.449804
  0
ARC
  5
394
330
2FF
100
AcDbEntity
  8
0
  6
Continuous
 62
     0
370
    30
100
AcDbCircle
 10
-401.68264
 20
1115.749374
 30
0.0
 40
7.249998104309663
100
AcDbArc
 50
2.549909
 51
134.81322
  0
CIRCLE
  5
395
330
2FF
100
AcDbEntity
  8
0
  6
Continuous
 62
     0
370
    30
100
AcDbCircle
 10
-433.549093
 20
1115.749369
 30
0.0
 40
7.249999999995739
  0
LINE
  5
396
330
2FF
100
AcDbEntity
  8
0
  6
Continuous
 62
     0
370
    30
100
AcDbLine
 10
-418.895878
 20
1105.837278
 30
0.0
 11
-418.809659
 21
1107.482424
 31
0.0
  0
LINE
  5
397
330
2FF
100
AcDbEntity
  8
0
  6
Continuous
 62
     0
370
    30
100
AcDbLine
 10
-447.752369
 20
1107.52325
 30
0.0
 11
-447.664011
 21
1105.837278
 31
0.0
  0
ARC
  5
398
330
2FF
100
AcDbEntity
  8
0
  6
Continuous
 62
     0
370
    30
100
AcDbCircle
 10
-418.394799
 20
1101.706654
 30
0.0
 40
3.999972062090588
100
AcDbArc
 50
101.012406
 51
174.107655
  0
ARC
  5
399
330
2FF
100
AcDbEntity
  8
0
  6
Continuous
 62
     0
370
    30
100
AcDbCircle
 10
-448.16527
 20
1101.706486
 30
0.0
 40
4.000168104364885
100
AcDbArc
 50
5.894472
 51
80.392614
  0
ARC
  5
39A
330
2FF
100
AcDbEntity
  8
0
  6
Continuous
 62
     0
370
    30
100
AcDbCircle
 10
-423.169612
 20
1102.199644
 30
0.0
 40
0.8002232256872528
100
AcDbArc
 50
270.014417
 51
354.092942
  0
ARC
  5
39B
330
2FF
100
AcDbEntity
  8
0
  6
Continuous
 62
     0
370
    30
100
AcDbCircle
 10
-443.390277
 20
1102.199644
 30
0.0
 40
0.8002232256905984
100
AcDbArc
 50
185.907058
 51
269.985583
  0
ARC
  5
39C
330
2FF
100
AcDbEntity
  8
0
  6
Continuous
 62
     0
370
    30
100
AcDbCircle
 10
-433.2646
 20
1113.551412
 30
0.0
 40
15.0037596198686
100
AcDbArc
 50
270.008633
 51
305.910933
  0
ARC
  5
39D
330
2FF
100
AcDbEntity
  8
0
  6
Continuous
 62
     0
370
    30
100
AcDbCircle
 10
-433.262163
 20
1113.551412
 30
0.0
 40
15.00375961986817
100
AcDbArc
 50
234.089067
 51
269.991367
  0
ARC
  5
39E
330
2FF
100
AcDbEntity
  8
0
  6
Continuous
 62
     0
370
    30
100
AcDbCircle
 10
-445.28048
 20
1135.748822
 30
0.0
 40
1.999403724215515
100
AcDbArc
 50
179.98291
 51
270.01709
  0
LINE
  5
39F
330
2FF
100
AcDbEntity
  8
0
  6
Continuous
 62
     0
370
    30
100
AcDbLine
 10
-447.279884
 20
1135.749418
 30
0.0
 11
-447.279884
 21
1153.755432
 31
0.0
  0
LINE
  5
3A0
330
2FF
100
AcDbEntity
  8
0
  6
Continuous
 62
     0
370
    30
100
AcDbLine
 10
-447.279884
 20
1171.743407
 30
0.0
 11
-447.279884
 21
1187.749418
 31
0.0
  0
ARC
  5
3A1
330
2FF
100
AcDbEntity
  8
0
  6
Continuous
 62
     0
370
    30
100
AcDbCircle
 10
-445.280477
 20
1187.75001
 30
0.0
 40
1.999407612511757
100
AcDbArc
 50
89.991127
 51
180.016976
  0
LINE
  5
3A2
330
2FF
100
AcDbEntity
  8
0
  6
Continuous
 62
     0
370
    30
100
AcDbLine
 10
-419.279884
 20
1153.749418
 30
0.0
 11
-97.848827
 21
1153.749418
 31
0.0
  0
LINE
  5
3A3
330
2FF
100
AcDbEntity
  8
0
  6
Continuous
 62
     0
370
    30
100
AcDbLine
 10
-419.279884
 20
1171.749418
 30
0.0
 11
-97.848827
 21
1171.749418
 31
0.0
  0
LINE
  5
3A4
330
2FF
100
AcDbEntity
  8
0
  6
Continuous
 62
     0
370
    30
100
AcDbLine
 10
-894.867343
 20
1153.749418
 30
0.0
 11
-447.273565
 21
1153.749418
 31
0.0
  0
LINE
  5
3A5
330
2FF
100
AcDbEntity
  8
0
  6
Continuous
 62
     0
370
    30
100
AcDbLine
 10
-894.867343
 20
1171.749418
 30
0.0
 11
-447.273551
 21
1171.749418
 31
0.0
  0
LWPOLYLINE
  5
3A6
330
2FF
100
AcDbEntity
  8
0
  6
Continuous
 62
     0
370
    30
100
AcDbPolyline
 90
       23
 70
     0
 43
0.0
 10
-83.358101
 20
1162.752563
 10
-83.373344
 20
1163.430664
 10
-83.419121
 20
1164.109741
 10
-83.495895
 20
1164.787476
 10
-83.604149
 20
1165.461914
 10
-83.744362
 20
1166.130859
 10
-83.916992
 20
1166.792114
 10
-84.122528
 20
1167.443848
 10
-84.361443
 20
1168.083618
 10
-84.634209
 20
1168.709595
 10
-84.941429
 20
1169.319092
 10
-85.284088
 20
1169.909058
 10
-85.663254
 20
1170.47583
 10
-86.080009
 20
1171.015869
 10
-86.535248
 20
1171.525391
 10
-87.028397
 20
1171.999023
 10
-87.558052
 20
1172.429688
 10
-88.122818
 20
1172.810669
 10
-88.72126
 20
1173.135254
 10
-89.351669
 20
1173.396729
 10
-90.007721
 20
1173.589478
 10
-90.679672
 20
1173.708618
 10
-91.358101
 20
1173.74939
  0
LWPOLYLINE
  5
3A7
330
2FF
100
AcDbEntity
  8
0
  6
Continuous
 62
     0
370
    30
100
AcDbPolyline
 90
       23
 70
     0
 43
0.0
 10
-83.358101
 20
1162.746338
 10
-83.373344
 20
1162.068115
 10
-83.419121
 20
1161.38916
 10
-83.495895
 20
1160.711304
 10
-83.604149
 20
1160.036987
 10
-83.744362
 20
1159.368042
 10
-83.916992
 20
1158.706665
 10
-84.122528
 20
1158.055054
 10
-84.361443
 20
1157.415161
 10
-84.634209
 20
1156.789307
 10
-84.941429
 20
1156.179688
 10
-85.284088
 20
1155.589722
 10
-85.663254
 20
1155.023071
 10
-86.080009
 20
1154.483032
 10
-86.535248
 20
1153.973389
 10
-87.028397
 20
1153.499878
 10
-87.558052
 20
1153.069214
 10
-88.122818
 20
1152.688232
 10
-88.72126
 20
1152.363647
 10
-89.351669
 20
1152.102173
 10
-90.007721
 20
1151.909424
 10
-90.679672
 20
1151.790283
 10
-91.358101
 20
1151.74939
  0
ARC
  5
3A8
330
2FF
100
AcDbEntity
  8
0
  6
Continuous
 62
     0
370
    30
100
AcDbCircle
 10
-91.600897
 20
1157.480986
 30
0.0
 40
5.736708761823236
100
AcDbArc
 50
234.41767
 51
272.425666
  0
ARC
  5
3A9
330
2FF
100
AcDbEntity
  8
0
  6
Continuous
 62
     0
370
    30
100
AcDbCircle
 10
-91.600897
 20
1168.017849
 30
0.0
 40
5.736708761829725
100
AcDbArc
 50
87.574334
 51
125.58233
  0
ARC
  5
3AA
330
2FF
100
AcDbEntity
  8
0
  6
Continuous
 62
     0
370
    30
100
AcDbCircle
 10
-97.849449
 20
1148.747479
 30
0.0
 40
5.001938745712776
100
AcDbArc
 50
54.417223
 51
89.992872
  0
ARC
  5
3AB
330
2FF
100
AcDbEntity
  8
0
  6
Continuous
 62
     0
370
    30
100
AcDbCircle
 10
-97.849449
 20
1176.751357
 30
0.0
 40
5.001938745710464
100
AcDbArc
 50
270.007128
 51
305.582777
  0
ARC
  5
3AC
330
2FF
100
AcDbEntity
  8
0
  6
Continuous
 62
     0
370
    30
100
AcDbCircle
 10
-894.866721
 20
1148.747479
 30
0.0
 40
5.001938745760898
100
AcDbArc
 50
90.007128
 51
125.582777
  0
ARC
  5
3AD
330
2FF
100
AcDbEntity
  8
0
  6
Continuous
 62
     0
370
    30
100
AcDbCircle
 10
-894.866721
 20
1176.751357
 30
0.0
 40
5.001938745665113
100
AcDbArc
 50
234.417223
 51
269.992872
  0
ARC
  5
3AE
330
2FF
100
AcDbEntity
  8
0
  6
Continuous
 62
     0
370
    30
100
AcDbCircle
 10
-901.115273
 20
1157.480986
 30
0.0
 40
5.736708761798276
100
AcDbArc
 50
267.574334
 51
305.58233
  0
ARC
  5
3AF
330
2FF
100
AcDbEntity
  8
0
  6
Continuous
 62
     0
370
    30
100
AcDbCircle
 10
-901.115273
 20
1168.017849
 30
0.0
 40
5.736708761790571
100
AcDbArc
 50
54.41767
 51
92.425666
  0
LWPOLYLINE
  5
3B0
330
2FF
100
AcDbEntity
  8
0
  6
Continuous
 62
     0
370
    30
100
AcDbPolyline
 90
       23
 70
     0
 43
0.0
 10
-909.358093
 20
1162.747803
 10
-909.342896
 20
1162.06958
 10
-909.29718
 20
1161.390503
 10
-909.220459
 20
1160.712646
 10
-909.112244
 20
1160.038208
 10
-908.972107
 20
1159.369141
 10
-908.7995
 20
1158.707764
 10
-908.593994
 20
1158.05603
 10
-908.355103
 20
1157.416016
 10
-908.082336
 20
1156.790039
 10
-907.775146
 20
1156.18042
 10
-907.432495
 20
1155.590454
 10
-907.053284
 20
1155.02356
 10
-906.636536
 20
1154.483521
 10
-906.181274
 20
1153.973755
 10
-905.68811
 20
1153.500122
 10
-905.158386
 20
1153.069458
 10
-904.593628
 20
1152.688354
 10
-903.995117
 20
1152.363647
 10
-903.364624
 20
1152.102173
 10
-902.708496
 20
1151.909424
 10
-902.036499
 20
1151.790283
 10
-901.358093
 20
1151.74939
  0
LWPOLYLINE
  5
3B1
330
2FF
100
AcDbEntity
  8
0
  6
Continuous
 62
     0
370
    30
100
AcDbPolyline
 90
       23
 70
     0
 43
0.0
 10
-909.358093
 20
1162.750977
 10
-909.342896
 20
1163.429199
 10
-909.29718
 20
1164.108276
 10
-909.220459
 20
1164.786133
 10
-909.112244
 20
1165.460693
 10
-908.972107
 20
1166.129639
 10
-908.7995
 20
1166.791138
 10
-908.593994
 20
1167.442871
 10
-908.355103
 20
1168.082764
 10
-908.082336
 20
1168.70874
 10
-907.775146
 20
1169.318481
 10
-907.432495
 20
1169.908447
 10
-907.053284
 20
1170.47522
 10
-906.636536
 20
1171.015381
 10
-906.181274
 20
1171.525024
 10
-905.68811
 20
1171.998657
 10
-905.158386
 20
1172.429443
 10
-904.593628
 20
1172.810547
 10
-903.995117
 20
1173.135132
 10
-903.364624
 20
1173.396606
 10
-902.708496
 20
1173.589355
 10
-902.036499
 20
1173.708618
 10
-901.358093
 20
1173.74939
  0
ENDBLK
  5
3B3
330
2FF
100
AcDbEntity
  8
0
100
AcDbBlockEnd
  0
ENDSEC
  0
SECTION
  2
ENTITIES
  0
INSERT
  5
110
330
1F
100
AcDbEntity
  8
0
  6
Continuous
 62
     7
420
 16250871
370
     0
100
AcDbBlockReference
  2
a
 10
32.640823
 20
118.791321
 30
0.0
  0
INSERT
  5
19A
330
1F
100
AcDbEntity
  8
0
  6
Continuous
 62
     7
420
 16250871
370
     0
100
AcDbBlockReference
  2
b
 10
32.640823
 20
118.791321
 30
0.0
  0
INSERT
  5
227
330
1F
100
AcDbEntity
  8
0
  6
Continuous
 62
     7
420
 16250871
370
     0
100
AcDbBlockReference
  2
c
 10
32.640823
 20
118.791321
 30
0.0
  0
INSERT
  5
2FE
330
1F
100
AcDbEntity
  8
0
  6
Continuous
 62
     7
420
 16250871
370
     0
100
AcDbBlockReference
  2
d
 10
32.640823
 20
118.791321
 30
0.0
  0
INSERT
  5
3B4
330
1F
100
AcDbEntity
  8
0
  6
Continuous
 62
     7
420
 16250871
370
     0
100
AcDbBlockReference
  2
e
 10
-14.826843
 20
0.0
 30
0.0
  0
ENDSEC
  0
SECTION
  2
OBJECTS
  0
DICTIONARY
  5
C
330
0
100
AcDbDictionary
281
     1
  3
ACAD_DETAILVIEWSTYLE
350
3EC
  3
ACAD_GROUP
350
D
  3
ACAD_LAYOUT
350
1A
  3
ACAD_MATERIAL
350
43
  3
ACAD_MLEADERSTYLE
350
6B
  3
ACAD_MLINESTYLE
350
17
  3
ACAD_PLOTSETTINGS
350
19
  3
ACAD_PLOTSTYLENAME
350
E
  3
ACAD_SCALELIST
350
47
  3
ACAD_SECTIONVIEWSTYLE
350
3ED
  3
ACAD_TABLESTYLE
350
69
  3
ACAD_VISUALSTYLE
350
2A
  3
ACDB_RECOMPOSE_DATA
350
3E9
  3
AcDbVariableDictionary
350
3B5
  0
SUN
  5
6D
330
29
100
AcDbSun
 90
        1
290
     0
 63
     7
421
 16777215
 40
1.0
291
     1
 91
  2455826
 92
 54000000
292
     0
 70
     2
 71
   256
280
     1
  0
DICTIONARY
  5
3EC
102
{ACAD_REACTORS
330
C
102
}
330
C
100
AcDbDictionary
281
     1
  0
DICTIONARY
  5
D
102
{ACAD_REACTORS
330
C
102
}
330
C
100
AcDbDictionary
281
     1
  0
DICTIONARY
  5
1A
102
{ACAD_REACTORS
330
C
102
}
330
C
100
AcDbDictionary
281
     1
  3
Layout1
350
1E
  3
Layout2
350
26
  3
Model
350
22
  0
DICTIONARY
  5
43
102
{ACAD_REACTORS
330
C
102
}
330
C
100
AcDbDictionary
281
     1
  3
ByBlock
350
45
  3
ByLayer
350
44
  3
Global
350
46
  0
DICTIONARY
  5
6B
102
{ACAD_REACTORS
330
C
102
}
330
C
100
AcDbDictionary
281
     1
  3
Standard
350
6C
  0
DICTIONARY
  5
17
102
{ACAD_REACTORS
330
C
102
}
330
C
100
AcDbDictionary
281
     1
  3
Standard
350
18
  0
DICTIONARY
  5
19
102
{ACAD_REACTORS
330
C
102
}
330
C
100
AcDbDictionary
281
     1
  0
ACDBDICTIONARYWDFLT
  5
E
102
{ACAD_REACTORS
330
C
102
}
330
C
100
AcDbDictionary
281
     1
  3
Normal
350
F
100
AcDbDictionaryWithDefault
340
F
  0
DICTIONARY
  5
47
102
{ACAD_REACTORS
330
C
102
}
330
C
100
AcDbDictionary
281
     1
  3
A0
350
48
  3
A1
350
49
  3
A2
350
4A
  3
A3
350
4B
  3
A4
350
4C
  3
A5
350
4D
  3
A6
350
4E
  3
A7
350
4F
  3
A8
350
50
  3
A9
350
51
  3
B0
350
52
  3
B1
350
53
  3
B2
350
54
  3
B3
350
55
  3
B4
350
56
  3
B5
350
57
  3
B6
350
58
  3
B7
350
59
  3
B8
350
5A
  3
B9
350
5B
  3
C0
350
5C
  3
C1
350
5D
  3
C2
350
5E
  3
C3
350
5F
  3
C4
350
60
  3
C5
350
61
  3
C6
350
62
  3
C7
350
63
  3
C8
350
64
  3
C9
350
65
  3
D0
350
66
  3
D1
350
67
  3
D2
350
68
  0
DICTIONARY
  5
3ED
102
{ACAD_REACTORS
330
C
102
}
330
C
100
AcDbDictionary
281
     1
  0
DICTIONARY
  5
69
102
{ACAD_REACTORS
330
C
102
}
330
C
100
AcDbDictionary
281
     1
  3
Standard
350
6A
  0
DICTIONARY
  5
2A
102
{ACAD_REACTORS
330
C
102
}
330
C
100
AcDbDictionary
281
     1
  3
2dWireframe
350
2F
  3
Basic
350
32
  3
Brighten
350
36
  3
ColorChange
350
3A
  3
Conceptual
350
34
  3
Dim
350
35
  3
EdgeColorOff
350
3D
  3
Facepattern
350
39
  3
Flat
350
2B
  3
FlatWithEdges
350
2C
  3
Gouraud
350
2D
  3
GouraudWithEdges
350
2E
  3
Hidden
350
31
  3
JitterOff
350
3B
  3
Linepattern
350
38
  3
OverhangOff
350
3C
  3
Realistic
350
33
  3
Shaded
350
42
  3
Shaded with edges
350
41
  3
Shades of Gray
350
3E
  3
Sketchy
350
3F
  3
Thicken
350
37
  3
Wireframe
350
30
  3
X-Ray
350
40
  0
XRECORD
  5
3E9
102
{ACAD_REACTORS
330
C
102
}
330
C
100
AcDbXrecord
280
     1
 90
        1
330
6A
  0
DICTIONARY
  5
3B5
102
{ACAD_REACTORS
330
C
102
}
330
C
100
AcDbDictionary
281
     1
  3
CANNOSCALE
350
3B6
  3
CMLEADERSTYLE
350
3EB
  3
CTABLESTYLE
350
3EA
  0
LAYOUT
  5
1E
102
{ACAD_REACTORS
330
1A
102
}
330
1A
100
AcDbPlotSettings
  1

  2
none_device
  4

  6

 40
0.0
 41
0.0
 42
0.0
 43
0.0
 44
0.0
 45
0.0
 46
0.0
 47
0.0
 48
0.0
 49
0.0
140
0.0
141
0.0
142
1.0
143
1.0
 70
   688
 72
     1
 73
     0
 74
     5
  7

 75
    16
 76
     0
 77
     2
 78
   300
147
1.0
148
0.0
149
0.0
100
AcDbLayout
  1
Layout1
 70
     1
 71
     1
 10
0.0
 20
0.0
 11
420.0
 21
297.0
 12
0.0
 22
0.0
 32
0.0
 14
1.000000E+20
 24
1.000000E+20
 34
1.000000E+20
 15
-1.000000E+20
 25
-1.000000E+20
 35
-1.000000E+20
146
0.0
 13
0.0
 23
0.0
 33
0.0
 16
1.0
 26
0.0
 36
0.0
 17
0.0
 27
1.0
 37
0.0
 76
     0
330
1B
  0
LAYOUT
  5
26
102
{ACAD_REACTORS
330
1A
102
}
330
1A
100
AcDbPlotSettings
  1

  2
none_device
  4

  6

 40
0.0
 41
0.0
 42
0.0
 43
0.0
 44
0.0
 45
0.0
 46
0.0
 47
0.0
 48
0.0
 49
0.0
140
0.0
141
0.0
142
1.0
143
1.0
 70
   688
 72
     1
 73
     0
 74
     5
  7

 75
    16
 76
     0
 77
     2
 78
   300
147
1.0
148
0.0
149
0.0
100
AcDbLayout
  1
Layout2
 70
     1
 71
     2
 10
0.0
 20
0.0
 11
0.0
 21
0.0
 12
0.0
 22
0.0
 32
0.0
 14
0.0
 24
0.0
 34
0.0
 15
0.0
 25
0.0
 35
0.0
146
0.0
 13
0.0
 23
0.0
 33
0.0
 16
1.0
 26
0.0
 36
0.0
 17
0.0
 27
1.0
 37
0.0
 76
     0
330
23
  0
LAYOUT
  5
22
102
{ACAD_REACTORS
330
1A
102
}
330
1A
100
AcDbPlotSettings
  1

  2
none_device
  4
Letter_(8.50_x_11.00_Inches)
  6

 40
6.35
 41
6.35
 42
6.350005
 43
6.350005
 44
215.9
 45
279.4
 46
0.0
 47
0.0
 48
0.0
 49
0.0
140
0.0
141
0.0
142
1.0
143
1.0
 70
  1712
 72
     1
 73
     0
 74
     0
  7

 75
     0
 76
     0
 77
     2
 78
   300
147
1.0
148
0.0
149
0.0
100
AcDbLayout
  1
Model
 70
     1
 71
     0
 10
0.0
 20
0.0
 11
420.0
 21
297.0
 12
0.0
 22
0.0
 32
0.0
 14
1.000000E+20
 24
1.000000E+20
 34
1.000000E+20
 15
-1.000000E+20
 25
-1.000000E+20
 35
-1.000000E+20
146
0.0
 13
0.0
 23
0.0
 33
0.0
 16
1.0
 26
0.0
 36
0.0
 17
0.0
 27
1.0
 37
0.0
 76
     0
330
1F
331
29
  0
MATERIAL
  5
45
102
{ACAD_REACTORS
330
43
102
}
330
43
100
AcDbMaterial
  1
ByBlock
 72
     1
 94
      127
  0
MATERIAL
  5
44
102
{ACAD_REACTORS
330
43
102
}
330
43
100
AcDbMaterial
  1
ByLayer
 72
     1
 94
      127
  0
MATERIAL
  5
46
102
{ACAD_REACTORS
330
43
102
}
330
43
100
AcDbMaterial
  1
Global
 72
     1
 94
      127
  0
MLEADERSTYLE
  5
6C
102
{ACAD_REACTORS
330
6B
102
}
330
6B
100
AcDbMLeaderStyle
179
     2
170
     2
171
     1
172
     0
 90
        2
 40
0.0
 41
0.0
173
     1
 91
-1056964608
340
14
 92
       -2
290
     1
 42
2.0
291
     1
 43
8.0
  3
Standard
341
0
 44
4.0
300

342
11
174
     1
178
     6
175
     1
176
     0
 93
-1056964608
 45
4.0
292
     0
297
     0
 46
4.0
343
0
 94
-1056964608
 47
1.0
 49
1.0
140
1.0
293
     1
141
0.0
294
     1
177
     0
142
1.0
295
     0
296
     0
143
3.75
271
     0
272
     9
273
     9
  0
MLINESTYLE
  5
18
102
{ACAD_REACTORS
330
17
102
}
330
17
100
AcDbMlineStyle
  2
Standard
 70
     0
  3

 62
   256
 51
90.0
 52
90.0
 71
     2
 49
0.5
 62
   256
  6
BYLAYER
 49
-0.5
 62
   256
  6
BYLAYER
  0
ACDBPLACEHOLDER
  5
F
102
{ACAD_REACTORS
330
E
102
}
330
E
  0
SCALE
  5
48
102
{ACAD_REACTORS
330
47
102
}
330
47
100
AcDbScale
 70
     0
300
1:1
140
1.0
141
1.0
290
     1
  0
SCALE
  5
49
102
{ACAD_REACTORS
330
47
102
}
330
47
100
AcDbScale
 70
     0
300
1:2
140
1.0
141
2.0
290
     0
  0
SCALE
  5
4A
102
{ACAD_REACTORS
330
47
102
}
330
47
100
AcDbScale
 70
     0
300
1:4
140
1.0
141
4.0
290
     0
  0
SCALE
  5
4B
102
{ACAD_REACTORS
330
47
102
}
330
47
100
AcDbScale
 70
     0
300
1:5
140
1.0
141
5.0
290
     0
  0
SCALE
  5
4C
102
{ACAD_REACTORS
330
47
102
}
330
47
100
AcDbScale
 70
     0
300
1:8
140
1.0
141
8.0
290
     0
  0
SCALE
  5
4D
102
{ACAD_REACTORS
330
47
102
}
330
47
100
AcDbScale
 70
     0
300
1:10
140
1.0
141
10.0
290
     0
  0
SCALE
  5
4E
102
{ACAD_REACTORS
330
47
102
}
330
47
100
AcDbScale
 70
     0
300
1:16
140
1.0
141
16.0
290
     0
  0
SCALE
  5
4F
102
{ACAD_REACTORS
330
47
102
}
330
47
100
AcDbScale
 70
     0
300
1:20
140
1.0
141
20.0
290
     0
  0
SCALE
  5
50
102
{ACAD_REACTORS
330
47
102
}
330
47
100
AcDbScale
 70
     0
300
1:30
140
1.0
141
30.0
290
     0
  0
SCALE
  5
51
102
{ACAD_REACTORS
330
47
102
}
330
47
100
AcDbScale
 70
     0
300
1:40
140
1.0
141
40.0
290
     0
  0
SCALE
  5
52
102
{ACAD_REACTORS
330
47
102
}
330
47
100
AcDbScale
 70
     0
300
1:50
140
1.0
141
50.0
290
     0
  0
SCALE
  5
53
102
{ACAD_REACTORS
330
47
102
}
330
47
100
AcDbScale
 70
     0
300
1:100
140
1.0
141
100.0
290
     0
  0
SCALE
  5
54
102
{ACAD_REACTORS
330
47
102
}
330
47
100
AcDbScale
 70
     0
300
2:1
140
2.0
141
1.0
290
     0
  0
SCALE
  5
55
102
{ACAD_REACTORS
330
47
102
}
330
47
100
AcDbScale
 70
     0
300
4:1
140
4.0
141
1.0
290
     0
  0
SCALE
  5
56
102
{ACAD_REACTORS
330
47
102
}
330
47
100
AcDbScale
 70
     0
300
8:1
140
8.0
141
1.0
290
     0
  0
SCALE
  5
57
102
{ACAD_REACTORS
330
47
102
}
330
47
100
AcDbScale
 70
     0
300
10:1
140
10.0
141
1.0
290
     0
  0
SCALE
  5
58
102
{ACAD_REACTORS
330
47
102
}
330
47
100
AcDbScale
 70
     0
300
100:1
140
100.0
141
1.0
290
     0
  0
SCALE
  5
59
102
{ACAD_REACTORS
330
47
102
}
330
47
100
AcDbScale
 70
     0
300
1/128" = 1'-0"
140
0.007812
141
12.0
290
     0
  0
SCALE
  5
5A
102
{ACAD_REACTORS
330
47
102
}
330
47
100
AcDbScale
 70
     0
300
1/64" = 1'-0"
140
0.015625
141
12.0
290
     0
  0
SCALE
  5
5B
102
{ACAD_REACTORS
330
47
102
}
330
47
100
AcDbScale
 70
     0
300
1/32" = 1'-0"
140
0.03125
141
12.0
290
     0
  0
SCALE
  5
5C
102
{ACAD_REACTORS
330
47
102
}
330
47
100
AcDbScale
 70
     0
300
1/16" = 1'-0"
140
0.0625
141
12.0
290
     0
  0
SCALE
  5
5D
102
{ACAD_REACTORS
330
47
102
}
330
47
100
AcDbScale
 70
     0
300
3/32" = 1'-0"
140
0.09375
141
12.0
290
     0
  0
SCALE
  5
5E
102
{ACAD_REACTORS
330
47
102
}
330
47
100
AcDbScale
 70
     0
300
1/8" = 1'-0"
140
0.125
141
12.0
290
     0
  0
SCALE
  5
5F
102
{ACAD_REACTORS
330
47
102
}
330
47
100
AcDbScale
 70
     0
300
3/16" = 1'-0"
140
0.1875
141
12.0
290
     0
  0
SCALE
  5
60
102
{ACAD_REACTORS
330
47
102
}
330
47
100
AcDbScale
 70
     0
300
1/4" = 1'-0"
140
0.25
141
12.0
290
     0
  0
SCALE
  5
61
102
{ACAD_REACTORS
330
47
102
}
330
47
100
AcDbScale
 70
     0
300
3/8" = 1'-0"
140
0.375
141
12.0
290
     0
  0
SCALE
  5
62
102
{ACAD_REACTORS
330
47
102
}
330
47
100
AcDbScale
 70
     0
300
1/2" = 1'-0"
140
0.5
141
12.0
290
     0
  0
SCALE
  5
63
102
{ACAD_REACTORS
330
47
102
}
330
47
100
AcDbScale
 70
     0
300
3/4" = 1'-0"
140
0.75
141
12.0
290
     0
  0
SCALE
  5
64
102
{ACAD_REACTORS
330
47
102
}
330
47
100
AcDbScale
 70
     0
300
1" = 1'-0"
140
1.0
141
12.0
290
     0
  0
SCALE
  5
65
102
{ACAD_REACTORS
330
47
102
}
330
47
100
AcDbScale
 70
     0
300
1-1/2" = 1'-0"
140
1.5
141
12.0
290
     0
  0
SCALE
  5
66
102
{ACAD_REACTORS
330
47
102
}
330
47
100
AcDbScale
 70
     0
300
3" = 1'-0"
140
3.0
141
12.0
290
     0
  0
SCALE
  5
67
102
{ACAD_REACTORS
330
47
102
}
330
47
100
AcDbScale
 70
     0
300
6" = 1'-0"
140
6.0
141
12.0
290
     0
  0
SCALE
  5
68
102
{ACAD_REACTORS
330
47
102
}
330
47
100
AcDbScale
 70
     0
300
1'-0" = 1'-0"
140
12.0
141
12.0
290
     0
  0
TABLESTYLE
  5
6A
102
{ACAD_REACTORS
330
69
102
}
102
{ACAD_XDICTIONARY
360
3E7
102
}
330
69
100
AcDbTableStyle
  3
Standard
 70
     0
 71
     0
 40
0.06
 41
0.06
280
     0
281
     0
  7
Standard
140
4.5
170
     2
 62
     0
 63
   257
283
     0
 90
        4
 91
        0
  1

274
    -2
284
     1
 64
     0
275
    -2
285
     1
 65
     0
276
    -2
286
     1
 66
     0
277
    -2
287
     1
 67
     0
278
    -2
288
     1
 68
     0
279
    -2
289
     1
 69
     0
  7
Standard
140
6.0
170
     5
 62
     0
 63
   257
283
     0
 90
        4
 91
        0
  1

274
    -2
284
     1
 64
     0
275
    -2
285
     1
 65
     0
276
    -2
286
     1
 66
     0
277
    -2
287
     1
 67
     0
278
    -2
288
     1
 68
     0
279
    -2
289
     1
 69
     0
  7
Standard
140
4.5
170
     5
 62
     0
 63
   257
283
     0
 90
        4
 91
        0
  1

274
    -2
284
     1
 64
     0
275
    -2
285
     1
 65
     0
276
    -2
286
     1
 66
     0
277
    -2
287
     1
 67
     0
278
    -2
288
     1
 68
     0
279
    -2
289
     1
 69
     0
  0
VISUALSTYLE
  5
2F
102
{ACAD_REACTORS
330
2A
102
}
102
{ACAD_XDICTIONARY
360
3BF
102
}
330
2A
100
AcDbVisualStyle
  2
2dWireframe
 70
     4
177
     2
291
     0
 71
     0
176
     1
 72
     2
176
     1
 73
     0
176
     1
 90
        0
176
     1
 40
0.6
176
     1
 41
30.0
176
     1
 62
     5
 63
     7
421
 16777215
176
     1
 74
     1
176
     1
 91
        4
176
     1
 64
     7
176
     1
 65
   257
176
     1
 75
     1
176
     1
175
     1
176
     1
 42
1.0
176
     1
 92
        0
176
     1
 66
   257
176
     1
 43
1.0
176
     1
 76
     1
176
     1
 77
     6
176
     1
 78
     2
176
     1
 67
     7
176
     1
 79
     5
176
     1
170
     0
176
     1
171
     0
176
     1
290
     0
176
     1
 93
        1
176
     1
 44
0.0
176
     1
173
     0
176
     1
  0
VISUALSTYLE
  5
32
102
{ACAD_REACTORS
330
2A
102
}
102
{ACAD_XDICTIONARY
360
3C5
102
}
330
2A
100
AcDbVisualStyle
  2
Basic
 70
     7
177
     2
291
     1
 71
     1
176
     1
 72
     0
176
     1
 73
     1
176
     1
 90
        0
176
     1
 40
0.6
176
     1
 41
30.0
176
     1
 62
     5
 63
     7
421
 16777215
176
     1
 74
     0
176
     1
 91
        4
176
     1
 64
     7
176
     1
 65
   257
176
     1
 75
     1
176
     1
175
     1
176
     1
 42
1.0
176
     1
 92
        8
176
     1
 66
     7
176
     1
 43
1.0
176
     1
 76
     1
176
     1
 77
     6
176
     1
 78
     2
176
     1
 67
     7
176
     1
 79
     5
176
     1
170
     0
176
     1
171
     0
176
     1
290
     0
176
     1
 93
        1
176
     1
 44
0.0
176
     1
173
     0
176
     1
  0
VISUALSTYLE
  5
36
102
{ACAD_REACTORS
330
2A
102
}
102
{ACAD_XDICTIONARY
360
3CD
102
}
330
2A
100
AcDbVisualStyle
  2
Brighten
 70
    12
177
     2
291
     1
 71
     2
176
     1
 72
     2
176
     1
 73
     0
176
     1
 90
        0
176
     1
 40
0.6
176
     1
 41
30.0
176
     1
 62
     5
 63
     7
421
 16777215
176
     1
 74
     1
176
     1
 91
        4
176
     1
 64
     7
176
     1
 65
   257
176
     1
 75
     1
176
     1
175
     1
176
     1
 42
1.0
176
     1
 92
        8
176
     1
 66
     7
176
     1
 43
1.0
176
     1
 76
     1
176
     1
 77
     6
176
     1
 78
     2
176
     1
 67
     7
176
     1
 79
     5
176
     1
170
     0
176
     1
171
     0
176
     1
290
     0
176
     1
 93
        1
176
     1
 44
50.0
176
     1
173
     0
176
     1
  0
VISUALSTYLE
  5
3A
102
{ACAD_REACTORS
330
2A
102
}
102
{ACAD_XDICTIONARY
360
3D5
102
}
330
2A
100
AcDbVisualStyle
  2
ColorChange
 70
    16
177
     2
291
     1
 71
     2
176
     1
 72
     2
176
     1
 73
     3
176
     1
 90
        0
176
     1
 40
0.6
176
     1
 41
30.0
176
     1
 62
     5
 63
     8
421
  8421504
176
     1
 74
     1
176
     1
 91
        4
176
     1
 64
     7
176
     1
 65
   257
176
     1
 75
     1
176
     1
175
     1
176
     1
 42
1.0
176
     1
 92
        8
176
     1
 66
     8
424
  8421504
176
     1
 43
1.0
176
     1
 76
     1
176
     1
 77
     6
176
     1
 78
     2
176
     1
 67
     7
176
     1
 79
     5
176
     1
170
     0
176
     1
171
     0
176
     1
290
     0
176
     1
 93
        1
176
     1
 44
0.0
176
     1
173
     0
176
     1
  0
VISUALSTYLE
  5
34
102
{ACAD_REACTORS
330
2A
102
}
102
{ACAD_XDICTIONARY
360
3C9
102
}
330
2A
100
AcDbVisualStyle
  2
Conceptual
 70
     9
177
     2
291
     0
 71
     3
176
     1
 72
     2
176
     1
 73
     0
176
     1
 90
        0
176
     1
 40
0.6
176
     1
 41
30.0
176
     1
 62
     5
 63
     7
421
 16777215
176
     1
 74
     2
176
     1
 91
        2
176
     1
 64
     7
176
     1
 65
   257
176
     1
 75
     1
176
     1
175
     1
176
     1
 42
179.0
176
     1
 92
        8
176
     1
 66
     7
176
     1
 43
1.0
176
     1
 76
     1
176
     1
 77
     6
176
     1
 78
     2
176
     1
 67
     7
176
     1
 79
     3
176
     1
170
     0
176
     1
171
     0
176
     1
290
     0
176
     1
 93
        1
176
     1
 44
0.0
176
     1
173
     0
176
     1
  0
VISUALSTYLE
  5
35
102
{ACAD_REACTORS
330
2A
102
}
102
{ACAD_XDICTIONARY
360
3CB
102
}
330
2A
100
AcDbVisualStyle
  2
Dim
 70
    11
177
     2
291
     1
 71
     2
176
     1
 72
     2
176
     1
 73
     0
176
     1
 90
        0
176
     1
 40
0.6
176
     1
 41
30.0
176
     1
 62
     5
 63
     7
421
 16777215
176
     1
 74
     1
176
     1
 91
        4
176
     1
 64
     7
176
     1
 65
   257
176
     1
 75
     1
176
     1
175
     1
176
     1
 42
1.0
176
     1
 92
        8
176
     1
 66
     7
176
     1
 43
1.0
176
     1
 76
     1
176
     1
 77
     6
176
     1
 78
     2
176
     1
 67
     7
176
     1
 79
     5
176
     1
170
     0
176
     1
171
     0
176
     1
290
     0
176
     1
 93
        1
176
     1
 44
-50.0
176
     1
173
     0
176
     1
  0
VISUALSTYLE
  5
3D
102
{ACAD_REACTORS
330
2A
102
}
102
{ACAD_XDICTIONARY
360
3DB
102
}
330
2A
100
AcDbVisualStyle
  2
EdgeColorOff
 70
    22
177
     2
291
     1
 71
     2
176
     0
 72
     2
176
     0
 73
     0
176
     0
 90
        0
176
     0
 40
0.6
176
     0
 41
30.0
176
     0
 62
     5
 63
     7
421
 16777215
176
     0
 74
     1
176
     0
 91
        4
176
     0
 64
     7
176
     0
 65
   257
176
     0
 75
     1
176
     0
175
     1
176
     0
 42
1.0
176
     0
 92
        8
176
     2
 66
     7
176
     0
 43
1.0
176
     0
 76
     1
176
     0
 77
     6
176
     0
 78
     2
176
     0
 67
     7
176
     0
 79
     5
176
     0
170
     0
176
     0
171
     0
176
     0
290
     0
176
     0
 93
        1
176
     0
 44
0.0
176
     0
173
     0
176
     0
  0
VISUALSTYLE
  5
39
102
{ACAD_REACTORS
330
2A
102
}
102
{ACAD_XDICTIONARY
360
3D3
102
}
330
2A
100
AcDbVisualStyle
  2
Facepattern
 70
    15
177
     2
291
     1
 71
     2
176
     1
 72
     2
176
     1
 73
     0
176
     1
 90
        0
176
     1
 40
0.6
176
     1
 41
30.0
176
     1
 62
     5
 63
     7
421
 16777215
176
     1
 74
     1
176
     1
 91
        4
176
     1
 64
     7
176
     1
 65
   257
176
     1
 75
     1
176
     1
175
     1
176
     1
 42
1.0
176
     1
 92
        8
176
     1
 66
     7
176
     1
 43
1.0
176
     1
 76
     1
176
     1
 77
     6
176
     1
 78
     2
176
     1
 67
     7
176
     1
 79
     5
176
     1
170
     0
176
     1
171
     0
176
     1
290
     0
176
     1
 93
        1
176
     1
 44
0.0
176
     1
173
     0
176
     1
  0
VISUALSTYLE
  5
2B
102
{ACAD_REACTORS
330
2A
102
}
102
{ACAD_XDICTIONARY
360
3B7
102
}
330
2A
100
AcDbVisualStyle
  2
Flat
 70
     0
177
     2
291
     1
 71
     2
176
     1
 72
     1
176
     1
 73
     1
176
     1
 90
        2
176
     1
 40
0.6
176
     1
 41
30.0
176
     1
 62
     5
 63
     7
421
 16777215
176
     1
 74
     0
176
     1
 91
        0
176
     1
 64
     7
176
     1
 65
   257
176
     1
 75
     1
176
     1
175
     1
176
     1
 42
1.0
176
     1
 92
        8
176
     1
 66
     7
176
     1
 43
1.0
176
     1
 76
     1
176
     1
 77
     6
176
     1
 78
     2
176
     1
 67
     7
176
     1
 79
     5
176
     1
170
     0
176
     1
171
     0
176
     1
290
     0
176
     1
 93
       13
176
     1
 44
0.0
176
     1
173
     0
176
     1
  0
VISUALSTYLE
  5
2C
102
{ACAD_REACTORS
330
2A
102
}
102
{ACAD_XDICTIONARY
360
3B9
102
}
330
2A
100
AcDbVisualStyle
  2
FlatWithEdges
 70
     1
177
     2
291
     1
 71
     2
176
     1
 72
     1
176
     1
 73
     1
176
     1
 90
        2
176
     1
 40
0.6
176
     1
 41
30.0
176
     1
 62
     5
 63
     7
421
 16777215
176
     1
 74
     1
176
     1
 91
        0
176
     1
 64
     7
176
     1
 65
   257
176
     1
 75
     1
176
     1
175
     1
176
     1
 42
1.0
176
     1
 92
        0
176
     1
 66
   257
176
     1
 43
1.0
176
     1
 76
     1
176
     1
 77
     6
176
     1
 78
     2
176
     1
 67
     7
176
     1
 79
     5
176
     1
170
     0
176
     1
171
     0
176
     1
290
     0
176
     1
 93
       13
176
     1
 44
0.0
176
     1
173
     0
176
     1
  0
VISUALSTYLE
  5
2D
102
{ACAD_REACTORS
330
2A
102
}
102
{ACAD_XDICTIONARY
360
3BB
102
}
330
2A
100
AcDbVisualStyle
  2
Gouraud
 70
     2
177
     2
291
     1
 71
     2
176
     1
 72
     2
176
     1
 73
     1
176
     1
 90
        2
176
     1
 40
0.6
176
     1
 41
30.0
176
     1
 62
     5
 63
     7
421
 16777215
176
     1
 74
     0
176
     1
 91
        0
176
     1
 64
     7
176
     1
 65
   257
176
     1
 75
     1
176
     1
175
     1
176
     1
 42
1.0
176
     1
 92
        0
176
     1
 66
     7
176
     1
 43
1.0
176
     1
 76
     1
176
     1
 77
     6
176
     1
 78
     2
176
     1
 67
     7
176
     1
 79
     5
176
     1
170
     0
176
     1
171
     0
176
     1
290
     0
176
     1
 93
       13
176
     1
 44
0.0
176
     1
173
     0
176
     1
  0
VISUALSTYLE
  5
2E
102
{ACAD_REACTORS
330
2A
102
}
102
{ACAD_XDICTIONARY
360
3BD
102
}
330
2A
100
AcDbVisualStyle
  2
GouraudWithEdges
 70
     3
177
     2
291
     1
 71
     2
176
     1
 72
     2
176
     1
 73
     1
176
     1
 90
        2
176
     1
 40
0.6
176
     1
 41
30.0
176
     1
 62
     5
 63
     7
421
 16777215
176
     1
 74
     1
176
     1
 91
        0
176
     1
 64
     7
176
     1
 65
   257
176
     1
 75
     1
176
     1
175
     1
176
     1
 42
1.0
176
     1
 92
        0
176
     1
 66
   257
176
     1
 43
1.0
176
     1
 76
     1
176
     1
 77
     6
176
     1
 78
     2
176
     1
 67
     7
176
     1
 79
     5
176
     1
170
     0
176
     1
171
     0
176
     1
290
     0
176
     1
 93
       13
176
     1
 44
0.0
176
     1
173
     0
176
     1
  0
VISUALSTYLE
  5
31
102
{ACAD_REACTORS
330
2A
102
}
102
{ACAD_XDICTIONARY
360
3C3
102
}
330
2A
100
AcDbVisualStyle
  2
Hidden
 70
     6
177
     2
291
     0
 71
     1
176
     1
 72
     2
176
     1
 73
     2
176
     1
 90
        0
176
     1
 40
0.6
176
     1
 41
30.0
176
     1
 62
     5
 63
     7
421
 16777215
176
     1
 74
     2
176
     1
 91
        2
176
     1
 64
     7
176
     1
 65
   257
176
     1
 75
     2
176
     1
175
     1
176
     1
 42
40.0
176
     1
 92
        0
176
     1
 66
   257
176
     1
 43
1.0
176
     1
 76
     1
176
     1
 77
     6
176
     1
 78
     2
176
     1
 67
     7
176
     1
 79
     3
176
     1
170
     0
176
     1
171
     0
176
     1
290
     0
176
     1
 93
        1
176
     1
 44
0.0
176
     1
173
     0
176
     1
  0
VISUALSTYLE
  5
3B
102
{ACAD_REACTORS
330
2A
102
}
102
{ACAD_XDICTIONARY
360
3D7
102
}
330
2A
100
AcDbVisualStyle
  2
JitterOff
 70
    20
177
     2
291
     1
 71
     2
176
     0
 72
     2
176
     0
 73
     0
176
     0
 90
        0
176
     0
 40
0.6
176
     0
 41
30.0
176
     0
 62
     5
 63
     7
421
 16777215
176
     0
 74
     1
176
     0
 91
        4
176
     0
 64
     7
176
     0
 65
   257
176
     0
 75
     1
176
     0
175
     1
176
     0
 42
1.0
176
     0
 92
       10
176
     2
 66
     7
176
     0
 43
1.0
176
     0
 76
     1
176
     0
 77
     6
176
     0
 78
     2
176
     0
 67
     7
176
     0
 79
     5
176
     0
170
     0
176
     0
171
     0
176
     0
290
     0
176
     0
 93
        1
176
     0
 44
0.0
176
     0
173
     0
176
     0
  0
VISUALSTYLE
  5
38
102
{ACAD_REACTORS
330
2A
102
}
102
{ACAD_XDICTIONARY
360
3D1
102
}
330
2A
100
AcDbVisualStyle
  2
Linepattern
 70
    14
177
     2
291
     1
 71
     2
176
     1
 72
     2
176
     1
 73
     0
176
     1
 90
        0
176
     1
 40
0.6
176
     1
 41
30.0
176
     1
 62
     5
 63
     7
421
 16777215
176
     1
 74
     1
176
     1
 91
        4
176
     1
 64
     7
176
     1
 65
   257
176
     1
 75
     7
176
     1
175
     7
176
     1
 42
1.0
176
     1
 92
        8
176
     1
 66
     7
176
     1
 43
1.0
176
     1
 76
     1
176
     1
 77
     6
176
     1
 78
     2
176
     1
 67
     7
176
     1
 79
     5
176
     1
170
     0
176
     1
171
     0
176
     1
290
     0
176
     1
 93
        1
176
     1
 44
0.0
176
     1
173
     0
176
     1
  0
VISUALSTYLE
  5
3C
102
{ACAD_REACTORS
330
2A
102
}
102
{ACAD_XDICTIONARY
360
3D9
102
}
330
2A
100
AcDbVisualStyle
  2
OverhangOff
 70
    21
177
     2
291
     1
 71
     2
176
     0
 72
     2
176
     0
 73
     0
176
     0
 90
        0
176
     0
 40
0.6
176
     0
 41
30.0
176
     0
 62
     5
 63
     7
421
 16777215
176
     0
 74
     1
176
     0
 91
        4
176
     0
 64
     7
176
     0
 65
   257
176
     0
 75
     1
176
     0
175
     1
176
     0
 42
1.0
176
     0
 92
        9
176
     2
 66
     7
176
     0
 43
1.0
176
     0
 76
     1
176
     0
 77
     6
176
     0
 78
     2
176
     0
 67
     7
176
     0
 79
     5
176
     0
170
     0
176
     0
171
     0
176
     0
290
     0
176
     0
 93
        1
176
     0
 44
0.0
176
     0
173
     0
176
     0
  0
VISUALSTYLE
  5
33
102
{ACAD_REACTORS
330
2A
102
}
102
{ACAD_XDICTIONARY
360
3C7
102
}
330
2A
100
AcDbVisualStyle
  2
Realistic
 70
     8
177
     2
291
     0
 71
     2
176
     1
 72
     3
176
     1
 73
     0
176
     1
 90
        2
176
     1
 40
0.6
176
     1
 41
30.0
176
     1
 62
     5
 63
     7
421
 16777215
176
     1
 74
     0
176
     1
 91
        0
176
     1
 64
     7
176
     1
 65
   257
176
     1
 75
     1
176
     1
175
     1
176
     1
 42
1.0
176
     1
 92
        8
176
     1
 66
   257
176
     1
 43
1.0
176
     1
 76
     1
176
     1
 77
     6
176
     1
 78
     2
176
     1
 67
     7
176
     1
 79
     3
176
     1
170
     0
176
     1
171
     0
176
     1
290
     0
176
     1
 93
       13
176
     1
 44
0.0
176
     1
173
     0
176
     1
  0
VISUALSTYLE
  5
42
102
{ACAD_REACTORS
330
2A
102
}
102
{ACAD_XDICTIONARY
360
3E5
102
}
330
2A
100
AcDbVisualStyle
  2
Shaded
 70
    27
177
     2
291
     0
 71
     2
176
     1
 72
     2
176
     1
 73
     1
176
     1
 90
        2
176
     1
 40
0.6
176
     1
 41
30.0
176
     1
 62
     5
 63
     7
421
 16777215
176
     1
 74
     0
176
     1
 91
        4
176
     1
 64
     7
176
     1
 65
   257
176
     1
 75
     1
176
     1
175
     1
176
     1
 42
1.0
176
     1
 92
        8
176
     1
 66
   257
176
     1
 43
1.0
176
     1
 76
     1
176
     1
 77
     6
176
     1
 78
     2
176
     1
 67
     8
425
  7895160
176
     1
 79
     3
176
     1
170
     0
176
     1
171
     0
176
     1
290
     0
176
     1
 93
        5
176
     1
 44
0.0
176
     1
173
     0
176
     1
  0
VISUALSTYLE
  5
41
102
{ACAD_REACTORS
330
2A
102
}
102
{ACAD_XDICTIONARY
360
3E3
102
}
330
2A
100
AcDbVisualStyle
  2
Shaded with edges
 70
    26
177
     2
291
     0
 71
     2
176
     1
 72
     2
176
     1
 73
     1
176
     1
 90
        2
176
     1
 40
0.6
176
     1
 41
30.0
176
     1
 62
     5
 63
     7
421
 16777215
176
     1
 74
     1
176
     1
 91
       10
176
     1
 64
     7
176
     1
 65
   257
176
     1
 75
     2
176
     1
175
     1
176
     1
 42
1.0
176
     1
 92
        8
176
     1
 66
   257
176
     1
 43
1.0
176
     1
 76
     1
176
     1
 77
     6
176
     1
 78
     2
176
     1
 67
     7
176
     1
 79
     3
176
     1
170
     0
176
     1
171
     0
176
     1
290
     0
176
     1
 93
        5
176
     1
 44
0.0
176
     1
173
     0
176
     1
  0
VISUALSTYLE
  5
3E
102
{ACAD_REACTORS
330
2A
102
}
102
{ACAD_XDICTIONARY
360
3DD
102
}
330
2A
100
AcDbVisualStyle
  2
Shades of Gray
 70
    23
177
     2
291
     0
 71
     2
176
     1
 72
     2
176
     1
 73
     3
176
     1
 90
        0
176
     1
 40
0.6
176
     1
 41
30.0
176
     1
 62
     5
 63
     7
421
 16777215
176
     1
 74
     2
176
     1
 91
        2
176
     1
 64
     7
176
     1
 65
     7
176
     1
 75
     1
176
     1
175
     1
176
     1
 42
40.0
176
     1
 92
        8
176
     1
 66
     7
176
     1
 43
1.0
176
     1
 76
     1
176
     1
 77
     6
176
     1
 78
     2
176
     1
 67
     7
176
     1
 79
     3
176
     1
170
     0
176
     1
171
     0
176
     1
290
     0
176
     1
 93
        1
176
     1
 44
0.0
176
     1
173
     0
176
     1
  0
VISUALSTYLE
  5
3F
102
{ACAD_REACTORS
330
2A
102
}
102
{ACAD_XDICTIONARY
360
3DF
102
}
330
2A
100
AcDbVisualStyle
  2
Sketchy
 70
    24
177
     2
291
     0
 71
     1
176
     1
 72
     2
176
     1
 73
     2
176
     1
 90
        0
176
     1
 40
0.6
176
     1
 41
30.0
176
     1
 62
     5
 63
     7
421
 16777215
176
     1
 74
     2
176
     1
 91
        2
176
     1
 64
     7
176
     1
 65
     7
176
     1
 75
     1
176
     1
175
     1
176
     1
 42
40.0
176
     1
 92
       11
176
     1
 66
     7
176
     1
 43
1.0
176
     1
 76
     1
176
     1
 77
     6
176
     1
 78
     2
176
     1
 67
     7
176
     1
 79
     6
176
     1
170
     0
176
     1
171
     0
176
     1
290
     0
176
     1
 93
        1
176
     1
 44
0.0
176
     1
173
     0
176
     1
  0
VISUALSTYLE
  5
37
102
{ACAD_REACTORS
330
2A
102
}
102
{ACAD_XDICTIONARY
360
3CF
102
}
330
2A
100
AcDbVisualStyle
  2
Thicken
 70
    13
177
     2
291
     1
 71
     2
176
     1
 72
     2
176
     1
 73
     0
176
     1
 90
        0
176
     1
 40
0.6
176
     1
 41
30.0
176
     1
 62
     5
 63
     7
421
 16777215
176
     1
 74
     1
176
     1
 91
        4
176
     1
 64
     7
176
     1
 65
   257
176
     1
 75
     1
176
     1
175
     1
176
     1
 42
1.0
176
     1
 92
       12
176
     1
 66
     7
176
     1
 43
1.0
176
     1
 76
     1
176
     1
 77
     6
176
     1
 78
     2
176
     1
 67
     7
176
     1
 79
     5
176
     1
170
     0
176
     1
171
     0
176
     1
290
     0
176
     1
 93
        1
176
     1
 44
0.0
176
     1
173
     0
176
     1
  0
VISUALSTYLE
  5
30
102
{ACAD_REACTORS
330
2A
102
}
102
{ACAD_XDICTIONARY
360
3C1
102
}
330
2A
100
AcDbVisualStyle
  2
Wireframe
 70
     5
177
     2
291
     0
 71
     0
176
     1
 72
     2
176
     1
 73
     0
176
     1
 90
        0
176
     1
 40
0.6
176
     1
 41
30.0
176
     1
 62
     5
 63
     7
421
 16777215
176
     1
 74
     1
176
     1
 91
        4
176
     1
 64
     7
176
     1
 65
   257
176
     1
 75
     1
176
     1
175
     1
176
     1
 42
1.0
176
     1
 92
        0
176
     1
 66
   257
176
     1
 43
1.0
176
     1
 76
     1
176
     1
 77
     6
176
     1
 78
     2
176
     1
 67
     7
176
     1
 79
     3
176
     1
170
     0
176
     1
171
     0
176
     1
290
     0
176
     1
 93
        1
176
     1
 44
0.0
176
     1
173
     0
176
     1
  0
VISUALSTYLE
  5
40
102
{ACAD_REACTORS
330
2A
102
}
102
{ACAD_XDICTIONARY
360
3E1
102
}
330
2A
100
AcDbVisualStyle
  2
X-Ray
 70
    25
177
     2
291
     0
 71
     2
176
     1
 72
     2
176
     1
 73
     1
176
     1
 90
        1
176
     1
 40
0.5
176
     1
 41
30.0
176
     1
 62
     5
 63
     7
421
 16777215
176
     1
 74
     1
176
     1
 91
        0
176
     1
 64
     7
176
     1
 65
   257
176
     1
 75
     1
176
     1
175
     1
176
     1
 42
1.0
176
     1
 92
        8
176
     1
 66
     7
176
     1
 43
1.0
176
     1
 76
     1
176
     1
 77
     6
176
     1
 78
     2
176
     1
 67
     7
176
     1
 79
     3
176
     1
170
     0
176
     1
171
     0
176
     1
290
     0
176
     1
 93
       13
176
     1
 44
0.0
176
     1
173
     0
176
     1
  0
DICTIONARYVAR
  5
3B6
102
{ACAD_REACTORS
330
3B5
102
}
330
3B5
100
DictionaryVariables
280
     0
  1
1:1
  0
DICTIONARYVAR
  5
3EB
102
{ACAD_REACTORS
330
3B5
102
}
330
3B5
100
DictionaryVariables
280
     0
  1
Standard
  0
DICTIONARYVAR
  5
3EA
102
{ACAD_REACTORS
330
3B5
102
}
330
3B5
100
DictionaryVariables
280
     0
  1
Standard
  0
DICTIONARY
  5
3E7
330
6A
100
AcDbDictionary
280
     1
281
     1
  3
ACAD_ROUNDTRIP_2008_TABLESTYLE_CELLSTYLEMAP
360
3E8
  0
DICTIONARY
  5
3BF
330
2F
100
AcDbDictionary
280
     1
281
     1
  3
ACAD_XREC_ROUNDTRIP
360
3C0
  0
DICTIONARY
  5
3C5
330
32
100
AcDbDictionary
280
     1
281
     1
  3
ACAD_XREC_ROUNDTRIP
360
3C6
  0
DICTIONARY
  5
3CD
330
36
100
AcDbDictionary
280
     1
281
     1
  3
ACAD_XREC_ROUNDTRIP
360
3CE
  0
DICTIONARY
  5
3D5
330
3A
100
AcDbDictionary
280
     1
281
     1
  3
ACAD_XREC_ROUNDTRIP
360
3D6
  0
DICTIONARY
  5
3C9
330
34
100
AcDbDictionary
280
     1
281
     1
  3
ACAD_XREC_ROUNDTRIP
360
3CA
  0
DICTIONARY
  5
3CB
330
35
100
AcDbDictionary
280
     1
281
     1
  3
ACAD_XREC_ROUNDTRIP
360
3CC
  0
DICTIONARY
  5
3DB
330
3D
100
AcDbDictionary
280
     1
281
     1
  3
ACAD_XREC_ROUNDTRIP
360
3DC
  0
DICTIONARY
  5
3D3
330
39
100
AcDbDictionary
280
     1
281
     1
  3
ACAD_XREC_ROUNDTRIP
360
3D4
  0
DICTIONARY
  5
3B7
330
2B
100
AcDbDictionary
280
     1
281
     1
  3
ACAD_XREC_ROUNDTRIP
360
3B8
  0
DICTIONARY
  5
3B9
330
2C
100
AcDbDictionary
280
     1
281
     1
  3
ACAD_XREC_ROUNDTRIP
360
3BA
  0
DICTIONARY
  5
3BB
330
2D
100
AcDbDictionary
280
     1
281
     1
  3
ACAD_XREC_ROUNDTRIP
360
3BC
  0
DICTIONARY
  5
3BD
330
2E
100
AcDbDictionary
280
     1
281
     1
  3
ACAD_XREC_ROUNDTRIP
360
3BE
  0
DICTIONARY
  5
3C3
330
31
100
AcDbDictionary
280
     1
281
     1
  3
ACAD_XREC_ROUNDTRIP
360
3C4
  0
DICTIONARY
  5
3D7
330
3B
100
AcDbDictionary
280
     1
281
     1
  3
ACAD_XREC_ROUNDTRIP
360
3D8
  0
DICTIONARY
  5
3D1
330
38
100
AcDbDictionary
280
     1
281
     1
  3
ACAD_XREC_ROUNDTRIP
360
3D2
  0
DICTIONARY
  5
3D9
330
3C
100
AcDbDictionary
280
     1
281
     1
  3
ACAD_XREC_ROUNDTRIP
360
3DA
  0
DICTIONARY
  5
3C7
330
33
100
AcDbDictionary
280
     1
281
     1
  3
ACAD_XREC_ROUNDTRIP
360
3C8
  0
DICTIONARY
  5
3E5
330
42
100
AcDbDictionary
280
     1
281
     1
  3
ACAD_XREC_ROUNDTRIP
360
3E6
  0
DICTIONARY
  5
3E3
330
41
100
AcDbDictionary
280
     1
281
     1
  3
ACAD_XREC_ROUNDTRIP
360
3E4
  0
DICTIONARY
  5
3DD
330
3E
100
AcDbDictionary
280
     1
281
     1
  3
ACAD_XREC_ROUNDTRIP
360
3DE
  0
DICTIONARY
  5
3DF
330
3F
100
AcDbDictionary
280
     1
281
     1
  3
ACAD_XREC_ROUNDTRIP
360
3E0
  0
DICTIONARY
  5
3CF
330
37
100
AcDbDictionary
280
     1
281
     1
  3
ACAD_XREC_ROUNDTRIP
360
3D0
  0
DICTIONARY
  5
3C1
330
30
100
AcDbDictionary
280
     1
281
     1
  3
ACAD_XREC_ROUNDTRIP
360
3C2
  0
DICTIONARY
  5
3E1
330
40
100
AcDbDictionary
280
     1
281
     1
  3
ACAD_XREC_ROUNDTRIP
360
3E2
  0
CELLSTYLEMAP
  5
3E8
102
{ACAD_REACTORS
330
3E7
102
}
330
3E7
100
AcDbCellStyleMap
 90
        3
300
CELLSTYLE
  1
TABLEFORMAT_BEGIN
 90
        5
170
     1
 91
        0
 92
    32768
 62
   257
 93
        1
300
CONTENTFORMAT
  1
CONTENTFORMAT_BEGIN
 90
        0
 91
        0
 92
        4
 93
        0
300

 40
0.0
140
1.0
 94
        5
 62
     0
340
11
144
6.0
309
CONTENTFORMAT_END
171
     1
301
MARGIN
  1
CELLMARGIN_BEGIN
 40
1.5
 40
1.5
 40
1.5
 40
1.5
 40
1.5
 40
1.5
309
CELLMARGIN_END
 94
        6
 95
        1
302
GRIDFORMAT
  1
GRIDFORMAT_BEGIN
 90
        0
 91
        1
 62
     0
 92
       -2
340
14
 93
        0
 40
0.045
309
GRIDFORMAT_END
 95
        2
302
GRIDFORMAT
  1
GRIDFORMAT_BEGIN
 90
        0
 91
        1
 62
     0
 92
       -2
340
14
 93
        0
 40
0.045
309
GRIDFORMAT_END
 95
        4
302
GRIDFORMAT
  1
GRIDFORMAT_BEGIN
 90
        0
 91
        1
 62
     0
 92
       -2
340
14
 93
        0
 40
0.045
309
GRIDFORMAT_END
 95
        8
302
GRIDFORMAT
  1
GRIDFORMAT_BEGIN
 90
        0
 91
        1
 62
     0
 92
       -2
340
14
 93
        0
 40
0.045
309
GRIDFORMAT_END
 95
       16
302
GRIDFORMAT
  1
GRIDFORMAT_BEGIN
 90
        0
 91
        1
 62
     0
 92
       -2
340
14
 93
        0
 40
0.045
309
GRIDFORMAT_END
 95
       32
302
GRIDFORMAT
  1
GRIDFORMAT_BEGIN
 90
        0
 91
        1
 62
     0
 92
       -2
340
14
 93
        0
 40
0.045
309
GRIDFORMAT_END
309
TABLEFORMAT_END
  1
CELLSTYLE_BEGIN
 90
        1
 91
        1
300
_TITLE
309
CELLSTYLE_END
300
CELLSTYLE
  1
TABLEFORMAT_BEGIN
 90
        5
170
     1
 91
        0
 92
        0
 62
   257
 93
        1
300
CONTENTFORMAT
  1
CONTENTFORMAT_BEGIN
 90
        0
 91
        0
 92
        4
 93
        0
300

 40
0.0
140
1.0
 94
        5
 62
     0
340
11
144
4.5
309
CONTENTFORMAT_END
171
     1
301
MARGIN
  1
CELLMARGIN_BEGIN
 40
1.5
 40
1.5
 40
1.5
 40
1.5
 40
1.5
 40
1.5
309
CELLMARGIN_END
 94
        6
 95
        1
302
GRIDFORMAT
  1
GRIDFORMAT_BEGIN
 90
        0
 91
        1
 62
     0
 92
       -2
340
14
 93
        0
 40
0.045
309
GRIDFORMAT_END
 95
        2
302
GRIDFORMAT
  1
GRIDFORMAT_BEGIN
 90
        0
 91
        1
 62
     0
 92
       -2
340
14
 93
        0
 40
0.045
309
GRIDFORMAT_END
 95
        4
302
GRIDFORMAT
  1
GRIDFORMAT_BEGIN
 90
        0
 91
        1
 62
     0
 92
       -2
340
14
 93
        0
 40
0.045
309
GRIDFORMAT_END
 95
        8
302
GRIDFORMAT
  1
GRIDFORMAT_BEGIN
 90
        0
 91
        1
 62
     0
 92
       -2
340
14
 93
        0
 40
0.045
309
GRIDFORMAT_END
 95
       16
302
GRIDFORMAT
  1
GRIDFORMAT_BEGIN
 90
        0
 91
        1
 62
     0
 92
       -2
340
14
 93
        0
 40
0.045
309
GRIDFORMAT_END
 95
       32
302
GRIDFORMAT
  1
GRIDFORMAT_BEGIN
 90
        0
 91
        1
 62
     0
 92
       -2
340
14
 93
        0
 40
0.045
309
GRIDFORMAT_END
309
TABLEFORMAT_END
  1
CELLSTYLE_BEGIN
 90
        2
 91
        1
300
_HEADER
309
CELLSTYLE_END
300
CELLSTYLE
  1
TABLEFORMAT_BEGIN
 90
        5
170
     1
 91
        0
 92
        0
 62
   257
 93
        1
300
CONTENTFORMAT
  1
CONTENTFORMAT_BEGIN
 90
        0
 91
        0
 92
        4
 93
        0
300

 40
0.0
140
1.0
 94
        2
 62
     0
340
11
144
4.5
309
CONTENTFORMAT_END
171
     1
301
MARGIN
  1
CELLMARGIN_BEGIN
 40
1.5
 40
1.5
 40
1.5
 40
1.5
 40
1.5
 40
1.5
309
CELLMARGIN_END
 94
        6
 95
        1
302
GRIDFORMAT
  1
GRIDFORMAT_BEGIN
 90
        0
 91
        1
 62
     0
 92
       -2
340
14
 93
        0
 40
0.045
309
GRIDFORMAT_END
 95
        2
302
GRIDFORMAT
  1
GRIDFORMAT_BEGIN
 90
        0
 91
        1
 62
     0
 92
       -2
340
14
 93
        0
 40
0.045
309
GRIDFORMAT_END
 95
        4
302
GRIDFORMAT
  1
GRIDFORMAT_BEGIN
 90
        0
 91
        1
 62
     0
 92
       -2
340
14
 93
        0
 40
0.045
309
GRIDFORMAT_END
 95
        8
302
GRIDFORMAT
  1
GRIDFORMAT_BEGIN
 90
        0
 91
        1
 62
     0
 92
       -2
340
14
 93
        0
 40
0.045
309
GRIDFORMAT_END
 95
       16
302
GRIDFORMAT
  1
GRIDFORMAT_BEGIN
 90
        0
 91
        1
 62
     0
 92
       -2
340
14
 93
        0
 40
0.045
309
GRIDFORMAT_END
 95
       32
302
GRIDFORMAT
  1
GRIDFORMAT_BEGIN
 90
        0
 91
        1
 62
     0
 92
       -2
340
14
 93
        0
 40
0.045
309
GRIDFORMAT_END
309
TABLEFORMAT_END
  1
CELLSTYLE_BEGIN
 90
        3
 91
        2
300
_DATA
309
CELLSTYLE_END
  0
XRECORD
  5
3C0
102
{ACAD_REACTORS
330
3BF
102
}
330
3BF
100
AcDbXrecord
280
     1
102
RTVSPost2010Prop28
280
     1
102
RTVSPost2010PropOp28
 70
     1
102
RTVSPost2010Prop29
280
     1
102
RTVSPost2010PropOp29
 70
     1
102
RTVSPost2010Prop30
280
     0
102
RTVSPost2010PropOp30
 70
     1
102
RTVSPost2010Prop31
280
     0
102
RTVSPost2010PropOp31
 70
     1
102
RTVSPost2010Prop32
280
     0
102
RTVSPost2010PropOp32
 70
     1
102
RTVSPost2010Prop33
280
     0
102
RTVSPost2010PropOp33
 70
     1
102
RTVSPost2010Prop34
280
     0
102
RTVSPost2010PropOp34
 70
     1
102
RTVSPost2010Prop35
280
     0
102
RTVSPost2010PropOp35
 70
     1
102
RTVSPost2010Prop36
280
     0
102
RTVSPost2010PropOp36
 70
     1
102
RTVSPost2010Prop37
 90
       50
102
RTVSPost2010PropOp37
 70
     1
102
RTVSPost2010Prop38
140
0.0
102
RTVSPost2010PropOp38
 70
     1
102
RTVSPost2010Prop39
140
1.0
102
RTVSPost2010PropOp39
 70
     1
102
RTVSPost2010Prop40
 90
        0
102
RTVSPost2010PropOp40
 70
     1
102
RTVSPost2010Prop41ColorIndex
 90
       18
102
RTVSPost2010Prop41ColorRGB
 90
        0
102
RTVSPost2010PropOp41
 70
     1
102
RTVSPost2010Prop42
 90
       50
102
RTVSPost2010PropOp42
 70
     1
102
RTVSPost2010Prop43
 90
        3
102
RTVSPost2010PropOp43
 70
     1
102
RTVSPost2010Prop44ColorIndex
 90
        5
102
RTVSPost2010Prop44ColorRGB
 90
      255
102
RTVSPost2010PropOp44
 70
     1
102
RTVSPost2010Prop45
280
     0
102
RTVSPost2010PropOp45
 70
     1
102
RTVSPost2010Prop46
 90
       50
102
RTVSPost2010PropOp46
 70
     1
102
RTVSPost2010Prop47
 90
       50
102
RTVSPost2010PropOp47
 70
     1
102
RTVSPost2010Prop48
 90
       50
102
RTVSPost2010PropOp48
 70
     1
102
RTVSPost2010Prop49
280
     0
102
RTVSPost2010PropOp49
 70
     1
102
RTVSPost2010Prop50
 90
       50
102
RTVSPost2010PropOp50
 70
     1
102
RTVSPost2010Prop51ColorIndex
 90
      256
102
RTVSPost2010Prop51ColorRGB
 90
-16777216
102
RTVSPost2010PropOp51
 70
     0
102
RTVSPost2010Prop52
140
1.0
102
RTVSPost2010PropOp52
 70
     0
102
RTVSPost2010Prop53
 90
        2
102
RTVSPost2010PropOp53
 70
     1
102
RTVSPost2010Prop54
  1
strokes_ogs.tif
102
RTVSPost2010PropOp54
 70
     1
102
RTVSPost2010Prop55
280
     0
102
RTVSPost2010PropOp55
 70
     1
102
RTVSPost2010Prop56
140
1.0
102
RTVSPost2010PropOp56
 70
     1
102
RTVSPost2010Prop57
140
1.0
102
RTVSPost2010PropOp57
 70
     1
  0
XRECORD
  5
3C6
102
{ACAD_REACTORS
330
3C5
102
}
330
3C5
100
AcDbXrecord
280
     1
102
RTVSPost2010Prop28
280
     0
102
RTVSPost2010PropOp28
 70
     1
102
RTVSPost2010Prop29
280
     1
102
RTVSPost2010PropOp29
 70
     1
102
RTVSPost2010Prop30
280
     1
102
RTVSPost2010PropOp30
 70
     1
102
RTVSPost2010Prop31
280
     0
102
RTVSPost2010PropOp31
 70
     1
102
RTVSPost2010Prop32
280
     0
102
RTVSPost2010PropOp32
 70
     1
102
RTVSPost2010Prop33
280
     0
102
RTVSPost2010PropOp33
 70
     1
102
RTVSPost2010Prop34
280
     0
102
RTVSPost2010PropOp34
 70
     1
102
RTVSPost2010Prop35
280
     0
102
RTVSPost2010PropOp35
 70
     1
102
RTVSPost2010Prop36
280
     0
102
RTVSPost2010PropOp36
 70
     1
102
RTVSPost2010Prop37
 90
       50
102
RTVSPost2010PropOp37
 70
     1
102
RTVSPost2010Prop38
140
0.0
102
RTVSPost2010PropOp38
 70
     1
102
RTVSPost2010Prop39
140
1.0
102
RTVSPost2010PropOp39
 70
     1
102
RTVSPost2010Prop40
 90
        0
102
RTVSPost2010PropOp40
 70
     1
102
RTVSPost2010Prop41ColorIndex
 90
       18
102
RTVSPost2010Prop41ColorRGB
 90
        0
102
RTVSPost2010PropOp41
 70
     1
102
RTVSPost2010Prop42
 90
       50
102
RTVSPost2010PropOp42
 70
     1
102
RTVSPost2010Prop43
 90
        3
102
RTVSPost2010PropOp43
 70
     1
102
RTVSPost2010Prop44ColorIndex
 90
        5
102
RTVSPost2010Prop44ColorRGB
 90
      255
102
RTVSPost2010PropOp44
 70
     1
102
RTVSPost2010Prop45
280
     0
102
RTVSPost2010PropOp45
 70
     1
102
RTVSPost2010Prop46
 90
       50
102
RTVSPost2010PropOp46
 70
     1
102
RTVSPost2010Prop47
 90
       50
102
RTVSPost2010PropOp47
 70
     1
102
RTVSPost2010Prop48
 90
       50
102
RTVSPost2010PropOp48
 70
     1
102
RTVSPost2010Prop49
280
     0
102
RTVSPost2010PropOp49
 70
     1
102
RTVSPost2010Prop50
 90
       50
102
RTVSPost2010PropOp50
 70
     1
102
RTVSPost2010Prop51ColorIndex
 90
      256
102
RTVSPost2010Prop51ColorRGB
 90
-16777216
102
RTVSPost2010PropOp51
 70
     0
102
RTVSPost2010Prop52
140
1.0
102
RTVSPost2010PropOp52
 70
     0
102
RTVSPost2010Prop53
 90
        2
102
RTVSPost2010PropOp53
 70
     1
102
RTVSPost2010Prop54
  1
strokes_ogs.tif
102
RTVSPost2010PropOp54
 70
     1
102
RTVSPost2010Prop55
280
     0
102
RTVSPost2010PropOp55
 70
     1
102
RTVSPost2010Prop56
140
1.0
102
RTVSPost2010PropOp56
 70
     1
102
RTVSPost2010Prop57
140
1.0
102
RTVSPost2010PropOp57
 70
     1
  0
XRECORD
  5
3CE
102
{ACAD_REACTORS
330
3CD
102
}
330
3CD
100
AcDbXrecord
280
     1
102
RTVSPost2010Prop28
280
     0
102
RTVSPost2010PropOp28
 70
     1
102
RTVSPost2010Prop29
280
     1
102
RTVSPost2010PropOp29
 70
     1
102
RTVSPost2010Prop30
280
     1
102
RTVSPost2010PropOp30
 70
     1
102
RTVSPost2010Prop31
280
     0
102
RTVSPost2010PropOp31
 70
     1
102
RTVSPost2010Prop32
280
     0
102
RTVSPost2010PropOp32
 70
     1
102
RTVSPost2010Prop33
280
     0
102
RTVSPost2010PropOp33
 70
     1
102
RTVSPost2010Prop34
280
     0
102
RTVSPost2010PropOp34
 70
     1
102
RTVSPost2010Prop35
280
     0
102
RTVSPost2010PropOp35
 70
     1
102
RTVSPost2010Prop36
280
     0
102
RTVSPost2010PropOp36
 70
     1
102
RTVSPost2010Prop37
 90
       50
102
RTVSPost2010PropOp37
 70
     1
102
RTVSPost2010Prop38
140
0.0
102
RTVSPost2010PropOp38
 70
     1
102
RTVSPost2010Prop39
140
1.0
102
RTVSPost2010PropOp39
 70
     1
102
RTVSPost2010Prop40
 90
        0
102
RTVSPost2010PropOp40
 70
     1
102
RTVSPost2010Prop41ColorIndex
 90
       18
102
RTVSPost2010Prop41ColorRGB
 90
        0
102
RTVSPost2010PropOp41
 70
     1
102
RTVSPost2010Prop42
 90
       50
102
RTVSPost2010PropOp42
 70
     1
102
RTVSPost2010Prop43
 90
        3
102
RTVSPost2010PropOp43
 70
     1
102
RTVSPost2010Prop44ColorIndex
 90
        5
102
RTVSPost2010Prop44ColorRGB
 90
      255
102
RTVSPost2010PropOp44
 70
     1
102
RTVSPost2010Prop45
280
     0
102
RTVSPost2010PropOp45
 70
     1
102
RTVSPost2010Prop46
 90
       50
102
RTVSPost2010PropOp46
 70
     1
102
RTVSPost2010Prop47
 90
       50
102
RTVSPost2010PropOp47
 70
     1
102
RTVSPost2010Prop48
 90
       50
102
RTVSPost2010PropOp48
 70
     1
102
RTVSPost2010Prop49
280
     0
102
RTVSPost2010PropOp49
 70
     1
102
RTVSPost2010Prop50
 90
       50
102
RTVSPost2010PropOp50
 70
     1
102
RTVSPost2010Prop51ColorIndex
 90
      256
102
RTVSPost2010Prop51ColorRGB
 90
-16777216
102
RTVSPost2010PropOp51
 70
     0
102
RTVSPost2010Prop52
140
1.0
102
RTVSPost2010PropOp52
 70
     0
102
RTVSPost2010Prop53
 90
        2
102
RTVSPost2010PropOp53
 70
     1
102
RTVSPost2010Prop54
  1
strokes_ogs.tif
102
RTVSPost2010PropOp54
 70
     1
102
RTVSPost2010Prop55
280
     0
102
RTVSPost2010PropOp55
 70
     1
102
RTVSPost2010Prop56
140
1.0
102
RTVSPost2010PropOp56
 70
     1
102
RTVSPost2010Prop57
140
1.0
102
RTVSPost2010PropOp57
 70
     1
  0
XRECORD
  5
3D6
102
{ACAD_REACTORS
330
3D5
102
}
330
3D5
100
AcDbXrecord
280
     1
102
RTVSPost2010Prop28
280
     0
102
RTVSPost2010PropOp28
 70
     1
102
RTVSPost2010Prop29
280
     1
102
RTVSPost2010PropOp29
 70
     1
102
RTVSPost2010Prop30
280
     1
102
RTVSPost2010PropOp30
 70
     1
102
RTVSPost2010Prop31
280
     0
102
RTVSPost2010PropOp31
 70
     1
102
RTVSPost2010Prop32
280
     0
102
RTVSPost2010PropOp32
 70
     1
102
RTVSPost2010Prop33
280
     0
102
RTVSPost2010PropOp33
 70
     1
102
RTVSPost2010Prop34
280
     0
102
RTVSPost2010PropOp34
 70
     1
102
RTVSPost2010Prop35
280
     0
102
RTVSPost2010PropOp35
 70
     1
102
RTVSPost2010Prop36
280
     0
102
RTVSPost2010PropOp36
 70
     1
102
RTVSPost2010Prop37
 90
       50
102
RTVSPost2010PropOp37
 70
     1
102
RTVSPost2010Prop38
140
0.0
102
RTVSPost2010PropOp38
 70
     1
102
RTVSPost2010Prop39
140
1.0
102
RTVSPost2010PropOp39
 70
     1
102
RTVSPost2010Prop40
 90
        0
102
RTVSPost2010PropOp40
 70
     1
102
RTVSPost2010Prop41ColorIndex
 90
       18
102
RTVSPost2010Prop41ColorRGB
 90
        0
102
RTVSPost2010PropOp41
 70
     1
102
RTVSPost2010Prop42
 90
       50
102
RTVSPost2010PropOp42
 70
     1
102
RTVSPost2010Prop43
 90
        3
102
RTVSPost2010PropOp43
 70
     1
102
RTVSPost2010Prop44ColorIndex
 90
        5
102
RTVSPost2010Prop44ColorRGB
 90
      255
102
RTVSPost2010PropOp44
 70
     1
102
RTVSPost2010Prop45
280
     0
102
RTVSPost2010PropOp45
 70
     1
102
RTVSPost2010Prop46
 90
       50
102
RTVSPost2010PropOp46
 70
     1
102
RTVSPost2010Prop47
 90
       50
102
RTVSPost2010PropOp47
 70
     1
102
RTVSPost2010Prop48
 90
       50
102
RTVSPost2010PropOp48
 70
     1
102
RTVSPost2010Prop49
280
     0
102
RTVSPost2010PropOp49
 70
     1
102
RTVSPost2010Prop50
 90
       50
102
RTVSPost2010PropOp50
 70
     1
102
RTVSPost2010Prop51ColorIndex
 90
      256
102
RTVSPost2010Prop51ColorRGB
 90
-16777216
102
RTVSPost2010PropOp51
 70
     0
102
RTVSPost2010Prop52
140
1.0
102
RTVSPost2010PropOp52
 70
     0
102
RTVSPost2010Prop53
 90
        2
102
RTVSPost2010PropOp53
 70
     1
102
RTVSPost2010Prop54
  1
strokes_ogs.tif
102
RTVSPost2010PropOp54
 70
     1
102
RTVSPost2010Prop55
280
     0
102
RTVSPost2010PropOp55
 70
     1
102
RTVSPost2010Prop56
140
1.0
102
RTVSPost2010PropOp56
 70
     1
102
RTVSPost2010Prop57
140
1.0
102
RTVSPost2010PropOp57
 70
     1
  0
XRECORD
  5
3CA
102
{ACAD_REACTORS
330
3C9
102
}
330
3C9
100
AcDbXrecord
280
     1
102
RTVSPost2010Prop28
280
     0
102
RTVSPost2010PropOp28
 70
     1
102
RTVSPost2010Prop29
280
     1
102
RTVSPost2010PropOp29
 70
     1
102
RTVSPost2010Prop30
280
     1
102
RTVSPost2010PropOp30
 70
     1
102
RTVSPost2010Prop31
280
     0
102
RTVSPost2010PropOp31
 70
     1
102
RTVSPost2010Prop32
280
     0
102
RTVSPost2010PropOp32
 70
     1
102
RTVSPost2010Prop33
280
     0
102
RTVSPost2010PropOp33
 70
     1
102
RTVSPost2010Prop34
280
     0
102
RTVSPost2010PropOp34
 70
     1
102
RTVSPost2010Prop35
280
     0
102
RTVSPost2010PropOp35
 70
     1
102
RTVSPost2010Prop36
280
     0
102
RTVSPost2010PropOp36
 70
     1
102
RTVSPost2010Prop37
 90
       50
102
RTVSPost2010PropOp37
 70
     1
102
RTVSPost2010Prop38
140
0.0
102
RTVSPost2010PropOp38
 70
     1
102
RTVSPost2010Prop39
140
1.0
102
RTVSPost2010PropOp39
 70
     1
102
RTVSPost2010Prop40
 90
        0
102
RTVSPost2010PropOp40
 70
     1
102
RTVSPost2010Prop41ColorIndex
 90
       18
102
RTVSPost2010Prop41ColorRGB
 90
        0
102
RTVSPost2010PropOp41
 70
     1
102
RTVSPost2010Prop42
 90
       50
102
RTVSPost2010PropOp42
 70
     1
102
RTVSPost2010Prop43
 90
        3
102
RTVSPost2010PropOp43
 70
     1
102
RTVSPost2010Prop44ColorIndex
 90
        5
102
RTVSPost2010Prop44ColorRGB
 90
      255
102
RTVSPost2010PropOp44
 70
     1
102
RTVSPost2010Prop45
280
     0
102
RTVSPost2010PropOp45
 70
     1
102
RTVSPost2010Prop46
 90
       50
102
RTVSPost2010PropOp46
 70
     1
102
RTVSPost2010Prop47
 90
       50
102
RTVSPost2010PropOp47
 70
     1
102
RTVSPost2010Prop48
 90
       50
102
RTVSPost2010PropOp48
 70
     1
102
RTVSPost2010Prop49
280
     0
102
RTVSPost2010PropOp49
 70
     1
102
RTVSPost2010Prop50
 90
       50
102
RTVSPost2010PropOp50
 70
     1
102
RTVSPost2010Prop51ColorIndex
 90
      256
102
RTVSPost2010Prop51ColorRGB
 90
-16777216
102
RTVSPost2010PropOp51
 70
     0
102
RTVSPost2010Prop52
140
1.0
102
RTVSPost2010PropOp52
 70
     0
102
RTVSPost2010Prop53
 90
        2
102
RTVSPost2010PropOp53
 70
     1
102
RTVSPost2010Prop54
  1
strokes_ogs.tif
102
RTVSPost2010PropOp54
 70
     1
102
RTVSPost2010Prop55
280
     0
102
RTVSPost2010PropOp55
 70
     1
102
RTVSPost2010Prop56
140
1.0
102
RTVSPost2010PropOp56
 70
     1
102
RTVSPost2010Prop57
140
1.0
102
RTVSPost2010PropOp57
 70
     1
  0
XRECORD
  5
3CC
102
{ACAD_REACTORS
330
3CB
102
}
330
3CB
100
AcDbXrecord
280
     1
102
RTVSPost2010Prop28
280
     0
102
RTVSPost2010PropOp28
 70
     1
102
RTVSPost2010Prop29
280
     1
102
RTVSPost2010PropOp29
 70
     1
102
RTVSPost2010Prop30
280
     1
102
RTVSPost2010PropOp30
 70
     1
102
RTVSPost2010Prop31
280
     0
102
RTVSPost2010PropOp31
 70
     1
102
RTVSPost2010Prop32
280
     0
102
RTVSPost2010PropOp32
 70
     1
102
RTVSPost2010Prop33
280
     0
102
RTVSPost2010PropOp33
 70
     1
102
RTVSPost2010Prop34
280
     0
102
RTVSPost2010PropOp34
 70
     1
102
RTVSPost2010Prop35
280
     0
102
RTVSPost2010PropOp35
 70
     1
102
RTVSPost2010Prop36
280
     0
102
RTVSPost2010PropOp36
 70
     1
102
RTVSPost2010Prop37
 90
       50
102
RTVSPost2010PropOp37
 70
     1
102
RTVSPost2010Prop38
140
0.0
102
RTVSPost2010PropOp38
 70
     1
102
RTVSPost2010Prop39
140
1.0
102
RTVSPost2010PropOp39
 70
     1
102
RTVSPost2010Prop40
 90
        0
102
RTVSPost2010PropOp40
 70
     1
102
RTVSPost2010Prop41ColorIndex
 90
       18
102
RTVSPost2010Prop41ColorRGB
 90
        0
102
RTVSPost2010PropOp41
 70
     1
102
RTVSPost2010Prop42
 90
       50
102
RTVSPost2010PropOp42
 70
     1
102
RTVSPost2010Prop43
 90
        3
102
RTVSPost2010PropOp43
 70
     1
102
RTVSPost2010Prop44ColorIndex
 90
        5
102
RTVSPost2010Prop44ColorRGB
 90
      255
102
RTVSPost2010PropOp44
 70
     1
102
RTVSPost2010Prop45
280
     0
102
RTVSPost2010PropOp45
 70
     1
102
RTVSPost2010Prop46
 90
       50
102
RTVSPost2010PropOp46
 70
     1
102
RTVSPost2010Prop47
 90
       50
102
RTVSPost2010PropOp47
 70
     1
102
RTVSPost2010Prop48
 90
       50
102
RTVSPost2010PropOp48
 70
     1
102
RTVSPost2010Prop49
280
     0
102
RTVSPost2010PropOp49
 70
     1
102
RTVSPost2010Prop50
 90
       50
102
RTVSPost2010PropOp50
 70
     1
102
RTVSPost2010Prop51ColorIndex
 90
      256
102
RTVSPost2010Prop51ColorRGB
 90
-16777216
102
RTVSPost2010PropOp51
 70
     0
102
RTVSPost2010Prop52
140
1.0
102
RTVSPost2010PropOp52
 70
     0
102
RTVSPost2010Prop53
 90
        2
102
RTVSPost2010PropOp53
 70
     1
102
RTVSPost2010Prop54
  1
strokes_ogs.tif
102
RTVSPost2010PropOp54
 70
     1
102
RTVSPost2010Prop55
280
     0
102
RTVSPost2010PropOp55
 70
     1
102
RTVSPost2010Prop56
140
1.0
102
RTVSPost2010PropOp56
 70
     1
102
RTVSPost2010Prop57
140
1.0
102
RTVSPost2010PropOp57
 70
     1
  0
XRECORD
  5
3DC
102
{ACAD_REACTORS
330
3DB
102
}
330
3DB
100
AcDbXrecord
280
     1
102
RTVSPost2010Prop28
280
     0
102
RTVSPost2010PropOp28
 70
     0
102
RTVSPost2010Prop29
280
     1
102
RTVSPost2010PropOp29
 70
     0
102
RTVSPost2010Prop30
280
     1
102
RTVSPost2010PropOp30
 70
     0
102
RTVSPost2010Prop31
280
     0
102
RTVSPost2010PropOp31
 70
     0
102
RTVSPost2010Prop32
280
     0
102
RTVSPost2010PropOp32
 70
     0
102
RTVSPost2010Prop33
280
     0
102
RTVSPost2010PropOp33
 70
     0
102
RTVSPost2010Prop34
280
     0
102
RTVSPost2010PropOp34
 70
     0
102
RTVSPost2010Prop35
280
     0
102
RTVSPost2010PropOp35
 70
     0
102
RTVSPost2010Prop36
280
     0
102
RTVSPost2010PropOp36
 70
     0
102
RTVSPost2010Prop37
 90
       50
102
RTVSPost2010PropOp37
 70
     0
102
RTVSPost2010Prop38
140
0.0
102
RTVSPost2010PropOp38
 70
     0
102
RTVSPost2010Prop39
140
1.0
102
RTVSPost2010PropOp39
 70
     0
102
RTVSPost2010Prop40
 90
        0
102
RTVSPost2010PropOp40
 70
     0
102
RTVSPost2010Prop41ColorIndex
 90
       18
102
RTVSPost2010Prop41ColorRGB
 90
        0
102
RTVSPost2010PropOp41
 70
     0
102
RTVSPost2010Prop42
 90
       50
102
RTVSPost2010PropOp42
 70
     0
102
RTVSPost2010Prop43
 90
        3
102
RTVSPost2010PropOp43
 70
     0
102
RTVSPost2010Prop44ColorIndex
 90
        5
102
RTVSPost2010Prop44ColorRGB
 90
      255
102
RTVSPost2010PropOp44
 70
     0
102
RTVSPost2010Prop45
280
     0
102
RTVSPost2010PropOp45
 70
     0
102
RTVSPost2010Prop46
 90
       50
102
RTVSPost2010PropOp46
 70
     0
102
RTVSPost2010Prop47
 90
       50
102
RTVSPost2010PropOp47
 70
     0
102
RTVSPost2010Prop48
 90
       50
102
RTVSPost2010PropOp48
 70
     0
102
RTVSPost2010Prop49
280
     0
102
RTVSPost2010PropOp49
 70
     0
102
RTVSPost2010Prop50
 90
       50
102
RTVSPost2010PropOp50
 70
     0
102
RTVSPost2010Prop51ColorIndex
 90
      256
102
RTVSPost2010Prop51ColorRGB
 90
-16777216
102
RTVSPost2010PropOp51
 70
     0
102
RTVSPost2010Prop52
140
1.0
102
RTVSPost2010PropOp52
 70
     0
102
RTVSPost2010Prop53
 90
        2
102
RTVSPost2010PropOp53
 70
     0
102
RTVSPost2010Prop54
  1
strokes_ogs.tif
102
RTVSPost2010PropOp54
 70
     0
102
RTVSPost2010Prop55
280
     0
102
RTVSPost2010PropOp55
 70
     0
102
RTVSPost2010Prop56
140
1.0
102
RTVSPost2010PropOp56
 70
     0
102
RTVSPost2010Prop57
140
1.0
102
RTVSPost2010PropOp57
 70
     0
  0
XRECORD
  5
3D4
102
{ACAD_REACTORS
330
3D3
102
}
330
3D3
100
AcDbXrecord
280
     1
102
RTVSPost2010Prop28
280
     0
102
RTVSPost2010PropOp28
 70
     1
102
RTVSPost2010Prop29
280
     1
102
RTVSPost2010PropOp29
 70
     1
102
RTVSPost2010Prop30
280
     1
102
RTVSPost2010PropOp30
 70
     1
102
RTVSPost2010Prop31
280
     0
102
RTVSPost2010PropOp31
 70
     1
102
RTVSPost2010Prop32
280
     0
102
RTVSPost2010PropOp32
 70
     1
102
RTVSPost2010Prop33
280
     0
102
RTVSPost2010PropOp33
 70
     1
102
RTVSPost2010Prop34
280
     0
102
RTVSPost2010PropOp34
 70
     1
102
RTVSPost2010Prop35
280
     0
102
RTVSPost2010PropOp35
 70
     1
102
RTVSPost2010Prop36
280
     0
102
RTVSPost2010PropOp36
 70
     1
102
RTVSPost2010Prop37
 90
       50
102
RTVSPost2010PropOp37
 70
     1
102
RTVSPost2010Prop38
140
0.0
102
RTVSPost2010PropOp38
 70
     1
102
RTVSPost2010Prop39
140
1.0
102
RTVSPost2010PropOp39
 70
     1
102
RTVSPost2010Prop40
 90
        0
102
RTVSPost2010PropOp40
 70
     1
102
RTVSPost2010Prop41ColorIndex
 90
       18
102
RTVSPost2010Prop41ColorRGB
 90
        0
102
RTVSPost2010PropOp41
 70
     1
102
RTVSPost2010Prop42
 90
       50
102
RTVSPost2010PropOp42
 70
     1
102
RTVSPost2010Prop43
 90
        3
102
RTVSPost2010PropOp43
 70
     1
102
RTVSPost2010Prop44ColorIndex
 90
        5
102
RTVSPost2010Prop44ColorRGB
 90
      255
102
RTVSPost2010PropOp44
 70
     1
102
RTVSPost2010Prop45
280
     0
102
RTVSPost2010PropOp45
 70
     1
102
RTVSPost2010Prop46
 90
       50
102
RTVSPost2010PropOp46
 70
     1
102
RTVSPost2010Prop47
 90
       50
102
RTVSPost2010PropOp47
 70
     1
102
RTVSPost2010Prop48
 90
       50
102
RTVSPost2010PropOp48
 70
     1
102
RTVSPost2010Prop49
280
     0
102
RTVSPost2010PropOp49
 70
     1
102
RTVSPost2010Prop50
 90
       50
102
RTVSPost2010PropOp50
 70
     1
102
RTVSPost2010Prop51ColorIndex
 90
      256
102
RTVSPost2010Prop51ColorRGB
 90
-16777216
102
RTVSPost2010PropOp51
 70
     0
102
RTVSPost2010Prop52
140
1.0
102
RTVSPost2010PropOp52
 70
     0
102
RTVSPost2010Prop53
 90
        2
102
RTVSPost2010PropOp53
 70
     1
102
RTVSPost2010Prop54
  1
strokes_ogs.tif
102
RTVSPost2010PropOp54
 70
     1
102
RTVSPost2010Prop55
280
     0
102
RTVSPost2010PropOp55
 70
     1
102
RTVSPost2010Prop56
140
1.0
102
RTVSPost2010PropOp56
 70
     1
102
RTVSPost2010Prop57
140
1.0
102
RTVSPost2010PropOp57
 70
     1
  0
XRECORD
  5
3B8
102
{ACAD_REACTORS
330
3B7
102
}
330
3B7
100
AcDbXrecord
280
     1
102
RTVSPost2010Prop28
280
     0
102
RTVSPost2010PropOp28
 70
     1
102
RTVSPost2010Prop29
280
     1
102
RTVSPost2010PropOp29
 70
     1
102
RTVSPost2010Prop30
280
     1
102
RTVSPost2010PropOp30
 70
     1
102
RTVSPost2010Prop31
280
     0
102
RTVSPost2010PropOp31
 70
     1
102
RTVSPost2010Prop32
280
     0
102
RTVSPost2010PropOp32
 70
     1
102
RTVSPost2010Prop33
280
     0
102
RTVSPost2010PropOp33
 70
     1
102
RTVSPost2010Prop34
280
     0
102
RTVSPost2010PropOp34
 70
     1
102
RTVSPost2010Prop35
280
     0
102
RTVSPost2010PropOp35
 70
     1
102
RTVSPost2010Prop36
280
     0
102
RTVSPost2010PropOp36
 70
     1
102
RTVSPost2010Prop37
 90
       50
102
RTVSPost2010PropOp37
 70
     1
102
RTVSPost2010Prop38
140
0.0
102
RTVSPost2010PropOp38
 70
     1
102
RTVSPost2010Prop39
140
1.0
102
RTVSPost2010PropOp39
 70
     1
102
RTVSPost2010Prop40
 90
        0
102
RTVSPost2010PropOp40
 70
     1
102
RTVSPost2010Prop41ColorIndex
 90
       18
102
RTVSPost2010Prop41ColorRGB
 90
        0
102
RTVSPost2010PropOp41
 70
     1
102
RTVSPost2010Prop42
 90
       50
102
RTVSPost2010PropOp42
 70
     1
102
RTVSPost2010Prop43
 90
        3
102
RTVSPost2010PropOp43
 70
     1
102
RTVSPost2010Prop44ColorIndex
 90
        5
102
RTVSPost2010Prop44ColorRGB
 90
      255
102
RTVSPost2010PropOp44
 70
     1
102
RTVSPost2010Prop45
280
     0
102
RTVSPost2010PropOp45
 70
     1
102
RTVSPost2010Prop46
 90
       50
102
RTVSPost2010PropOp46
 70
     1
102
RTVSPost2010Prop47
 90
       50
102
RTVSPost2010PropOp47
 70
     1
102
RTVSPost2010Prop48
 90
       50
102
RTVSPost2010PropOp48
 70
     1
102
RTVSPost2010Prop49
280
     0
102
RTVSPost2010PropOp49
 70
     1
102
RTVSPost2010Prop50
 90
       50
102
RTVSPost2010PropOp50
 70
     1
102
RTVSPost2010Prop51ColorIndex
 90
      256
102
RTVSPost2010Prop51ColorRGB
 90
-16777216
102
RTVSPost2010PropOp51
 70
     0
102
RTVSPost2010Prop52
140
1.0
102
RTVSPost2010PropOp52
 70
     0
102
RTVSPost2010Prop53
 90
        2
102
RTVSPost2010PropOp53
 70
     1
102
RTVSPost2010Prop54
  1
strokes_ogs.tif
102
RTVSPost2010PropOp54
 70
     1
102
RTVSPost2010Prop55
280
     0
102
RTVSPost2010PropOp55
 70
     1
102
RTVSPost2010Prop56
140
1.0
102
RTVSPost2010PropOp56
 70
     1
102
RTVSPost2010Prop57
140
1.0
102
RTVSPost2010PropOp57
 70
     1
  0
XRECORD
  5
3BA
102
{ACAD_REACTORS
330
3B9
102
}
330
3B9
100
AcDbXrecord
280
     1
102
RTVSPost2010Prop28
280
     0
102
RTVSPost2010PropOp28
 70
     1
102
RTVSPost2010Prop29
280
     1
102
RTVSPost2010PropOp29
 70
     1
102
RTVSPost2010Prop30
280
     1
102
RTVSPost2010PropOp30
 70
     1
102
RTVSPost2010Prop31
280
     0
102
RTVSPost2010PropOp31
 70
     1
102
RTVSPost2010Prop32
280
     0
102
RTVSPost2010PropOp32
 70
     1
102
RTVSPost2010Prop33
280
     0
102
RTVSPost2010PropOp33
 70
     1
102
RTVSPost2010Prop34
280
     0
102
RTVSPost2010PropOp34
 70
     1
102
RTVSPost2010Prop35
280
     0
102
RTVSPost2010PropOp35
 70
     1
102
RTVSPost2010Prop36
280
     0
102
RTVSPost2010PropOp36
 70
     1
102
RTVSPost2010Prop37
 90
       50
102
RTVSPost2010PropOp37
 70
     1
102
RTVSPost2010Prop38
140
0.0
102
RTVSPost2010PropOp38
 70
     1
102
RTVSPost2010Prop39
140
1.0
102
RTVSPost2010PropOp39
 70
     1
102
RTVSPost2010Prop40
 90
        0
102
RTVSPost2010PropOp40
 70
     1
102
RTVSPost2010Prop41ColorIndex
 90
       18
102
RTVSPost2010Prop41ColorRGB
 90
        0
102
RTVSPost2010PropOp41
 70
     1
102
RTVSPost2010Prop42
 90
       50
102
RTVSPost2010PropOp42
 70
     1
102
RTVSPost2010Prop43
 90
        3
102
RTVSPost2010PropOp43
 70
     1
102
RTVSPost2010Prop44ColorIndex
 90
        5
102
RTVSPost2010Prop44ColorRGB
 90
      255
102
RTVSPost2010PropOp44
 70
     1
102
RTVSPost2010Prop45
280
     0
102
RTVSPost2010PropOp45
 70
     1
102
RTVSPost2010Prop46
 90
       50
102
RTVSPost2010PropOp46
 70
     1
102
RTVSPost2010Prop47
 90
       50
102
RTVSPost2010PropOp47
 70
     1
102
RTVSPost2010Prop48
 90
       50
102
RTVSPost2010PropOp48
 70
     1
102
RTVSPost2010Prop49
280
     0
102
RTVSPost2010PropOp49
 70
     1
102
RTVSPost2010Prop50
 90
       50
102
RTVSPost2010PropOp50
 70
     1
102
RTVSPost2010Prop51ColorIndex
 90
      256
102
RTVSPost2010Prop51ColorRGB
 90
-16777216
102
RTVSPost2010PropOp51
 70
     0
102
RTVSPost2010Prop52
140
1.0
102
RTVSPost2010PropOp52
 70
     0
102
RTVSPost2010Prop53
 90
        2
102
RTVSPost2010PropOp53
 70
     1
102
RTVSPost2010Prop54
  1
strokes_ogs.tif
102
RTVSPost2010PropOp54
 70
     1
102
RTVSPost2010Prop55
280
     0
102
RTVSPost2010PropOp55
 70
     1
102
RTVSPost2010Prop56
140
1.0
102
RTVSPost2010PropOp56
 70
     1
102
RTVSPost2010Prop57
140
1.0
102
RTVSPost2010PropOp57
 70
     1
  0
XRECORD
  5
3BC
102
{ACAD_REACTORS
330
3BB
102
}
330
3BB
100
AcDbXrecord
280
     1
102
RTVSPost2010Prop28
280
     0
102
RTVSPost2010PropOp28
 70
     1
102
RTVSPost2010Prop29
280
     1
102
RTVSPost2010PropOp29
 70
     1
102
RTVSPost2010Prop30
280
     1
102
RTVSPost2010PropOp30
 70
     1
102
RTVSPost2010Prop31
280
     0
102
RTVSPost2010PropOp31
 70
     1
102
RTVSPost2010Prop32
280
     0
102
RTVSPost2010PropOp32
 70
     1
102
RTVSPost2010Prop33
280
     0
102
RTVSPost2010PropOp33
 70
     1
102
RTVSPost2010Prop34
280
     0
102
RTVSPost2010PropOp34
 70
     1
102
RTVSPost2010Prop35
280
     0
102
RTVSPost2010PropOp35
 70
     1
102
RTVSPost2010Prop36
280
     0
102
RTVSPost2010PropOp36
 70
     1
102
RTVSPost2010Prop37
 90
       50
102
RTVSPost2010PropOp37
 70
     1
102
RTVSPost2010Prop38
140
0.0
102
RTVSPost2010PropOp38
 70
     1
102
RTVSPost2010Prop39
140
1.0
102
RTVSPost2010PropOp39
 70
     1
102
RTVSPost2010Prop40
 90
        0
102
RTVSPost2010PropOp40
 70
     1
102
RTVSPost2010Prop41ColorIndex
 90
       18
102
RTVSPost2010Prop41ColorRGB
 90
        0
102
RTVSPost2010PropOp41
 70
     1
102
RTVSPost2010Prop42
 90
       50
102
RTVSPost2010PropOp42
 70
     1
102
RTVSPost2010Prop43
 90
        3
102
RTVSPost2010PropOp43
 70
     1
102
RTVSPost2010Prop44ColorIndex
 90
        5
102
RTVSPost2010Prop44ColorRGB
 90
      255
102
RTVSPost2010PropOp44
 70
     1
102
RTVSPost2010Prop45
280
     0
102
RTVSPost2010PropOp45
 70
     1
102
RTVSPost2010Prop46
 90
       50
102
RTVSPost2010PropOp46
 70
     1
102
RTVSPost2010Prop47
 90
       50
102
RTVSPost2010PropOp47
 70
     1
102
RTVSPost2010Prop48
 90
       50
102
RTVSPost2010PropOp48
 70
     1
102
RTVSPost2010Prop49
280
     0
102
RTVSPost2010PropOp49
 70
     1
102
RTVSPost2010Prop50
 90
       50
102
RTVSPost2010PropOp50
 70
     1
102
RTVSPost2010Prop51ColorIndex
 90
      256
102
RTVSPost2010Prop51ColorRGB
 90
-16777216
102
RTVSPost2010PropOp51
 70
     0
102
RTVSPost2010Prop52
140
1.0
102
RTVSPost2010PropOp52
 70
     0
102
RTVSPost2010Prop53
 90
        2
102
RTVSPost2010PropOp53
 70
     1
102
RTVSPost2010Prop54
  1
strokes_ogs.tif
102
RTVSPost2010PropOp54
 70
     1
102
RTVSPost2010Prop55
280
     0
102
RTVSPost2010PropOp55
 70
     1
102
RTVSPost2010Prop56
140
1.0
102
RTVSPost2010PropOp56
 70
     1
102
RTVSPost2010Prop57
140
1.0
102
RTVSPost2010PropOp57
 70
     1
  0
XRECORD
  5
3BE
102
{ACAD_REACTORS
330
3BD
102
}
330
3BD
100
AcDbXrecord
280
     1
102
RTVSPost2010Prop28
280
     0
102
RTVSPost2010PropOp28
 70
     1
102
RTVSPost2010Prop29
280
     1
102
RTVSPost2010PropOp29
 70
     1
102
RTVSPost2010Prop30
280
     1
102
RTVSPost2010PropOp30
 70
     1
102
RTVSPost2010Prop31
280
     0
102
RTVSPost2010PropOp31
 70
     1
102
RTVSPost2010Prop32
280
     0
102
RTVSPost2010PropOp32
 70
     1
102
RTVSPost2010Prop33
280
     0
102
RTVSPost2010PropOp33
 70
     1
102
RTVSPost2010Prop34
280
     0
102
RTVSPost2010PropOp34
 70
     1
102
RTVSPost2010Prop35
280
     0
102
RTVSPost2010PropOp35
 70
     1
102
RTVSPost2010Prop36
280
     0
102
RTVSPost2010PropOp36
 70
     1
102
RTVSPost2010Prop37
 90
       50
102
RTVSPost2010PropOp37
 70
     1
102
RTVSPost2010Prop38
140
0.0
102
RTVSPost2010PropOp38
 70
     1
102
RTVSPost2010Prop39
140
1.0
102
RTVSPost2010PropOp39
 70
     1
102
RTVSPost2010Prop40
 90
        0
102
RTVSPost2010PropOp40
 70
     1
102
RTVSPost2010Prop41ColorIndex
 90
       18
102
RTVSPost2010Prop41ColorRGB
 90
        0
102
RTVSPost2010PropOp41
 70
     1
102
RTVSPost2010Prop42
 90
       50
102
RTVSPost2010PropOp42
 70
     1
102
RTVSPost2010Prop43
 90
        3
102
RTVSPost2010PropOp43
 70
     1
102
RTVSPost2010Prop44ColorIndex
 90
        5
102
RTVSPost2010Prop44ColorRGB
 90
      255
102
RTVSPost2010PropOp44
 70
     1
102
RTVSPost2010Prop45
280
     0
102
RTVSPost2010PropOp45
 70
     1
102
RTVSPost2010Prop46
 90
       50
102
RTVSPost2010PropOp46
 70
     1
102
RTVSPost2010Prop47
 90
       50
102
RTVSPost2010PropOp47
 70
     1
102
RTVSPost2010Prop48
 90
       50
102
RTVSPost2010PropOp48
 70
     1
102
RTVSPost2010Prop49
280
     0
102
RTVSPost2010PropOp49
 70
     1
102
RTVSPost2010Prop50
 90
       50
102
RTVSPost2010PropOp50
 70
     1
102
RTVSPost2010Prop51ColorIndex
 90
      256
102
RTVSPost2010Prop51ColorRGB
 90
-16777216
102
RTVSPost2010PropOp51
 70
     0
102
RTVSPost2010Prop52
140
1.0
102
RTVSPost2010PropOp52
 70
     0
102
RTVSPost2010Prop53
 90
        2
102
RTVSPost2010PropOp53
 70
     1
102
RTVSPost2010Prop54
  1
strokes_ogs.tif
102
RTVSPost2010PropOp54
 70
     1
102
RTVSPost2010Prop55
280
     0
102
RTVSPost2010PropOp55
 70
     1
102
RTVSPost2010Prop56
140
1.0
102
RTVSPost2010PropOp56
 70
     1
102
RTVSPost2010Prop57
140
1.0
102
RTVSPost2010PropOp57
 70
     1
  0
XRECORD
  5
3C4
102
{ACAD_REACTORS
330
3C3
102
}
330
3C3
100
AcDbXrecord
280
     1
102
RTVSPost2010Prop28
280
     0
102
RTVSPost2010PropOp28
 70
     1
102
RTVSPost2010Prop29
280
     1
102
RTVSPost2010PropOp29
 70
     1
102
RTVSPost2010Prop30
280
     1
102
RTVSPost2010PropOp30
 70
     1
102
RTVSPost2010Prop31
280
     0
102
RTVSPost2010PropOp31
 70
     1
102
RTVSPost2010Prop32
280
     0
102
RTVSPost2010PropOp32
 70
     1
102
RTVSPost2010Prop33
280
     0
102
RTVSPost2010PropOp33
 70
     1
102
RTVSPost2010Prop34
280
     0
102
RTVSPost2010PropOp34
 70
     1
102
RTVSPost2010Prop35
280
     0
102
RTVSPost2010PropOp35
 70
     1
102
RTVSPost2010Prop36
280
     0
102
RTVSPost2010PropOp36
 70
     1
102
RTVSPost2010Prop37
 90
       50
102
RTVSPost2010PropOp37
 70
     1
102
RTVSPost2010Prop38
140
0.0
102
RTVSPost2010PropOp38
 70
     1
102
RTVSPost2010Prop39
140
1.0
102
RTVSPost2010PropOp39
 70
     1
102
RTVSPost2010Prop40
 90
        0
102
RTVSPost2010PropOp40
 70
     1
102
RTVSPost2010Prop41ColorIndex
 90
       18
102
RTVSPost2010Prop41ColorRGB
 90
        0
102
RTVSPost2010PropOp41
 70
     1
102
RTVSPost2010Prop42
 90
       50
102
RTVSPost2010PropOp42
 70
     1
102
RTVSPost2010Prop43
 90
        3
102
RTVSPost2010PropOp43
 70
     1
102
RTVSPost2010Prop44ColorIndex
 90
        5
102
RTVSPost2010Prop44ColorRGB
 90
      255
102
RTVSPost2010PropOp44
 70
     1
102
RTVSPost2010Prop45
280
     0
102
RTVSPost2010PropOp45
 70
     1
102
RTVSPost2010Prop46
 90
       50
102
RTVSPost2010PropOp46
 70
     1
102
RTVSPost2010Prop47
 90
       50
102
RTVSPost2010PropOp47
 70
     1
102
RTVSPost2010Prop48
 90
       50
102
RTVSPost2010PropOp48
 70
     1
102
RTVSPost2010Prop49
280
     0
102
RTVSPost2010PropOp49
 70
     1
102
RTVSPost2010Prop50
 90
       50
102
RTVSPost2010PropOp50
 70
     1
102
RTVSPost2010Prop51ColorIndex
 90
      256
102
RTVSPost2010Prop51ColorRGB
 90
-16777216
102
RTVSPost2010PropOp51
 70
     0
102
RTVSPost2010Prop52
140
1.0
102
RTVSPost2010PropOp52
 70
     0
102
RTVSPost2010Prop53
 90
        2
102
RTVSPost2010PropOp53
 70
     1
102
RTVSPost2010Prop54
  1
strokes_ogs.tif
102
RTVSPost2010PropOp54
 70
     1
102
RTVSPost2010Prop55
280
     0
102
RTVSPost2010PropOp55
 70
     1
102
RTVSPost2010Prop56
140
1.0
102
RTVSPost2010PropOp56
 70
     1
102
RTVSPost2010Prop57
140
1.0
102
RTVSPost2010PropOp57
 70
     1
  0
XRECORD
  5
3D8
102
{ACAD_REACTORS
330
3D7
102
}
330
3D7
100
AcDbXrecord
280
     1
102
RTVSPost2010Prop28
280
     0
102
RTVSPost2010PropOp28
 70
     0
102
RTVSPost2010Prop29
280
     1
102
RTVSPost2010PropOp29
 70
     0
102
RTVSPost2010Prop30
280
     1
102
RTVSPost2010PropOp30
 70
     0
102
RTVSPost2010Prop31
280
     0
102
RTVSPost2010PropOp31
 70
     0
102
RTVSPost2010Prop32
280
     0
102
RTVSPost2010PropOp32
 70
     0
102
RTVSPost2010Prop33
280
     0
102
RTVSPost2010PropOp33
 70
     0
102
RTVSPost2010Prop34
280
     0
102
RTVSPost2010PropOp34
 70
     0
102
RTVSPost2010Prop35
280
     0
102
RTVSPost2010PropOp35
 70
     0
102
RTVSPost2010Prop36
280
     0
102
RTVSPost2010PropOp36
 70
     0
102
RTVSPost2010Prop37
 90
       50
102
RTVSPost2010PropOp37
 70
     0
102
RTVSPost2010Prop38
140
0.0
102
RTVSPost2010PropOp38
 70
     0
102
RTVSPost2010Prop39
140
1.0
102
RTVSPost2010PropOp39
 70
     0
102
RTVSPost2010Prop40
 90
        0
102
RTVSPost2010PropOp40
 70
     0
102
RTVSPost2010Prop41ColorIndex
 90
       18
102
RTVSPost2010Prop41ColorRGB
 90
        0
102
RTVSPost2010PropOp41
 70
     0
102
RTVSPost2010Prop42
 90
       50
102
RTVSPost2010PropOp42
 70
     0
102
RTVSPost2010Prop43
 90
        3
102
RTVSPost2010PropOp43
 70
     0
102
RTVSPost2010Prop44ColorIndex
 90
        5
102
RTVSPost2010Prop44ColorRGB
 90
      255
102
RTVSPost2010PropOp44
 70
     0
102
RTVSPost2010Prop45
280
     0
102
RTVSPost2010PropOp45
 70
     0
102
RTVSPost2010Prop46
 90
       50
102
RTVSPost2010PropOp46
 70
     0
102
RTVSPost2010Prop47
 90
       50
102
RTVSPost2010PropOp47
 70
     0
102
RTVSPost2010Prop48
 90
       50
102
RTVSPost2010PropOp48
 70
     0
102
RTVSPost2010Prop49
280
     0
102
RTVSPost2010PropOp49
 70
     0
102
RTVSPost2010Prop50
 90
       50
102
RTVSPost2010PropOp50
 70
     0
102
RTVSPost2010Prop51ColorIndex
 90
      256
102
RTVSPost2010Prop51ColorRGB
 90
-16777216
102
RTVSPost2010PropOp51
 70
     0
102
RTVSPost2010Prop52
140
1.0
102
RTVSPost2010PropOp52
 70
     0
102
RTVSPost2010Prop53
 90
        2
102
RTVSPost2010PropOp53
 70
     0
102
RTVSPost2010Prop54
  1
strokes_ogs.tif
102
RTVSPost2010PropOp54
 70
     0
102
RTVSPost2010Prop55
280
     0
102
RTVSPost2010PropOp55
 70
     0
102
RTVSPost2010Prop56
140
1.0
102
RTVSPost2010PropOp56
 70
     0
102
RTVSPost2010Prop57
140
1.0
102
RTVSPost2010PropOp57
 70
     0
  0
XRECORD
  5
3D2
102
{ACAD_REACTORS
330
3D1
102
}
330
3D1
100
AcDbXrecord
280
     1
102
RTVSPost2010Prop28
280
     0
102
RTVSPost2010PropOp28
 70
     1
102
RTVSPost2010Prop29
280
     1
102
RTVSPost2010PropOp29
 70
     1
102
RTVSPost2010Prop30
280
     1
102
RTVSPost2010PropOp30
 70
     1
102
RTVSPost2010Prop31
280
     0
102
RTVSPost2010PropOp31
 70
     1
102
RTVSPost2010Prop32
280
     0
102
RTVSPost2010PropOp32
 70
     1
102
RTVSPost2010Prop33
280
     0
102
RTVSPost2010PropOp33
 70
     1
102
RTVSPost2010Prop34
280
     0
102
RTVSPost2010PropOp34
 70
     1
102
RTVSPost2010Prop35
280
     0
102
RTVSPost2010PropOp35
 70
     1
102
RTVSPost2010Prop36
280
     0
102
RTVSPost2010PropOp36
 70
     1
102
RTVSPost2010Prop37
 90
       50
102
RTVSPost2010PropOp37
 70
     1
102
RTVSPost2010Prop38
140
0.0
102
RTVSPost2010PropOp38
 70
     1
102
RTVSPost2010Prop39
140
1.0
102
RTVSPost2010PropOp39
 70
     1
102
RTVSPost2010Prop40
 90
        0
102
RTVSPost2010PropOp40
 70
     1
102
RTVSPost2010Prop41ColorIndex
 90
       18
102
RTVSPost2010Prop41ColorRGB
 90
        0
102
RTVSPost2010PropOp41
 70
     1
102
RTVSPost2010Prop42
 90
       50
102
RTVSPost2010PropOp42
 70
     1
102
RTVSPost2010Prop43
 90
        3
102
RTVSPost2010PropOp43
 70
     1
102
RTVSPost2010Prop44ColorIndex
 90
        5
102
RTVSPost2010Prop44ColorRGB
 90
      255
102
RTVSPost2010PropOp44
 70
     1
102
RTVSPost2010Prop45
280
     0
102
RTVSPost2010PropOp45
 70
     1
102
RTVSPost2010Prop46
 90
       50
102
RTVSPost2010PropOp46
 70
     1
102
RTVSPost2010Prop47
 90
       50
102
RTVSPost2010PropOp47
 70
     1
102
RTVSPost2010Prop48
 90
       50
102
RTVSPost2010PropOp48
 70
     1
102
RTVSPost2010Prop49
280
     0
102
RTVSPost2010PropOp49
 70
     1
102
RTVSPost2010Prop50
 90
       50
102
RTVSPost2010PropOp50
 70
     1
102
RTVSPost2010Prop51ColorIndex
 90
      256
102
RTVSPost2010Prop51ColorRGB
 90
-16777216
102
RTVSPost2010PropOp51
 70
     0
102
RTVSPost2010Prop52
140
1.0
102
RTVSPost2010PropOp52
 70
     0
102
RTVSPost2010Prop53
 90
        2
102
RTVSPost2010PropOp53
 70
     1
102
RTVSPost2010Prop54
  1
strokes_ogs.tif
102
RTVSPost2010PropOp54
 70
     1
102
RTVSPost2010Prop55
280
     0
102
RTVSPost2010PropOp55
 70
     1
102
RTVSPost2010Prop56
140
1.0
102
RTVSPost2010PropOp56
 70
     1
102
RTVSPost2010Prop57
140
1.0
102
RTVSPost2010PropOp57
 70
     1
  0
XRECORD
  5
3DA
102
{ACAD_REACTORS
330
3D9
102
}
330
3D9
100
AcDbXrecord
280
     1
102
RTVSPost2010Prop28
280
     0
102
RTVSPost2010PropOp28
 70
     0
102
RTVSPost2010Prop29
280
     1
102
RTVSPost2010PropOp29
 70
     0
102
RTVSPost2010Prop30
280
     1
102
RTVSPost2010PropOp30
 70
     0
102
RTVSPost2010Prop31
280
     0
102
RTVSPost2010PropOp31
 70
     0
102
RTVSPost2010Prop32
280
     0
102
RTVSPost2010PropOp32
 70
     0
102
RTVSPost2010Prop33
280
     0
102
RTVSPost2010PropOp33
 70
     0
102
RTVSPost2010Prop34
280
     0
102
RTVSPost2010PropOp34
 70
     0
102
RTVSPost2010Prop35
280
     0
102
RTVSPost2010PropOp35
 70
     0
102
RTVSPost2010Prop36
280
     0
102
RTVSPost2010PropOp36
 70
     0
102
RTVSPost2010Prop37
 90
       50
102
RTVSPost2010PropOp37
 70
     0
102
RTVSPost2010Prop38
140
0.0
102
RTVSPost2010PropOp38
 70
     0
102
RTVSPost2010Prop39
140
1.0
102
RTVSPost2010PropOp39
 70
     0
102
RTVSPost2010Prop40
 90
        0
102
RTVSPost2010PropOp40
 70
     0
102
RTVSPost2010Prop41ColorIndex
 90
       18
102
RTVSPost2010Prop41ColorRGB
 90
        0
102
RTVSPost2010PropOp41
 70
     0
102
RTVSPost2010Prop42
 90
       50
102
RTVSPost2010PropOp42
 70
     0
102
RTVSPost2010Prop43
 90
        3
102
RTVSPost2010PropOp43
 70
     0
102
RTVSPost2010Prop44ColorIndex
 90
        5
102
RTVSPost2010Prop44ColorRGB
 90
      255
102
RTVSPost2010PropOp44
 70
     0
102
RTVSPost2010Prop45
280
     0
102
RTVSPost2010PropOp45
 70
     0
102
RTVSPost2010Prop46
 90
       50
102
RTVSPost2010PropOp46
 70
     0
102
RTVSPost2010Prop47
 90
       50
102
RTVSPost2010PropOp47
 70
     0
102
RTVSPost2010Prop48
 90
       50
102
RTVSPost2010PropOp48
 70
     0
102
RTVSPost2010Prop49
280
     0
102
RTVSPost2010PropOp49
 70
     0
102
RTVSPost2010Prop50
 90
       50
102
RTVSPost2010PropOp50
 70
     0
102
RTVSPost2010Prop51ColorIndex
 90
      256
102
RTVSPost2010Prop51ColorRGB
 90
-16777216
102
RTVSPost2010PropOp51
 70
     0
102
RTVSPost2010Prop52
140
1.0
102
RTVSPost2010PropOp52
 70
     0
102
RTVSPost2010Prop53
 90
        2
102
RTVSPost2010PropOp53
 70
     0
102
RTVSPost2010Prop54
  1
strokes_ogs.tif
102
RTVSPost2010PropOp54
 70
     0
102
RTVSPost2010Prop55
280
     0
102
RTVSPost2010PropOp55
 70
     0
102
RTVSPost2010Prop56
140
1.0
102
RTVSPost2010PropOp56
 70
     0
102
RTVSPost2010Prop57
140
1.0
102
RTVSPost2010PropOp57
 70
     0
  0
XRECORD
  5
3C8
102
{ACAD_REACTORS
330
3C7
102
}
330
3C7
100
AcDbXrecord
280
     1
102
RTVSPost2010Prop28
280
     0
102
RTVSPost2010PropOp28
 70
     1
102
RTVSPost2010Prop29
280
     1
102
RTVSPost2010PropOp29
 70
     1
102
RTVSPost2010Prop30
280
     1
102
RTVSPost2010PropOp30
 70
     1
102
RTVSPost2010Prop31
280
     0
102
RTVSPost2010PropOp31
 70
     1
102
RTVSPost2010Prop32
280
     0
102
RTVSPost2010PropOp32
 70
     1
102
RTVSPost2010Prop33
280
     0
102
RTVSPost2010PropOp33
 70
     1
102
RTVSPost2010Prop34
280
     0
102
RTVSPost2010PropOp34
 70
     1
102
RTVSPost2010Prop35
280
     0
102
RTVSPost2010PropOp35
 70
     1
102
RTVSPost2010Prop36
280
     0
102
RTVSPost2010PropOp36
 70
     1
102
RTVSPost2010Prop37
 90
       50
102
RTVSPost2010PropOp37
 70
     1
102
RTVSPost2010Prop38
140
0.0
102
RTVSPost2010PropOp38
 70
     1
102
RTVSPost2010Prop39
140
1.0
102
RTVSPost2010PropOp39
 70
     1
102
RTVSPost2010Prop40
 90
        0
102
RTVSPost2010PropOp40
 70
     1
102
RTVSPost2010Prop41ColorIndex
 90
       18
102
RTVSPost2010Prop41ColorRGB
 90
        0
102
RTVSPost2010PropOp41
 70
     1
102
RTVSPost2010Prop42
 90
       50
102
RTVSPost2010PropOp42
 70
     1
102
RTVSPost2010Prop43
 90
        3
102
RTVSPost2010PropOp43
 70
     1
102
RTVSPost2010Prop44ColorIndex
 90
        5
102
RTVSPost2010Prop44ColorRGB
 90
      255
102
RTVSPost2010PropOp44
 70
     1
102
RTVSPost2010Prop45
280
     0
102
RTVSPost2010PropOp45
 70
     1
102
RTVSPost2010Prop46
 90
       50
102
RTVSPost2010PropOp46
 70
     1
102
RTVSPost2010Prop47
 90
       50
102
RTVSPost2010PropOp47
 70
     1
102
RTVSPost2010Prop48
 90
       50
102
RTVSPost2010PropOp48
 70
     1
102
RTVSPost2010Prop49
280
     0
102
RTVSPost2010PropOp49
 70
     1
102
RTVSPost2010Prop50
 90
       50
102
RTVSPost2010PropOp50
 70
     1
102
RTVSPost2010Prop51ColorIndex
 90
      256
102
RTVSPost2010Prop51ColorRGB
 90
-16777216
102
RTVSPost2010PropOp51
 70
     0
102
RTVSPost2010Prop52
140
1.0
102
RTVSPost2010PropOp52
 70
     0
102
RTVSPost2010Prop53
 90
        2
102
RTVSPost2010PropOp53
 70
     1
102
RTVSPost2010Prop54
  1
strokes_ogs.tif
102
RTVSPost2010PropOp54
 70
     1
102
RTVSPost2010Prop55
280
     0
102
RTVSPost2010PropOp55
 70
     1
102
RTVSPost2010Prop56
140
1.0
102
RTVSPost2010PropOp56
 70
     1
102
RTVSPost2010Prop57
140
1.0
102
RTVSPost2010PropOp57
 70
     1
  0
XRECORD
  5
3E6
102
{ACAD_REACTORS
330
3E5
102
}
330
3E5
100
AcDbXrecord
280
     1
102
RTVSPost2010Prop28
280
     0
102
RTVSPost2010PropOp28
 70
     1
102
RTVSPost2010Prop29
280
     1
102
RTVSPost2010PropOp29
 70
     1
102
RTVSPost2010Prop30
280
     1
102
RTVSPost2010PropOp30
 70
     1
102
RTVSPost2010Prop31
280
     0
102
RTVSPost2010PropOp31
 70
     1
102
RTVSPost2010Prop32
280
     0
102
RTVSPost2010PropOp32
 70
     1
102
RTVSPost2010Prop33
280
     0
102
RTVSPost2010PropOp33
 70
     1
102
RTVSPost2010Prop34
280
     0
102
RTVSPost2010PropOp34
 70
     1
102
RTVSPost2010Prop35
280
     0
102
RTVSPost2010PropOp35
 70
     1
102
RTVSPost2010Prop36
280
     0
102
RTVSPost2010PropOp36
 70
     1
102
RTVSPost2010Prop37
 90
       50
102
RTVSPost2010PropOp37
 70
     1
102
RTVSPost2010Prop38
140
0.0
102
RTVSPost2010PropOp38
 70
     1
102
RTVSPost2010Prop39
140
1.0
102
RTVSPost2010PropOp39
 70
     1
102
RTVSPost2010Prop40
 90
        0
102
RTVSPost2010PropOp40
 70
     1
102
RTVSPost2010Prop41ColorIndex
 90
       18
102
RTVSPost2010Prop41ColorRGB
 90
        0
102
RTVSPost2010PropOp41
 70
     1
102
RTVSPost2010Prop42
 90
       50
102
RTVSPost2010PropOp42
 70
     1
102
RTVSPost2010Prop43
 90
        3
102
RTVSPost2010PropOp43
 70
     1
102
RTVSPost2010Prop44ColorIndex
 90
        5
102
RTVSPost2010Prop44ColorRGB
 90
      255
102
RTVSPost2010PropOp44
 70
     1
102
RTVSPost2010Prop45
280
     0
102
RTVSPost2010PropOp45
 70
     1
102
RTVSPost2010Prop46
 90
       50
102
RTVSPost2010PropOp46
 70
     1
102
RTVSPost2010Prop47
 90
       50
102
RTVSPost2010PropOp47
 70
     1
102
RTVSPost2010Prop48
 90
       50
102
RTVSPost2010PropOp48
 70
     1
102
RTVSPost2010Prop49
280
     0
102
RTVSPost2010PropOp49
 70
     1
102
RTVSPost2010Prop50
 90
       50
102
RTVSPost2010PropOp50
 70
     1
102
RTVSPost2010Prop51ColorIndex
 90
      256
102
RTVSPost2010Prop51ColorRGB
 90
-16777216
102
RTVSPost2010PropOp51
 70
     0
102
RTVSPost2010Prop52
140
1.0
102
RTVSPost2010PropOp52
 70
     0
102
RTVSPost2010Prop53
 90
        2
102
RTVSPost2010PropOp53
 70
     1
102
RTVSPost2010Prop54
  1
strokes_ogs.tif
102
RTVSPost2010PropOp54
 70
     1
102
RTVSPost2010Prop55
280
     0
102
RTVSPost2010PropOp55
 70
     1
102
RTVSPost2010Prop56
140
1.0
102
RTVSPost2010PropOp56
 70
     1
102
RTVSPost2010Prop57
140
1.0
102
RTVSPost2010PropOp57
 70
     1
  0
XRECORD
  5
3E4
102
{ACAD_REACTORS
330
3E3
102
}
330
3E3
100
AcDbXrecord
280
     1
102
RTVSPost2010Prop28
280
     0
102
RTVSPost2010PropOp28
 70
     1
102
RTVSPost2010Prop29
280
     1
102
RTVSPost2010PropOp29
 70
     1
102
RTVSPost2010Prop30
280
     1
102
RTVSPost2010PropOp30
 70
     1
102
RTVSPost2010Prop31
280
     0
102
RTVSPost2010PropOp31
 70
     1
102
RTVSPost2010Prop32
280
     0
102
RTVSPost2010PropOp32
 70
     1
102
RTVSPost2010Prop33
280
     0
102
RTVSPost2010PropOp33
 70
     1
102
RTVSPost2010Prop34
280
     0
102
RTVSPost2010PropOp34
 70
     1
102
RTVSPost2010Prop35
280
     0
102
RTVSPost2010PropOp35
 70
     1
102
RTVSPost2010Prop36
280
     0
102
RTVSPost2010PropOp36
 70
     1
102
RTVSPost2010Prop37
 90
       50
102
RTVSPost2010PropOp37
 70
     1
102
RTVSPost2010Prop38
140
0.0
102
RTVSPost2010PropOp38
 70
     1
102
RTVSPost2010Prop39
140
1.0
102
RTVSPost2010PropOp39
 70
     1
102
RTVSPost2010Prop40
 90
        0
102
RTVSPost2010PropOp40
 70
     1
102
RTVSPost2010Prop41ColorIndex
 90
       18
102
RTVSPost2010Prop41ColorRGB
 90
        0
102
RTVSPost2010PropOp41
 70
     1
102
RTVSPost2010Prop42
 90
       50
102
RTVSPost2010PropOp42
 70
     1
102
RTVSPost2010Prop43
 90
        3
102
RTVSPost2010PropOp43
 70
     1
102
RTVSPost2010Prop44ColorIndex
 90
        5
102
RTVSPost2010Prop44ColorRGB
 90
      255
102
RTVSPost2010PropOp44
 70
     1
102
RTVSPost2010Prop45
280
     0
102
RTVSPost2010PropOp45
 70
     1
102
RTVSPost2010Prop46
 90
       50
102
RTVSPost2010PropOp46
 70
     1
102
RTVSPost2010Prop47
 90
       50
102
RTVSPost2010PropOp47
 70
     1
102
RTVSPost2010Prop48
 90
       50
102
RTVSPost2010PropOp48
 70
     1
102
RTVSPost2010Prop49
280
     0
102
RTVSPost2010PropOp49
 70
     1
102
RTVSPost2010Prop50
 90
       50
102
RTVSPost2010PropOp50
 70
     1
102
RTVSPost2010Prop51ColorIndex
 90
      256
102
RTVSPost2010Prop51ColorRGB
 90
-16777216
102
RTVSPost2010PropOp51
 70
     0
102
RTVSPost2010Prop52
140
1.0
102
RTVSPost2010PropOp52
 70
     0
102
RTVSPost2010Prop53
 90
        2
102
RTVSPost2010PropOp53
 70
     1
102
RTVSPost2010Prop54
  1
strokes_ogs.tif
102
RTVSPost2010PropOp54
 70
     1
102
RTVSPost2010Prop55
280
     0
102
RTVSPost2010PropOp55
 70
     1
102
RTVSPost2010Prop56
140
1.0
102
RTVSPost2010PropOp56
 70
     1
102
RTVSPost2010Prop57
140
1.0
102
RTVSPost2010PropOp57
 70
     1
  0
XRECORD
  5
3DE
102
{ACAD_REACTORS
330
3DD
102
}
330
3DD
100
AcDbXrecord
280
     1
102
RTVSPost2010Prop28
280
     0
102
RTVSPost2010PropOp28
 70
     1
102
RTVSPost2010Prop29
280
     1
102
RTVSPost2010PropOp29
 70
     1
102
RTVSPost2010Prop30
280
     1
102
RTVSPost2010PropOp30
 70
     1
102
RTVSPost2010Prop31
280
     0
102
RTVSPost2010PropOp31
 70
     1
102
RTVSPost2010Prop32
280
     0
102
RTVSPost2010PropOp32
 70
     1
102
RTVSPost2010Prop33
280
     0
102
RTVSPost2010PropOp33
 70
     1
102
RTVSPost2010Prop34
280
     0
102
RTVSPost2010PropOp34
 70
     1
102
RTVSPost2010Prop35
280
     0
102
RTVSPost2010PropOp35
 70
     1
102
RTVSPost2010Prop36
280
     0
102
RTVSPost2010PropOp36
 70
     1
102
RTVSPost2010Prop37
 90
       50
102
RTVSPost2010PropOp37
 70
     1
102
RTVSPost2010Prop38
140
0.0
102
RTVSPost2010PropOp38
 70
     1
102
RTVSPost2010Prop39
140
1.0
102
RTVSPost2010PropOp39
 70
     1
102
RTVSPost2010Prop40
 90
        0
102
RTVSPost2010PropOp40
 70
     1
102
RTVSPost2010Prop41ColorIndex
 90
       18
102
RTVSPost2010Prop41ColorRGB
 90
        0
102
RTVSPost2010PropOp41
 70
     1
102
RTVSPost2010Prop42
 90
       50
102
RTVSPost2010PropOp42
 70
     1
102
RTVSPost2010Prop43
 90
        3
102
RTVSPost2010PropOp43
 70
     1
102
RTVSPost2010Prop44ColorIndex
 90
        5
102
RTVSPost2010Prop44ColorRGB
 90
      255
102
RTVSPost2010PropOp44
 70
     1
102
RTVSPost2010Prop45
280
     0
102
RTVSPost2010PropOp45
 70
     1
102
RTVSPost2010Prop46
 90
       50
102
RTVSPost2010PropOp46
 70
     1
102
RTVSPost2010Prop47
 90
       50
102
RTVSPost2010PropOp47
 70
     1
102
RTVSPost2010Prop48
 90
       50
102
RTVSPost2010PropOp48
 70
     1
102
RTVSPost2010Prop49
280
     0
102
RTVSPost2010PropOp49
 70
     1
102
RTVSPost2010Prop50
 90
       50
102
RTVSPost2010PropOp50
 70
     1
102
RTVSPost2010Prop51ColorIndex
 90
      256
102
RTVSPost2010Prop51ColorRGB
 90
-16777216
102
RTVSPost2010PropOp51
 70
     0
102
RTVSPost2010Prop52
140
1.0
102
RTVSPost2010PropOp52
 70
     0
102
RTVSPost2010Prop53
 90
        2
102
RTVSPost2010PropOp53
 70
     1
102
RTVSPost2010Prop54
  1
strokes_ogs.tif
102
RTVSPost2010PropOp54
 70
     1
102
RTVSPost2010Prop55
280
     0
102
RTVSPost2010PropOp55
 70
     1
102
RTVSPost2010Prop56
140
1.0
102
RTVSPost2010PropOp56
 70
     1
102
RTVSPost2010Prop57
140
1.0
102
RTVSPost2010PropOp57
 70
     1
  0
XRECORD
  5
3E0
102
{ACAD_REACTORS
330
3DF
102
}
330
3DF
100
AcDbXrecord
280
     1
102
RTVSPost2010Prop28
280
     0
102
RTVSPost2010PropOp28
 70
     1
102
RTVSPost2010Prop29
280
     1
102
RTVSPost2010PropOp29
 70
     1
102
RTVSPost2010Prop30
280
     1
102
RTVSPost2010PropOp30
 70
     1
102
RTVSPost2010Prop31
280
     0
102
RTVSPost2010PropOp31
 70
     1
102
RTVSPost2010Prop32
280
     0
102
RTVSPost2010PropOp32
 70
     1
102
RTVSPost2010Prop33
280
     0
102
RTVSPost2010PropOp33
 70
     1
102
RTVSPost2010Prop34
280
     0
102
RTVSPost2010PropOp34
 70
     1
102
RTVSPost2010Prop35
280
     0
102
RTVSPost2010PropOp35
 70
     1
102
RTVSPost2010Prop36
280
     0
102
RTVSPost2010PropOp36
 70
     1
102
RTVSPost2010Prop37
 90
       50
102
RTVSPost2010PropOp37
 70
     1
102
RTVSPost2010Prop38
140
0.0
102
RTVSPost2010PropOp38
 70
     1
102
RTVSPost2010Prop39
140
1.0
102
RTVSPost2010PropOp39
 70
     1
102
RTVSPost2010Prop40
 90
        0
102
RTVSPost2010PropOp40
 70
     1
102
RTVSPost2010Prop41ColorIndex
 90
       18
102
RTVSPost2010Prop41ColorRGB
 90
        0
102
RTVSPost2010PropOp41
 70
     1
102
RTVSPost2010Prop42
 90
       50
102
RTVSPost2010PropOp42
 70
     1
102
RTVSPost2010Prop43
 90
        3
102
RTVSPost2010PropOp43
 70
     1
102
RTVSPost2010Prop44ColorIndex
 90
        5
102
RTVSPost2010Prop44ColorRGB
 90
      255
102
RTVSPost2010PropOp44
 70
     1
102
RTVSPost2010Prop45
280
     0
102
RTVSPost2010PropOp45
 70
     1
102
RTVSPost2010Prop46
 90
       50
102
RTVSPost2010PropOp46
 70
     1
102
RTVSPost2010Prop47
 90
       50
102
RTVSPost2010PropOp47
 70
     1
102
RTVSPost2010Prop48
 90
       50
102
RTVSPost2010PropOp48
 70
     1
102
RTVSPost2010Prop49
280
     0
102
RTVSPost2010PropOp49
 70
     1
102
RTVSPost2010Prop50
 90
       50
102
RTVSPost2010PropOp50
 70
     1
102
RTVSPost2010Prop51ColorIndex
 90
      256
102
RTVSPost2010Prop51ColorRGB
 90
-16777216
102
RTVSPost2010PropOp51
 70
     0
102
RTVSPost2010Prop52
140
1.0
102
RTVSPost2010PropOp52
 70
     0
102
RTVSPost2010Prop53
 90
        2
102
RTVSPost2010PropOp53
 70
     1
102
RTVSPost2010Prop54
  1
strokes_ogs.tif
102
RTVSPost2010PropOp54
 70
     1
102
RTVSPost2010Prop55
280
     0
102
RTVSPost2010PropOp55
 70
     1
102
RTVSPost2010Prop56
140
1.0
102
RTVSPost2010PropOp56
 70
     1
102
RTVSPost2010Prop57
140
1.0
102
RTVSPost2010PropOp57
 70
     1
  0
XRECORD
  5
3D0
102
{ACAD_REACTORS
330
3CF
102
}
330
3CF
100
AcDbXrecord
280
     1
102
RTVSPost2010Prop28
280
     0
102
RTVSPost2010PropOp28
 70
     1
102
RTVSPost2010Prop29
280
     1
102
RTVSPost2010PropOp29
 70
     1
102
RTVSPost2010Prop30
280
     1
102
RTVSPost2010PropOp30
 70
     1
102
RTVSPost2010Prop31
280
     0
102
RTVSPost2010PropOp31
 70
     1
102
RTVSPost2010Prop32
280
     0
102
RTVSPost2010PropOp32
 70
     1
102
RTVSPost2010Prop33
280
     0
102
RTVSPost2010PropOp33
 70
     1
102
RTVSPost2010Prop34
280
     0
102
RTVSPost2010PropOp34
 70
     1
102
RTVSPost2010Prop35
280
     0
102
RTVSPost2010PropOp35
 70
     1
102
RTVSPost2010Prop36
280
     0
102
RTVSPost2010PropOp36
 70
     1
102
RTVSPost2010Prop37
 90
       50
102
RTVSPost2010PropOp37
 70
     1
102
RTVSPost2010Prop38
140
0.0
102
RTVSPost2010PropOp38
 70
     1
102
RTVSPost2010Prop39
140
1.0
102
RTVSPost2010PropOp39
 70
     1
102
RTVSPost2010Prop40
 90
        0
102
RTVSPost2010PropOp40
 70
     1
102
RTVSPost2010Prop41ColorIndex
 90
       18
102
RTVSPost2010Prop41ColorRGB
 90
        0
102
RTVSPost2010PropOp41
 70
     1
102
RTVSPost2010Prop42
 90
       50
102
RTVSPost2010PropOp42
 70
     1
102
RTVSPost2010Prop43
 90
        3
102
RTVSPost2010PropOp43
 70
     1
102
RTVSPost2010Prop44ColorIndex
 90
        5
102
RTVSPost2010Prop44ColorRGB
 90
      255
102
RTVSPost2010PropOp44
 70
     1
102
RTVSPost2010Prop45
280
     0
102
RTVSPost2010PropOp45
 70
     1
102
RTVSPost2010Prop46
 90
       50
102
RTVSPost2010PropOp46
 70
     1
102
RTVSPost2010Prop47
 90
       50
102
RTVSPost2010PropOp47
 70
     1
102
RTVSPost2010Prop48
 90
       50
102
RTVSPost2010PropOp48
 70
     1
102
RTVSPost2010Prop49
280
     0
102
RTVSPost2010PropOp49
 70
     1
102
RTVSPost2010Prop50
 90
       50
102
RTVSPost2010PropOp50
 70
     1
102
RTVSPost2010Prop51ColorIndex
 90
      256
102
RTVSPost2010Prop51ColorRGB
 90
-16777216
102
RTVSPost2010PropOp51
 70
     0
102
RTVSPost2010Prop52
140
1.0
102
RTVSPost2010PropOp52
 70
     0
102
RTVSPost2010Prop53
 90
        2
102
RTVSPost2010PropOp53
 70
     1
102
RTVSPost2010Prop54
  1
strokes_ogs.tif
102
RTVSPost2010PropOp54
 70
     1
102
RTVSPost2010Prop55
280
     0
102
RTVSPost2010PropOp55
 70
     1
102
RTVSPost2010Prop56
140
1.0
102
RTVSPost2010PropOp56
 70
     1
102
RTVSPost2010Prop57
140
1.0
102
RTVSPost2010PropOp57
 70
     1
  0
XRECORD
  5
3C2
102
{ACAD_REACTORS
330
3C1
102
}
330
3C1
100
AcDbXrecord
280
     1
102
RTVSPost2010Prop28
280
     0
102
RTVSPost2010PropOp28
 70
     1
102
RTVSPost2010Prop29
280
     1
102
RTVSPost2010PropOp29
 70
     1
102
RTVSPost2010Prop30
280
     1
102
RTVSPost2010PropOp30
 70
     1
102
RTVSPost2010Prop31
280
     0
102
RTVSPost2010PropOp31
 70
     1
102
RTVSPost2010Prop32
280
     0
102
RTVSPost2010PropOp32
 70
     1
102
RTVSPost2010Prop33
280
     0
102
RTVSPost2010PropOp33
 70
     1
102
RTVSPost2010Prop34
280
     0
102
RTVSPost2010PropOp34
 70
     1
102
RTVSPost2010Prop35
280
     0
102
RTVSPost2010PropOp35
 70
     1
102
RTVSPost2010Prop36
280
     0
102
RTVSPost2010PropOp36
 70
     1
102
RTVSPost2010Prop37
 90
       50
102
RTVSPost2010PropOp37
 70
     1
102
RTVSPost2010Prop38
140
0.0
102
RTVSPost2010PropOp38
 70
     1
102
RTVSPost2010Prop39
140
1.0
102
RTVSPost2010PropOp39
 70
     1
102
RTVSPost2010Prop40
 90
        0
102
RTVSPost2010PropOp40
 70
     1
102
RTVSPost2010Prop41ColorIndex
 90
       18
102
RTVSPost2010Prop41ColorRGB
 90
        0
102
RTVSPost2010PropOp41
 70
     1
102
RTVSPost2010Prop42
 90
       50
102
RTVSPost2010PropOp42
 70
     1
102
RTVSPost2010Prop43
 90
        3
102
RTVSPost2010PropOp43
 70
     1
102
RTVSPost2010Prop44ColorIndex
 90
        5
102
RTVSPost2010Prop44ColorRGB
 90
      255
102
RTVSPost2010PropOp44
 70
     1
102
RTVSPost2010Prop45
280
     0
102
RTVSPost2010PropOp45
 70
     1
102
RTVSPost2010Prop46
 90
       50
102
RTVSPost2010PropOp46
 70
     1
102
RTVSPost2010Prop47
 90
       50
102
RTVSPost2010PropOp47
 70
     1
102
RTVSPost2010Prop48
 90
       50
102
RTVSPost2010PropOp48
 70
     1
102
RTVSPost2010Prop49
280
     0
102
RTVSPost2010PropOp49
 70
     1
102
RTVSPost2010Prop50
 90
       50
102
RTVSPost2010PropOp50
 70
     1
102
RTVSPost2010Prop51ColorIndex
 90
      256
102
RTVSPost2010Prop51ColorRGB
 90
-16777216
102
RTVSPost2010PropOp51
 70
     0
102
RTVSPost2010Prop52
140
1.0
102
RTVSPost2010PropOp52
 70
     0
102
RTVSPost2010Prop53
 90
        2
102
RTVSPost2010PropOp53
 70
     1
102
RTVSPost2010Prop54
  1
strokes_ogs.tif
102
RTVSPost2010PropOp54
 70
     1
102
RTVSPost2010Prop55
280
     0
102
RTVSPost2010PropOp55
 70
     1
102
RTVSPost2010Prop56
140
1.0
102
RTVSPost2010PropOp56
 70
     1
102
RTVSPost2010Prop57
140
1.0
102
RTVSPost2010PropOp57
 70
     1
  0
XRECORD
  5
3E2
102
{ACAD_REACTORS
330
3E1
102
}
330
3E1
100
AcDbXrecord
280
     1
102
RTVSPost2010Prop28
280
     0
102
RTVSPost2010PropOp28
 70
     1
102
RTVSPost2010Prop29
280
     1
102
RTVSPost2010PropOp29
 70
     1
102
RTVSPost2010Prop30
280
     1
102
RTVSPost2010PropOp30
 70
     1
102
RTVSPost2010Prop31
280
     0
102
RTVSPost2010PropOp31
 70
     1
102
RTVSPost2010Prop32
280
     0
102
RTVSPost2010PropOp32
 70
     1
102
RTVSPost2010Prop33
280
     0
102
RTVSPost2010PropOp33
 70
     1
102
RTVSPost2010Prop34
280
     0
102
RTVSPost2010PropOp34
 70
     1
102
RTVSPost2010Prop35
280
     0
102
RTVSPost2010PropOp35
 70
     1
102
RTVSPost2010Prop36
280
     0
102
RTVSPost2010PropOp36
 70
     1
102
RTVSPost2010Prop37
 90
       50
102
RTVSPost2010PropOp37
 70
     1
102
RTVSPost2010Prop38
140
0.0
102
RTVSPost2010PropOp38
 70
     1
102
RTVSPost2010Prop39
140
1.0
102
RTVSPost2010PropOp39
 70
     1
102
RTVSPost2010Prop40
 90
        0
102
RTVSPost2010PropOp40
 70
     1
102
RTVSPost2010Prop41ColorIndex
 90
       18
102
RTVSPost2010Prop41ColorRGB
 90
        0
102
RTVSPost2010PropOp41
 70
     1
102
RTVSPost2010Prop42
 90
       50
102
RTVSPost2010PropOp42
 70
     1
102
RTVSPost2010Prop43
 90
        3
102
RTVSPost2010PropOp43
 70
     1
102
RTVSPost2010Prop44ColorIndex
 90
        5
102
RTVSPost2010Prop44ColorRGB
 90
      255
102
RTVSPost2010PropOp44
 70
     1
102
RTVSPost2010Prop45
280
     0
102
RTVSPost2010PropOp45
 70
     1
102
RTVSPost2010Prop46
 90
       50
102
RTVSPost2010PropOp46
 70
     1
102
RTVSPost2010Prop47
 90
       50
102
RTVSPost2010PropOp47
 70
     1
102
RTVSPost2010Prop48
 90
       50
102
RTVSPost2010PropOp48
 70
     1
102
RTVSPost2010Prop49
280
     0
102
RTVSPost2010PropOp49
 70
     1
102
RTVSPost2010Prop50
 90
       50
102
RTVSPost2010PropOp50
 70
     1
102
RTVSPost2010Prop51ColorIndex
 90
      256
102
RTVSPost2010Prop51ColorRGB
 90
-16777216
102
RTVSPost2010PropOp51
 70
     0
102
RTVSPost2010Prop52
140
1.0
102
RTVSPost2010PropOp52
 70
     0
102
RTVSPost2010Prop53
 90
        2
102
RTVSPost2010PropOp53
 70
     1
102
RTVSPost2010Prop54
  1
strokes_ogs.tif
102
RTVSPost2010PropOp54
 70
     1
102
RTVSPost2010Prop55
280
     0
102
RTVSPost2010PropOp55
 70
     1
102
RTVSPost2010Prop56
140
1.0
102
RTVSPost2010PropOp56
 70
     1
102
RTVSPost2010Prop57
140
1.0
102
RTVSPost2010PropOp57
 70
     1
  0
ENDSEC
  0
EOF
