  0
SECTION
  2
HEADER
  9
$ACADVER
  1
AC1024
  9
$ACADMAINTVER
 70
     6
  9
$DWGCODEPAGE
  3
ANSI_1252
  9
$INSBASE
 10
0.0
 20
0.0
 30
0.0
  9
$EXTMIN
 10
1.000000E+20
 20
1.000000E+20
 30
1.000000E+20
  9
$EXTMAX
 10
-1.000000E+20
 20
-1.000000E+20
 30
-1.000000E+20
  9
$LIMMIN
 10
0.0
 20
0.0
  9
$LIMMAX
 10
420.0
 20
297.0
  9
$ORTHOMODE
 70
     0
  9
$REGENMODE
 70
     1
  9
$FILLMODE
 70
     1
  9
$QTEXTMODE
 70
     0
  9
$MIRRTEXT
 70
     1
  9
$LTSCALE
 40
1.0
  9
$ATTMODE
 70
     1
  9
$TEXTSIZE
 40
2.5
  9
$TRACEWID
 40
1.0
  9
$TEXTSTYLE
  7
Standard
  9
$CLAYER
  8
0
  9
$CELTYPE
  6
ByLayer
  9
$CECOLOR
 62
   256
  9
$CELTSCALE
 40
1.0
  9
$DISPSILH
 70
     0
  9
$DIMSCALE
 40
1.0
  9
$DIMASZ
 40
2.5
  9
$DIMEXO
 40
0.625
  9
$DIMDLI
 40
3.75
  9
$DIMRND
 40
0.0
  9
$DIMDLE
 40
0.0
  9
$DIMEXE
 40
1.25
  9
$DIMTP
 40
0.0
  9
$DIMTM
 40
0.0
  9
$DIMTXT
 40
2.5
  9
$DIMCEN
 40
2.5
  9
$DIMTSZ
 40
0.0
  9
$DIMTOL
 70
     0
  9
$DIMLIM
 70
     0
  9
$DIMTIH
 70
     0
  9
$DIMTOH
 70
     0
  9
$DIMSE1
 70
     0
  9
$DIMSE2
 70
     0
  9
$DIMTAD
 70
     1
  9
$DIMZIN
 70
     8
  9
$DIMBLK
  1

  9
$DIMASO
 70
     1
  9
$DIMSHO
 70
     1
  9
$DIMPOST
  1

  9
$DIMAPOST
  1

  9
$DIMALT
 70
     0
  9
$DIMALTD
 70
     3
  9
$DIMALTF
 40
0.03937
  9
$DIMLFAC
 40
1.0
  9
$DIMTOFL
 70
     1
  9
$DIMTVP
 40
0.0
  9
$DIMTIX
 70
     0
  9
$DIMSOXD
 70
     0
  9
$DIMSAH
 70
     0
  9
$DIMBLK1
  1

  9
$DIMBLK2
  1

  9
$DIMSTYLE
  2
ISO-25
  9
$DIMCLRD
 70
     0
  9
$DIMCLRE
 70
     0
  9
$DIMCLRT
 70
     0
  9
$DIMTFAC
 40
1.0
  9
$DIMGAP
 40
0.625
  9
$DIMJUST
 70
     0
  9
$DIMSD1
 70
     0
  9
$DIMSD2
 70
     0
  9
$DIMTOLJ
 70
     0
  9
$DIMTZIN
 70
     8
  9
$DIMALTZ
 70
     0
  9
$DIMALTTZ
 70
     0
  9
$DIMUPT
 70
     0
  9
$DIMDEC
 70
     2
  9
$DIMTDEC
 70
     2
  9
$DIMALTU
 70
     2
  9
$DIMALTTD
 70
     3
  9
$DIMTXSTY
  7
Standard
  9
$DIMAUNIT
 70
     0
  9
$DIMADEC
 70
     0
  9
$DIMALTRND
 40
0.0
  9
$DIMAZIN
 70
     0
  9
$DIMDSEP
 70
    44
  9
$DIMATFIT
 70
     3
  9
$DIMFRAC
 70
     0
  9
$DIMLDRBLK
  1

  9
$DIMLUNIT
 70
     2
  9
$DIMLWD
 70
    -2
  9
$DIMLWE
 70
    -2
  9
$DIMTMOVE
 70
     0
  9
$DIMFXL
 40
1.0
  9
$DIMFXLON
 70
     0
  9
$DIMJOGANG
 40
0.785398
  9
$DIMTFILL
 70
     0
  9
$DIMTFILLCLR
 70
     0
  9
$DIMARCSYM
 70
     0
  9
$DIMLTYPE
  6

  9
$DIMLTEX1
  6

  9
$DIMLTEX2
  6

  9
$DIMTXTDIRECTION
 70
     0
  9
$LUNITS
 70
     2
  9
$LUPREC
 70
     4
  9
$SKETCHINC
 40
1.0
  9
$FILLETRAD
 40
10.0
  9
$AUNITS
 70
     0
  9
$AUPREC
 70
     0
  9
$MENU
  1
.
  9
$ELEVATION
 40
0.0
  9
$PELEVATION
 40
0.0
  9
$THICKNESS
 40
0.0
  9
$LIMCHECK
 70
     0
  9
$CHAMFERA
 40
0.0
  9
$CHAMFERB
 40
0.0
  9
$CHAMFERC
 40
0.0
  9
$CHAMFERD
 40
0.0
  9
$SKPOLY
 70
     0
  9
$TDCREATE
 40
2458660.655162616
  9
$TDUCREATE
 40
2458660.571829282
  9
$TDUPDATE
 40
2458660.655163426
  9
$TDUUPDATE
 40
2458660.571830092
  9
$TDINDWG
 40
0.0000000116
  9
$TDUSRTIMER
 40
0.0000000116
  9
$USRTIMER
 70
     1
  9
$ANGBASE
 50
0.0
  9
$ANGDIR
 70
     0
  9
$PDMODE
 70
     0
  9
$PDSIZE
 40
0.0
  9
$PLINEWID
 40
0.0
  9
$SPLFRAME
 70
     0
  9
$SPLINETYPE
 70
     6
  9
$SPLINESEGS
 70
     8
  9
$HANDSEED
  5
3CC
  9
$SURFTAB1
 70
     6
  9
$SURFTAB2
 70
     6
  9
$SURFTYPE
 70
     6
  9
$SURFU
 70
     6
  9
$SURFV
 70
     6
  9
$UCSBASE
  2

  9
$UCSNAME
  2

  9
$UCSORG
 10
0.0
 20
0.0
 30
0.0
  9
$UCSXDIR
 10
1.0
 20
0.0
 30
0.0
  9
$UCSYDIR
 10
0.0
 20
1.0
 30
0.0
  9
$UCSORTHOREF
  2

  9
$UCSORTHOVIEW
 70
     0
  9
$UCSORGTOP
 10
0.0
 20
0.0
 30
0.0
  9
$UCSORGBOTTOM
 10
0.0
 20
0.0
 30
0.0
  9
$UCSORGLEFT
 10
0.0
 20
0.0
 30
0.0
  9
$UCSORGRIGHT
 10
0.0
 20
0.0
 30
0.0
  9
$UCSORGFRONT
 10
0.0
 20
0.0
 30
0.0
  9
$UCSORGBACK
 10
0.0
 20
0.0
 30
0.0
  9
$PUCSBASE
  2

  9
$PUCSNAME
  2

  9
$PUCSORG
 10
0.0
 20
0.0
 30
0.0
  9
$PUCSXDIR
 10
1.0
 20
0.0
 30
0.0
  9
$PUCSYDIR
 10
0.0
 20
1.0
 30
0.0
  9
$PUCSORTHOREF
  2

  9
$PUCSORTHOVIEW
 70
     0
  9
$PUCSORGTOP
 10
0.0
 20
0.0
 30
0.0
  9
$PUCSORGBOTTOM
 10
0.0
 20
0.0
 30
0.0
  9
$PUCSORGLEFT
 10
0.0
 20
0.0
 30
0.0
  9
$PUCSORGRIGHT
 10
0.0
 20
0.0
 30
0.0
  9
$PUCSORGFRONT
 10
0.0
 20
0.0
 30
0.0
  9
$PUCSORGBACK
 10
0.0
 20
0.0
 30
0.0
  9
$USERI1
 70
     0
  9
$USERI2
 70
     0
  9
$USERI3
 70
     0
  9
$USERI4
 70
     0
  9
$USERI5
 70
     0
  9
$USERR1
 40
0.0
  9
$USERR2
 40
0.0
  9
$USERR3
 40
0.0
  9
$USERR4
 40
0.0
  9
$USERR5
 40
0.0
  9
$WORLDVIEW
 70
     1
  9
$SHADEDGE
 70
     3
  9
$SHADEDIF
 70
    70
  9
$TILEMODE
 70
     1
  9
$MAXACTVP
 70
    64
  9
$PINSBASE
 10
0.0
 20
0.0
 30
0.0
  9
$PLIMCHECK
 70
     0
  9
$PEXTMIN
 10
1.000000E+20
 20
1.000000E+20
 30
1.000000E+20
  9
$PEXTMAX
 10
-1.000000E+20
 20
-1.000000E+20
 30
-1.000000E+20
  9
$PLIMMIN
 10
0.0
 20
0.0
  9
$PLIMMAX
 10
420.0
 20
297.0
  9
$UNITMODE
 70
     0
  9
$VISRETAIN
 70
     1
  9
$PLINEGEN
 70
     0
  9
$PSLTSCALE
 70
     1
  9
$TREEDEPTH
 70
  3020
  9
$CMLSTYLE
  2
Standard
  9
$CMLJUST
 70
     0
  9
$CMLSCALE
 40
20.0
  9
$PROXYGRAPHICS
 70
     1
  9
$MEASUREMENT
 70
     1
  9
$CELWEIGHT
370
    -1
  9
$ENDCAPS
280
     0
  9
$JOINSTYLE
280
     0
  9
$LWDISPLAY
290
     0
  9
$INSUNITS
 70
     4
  9
$HYPERLINKBASE
  1

  9
$STYLESHEET
  1

  9
$XEDIT
290
     1
  9
$CEPSNTYPE
380
     0
  9
$PSTYLEMODE
290
     1
  9
$FINGERPRINTGUID
  2
{5EEC54C8-8D70-48E9-9584-41538F71DF35}
  9
$VERSIONGUID
  2
{FAEB1C32-E019-11D5-929B-00C0DF256EC4}
  9
$EXTNAMES
290
     1
  9
$PSVPSCALE
 40
0.0
  9
$OLESTARTUP
290
     0
  9
$SORTENTS
280
   127
  9
$INDEXCTL
280
     0
  9
$HIDETEXT
280
     1
  9
$XCLIPFRAME
280
     2
  9
$HALOGAP
280
     0
  9
$OBSCOLOR
 70
   257
  9
$OBSLTYPE
280
     0
  9
$INTERSECTIONDISPLAY
280
     0
  9
$INTERSECTIONCOLOR
 70
   257
  9
$DIMASSOC
280
     2
  9
$PROJECTNAME
  1

  9
$CAMERADISPLAY
290
     0
  9
$LENSLENGTH
 40
50.0
  9
$CAMERAHEIGHT
 40
0.0
  9
$STEPSPERSEC
 40
2.0
  9
$STEPSIZE
 40
6.0
  9
$3DDWFPREC
 40
2.0
  9
$PSOLWIDTH
 40
5.0
  9
$PSOLHEIGHT
 40
80.0
  9
$LOFTANG1
 40
1.570796
  9
$LOFTANG2
 40
1.570796
  9
$LOFTMAG1
 40
0.0
  9
$LOFTMAG2
 40
0.0
  9
$LOFTPARAM
 70
     7
  9
$LOFTNORMALS
280
     1
  9
$LATITUDE
 40
37.795
  9
$LONGITUDE
 40
-122.394
  9
$NORTHDIRECTION
 40
0.0
  9
$TIMEZONE
 70
 -8000
  9
$LIGHTGLYPHDISPLAY
280
     1
  9
$TILEMODELIGHTSYNCH
280
     1
  9
$CMATERIAL
347
44
  9
$SOLIDHIST
280
     0
  9
$SHOWHIST
280
     1
  9
$DWFFRAME
280
     2
  9
$DGNFRAME
280
     2
  9
$REALWORLDSCALE
290
     1
  9
$INTERFERECOLOR
 62
   256
  9
$CSHADOW
280
     0
  9
$SHADOWPLANELOCATION
 40
0.0
  0
ENDSEC
  0
SECTION
  2
CLASSES
  0
CLASS
  1
ACDBDICTIONARYWDFLT
  2
AcDbDictionaryWithDefault
  3
ObjectDBX Classes
 90
        0
 91
        4
280
     0
281
     0
  0
CLASS
  1
VISUALSTYLE
  2
AcDbVisualStyle
  3
ObjectDBX Classes
 90
     4095
 91
        4
280
     0
281
     0
  0
CLASS
  1
MATERIAL
  2
AcDbMaterial
  3
ObjectDBX Classes
 90
     1153
 91
        4
280
     0
281
     0
  0
CLASS
  1
SCALE
  2
AcDbScale
  3
ObjectDBX Classes
 90
     1153
 91
        4
280
     0
281
     0
  0
CLASS
  1
TABLESTYLE
  2
AcDbTableStyle
  3
ObjectDBX Classes
 90
     4095
 91
        4
280
     0
281
     0
  0
CLASS
  1
MLEADERSTYLE
  2
AcDbMLeaderStyle
  3
ACDB_MLEADERSTYLE_CLASS
 90
     4095
 91
        4
280
     0
281
     0
  0
CLASS
  1
SUN
  2
AcDbSun
  3
SCENEOE
 90
     1153
 91
        4
280
     0
281
     0
  0
CLASS
  1
DICTIONARYVAR
  2
AcDbDictionaryVar
  3
ObjectDBX Classes
 90
        0
 91
        4
280
     0
281
     0
  0
CLASS
  1
CELLSTYLEMAP
  2
AcDbCellStyleMap
  3
ObjectDBX Classes
 90
     1152
 91
        4
280
     0
281
     0
  0
ENDSEC
  0
SECTION
  2
TABLES
  0
TABLE
  2
VPORT
  5
8
330
0
100
AcDbSymbolTable
 70
     1
  0
VPORT
  5
29
330
8
100
AcDbSymbolTableRecord
100
AcDbViewportTableRecord
  2
*Active
 70
     0
 10
0.0
 20
0.0
 11
1.0
 21
1.0
 12
344.186916
 22
148.5
 13
0.0
 23
0.0
 14
10.0
 24
10.0
 15
10.0
 25
10.0
 16
0.0
 26
0.0
 36
1.0
 17
0.0
 27
0.0
 37
0.0
 40
297.0
 41
1.972973
 42
50.0
 43
0.0
 44
0.0
 50
0.0
 51
0.0
 71
     0
 72
   100
 73
     1
 74
     3
 75
     0
 76
     0
 77
     0
 78
     0
281
     0
 65
     1
110
0.0
120
0.0
130
0.0
111
1.0
121
0.0
131
0.0
112
0.0
122
1.0
132
0.0
 79
     0
146
0.0
348
2F
 60
     3
 61
     5
292
     1
282
     1
141
0.0
142
0.0
 63
   250
361
6D
  0
ENDTAB
  0
TABLE
  2
LTYPE
  5
5
330
0
100
AcDbSymbolTable
 70
     1
  0
LTYPE
  5
14
330
5
100
AcDbSymbolTableRecord
100
AcDbLinetypeTableRecord
  2
ByBlock
 70
     0
  3

 72
    65
 73
     0
 40
0.0
  0
LTYPE
  5
15
330
5
100
AcDbSymbolTableRecord
100
AcDbLinetypeTableRecord
  2
ByLayer
 70
     0
  3

 72
    65
 73
     0
 40
0.0
  0
LTYPE
  5
16
330
5
100
AcDbSymbolTableRecord
100
AcDbLinetypeTableRecord
  2
Continuous
 70
     0
  3
Solid line
 72
    65
 73
     0
 40
0.0
  0
ENDTAB
  0
TABLE
  2
LAYER
  5
2
330
0
100
AcDbSymbolTable
 70
     1
  0
LAYER
  5
10
330
2
100
AcDbSymbolTableRecord
100
AcDbLayerTableRecord
  2
0
 70
     0
 62
   106
  6
Continuous
370
     0
390
F
347
46
  0
ENDTAB
  0
TABLE
  2
STYLE
  5
3
330
0
100
AcDbSymbolTable
 70
     4
  0
STYLE
  5
11
330
3
100
AcDbSymbolTableRecord
100
AcDbTextStyleTableRecord
  2
Standard
 70
     0
 40
0.0
 41
1.0
 50
0.0
 71
     0
 42
2.5
  3
txt
  4

  0
STYLE
  5
6E
330
3
100
AcDbSymbolTableRecord
100
AcDbTextStyleTableRecord
  2
Default
 70
     0
 40
0.0
 41
1.0
 50
0.0
 71
     0
 42
2.5
  3

  4

1001
ACAD
1000
txt
1071
        0
  0
STYLE
  5
6F
330
3
100
AcDbSymbolTableRecord
100
AcDbTextStyleTableRecord
  2
ISO
 70
     0
 40
0.0
 41
1.0
 50
0.0
 71
     0
 42
2.5
  3

  4

1001
ACAD
1000
txt
1071
        0
  0
STYLE
  5
70
330
3
100
AcDbSymbolTableRecord
100
AcDbTextStyleTableRecord
  2
zucchetti
 70
     0
 40
0.0
 41
1.0
 50
0.0
 71
     0
 42
2.5
  3

  4

1001
ACAD
1000
Arial
1071
        0
  0
ENDTAB
  0
TABLE
  2
VIEW
  5
6
330
0
100
AcDbSymbolTable
 70
     0
  0
ENDTAB
  0
TABLE
  2
UCS
  5
7
330
0
100
AcDbSymbolTable
 70
     0
  0
ENDTAB
  0
TABLE
  2
APPID
  5
9
330
0
100
AcDbSymbolTable
 70
     1
  0
APPID
  5
12
330
9
100
AcDbSymbolTableRecord
100
AcDbRegAppTableRecord
  2
ACAD
 70
     0
  0
ENDTAB
  0
TABLE
  2
DIMSTYLE
  5
A
330
0
100
AcDbSymbolTable
 70
     4
100
AcDbDimStyleTable
  0
DIMSTYLE
105
27
330
A
100
AcDbSymbolTableRecord
100
AcDbDimStyleTableRecord
  2
ISO-25
 70
     0
 41
2.5
 42
0.625
 43
3.75
 44
1.25
 73
     0
 74
     0
 77
     1
 78
     8
140
2.5
141
2.5
143
0.03937
147
0.625
171
     3
172
     1
178
     0
271
     2
272
     2
274
     3
278
    44
283
     0
284
     8
340
11
  0
DIMSTYLE
105
71
330
A
100
AcDbSymbolTableRecord
100
AcDbDimStyleTableRecord
  2
Default
 70
     0
  3
<>
 41
4.375
 42
1.05
 44
2.1
 49
10.01
 73
     0
 74
     0
 77
     1
 78
     8
140
3.5
146
0.4
147
1.75
172
     1
271
     2
178
     3
271
     2
272
     3
284
     8
340
6E
341
72
342
72
  0
DIMSTYLE
105
79
330
A
100
AcDbSymbolTableRecord
100
AcDbDimStyleTableRecord
  2
ISO
 70
     0
  3
<>
 41
4.375
 42
1.05
 44
2.1
 49
10.01
 73
     0
 74
     0
 77
     1
 78
     8
140
3.5
146
0.4
147
1.75
172
     1
271
     2
178
     3
271
     2
272
     3
284
     8
340
6F
341
72
342
72
  0
DIMSTYLE
105
7A
330
A
100
AcDbSymbolTableRecord
100
AcDbDimStyleTableRecord
  2
zucchetti
 70
     0
  3
<>
 41
3.0
 42
0.9
 44
1.8
 49
8.58
 73
     0
 74
     0
 77
     1
 78
     8
140
3.0
146
0.6
147
1.5
172
     1
176
     3
177
     3
271
     2
178
     3
271
     2
272
     2
284
     8
340
70
  0
ENDTAB
  0
TABLE
  2
BLOCK_RECORD
  5
1
330
0
100
AcDbSymbolTable
 70
     6
  0
BLOCK_RECORD
  5
1F
330
1
100
AcDbSymbolTableRecord
100
AcDbBlockTableRecord
  2
*Model_Space
340
22
 70
     0
280
     1
281
     0
  0
BLOCK_RECORD
  5
1B
330
1
100
AcDbSymbolTableRecord
100
AcDbBlockTableRecord
  2
*Paper_Space
340
1E
 70
     0
280
     1
281
     0
  0
BLOCK_RECORD
  5
23
330
1
100
AcDbSymbolTableRecord
100
AcDbBlockTableRecord
  2
*Paper_Space0
340
26
 70
     0
280
     1
281
     0
  0
BLOCK_RECORD
  5
72
330
1
100
AcDbSymbolTableRecord
100
AcDbBlockTableRecord
  2
_CLOSED
340
0
 70
     0
280
     1
281
     0
  0
BLOCK_RECORD
  5
7B
330
1
100
AcDbSymbolTableRecord
100
AcDbBlockTableRecord
  2
a
340
0
102
{BLKREFS
331
150
102
}
 70
     0
280
     1
281
     0
  0
BLOCK_RECORD
  5
151
330
1
100
AcDbSymbolTableRecord
100
AcDbBlockTableRecord
  2
b
340
0
102
{BLKREFS
331
215
102
}
 70
     0
280
     1
281
     0
  0
BLOCK_RECORD
  5
216
330
1
100
AcDbSymbolTableRecord
100
AcDbBlockTableRecord
  2
c
340
0
102
{BLKREFS
331
2E0
102
}
 70
     0
280
     1
281
     0
  0
BLOCK_RECORD
  5
2E1
330
1
100
AcDbSymbolTableRecord
100
AcDbBlockTableRecord
  2
d
340
0
102
{BLKREFS
331
392
102
}
 70
     0
280
     1
281
     0
  0
ENDTAB
  0
ENDSEC
  0
SECTION
  2
BLOCKS
  0
BLOCK
  5
20
330
1F
100
AcDbEntity
  8
0
100
AcDbBlockBegin
  2
*Model_Space
 70
     0
 10
0.0
 20
0.0
 30
0.0
  3
*Model_Space
  1

  0
ENDBLK
  5
21
330
1F
100
AcDbEntity
  8
0
100
AcDbBlockEnd
  0
BLOCK
  5
1C
330
1B
100
AcDbEntity
 67
     1
  8
0
100
AcDbBlockBegin
  2
*Paper_Space
 70
     0
 10
0.0
 20
0.0
 30
0.0
  3
*Paper_Space
  1

  0
ENDBLK
  5
1D
330
1B
100
AcDbEntity
 67
     1
  8
0
100
AcDbBlockEnd
  0
BLOCK
  5
24
330
23
100
AcDbEntity
  8
0
100
AcDbBlockBegin
  2
*Paper_Space0
 70
     0
 10
0.0
 20
0.0
 30
0.0
  3
*Paper_Space0
  1

  0
ENDBLK
  5
25
330
23
100
AcDbEntity
  8
0
100
AcDbBlockEnd
  0
BLOCK
  5
73
330
72
100
AcDbEntity
  8
0
100
AcDbBlockBegin
  2
_CLOSED
 70
     0
 10
0.0
 20
0.0
 30
0.0
  3
_CLOSED
  1

  0
LINE
  5
75
330
72
100
AcDbEntity
  8
0
  6
ByBlock
 62
     0
370
    -2
100
AcDbLine
 10
-1.0
 20
0.166667
 30
0.0
 11
0.0
 21
0.0
 31
0.0
  0
LINE
  5
76
330
72
100
AcDbEntity
  8
0
  6
ByBlock
 62
     0
370
    -2
100
AcDbLine
 10
0.0
 20
0.0
 30
0.0
 11
-1.0
 21
-0.166667
 31
0.0
  0
LINE
  5
77
330
72
100
AcDbEntity
  8
0
  6
ByBlock
 62
     0
370
    -2
100
AcDbLine
 10
-1.0
 20
0.166667
 30
0.0
 11
-1.0
 21
-0.166667
 31
0.0
  0
LINE
  5
78
330
72
100
AcDbEntity
  8
0
  6
ByBlock
 62
     0
370
    -2
100
AcDbLine
 10
0.0
 20
0.0
 30
0.0
 11
-1.0
 21
0.0
 31
0.0
  0
ENDBLK
  5
74
330
72
100
AcDbEntity
  8
0
100
AcDbBlockEnd
  0
BLOCK
  5
14E
330
7B
100
AcDbEntity
  8
0
100
AcDbBlockBegin
  2
a
 70
     0
 10
240.24292
 20
212.015625
 30
0.0
  3
a
  1

  0
ARC
  5
7C
330
7B
100
AcDbEntity
  8
0
  6
Continuous
 62
     0
370
    30
100
AcDbCircle
 10
295.597973
 20
254.217712
 30
0.0
 40
7.999999999967971
100
AcDbArc
 50
90.0
 51
270.0
  0
ARC
  5
7D
330
7B
100
AcDbEntity
  8
0
  6
Continuous
 62
     0
370
    30
100
AcDbCircle
 10
295.597973
 20
254.217712
 30
0.0
 40
7.999999999967971
100
AcDbArc
 50
270.0
 51
90.0
  0
ARC
  5
7E
330
7B
100
AcDbEntity
  8
0
  6
Continuous
 62
     0
370
     0
100
AcDbCircle
 10
295.597973
 20
254.217712
 30
0.0
 40
15.55563775877386
100
AcDbArc
 50
125.349912
 51
270.0
  0
ARC
  5
7F
330
7B
100
AcDbEntity
  8
0
  6
Continuous
 62
     0
370
     0
100
AcDbCircle
 10
295.597973
 20
254.217712
 30
0.0
 40
15.55563775877386
100
AcDbArc
 50
270.0
 51
54.650088
  0
ARC
  5
80
330
7B
100
AcDbEntity
  8
0
  6
Continuous
 62
     0
370
     0
100
AcDbCircle
 10
295.597973
 20
254.217712
 30
0.0
 40
19.49999999992202
100
AcDbArc
 50
117.486426
 51
270.0
  0
ARC
  5
81
330
7B
100
AcDbEntity
  8
0
  6
Continuous
 62
     0
370
     0
100
AcDbCircle
 10
295.597973
 20
254.217712
 30
0.0
 40
19.49999999992202
100
AcDbArc
 50
270.0
 51
62.513574
  0
ARC
  5
82
330
7B
100
AcDbEntity
  8
0
  6
Continuous
 62
     0
370
     0
100
AcDbCircle
 10
295.597973
 20
254.217712
 30
0.0
 40
29.05247595771986
100
AcDbArc
 50
108.04623
 51
270.0
  0
ARC
  5
83
330
7B
100
AcDbEntity
  8
0
  6
Continuous
 62
     0
370
     0
100
AcDbCircle
 10
295.597973
 20
254.217712
 30
0.0
 40
29.05247595771986
100
AcDbArc
 50
270.0
 51
71.95377
  0
ARC
  5
84
330
7B
100
AcDbEntity
  8
0
  6
Continuous
 62
     0
370
    30
100
AcDbCircle
 10
295.597973
 20
254.217712
 30
0.0
 40
29.99999999988003
100
AcDbArc
 50
107.457603
 51
270.0
  0
ARC
  5
85
330
7B
100
AcDbEntity
  8
0
  6
Continuous
 62
     0
370
    30
100
AcDbCircle
 10
295.597973
 20
254.217712
 30
0.0
 40
29.99999999988003
100
AcDbArc
 50
270.0
 51
72.542397
  0
ARC
  5
86
330
7B
100
AcDbEntity
  8
0
  6
Continuous
 62
     0
370
    30
100
AcDbCircle
 10
295.598048
 20
254.217692
 30
0.0
 40
15.00002791441805
100
AcDbArc
 50
126.870176
 51
53.13054
  0
LINE
  5
87
330
7B
100
AcDbEntity
  8
0
  6
Continuous
 62
     0
370
    30
100
AcDbLine
 10
308.597973
 20
535.659389
 30
0.0
 11
295.597973
 21
535.659389
 31
0.0
  0
LINE
  5
88
330
7B
100
AcDbEntity
  8
0
  6
Continuous
 62
     0
370
    30
100
AcDbLine
 10
295.597973
 20
535.659389
 30
0.0
 11
282.597973
 21
535.659389
 31
0.0
  0
LINE
  5
89
330
7B
100
AcDbEntity
  8
0
  6
Continuous
 62
     0
370
    30
100
AcDbLine
 10
308.597973
 20
539.159389
 30
0.0
 11
295.597973
 21
539.159389
 31
0.0
  0
LINE
  5
8A
330
7B
100
AcDbEntity
  8
0
  6
Continuous
 62
     0
370
    30
100
AcDbLine
 10
295.597973
 20
539.159389
 30
0.0
 11
282.597973
 21
539.159389
 31
0.0
  0
LINE
  5
8B
330
7B
100
AcDbEntity
  8
0
  6
Continuous
 62
     0
370
    30
100
AcDbLine
 10
308.597973
 20
595.159389
 30
0.0
 11
295.597973
 21
595.159389
 31
0.0
  0
LINE
  5
8C
330
7B
100
AcDbEntity
  8
0
  6
Continuous
 62
     0
370
    30
100
AcDbLine
 10
295.597973
 20
595.159389
 30
0.0
 11
282.597973
 21
595.159389
 31
0.0
  0
LINE
  5
8D
330
7B
100
AcDbEntity
  8
0
  6
Continuous
 62
     0
370
    30
100
AcDbLine
 10
308.597973
 20
598.659389
 30
0.0
 11
295.597973
 21
598.659389
 31
0.0
  0
LINE
  5
8E
330
7B
100
AcDbEntity
  8
0
  6
Continuous
 62
     0
370
    30
100
AcDbLine
 10
295.597973
 20
598.659389
 30
0.0
 11
282.597973
 21
598.659389
 31
0.0
  0
LINE
  5
8F
330
7B
100
AcDbEntity
  8
0
  6
Continuous
 62
     0
370
    30
100
AcDbLine
 10
308.597973
 20
598.659389
 30
0.0
 11
308.597973
 21
595.159389
 31
0.0
  0
LINE
  5
90
330
7B
100
AcDbEntity
  8
0
  6
Continuous
 62
     0
370
    30
100
AcDbLine
 10
282.597973
 20
598.659389
 30
0.0
 11
282.597973
 21
595.159389
 31
0.0
  0
ARC
  5
91
330
7B
100
AcDbEntity
  8
0
  6
Continuous
 62
     0
370
    30
100
AcDbCircle
 10
256.094708
 20
567.159389
 30
0.0
 40
59.50288076574691
100
AcDbArc
 50
331.928992
 51
28.071008
  0
ARC
  5
92
330
7B
100
AcDbEntity
  8
0
  6
Continuous
 62
     0
370
    30
100
AcDbCircle
 10
335.098539
 20
567.159165
 30
0.0
 40
59.50060520602207
100
AcDbArc
 50
151.92758
 51
173.961839
  0
ARC
  5
93
330
7B
100
AcDbEntity
  8
0
  6
Continuous
 62
     0
370
    30
100
AcDbCircle
 10
335.098172
 20
567.159474
 30
0.0
 40
59.50021557807939
100
AcDbArc
 50
186.038066
 51
208.072469
  0
LINE
  5
94
330
7B
100
AcDbEntity
  8
0
  6
Continuous
 62
     0
370
    30
100
AcDbLine
 10
308.597973
 20
539.159389
 30
0.0
 11
308.597973
 21
535.659389
 31
0.0
  0
LINE
  5
95
330
7B
100
AcDbEntity
  8
0
  6
Continuous
 62
     0
370
    30
100
AcDbLine
 10
282.597973
 20
539.159389
 30
0.0
 11
282.597973
 21
535.659389
 31
0.0
  0
ARC
  5
96
330
7B
100
AcDbEntity
  8
0
  6
Continuous
 62
     0
370
    30
100
AcDbCircle
 10
295.597973
 20
804.217712
 30
0.0
 40
7.999999999967971
100
AcDbArc
 50
90.0
 51
270.0
  0
ARC
  5
97
330
7B
100
AcDbEntity
  8
0
  6
Continuous
 62
     0
370
    30
100
AcDbCircle
 10
295.597973
 20
804.217712
 30
0.0
 40
7.999999999967971
100
AcDbArc
 50
270.0
 51
90.0
  0
ARC
  5
98
330
7B
100
AcDbEntity
  8
0
  6
Continuous
 62
     0
370
    30
100
AcDbCircle
 10
295.461426
 20
1145.981847
 30
0.0
 40
353.8782983818208
100
AcDbArc
 50
270.022108
 51
271.017865
  0
ARC
  5
99
330
7B
100
AcDbEntity
  8
0
  6
Continuous
 62
     0
370
    30
100
AcDbCircle
 10
295.734519
 20
1145.981847
 30
0.0
 40
353.8782983537226
100
AcDbArc
 50
268.982135
 51
269.977892
  0
ARC
  5
9A
330
7B
100
AcDbEntity
  8
0
  6
Continuous
 62
     0
370
     0
100
AcDbCircle
 10
295.597973
 20
804.217712
 30
0.0
 40
15.55563775877386
100
AcDbArc
 50
90.0
 51
234.650088
  0
ARC
  5
9B
330
7B
100
AcDbEntity
  8
0
  6
Continuous
 62
     0
370
     0
100
AcDbCircle
 10
295.597973
 20
804.217712
 30
0.0
 40
15.55563775877386
100
AcDbArc
 50
305.349912
 51
90.0
  0
ARC
  5
9C
330
7B
100
AcDbEntity
  8
0
  6
Continuous
 62
     0
370
     0
100
AcDbCircle
 10
295.597973
 20
804.217712
 30
0.0
 40
19.49999999992202
100
AcDbArc
 50
90.0
 51
242.513574
  0
ARC
  5
9D
330
7B
100
AcDbEntity
  8
0
  6
Continuous
 62
     0
370
     0
100
AcDbCircle
 10
295.597973
 20
804.217712
 30
0.0
 40
19.49999999992202
100
AcDbArc
 50
297.486426
 51
90.0
  0
ARC
  5
9E
330
7B
100
AcDbEntity
  8
0
  6
Continuous
 62
     0
370
     0
100
AcDbCircle
 10
295.597973
 20
804.217712
 30
0.0
 40
29.05247595771986
100
AcDbArc
 50
90.0
 51
251.95377
  0
ARC
  5
9F
330
7B
100
AcDbEntity
  8
0
  6
Continuous
 62
     0
370
     0
100
AcDbCircle
 10
295.597973
 20
804.217712
 30
0.0
 40
29.05247595771986
100
AcDbArc
 50
288.04623
 51
90.0
  0
ARC
  5
A0
330
7B
100
AcDbEntity
  8
0
  6
Continuous
 62
     0
370
    30
100
AcDbCircle
 10
295.597973
 20
804.217712
 30
0.0
 40
29.99999999988003
100
AcDbArc
 50
90.0
 51
252.542397
  0
ARC
  5
A1
330
7B
100
AcDbEntity
  8
0
  6
Continuous
 62
     0
370
    30
100
AcDbCircle
 10
295.597973
 20
804.217712
 30
0.0
 40
29.99999999988003
100
AcDbArc
 50
287.457603
 51
90.0
  0
LINE
  5
A2
330
7B
100
AcDbEntity
  8
0
  6
Continuous
 62
     0
370
    30
100
AcDbLine
 10
289.448168
 20
792.159389
 30
0.0
 11
286.597973
 21
792.159389
 31
0.0
  0
LINE
  5
A3
330
7B
100
AcDbEntity
  8
0
  6
Continuous
 62
     0
370
    30
100
AcDbLine
 10
304.597973
 20
792.159389
 30
0.0
 11
301.747778
 21
792.159389
 31
0.0
  0
ARC
  5
A4
330
7B
100
AcDbEntity
  8
0
  6
Continuous
 62
     0
370
    30
100
AcDbCircle
 10
295.597973
 20
567.159389
 30
0.0
 40
13.99999999994449
100
AcDbArc
 50
54.041573
 51
90.0
  0
ARC
  5
A5
330
7B
100
AcDbEntity
  8
0
  6
Continuous
 62
     0
370
    30
100
AcDbCircle
 10
295.597973
 20
567.159389
 30
0.0
 40
13.99999999994449
100
AcDbArc
 50
270.0
 51
316.109814
  0
ARC
  5
A6
330
7B
100
AcDbEntity
  8
0
  6
Continuous
 62
     0
370
    30
100
AcDbCircle
 10
295.597973
 20
567.159389
 30
0.0
 40
13.99999999994449
100
AcDbArc
 50
223.882056
 51
270.0
  0
ARC
  5
A7
330
7B
100
AcDbEntity
  8
0
  6
Continuous
 62
     0
370
    30
100
AcDbCircle
 10
295.597973
 20
567.159389
 30
0.0
 40
13.99999999994449
100
AcDbArc
 50
178.542961
 51
181.457039
  0
ARC
  5
A8
330
7B
100
AcDbEntity
  8
0
  6
Continuous
 62
     0
370
    30
100
AcDbCircle
 10
295.597973
 20
567.159389
 30
0.0
 40
13.99999999994449
100
AcDbArc
 50
90.0
 51
125.980078
  0
ARC
  5
A9
330
7B
100
AcDbEntity
  8
0
  6
Continuous
 62
     0
370
     0
100
AcDbCircle
 10
295.597973
 20
567.159389
 30
0.0
 40
11.99999999995245
100
AcDbArc
 50
270.0
 51
315.130099
  0
ARC
  5
AA
330
7B
100
AcDbEntity
  8
0
  6
Continuous
 62
     0
370
     0
100
AcDbCircle
 10
295.597973
 20
567.159389
 30
0.0
 40
11.99999999995245
100
AcDbArc
 50
224.931138
 51
270.0
  0
ARC
  5
AB
330
7B
100
AcDbEntity
  8
0
  6
Continuous
 62
     0
370
    30
100
AcDbCircle
 10
295.597973
 20
567.159389
 30
0.0
 40
8.999999999964473
100
AcDbArc
 50
270.0
 51
329.327031
  0
ARC
  5
AC
330
7B
100
AcDbEntity
  8
0
  6
Continuous
 62
     0
370
    30
100
AcDbCircle
 10
295.597973
 20
567.159389
 30
0.0
 40
8.999999999964473
100
AcDbArc
 50
210.689597
 51
270.0
  0
ARC
  5
AD
330
7B
100
AcDbEntity
  8
0
  6
Continuous
 62
     0
370
    30
100
AcDbCircle
 10
295.597973
 20
567.159389
 30
0.0
 40
5.499999999978456
100
AcDbArc
 50
270.0
 51
315.420171
  0
ARC
  5
AE
330
7B
100
AcDbEntity
  8
0
  6
Continuous
 62
     0
370
    30
100
AcDbCircle
 10
295.597973
 20
567.159389
 30
0.0
 40
5.499999999978456
100
AcDbArc
 50
224.594775
 51
270.0
  0
LINE
  5
AF
330
7B
100
AcDbEntity
  8
0
  6
Continuous
 62
     0
370
    30
100
AcDbLine
 10
286.597973
 20
792.159389
 30
0.0
 11
286.597973
 21
598.659389
 31
0.0
  0
LINE
  5
B0
330
7B
100
AcDbEntity
  8
0
  6
Continuous
 62
     0
370
    30
100
AcDbLine
 10
286.597973
 20
535.659389
 30
0.0
 11
286.597973
 21
266.21767
 31
0.0
  0
LINE
  5
B1
330
7B
100
AcDbEntity
  8
0
  6
Continuous
 62
     0
370
    30
100
AcDbLine
 10
304.597973
 20
792.159389
 30
0.0
 11
304.597973
 21
598.659389
 31
0.0
  0
LINE
  5
B2
330
7B
100
AcDbEntity
  8
0
  6
Continuous
 62
     0
370
    30
100
AcDbLine
 10
304.597973
 20
535.659389
 30
0.0
 11
304.597973
 21
266.217783
 31
0.0
  0
LWPOLYLINE
  5
B3
330
7B
100
AcDbEntity
  8
0
  6
Continuous
 62
     0
370
    30
100
AcDbPolyline
 90
       36
 70
     0
 43
0.0
 10
295.597961
 20
819.217834
 10
296.669861
 20
819.179443
 10
297.736389
 20
819.064575
 10
298.791901
 20
818.87384
 10
299.831055
 20
818.608093
 10
300.848572
 20
818.268738
 10
301.839294
 20
817.857666
 10
302.798065
 20
817.37677
 10
303.720032
 20
816.828552
 10
304.600494
 20
816.215942
 10
305.434906
 20
815.541931
 10
306.218964
 20
814.809937
 10
306.9487
 20
814.023865
 10
307.620514
 20
813.187683
 10
308.230835
 20
812.305664
 10
308.77652
 20
811.382202
 10
309.2547
 20
810.422119
 10
309.662872
 20
809.430237
 10
309.999329
 20
808.411743
 10
310.262451
 20
807.371948
 10
310.450623
 20
806.315979
 10
310.562592
 20
805.249207
 10
310.598022
 20
804.177185
 10
310.556732
 20
803.105347
 10
310.438995
 20
802.039246
 10
310.245422
 20
800.984253
 10
309.976898
 20
799.945801
 10
309.634857
 20
798.929199
 10
309.221039
 20
797.939575
 10
308.737579
 20
796.982117
 10
308.18689
 20
796.061646
 10
307.571869
 20
795.182861
 10
306.89563
 20
794.350281
 10
306.161621
 20
793.568176
 10
305.373566
 20
792.840515
 10
304.519653
 20
792.159241
  0
LWPOLYLINE
  5
B4
330
7B
100
AcDbEntity
  8
0
  6
Continuous
 62
     0
370
    30
100
AcDbPolyline
 90
       36
 70
     0
 43
0.0
 10
295.597961
 20
819.217834
 10
294.526062
 20
819.179443
 10
293.459534
 20
819.064575
 10
292.404053
 20
818.87384
 10
291.364899
 20
818.608093
 10
290.347382
 20
818.268738
 10
289.356659
 20
817.857666
 10
288.397888
 20
817.37677
 10
287.475922
 20
816.828552
 10
286.595459
 20
816.215942
 10
285.761047
 20
815.541931
 10
284.97702
 20
814.809998
 10
284.247253
 20
814.023865
 10
283.575439
 20
813.187744
 10
282.965149
 20
812.305664
 10
282.419434
 20
811.382202
 10
281.941254
 20
810.422119
 10
281.533081
 20
809.430237
 10
281.196625
 20
808.411804
 10
280.933502
 20
807.371948
 10
280.745331
 20
806.31604
 10
280.633362
 20
805.249268
 10
280.597931
 20
804.177246
 10
280.639221
 20
803.105408
 10
280.756927
 20
802.039307
 10
280.950531
 20
800.984314
 10
281.219025
 20
799.945862
 10
281.561096
 20
798.929199
 10
281.974884
 20
797.939636
 10
282.458344
 20
796.982178
 10
283.009003
 20
796.061707
 10
283.624023
 20
795.182922
 10
284.300262
 20
794.350342
 10
285.034271
 20
793.568237
 10
285.822327
 20
792.840576
 10
286.676239
 20
792.159302
  0
ELLIPSE
  5
B5
330
7B
100
AcDbEntity
  8
0
  6
Continuous
 62
     0
370
     0
100
AcDbEllipse
 10
286.102499
 20
558.053701
 30
0.0
 11
-1.0
 21
0.0
 31
0.0
210
0.0
220
0.0
230
1.0
 40
0.311313
 41
1.570796326794897
 42
3.106653105081122
  0
LINE
  5
B6
330
7B
100
AcDbEntity
  8
0
  6
Continuous
 62
     0
370
     0
100
AcDbLine
 10
287.102499
 20
558.053825
 30
0.0
 11
287.101889
 21
558.042826
 31
0.0
  0
LINE
  5
B7
330
7B
100
AcDbEntity
  8
0
  6
Continuous
 62
     0
370
    30
100
AcDbLine
 10
287.102499
 20
558.053825
 30
0.0
 11
287.102499
 21
571.832902
 31
0.0
  0
LINE
  5
B8
330
7B
100
AcDbEntity
  8
0
  6
Continuous
 62
     0
370
    30
100
AcDbLine
 10
287.102499
 20
571.832902
 30
0.0
 11
287.102499
 21
571.849442
 31
0.0
  0
LWPOLYLINE
  5
B9
330
7B
100
AcDbEntity
  8
0
  6
Continuous
 62
     0
370
     0
100
AcDbPolyline
 90
        7
 70
     0
 43
0.0
 10
287.102509
 20
571.849121
 10
287.100464
 20
571.949463
 10
287.083099
 20
572.014771
 10
287.033142
 20
572.052917
 10
286.935883
 20
572.067871
 10
286.782043
 20
572.060608
 10
286.548706
 20
572.029724
  0
ELLIPSE
  5
BA
330
7B
100
AcDbEntity
  8
0
  6
Continuous
 62
     0
370
     0
100
AcDbEllipse
 10
286.102499
 20
572.308314
 30
0.0
 11
-1.0
 21
0.0
 31
0.0
210
0.0
220
0.0
230
1.0
 40
0.311313
 41
1.570796326794897
 42
2.033315013596689
  0
LINE
  5
BB
330
7B
100
AcDbEntity
  8
0
  6
Continuous
 62
     0
370
     0
100
AcDbLine
 10
286.102499
 20
557.742388
 30
0.0
 11
286.102499
 21
571.997001
 31
0.0
  0
ELLIPSE
  5
BC
330
7B
100
AcDbEntity
  8
0
  6
Continuous
 62
     0
370
     0
100
AcDbEllipse
 10
305.102499
 20
572.308314
 30
0.0
 11
-1.0
 21
0.0
 31
0.0
210
0.0
220
0.0
230
1.0
 40
0.311313
 41
1.108277639993019
 42
1.570796326794897
  0
LWPOLYLINE
  5
BD
330
7B
100
AcDbEntity
  8
0
  6
Continuous
 62
     0
370
     0
100
AcDbPolyline
 90
        7
 70
     0
 43
0.0
 10
304.102509
 20
571.849121
 10
304.104553
 20
571.949463
 10
304.121918
 20
572.014771
 10
304.171844
 20
572.052917
 10
304.269104
 20
572.067871
 10
304.422974
 20
572.060608
 10
304.656311
 20
572.029724
  0
LINE
  5
BE
330
7B
100
AcDbEntity
  8
0
  6
Continuous
 62
     0
370
    30
100
AcDbLine
 10
304.102499
 20
571.832902
 30
0.0
 11
304.102499
 21
571.849442
 31
0.0
  0
LINE
  5
BF
330
7B
100
AcDbEntity
  8
0
  6
Continuous
 62
     0
370
    30
100
AcDbLine
 10
304.102499
 20
558.053825
 30
0.0
 11
304.102499
 21
571.832902
 31
0.0
  0
LINE
  5
C0
330
7B
100
AcDbEntity
  8
0
  6
Continuous
 62
     0
370
     0
100
AcDbLine
 10
304.102499
 20
558.053825
 30
0.0
 11
304.10311
 21
558.042826
 31
0.0
  0
ELLIPSE
  5
C1
330
7B
100
AcDbEntity
  8
0
  6
Continuous
 62
     0
370
     0
100
AcDbEllipse
 10
305.102499
 20
558.053701
 30
0.0
 11
-1.0
 21
0.0
 31
0.0
210
0.0
220
0.0
230
1.0
 40
0.311313
 41
0.0349395485085795
 42
1.570796326794897
  0
LINE
  5
C2
330
7B
100
AcDbEntity
  8
0
  6
Continuous
 62
     0
370
     0
100
AcDbLine
 10
305.102499
 20
557.742388
 30
0.0
 11
305.102499
 21
571.997001
 31
0.0
  0
LINE
  5
C3
330
7B
100
AcDbEntity
  8
0
  6
Continuous
 62
     0
370
     0
100
AcDbLine
 10
305.19232
 20
557.742388
 30
0.0
 11
305.19232
 21
571.997001
 31
0.0
  0
ELLIPSE
  5
C4
330
7B
100
AcDbEntity
  8
0
  6
Continuous
 62
     0
370
     0
100
AcDbEllipse
 10
305.19232
 20
557.898044
 30
0.0
 11
-0.500000000000001
 21
0.0
 31
0.0
210
0.0
220
0.0
230
1.0
 40
0.311313
 41
1.570796326794897
 42
1.884778871559108
  0
LINE
  5
C5
330
7B
100
AcDbEntity
  8
0
  6
Continuous
 62
     0
370
     0
100
AcDbLine
 10
305.346744
 20
557.749998
 30
0.0
 11
305.346744
 21
572.004611
 31
0.0
  0
ELLIPSE
  5
C6
330
7B
100
AcDbEntity
  8
0
  6
Continuous
 62
     0
370
     0
100
AcDbEllipse
 10
305.19232
 20
572.152658
 30
0.0
 11
-0.500000000000001
 21
0.0
 31
0.0
210
0.0
220
0.0
230
1.0
 40
0.311313
 41
1.570796326794897
 42
1.884778871559067
  0
LINE
  5
C7
330
7B
100
AcDbEntity
  8
0
  6
Continuous
 62
     0
370
     0
100
AcDbLine
 10
305.102499
 20
572.627811
 30
0.0
 11
305.19232
 21
572.627811
 31
0.0
  0
ELLIPSE
  5
C8
330
7B
100
AcDbEntity
  8
0
  6
Continuous
 62
     0
370
     0
100
AcDbEllipse
 10
303.802499
 20
573.960229
 30
0.0
 11
-4.5
 21
0.0
 31
0.0
210
0.0
220
0.0
230
1.0
 40
0.311313
 41
1.884778871559011
 42
2.766206036231425
  0
ELLIPSE
  5
C9
330
7B
100
AcDbEntity
  8
0
  6
Continuous
 62
     0
370
     0
100
AcDbEllipse
 10
308.919512
 20
573.332475
 30
0.0
 11
-0.9999999999999989
 21
-1.460346981447497E-17
 31
0.0
210
0.0
220
0.0
230
1.0
 40
0.311313
 41
5.876443424764679
 42
5.907798689821164
  0
ELLIPSE
  5
CA
330
7B
100
AcDbEntity
  8
0
  6
Continuous
 62
     0
370
     0
100
AcDbEllipse
 10
295.602499
 20
575.118312
 30
0.0
 11
-13.5
 21
0.0
 31
0.0
210
0.0
220
0.0
230
1.0
 40
0.311313
 41
2.734850771174855
 42
6.727028895999709
  0
ELLIPSE
  5
CB
330
7B
100
AcDbEntity
  8
0
  6
Continuous
 62
     0
370
     0
100
AcDbEllipse
 10
287.402499
 20
573.960229
 30
0.0
 11
-4.5
 21
0.0
 31
0.0
210
0.0
220
0.0
230
1.0
 40
0.311313
 41
0.4797695375668614
 42
1.2568137820308
  0
LINE
  5
CC
330
7B
100
AcDbEntity
  8
0
  6
Continuous
 62
     0
370
     0
100
AcDbLine
 10
286.012679
 20
572.627811
 30
0.0
 11
286.102499
 21
572.627811
 31
0.0
  0
ELLIPSE
  5
CD
330
7B
100
AcDbEntity
  8
0
  6
Continuous
 62
     0
370
     0
100
AcDbEllipse
 10
286.102499
 20
572.783468
 30
0.0
 11
-0.5
 21
0.0
 31
0.0
210
0.0
220
0.0
230
1.0
 40
0.311313
 41
1.570796326794897
 42
2.033315013596578
  0
ELLIPSE
  5
CE
330
7B
100
AcDbEntity
  8
0
  6
Continuous
 62
     0
370
     0
100
AcDbEllipse
 10
295.602499
 20
575.118312
 30
0.0
 11
12.21568877480707
 21
0.0
 31
0.0
210
0.0
220
0.0
230
-1.0
 40
0.311313
 41
2.433225023534016
 42
6.991552937235372
  0
ELLIPSE
  5
CF
330
7B
100
AcDbEntity
  8
0
  6
Continuous
 62
     0
370
     0
100
AcDbEllipse
 10
305.102499
 20
572.783468
 30
0.0
 11
-0.5
 21
0.0
 31
0.0
210
0.0
220
0.0
230
1.0
 40
0.311313
 41
1.108277639992997
 42
1.570796326794897
  0
ELLIPSE
  5
D0
330
7B
100
AcDbEntity
  8
0
  6
Continuous
 62
     0
370
     0
100
AcDbEllipse
 10
303.802499
 20
559.230462
 30
0.0
 11
-5.0
 21
0.0
 31
0.0
210
0.0
220
0.0
230
1.0
 40
0.311313
 41
1.884778871559014
 42
2.766206036231413
  0
LINE
  5
D1
330
7B
100
AcDbEntity
  8
0
  6
Continuous
 62
     0
370
     0
100
AcDbLine
 10
308.454329
 20
558.659776
 30
0.0
 11
308.454329
 21
572.914389
 31
0.0
  0
ELLIPSE
  5
D2
330
7B
100
AcDbEntity
  8
0
  6
Continuous
 62
     0
370
     0
100
AcDbEllipse
 10
303.802499
 20
573.485076
 30
0.0
 11
-5.0
 21
0.0
 31
0.0
210
0.0
220
0.0
230
1.0
 40
0.311313
 41
1.884778871559011
 42
2.766206036231411
  0
LINE
  5
D3
330
7B
100
AcDbEntity
  8
0
  6
Continuous
 62
     0
370
     0
100
AcDbLine
 10
308.460305
 20
558.664288
 30
0.0
 11
308.460305
 21
572.918901
 31
0.0
  0
LINE
  5
D4
330
7B
100
AcDbEntity
  8
0
  6
Continuous
 62
     0
370
     0
100
AcDbLine
 10
282.95899
 20
558.516998
 30
0.0
 11
282.95899
 21
572.771611
 31
0.0
  0
ELLIPSE
  5
D5
330
7B
100
AcDbEntity
  8
0
  6
Continuous
 62
     0
370
     0
100
AcDbEllipse
 10
295.602499
 20
574.643158
 30
0.0
 11
-14.0
 21
0.0
 31
0.0
210
0.0
220
0.0
230
1.0
 40
0.311313
 41
6.283155685500949
 42
6.727028895999712
  0
ELLIPSE
  5
D6
330
7B
100
AcDbEntity
  8
0
  6
Continuous
 62
     0
370
     0
100
AcDbEllipse
 10
295.602499
 20
560.388545
 30
0.0
 11
-14.0
 21
0.0
 31
0.0
210
0.0
220
0.0
230
1.0
 40
0.311313
 41
0.0
 42
0.4438435888201244
  0
ELLIPSE
  5
D7
330
7B
100
AcDbEntity
  8
0
  6
Continuous
 62
     0
370
     0
100
AcDbEllipse
 10
295.602499
 20
560.388545
 30
0.0
 11
-14.0
 21
0.0
 31
0.0
210
0.0
220
0.0
230
1.0
 40
0.311313
 41
2.734850771174856
 42
3.141592653589794
  0
ELLIPSE
  5
D8
330
7B
100
AcDbEntity
  8
0
  6
Continuous
 62
     0
370
     0
100
AcDbEllipse
 10
295.602499
 20
574.643158
 30
0.0
 11
-14.0
 21
0.0
 31
0.0
210
0.0
220
0.0
230
1.0
 40
0.311313
 41
2.734850771174856
 42
3.14160761278119
  0
ELLIPSE
  5
D9
330
7B
100
AcDbEntity
  8
0
  6
Continuous
 62
     0
370
     0
100
AcDbEllipse
 10
283.410544
 20
558.583839
 30
0.0
 11
0.499999999999999
 21
-2.190520472171244E-17
 31
0.0
210
0.0
220
0.0
230
-1.0
 40
0.311313
 41
2.661823116022899
 42
2.697749064769612
  0
LINE
  5
DA
330
7B
100
AcDbEntity
  8
0
  6
Continuous
 62
     0
370
     0
100
AcDbLine
 10
282.966993
 20
558.511992
 30
0.0
 11
282.966993
 21
572.766605
 31
0.0
  0
ELLIPSE
  5
DB
330
7B
100
AcDbEntity
  8
0
  6
Continuous
 62
     0
370
     0
100
AcDbEllipse
 10
283.410544
 20
572.838452
 30
0.0
 11
0.499999999999999
 21
-2.190520472171244E-17
 31
0.0
210
0.0
220
0.0
230
-1.0
 40
0.311313
 41
2.661823116022893
 42
2.697749064769603
  0
ELLIPSE
  5
DC
330
7B
100
AcDbEntity
  8
0
  6
Continuous
 62
     0
370
     0
100
AcDbEllipse
 10
287.402499
 20
559.230462
 30
0.0
 11
-5.0
 21
0.0
 31
0.0
210
0.0
220
0.0
230
1.0
 40
0.311313
 41
0.479769537566864
 42
1.256813782030788
  0
LINE
  5
DD
330
7B
100
AcDbEntity
  8
0
  6
Continuous
 62
     0
370
     0
100
AcDbLine
 10
285.858255
 20
557.749998
 30
0.0
 11
285.858255
 21
572.004611
 31
0.0
  0
ELLIPSE
  5
DE
330
7B
100
AcDbEntity
  8
0
  6
Continuous
 62
     0
370
     0
100
AcDbEllipse
 10
287.402499
 20
573.485076
 30
0.0
 11
-5.0
 21
0.0
 31
0.0
210
0.0
220
0.0
230
1.0
 40
0.311313
 41
0.4797695375668853
 42
1.256813782030792
  0
ELLIPSE
  5
DF
330
7B
100
AcDbEntity
  8
0
  6
Continuous
 62
     0
370
     0
100
AcDbEllipse
 10
286.012679
 20
557.898044
 30
0.0
 11
0.5
 21
0.0
 31
0.0
210
0.0
220
0.0
230
-1.0
 40
0.311313
 41
1.570796326794907
 42
1.884778871559111
  0
LINE
  5
E0
330
7B
100
AcDbEntity
  8
0
  6
Continuous
 62
     0
370
     0
100
AcDbLine
 10
286.012679
 20
557.742388
 30
0.0
 11
286.012679
 21
571.997001
 31
0.0
  0
ELLIPSE
  5
E1
330
7B
100
AcDbEntity
  8
0
  6
Continuous
 62
     0
370
     0
100
AcDbEllipse
 10
286.012679
 20
572.152658
 30
0.0
 11
0.5
 21
0.0
 31
0.0
210
0.0
220
0.0
230
-1.0
 40
0.311313
 41
1.570796326794897
 42
1.884778871559064
  0
LINE
  5
E2
330
7B
100
AcDbEntity
  8
0
  6
Continuous
 62
     0
370
     0
100
AcDbLine
 10
286.012679
 20
557.742388
 30
0.0
 11
286.102499
 21
557.742388
 31
0.0
  0
LINE
  5
E3
330
7B
100
AcDbEntity
  8
0
  6
Continuous
 62
     0
370
     0
100
AcDbLine
 10
286.012679
 20
571.997001
 30
0.0
 11
286.102499
 21
571.997001
 31
0.0
  0
LWPOLYLINE
  5
E4
330
7B
100
AcDbEntity
  8
0
  6
Continuous
 62
     0
370
     0
100
AcDbPolyline
 90
        3
 70
     0
 43
0.0
 10
286.681274
 20
572.628296
 10
286.542694
 20
572.659668
 10
286.325592
 20
572.644165
  0
ELLIPSE
  5
E5
330
7B
100
AcDbEntity
  8
0
  6
Continuous
 62
     0
370
     0
100
AcDbEllipse
 10
295.602499
 20
574.20117
 30
0.0
 11
11.21629794778798
 21
0.0
 31
0.0
210
0.0
220
0.0
230
-1.0
 40
0.311313
 41
3.130072604932463
 42
6.294705354982876
  0
LWPOLYLINE
  5
E6
330
7B
100
AcDbEntity
  8
0
  6
Continuous
 62
     0
370
     0
100
AcDbPolyline
 90
        3
 70
     0
 43
0.0
 10
304.523743
 20
572.628296
 10
304.662323
 20
572.659668
 10
304.879395
 20
572.644165
  0
ELLIPSE
  5
E7
330
7B
100
AcDbEntity
  8
0
  6
Continuous
 62
     0
370
     0
100
AcDbEllipse
 10
295.602499
 20
560.896864
 30
0.0
 11
10.72740717490351
 21
0.0
 31
0.0
210
0.0
220
0.0
230
-1.0
 40
0.311313
 41
3.797716295959301
 42
5.627061664810078
  0
LINE
  5
E8
330
7B
100
AcDbEntity
  8
0
  6
Continuous
 62
     0
370
     0
100
AcDbLine
 10
305.102499
 20
557.742388
 30
0.0
 11
305.19232
 21
557.742388
 31
0.0
  0
LINE
  5
E9
330
7B
100
AcDbEntity
  8
0
  6
Continuous
 62
     0
370
     0
100
AcDbLine
 10
305.102499
 20
571.997001
 30
0.0
 11
305.19232
 21
571.997001
 31
0.0
  0
LINE
  5
EA
330
7B
100
AcDbEntity
  8
0
  6
Continuous
 62
     0
370
     0
100
AcDbLine
 10
305.19232
 20
572.627811
 30
0.0
 11
305.19232
 21
571.997001
 31
0.0
  0
LINE
  5
EB
330
7B
100
AcDbEntity
  8
0
  6
Continuous
 62
     0
370
     0
100
AcDbLine
 10
305.102499
 20
572.627811
 30
0.0
 11
305.102499
 21
571.997001
 31
0.0
  0
ELLIPSE
  5
EC
330
7B
100
AcDbEntity
  8
0
  6
Continuous
 62
     0
370
     0
100
AcDbEllipse
 10
304.879398
 20
572.169012
 30
0.0
 11
-0.07669029148048932
 21
-0.494083595348639
 31
0.0
210
0.0
220
0.0
230
-1.0
 40
0.424031
 41
1.21989350555322
 42
2.790689832348185
  0
ELLIPSE
  5
ED
330
7B
100
AcDbEntity
  8
0
  6
Continuous
 62
     0
370
     0
100
AcDbEllipse
 10
304.602805
 20
558.048263
 30
0.0
 11
0.4968778621870754
 21
0.05578879877182139
 31
0.0
210
0.0
220
0.0
230
1.0
 40
0.949728
 41
3.035359918477825
 42
3.176032587680091
  0
LINE
  5
EE
330
7B
100
AcDbEntity
  8
0
  6
Continuous
 62
     0
370
     0
100
AcDbLine
 10
305.102499
 20
557.398044
 30
0.0
 11
305.102499
 21
557.742388
 31
0.0
  0
LINE
  5
EF
330
7B
100
AcDbEntity
  8
0
  6
Continuous
 62
     0
370
     0
100
AcDbLine
 10
305.19232
 20
557.398044
 30
0.0
 11
305.19232
 21
557.742388
 31
0.0
  0
ELLIPSE
  5
F0
330
7B
100
AcDbEntity
  8
0
  6
Continuous
 62
     0
370
     0
100
AcDbEllipse
 10
305.19232
 20
557.898044
 30
0.0
 11
-0.05028908045434934
 21
0.4974645800326452
 31
0.0
210
0.0
220
0.0
230
-1.0
 40
0.293501
 41
1.902500620798222
 42
3.156389966116972
  0
ELLIPSE
  5
F1
330
7B
100
AcDbEntity
  8
0
  6
Continuous
 62
     0
370
     0
100
AcDbEllipse
 10
307.989146
 20
558.716845
 30
0.0
 11
0.309946150981443
 21
-0.3923434509352597
 31
0.0
210
0.0
220
0.0
230
1.0
 40
0.884134
 41
6.278221784290172
 42
7.124760978630647
  0
ELLIPSE
  5
F2
330
7B
100
AcDbEntity
  8
0
  6
Continuous
 62
     0
370
     0
100
AcDbEllipse
 10
308.001097
 20
558.725869
 30
0.0
 11
-0.2928725858898145
 21
0.4052476384067071
 31
0.0
210
0.0
220
0.0
230
-1.0
 40
0.872776
 41
2.262406953711739
 42
3.126592357891334
  0
ELLIPSE
  5
F3
330
7B
100
AcDbEntity
  8
0
  6
Continuous
 62
     0
370
     0
100
AcDbEllipse
 10
283.410544
 20
558.583839
 30
0.0
 11
-0.2738827797633382
 21
-0.4183159367620456
 31
0.0
210
0.0
220
0.0
230
-1.0
 40
0.85823
 41
0.0078124314346397
 42
0.9191025339660329
  0
ELLIPSE
  5
F4
330
7B
100
AcDbEntity
  8
0
  6
Continuous
 62
     0
370
     0
100
AcDbEllipse
 10
283.410544
 20
558.583839
 30
0.0
 11
0.2567152099245884
 21
0.4290656138557057
 31
0.0
210
0.0
220
0.0
230
1.0
 40
0.843019
 41
2.188019768172829
 42
3.150050738556111
  0
ELLIPSE
  5
F5
330
7B
100
AcDbEntity
  8
0
  6
Continuous
 62
     0
370
     0
100
AcDbEllipse
 10
286.012679
 20
557.898044
 30
0.0
 11
-0.05028908045434879
 21
-0.4974645800326462
 31
0.0
210
0.0
220
0.0
230
-1.0
 40
0.293501
 41
6.268387994724386
 42
7.52227733997116
  0
LINE
  5
F6
330
7B
100
AcDbEntity
  8
0
  6
Continuous
 62
     0
370
     0
100
AcDbLine
 10
286.012679
 20
557.742388
 30
0.0
 11
286.012679
 21
557.398044
 31
0.0
  0
LINE
  5
F7
330
7B
100
AcDbEntity
  8
0
  6
Continuous
 62
     0
370
     0
100
AcDbLine
 10
286.102499
 20
557.742388
 30
0.0
 11
286.102499
 21
557.398044
 31
0.0
  0
ELLIPSE
  5
F8
330
7B
100
AcDbEntity
  8
0
  6
Continuous
 62
     0
370
     0
100
AcDbEllipse
 10
286.602194
 20
558.048263
 30
0.0
 11
0.4968778621870745
 21
-0.05578879877182927
 31
0.0
210
0.0
220
0.0
230
1.0
 40
0.949728
 41
6.248110909922237
 42
6.389418042291632
  0
ELLIPSE
  5
F9
330
7B
100
AcDbEntity
  8
0
  6
Continuous
 62
     0
370
     0
100
AcDbEllipse
 10
286.325601
 20
572.169012
 30
0.0
 11
-0.07669029148048861
 21
0.494083595348639
 31
0.0
210
0.0
220
0.0
230
-1.0
 40
0.424031
 41
0.3509028212415116
 42
1.921699148036572
  0
LINE
  5
FA
330
7B
100
AcDbEntity
  8
0
  6
Continuous
 62
     0
370
     0
100
AcDbLine
 10
286.102499
 20
571.997001
 30
0.0
 11
286.102499
 21
572.627811
 31
0.0
  0
LINE
  5
FB
330
7B
100
AcDbEntity
  8
0
  6
Continuous
 62
     0
370
     0
100
AcDbLine
 10
286.012679
 20
571.997001
 30
0.0
 11
286.012679
 21
572.627811
 31
0.0
  0
ELLIPSE
  5
FC
330
7B
100
AcDbEntity
  8
0
  6
Continuous
 62
     0
370
     0
100
AcDbEllipse
 10
286.012679
 20
572.152658
 30
0.0
 11
0.05028908045434865
 21
0.4974645800326442
 31
0.0
210
0.0
220
0.0
230
1.0
 40
0.293501
 41
0.3317042940032708
 42
1.902500620798222
  0
ELLIPSE
  5
FD
330
7B
100
AcDbEntity
  8
0
  6
Continuous
 62
     0
370
     0
100
AcDbEllipse
 10
283.410544
 20
572.838452
 30
0.0
 11
-0.2567152099245884
 21
-0.4290656138557057
 31
0.0
210
0.0
220
0.0
230
-1.0
 40
0.843019
 41
0.9535728854169638
 42
2.524369212211854
  0
ELLIPSE
  5
FE
330
7B
100
AcDbEntity
  8
0
  6
Continuous
 62
     0
370
     0
100
AcDbEllipse
 10
283.410544
 20
572.838452
 30
0.0
 11
0.2738827797633382
 21
0.4183159367620456
 31
0.0
210
0.0
220
0.0
230
1.0
 40
0.85823
 41
0.6516937928287865
 42
2.22249011962364
  0
ELLIPSE
  5
FF
330
7B
100
AcDbEntity
  8
0
  6
Continuous
 62
     0
370
     0
100
AcDbEllipse
 10
308.001097
 20
572.980482
 30
0.0
 11
0.2928725858898145
 21
-0.4052476384067071
 31
0.0
210
0.0
220
0.0
230
1.0
 40
0.872776
 41
0.8791856998780547
 42
2.449982026673037
  0
ELLIPSE
  5
100
330
7B
100
AcDbEntity
  8
0
  6
Continuous
 62
     0
370
     0
100
AcDbEllipse
 10
307.989146
 20
572.971458
 30
0.0
 11
-0.3099461509814401
 21
0.392343450935262
 31
0.0
210
0.0
220
0.0
230
-1.0
 40
0.884134
 41
0.7292206553435552
 42
2.300016982138486
  0
ELLIPSE
  5
101
330
7B
100
AcDbEntity
  8
0
  6
Continuous
 62
     0
370
     0
100
AcDbEllipse
 10
305.19232
 20
572.152658
 30
0.0
 11
0.05028908045434814
 21
-0.4974645800326453
 31
0.0
210
0.0
220
0.0
230
1.0
 40
0.293501
 41
1.239092032791573
 42
2.809888359586326
  0
LINE
  5
102
330
7B
100
AcDbEntity
  8
0
  6
Continuous
 62
     0
370
     0
100
AcDbLine
 10
295.602499
 20
561.895147
 30
0.0
 11
295.688706
 21
563.514352
 31
0.0
  0
LINE
  5
103
330
7B
100
AcDbEntity
  8
0
  6
Continuous
 62
     0
370
     0
100
AcDbLine
 10
295.602499
 20
561.895147
 30
0.0
 11
295.516293
 21
563.514346
 31
0.0
  0
ARC
  5
104
330
7B
100
AcDbEntity
  8
0
  6
Continuous
 62
     0
370
    30
100
AcDbCircle
 10
295.609817
 20
566.948493
 30
0.0
 40
5.053351633152259
100
AcDbArc
 50
269.917037
 51
314.412005
  0
ARC
  5
105
330
7B
100
AcDbEntity
  8
0
  6
Continuous
 62
     0
370
    30
100
AcDbCircle
 10
295.594723
 20
566.947365
 30
0.0
 40
5.052224197261017
100
AcDbArc
 50
225.584726
 51
270.088188
  0
LWPOLYLINE
  5
106
330
7B
100
AcDbEntity
  8
0
  6
Continuous
 62
     0
370
    30
100
AcDbPolyline
 90
       47
 70
     0
 43
0.0
 10
281.602478
 20
574.643311
 10
281.644135
 20
575.028687
 10
281.764374
 20
575.402466
 10
281.95575
 20
575.755371
 10
282.210968
 20
576.08844
 10
282.524811
 20
576.402283
 10
282.89444
 20
576.698914
 10
283.317963
 20
576.980652
 10
283.794128
 20
577.24823
 10
284.321594
 20
577.502075
 10
284.898438
 20
577.741943
 10
285.522522
 20
577.967468
 10
286.19165
 20
578.178162
 10
286.903351
 20
578.373474
 10
287.654572
 20
578.552734
 10
288.442047
 20
578.71521
 10
289.262451
 20
578.860168
 10
290.111938
 20
578.987183
 10
290.986633
 20
579.095703
 10
291.88266
 20
579.18512
 10
292.79599
 20
579.255066
 10
293.722321
 20
579.305298
 10
294.657379
 20
579.335632
 10
295.596802
 20
579.345825
 10
296.536255
 20
579.335876
 10
297.471375
 20
579.305847
 10
298.397766
 20
579.255798
 10
299.311218
 20
579.185974
 10
300.207581
 20
579.096802
 10
301.082703
 20
578.988647
 10
301.932495
 20
578.861877
 10
302.753113
 20
578.717041
 10
303.541016
 20
578.55481
 10
304.292725
 20
578.375793
 10
305.004944
 20
578.180664
 10
305.674652
 20
577.970032
 10
306.299377
 20
577.744629
 10
306.87677
 20
577.505005
 10
307.404755
 20
577.251404
 10
307.8815
 20
576.983948
 10
308.305756
 20
576.702576
 10
308.676025
 20
576.405945
 10
308.99057
 20
576.092285
 10
309.246429
 20
575.759827
 10
309.43866
 20
575.406921
 10
309.560181
 20
575.033386
 10
309.602509
 20
574.64325
  0
LWPOLYLINE
  5
107
330
7B
100
AcDbEntity
  8
0
  6
Continuous
 62
     0
370
    30
100
AcDbPolyline
 90
        6
 70
     0
 43
0.0
 10
287.102509
 20
571.849487
 10
287.09845
 20
572.028564
 10
287.0672
 20
572.207153
 10
286.989075
 20
572.37915
 10
286.861511
 20
572.523499
 10
286.671356
 20
572.631958
  0
LWPOLYLINE
  5
108
330
7B
100
AcDbEntity
  8
0
  6
Continuous
 62
     0
370
    30
100
AcDbPolyline
 90
        8
 70
     0
 43
0.0
 10
286.102509
 20
557.398071
 10
286.292236
 20
557.406799
 10
286.472931
 20
557.432861
 10
286.639404
 20
557.477661
 10
286.792511
 20
557.546814
 10
286.930176
 20
557.650696
 10
287.037231
 20
557.793762
 10
287.099091
 20
557.99292
  0
LINE
  5
109
330
7B
100
AcDbEntity
  8
0
  6
Continuous
 62
     0
370
    30
100
AcDbLine
 10
286.012679
 20
557.398044
 30
0.0
 11
286.102499
 21
557.398044
 31
0.0
  0
LINE
  5
10A
330
7B
100
AcDbEntity
  8
0
  6
Continuous
 62
     0
370
    30
100
AcDbLine
 10
285.962241
 20
557.400621
 30
0.0
 11
286.012679
 21
557.398078
 31
0.0
  0
LWPOLYLINE
  5
10B
330
7B
100
AcDbEntity
  8
0
  6
Continuous
 62
     0
370
    30
100
AcDbPolyline
 90
        7
 70
     0
 43
0.0
 10
283.153839
 20
558.154785
 10
283.491241
 20
557.979858
 10
283.87851
 20
557.826233
 10
284.313141
 20
557.692261
 10
284.791168
 20
557.578125
 10
285.307098
 20
557.484375
 10
285.96225
 20
557.400635
  0
LWPOLYLINE
  5
10C
330
7B
100
AcDbEntity
  8
0
  6
Continuous
 62
     0
370
    30
100
AcDbPolyline
 90
        8
 70
     0
 43
0.0
 10
281.602478
 20
560.388672
 10
281.638733
 20
560.028687
 10
281.743896
 20
559.677856
 10
281.912323
 20
559.344666
 10
282.137939
 20
559.029053
 10
282.415253
 20
558.73114
 10
282.741516
 20
558.448425
 10
283.13385
 20
558.167358
  0
LWPOLYLINE
  5
10D
330
7B
100
AcDbEntity
  8
0
  6
Continuous
 62
     0
370
    30
100
AcDbPolyline
 90
        8
 70
     0
 43
0.0
 10
308.296509
 20
558.322449
 10
308.61322
 20
558.571106
 10
308.890472
 20
558.831421
 10
309.127411
 20
559.105042
 10
309.321198
 20
559.392761
 10
309.467957
 20
559.695129
 10
309.562897
 20
560.01178
 10
309.602509
 20
560.388611
  0
LWPOLYLINE
  5
10E
330
7B
100
AcDbEntity
  8
0
  6
Continuous
 62
     0
370
    30
100
AcDbPolyline
 90
        8
 70
     0
 43
0.0
 10
305.242767
 20
557.400635
 10
305.785156
 20
557.467346
 10
306.299438
 20
557.554932
 10
306.778473
 20
557.662476
 10
307.216736
 20
557.789124
 10
307.610107
 20
557.934814
 10
307.956055
 20
558.10022
 10
308.299194
 20
558.324585
  0
LINE
  5
10F
330
7B
100
AcDbEntity
  8
0
  6
Continuous
 62
     0
370
    30
100
AcDbLine
 10
305.242758
 20
557.400621
 30
0.0
 11
305.19232
 21
557.398078
 31
0.0
  0
LINE
  5
110
330
7B
100
AcDbEntity
  8
0
  6
Continuous
 62
     0
370
    30
100
AcDbLine
 10
305.102499
 20
557.398044
 30
0.0
 11
305.19232
 21
557.398044
 31
0.0
  0
LWPOLYLINE
  5
111
330
7B
100
AcDbEntity
  8
0
  6
Continuous
 62
     0
370
    30
100
AcDbPolyline
 90
        8
 70
     0
 43
0.0
 10
304.105927
 20
557.99292
 10
304.156403
 20
557.816345
 10
304.257812
 20
557.668152
 10
304.392517
 20
557.558716
 10
304.544098
 20
557.485413
 10
304.708862
 20
557.437744
 10
304.888031
 20
557.409241
 10
305.102509
 20
557.398071
  0
LWPOLYLINE
  5
112
330
7B
100
AcDbEntity
  8
0
  6
Continuous
 62
     0
370
    30
100
AcDbPolyline
 90
        6
 70
     0
 43
0.0
 10
304.53363
 20
572.631958
 10
304.365082
 20
572.540588
 10
304.232117
 20
572.403198
 10
304.146698
 20
572.235413
 10
304.109161
 20
572.058167
 10
304.102509
 20
571.855896
  0
LWPOLYLINE
  5
113
330
7B
100
AcDbEntity
  8
0
  6
Continuous
 62
     0
370
    30
100
AcDbPolyline
 90
       20
 70
     0
 43
0.0
 10
304.102509
 20
562.322021
 10
303.422028
 20
562.54364
 10
302.671265
 20
562.747742
 10
301.858459
 20
562.93158
 10
300.991394
 20
563.092712
 10
300.078033
 20
563.229553
 10
299.126617
 20
563.340759
 10
298.145386
 20
563.425171
 10
297.1427
 20
563.481934
 10
296.127136
 20
563.510681
 10
295.107147
 20
563.511108
 10
294.091309
 20
563.483154
 10
293.088196
 20
563.427124
 10
292.106262
 20
563.343445
 10
291.15387
 20
563.233032
 10
290.239319
 20
563.096985
 10
289.370819
 20
562.936523
 10
288.556213
 20
562.753357
 10
287.803528
 20
562.549744
 10
287.102509
 20
562.322021
  0
LWPOLYLINE
  5
114
330
7B
100
AcDbEntity
  8
0
  6
Continuous
 62
     0
370
    30
100
AcDbPolyline
 90
       11
 70
     0
 43
0.0
 10
304.535431
 20
572.632874
 10
305.012787
 20
572.818787
 10
305.440033
 20
573.010864
 10
305.813354
 20
573.20575
 10
306.128632
 20
573.399475
 10
306.382935
 20
573.58667
 10
306.574402
 20
573.760437
 10
306.703613
 20
573.910461
 10
306.777069
 20
574.027954
 10
306.809174
 20
574.106812
 10
306.817657
 20
574.16095
  0
LWPOLYLINE
  5
115
330
7B
100
AcDbEntity
  8
0
  6
Continuous
 62
     0
370
    30
100
AcDbPolyline
 90
       11
 70
     0
 43
0.0
 10
284.38736
 20
574.16095
 10
284.39444
 20
574.111633
 10
284.423798
 20
574.036194
 10
284.493225
 20
573.921631
 10
284.61734
 20
573.77417
 10
284.803406
 20
573.60199
 10
285.052368
 20
573.415649
 10
285.362549
 20
573.222351
 10
285.73111
 20
573.027405
 10
286.153748
 20
572.834961
 10
286.669556
 20
572.632874
  0
LINE
  5
116
330
7B
100
AcDbEntity
  8
0
  6
Continuous
 62
     0
370
    30
100
AcDbLine
 10
309.602499
 20
560.388545
 30
0.0
 11
309.602499
 21
574.643158
 31
0.0
  0
LINE
  5
117
330
7B
100
AcDbEntity
  8
0
  6
Continuous
 62
     0
370
    30
100
AcDbLine
 10
281.602499
 20
560.388545
 30
0.0
 11
281.602499
 21
574.643158
 31
0.0
  0
LINE
  5
118
330
7B
100
AcDbEntity
  8
0
  6
Continuous
 62
     0
370
     0
100
AcDbLine
 10
268.55586
 20
576.623675
 30
0.0
 11
268.55586
 21
558.093369
 31
0.0
  0
LINE
  5
119
330
7B
100
AcDbEntity
  8
0
  6
Continuous
 62
     0
370
     0
100
AcDbLine
 10
268.55586
 20
558.093369
 30
0.0
 11
268.55586
 21
557.695103
 31
0.0
  0
ARC
  5
11A
330
7B
100
AcDbEntity
  8
0
  6
Continuous
 62
     0
370
    30
100
AcDbCircle
 10
258.773991
 20
570.99207
 30
0.0
 40
5.157287751530196
100
AcDbArc
 50
334.235575
 51
345.40279
  0
LINE
  5
11B
330
7B
100
AcDbEntity
  8
0
  6
Continuous
 62
     0
370
     0
100
AcDbLine
 10
263.418587
 20
568.750341
 30
0.0
 11
263.418587
 21
555.508276
 31
0.0
  0
LWPOLYLINE
  5
11C
330
7B
100
AcDbEntity
  8
0
  6
Continuous
 62
     0
370
    30
100
AcDbPolyline
 90
        5
 70
     0
 43
0.0
 10
263.918579
 20
554.728271
 10
263.888641
 20
554.893555
 10
263.799316
 20
555.074219
 10
263.651886
 20
555.269592
 10
263.418579
 20
555.508301
  0
LINE
  5
11D
330
7B
100
AcDbEntity
  8
0
  6
Continuous
 62
     0
370
     0
100
AcDbLine
 10
273.258285
 20
573.409493
 30
0.0
 11
273.258285
 21
561.172295
 31
0.0
  0
LINE
  5
11E
330
7B
100
AcDbEntity
  8
0
  6
Continuous
 62
     0
370
     0
100
AcDbLine
 10
273.258285
 20
561.172295
 30
0.0
 11
273.258285
 21
560.909285
 31
0.0
  0
ELLIPSE
  5
11F
330
7B
100
AcDbEntity
  8
0
  6
Continuous
 62
     0
370
     0
100
AcDbEllipse
 10
258.918585
 20
546.205541
 30
0.0
 11
4.999999999979931
 21
0.0
 31
0.0
210
0.0
220
0.0
230
1.0
 40
0.287038
 41
0.0
 42
3.141592653589793
  0
LINE
  5
120
330
7B
100
AcDbEntity
  8
0
  6
Continuous
 62
     0
370
    30
100
AcDbLine
 10
253.918585
 20
554.706441
 30
0.0
 11
253.918585
 21
546.205541
 31
0.0
  0
LWPOLYLINE
  5
121
330
7B
100
AcDbEntity
  8
0
  6
Continuous
 62
     0
370
    30
100
AcDbPolyline
 90
       24
 70
     0
 43
0.0
 10
263.418579
 20
555.508301
 10
263.13504
 20
555.746765
 10
262.795563
 20
555.985596
 10
262.404907
 20
556.217834
 10
261.967651
 20
556.436523
 10
261.488617
 20
556.634766
 10
260.973145
 20
556.805481
 10
260.427368
 20
556.942078
 10
259.85849
 20
557.038696
 10
259.274628
 20
557.09082
 10
258.685028
 20
557.095764
 10
258.099182
 20
557.053345
 10
257.526489
 20
556.965637
 10
256.97525
 20
556.836914
 10
256.452942
 20
556.672791
 10
255.965881
 20
556.479675
 10
255.519531
 20
556.264648
 10
255.118759
 20
556.034668
 10
254.768326
 20
555.796692
 10
254.472855
 20
555.557617
 10
254.236511
 20
555.323975
 10
254.063263
 20
555.101868
 10
253.956619
 20
554.897095
 10
253.918579
 20
554.706421
  0
ELLIPSE
  5
122
330
7B
100
AcDbEntity
  8
0
  6
Continuous
 62
     0
370
     0
100
AcDbEllipse
 10
258.918585
 20
540.279954
 30
0.0
 11
7.142857142828414
 21
0.0
 31
0.0
210
0.0
220
0.0
230
1.0
 40
0.287038
 41
0.2381553928366076
 42
2.903436841996979
  0
ELLIPSE
  5
123
330
7B
100
AcDbEntity
  8
0
  6
Continuous
 62
     0
370
     0
100
AcDbEllipse
 10
258.918585
 20
534.765246
 30
0.0
 11
6.285714285688536
 21
0.0
 31
0.0
210
0.0
220
0.0
230
1.0
 40
0.287038
 41
0.0
 42
3.141592653589793
  0
ELLIPSE
  5
124
330
7B
100
AcDbEntity
  8
0
  6
Continuous
 62
     0
370
     0
100
AcDbEllipse
 10
258.918585
 20
534.765246
 30
0.0
 11
6.285714285688536
 21
0.0
 31
0.0
210
0.0
220
0.0
230
1.0
 40
0.287038
 41
5.838319033739169
 42
6.283185307179586
  0
ELLIPSE
  5
125
330
7B
100
AcDbEntity
  8
0
  6
Continuous
 62
     0
370
     0
100
AcDbEllipse
 10
258.918585
 20
534.765246
 30
0.0
 11
6.285714285688536
 21
0.0
 31
0.0
210
0.0
220
0.0
230
1.0
 40
0.287038
 41
3.141592653589825
 42
3.586458001051332
  0
LWPOLYLINE
  5
126
330
7B
100
AcDbEntity
  8
0
  6
Continuous
 62
     0
370
    30
100
AcDbPolyline
 90
       22
 70
     0
 43
0.0
 10
254.073364
 20
569.691528
 10
254.250107
 20
569.140747
 10
254.489059
 20
568.609558
 10
254.786285
 20
568.105774
 10
255.13768
 20
567.636658
 10
255.538651
 20
567.208374
 10
255.984528
 20
566.827087
 10
256.47052
 20
566.498535
 10
256.99115
 20
566.228577
 10
257.540253
 20
566.022522
 10
258.110352
 20
565.885071
 10
258.693329
 20
565.819763
 10
259.279907
 20
565.828369
 10
259.860718
 20
565.910645
 10
260.426636
 20
566.064453
 10
260.969696
 20
566.285828
 10
261.482849
 20
566.569824
 10
261.959961
 20
566.911133
 10
262.395813
 20
567.303833
 10
262.785645
 20
567.742126
 10
263.124969
 20
568.220093
 10
263.418579
 20
568.750366
  0
ELLIPSE
  5
127
330
7B
100
AcDbEntity
  8
0
  6
Continuous
 62
     0
370
     0
100
AcDbEllipse
 10
258.918585
 20
576.866221
 30
0.0
 11
-6.285714285688536
 21
0.0
 31
0.0
210
0.0
220
0.0
230
1.0
 40
0.957919
 41
3.141592653589817
 42
6.283185307179581
  0
ELLIPSE
  5
128
330
7B
100
AcDbEntity
  8
0
  6
Continuous
 62
     0
370
     0
100
AcDbEllipse
 10
258.918585
 20
576.866221
 30
0.0
 11
-6.285714285688536
 21
0.0
 31
0.0
210
0.0
220
0.0
230
1.0
 40
0.957919
 41
0.0
 42
3.141592653589817
  0
ELLIPSE
  5
129
330
7B
100
AcDbEntity
  8
0
  6
Continuous
 62
     0
370
     0
100
AcDbEllipse
 10
258.918585
 20
588.113237
 30
0.0
 11
-4.999999999979931
 21
0.0
 31
0.0
210
0.0
220
0.0
230
-1.0
 40
0.287038
 41
0.0
 42
3.141592653589813
  0
LINE
  5
12A
330
7B
100
AcDbEntity
  8
0
  6
Continuous
 62
     0
370
    30
100
AcDbLine
 10
253.918585
 20
582.037871
 30
0.0
 11
253.918585
 21
588.113237
 31
0.0
  0
ELLIPSE
  5
12B
330
7B
100
AcDbEntity
  8
0
  6
Continuous
 62
     0
370
     0
100
AcDbEllipse
 10
258.918585
 20
594.038824
 30
0.0
 11
-7.142857142828414
 21
0.0
 31
0.0
210
0.0
220
0.0
230
-1.0
 40
0.287038
 41
6.045028939455304
 42
6.283185307179586
  0
ELLIPSE
  5
12C
330
7B
100
AcDbEntity
  8
0
  6
Continuous
 62
     0
370
     0
100
AcDbEllipse
 10
258.918585
 20
594.038824
 30
0.0
 11
-7.142857142828414
 21
0.0
 31
0.0
210
0.0
220
0.0
230
-1.0
 40
0.287038
 41
3.141592653589793
 42
3.379749021314032
  0
ELLIPSE
  5
12D
330
7B
100
AcDbEntity
  8
0
  6
Continuous
 62
     0
370
     0
100
AcDbEllipse
 10
258.918585
 20
594.038824
 30
0.0
 11
-7.142857142828414
 21
0.0
 31
0.0
210
0.0
220
0.0
230
-1.0
 40
0.287038
 41
0.0
 42
3.141592653589793
  0
ELLIPSE
  5
12E
330
7B
100
AcDbEntity
  8
0
  6
Continuous
 62
     0
370
     0
100
AcDbEllipse
 10
258.918585
 20
599.553532
 30
0.0
 11
-6.285714285688536
 21
0.0
 31
0.0
210
0.0
220
0.0
230
-1.0
 40
0.287038
 41
0.4448644139694037
 42
2.696728478980241
  0
LINE
  5
12F
330
7B
100
AcDbEntity
  8
0
  6
Continuous
 62
     0
370
     0
100
AcDbLine
 10
246.918587
 20
570.666137
 30
0.0
 11
246.918587
 21
580.159392
 31
0.0
  0
LINE
  5
130
330
7B
100
AcDbEntity
  8
0
  6
Continuous
 62
     0
370
     0
100
AcDbLine
 10
246.918587
 20
554.159386
 30
0.0
 11
246.918587
 21
570.666137
 31
0.0
  0
LINE
  5
131
330
7B
100
AcDbEntity
  8
0
  6
Continuous
 62
     0
370
    30
100
AcDbLine
 10
241.918587
 20
559.159386
 30
0.0
 11
241.918587
 21
569.317388
 31
0.0
  0
LINE
  5
132
330
7B
100
AcDbEntity
  8
0
  6
Continuous
 62
     0
370
    30
100
AcDbLine
 10
241.918587
 20
569.317388
 30
0.0
 11
241.918587
 21
575.159392
 31
0.0
  0
LINE
  5
133
330
7B
100
AcDbEntity
  8
0
  6
Continuous
 62
     0
370
    30
100
AcDbLine
 10
246.918586
 20
554.159389
 30
0.0
 11
253.918585
 21
554.159389
 31
0.0
  0
LINE
  5
134
330
7B
100
AcDbEntity
  8
0
  6
Continuous
 62
     0
370
    30
100
AcDbLine
 10
246.918586
 20
580.159389
 30
0.0
 11
252.188988
 21
580.159389
 31
0.0
  0
ARC
  5
135
330
7B
100
AcDbEntity
  8
0
  6
Continuous
 62
     0
370
    30
100
AcDbCircle
 10
246.918593
 20
575.159386
 30
0.0
 40
5.000006581817951
100
AcDbArc
 50
90.000075
 51
179.999925
  0
ARC
  5
136
330
7B
100
AcDbEntity
  8
0
  6
Continuous
 62
     0
370
    30
100
AcDbCircle
 10
246.918593
 20
559.159392
 30
0.0
 40
5.000006581817958
100
AcDbArc
 50
180.000075
 51
269.999925
  0
LWPOLYLINE
  5
137
330
7B
100
AcDbEntity
  8
0
  6
Continuous
 62
     0
370
    30
100
AcDbPolyline
 90
        6
 70
     0
 43
0.0
 10
263.918579
 20
552.280701
 10
264.404114
 20
552.693542
 10
264.854492
 20
553.143738
 10
265.266815
 20
553.628357
 10
265.638306
 20
554.144287
 10
266.038849
 20
554.823792
  0
LWPOLYLINE
  5
138
330
7B
100
AcDbEntity
  8
0
  6
Continuous
 62
     0
370
    30
100
AcDbPolyline
 90
        5
 70
     0
 43
0.0
 10
252.18898
 20
554.159363
 10
252.531189
 20
553.67865
 10
252.908844
 20
553.224731
 10
253.319778
 20
552.80011
 10
253.918579
 20
552.280884
  0
ARC
  5
139
330
7B
100
AcDbEntity
  8
0
  6
Continuous
 62
     0
370
    30
100
AcDbCircle
 10
258.918585
 20
590.906236
 30
0.0
 40
10.9999979042687
100
AcDbArc
 50
58.948354
 51
121.051661
  0
LWPOLYLINE
  5
13A
330
7B
100
AcDbEntity
  8
0
  6
Continuous
 62
     0
370
    30
100
AcDbPolyline
 90
       15
 70
     0
 43
0.0
 10
265.859833
 20
593.555115
 10
266.194092
 20
594.002563
 10
266.47348
 20
594.493225
 10
266.68985
 20
595.019043
 10
266.83667
 20
595.571228
 10
266.910187
 20
596.139282
 10
266.907928
 20
596.712524
 10
266.830109
 20
597.279907
 10
266.678925
 20
597.83075
 10
266.458771
 20
598.354858
 10
266.175812
 20
598.843018
 10
265.838684
 20
599.287781
 10
265.457184
 20
599.683777
 10
265.042023
 20
600.028625
 10
264.592499
 20
600.329956
  0
LWPOLYLINE
  5
13B
330
7B
100
AcDbEntity
  8
0
  6
Continuous
 62
     0
370
    30
100
AcDbPolyline
 90
        7
 70
     0
 43
0.0
 10
251.977341
 20
593.555115
 10
251.677658
 20
593.950623
 10
251.420532
 20
594.38092
 10
251.211945
 20
594.840454
 10
251.056824
 20
595.323242
 10
250.958496
 20
595.82251
 10
250.918579
 20
596.409058
  0
LWPOLYLINE
  5
13C
330
7B
100
AcDbEntity
  8
0
  6
Continuous
 62
     0
370
    30
100
AcDbPolyline
 90
       10
 70
     0
 43
0.0
 10
253.244675
 20
600.329956
 10
252.830765
 20
600.054932
 10
252.437103
 20
599.73584
 10
252.072006
 20
599.371216
 10
251.744141
 20
598.963013
 10
251.462326
 20
598.515076
 10
251.233932
 20
598.032776
 10
251.064346
 20
597.52356
 10
250.958496
 20
596.9953
 10
250.918579
 20
596.409058
  0
LWPOLYLINE
  5
13D
330
7B
100
AcDbEntity
  8
0
  6
Continuous
 62
     0
370
    30
100
AcDbPolyline
 90
        9
 70
     0
 43
0.0
 10
263.918579
 20
588.11322
 10
263.952087
 20
588.878601
 10
264.052094
 20
589.636108
 10
264.216858
 20
590.377014
 10
264.443024
 20
591.093079
 10
264.726593
 20
591.775818
 10
265.060425
 20
592.416077
 10
265.435608
 20
593.004395
 10
265.859833
 20
593.555115
  0
LWPOLYLINE
  5
13E
330
7B
100
AcDbEntity
  8
0
  6
Continuous
 62
     0
370
    30
100
AcDbPolyline
 90
        9
 70
     0
 43
0.0
 10
253.918579
 20
588.11322
 10
253.885086
 20
588.878601
 10
253.78508
 20
589.636108
 10
253.620316
 20
590.377014
 10
253.394135
 20
591.093079
 10
253.110565
 20
591.775818
 10
252.776733
 20
592.416077
 10
252.40155
 20
593.004395
 10
251.977341
 20
593.555115
  0
LINE
  5
13F
330
7B
100
AcDbEntity
  8
0
  6
Continuous
 62
     0
370
    30
100
AcDbLine
 10
263.918585
 20
582.038086
 30
0.0
 11
263.918585
 21
588.113237
 31
0.0
  0
LWPOLYLINE
  5
140
330
7B
100
AcDbEntity
  8
0
  6
Continuous
 62
     0
370
    30
100
AcDbPolyline
 90
       65
 70
     0
 43
0.0
 10
250.918579
 20
575.924011
 10
250.95752
 20
576.695923
 10
251.073914
 20
577.460144
 10
251.266556
 20
578.209045
 10
251.533356
 20
578.935303
 10
251.871582
 20
579.631714
 10
252.277695
 20
580.291565
 10
252.747513
 20
580.908569
 10
253.276382
 20
581.476746
 10
253.859055
 20
581.990784
 10
254.489563
 20
582.446228
 10
255.16185
 20
582.838806
 10
255.869598
 20
583.164795
 10
256.605988
 20
583.421448
 10
257.364014
 20
583.606323
 10
258.136566
 20
583.71814
 10
258.916412
 20
583.755676
 10
259.69632
 20
583.718567
 10
260.468933
 20
583.607239
 10
261.227051
 20
583.422668
 10
261.963562
 20
583.166382
 10
262.671478
 20
582.840759
 10
263.344086
 20
582.448669
 10
263.974854
 20
581.993591
 10
264.557709
 20
581.479736
 10
265.086853
 20
580.911804
 10
265.557068
 20
580.295105
 10
265.963501
 20
579.635498
 10
266.302124
 20
578.93927
 10
266.569305
 20
578.213135
 10
266.76236
 20
577.464355
 10
266.879181
 20
576.700195
 10
266.918518
 20
575.928345
 10
266.880096
 20
575.156433
 10
266.764099
 20
574.392151
 10
266.57196
 20
573.643127
 10
266.305511
 20
572.916809
 10
265.967743
 20
572.220154
 10
265.561981
 20
571.56012
 10
265.092499
 20
570.942871
 10
264.563995
 20
570.37439
 10
263.98172
 20
569.859863
 10
263.35144
 20
569.404114
 10
262.679291
 20
569.011292
 10
261.971741
 20
568.684875
 10
261.235535
 20
568.427795
 10
260.4776
 20
568.242432
 10
259.705078
 20
568.13031
 10
258.925232
 20
568.092346
 10
258.145325
 20
568.128967
 10
257.37265
 20
568.239868
 10
256.614441
 20
568.424072
 10
255.877808
 20
568.679932
 10
255.169678
 20
569.005127
 10
254.496841
 20
569.396851
 10
253.865799
 20
569.851562
 10
253.282791
 20
570.365234
 10
252.753342
 20
570.932861
 10
252.282639
 20
571.549194
 10
251.875748
 20
572.208557
 10
251.536896
 20
572.904602
 10
251.269333
 20
573.630493
 10
251.075699
 20
574.379211
 10
250.95842
 20
575.143616
 10
250.918579
 20
575.924011
  0
ARC
  5
141
330
7B
100
AcDbEntity
  8
0
  6
Continuous
 62
     0
370
    30
100
AcDbCircle
 10
258.918585
 20
543.412542
 30
0.0
 40
10.99999790426881
100
AcDbArc
 50
238.948339
 51
301.051646
  0
LWPOLYLINE
  5
142
330
7B
100
AcDbEntity
  8
0
  6
Continuous
 62
     0
370
    30
100
AcDbPolyline
 90
       15
 70
     0
 43
0.0
 10
265.859833
 20
540.763611
 10
266.194092
 20
540.316162
 10
266.47348
 20
539.825562
 10
266.68985
 20
539.299683
 10
266.83667
 20
538.747559
 10
266.910187
 20
538.179504
 10
266.907928
 20
537.606262
 10
266.830109
 20
537.038879
 10
266.678925
 20
536.487976
 10
266.458771
 20
535.963928
 10
266.175812
 20
535.475769
 10
265.838684
 20
535.031006
 10
265.457184
 20
534.63501
 10
265.042023
 20
534.290161
 10
264.592499
 20
533.988831
  0
LWPOLYLINE
  5
143
330
7B
100
AcDbEntity
  8
0
  6
Continuous
 62
     0
370
    30
100
AcDbPolyline
 90
        7
 70
     0
 43
0.0
 10
251.977341
 20
540.763611
 10
251.677658
 20
540.368164
 10
251.420532
 20
539.937866
 10
251.211945
 20
539.478333
 10
251.056824
 20
538.995483
 10
250.958496
 20
538.496277
 10
250.918579
 20
537.909729
  0
LWPOLYLINE
  5
144
330
7B
100
AcDbEntity
  8
0
  6
Continuous
 62
     0
370
    30
100
AcDbPolyline
 90
       10
 70
     0
 43
0.0
 10
253.244675
 20
533.988831
 10
252.830765
 20
534.263855
 10
252.437103
 20
534.582947
 10
252.072006
 20
534.947571
 10
251.744141
 20
535.355774
 10
251.462326
 20
535.803711
 10
251.233932
 20
536.286011
 10
251.064346
 20
536.795227
 10
250.958496
 20
537.323486
 10
250.918579
 20
537.909729
  0
LWPOLYLINE
  5
145
330
7B
100
AcDbEntity
  8
0
  6
Continuous
 62
     0
370
    30
100
AcDbPolyline
 90
        9
 70
     0
 43
0.0
 10
263.918579
 20
546.205566
 10
263.952087
 20
545.440186
 10
264.052094
 20
544.682678
 10
264.216858
 20
543.941711
 10
264.443024
 20
543.225708
 10
264.726593
 20
542.542969
 10
265.060425
 20
541.90271
 10
265.435608
 20
541.314392
 10
265.859833
 20
540.763611
  0
LWPOLYLINE
  5
146
330
7B
100
AcDbEntity
  8
0
  6
Continuous
 62
     0
370
    30
100
AcDbPolyline
 90
        9
 70
     0
 43
0.0
 10
253.918579
 20
546.205566
 10
253.885086
 20
545.440186
 10
253.78508
 20
544.682678
 10
253.620316
 20
543.941711
 10
253.394135
 20
543.225708
 10
253.110565
 20
542.542969
 10
252.776733
 20
541.90271
 10
252.40155
 20
541.314392
 10
251.977341
 20
540.763611
  0
LINE
  5
147
330
7B
100
AcDbEntity
  8
0
  6
Continuous
 62
     0
370
    30
100
AcDbLine
 10
263.918585
 20
554.728257
 30
0.0
 11
263.918585
 21
546.205541
 31
0.0
  0
LINE
  5
148
330
7B
100
AcDbEntity
  8
0
  6
Continuous
 62
     0
370
    30
100
AcDbLine
 10
273.258285
 20
560.909285
 30
0.0
 11
275.92805
 21
560.900695
 31
0.0
  0
LINE
  5
149
330
7B
100
AcDbEntity
  8
0
  6
Continuous
 62
     0
370
    30
100
AcDbLine
 10
273.258285
 20
573.409493
 30
0.0
 11
275.92804
 21
573.418083
 31
0.0
  0
ARC
  5
14A
330
7B
100
AcDbEntity
  8
0
  6
Continuous
 62
     0
370
    30
100
AcDbCircle
 10
273.226264
 20
555.909163
 30
0.0
 40
5.000225295551456
100
AcDbArc
 50
89.633078
 51
159.073379
  0
ARC
  5
14B
330
7B
100
AcDbEntity
  8
0
  6
Continuous
 62
     0
370
    30
100
AcDbCircle
 10
273.226264
 20
578.409615
 30
0.0
 40
5.000225295551788
100
AcDbArc
 50
200.926621
 51
270.366922
  0
ARC
  5
14C
330
7B
100
AcDbEntity
  8
0
  6
Continuous
 62
     0
370
    30
100
AcDbCircle
 10
263.415604
 20
574.656607
 30
0.0
 40
5.503779841919687
100
AcDbArc
 50
20.940794
 51
61.534708
  0
ARC
  5
14D
330
7B
100
AcDbEntity
  8
0
  6
Continuous
 62
     0
370
    30
100
AcDbCircle
 10
263.417944
 20
559.660238
 30
0.0
 40
5.500903408732913
100
AcDbArc
 50
275.22175
 51
339.069299
  0
ENDBLK
  5
14F
330
7B
100
AcDbEntity
  8
0
100
AcDbBlockEnd
  0
BLOCK
  5
213
330
151
100
AcDbEntity
  8
0
100
AcDbBlockBegin
  2
b
 70
     0
 10
0.0
 20
138.044342
 30
0.0
  3
b
  1

  0
ARC
  5
152
330
151
100
AcDbEntity
  8
0
  6
Continuous
 62
     0
370
    30
100
AcDbCircle
 10
295.598372
 20
34.273816
 30
0.0
 40
19.99957861279166
100
AcDbArc
 50
303.366439
 51
51.340098
  0
ARC
  5
153
330
151
100
AcDbEntity
  8
0
  6
Continuous
 62
     0
370
    30
100
AcDbCircle
 10
295.598768
 20
34.274409
 30
0.0
 40
20.00091281464593
100
AcDbArc
 50
198.243596
 51
236.631982
  0
ARC
  5
154
330
151
100
AcDbEntity
  8
0
  6
Continuous
 62
     0
370
    30
100
AcDbCircle
 10
295.599095
 20
34.273172
 30
0.0
 40
20.00122385384589
100
AcDbArc
 50
128.661645
 51
161.756422
  0
LINE
  5
155
330
151
100
AcDbEntity
  8
0
  6
Continuous
 62
     0
370
    30
100
AcDbLine
 10
295.597973
 20
19.718967
 30
0.0
 11
287.597973
 21
19.718967
 31
0.0
  0
LINE
  5
156
330
151
100
AcDbEntity
  8
0
  6
Continuous
 62
     0
370
    30
100
AcDbLine
 10
303.597973
 20
19.718967
 30
0.0
 11
295.597973
 21
19.718967
 31
0.0
  0
LINE
  5
157
330
151
100
AcDbEntity
  8
0
  6
Continuous
 62
     0
370
    30
100
AcDbLine
 10
295.597973
 20
20.218967
 30
0.0
 11
287.597973
 21
20.218967
 31
0.0
  0
LINE
  5
158
330
151
100
AcDbEntity
  8
0
  6
Continuous
 62
     0
370
    30
100
AcDbLine
 10
303.597973
 20
20.218967
 30
0.0
 11
295.597973
 21
20.218967
 31
0.0
  0
LINE
  5
159
330
151
100
AcDbEntity
  8
0
  6
Continuous
 62
     0
370
    30
100
AcDbLine
 10
295.597973
 20
47.218967
 30
0.0
 11
285.597973
 21
47.218967
 31
0.0
  0
LINE
  5
15A
330
151
100
AcDbEntity
  8
0
  6
Continuous
 62
     0
370
    30
100
AcDbLine
 10
305.597973
 20
47.218967
 30
0.0
 11
295.597973
 21
47.218967
 31
0.0
  0
LINE
  5
15B
330
151
100
AcDbEntity
  8
0
  6
Continuous
 62
     0
370
    30
100
AcDbLine
 10
295.597973
 20
52.218967
 30
0.0
 11
284.839163
 21
52.218967
 31
0.0
  0
LINE
  5
15C
330
151
100
AcDbEntity
  8
0
  6
Continuous
 62
     0
370
    30
100
AcDbLine
 10
306.356783
 20
52.218967
 30
0.0
 11
295.597973
 21
52.218967
 31
0.0
  0
LINE
  5
15D
330
151
100
AcDbEntity
  8
0
  6
Continuous
 62
     0
370
     0
100
AcDbLine
 10
295.597973
 20
55.808135
 30
0.0
 11
280.042335
 21
55.808135
 31
0.0
  0
LINE
  5
15E
330
151
100
AcDbEntity
  8
0
  6
Continuous
 62
     0
370
     0
100
AcDbLine
 10
311.153611
 20
55.808135
 30
0.0
 11
295.597973
 21
55.808135
 31
0.0
  0
LINE
  5
15F
330
151
100
AcDbEntity
  8
0
  6
Continuous
 62
     0
370
     0
100
AcDbLine
 10
295.597973
 20
69.218967
 30
0.0
 11
276.097973
 21
69.218967
 31
0.0
  0
LINE
  5
160
330
151
100
AcDbEntity
  8
0
  6
Continuous
 62
     0
370
     0
100
AcDbLine
 10
315.097973
 20
69.218967
 30
0.0
 11
295.597973
 21
69.218967
 31
0.0
  0
LINE
  5
161
330
151
100
AcDbEntity
  8
0
  6
Continuous
 62
     0
370
     0
100
AcDbLine
 10
295.597973
 20
85.363403
 30
0.0
 11
266.545497
 21
85.363403
 31
0.0
  0
LINE
  5
162
330
151
100
AcDbEntity
  8
0
  6
Continuous
 62
     0
370
     0
100
AcDbLine
 10
324.650449
 20
85.363403
 30
0.0
 11
295.597973
 21
85.363403
 31
0.0
  0
LINE
  5
163
330
151
100
AcDbEntity
  8
0
  6
Continuous
 62
     0
370
     0
100
AcDbLine
 10
295.597973
 20
87.551403
 30
0.0
 11
265.597973
 21
87.551403
 31
0.0
  0
LINE
  5
164
330
151
100
AcDbEntity
  8
0
  6
Continuous
 62
     0
370
     0
100
AcDbLine
 10
325.597973
 20
87.551403
 30
0.0
 11
295.597973
 21
87.551403
 31
0.0
  0
LINE
  5
165
330
151
100
AcDbEntity
  8
0
  6
Continuous
 62
     0
370
    30
100
AcDbLine
 10
295.597973
 20
94.218967
 30
0.0
 11
265.597973
 21
94.218967
 31
0.0
  0
LINE
  5
166
330
151
100
AcDbEntity
  8
0
  6
Continuous
 62
     0
370
    30
100
AcDbLine
 10
325.597973
 20
94.218967
 30
0.0
 11
295.597973
 21
94.218967
 31
0.0
  0
LINE
  5
167
330
151
100
AcDbEntity
  8
0
  6
Continuous
 62
     0
370
     0
100
AcDbLine
 10
295.597973
 20
0.299483
 30
0.0
 11
281.597973
 21
0.299483
 31
0.0
  0
LINE
  5
168
330
151
100
AcDbEntity
  8
0
  6
Continuous
 62
     0
370
     0
100
AcDbLine
 10
309.597973
 20
0.299483
 30
0.0
 11
295.597973
 21
0.299483
 31
0.0
  0
LINE
  5
169
330
151
100
AcDbEntity
  8
0
  6
Continuous
 62
     0
370
     0
100
AcDbLine
 10
309.597973
 20
-9.700517
 30
0.0
 11
295.597973
 21
-9.700517
 31
0.0
  0
LINE
  5
16A
330
151
100
AcDbEntity
  8
0
  6
Continuous
 62
     0
370
     0
100
AcDbLine
 10
295.597973
 20
-9.700517
 30
0.0
 11
281.597973
 21
-9.700517
 31
0.0
  0
LINE
  5
16B
330
151
100
AcDbEntity
  8
0
  6
Continuous
 62
     0
370
    30
100
AcDbLine
 10
307.597973
 20
-11.700517
 30
0.0
 11
295.597973
 21
-11.700517
 31
0.0
  0
LINE
  5
16C
330
151
100
AcDbEntity
  8
0
  6
Continuous
 62
     0
370
    30
100
AcDbLine
 10
295.597973
 20
-11.700517
 30
0.0
 11
283.597973
 21
-11.700517
 31
0.0
  0
LINE
  5
16D
330
151
100
AcDbEntity
  8
0
  6
Continuous
 62
     0
370
    30
100
AcDbLine
 10
301.097973
 20
-15.200517
 30
0.0
 11
295.597973
 21
-15.200517
 31
0.0
  0
LINE
  5
16E
330
151
100
AcDbEntity
  8
0
  6
Continuous
 62
     0
370
    30
100
AcDbLine
 10
295.597973
 20
-15.200517
 30
0.0
 11
290.097973
 21
-15.200517
 31
0.0
  0
LINE
  5
16F
330
151
100
AcDbEntity
  8
0
  6
Continuous
 62
     0
370
    30
100
AcDbLine
 10
308.597973
 20
1.299483
 30
0.0
 11
295.597973
 21
1.299483
 31
0.0
  0
LINE
  5
170
330
151
100
AcDbEntity
  8
0
  6
Continuous
 62
     0
370
    30
100
AcDbLine
 10
295.597973
 20
1.299483
 30
0.0
 11
282.597973
 21
1.299483
 31
0.0
  0
ARC
  5
171
330
151
100
AcDbEntity
  8
0
  6
Continuous
 62
     0
370
    30
100
AcDbCircle
 10
282.597976
 20
0.29948
 30
0.0
 40
1.000003375119737
100
AcDbArc
 50
90.008296
 51
179.999807
  0
ARC
  5
172
330
151
100
AcDbEntity
  8
0
  6
Continuous
 62
     0
370
    30
100
AcDbCircle
 10
308.597969
 20
0.29948
 30
0.0
 40
1.000003375088527
100
AcDbArc
 50
0.000193
 51
89.991704
  0
LINE
  5
173
330
151
100
AcDbEntity
  8
0
  6
Continuous
 62
     0
370
    30
100
AcDbLine
 10
284.597973
 20
17.570547
 30
0.0
 11
284.597973
 21
1.299483
 31
0.0
  0
LINE
  5
174
330
151
100
AcDbEntity
  8
0
  6
Continuous
 62
     0
370
    30
100
AcDbLine
 10
306.597973
 20
17.570765
 30
0.0
 11
306.597973
 21
1.299483
 31
0.0
  0
ARC
  5
175
330
151
100
AcDbEntity
  8
0
  6
Continuous
 62
     0
370
    30
100
AcDbCircle
 10
291.258411
 20
-10.540079
 30
0.0
 40
4.802738221409736
100
AcDbArc
 50
193.982174
 51
256.017826
  0
ARC
  5
176
330
151
100
AcDbEntity
  8
0
  6
Continuous
 62
     0
370
    30
100
AcDbCircle
 10
299.937535
 20
-10.540079
 30
0.0
 40
4.802738221384145
100
AcDbArc
 50
283.982174
 51
346.017826
  0
ARC
  5
177
330
151
100
AcDbEntity
  8
0
  6
Continuous
 62
     0
370
    30
100
AcDbCircle
 10
283.598063
 20
-9.700427
 30
0.0
 40
2.000090101138304
100
AcDbArc
 50
180.002581
 51
269.997419
  0
LWPOLYLINE
  5
178
330
151
100
AcDbEntity
  8
0
  6
Continuous
 62
     0
370
    30
100
AcDbPolyline
 90
       11
 70
     0
 43
0.0
 10
309.597961
 20
-9.700517
 10
309.573608
 20
-10.010859
 10
309.501373
 20
-10.314506
 10
309.382843
 20
-10.602889
 10
309.220978
 20
-10.869224
 10
309.019653
 20
-11.107241
 10
308.783783
 20
-11.311054
 10
308.519104
 20
-11.475768
 10
308.232056
 20
-11.597339
 10
307.929626
 20
-11.67283
 10
307.597961
 20
-11.700517
  0
LINE
  5
179
330
151
100
AcDbEntity
  8
0
  6
Continuous
 62
     0
370
    30
100
AcDbLine
 10
281.597973
 20
0.299483
 30
0.0
 11
281.597973
 21
-9.700517
 31
0.0
  0
LINE
  5
17A
330
151
100
AcDbEntity
  8
0
  6
Continuous
 62
     0
370
    30
100
AcDbLine
 10
309.597973
 20
0.299483
 30
0.0
 11
309.597973
 21
-9.700517
 31
0.0
  0
LINE
  5
17B
330
151
100
AcDbEntity
  8
0
  6
Continuous
 62
     0
370
    30
100
AcDbLine
 10
265.597973
 20
94.218967
 30
0.0
 11
265.597973
 21
87.551403
 31
0.0
  0
LINE
  5
17C
330
151
100
AcDbEntity
  8
0
  6
Continuous
 62
     0
370
    30
100
AcDbLine
 10
325.597973
 20
94.218967
 30
0.0
 11
325.597973
 21
87.551403
 31
0.0
  0
ARC
  5
17D
330
151
100
AcDbEntity
  8
0
  6
Continuous
 62
     0
370
    30
100
AcDbCircle
 10
268.598122
 20
87.551467
 30
0.0
 40
3.000149024634258
100
AcDbArc
 50
180.001232
 51
226.829292
  0
ARC
  5
17E
330
151
100
AcDbEntity
  8
0
  6
Continuous
 62
     0
370
    30
100
AcDbCircle
 10
322.597824
 20
87.551467
 30
0.0
 40
3.000149024526218
100
AcDbArc
 50
313.170708
 51
359.998768
  0
ARC
  5
17F
330
151
100
AcDbEntity
  8
0
  6
Continuous
 62
     0
370
    30
100
AcDbCircle
 10
243.569904
 20
60.870748
 30
0.0
 40
33.58225706384439
100
AcDbArc
 50
14.394101
 51
46.830523
  0
ARC
  5
180
330
151
100
AcDbEntity
  8
0
  6
Continuous
 62
     0
370
    30
100
AcDbCircle
 10
347.626041
 20
60.870748
 30
0.0
 40
33.58225706385971
100
AcDbArc
 50
133.169477
 51
165.605899
  0
LINE
  5
181
330
151
100
AcDbEntity
  8
0
  6
Continuous
 62
     0
370
    30
100
AcDbLine
 10
280.042335
 20
55.808135
 30
0.0
 11
276.097973
 21
69.218967
 31
0.0
  0
LINE
  5
182
330
151
100
AcDbEntity
  8
0
  6
Continuous
 62
     0
370
    30
100
AcDbLine
 10
311.153611
 20
55.808135
 30
0.0
 11
315.097973
 21
69.218967
 31
0.0
  0
ARC
  5
183
330
151
100
AcDbEntity
  8
0
  6
Continuous
 62
     0
370
    30
100
AcDbCircle
 10
284.839072
 20
57.218846
 30
0.0
 40
4.99987901359349
100
AcDbArc
 50
196.388503
 51
269.994172
  0
ARC
  5
184
330
151
100
AcDbEntity
  8
0
  6
Continuous
 62
     0
370
    30
100
AcDbCircle
 10
306.356874
 20
57.218846
 30
0.0
 40
4.999879013602632
100
AcDbArc
 50
270.005828
 51
343.611497
  0
ARC
  5
185
330
151
100
AcDbEntity
  8
0
  6
Continuous
 62
     0
370
    30
100
AcDbCircle
 10
285.597974
 20
49.718967
 30
0.0
 40
2.500000000160777
100
AcDbArc
 50
90.000028
 51
269.983766
  0
ARC
  5
186
330
151
100
AcDbEntity
  8
0
  6
Continuous
 62
     0
370
    30
100
AcDbCircle
 10
305.597972
 20
49.718967
 30
0.0
 40
2.500000000160778
100
AcDbArc
 50
270.016234
 51
89.999972
  0
ARC
  5
187
330
151
100
AcDbEntity
  8
0
  6
Continuous
 62
     0
370
    30
100
AcDbCircle
 10
295.125879
 20
34.272455
 30
0.0
 40
15.47218580021019
100
AcDbArc
 50
294.727625
 51
56.799585
  0
ARC
  5
188
330
151
100
AcDbEntity
  8
0
  6
Continuous
 62
     0
370
    30
100
AcDbCircle
 10
296.070067
 20
34.272455
 30
0.0
 40
15.472185800204
100
AcDbArc
 50
123.200415
 51
245.272375
  0
LINE
  5
189
330
151
100
AcDbEntity
  8
0
  6
Continuous
 62
     0
370
    30
100
AcDbLine
 10
287.597973
 20
20.218967
 30
0.0
 11
287.597973
 21
19.718967
 31
0.0
  0
LINE
  5
18A
330
151
100
AcDbEntity
  8
0
  6
Continuous
 62
     0
370
    30
100
AcDbLine
 10
303.597973
 20
20.218967
 30
0.0
 11
303.597973
 21
19.718967
 31
0.0
  0
ARC
  5
18B
330
151
100
AcDbEntity
  8
0
  6
Continuous
 62
     0
370
    30
100
AcDbCircle
 10
295.59804
 20
71.308188
 30
0.0
 40
52.20583118683594
100
AcDbArc
 50
261.185213
 51
269.999046
  0
ARC
  5
18C
330
151
100
AcDbEntity
  8
0
  6
Continuous
 62
     0
370
    30
100
AcDbCircle
 10
295.597906
 20
71.308188
 30
0.0
 40
52.20583073712448
100
AcDbArc
 50
270.000954
 51
278.814787
  0
LINE
  5
18D
330
151
100
AcDbEntity
  8
0
  6
Continuous
 62
     0
370
     0
100
AcDbLine
 10
287.003071
 20
-57.840759
 30
0.0
 11
286.986356
 21
-62.928976
 31
0.0
  0
ELLIPSE
  5
18E
330
151
100
AcDbEntity
  8
0
  6
Continuous
 62
     0
370
     0
100
AcDbEllipse
 10
286.602499
 20
-63.227567
 30
0.0
 11
0.499999999999999
 21
-1.109895166755280E-15
 31
0.0
210
0.0
220
0.0
230
1.0
 40
0.931942
 41
0.0000000000001856
 42
0.6955322518942157
  0
LINE
  5
18F
330
151
100
AcDbEntity
  8
0
  6
Continuous
 62
     0
370
    30
100
AcDbLine
 10
287.102499
 20
-58.119209
 30
0.0
 11
287.102499
 21
-63.221132
 31
0.0
  0
ELLIPSE
  5
190
330
151
100
AcDbEntity
  8
0
  6
Continuous
 62
     0
370
     0
100
AcDbEllipse
 10
286.602499
 20
-58.119209
 30
0.0
 11
-0.5
 21
-4.433926739473744E-15
 31
0.0
210
0.0
220
0.0
230
-1.0
 40
0.930536
 41
2.499999387325858
 42
3.141592653589802
  0
LINE
  5
191
330
151
100
AcDbEntity
  8
0
  6
Continuous
 62
     0
370
     0
100
AcDbLine
 10
304.201928
 20
-57.840759
 30
0.0
 11
304.218643
 21
-62.928976
 31
0.0
  0
ELLIPSE
  5
192
330
151
100
AcDbEntity
  8
0
  6
Continuous
 62
     0
370
     0
100
AcDbEllipse
 10
304.602499
 20
-58.119209
 30
0.0
 11
-0.5
 21
0.0
 31
0.0
210
0.0
220
0.0
230
-1.0
 40
0.930536
 41
0.0000000000000611
 42
0.6415932662640286
  0
LINE
  5
193
330
151
100
AcDbEntity
  8
0
  6
Continuous
 62
     0
370
    30
100
AcDbLine
 10
304.102499
 20
-58.119209
 30
0.0
 11
304.102499
 21
-63.221132
 31
0.0
  0
ELLIPSE
  5
194
330
151
100
AcDbEntity
  8
0
  6
Continuous
 62
     0
370
     0
100
AcDbEllipse
 10
304.602499
 20
-63.227567
 30
0.0
 11
0.5
 21
0.0
 31
0.0
210
0.0
220
0.0
230
1.0
 40
0.931942
 41
2.446057616211055
 42
3.14159265358961
  0
LINE
  5
195
330
151
100
AcDbEntity
  8
0
  6
Continuous
 62
     0
370
     0
100
AcDbLine
 10
305.102499
 20
-64.007683
 30
0.0
 11
305.19232
 21
-64.007683
 31
0.0
  0
ELLIPSE
  5
196
330
151
100
AcDbEntity
  8
0
  6
Continuous
 62
     0
370
     0
100
AcDbEllipse
 10
303.802499
 20
-59.940366
 30
0.0
 11
4.5
 21
0.0
 31
0.0
210
0.0
220
0.0
230
1.0
 40
0.950308
 41
5.026371525148802
 42
5.907798689821216
  0
ELLIPSE
  5
197
330
151
100
AcDbEntity
  8
0
  6
Continuous
 62
     0
370
     0
100
AcDbEllipse
 10
308.919512
 20
-61.85664
 30
0.0
 11
0.9999999999999989
 21
-4.457829805967273E-17
 31
0.0
210
0.0
220
0.0
230
1.0
 40
0.950308
 41
2.734850771174862
 42
2.76620603623135
  0
ELLIPSE
  5
198
330
151
100
AcDbEntity
  8
0
  6
Continuous
 62
     0
370
     0
100
AcDbEllipse
 10
295.602499
 20
-56.405222
 30
0.0
 11
13.5
 21
0.0
 31
0.0
210
0.0
220
0.0
230
1.0
 40
0.950308
 41
5.87644342476465
 42
9.868621549589502
  0
ELLIPSE
  5
199
330
151
100
AcDbEntity
  8
0
  6
Continuous
 62
     0
370
     0
100
AcDbEllipse
 10
287.402499
 20
-59.940366
 30
0.0
 11
4.5
 21
0.0
 31
0.0
210
0.0
220
0.0
230
1.0
 40
0.950308
 41
3.62136219115665
 42
4.39840643562059
  0
LINE
  5
19A
330
151
100
AcDbEntity
  8
0
  6
Continuous
 62
     0
370
     0
100
AcDbLine
 10
286.012679
 20
-64.007683
 30
0.0
 11
286.102499
 21
-64.007683
 31
0.0
  0
ELLIPSE
  5
19B
330
151
100
AcDbEntity
  8
0
  6
Continuous
 62
     0
370
     0
100
AcDbEllipse
 10
286.102499
 20
-63.532529
 30
0.0
 11
0.5
 21
0.0
 31
0.0
210
0.0
220
0.0
230
1.0
 40
0.950308
 41
4.71238898038469
 42
5.17490766718643
  0
ELLIPSE
  5
19C
330
151
100
AcDbEntity
  8
0
  6
Continuous
 62
     0
370
     0
100
AcDbEllipse
 10
295.602499
 20
-56.405222
 30
0.0
 11
-12.21568877480707
 21
0.0
 31
0.0
210
0.0
220
0.0
230
-1.0
 40
0.950308
 41
5.574817677123811
 42
10.13314559082516
  0
ELLIPSE
  5
19D
330
151
100
AcDbEntity
  8
0
  6
Continuous
 62
     0
370
     0
100
AcDbEllipse
 10
305.102499
 20
-63.532529
 30
0.0
 11
0.5
 21
0.0
 31
0.0
210
0.0
220
0.0
230
1.0
 40
0.950308
 41
4.249870293582786
 42
4.71238898038469
  0
ELLIPSE
  5
19E
330
151
100
AcDbEntity
  8
0
  6
Continuous
 62
     0
370
     0
100
AcDbEllipse
 10
295.602499
 20
-56.249566
 30
0.0
 11
14.0
 21
0.0
 31
0.0
210
0.0
220
0.0
230
1.0
 40
0.950308
 41
1.689274797708507
 42
3.585436242409916
  0
LWPOLYLINE
  5
19F
330
151
100
AcDbEntity
  8
0
  6
Continuous
 62
     0
370
    30
100
AcDbPolyline
 90
       10
 70
     0
 43
0.0
 10
290.793976
 20
-42.751663
 10
290.951477
 20
-42.851967
 10
291.164368
 20
-42.929531
 10
291.429688
 20
-42.985661
 10
291.7435
 20
-43.023151
 10
292.101624
 20
-43.045063
 10
292.499359
 20
-43.054546
 10
292.931763
 20
-43.054821
 10
293.393768
 20
-43.049061
 10
293.947693
 20
-43.038528
  0
ARC
  5
1A0
330
151
100
AcDbEntity
  8
0
  6
Continuous
 62
     0
370
    30
100
AcDbCircle
 10
291.130457
 20
-42.344664
 30
0.0
 40
0.5280854005838533
100
AcDbArc
 50
178.73845
 51
230.417407
  0
ELLIPSE
  5
1A1
330
151
100
AcDbEntity
  8
0
  6
Continuous
 62
     0
370
     0
100
AcDbEllipse
 10
295.602499
 20
-51.579876
 30
0.0
 11
14.0
 21
0.0
 31
0.0
210
0.0
220
0.0
230
1.0
 40
0.950308
 41
1.936003548085264
 42
3.141592653589793
  0
ELLIPSE
  5
1A2
330
151
100
AcDbEntity
  8
0
  6
Continuous
 62
     0
370
     0
100
AcDbEllipse
 10
295.602499
 20
-51.579876
 30
0.0
 11
14.0
 21
0.0
 31
0.0
210
0.0
220
0.0
230
1.0
 40
0.950308
 41
-0.0000000000000018
 42
1.205589105504529
  0
ARC
  5
1A3
330
151
100
AcDbEntity
  8
0
  6
Continuous
 62
     0
370
    30
100
AcDbCircle
 10
300.074542
 20
-42.344664
 30
0.0
 40
0.5280854002763581
100
AcDbArc
 50
309.582593
 51
1.26155
  0
LWPOLYLINE
  5
1A4
330
151
100
AcDbEntity
  8
0
  6
Continuous
 62
     0
370
    30
100
AcDbPolyline
 90
       10
 70
     0
 43
0.0
 10
297.257324
 20
-43.038528
 10
297.745453
 20
-43.047955
 10
298.211121
 20
-43.05431
 10
298.647949
 20
-43.055042
 10
299.050751
 20
-43.047031
 10
299.414642
 20
-43.027042
 10
299.734802
 20
-42.991882
 10
300.00705
 20
-42.938499
 10
300.227386
 20
-42.864006
 10
300.411041
 20
-42.751663
  0
ELLIPSE
  5
1A5
330
151
100
AcDbEntity
  8
0
  6
Continuous
 62
     0
370
     0
100
AcDbEllipse
 10
295.602499
 20
-56.249566
 30
0.0
 11
14.0
 21
0.0
 31
0.0
210
0.0
220
0.0
230
1.0
 40
0.950308
 41
5.876443424764651
 42
7.735503163060605
  0
LWPOLYLINE
  5
1A6
330
151
100
AcDbEntity
  8
0
  6
Continuous
 62
     0
370
     0
100
AcDbPolyline
 90
        7
 70
     0
 43
0.0
 10
286.986359
 20
-62.928974
 10
286.968506
 20
-63.050251
 10
286.920288
 20
-63.212921
 10
286.836365
 20
-63.399582
 10
286.710693
 20
-63.597122
 10
286.540344
 20
-63.789509
 10
286.325592
 20
-63.95776
  0
ELLIPSE
  5
1A7
330
151
100
AcDbEntity
  8
0
  6
Continuous
 62
     0
370
     0
100
AcDbEllipse
 10
295.602499
 20
-56.104774
 30
0.0
 11
-11.21629794778798
 21
0.0
 31
0.0
210
0.0
220
0.0
230
-1.0
 40
0.950308
 41
3.011146926599611
 42
3.836394187983867
  0
ELLIPSE
  5
1A8
330
151
100
AcDbEntity
  8
0
  6
Continuous
 62
     0
370
     0
100
AcDbEllipse
 10
295.602499
 20
-56.104774
 30
0.0
 11
-11.21629794778798
 21
0.0
 31
0.0
210
0.0
220
0.0
230
-1.0
 40
0.950308
 41
5.588383648505411
 42
6.415159179130404
  0
LWPOLYLINE
  5
1A9
330
151
100
AcDbEntity
  8
0
  6
Continuous
 62
     0
370
     0
100
AcDbPolyline
 90
        7
 70
     0
 43
0.0
 10
304.218658
 20
-62.928974
 10
304.236481
 20
-63.050251
 10
304.284729
 20
-63.212921
 10
304.368622
 20
-63.399582
 10
304.494293
 20
-63.597122
 10
304.664642
 20
-63.789509
 10
304.879395
 20
-63.95776
  0
ELLIPSE
  5
1AA
330
151
100
AcDbEntity
  8
0
  6
Continuous
 62
     0
370
     0
100
AcDbEllipse
 10
295.602499
 20
-51.746397
 30
0.0
 11
-10.72740717490351
 21
0.0
 31
0.0
210
0.0
220
0.0
230
-1.0
 40
0.950308
 41
3.247036629502175
 42
3.782369509349627
  0
ELLIPSE
  5
1AB
330
151
100
AcDbEntity
  8
0
  6
Continuous
 62
     0
370
     0
100
AcDbEllipse
 10
295.602499
 20
-51.746397
 30
0.0
 11
-10.72740717490351
 21
0.0
 31
0.0
210
0.0
220
0.0
230
-1.0
 40
0.950308
 41
5.642408451419795
 42
6.177740808046013
  0
ARC
  5
1AC
330
151
100
AcDbEntity
  8
0
  6
Continuous
 62
     0
370
     0
100
AcDbCircle
 10
286.923409
 20
-57.826948
 30
0.0
 40
0.0808506625784982
100
AcDbArc
 50
350.164862
 51
28.966803
  0
ARC
  5
1AD
330
151
100
AcDbEntity
  8
0
  6
Continuous
 62
     0
370
     0
100
AcDbCircle
 10
304.28159
 20
-57.826948
 30
0.0
 40
0.0808506596001783
100
AcDbArc
 50
151.033195
 51
189.835138
  0
LINE
  5
1AE
330
151
100
AcDbEntity
  8
0
  6
Continuous
 62
     0
370
     0
100
AcDbLine
 10
305.19232
 20
-64.007683
 30
0.0
 11
305.19232
 21
-64.352026
 31
0.0
  0
LINE
  5
1AF
330
151
100
AcDbEntity
  8
0
  6
Continuous
 62
     0
370
     0
100
AcDbLine
 10
305.102499
 20
-64.007683
 30
0.0
 11
305.102499
 21
-64.352026
 31
0.0
  0
ELLIPSE
  5
1B0
330
151
100
AcDbEntity
  8
0
  6
Continuous
 62
     0
370
     0
100
AcDbEllipse
 10
304.879398
 20
-63.802103
 30
0.0
 11
-0.2140908849438724
 21
-0.451846315669332
 31
0.0
210
0.0
220
0.0
230
1.0
 40
0.138909
 41
6.282917290807307
 42
7.568800846094987
  0
ELLIPSE
  5
1B1
330
151
100
AcDbEntity
  8
0
  6
Continuous
 62
     0
370
     0
100
AcDbEllipse
 10
286.325601
 20
-63.802103
 30
0.0
 11
-0.2140908849438708
 21
0.4518463156693329
 31
0.0
210
0.0
220
0.0
230
1.0
 40
0.138909
 41
1.855977114674298
 42
3.141860669942171
  0
LINE
  5
1B2
330
151
100
AcDbEntity
  8
0
  6
Continuous
 62
     0
370
     0
100
AcDbLine
 10
286.102499
 20
-64.352026
 30
0.0
 11
286.102499
 21
-64.007683
 31
0.0
  0
LINE
  5
1B3
330
151
100
AcDbEntity
  8
0
  6
Continuous
 62
     0
370
     0
100
AcDbLine
 10
286.012679
 20
-64.352026
 30
0.0
 11
286.012679
 21
-64.007683
 31
0.0
  0
ELLIPSE
  5
1B4
330
151
100
AcDbEntity
  8
0
  6
Continuous
 62
     0
370
     0
100
AcDbEllipse
 10
286.012679
 20
-63.852026
 30
0.0
 11
0.1474337910017381
 21
0.4777690626975075
 31
0.0
210
0.0
220
0.0
230
-1.0
 40
0.096149
 41
1.872839074028247
 42
3.140606134841164
  0
ELLIPSE
  5
1B5
330
151
100
AcDbEntity
  8
0
  6
Continuous
 62
     0
370
     0
100
AcDbEllipse
 10
283.410544
 20
-61.758581
 30
0.0
 11
-0.4385653510444874
 21
-0.2401258687922329
 31
0.0
210
0.0
220
0.0
230
1.0
 40
0.276166
 41
6.21690765709487
 42
7.703910529714889
  0
ELLIPSE
  5
1B6
330
151
100
AcDbEntity
  8
0
  6
Continuous
 62
     0
370
     0
100
AcDbEllipse
 10
283.410544
 20
-61.758581
 30
0.0
 11
0.4471513270648673
 21
0.2237312912941081
 31
0.0
210
0.0
220
0.0
230
-1.0
 40
0.281149
 41
1.710551581149208
 42
3.281347907944076
  0
LWPOLYLINE
  5
1B7
330
151
100
AcDbEntity
  8
0
  6
Continuous
 62
     0
370
    30
100
AcDbPolyline
 90
        4
 70
     0
 43
0.0
 10
297.257324
 20
-43.038528
 10
296.865417
 20
-43.042156
 10
296.465607
 20
-43.057838
 10
295.789124
 20
-43.070038
  0
ARC
  5
1B8
330
151
100
AcDbEntity
  8
0
  6
Continuous
 62
     0
370
    30
100
AcDbCircle
 10
295.602499
 20
-54.183135
 30
0.0
 40
11.11466509269928
100
AcDbArc
 50
89.037845
 51
90.962155
  0
LWPOLYLINE
  5
1B9
330
151
100
AcDbEntity
  8
0
  6
Continuous
 62
     0
370
    30
100
AcDbPolyline
 90
        4
 70
     0
 43
0.0
 10
293.947693
 20
-43.038528
 10
294.339569
 20
-43.042156
 10
294.73938
 20
-43.057838
 10
295.415863
 20
-43.070038
  0
ELLIPSE
  5
1BA
330
151
100
AcDbEntity
  8
0
  6
Continuous
 62
     0
370
     0
100
AcDbEllipse
 10
308.001097
 20
-61.325024
 30
0.0
 11
0.4553987004228199
 21
-0.206426799745592
 31
0.0
210
0.0
220
0.0
230
-1.0
 40
0.285914
 41
6.154302248637165
 42
7.725098575432008
  0
ELLIPSE
  5
1BB
330
151
100
AcDbEntity
  8
0
  6
Continuous
 62
     0
370
     0
100
AcDbEllipse
 10
307.989146
 20
-61.35257
 30
0.0
 11
-0.4618636270879077
 21
0.1915254290510848
 31
0.0
210
0.0
220
0.0
230
1.0
 40
0.289635
 41
1.690329349535693
 42
3.189548223427714
  0
ELLIPSE
  5
1BC
330
151
100
AcDbEntity
  8
0
  6
Continuous
 62
     0
370
     0
100
AcDbEllipse
 10
305.19232
 20
-63.852026
 30
0.0
 11
0.1474337910017363
 21
-0.4777690626975091
 31
0.0
210
0.0
220
0.0
230
-1.0
 40
0.096149
 41
0.0009865187334872
 42
1.268753579561349
  0
LINE
  5
1BD
330
151
100
AcDbEntity
  8
0
  6
Continuous
 62
     0
370
    30
100
AcDbLine
 10
300.602493
 20
-15.200517
 30
0.0
 11
300.602499
 21
-15.32342
 31
0.0
  0
LINE
  5
1BE
330
151
100
AcDbEntity
  8
0
  6
Continuous
 62
     0
370
     0
100
AcDbLine
 10
295.781492
 20
-41.860158
 30
0.0
 11
295.609273
 21
-15.200517
 31
0.0
  0
ELLIPSE
  5
1BF
330
151
100
AcDbEntity
  8
0
  6
Continuous
 62
     0
370
     0
100
AcDbEllipse
 10
295.781492
 20
-43.096678
 30
0.0
 11
-4.821007577267575
 21
0.0
 31
0.0
210
0.0
220
0.0
230
-1.0
 40
0.256486
 41
1.570796326794897
 42
2.858817876574098
  0
LINE
  5
1C0
330
151
100
AcDbEntity
  8
0
  6
Continuous
 62
     0
370
    30
100
AcDbLine
 10
300.602499
 20
-42.333037
 30
0.0
 11
300.602499
 21
-15.32342
 31
0.0
  0
LINE
  5
1C1
330
151
100
AcDbEntity
  8
0
  6
Continuous
 62
     0
370
     0
100
AcDbLine
 10
295.423507
 20
-41.860158
 30
0.0
 11
295.595726
 21
-15.200517
 31
0.0
  0
LINE
  5
1C2
330
151
100
AcDbEntity
  8
0
  6
Continuous
 62
     0
370
    30
100
AcDbLine
 10
290.602499
 20
-15.32342
 30
0.0
 11
290.602506
 21
-15.200517
 31
0.0
  0
LINE
  5
1C3
330
151
100
AcDbEntity
  8
0
  6
Continuous
 62
     0
370
    30
100
AcDbLine
 10
290.602499
 20
-42.333037
 30
0.0
 11
290.602499
 21
-15.32342
 31
0.0
  0
ELLIPSE
  5
1C4
330
151
100
AcDbEntity
  8
0
  6
Continuous
 62
     0
370
     0
100
AcDbEllipse
 10
295.423507
 20
-43.096678
 30
0.0
 11
-4.821007577267578
 21
0.0
 31
0.0
210
0.0
220
0.0
230
-1.0
 40
0.256486
 41
0.2827747770161753
 42
1.570796326794897
  0
LINE
  5
1C5
330
151
100
AcDbEntity
  8
0
  6
Continuous
 62
     0
370
     0
100
AcDbLine
 10
295.781492
 20
-41.860158
 30
0.0
 11
295.423507
 21
-41.860158
 31
0.0
  0
LINE
  5
1C6
330
151
100
AcDbEntity
  8
0
  6
Continuous
 62
     0
370
     0
100
AcDbLine
 10
295.781492
 20
-41.860158
 30
0.0
 11
295.789137
 21
-43.070037
 31
0.0
  0
LINE
  5
1C7
330
151
100
AcDbEntity
  8
0
  6
Continuous
 62
     0
370
     0
100
AcDbLine
 10
295.423507
 20
-41.860158
 30
0.0
 11
295.415862
 21
-43.070037
 31
0.0
  0
ARC
  5
1C8
330
151
100
AcDbEntity
  8
0
  6
Continuous
 62
     0
370
    30
100
AcDbCircle
 10
305.192314
 20
-63.852153
 30
0.0
 40
0.499839642730543
100
AcDbArc
 50
270.000658
 51
287.14911
  0
LWPOLYLINE
  5
1C9
330
151
100
AcDbEntity
  8
0
  6
Continuous
 62
     0
370
    30
100
AcDbPolyline
 90
        8
 70
     0
 43
0.0
 10
305.339691
 20
-64.329773
 10
305.923248
 20
-64.110168
 10
306.473907
 20
-63.822208
 10
306.982574
 20
-63.4706
 10
307.441223
 20
-63.060642
 10
307.842712
 20
-62.598568
 10
308.180695
 20
-62.091545
 10
308.451019
 20
-61.543957
  0
ARC
  5
1CA
330
151
100
AcDbEntity
  8
0
  6
Continuous
 62
     0
370
    30
100
AcDbCircle
 10
296.813014
 20
-56.239806
 30
0.0
 40
12.78948430925579
100
AcDbArc
 50
335.56005
 51
359.956897
  0
ARC
  5
1CB
330
151
100
AcDbEntity
  8
0
  6
Continuous
 62
     0
370
    30
100
AcDbCircle
 10
294.406402
 20
-56.23782
 30
0.0
 40
12.80391615889263
100
AcDbArc
 50
180.050793
 51
206.656572
  0
LWPOLYLINE
  5
1CC
330
151
100
AcDbEntity
  8
0
  6
Continuous
 62
     0
370
    30
100
AcDbPolyline
 90
        8
 70
     0
 43
0.0
 10
282.973053
 20
-62.000534
 10
283.249756
 20
-62.444996
 10
283.575165
 20
-62.858212
 10
283.945038
 20
-63.235126
 10
284.355072
 20
-63.571495
 10
284.800537
 20
-63.86343
 10
285.276306
 20
-64.107742
 10
285.865295
 20
-64.329773
  0
ARC
  5
1CD
330
151
100
AcDbEntity
  8
0
  6
Continuous
 62
     0
370
    30
100
AcDbCircle
 10
286.012685
 20
-63.852153
 30
0.0
 40
0.4998396395783328
100
AcDbArc
 50
252.85089
 51
269.999342
  0
LINE
  5
1CE
330
151
100
AcDbEntity
  8
0
  6
Continuous
 62
     0
370
    30
100
AcDbLine
 10
286.102499
 20
-64.352026
 30
0.0
 11
286.012679
 21
-64.352026
 31
0.0
  0
ARC
  5
1CF
330
151
100
AcDbEntity
  8
0
  6
Continuous
 62
     0
370
    30
100
AcDbCircle
 10
286.102906
 20
-63.330533
 30
0.0
 40
1.021459033846074
100
AcDbArc
 50
269.977225
 51
295.311302
  0
LWPOLYLINE
  5
1D0
330
151
100
AcDbEntity
  8
0
  6
Continuous
 62
     0
370
    30
100
AcDbPolyline
 90
       11
 70
     0
 43
0.0
 10
287.102509
 20
-63.227715
 10
287.101379
 20
-63.307358
 10
287.093658
 20
-63.417965
 10
287.074921
 20
-63.537937
 10
287.042938
 20
-63.659996
 10
286.996674
 20
-63.779915
 10
286.935577
 20
-63.89476
 10
286.85968
 20
-64.001633
 10
286.769806
 20
-64.097557
 10
286.667297
 20
-64.180046
 10
286.539673
 20
-64.253899
  0
ARC
  5
1D1
330
151
100
AcDbEntity
  8
0
  6
Continuous
 62
     0
370
    30
100
AcDbCircle
 10
286.602605
 20
-58.098439
 30
0.0
 40
0.4998944548200601
100
AcDbArc
 50
0.030495
 51
38.245083
  0
LWPOLYLINE
  5
1D2
330
151
100
AcDbEntity
  8
0
  6
Continuous
 62
     0
370
    30
100
AcDbPolyline
 90
       17
 70
     0
 43
0.0
 10
281.602478
 20
-51.579472
 10
281.642365
 20
-50.575699
 10
281.761566
 20
-49.577278
 10
281.959259
 20
-48.590443
 10
282.234344
 20
-47.620716
 10
282.585449
 20
-46.67355
 10
283.010468
 20
-45.754288
 10
283.506897
 20
-44.86824
 10
284.071899
 20
-44.020416
 10
284.702148
 20
-43.215534
 10
285.394135
 20
-42.458206
 10
286.143982
 20
-41.752789
 10
286.947388
 20
-41.10323
 10
287.799652
 20
-40.513054
 10
288.695953
 20
-39.985519
 10
289.631348
 20
-39.523838
 10
290.602509
 20
-39.129753
  0
LWPOLYLINE
  5
1D3
330
151
100
AcDbEntity
  8
0
  6
Continuous
 62
     0
370
    30
100
AcDbPolyline
 90
       17
 70
     0
 43
0.0
 10
300.602509
 20
-39.129749
 10
301.565735
 20
-39.520306
 10
302.495728
 20
-39.97834
 10
303.387177
 20
-40.501419
 10
304.235229
 20
-41.086498
 10
305.035126
 20
-41.73032
 10
305.782318
 20
-42.429348
 10
306.472595
 20
-43.179794
 10
307.102051
 20
-43.977394
 10
307.667084
 20
-44.817764
 10
308.164612
 20
-45.696129
 10
308.591888
 20
-46.607555
 10
308.94632
 20
-47.546967
 10
309.225769
 20
-48.509129
 10
309.428955
 20
-49.488533
 10
309.554718
 20
-50.479687
 10
309.602142
 20
-51.484482
  0
ARC
  5
1D4
330
151
100
AcDbEntity
  8
0
  6
Continuous
 62
     0
370
    30
100
AcDbCircle
 10
304.602394
 20
-58.098439
 30
0.0
 40
0.4998944537068751
100
AcDbArc
 50
141.754917
 51
179.969505
  0
LWPOLYLINE
  5
1D5
330
151
100
AcDbEntity
  8
0
  6
Continuous
 62
     0
370
    30
100
AcDbPolyline
 90
       11
 70
     0
 43
0.0
 10
304.102509
 20
-63.227715
 10
304.103607
 20
-63.307358
 10
304.111328
 20
-63.417965
 10
304.130066
 20
-63.537937
 10
304.162048
 20
-63.659996
 10
304.208313
 20
-63.779915
 10
304.269409
 20
-63.89476
 10
304.345306
 20
-64.001633
 10
304.435181
 20
-64.097557
 10
304.537689
 20
-64.180046
 10
304.665314
 20
-64.253899
  0
ARC
  5
1D6
330
151
100
AcDbEntity
  8
0
  6
Continuous
 62
     0
370
    30
100
AcDbCircle
 10
305.102096
 20
-63.33052
 30
0.0
 40
1.021472232444202
100
AcDbArc
 50
244.688864
 51
270.022609
  0
LINE
  5
1D7
330
151
100
AcDbEntity
  8
0
  6
Continuous
 62
     0
370
    30
100
AcDbLine
 10
305.19232
 20
-64.352026
 30
0.0
 11
305.102499
 21
-64.352026
 31
0.0
  0
LWPOLYLINE
  5
1D8
330
151
100
AcDbEntity
  8
0
  6
Continuous
 62
     0
370
    30
100
AcDbPolyline
 90
        9
 70
     0
 43
0.0
 10
306.268463
 20
-52.813957
 10
306.170807
 20
-53.473091
 10
306.027496
 20
-54.124847
 10
305.839325
 20
-54.766453
 10
305.606964
 20
-55.395111
 10
305.331207
 20
-56.00808
 10
305.013184
 20
-56.602772
 10
304.654633
 20
-57.176777
 10
304.209381
 20
-57.789139
  0
LWPOLYLINE
  5
1D9
330
151
100
AcDbEntity
  8
0
  6
Continuous
 62
     0
370
    30
100
AcDbPolyline
 90
        9
 70
     0
 43
0.0
 10
284.936523
 20
-52.813961
 10
285.03418
 20
-53.473095
 10
285.17749
 20
-54.124851
 10
285.365692
 20
-54.766453
 10
285.598022
 20
-55.395111
 10
285.873779
 20
-56.00808
 10
286.191803
 20
-56.602772
 10
286.550354
 20
-57.176773
 10
286.995605
 20
-57.789139
  0
LWPOLYLINE
  5
1DA
330
151
100
AcDbEntity
  8
0
  6
Continuous
 62
     0
370
    30
100
AcDbPolyline
 90
       36
 70
     0
 43
0.0
 10
306.754333
 20
-54.964836
 10
306.616241
 20
-54.089981
 10
306.401306
 20
-53.228943
 10
306.111237
 20
-52.387661
 10
305.748016
 20
-51.571896
 10
305.313873
 20
-50.787334
 10
304.811829
 20
-50.03944
 10
304.24527
 20
-49.333519
 10
303.618195
 20
-48.674423
 10
302.934906
 20
-48.066792
 10
302.199951
 20
-47.515053
 10
301.418457
 20
-47.023281
 10
300.595886
 20
-46.594975
 10
299.738098
 20
-46.233063
 10
298.851135
 20
-45.940102
 10
297.941193
 20
-45.718494
 10
297.014618
 20
-45.569824
 10
296.078094
 20
-45.494846
 10
295.138214
 20
-45.494282
 10
294.20163
 20
-45.56839
 10
293.274933
 20
-45.716293
 10
292.364685
 20
-45.936932
 10
291.477356
 20
-46.228977
 10
290.619202
 20
-46.590115
 10
289.796265
 20
-47.017807
 10
289.014343
 20
-47.509003
 10
288.278717
 20
-48.059902
 10
287.594574
 20
-48.666664
 10
286.966888
 20
-49.32523
 10
286.399719
 20
-50.030731
 10
285.89682
 20
-50.778122
 10
285.461761
 20
-51.562222
 10
285.097687
 20
-52.377647
 10
284.806763
 20
-53.218678
 10
284.590881
 20
-54.079494
 10
284.450653
 20
-54.964832
  0
LINE
  5
1DB
330
151
100
AcDbEntity
  8
0
  6
Continuous
 62
     0
370
    30
100
AcDbLine
 10
309.602499
 20
-51.579876
 30
0.0
 11
309.602499
 21
-56.249566
 31
0.0
  0
LINE
  5
1DC
330
151
100
AcDbEntity
  8
0
  6
Continuous
 62
     0
370
    30
100
AcDbLine
 10
281.602499
 20
-51.579876
 30
0.0
 11
281.602499
 21
-56.249566
 31
0.0
  0
LINE
  5
1DD
330
151
100
AcDbEntity
  8
0
  6
Continuous
 62
     0
370
     0
100
AcDbLine
 10
268.55586
 20
36.990449
 30
0.0
 11
268.55586
 21
24.809551
 31
0.0
  0
LINE
  5
1DE
330
151
100
AcDbEntity
  8
0
  6
Continuous
 62
     0
370
     0
100
AcDbLine
 10
268.55586
 20
43.738122
 30
0.0
 11
268.55586
 21
36.990449
 31
0.0
  0
ARC
  5
1DF
330
151
100
AcDbEntity
  8
0
  6
Continuous
 62
     0
370
    30
100
AcDbCircle
 10
258.773991
 20
38.106517
 30
0.0
 40
5.157287782665917
100
AcDbArc
 50
334.235575
 51
345.40279
  0
LINE
  5
1E0
330
151
100
AcDbEntity
  8
0
  6
Continuous
 62
     0
370
     0
100
AcDbLine
 10
263.418587
 20
35.864788
 30
0.0
 11
263.418587
 21
22.622723
 31
0.0
  0
LWPOLYLINE
  5
1E1
330
151
100
AcDbEntity
  8
0
  6
Continuous
 62
     0
370
    30
100
AcDbPolyline
 90
        5
 70
     0
 43
0.0
 10
263.918579
 20
21.842703
 10
263.88858
 20
22.007946
 10
263.799225
 20
22.188719
 10
263.651825
 20
22.384195
 10
263.418579
 20
22.622723
  0
LINE
  5
1E2
330
151
100
AcDbEntity
  8
0
  6
Continuous
 62
     0
370
     0
100
AcDbLine
 10
273.258285
 20
36.067855
 30
0.0
 11
273.258285
 21
28.023733
 31
0.0
  0
LINE
  5
1E3
330
151
100
AcDbEntity
  8
0
  6
Continuous
 62
     0
370
     0
100
AcDbLine
 10
273.258285
 20
40.52394
 30
0.0
 11
273.258285
 21
36.067855
 31
0.0
  0
ELLIPSE
  5
1E4
330
151
100
AcDbEntity
  8
0
  6
Continuous
 62
     0
370
     0
100
AcDbEllipse
 10
258.918585
 20
13.319988
 30
0.0
 11
4.999999999979931
 21
0.0
 31
0.0
210
0.0
220
0.0
230
1.0
 40
0.287038
 41
0.0000000000000195
 42
3.141592653589793
  0
LINE
  5
1E5
330
151
100
AcDbEntity
  8
0
  6
Continuous
 62
     0
370
    30
100
AcDbLine
 10
253.918585
 20
21.820888
 30
0.0
 11
253.918585
 21
13.319988
 31
0.0
  0
LWPOLYLINE
  5
1E6
330
151
100
AcDbEntity
  8
0
  6
Continuous
 62
     0
370
    30
100
AcDbPolyline
 90
       24
 70
     0
 43
0.0
 10
263.418579
 20
22.622723
 10
263.13504
 20
22.861197
 10
262.795563
 20
23.10006
 10
262.404907
 20
23.332287
 10
261.967651
 20
23.550987
 10
261.488617
 20
23.74922
 10
260.973145
 20
23.919931
 10
260.427368
 20
24.056547
 10
259.85849
 20
24.153173
 10
259.274628
 20
24.205263
 10
258.685028
 20
24.210203
 10
258.099182
 20
24.167814
 10
257.526489
 20
24.080095
 10
256.97525
 20
23.951385
 10
256.452942
 20
23.787222
 10
255.965881
 20
23.594149
 10
255.519531
 20
23.379108
 10
255.118759
 20
23.149096
 10
254.768326
 20
22.91111
 10
254.472855
 20
22.672068
 10
254.236511
 20
22.438396
 10
254.063263
 20
22.216295
 10
253.956619
 20
22.011551
 10
253.918579
 20
21.820889
  0
ELLIPSE
  5
1E7
330
151
100
AcDbEntity
  8
0
  6
Continuous
 62
     0
370
     0
100
AcDbEllipse
 10
258.918585
 20
7.3944
 30
0.0
 11
7.142857142828414
 21
0.0
 31
0.0
210
0.0
220
0.0
230
1.0
 40
0.287038
 41
0.2381553945453572
 42
2.903437327879399
  0
ELLIPSE
  5
1E8
330
151
100
AcDbEntity
  8
0
  6
Continuous
 62
     0
370
     0
100
AcDbEllipse
 10
258.918585
 20
1.879693
 30
0.0
 11
6.285714285688536
 21
0.0
 31
0.0
210
0.0
220
0.0
230
1.0
 40
0.287038
 41
0.000000000000024
 42
3.141592653589793
  0
ELLIPSE
  5
1E9
330
151
100
AcDbEntity
  8
0
  6
Continuous
 62
     0
370
     0
100
AcDbEllipse
 10
258.918585
 20
1.879693
 30
0.0
 11
6.285714285688536
 21
0.0
 31
0.0
210
0.0
220
0.0
230
1.0
 40
0.287038
 41
5.838319033739249
 42
6.28318530717961
  0
ELLIPSE
  5
1EA
330
151
100
AcDbEntity
  8
0
  6
Continuous
 62
     0
370
     0
100
AcDbEllipse
 10
258.918585
 20
1.879693
 30
0.0
 11
6.285714285688536
 21
0.0
 31
0.0
210
0.0
220
0.0
230
1.0
 40
0.287038
 41
3.141592653589793
 42
3.586458001051369
  0
LWPOLYLINE
  5
1EB
330
151
100
AcDbEntity
  8
0
  6
Continuous
 62
     0
370
    30
100
AcDbPolyline
 90
       22
 70
     0
 43
0.0
 10
254.073364
 20
36.805981
 10
254.250107
 20
36.255188
 10
254.489059
 20
35.724014
 10
254.786285
 20
35.22023
 10
255.13768
 20
34.751087
 10
255.538651
 20
34.322849
 10
255.984528
 20
33.941513
 10
256.47052
 20
33.612999
 10
256.99115
 20
33.34304
 10
257.540253
 20
33.136993
 10
258.110352
 20
32.999504
 10
258.693329
 20
32.934216
 10
259.279907
 20
32.942814
 10
259.860718
 20
33.02512
 10
260.426636
 20
33.178879
 10
260.969696
 20
33.400253
 10
261.482849
 20
33.684299
 10
261.959961
 20
34.025589
 10
262.395813
 20
34.418308
 10
262.785645
 20
34.856598
 10
263.124969
 20
35.334534
 10
263.418579
 20
35.864788
  0
ELLIPSE
  5
1EC
330
151
100
AcDbEntity
  8
0
  6
Continuous
 62
     0
370
     0
100
AcDbEllipse
 10
258.918585
 20
43.980667
 30
0.0
 11
-6.285714285688536
 21
0.0
 31
0.0
210
0.0
220
0.0
230
1.0
 40
0.957919
 41
3.141592653589798
 42
6.283185307179586
  0
ELLIPSE
  5
1ED
330
151
100
AcDbEntity
  8
0
  6
Continuous
 62
     0
370
     0
100
AcDbEllipse
 10
258.918585
 20
43.980667
 30
0.0
 11
-6.285714285688536
 21
0.0
 31
0.0
210
0.0
220
0.0
230
1.0
 40
0.957919
 41
0.0000000000000098
 42
3.141592653589798
  0
ELLIPSE
  5
1EE
330
151
100
AcDbEntity
  8
0
  6
Continuous
 62
     0
370
     0
100
AcDbEllipse
 10
258.918585
 20
55.227684
 30
0.0
 11
-4.999999999979931
 21
0.0
 31
0.0
210
0.0
220
0.0
230
-1.0
 40
0.287038
 41
0.000000000000005
 42
3.141592653589793
  0
LINE
  5
1EF
330
151
100
AcDbEntity
  8
0
  6
Continuous
 62
     0
370
    30
100
AcDbLine
 10
253.918585
 20
49.152319
 30
0.0
 11
253.918585
 21
55.227684
 31
0.0
  0
ELLIPSE
  5
1F0
330
151
100
AcDbEntity
  8
0
  6
Continuous
 62
     0
370
     0
100
AcDbEllipse
 10
258.918585
 20
61.153272
 30
0.0
 11
-7.142857142828414
 21
0.0
 31
0.0
210
0.0
220
0.0
230
-1.0
 40
0.287038
 41
6.04502893945535
 42
6.283185307179552
  0
ELLIPSE
  5
1F1
330
151
100
AcDbEntity
  8
0
  6
Continuous
 62
     0
370
     0
100
AcDbEllipse
 10
258.918585
 20
61.153272
 30
0.0
 11
-7.142857142828414
 21
0.0
 31
0.0
210
0.0
220
0.0
230
-1.0
 40
0.287038
 41
3.141592653589793
 42
3.379749021313929
  0
ELLIPSE
  5
1F2
330
151
100
AcDbEntity
  8
0
  6
Continuous
 62
     0
370
     0
100
AcDbEllipse
 10
258.918585
 20
61.153272
 30
0.0
 11
-7.142857142828414
 21
0.0
 31
0.0
210
0.0
220
0.0
230
-1.0
 40
0.287038
 41
0.0
 42
3.141592653589793
  0
ELLIPSE
  5
1F3
330
151
100
AcDbEntity
  8
0
  6
Continuous
 62
     0
370
     0
100
AcDbEllipse
 10
258.918585
 20
66.667979
 30
0.0
 11
-6.285714285688536
 21
0.0
 31
0.0
210
0.0
220
0.0
230
-1.0
 40
0.287038
 41
0.4448640375066502
 42
2.696728791799213
  0
LINE
  5
1F4
330
151
100
AcDbEntity
  8
0
  6
Continuous
 62
     0
370
     0
100
AcDbLine
 10
246.918587
 20
21.755737
 30
0.0
 11
246.918587
 21
47.27384
 31
0.0
  0
LINE
  5
1F5
330
151
100
AcDbEntity
  8
0
  6
Continuous
 62
     0
370
     0
100
AcDbLine
 10
246.918587
 20
21.273833
 30
0.0
 11
246.918587
 21
21.755737
 31
0.0
  0
LINE
  5
1F6
330
151
100
AcDbEntity
  8
0
  6
Continuous
 62
     0
370
    30
100
AcDbLine
 10
241.918587
 20
26.273833
 30
0.0
 11
241.918587
 21
26.57039
 31
0.0
  0
LINE
  5
1F7
330
151
100
AcDbEntity
  8
0
  6
Continuous
 62
     0
370
    30
100
AcDbLine
 10
241.918587
 20
26.57039
 30
0.0
 11
241.918587
 21
42.27384
 31
0.0
  0
LINE
  5
1F8
330
151
100
AcDbEntity
  8
0
  6
Continuous
 62
     0
370
    30
100
AcDbLine
 10
246.918586
 20
21.273836
 30
0.0
 11
253.918585
 21
21.273836
 31
0.0
  0
LINE
  5
1F9
330
151
100
AcDbEntity
  8
0
  6
Continuous
 62
     0
370
    30
100
AcDbLine
 10
246.918586
 20
47.273836
 30
0.0
 11
252.188988
 21
47.273836
 31
0.0
  0
ARC
  5
1FA
330
151
100
AcDbEntity
  8
0
  6
Continuous
 62
     0
370
    30
100
AcDbCircle
 10
246.918593
 20
42.273833
 30
0.0
 40
5.00000658180806
100
AcDbArc
 50
90.000075
 51
179.999925
  0
ARC
  5
1FB
330
151
100
AcDbEntity
  8
0
  6
Continuous
 62
     0
370
    30
100
AcDbCircle
 10
246.918593
 20
26.27384
 30
0.0
 40
5.000006581797106
100
AcDbArc
 50
180.000075
 51
269.999925
  0
ARC
  5
1FC
330
151
100
AcDbEntity
  8
0
  6
Continuous
 62
     0
370
    30
100
AcDbCircle
 10
258.918585
 20
58.020683
 30
0.0
 40
10.99999790427792
100
AcDbArc
 50
58.948354
 51
121.051661
  0
LWPOLYLINE
  5
1FD
330
151
100
AcDbEntity
  8
0
  6
Continuous
 62
     0
370
    30
100
AcDbPolyline
 90
       15
 70
     0
 43
0.0
 10
265.859833
 20
60.66959
 10
266.194092
 20
61.117039
 10
266.47348
 20
61.607681
 10
266.68985
 20
62.133514
 10
266.83667
 20
62.685654
 10
266.910187
 20
63.253719
 10
266.907928
 20
63.826958
 10
266.830109
 20
64.394371
 10
266.678925
 20
64.945221
 10
266.458771
 20
65.469307
 10
266.175812
 20
65.957481
 10
265.838684
 20
66.402214
 10
265.457184
 20
66.798203
 10
265.042023
 20
67.143074
 10
264.592499
 20
67.444412
  0
LWPOLYLINE
  5
1FE
330
151
100
AcDbEntity
  8
0
  6
Continuous
 62
     0
370
    30
100
AcDbPolyline
 90
        7
 70
     0
 43
0.0
 10
251.977341
 20
60.66959
 10
251.677658
 20
61.065079
 10
251.420532
 20
61.495338
 10
251.211945
 20
61.954895
 10
251.056824
 20
62.437717
 10
250.958496
 20
62.936928
 10
250.918579
 20
63.523506
  0
LWPOLYLINE
  5
1FF
330
151
100
AcDbEntity
  8
0
  6
Continuous
 62
     0
370
    30
100
AcDbPolyline
 90
       10
 70
     0
 43
0.0
 10
253.244675
 20
67.444412
 10
252.830765
 20
67.169388
 10
252.437103
 20
66.850304
 10
252.072006
 20
66.485641
 10
251.744141
 20
66.077438
 10
251.462326
 20
65.629509
 10
251.233932
 20
65.147209
 10
251.064346
 20
64.638008
 10
250.958496
 20
64.109741
 10
250.918579
 20
63.523506
  0
LWPOLYLINE
  5
200
330
151
100
AcDbEntity
  8
0
  6
Continuous
 62
     0
370
    30
100
AcDbPolyline
 90
        9
 70
     0
 43
0.0
 10
263.918579
 20
55.227684
 10
263.952087
 20
55.993027
 10
264.052094
 20
56.750538
 10
264.216858
 20
57.491489
 10
264.443024
 20
58.207539
 10
264.726593
 20
58.890263
 10
265.060425
 20
59.530525
 10
265.435608
 20
60.118832
 10
265.859833
 20
60.66959
  0
LWPOLYLINE
  5
201
330
151
100
AcDbEntity
  8
0
  6
Continuous
 62
     0
370
    30
100
AcDbPolyline
 90
        9
 70
     0
 43
0.0
 10
253.918579
 20
55.227684
 10
253.885086
 20
55.993027
 10
253.78508
 20
56.750538
 10
253.620316
 20
57.491489
 10
253.394135
 20
58.207539
 10
253.110565
 20
58.890263
 10
252.776733
 20
59.530525
 10
252.40155
 20
60.118832
 10
251.977341
 20
60.66959
  0
LINE
  5
202
330
151
100
AcDbEntity
  8
0
  6
Continuous
 62
     0
370
    30
100
AcDbLine
 10
263.918585
 20
49.152534
 30
0.0
 11
263.918585
 21
55.227684
 31
0.0
  0
LWPOLYLINE
  5
203
330
151
100
AcDbEntity
  8
0
  6
Continuous
 62
     0
370
    30
100
AcDbPolyline
 90
       65
 70
     0
 43
0.0
 10
250.918579
 20
43.038433
 10
250.95752
 20
43.810352
 10
251.073914
 20
44.574581
 10
251.266556
 20
45.323479
 10
251.533356
 20
46.049732
 10
251.871582
 20
46.746147
 10
252.277695
 20
47.406002
 10
252.747513
 20
48.022999
 10
253.276382
 20
48.591198
 10
253.859055
 20
49.105217
 10
254.489563
 20
49.560646
 10
255.16185
 20
49.953262
 10
255.869598
 20
50.279266
 10
256.605988
 20
50.535881
 10
257.364014
 20
50.720798
 10
258.136566
 20
50.832596
 10
258.916412
 20
50.870102
 10
259.69632
 20
50.833027
 10
260.468933
 20
50.721676
 10
261.227051
 20
50.537086
 10
261.963562
 20
50.280853
 10
262.671478
 20
49.955208
 10
263.344086
 20
49.563129
 10
263.974854
 20
49.108036
 10
264.557709
 20
48.594204
 10
265.086853
 20
48.026237
 10
265.557068
 20
47.409565
 10
265.963501
 20
46.749928
 10
266.302124
 20
46.053715
 10
266.569305
 20
45.327602
 10
266.76236
 20
44.578789
 10
266.879181
 20
43.814667
 10
266.918518
 20
43.042789
 10
266.880096
 20
42.270882
 10
266.764099
 20
41.506626
 10
266.57196
 20
40.757595
 10
266.305511
 20
40.031246
 10
265.967743
 20
39.334618
 10
265.561981
 20
38.674576
 10
265.092499
 20
38.057339
 10
264.563995
 20
37.488808
 10
263.98172
 20
36.974304
 10
263.35144
 20
36.518555
 10
262.679291
 20
36.125729
 10
261.971741
 20
35.799305
 10
261.235535
 20
35.542267
 10
260.4776
 20
35.356865
 10
259.705078
 20
35.244781
 10
258.925232
 20
35.206779
 10
258.145325
 20
35.243435
 10
257.37265
 20
35.354336
 10
256.614441
 20
35.538502
 10
255.877808
 20
35.794403
 10
255.169678
 20
36.119568
 10
254.496841
 20
36.511284
 10
253.865799
 20
36.965992
 10
253.282791
 20
37.479671
 10
252.753342
 20
38.047333
 10
252.282639
 20
38.663628
 10
251.875748
 20
39.323013
 10
251.536896
 20
40.019054
 10
251.269333
 20
40.744919
 10
251.075699
 20
41.493649
 10
250.95842
 20
42.258076
 10
250.918579
 20
43.038433
  0
ARC
  5
204
330
151
100
AcDbEntity
  8
0
  6
Continuous
 62
     0
370
    30
100
AcDbCircle
 10
258.918585
 20
10.526989
 30
0.0
 40
10.99999790429218
100
AcDbArc
 50
238.948339
 51
301.051646
  0
LWPOLYLINE
  5
205
330
151
100
AcDbEntity
  8
0
  6
Continuous
 62
     0
370
    30
100
AcDbPolyline
 90
       15
 70
     0
 43
0.0
 10
265.859833
 20
7.878083
 10
266.194092
 20
7.430635
 10
266.47348
 20
6.939991
 10
266.68985
 20
6.414157
 10
266.83667
 20
5.862019
 10
266.910187
 20
5.293953
 10
266.907928
 20
4.720713
 10
266.830109
 20
4.153302
 10
266.678925
 20
3.602449
 10
266.458771
 20
3.078367
 10
266.175812
 20
2.590189
 10
265.838684
 20
2.145455
 10
265.457184
 20
1.749472
 10
265.042023
 20
1.404597
 10
264.592499
 20
1.103263
  0
LWPOLYLINE
  5
206
330
151
100
AcDbEntity
  8
0
  6
Continuous
 62
     0
370
    30
100
AcDbPolyline
 90
        7
 70
     0
 43
0.0
 10
251.977341
 20
7.878083
 10
251.677658
 20
7.482593
 10
251.420532
 20
7.052332
 10
251.211945
 20
6.592778
 10
251.056824
 20
6.109956
 10
250.958496
 20
5.610744
 10
250.918579
 20
5.024166
  0
LWPOLYLINE
  5
207
330
151
100
AcDbEntity
  8
0
  6
Continuous
 62
     0
370
    30
100
AcDbPolyline
 90
       10
 70
     0
 43
0.0
 10
253.244675
 20
1.103263
 10
252.830765
 20
1.378285
 10
252.437103
 20
1.697371
 10
252.072006
 20
2.062031
 10
251.744141
 20
2.470236
 10
251.462326
 20
2.918164
 10
251.233932
 20
3.40046
 10
251.064346
 20
3.909664
 10
250.958496
 20
4.437929
 10
250.918579
 20
5.024166
  0
LWPOLYLINE
  5
208
330
151
100
AcDbEntity
  8
0
  6
Continuous
 62
     0
370
    30
100
AcDbPolyline
 90
        9
 70
     0
 43
0.0
 10
263.918579
 20
13.319988
 10
263.952087
 20
12.554646
 10
264.052094
 20
11.797134
 10
264.216858
 20
11.056183
 10
264.443024
 20
10.340134
 10
264.726593
 20
9.65741
 10
265.060425
 20
9.017148
 10
265.435608
 20
8.428842
 10
265.859833
 20
7.878083
  0
LWPOLYLINE
  5
209
330
151
100
AcDbEntity
  8
0
  6
Continuous
 62
     0
370
    30
100
AcDbPolyline
 90
        9
 70
     0
 43
0.0
 10
253.918579
 20
13.319988
 10
253.885086
 20
12.554646
 10
253.78508
 20
11.797134
 10
253.620316
 20
11.056183
 10
253.394135
 20
10.340134
 10
253.110565
 20
9.65741
 10
252.776733
 20
9.017148
 10
252.40155
 20
8.428842
 10
251.977341
 20
7.878083
  0
LINE
  5
20A
330
151
100
AcDbEntity
  8
0
  6
Continuous
 62
     0
370
    30
100
AcDbLine
 10
263.918585
 20
21.842703
 30
0.0
 11
263.918585
 21
13.319988
 31
0.0
  0
LWPOLYLINE
  5
20B
330
151
100
AcDbEntity
  8
0
  6
Continuous
 62
     0
370
    30
100
AcDbPolyline
 90
        6
 70
     0
 43
0.0
 10
263.918579
 20
19.39514
 10
264.404114
 20
19.807997
 10
264.854492
 20
20.258162
 10
265.266815
 20
20.742777
 10
265.638306
 20
21.258749
 10
266.038849
 20
21.938213
  0
LWPOLYLINE
  5
20C
330
151
100
AcDbEntity
  8
0
  6
Continuous
 62
     0
370
    30
100
AcDbPolyline
 90
        5
 70
     0
 43
0.0
 10
252.18898
 20
21.273838
 10
252.531189
 20
20.793123
 10
252.908844
 20
20.33919
 10
253.319778
 20
19.914558
 10
253.918579
 20
19.395355
  0
LINE
  5
20D
330
151
100
AcDbEntity
  8
0
  6
Continuous
 62
     0
370
    30
100
AcDbLine
 10
273.258285
 20
40.52394
 30
0.0
 11
276.603248
 21
40.534703
 31
0.0
  0
LINE
  5
20E
330
151
100
AcDbEntity
  8
0
  6
Continuous
 62
     0
370
    30
100
AcDbLine
 10
273.258285
 20
28.023733
 30
0.0
 11
276.603219
 21
28.01297
 31
0.0
  0
ARC
  5
20F
330
151
100
AcDbEntity
  8
0
  6
Continuous
 62
     0
370
    30
100
AcDbCircle
 10
273.226264
 20
45.524063
 30
0.0
 40
5.00022529556909
100
AcDbArc
 50
200.926621
 51
270.366922
  0
ARC
  5
210
330
151
100
AcDbEntity
  8
0
  6
Continuous
 62
     0
370
    30
100
AcDbCircle
 10
273.226264
 20
23.02361
 30
0.0
 40
5.000225295535646
100
AcDbArc
 50
89.633078
 51
159.073379
  0
ARC
  5
211
330
151
100
AcDbEntity
  8
0
  6
Continuous
 62
     0
370
    30
100
AcDbCircle
 10
263.417944
 20
26.774685
 30
0.0
 40
5.500903408774276
100
AcDbArc
 50
275.22175
 51
339.069299
  0
ARC
  5
212
330
151
100
AcDbEntity
  8
0
  6
Continuous
 62
     0
370
    30
100
AcDbCircle
 10
263.415604
 20
41.771054
 30
0.0
 40
5.503779842072326
100
AcDbArc
 50
20.940794
 51
61.534708
  0
ENDBLK
  5
214
330
151
100
AcDbEntity
  8
0
100
AcDbBlockEnd
  0
BLOCK
  5
2DE
330
216
100
AcDbEntity
  8
0
100
AcDbBlockBegin
  2
c
 70
     0
 10
293.90625
 20
0.0
 30
0.0
  3
c
  1

  0
ARC
  5
217
330
216
100
AcDbEntity
  8
0
  6
Continuous
 62
     0
370
    30
100
AcDbCircle
 10
525.563913
 20
254.217712
 30
0.0
 40
52.20496358493851
100
AcDbArc
 50
0.0
 51
8.81486
  0
LINE
  5
218
330
216
100
AcDbEntity
  8
0
  6
Continuous
 62
     0
370
    30
100
AcDbLine
 10
577.152267
 20
262.217712
 30
0.0
 11
577.152267
 21
246.217712
 31
0.0
  0
LINE
  5
219
330
216
100
AcDbEntity
  8
0
  6
Continuous
 62
     0
370
    30
100
AcDbLine
 10
577.152267
 20
262.217712
 30
0.0
 11
576.652267
 21
262.217712
 31
0.0
  0
LINE
  5
21A
330
216
100
AcDbEntity
  8
0
  6
Continuous
 62
     0
370
    30
100
AcDbLine
 10
576.652267
 20
262.217712
 30
0.0
 11
576.652267
 21
246.217712
 31
0.0
  0
ARC
  5
21B
330
216
100
AcDbEntity
  8
0
  6
Continuous
 62
     0
370
    30
100
AcDbCircle
 10
562.598779
 20
253.745619
 30
0.0
 40
15.47218547989659
100
AcDbArc
 50
125.575666
 51
146.799587
  0
ARC
  5
21C
330
216
100
AcDbEntity
  8
0
  6
Continuous
 62
     0
370
    30
100
AcDbCircle
 10
562.598779
 20
253.745619
 30
0.0
 40
15.47218547989659
100
AcDbArc
 50
24.727623
 51
54.436815
  0
LINE
  5
21D
330
216
100
AcDbEntity
  8
0
  6
Continuous
 62
     0
370
    30
100
AcDbLine
 10
549.652267
 20
264.217712
 30
0.0
 11
549.652267
 21
244.217712
 31
0.0
  0
ARC
  5
21E
330
216
100
AcDbEntity
  8
0
  6
Continuous
 62
     0
370
    30
100
AcDbCircle
 10
547.152267
 20
264.217712
 30
0.0
 40
2.499999999990001
100
AcDbArc
 50
0.0
 51
180.0
  0
LINE
  5
21F
330
216
100
AcDbEntity
  8
0
  6
Continuous
 62
     0
370
    30
100
AcDbLine
 10
544.652267
 20
264.976523
 30
0.0
 11
544.652267
 21
243.458902
 31
0.0
  0
ARC
  5
220
330
216
100
AcDbEntity
  8
0
  6
Continuous
 62
     0
370
    30
100
AcDbCircle
 10
539.652267
 20
264.976523
 30
0.0
 40
4.999999999980002
100
AcDbArc
 50
0.0
 51
73.61046
  0
LINE
  5
221
330
216
100
AcDbEntity
  8
0
  6
Continuous
 62
     0
370
     0
100
AcDbLine
 10
541.063099
 20
269.77335
 30
0.0
 11
541.063099
 21
238.662075
 31
0.0
  0
LINE
  5
222
330
216
100
AcDbEntity
  8
0
  6
Continuous
 62
     0
370
    30
100
AcDbLine
 10
541.063099
 20
269.77335
 30
0.0
 11
527.652267
 21
273.717712
 31
0.0
  0
LINE
  5
223
330
216
100
AcDbEntity
  8
0
  6
Continuous
 62
     0
370
     0
100
AcDbLine
 10
527.652267
 20
273.717712
 30
0.0
 11
527.652267
 21
234.717712
 31
0.0
  0
ARC
  5
224
330
216
100
AcDbEntity
  8
0
  6
Continuous
 62
     0
370
    30
100
AcDbCircle
 10
536.000484
 20
306.245778
 30
0.0
 40
33.58225369792324
100
AcDbArc
 50
223.169476
 51
255.605901
  0
LINE
  5
225
330
216
100
AcDbEntity
  8
0
  6
Continuous
 62
     0
370
     0
100
AcDbLine
 10
511.507831
 20
283.270188
 30
0.0
 11
511.507831
 21
225.165236
 31
0.0
  0
ARC
  5
226
330
216
100
AcDbEntity
  8
0
  6
Continuous
 62
     0
370
    30
100
AcDbCircle
 10
509.319831
 20
281.217712
 30
0.0
 40
2.999999999988001
100
AcDbArc
 50
43.169476
 51
90.0
  0
LINE
  5
227
330
216
100
AcDbEntity
  8
0
  6
Continuous
 62
     0
370
     0
100
AcDbLine
 10
509.319831
 20
284.217712
 30
0.0
 11
509.319831
 21
224.217712
 31
0.0
  0
LINE
  5
228
330
216
100
AcDbEntity
  8
0
  6
Continuous
 62
     0
370
    30
100
AcDbLine
 10
509.319831
 20
284.217712
 30
0.0
 11
502.652267
 21
284.217712
 31
0.0
  0
LINE
  5
229
330
216
100
AcDbEntity
  8
0
  6
Continuous
 62
     0
370
    30
100
AcDbLine
 10
502.652267
 20
284.217712
 30
0.0
 11
502.652267
 21
224.217712
 31
0.0
  0
LINE
  5
22A
330
216
100
AcDbEntity
  8
0
  6
Continuous
 62
     0
370
    30
100
AcDbLine
 10
502.652267
 20
224.217712
 30
0.0
 11
509.319831
 21
224.217712
 31
0.0
  0
ARC
  5
22B
330
216
100
AcDbEntity
  8
0
  6
Continuous
 62
     0
370
    30
100
AcDbCircle
 10
509.319767
 20
227.217861
 30
0.0
 40
3.000149024521663
100
AcDbArc
 50
270.001232
 51
316.829292
  0
ARC
  5
22C
330
216
100
AcDbEntity
  8
0
  6
Continuous
 62
     0
370
    30
100
AcDbCircle
 10
536.000486
 20
202.189644
 30
0.0
 40
33.58225706382744
100
AcDbArc
 50
104.394101
 51
136.830523
  0
LINE
  5
22D
330
216
100
AcDbEntity
  8
0
  6
Continuous
 62
     0
370
    30
100
AcDbLine
 10
541.063099
 20
238.662075
 30
0.0
 11
527.652267
 21
234.717712
 31
0.0
  0
ARC
  5
22E
330
216
100
AcDbEntity
  8
0
  6
Continuous
 62
     0
370
    30
100
AcDbCircle
 10
539.652388
 20
243.458812
 30
0.0
 40
4.999879013561596
100
AcDbArc
 50
286.388503
 51
359.994172
  0
ARC
  5
22F
330
216
100
AcDbEntity
  8
0
  6
Continuous
 62
     0
370
    30
100
AcDbCircle
 10
547.152267
 20
244.217714
 30
0.0
 40
2.500000000160889
100
AcDbArc
 50
180.000028
 51
359.983766
  0
ARC
  5
230
330
216
100
AcDbEntity
  8
0
  6
Continuous
 62
     0
370
    30
100
AcDbCircle
 10
562.598779
 20
254.689806
 30
0.0
 40
15.47218580020938
100
AcDbArc
 50
213.200415
 51
335.272375
  0
LINE
  5
231
330
216
100
AcDbEntity
  8
0
  6
Continuous
 62
     0
370
    30
100
AcDbLine
 10
576.652267
 20
246.217712
 30
0.0
 11
577.152267
 21
246.217712
 31
0.0
  0
ARC
  5
232
330
216
100
AcDbEntity
  8
0
  6
Continuous
 62
     0
370
    30
100
AcDbCircle
 10
525.563029
 20
254.217781
 30
0.0
 40
52.20584747884145
100
AcDbArc
 50
351.185215
 51
359.990238
  0
LINE
  5
233
330
216
100
AcDbEntity
  8
0
  6
Continuous
 62
     0
370
    30
100
AcDbLine
 10
563.685183
 20
535.659389
 30
0.0
 11
549.597408
 21
535.659389
 31
0.0
  0
LINE
  5
234
330
216
100
AcDbEntity
  8
0
  6
Continuous
 62
     0
370
    30
100
AcDbLine
 10
549.597408
 20
535.659389
 30
0.0
 11
549.597408
 21
539.159389
 31
0.0
  0
LINE
  5
235
330
216
100
AcDbEntity
  8
0
  6
Continuous
 62
     0
370
    30
100
AcDbLine
 10
564.124518
 20
539.159389
 30
0.0
 11
549.597408
 21
539.159389
 31
0.0
  0
ARC
  5
236
330
216
100
AcDbEntity
  8
0
  6
Continuous
 62
     0
370
    30
100
AcDbCircle
 10
602.097408
 20
567.159389
 30
0.0
 40
59.49999999976617
100
AcDbArc
 50
155.523373
 51
180.743236
  0
ARC
  5
237
330
216
100
AcDbEntity
  8
0
  6
Continuous
 62
     0
370
    30
100
AcDbCircle
 10
602.097408
 20
567.159389
 30
0.0
 40
59.49999999976617
100
AcDbArc
 50
190.565909
 51
208.072487
  0
LINE
  5
238
330
216
100
AcDbEntity
  8
0
  6
Continuous
 62
     0
370
    30
100
AcDbLine
 10
575.597408
 20
595.159389
 30
0.0
 11
561.070299
 21
595.159389
 31
0.0
  0
LINE
  5
239
330
216
100
AcDbEntity
  8
0
  6
Continuous
 62
     0
370
    30
100
AcDbLine
 10
575.597408
 20
598.659389
 30
0.0
 11
561.509633
 21
598.659389
 31
0.0
  0
LINE
  5
23A
330
216
100
AcDbEntity
  8
0
  6
Continuous
 62
     0
370
    30
100
AcDbLine
 10
575.597408
 20
598.659389
 30
0.0
 11
575.597408
 21
595.159389
 31
0.0
  0
ARC
  5
23B
330
216
100
AcDbEntity
  8
0
  6
Continuous
 62
     0
370
    30
100
AcDbCircle
 10
523.094779
 20
567.158483
 30
0.0
 40
59.5027456149099
100
AcDbArc
 50
10.654174
 51
28.072066
  0
ARC
  5
23C
330
216
100
AcDbEntity
  8
0
  6
Continuous
 62
     0
370
    30
100
AcDbCircle
 10
523.096972
 20
567.159504
 30
0.0
 40
59.50044517257944
100
AcDbArc
 50
335.523446
 51
349.346184
  0
ARC
  5
23D
330
216
100
AcDbEntity
  8
0
  6
Continuous
 62
     0
370
    30
100
AcDbCircle
 10
525.563913
 20
804.217712
 30
0.0
 40
52.20496358493851
100
AcDbArc
 50
0.0
 51
8.81486
  0
LINE
  5
23E
330
216
100
AcDbEntity
  8
0
  6
Continuous
 62
     0
370
    30
100
AcDbLine
 10
577.152267
 20
812.217712
 30
0.0
 11
577.152267
 21
796.217712
 31
0.0
  0
LINE
  5
23F
330
216
100
AcDbEntity
  8
0
  6
Continuous
 62
     0
370
    30
100
AcDbLine
 10
577.152267
 20
812.217712
 30
0.0
 11
576.652267
 21
812.217712
 31
0.0
  0
LINE
  5
240
330
216
100
AcDbEntity
  8
0
  6
Continuous
 62
     0
370
    30
100
AcDbLine
 10
576.652267
 20
812.217712
 30
0.0
 11
576.652267
 21
796.217712
 31
0.0
  0
ARC
  5
241
330
216
100
AcDbEntity
  8
0
  6
Continuous
 62
     0
370
    30
100
AcDbCircle
 10
562.598779
 20
803.745619
 30
0.0
 40
15.47218547989659
100
AcDbArc
 50
24.727623
 51
146.799587
  0
ARC
  5
242
330
216
100
AcDbEntity
  8
0
  6
Continuous
 62
     0
370
    30
100
AcDbCircle
 10
560.492016
 20
542.48043
 30
0.0
 40
249.7203091025505
100
AcDbArc
 50
91.042688
 51
91.582084
  0
ARC
  5
243
330
216
100
AcDbEntity
  8
0
  6
Continuous
 62
     0
370
    30
100
AcDbCircle
 10
564.621135
 20
541.39304
 30
0.0
 40
250.8075767273918
100
AcDbArc
 50
88.406099
 51
88.961108
  0
LINE
  5
244
330
216
100
AcDbEntity
  8
0
  6
Continuous
 62
     0
370
    30
100
AcDbLine
 10
549.652267
 20
814.217712
 30
0.0
 11
549.652267
 21
794.217712
 31
0.0
  0
ARC
  5
245
330
216
100
AcDbEntity
  8
0
  6
Continuous
 62
     0
370
    30
100
AcDbCircle
 10
547.152267
 20
814.217712
 30
0.0
 40
2.499999999990001
100
AcDbArc
 50
0.0
 51
180.0
  0
LINE
  5
246
330
216
100
AcDbEntity
  8
0
  6
Continuous
 62
     0
370
    30
100
AcDbLine
 10
544.652267
 20
814.976523
 30
0.0
 11
544.652267
 21
793.458902
 31
0.0
  0
ARC
  5
247
330
216
100
AcDbEntity
  8
0
  6
Continuous
 62
     0
370
    30
100
AcDbCircle
 10
539.652267
 20
814.976523
 30
0.0
 40
4.999999999980002
100
AcDbArc
 50
0.0
 51
73.61046
  0
LINE
  5
248
330
216
100
AcDbEntity
  8
0
  6
Continuous
 62
     0
370
     0
100
AcDbLine
 10
541.063099
 20
819.77335
 30
0.0
 11
541.063099
 21
788.662075
 31
0.0
  0
LINE
  5
249
330
216
100
AcDbEntity
  8
0
  6
Continuous
 62
     0
370
    30
100
AcDbLine
 10
541.063099
 20
819.77335
 30
0.0
 11
527.652267
 21
823.717712
 31
0.0
  0
LINE
  5
24A
330
216
100
AcDbEntity
  8
0
  6
Continuous
 62
     0
370
     0
100
AcDbLine
 10
527.652267
 20
823.717712
 30
0.0
 11
527.652267
 21
784.717712
 31
0.0
  0
ARC
  5
24B
330
216
100
AcDbEntity
  8
0
  6
Continuous
 62
     0
370
    30
100
AcDbCircle
 10
536.000484
 20
856.245778
 30
0.0
 40
33.58225369792324
100
AcDbArc
 50
223.169476
 51
255.605901
  0
LINE
  5
24C
330
216
100
AcDbEntity
  8
0
  6
Continuous
 62
     0
370
     0
100
AcDbLine
 10
511.507831
 20
833.270188
 30
0.0
 11
511.507831
 21
775.165236
 31
0.0
  0
ARC
  5
24D
330
216
100
AcDbEntity
  8
0
  6
Continuous
 62
     0
370
    30
100
AcDbCircle
 10
509.319831
 20
831.217712
 30
0.0
 40
2.999999999988001
100
AcDbArc
 50
43.169476
 51
90.0
  0
LINE
  5
24E
330
216
100
AcDbEntity
  8
0
  6
Continuous
 62
     0
370
     0
100
AcDbLine
 10
509.319831
 20
834.217712
 30
0.0
 11
509.319831
 21
774.217712
 31
0.0
  0
LINE
  5
24F
330
216
100
AcDbEntity
  8
0
  6
Continuous
 62
     0
370
    30
100
AcDbLine
 10
509.319831
 20
834.217712
 30
0.0
 11
502.652267
 21
834.217712
 31
0.0
  0
LINE
  5
250
330
216
100
AcDbEntity
  8
0
  6
Continuous
 62
     0
370
    30
100
AcDbLine
 10
502.652267
 20
834.217712
 30
0.0
 11
502.652267
 21
774.217712
 31
0.0
  0
LINE
  5
251
330
216
100
AcDbEntity
  8
0
  6
Continuous
 62
     0
370
    30
100
AcDbLine
 10
571.597408
 20
532.575139
 30
0.0
 11
571.597408
 21
266.33185
 31
0.0
  0
LINE
  5
252
330
216
100
AcDbEntity
  8
0
  6
Continuous
 62
     0
370
    30
100
AcDbLine
 10
571.597408
 20
792.103575
 30
0.0
 11
571.597408
 21
598.659389
 31
0.0
  0
LINE
  5
253
330
216
100
AcDbEntity
  8
0
  6
Continuous
 62
     0
370
    30
100
AcDbLine
 10
569.168549
 20
792.159389
 30
0.0
 11
555.947774
 21
792.159389
 31
0.0
  0
LINE
  5
254
330
216
100
AcDbEntity
  8
0
  6
Continuous
 62
     0
370
     0
100
AcDbLine
 10
596.571761
 20
570.3011
 30
0.0
 11
596.571761
 21
553.159389
 31
0.0
  0
LINE
  5
255
330
216
100
AcDbEntity
  8
0
  6
Continuous
 62
     0
370
     0
100
AcDbLine
 10
596.571761
 20
581.159389
 30
0.0
 11
596.571761
 21
578.324505
 31
0.0
  0
LINE
  5
256
330
216
100
AcDbEntity
  8
0
  6
Continuous
 62
     0
370
    30
100
AcDbLine
 10
596.571761
 20
581.159389
 30
0.0
 11
606.571761
 21
581.159389
 31
0.0
  0
LINE
  5
257
330
216
100
AcDbEntity
  8
0
  6
Continuous
 62
     0
370
     0
100
AcDbLine
 10
606.571761
 20
581.159389
 30
0.0
 11
606.571761
 21
553.159389
 31
0.0
  0
ARC
  5
258
330
216
100
AcDbEntity
  8
0
  6
Continuous
 62
     0
370
    30
100
AcDbCircle
 10
606.571761
 20
579.159389
 30
0.0
 40
1.999999999992002
100
AcDbArc
 50
0.0
 51
90.0
  0
LINE
  5
259
330
216
100
AcDbEntity
  8
0
  6
Continuous
 62
     0
370
    30
100
AcDbLine
 10
608.571761
 20
579.159389
 30
0.0
 11
608.571761
 21
555.159389
 31
0.0
  0
ARC
  5
25A
330
216
100
AcDbEntity
  8
0
  6
Continuous
 62
     0
370
    30
100
AcDbCircle
 10
607.411413
 20
571.49904
 30
0.0
 40
4.802630330675276
100
AcDbArc
 50
13.9814
 51
76.0186
  0
LINE
  5
25B
330
216
100
AcDbEntity
  8
0
  6
Continuous
 62
     0
370
    30
100
AcDbLine
 10
612.071761
 20
572.659389
 30
0.0
 11
612.071761
 21
561.659389
 31
0.0
  0
LINE
  5
25C
330
216
100
AcDbEntity
  8
0
  6
Continuous
 62
     0
370
    30
100
AcDbLine
 10
581.571756
 20
578.159389
 30
0.0
 11
581.887899
 21
578.159389
 31
0.0
  0
LINE
  5
25D
330
216
100
AcDbEntity
  8
0
  6
Continuous
 62
     0
370
    30
100
AcDbLine
 10
595.571761
 20
569.032661
 30
0.0
 11
595.571761
 21
554.159389
 31
0.0
  0
ARC
  5
25E
330
216
100
AcDbEntity
  8
0
  6
Continuous
 62
     0
370
    30
100
AcDbCircle
 10
596.571761
 20
580.159389
 30
0.0
 40
0.999999999996
100
AcDbArc
 50
90.0
 51
174.477024
  0
ARC
  5
25F
330
216
100
AcDbEntity
  8
0
  6
Continuous
 62
     0
370
    30
100
AcDbCircle
 10
596.571765
 20
554.159392
 30
0.0
 40
1.000003375194782
100
AcDbArc
 50
180.008296
 51
269.999807
  0
LINE
  5
260
330
216
100
AcDbEntity
  8
0
  6
Continuous
 62
     0
370
    30
100
AcDbLine
 10
581.571757
 20
556.159389
 30
0.0
 11
595.571761
 21
556.159389
 31
0.0
  0
ARC
  5
261
330
216
100
AcDbEntity
  8
0
  6
Continuous
 62
     0
370
    30
100
AcDbCircle
 10
607.411324
 20
562.819827
 30
0.0
 40
4.802738221364951
100
AcDbArc
 50
283.982174
 51
346.017826
  0
ARC
  5
262
330
216
100
AcDbEntity
  8
0
  6
Continuous
 62
     0
370
    30
100
AcDbCircle
 10
606.571671
 20
555.159479
 30
0.0
 40
2.000090101234502
100
AcDbArc
 50
270.002581
 51
359.997419
  0
LINE
  5
263
330
216
100
AcDbEntity
  8
0
  6
Continuous
 62
     0
370
    30
100
AcDbLine
 10
596.571761
 20
553.159389
 30
0.0
 11
606.571761
 21
553.159389
 31
0.0
  0
LINE
  5
264
330
216
100
AcDbEntity
  8
0
  6
Continuous
 62
     0
370
    30
100
AcDbLine
 10
553.597408
 20
535.659389
 30
0.0
 11
553.597408
 21
266.329889
 31
0.0
  0
LINE
  5
265
330
216
100
AcDbEntity
  8
0
  6
Continuous
 62
     0
370
    30
100
AcDbLine
 10
553.597408
 20
792.105543
 30
0.0
 11
553.597408
 21
601.743639
 31
0.0
  0
LINE
  5
266
330
216
100
AcDbEntity
  8
0
  6
Continuous
 62
     0
370
    30
100
AcDbLine
 10
502.652267
 20
774.217712
 30
0.0
 11
509.319831
 21
774.217712
 31
0.0
  0
ARC
  5
267
330
216
100
AcDbEntity
  8
0
  6
Continuous
 62
     0
370
    30
100
AcDbCircle
 10
509.319767
 20
777.217861
 30
0.0
 40
3.000149024417753
100
AcDbArc
 50
270.001232
 51
316.829292
  0
ARC
  5
268
330
216
100
AcDbEntity
  8
0
  6
Continuous
 62
     0
370
    30
100
AcDbCircle
 10
536.000486
 20
752.189644
 30
0.0
 40
33.58225706380736
100
AcDbArc
 50
104.394101
 51
136.830523
  0
LINE
  5
269
330
216
100
AcDbEntity
  8
0
  6
Continuous
 62
     0
370
    30
100
AcDbLine
 10
541.063099
 20
788.662075
 30
0.0
 11
527.652267
 21
784.717712
 31
0.0
  0
ARC
  5
26A
330
216
100
AcDbEntity
  8
0
  6
Continuous
 62
     0
370
    30
100
AcDbCircle
 10
539.652388
 20
793.458812
 30
0.0
 40
4.999879013580626
100
AcDbArc
 50
286.388503
 51
359.994172
  0
ARC
  5
26B
330
216
100
AcDbEntity
  8
0
  6
Continuous
 62
     0
370
    30
100
AcDbCircle
 10
547.152267
 20
794.217714
 30
0.0
 40
2.500000000160776
100
AcDbArc
 50
180.000028
 51
359.983766
  0
LWPOLYLINE
  5
26C
330
216
100
AcDbEntity
  8
0
  6
Continuous
 62
     0
370
    30
100
AcDbPolyline
 90
        9
 70
     0
 43
0.0
 10
549.652283
 20
796.217712
 10
550.056458
 20
795.630066
 10
550.487366
 20
795.061584
 10
550.944031
 20
794.513611
 10
551.425415
 20
793.987305
 10
551.930542
 20
793.483704
 10
552.458374
 20
793.003906
 10
553.007812
 20
792.549133
 10
553.596863
 20
792.105896
  0
ARC
  5
26D
330
216
100
AcDbEntity
  8
0
  6
Continuous
 62
     0
370
    30
100
AcDbCircle
 10
562.598864
 20
804.689735
 30
0.0
 40
15.47207886490022
100
AcDbArc
 50
305.56308
 51
335.272482
  0
LINE
  5
26E
330
216
100
AcDbEntity
  8
0
  6
Continuous
 62
     0
370
    30
100
AcDbLine
 10
576.652267
 20
796.217712
 30
0.0
 11
577.152267
 21
796.217712
 31
0.0
  0
ARC
  5
26F
330
216
100
AcDbEntity
  8
0
  6
Continuous
 62
     0
370
    30
100
AcDbCircle
 10
525.563029
 20
804.217781
 30
0.0
 40
52.20584747842491
100
AcDbArc
 50
351.185215
 51
359.990238
  0
LINE
  5
270
330
216
100
AcDbEntity
  8
0
  6
Continuous
 62
     0
370
    30
100
AcDbLine
 10
640.447314
 20
579.321032
 30
0.0
 11
658.785482
 21
573.313606
 31
0.0
  0
LINE
  5
271
330
216
100
AcDbEntity
  8
0
  6
Continuous
 62
     0
370
    30
100
AcDbLine
 10
658.785482
 20
573.313606
 30
0.0
 11
660.878927
 21
572.627811
 31
0.0
  0
LINE
  5
272
330
216
100
AcDbEntity
  8
0
  6
Continuous
 62
     0
370
     0
100
AcDbLine
 10
654.164174
 20
558.516998
 30
0.0
 11
658.833863
 21
572.771611
 31
0.0
  0
LINE
  5
273
330
216
100
AcDbEntity
  8
0
  6
Continuous
 62
     0
370
     0
100
AcDbLine
 10
639.909772
 20
578.970981
 30
0.0
 11
658.833863
 21
572.771611
 31
0.0
  0
LWPOLYLINE
  5
274
330
216
100
AcDbEntity
  8
0
  6
Continuous
 62
     0
370
    30
100
AcDbPolyline
 90
        9
 70
     0
 43
0.0
 10
639.622925
 20
575.674744
 10
639.73468
 20
576.225708
 10
639.817505
 20
576.754211
 10
639.873779
 20
577.249146
 10
639.907654
 20
577.701965
 10
639.923767
 20
578.104858
 10
639.926636
 20
578.451965
 10
639.920898
 20
578.737549
 10
639.90979
 20
578.971008
  0
ARC
  5
275
330
216
100
AcDbEntity
  8
0
  6
Continuous
 62
     0
370
    30
100
AcDbCircle
 10
623.395364
 20
579.367742
 30
0.0
 40
16.64245508634274
100
AcDbArc
 50
341.789533
 51
347.179249
  0
LINE
  5
276
330
216
100
AcDbEntity
  8
0
  6
Continuous
 62
     0
370
    30
100
AcDbLine
 10
637.366056
 20
568.555498
 30
0.0
 11
639.204281
 21
574.166834
 31
0.0
  0
LWPOLYLINE
  5
277
330
216
100
AcDbEntity
  8
0
  6
Continuous
 62
     0
370
    30
100
AcDbPolyline
 90
       10
 70
     0
 43
0.0
 10
637.366028
 20
568.555481
 10
637.168945
 20
567.998352
 10
636.949585
 20
567.459229
 10
636.713501
 20
566.946472
 10
636.467773
 20
566.466187
 10
636.219727
 20
566.024048
 10
635.976685
 20
565.624573
 10
635.745972
 20
565.270874
 10
635.535034
 20
564.966003
 10
635.330872
 20
564.686646
  0
LINE
  5
278
330
216
100
AcDbEntity
  8
0
  6
Continuous
 62
     0
370
     0
100
AcDbLine
 10
635.330872
 20
564.686626
 30
0.0
 11
654.164174
 21
558.516998
 31
0.0
  0
LINE
  5
279
330
216
100
AcDbEntity
  8
0
  6
Continuous
 62
     0
370
     0
100
AcDbLine
 10
654.179455
 20
558.511992
 30
0.0
 11
654.164174
 21
558.516998
 31
0.0
  0
LINE
  5
27A
330
216
100
AcDbEntity
  8
0
  6
Continuous
 62
     0
370
     0
100
AcDbLine
 10
654.179455
 20
558.511992
 30
0.0
 11
658.849144
 21
572.766605
 31
0.0
  0
LINE
  5
27B
330
216
100
AcDbEntity
  8
0
  6
Continuous
 62
     0
370
     0
100
AcDbLine
 10
658.849144
 20
572.766605
 30
0.0
 11
658.833863
 21
572.771611
 31
0.0
  0
LINE
  5
27C
330
216
100
AcDbEntity
  8
0
  6
Continuous
 62
     0
370
     0
100
AcDbLine
 10
654.179455
 20
558.511992
 30
0.0
 11
656.505506
 21
557.749998
 31
0.0
  0
LINE
  5
27D
330
216
100
AcDbEntity
  8
0
  6
Continuous
 62
     0
370
     0
100
AcDbLine
 10
656.505506
 20
557.749998
 30
0.0
 11
661.175195
 21
572.004611
 31
0.0
  0
LINE
  5
27E
330
216
100
AcDbEntity
  8
0
  6
Continuous
 62
     0
370
     0
100
AcDbLine
 10
658.849144
 20
572.766605
 30
0.0
 11
661.175195
 21
572.004611
 31
0.0
  0
LINE
  5
27F
330
216
100
AcDbEntity
  8
0
  6
Continuous
 62
     0
370
     0
100
AcDbLine
 10
656.528736
 20
557.742388
 30
0.0
 11
656.505506
 21
557.749998
 31
0.0
  0
LINE
  5
280
330
216
100
AcDbEntity
  8
0
  6
Continuous
 62
     0
370
    30
100
AcDbLine
 10
656.528736
 20
557.742388
 30
0.0
 11
661.198425
 21
571.997001
 31
0.0
  0
LINE
  5
281
330
216
100
AcDbEntity
  8
0
  6
Continuous
 62
     0
370
     0
100
AcDbLine
 10
661.198425
 20
571.997001
 30
0.0
 11
661.175195
 21
572.004611
 31
0.0
  0
LWPOLYLINE
  5
282
330
216
100
AcDbEntity
  8
0
  6
Continuous
 62
     0
370
    30
100
AcDbPolyline
 90
        7
 70
     0
 43
0.0
 10
635.467529
 20
564.115723
 10
635.37384
 20
564.159729
 10
635.299927
 20
564.224487
 10
635.25061
 20
564.30896
 10
635.231323
 20
564.411865
 10
635.249207
 20
564.530762
 10
635.330872
 20
564.686646
  0
LINE
  5
283
330
216
100
AcDbEntity
  8
0
  6
Continuous
 62
     0
370
    30
100
AcDbLine
 10
635.467535
 20
564.115711
 30
0.0
 11
653.80448
 21
558.108685
 31
0.0
  0
ELLIPSE
  5
284
330
216
100
AcDbEntity
  8
0
  6
Continuous
 62
     0
370
     0
100
AcDbEllipse
 10
653.960136
 20
558.583839
 30
0.0
 11
-0.1556563040113365
 21
-0.4751537803927603
 31
0.0
210
0.0
220
0.0
230
1.0
 40
0.429414
 41
0.0000000150678625
 42
1.570796341862719
  0
ELLIPSE
  5
285
330
216
100
AcDbEntity
  8
0
  6
Continuous
 62
     0
370
     0
100
AcDbEllipse
 10
653.960136
 20
558.583839
 30
0.0
 11
0.155656304301223
 21
0.4751537802977939
 31
0.0
210
0.0
220
0.0
230
-1.0
 40
0.461575
 41
1.570796311455172
 42
3.141592638250047
  0
LINE
  5
286
330
216
100
AcDbEntity
  8
0
  6
Continuous
 62
     0
370
    30
100
AcDbLine
 10
653.80448
 20
558.108685
 30
0.0
 11
655.897926
 21
557.42289
 31
0.0
  0
ELLIPSE
  5
287
330
216
100
AcDbEntity
  8
0
  6
Continuous
 62
     0
370
     0
100
AcDbEllipse
 10
656.053582
 20
557.898044
 30
0.0
 11
-0.1556563208487352
 21
-0.4751537748769725
 31
0.0
210
0.0
220
0.0
230
1.0
 40
0.951111
 41
0.0000000440599663
 42
1.570796370855012
  0
ARC
  5
288
330
216
100
AcDbEntity
  8
0
  6
Continuous
 62
     0
370
    30
100
AcDbCircle
 10
656.053582
 20
557.898044
 30
0.0
 40
0.5
100
AcDbArc
 50
251.861648
 51
341.861648
  0
ARC
  5
289
330
216
100
AcDbEntity
  8
0
  6
Continuous
 62
     0
370
    30
100
AcDbCircle
 10
660.723271
 20
572.152658
 30
0.0
 40
0.5
100
AcDbArc
 50
341.861648
 51
71.861648
  0
ELLIPSE
  5
28A
330
216
100
AcDbEntity
  8
0
  6
Continuous
 62
     0
370
     0
100
AcDbEllipse
 10
660.723271
 20
572.152658
 30
0.0
 11
0.1556563208487341
 21
0.4751537748769707
 31
0.0
210
0.0
220
0.0
230
-1.0
 40
0.951111
 41
-0.0000000440601351
 42
1.5707962827348
  0
ELLIPSE
  5
28B
330
216
100
AcDbEntity
  8
0
  6
Continuous
 62
     0
370
     0
100
AcDbEllipse
 10
658.629825
 20
572.838452
 30
0.0
 11
-0.155656304301223
 21
-0.4751537802977939
 31
0.0
210
0.0
220
0.0
230
1.0
 40
0.461575
 41
1.570796342134638
 42
3.141592668929539
  0
ELLIPSE
  5
28C
330
216
100
AcDbEntity
  8
0
  6
Continuous
 62
     0
370
     0
100
AcDbEllipse
 10
658.629825
 20
572.838452
 30
0.0
 11
0.1556563040113365
 21
0.4751537803927603
 31
0.0
210
0.0
220
0.0
230
-1.0
 40
0.429414
 41
-0.0000000150678625
 42
1.57079631172693
  0
LWPOLYLINE
  5
28D
330
216
100
AcDbEntity
  8
0
  6
Continuous
 62
     0
370
    30
100
AcDbPolyline
 90
        4
 70
     0
 43
0.0
 10
639.90979
 20
578.971008
 10
639.915283
 20
579.091248
 10
639.933472
 20
579.16803
 10
639.941284
 20
579.20105
  0
ARC
  5
28E
330
216
100
AcDbEntity
  8
0
  6
Continuous
 62
     0
370
    30
100
AcDbCircle
 10
632.424869
 20
559.850711
 30
0.0
 40
5.000282164857182
100
AcDbArc
 50
71.862424
 51
98.860872
  0
LINE
  5
28F
330
216
100
AcDbEntity
  8
0
  6
Continuous
 62
     0
370
    30
100
AcDbLine
 10
613.078758
 20
561.895147
 30
0.0
 11
631.654647
 21
564.791316
 31
0.0
  0
LINE
  5
290
330
216
100
AcDbEntity
  8
0
  6
Continuous
 62
     0
370
     0
100
AcDbLine
 10
631.654647
 20
564.791316
 30
0.0
 11
630.908155
 21
569.57928
 31
0.0
  0
LINE
  5
291
330
216
100
AcDbEntity
  8
0
  6
Continuous
 62
     0
370
     0
100
AcDbLine
 10
635.484001
 20
569.189181
 30
0.0
 11
633.981456
 21
564.602538
 31
0.0
  0
ARC
  5
292
330
216
100
AcDbEntity
  8
0
  6
Continuous
 62
     0
370
     0
100
AcDbCircle
 10
632.3837
 20
559.855061
 30
0.0
 40
9.835531063426377
100
AcDbArc
 50
71.62624
 51
98.628189
  0
LINE
  5
293
330
216
100
AcDbEntity
  8
0
  6
Continuous
 62
     0
370
    30
100
AcDbLine
 10
612.071761
 20
566.689594
 30
0.0
 11
613.078758
 21
561.895147
 31
0.0
  0
LINE
  5
294
330
216
100
AcDbEntity
  8
0
  6
Continuous
 62
     0
370
    30
100
AcDbLine
 10
638.731402
 20
579.034323
 30
0.0
 11
612.071761
 21
571.959846
 31
0.0
  0
LINE
  5
295
330
216
100
AcDbEntity
  8
0
  6
Continuous
 62
     0
370
     0
100
AcDbLine
 10
612.194665
 20
566.818668
 30
0.0
 11
612.071761
 21
566.79298
 31
0.0
  0
LINE
  5
296
330
216
100
AcDbEntity
  8
0
  6
Continuous
 62
     0
370
     0
100
AcDbLine
 10
639.204281
 20
574.166834
 30
0.0
 11
612.194665
 21
566.818668
 31
0.0
  0
LINE
  5
297
330
216
100
AcDbEntity
  8
0
  6
Continuous
 62
     0
370
     0
100
AcDbLine
 10
639.622907
 20
575.674753
 30
0.0
 11
638.731402
 21
579.034323
 31
0.0
  0
LINE
  5
298
330
216
100
AcDbEntity
  8
0
  6
Continuous
 62
     0
370
     0
100
AcDbLine
 10
612.194665
 20
566.818668
 30
0.0
 11
630.908156
 21
569.57928
 31
0.0
  0
ARC
  5
299
330
216
100
AcDbEntity
  8
0
  6
Continuous
 62
     0
370
    30
100
AcDbCircle
 10
640.013354
 20
574.203986
 30
0.0
 40
4.997555566593483
100
AcDbArc
 50
90.826333
 51
104.86343
  0
LINE
  5
29A
330
216
100
AcDbEntity
  8
0
  6
Continuous
 62
     0
370
     0
100
AcDbLine
 10
635.484001
 20
569.189181
 30
0.0
 11
637.366056
 21
568.555498
 31
0.0
  0
LINE
  5
29B
330
216
100
AcDbEntity
  8
0
  6
Continuous
 62
     0
370
    30
100
AcDbLine
 10
633.981456
 20
564.602538
 30
0.0
 11
635.467535
 21
564.115711
 31
0.0
  0
LINE
  5
29C
330
216
100
AcDbEntity
  8
0
  6
Continuous
 62
     0
370
    30
100
AcDbLine
 10
612.866837
 20
562.904132
 30
0.0
 11
612.071761
 21
562.737139
 31
0.0
  0
LWPOLYLINE
  5
29D
330
216
100
AcDbEntity
  8
0
  6
Continuous
 62
     0
370
    30
100
AcDbPolyline
 90
        7
 70
     0
 43
0.0
 10
640.447266
 20
579.321045
 10
640.358643
 20
579.341248
 10
640.267456
 20
579.345276
 10
640.177124
 20
579.332581
 10
640.09082
 20
579.30365
 10
640.011047
 20
579.259583
 10
639.939697
 20
579.20105
  0
LINE
  5
29E
330
216
100
AcDbEntity
  8
0
  6
Continuous
 62
     0
370
     0
100
AcDbLine
 10
573.665779
 20
547.640733
 30
0.0
 11
568.876183
 21
546.205541
 31
0.0
  0
LINE
  5
29F
330
216
100
AcDbEntity
  8
0
  6
Continuous
 62
     0
370
     0
100
AcDbLine
 10
568.876183
 20
546.205541
 30
0.0
 11
564.086588
 21
544.77035
 31
0.0
  0
LINE
  5
2A0
330
216
100
AcDbEntity
  8
0
  6
Continuous
 62
     0
370
     0
100
AcDbLine
 10
577.494051
 20
542.330227
 30
0.0
 11
570.651772
 21
540.279954
 31
0.0
  0
LINE
  5
2A1
330
216
100
AcDbEntity
  8
0
  6
Continuous
 62
     0
370
     0
100
AcDbLine
 10
570.651772
 20
540.279954
 30
0.0
 11
563.809493
 21
538.22968
 31
0.0
  0
LINE
  5
2A2
330
216
100
AcDbEntity
  8
0
  6
Continuous
 62
     0
370
     0
100
AcDbLine
 10
578.325448
 20
536.569487
 30
0.0
 11
572.304242
 21
534.765246
 31
0.0
  0
LINE
  5
2A3
330
216
100
AcDbEntity
  8
0
  6
Continuous
 62
     0
370
     0
100
AcDbLine
 10
572.304242
 20
534.765246
 30
0.0
 11
566.283036
 21
532.961005
 31
0.0
  0
LINE
  5
2A4
330
216
100
AcDbEntity
  8
0
  6
Continuous
 62
     0
370
     0
100
AcDbLine
 10
582.116066
 20
578.227758
 30
0.0
 11
583.551257
 21
573.438163
 31
0.0
  0
LINE
  5
2A5
330
216
100
AcDbEntity
  8
0
  6
Continuous
 62
     0
370
     0
100
AcDbLine
 10
583.551257
 20
573.438163
 30
0.0
 11
584.986449
 21
568.648567
 31
0.0
  0
LINE
  5
2A6
330
216
100
AcDbEntity
  8
0
  6
Continuous
 62
     0
370
     0
100
AcDbLine
 10
587.426571
 20
582.056031
 30
0.0
 11
589.476845
 21
575.213752
 31
0.0
  0
LINE
  5
2A7
330
216
100
AcDbEntity
  8
0
  6
Continuous
 62
     0
370
     0
100
AcDbLine
 10
589.476845
 20
575.213752
 30
0.0
 11
591.527119
 21
568.371472
 31
0.0
  0
LINE
  5
2A8
330
216
100
AcDbEntity
  8
0
  6
Continuous
 62
     0
370
     0
100
AcDbLine
 10
593.187311
 20
582.887427
 30
0.0
 11
594.991552
 21
576.866221
 31
0.0
  0
LINE
  5
2A9
330
216
100
AcDbEntity
  8
0
  6
Continuous
 62
     0
370
     0
100
AcDbLine
 10
594.991552
 20
576.866221
 30
0.0
 11
596.795793
 21
570.845016
 31
0.0
  0
LINE
  5
2AA
330
216
100
AcDbEntity
  8
0
  6
Continuous
 62
     0
370
     0
100
AcDbLine
 10
551.52904
 20
586.678045
 30
0.0
 11
556.318636
 21
588.113237
 31
0.0
  0
LINE
  5
2AB
330
216
100
AcDbEntity
  8
0
  6
Continuous
 62
     0
370
     0
100
AcDbLine
 10
556.318636
 20
588.113237
 30
0.0
 11
561.108231
 21
589.548428
 31
0.0
  0
LINE
  5
2AC
330
216
100
AcDbEntity
  8
0
  6
Continuous
 62
     0
370
     0
100
AcDbLine
 10
547.700767
 20
591.988551
 30
0.0
 11
554.543047
 21
594.038825
 31
0.0
  0
LINE
  5
2AD
330
216
100
AcDbEntity
  8
0
  6
Continuous
 62
     0
370
     0
100
AcDbLine
 10
554.543047
 20
594.038825
 30
0.0
 11
561.385326
 21
596.089098
 31
0.0
  0
LINE
  5
2AE
330
216
100
AcDbEntity
  8
0
  6
Continuous
 62
     0
370
     0
100
AcDbLine
 10
546.869371
 20
597.749291
 30
0.0
 11
552.890577
 21
599.553532
 31
0.0
  0
LINE
  5
2AF
330
216
100
AcDbEntity
  8
0
  6
Continuous
 62
     0
370
     0
100
AcDbLine
 10
552.890577
 20
599.553532
 30
0.0
 11
558.911783
 21
601.357773
 31
0.0
  0
LINE
  5
2B0
330
216
100
AcDbEntity
  8
0
  6
Continuous
 62
     0
370
     0
100
AcDbLine
 10
543.078753
 20
556.09102
 30
0.0
 11
541.643562
 21
560.880615
 31
0.0
  0
LINE
  5
2B1
330
216
100
AcDbEntity
  8
0
  6
Continuous
 62
     0
370
     0
100
AcDbLine
 10
541.643562
 20
560.880615
 30
0.0
 11
540.20837
 21
565.670211
 31
0.0
  0
LINE
  5
2B2
330
216
100
AcDbEntity
  8
0
  6
Continuous
 62
     0
370
     0
100
AcDbLine
 10
537.768248
 20
552.262747
 30
0.0
 11
535.717974
 21
559.105026
 31
0.0
  0
LINE
  5
2B3
330
216
100
AcDbEntity
  8
0
  6
Continuous
 62
     0
370
     0
100
AcDbLine
 10
535.717974
 20
559.105026
 30
0.0
 11
533.6677
 21
565.947306
 31
0.0
  0
LINE
  5
2B4
330
216
100
AcDbEntity
  8
0
  6
Continuous
 62
     0
370
     0
100
AcDbLine
 10
532.007508
 20
551.431351
 30
0.0
 11
530.203267
 21
557.452557
 31
0.0
  0
LINE
  5
2B5
330
216
100
AcDbEntity
  8
0
  6
Continuous
 62
     0
370
     0
100
AcDbLine
 10
530.203267
 20
557.452557
 30
0.0
 11
528.399026
 21
563.473762
 31
0.0
  0
ARC
  5
2B6
330
216
100
AcDbEntity
  8
0
  6
Continuous
 62
     0
370
    30
100
AcDbCircle
 10
562.59741
 20
567.159389
 30
0.0
 40
13.00000326245959
100
AcDbArc
 50
15.649379
 51
195.649379
  0
ARC
  5
2B7
330
216
100
AcDbEntity
  8
0
  6
Continuous
 62
     0
370
    30
100
AcDbCircle
 10
562.59741
 20
567.159389
 30
0.0
 40
13.00000326245959
100
AcDbArc
 50
195.649379
 51
15.649379
  0
ARC
  5
2B8
330
216
100
AcDbEntity
  8
0
  6
Continuous
 62
     0
370
     0
100
AcDbCircle
 10
562.59741
 20
567.159389
 30
0.0
 40
8.000003262459582
100
AcDbArc
 50
195.649379
 51
15.649379
  0
ARC
  5
2B9
330
216
100
AcDbEntity
  8
0
  6
Continuous
 62
     0
370
     0
100
AcDbCircle
 10
562.59741
 20
567.159389
 30
0.0
 40
8.000003262459582
100
AcDbArc
 50
15.649379
 51
195.649379
  0
ARC
  5
2BA
330
216
100
AcDbEntity
  8
0
  6
Continuous
 62
     0
370
    30
100
AcDbCircle
 10
562.59741
 20
567.159389
 30
0.0
 40
7.100003262459607
100
AcDbArc
 50
195.649379
 51
15.649379
  0
ARC
  5
2BB
330
216
100
AcDbEntity
  8
0
  6
Continuous
 62
     0
370
    30
100
AcDbCircle
 10
562.59741
 20
567.159389
 30
0.0
 40
7.100003262459607
100
AcDbArc
 50
15.649379
 51
195.649379
  0
ARC
  5
2BC
330
216
100
AcDbEntity
  8
0
  6
Continuous
 62
     0
370
    30
100
AcDbCircle
 10
562.59741
 20
567.159389
 30
0.0
 40
7.0
100
AcDbArc
 50
16.680727
 51
196.680727
  0
ARC
  5
2BD
330
216
100
AcDbEntity
  8
0
  6
Continuous
 62
     0
370
    30
100
AcDbCircle
 10
562.59741
 20
567.159389
 30
0.0
 40
7.0
100
AcDbArc
 50
196.680727
 51
16.680727
  0
ARC
  5
2BE
330
216
100
AcDbEntity
  8
0
  6
Continuous
 62
     0
370
    30
100
AcDbCircle
 10
538.850634
 20
560.043747
 30
0.0
 40
11.00007956364657
100
AcDbArc
 50
196.684289
 51
231.530502
  0
ARC
  5
2BF
330
216
100
AcDbEntity
  8
0
  6
Continuous
 62
     0
370
    30
100
AcDbCircle
 10
538.850649
 20
560.043699
 30
0.0
 40
11.00007956544488
100
AcDbArc
 50
161.830953
 51
196.677166
  0
ARC
  5
2C0
330
216
100
AcDbEntity
  8
0
  6
Continuous
 62
     0
370
    30
100
AcDbCircle
 10
532.199592
 20
562.226454
 30
0.0
 40
4.000010184196496
100
AcDbArc
 50
68.467671
 51
161.830668
  0
ARC
  5
2C1
330
216
100
AcDbEntity
  8
0
  6
Continuous
 62
     0
370
    30
100
AcDbCircle
 10
534.49589
 20
554.563129
 30
0.0
 40
4.000010184172501
100
AcDbArc
 50
231.530786
 51
324.893783
  0
ARC
  5
2C2
330
216
100
AcDbEntity
  8
0
  6
Continuous
 62
     0
370
    30
100
AcDbCircle
 10
537.337991
 20
575.249493
 30
0.0
 40
10.00008659314049
100
AcDbArc
 50
248.467688
 51
286.680555
  0
ARC
  5
2C3
330
216
100
AcDbEntity
  8
0
  6
Continuous
 62
     0
370
    30
100
AcDbCircle
 10
545.94919
 20
546.511755
 30
0.0
 40
10.00008659327597
100
AcDbArc
 50
106.680899
 51
144.893766
  0
LINE
  5
2C4
330
216
100
AcDbEntity
  8
0
  6
Continuous
 62
     0
370
    30
100
AcDbLine
 10
549.666316
 20
568.504263
 30
0.0
 11
540.20837
 21
565.670211
 31
0.0
  0
LINE
  5
2C5
330
216
100
AcDbEntity
  8
0
  6
Continuous
 62
     0
370
    30
100
AcDbLine
 10
552.536699
 20
558.925072
 30
0.0
 11
543.078753
 21
556.09102
 31
0.0
  0
ARC
  5
2C6
330
216
100
AcDbEntity
  8
0
  6
Continuous
 62
     0
370
    30
100
AcDbCircle
 10
555.481767
 20
590.906164
 30
0.0
 40
11.00007956535354
100
AcDbArc
 50
106.684289
 51
141.530502
  0
ARC
  5
2C7
330
216
100
AcDbEntity
  8
0
  6
Continuous
 62
     0
370
    30
100
AcDbCircle
 10
555.48172
 20
590.90615
 30
0.0
 40
11.00007956544736
100
AcDbArc
 50
71.830953
 51
106.677166
  0
ARC
  5
2C8
330
216
100
AcDbEntity
  8
0
  6
Continuous
 62
     0
370
    30
100
AcDbCircle
 10
557.664474
 20
597.557207
 30
0.0
 40
4.000010184170103
100
AcDbArc
 50
338.467671
 51
71.830668
  0
ARC
  5
2C9
330
216
100
AcDbEntity
  8
0
  6
Continuous
 62
     0
370
    30
100
AcDbCircle
 10
550.001149
 20
595.260908
 30
0.0
 40
4.000010184197862
100
AcDbArc
 50
141.530786
 51
234.893783
  0
ARC
  5
2CA
330
216
100
AcDbEntity
  8
0
  6
Continuous
 62
     0
370
    30
100
AcDbCircle
 10
570.687514
 20
592.418808
 30
0.0
 40
10.00008659327532
100
AcDbArc
 50
158.467688
 51
196.680555
  0
ARC
  5
2CB
330
216
100
AcDbEntity
  8
0
  6
Continuous
 62
     0
370
    30
100
AcDbCircle
 10
541.949775
 20
583.807608
 30
0.0
 40
10.00008659326058
100
AcDbArc
 50
16.680899
 51
54.893766
  0
LINE
  5
2CC
330
216
100
AcDbEntity
  8
0
  6
Continuous
 62
     0
370
    30
100
AcDbLine
 10
563.942284
 20
580.090483
 30
0.0
 11
561.108231
 21
589.548428
 31
0.0
  0
LINE
  5
2CD
330
216
100
AcDbEntity
  8
0
  6
Continuous
 62
     0
370
    30
100
AcDbLine
 10
554.363093
 20
577.2201
 30
0.0
 11
551.52904
 21
586.678045
 31
0.0
  0
ARC
  5
2CE
330
216
100
AcDbEntity
  8
0
  6
Continuous
 62
     0
370
    30
100
AcDbCircle
 10
586.344185
 20
574.275031
 30
0.0
 40
11.00007956550923
100
AcDbArc
 50
16.684289
 51
51.530502
  0
ARC
  5
2CF
330
216
100
AcDbEntity
  8
0
  6
Continuous
 62
     0
370
    30
100
AcDbCircle
 10
586.34417
 20
574.275079
 30
0.0
 40
11.00007956548244
100
AcDbArc
 50
341.830953
 51
16.677166
  0
ARC
  5
2D0
330
216
100
AcDbEntity
  8
0
  6
Continuous
 62
     0
370
    30
100
AcDbCircle
 10
592.995227
 20
572.092324
 30
0.0
 40
4.000010184183179
100
AcDbArc
 50
248.467671
 51
341.830668
  0
ARC
  5
2D1
330
216
100
AcDbEntity
  8
0
  6
Continuous
 62
     0
370
    30
100
AcDbCircle
 10
590.698929
 20
579.755649
 30
0.0
 40
4.000010184164851
100
AcDbArc
 50
51.530786
 51
144.893783
  0
ARC
  5
2D2
330
216
100
AcDbEntity
  8
0
  6
Continuous
 62
     0
370
    30
100
AcDbCircle
 10
587.856828
 20
559.069285
 30
0.0
 40
10.00008659316924
100
AcDbArc
 50
68.467688
 51
106.680555
  0
ARC
  5
2D3
330
216
100
AcDbEntity
  8
0
  6
Continuous
 62
     0
370
    30
100
AcDbCircle
 10
579.245629
 20
587.807024
 30
0.0
 40
10.00008659323975
100
AcDbArc
 50
286.680899
 51
324.893766
  0
LINE
  5
2D4
330
216
100
AcDbEntity
  8
0
  6
Continuous
 62
     0
370
    30
100
AcDbLine
 10
575.528698
 20
565.814573
 30
0.0
 11
584.986449
 21
568.648567
 31
0.0
  0
LINE
  5
2D5
330
216
100
AcDbEntity
  8
0
  6
Continuous
 62
     0
370
    30
100
AcDbLine
 10
572.65812
 20
575.393706
 30
0.0
 11
582.116066
 21
578.227758
 31
0.0
  0
ARC
  5
2D6
330
216
100
AcDbEntity
  8
0
  6
Continuous
 62
     0
370
    30
100
AcDbCircle
 10
569.713051
 20
543.412614
 30
0.0
 40
11.00007956536401
100
AcDbArc
 50
286.684289
 51
321.530502
  0
ARC
  5
2D7
330
216
100
AcDbEntity
  8
0
  6
Continuous
 62
     0
370
    30
100
AcDbCircle
 10
569.713099
 20
543.412628
 30
0.0
 40
11.00007956445566
100
AcDbArc
 50
251.830953
 51
286.677166
  0
ARC
  5
2D8
330
216
100
AcDbEntity
  8
0
  6
Continuous
 62
     0
370
    30
100
AcDbCircle
 10
567.530345
 20
536.761571
 30
0.0
 40
4.00001018420321
100
AcDbArc
 50
158.467671
 51
251.830668
  0
ARC
  5
2D9
330
216
100
AcDbEntity
  8
0
  6
Continuous
 62
     0
370
    30
100
AcDbCircle
 10
575.19367
 20
539.05787
 30
0.0
 40
4.000010184186188
100
AcDbArc
 50
321.530786
 51
54.893783
  0
ARC
  5
2DA
330
216
100
AcDbEntity
  8
0
  6
Continuous
 62
     0
370
    30
100
AcDbCircle
 10
554.507305
 20
541.89997
 30
0.0
 40
10.00008659325184
100
AcDbArc
 50
338.467688
 51
16.680555
  0
ARC
  5
2DB
330
216
100
AcDbEntity
  8
0
  6
Continuous
 62
     0
370
    30
100
AcDbCircle
 10
583.245044
 20
550.51117
 30
0.0
 40
10.00008659324252
100
AcDbArc
 50
196.680899
 51
234.893766
  0
LINE
  5
2DC
330
216
100
AcDbEntity
  8
0
  6
Continuous
 62
     0
370
    30
100
AcDbLine
 10
561.252535
 20
554.228295
 30
0.0
 11
564.086588
 21
544.77035
 31
0.0
  0
LINE
  5
2DD
330
216
100
AcDbEntity
  8
0
  6
Continuous
 62
     0
370
    30
100
AcDbLine
 10
570.831726
 20
557.098678
 30
0.0
 11
573.665779
 21
547.640733
 31
0.0
  0
ENDBLK
  5
2DF
330
216
100
AcDbEntity
  8
0
100
AcDbBlockEnd
  0
BLOCK
  5
390
330
2E1
100
AcDbEntity
  8
0
100
AcDbBlockBegin
  2
d
 70
     0
 10
113.874893
 20
0.0
 30
0.0
  3
d
  1

  0
ARC
  5
2E2
330
2E1
100
AcDbEntity
  8
0
  6
Continuous
 62
     0
370
    30
100
AcDbCircle
 10
47.137883
 20
254.217712
 30
0.0
 40
52.20496358493851
100
AcDbArc
 50
171.18514
 51
180.0
  0
LINE
  5
2E3
330
2E1
100
AcDbEntity
  8
0
  6
Continuous
 62
     0
370
    30
100
AcDbLine
 10
-4.45047
 20
246.217712
 30
0.0
 11
-4.45047
 21
262.217712
 31
0.0
  0
LINE
  5
2E4
330
2E1
100
AcDbEntity
  8
0
  6
Continuous
 62
     0
370
    30
100
AcDbLine
 10
-4.45047
 20
262.217712
 30
0.0
 11
-3.95047
 21
262.217712
 31
0.0
  0
LINE
  5
2E5
330
2E1
100
AcDbEntity
  8
0
  6
Continuous
 62
     0
370
    30
100
AcDbLine
 10
-3.95047
 20
246.217712
 30
0.0
 11
-3.95047
 21
262.217712
 31
0.0
  0
ARC
  5
2E6
330
2E1
100
AcDbEntity
  8
0
  6
Continuous
 62
     0
370
    30
100
AcDbCircle
 10
10.103018
 20
253.745619
 30
0.0
 40
15.47218547989659
100
AcDbArc
 50
33.200413
 51
54.424334
  0
ARC
  5
2E7
330
2E1
100
AcDbEntity
  8
0
  6
Continuous
 62
     0
370
    30
100
AcDbCircle
 10
10.103018
 20
253.745619
 30
0.0
 40
15.47218547989659
100
AcDbArc
 50
125.563185
 51
155.272377
  0
LINE
  5
2E8
330
2E1
100
AcDbEntity
  8
0
  6
Continuous
 62
     0
370
    30
100
AcDbLine
 10
23.04953
 20
244.217712
 30
0.0
 11
23.04953
 21
264.217712
 31
0.0
  0
ARC
  5
2E9
330
2E1
100
AcDbEntity
  8
0
  6
Continuous
 62
     0
370
    30
100
AcDbCircle
 10
25.54953
 20
264.217712
 30
0.0
 40
2.499999999990001
100
AcDbArc
 50
0.0
 51
180.0
  0
LINE
  5
2EA
330
2E1
100
AcDbEntity
  8
0
  6
Continuous
 62
     0
370
    30
100
AcDbLine
 10
28.04953
 20
243.458902
 30
0.0
 11
28.04953
 21
264.976523
 31
0.0
  0
ARC
  5
2EB
330
2E1
100
AcDbEntity
  8
0
  6
Continuous
 62
     0
370
    30
100
AcDbCircle
 10
33.04953
 20
264.976523
 30
0.0
 40
4.999999999980002
100
AcDbArc
 50
106.38954
 51
180.0
  0
LINE
  5
2EC
330
2E1
100
AcDbEntity
  8
0
  6
Continuous
 62
     0
370
     0
100
AcDbLine
 10
31.638698
 20
238.662075
 30
0.0
 11
31.638698
 21
269.77335
 31
0.0
  0
LINE
  5
2ED
330
2E1
100
AcDbEntity
  8
0
  6
Continuous
 62
     0
370
    30
100
AcDbLine
 10
31.638698
 20
269.77335
 30
0.0
 11
45.04953
 21
273.717712
 31
0.0
  0
LINE
  5
2EE
330
2E1
100
AcDbEntity
  8
0
  6
Continuous
 62
     0
370
     0
100
AcDbLine
 10
45.04953
 20
234.717712
 30
0.0
 11
45.04953
 21
273.717712
 31
0.0
  0
ARC
  5
2EF
330
2E1
100
AcDbEntity
  8
0
  6
Continuous
 62
     0
370
    30
100
AcDbCircle
 10
36.701313
 20
306.245778
 30
0.0
 40
33.58225369792324
100
AcDbArc
 50
284.394099
 51
316.830524
  0
LINE
  5
2F0
330
2E1
100
AcDbEntity
  8
0
  6
Continuous
 62
     0
370
     0
100
AcDbLine
 10
61.193966
 20
225.165236
 30
0.0
 11
61.193966
 21
283.270188
 31
0.0
  0
ARC
  5
2F1
330
2E1
100
AcDbEntity
  8
0
  6
Continuous
 62
     0
370
    30
100
AcDbCircle
 10
63.381965
 20
281.217712
 30
0.0
 40
2.999999999988001
100
AcDbArc
 50
90.0
 51
136.830524
  0
LINE
  5
2F2
330
2E1
100
AcDbEntity
  8
0
  6
Continuous
 62
     0
370
     0
100
AcDbLine
 10
63.381965
 20
224.217712
 30
0.0
 11
63.381965
 21
284.217712
 31
0.0
  0
LINE
  5
2F3
330
2E1
100
AcDbEntity
  8
0
  6
Continuous
 62
     0
370
    30
100
AcDbLine
 10
63.381965
 20
284.217712
 30
0.0
 11
70.04953
 21
284.217712
 31
0.0
  0
LINE
  5
2F4
330
2E1
100
AcDbEntity
  8
0
  6
Continuous
 62
     0
370
    30
100
AcDbLine
 10
70.04953
 20
224.217712
 30
0.0
 11
70.04953
 21
284.217712
 31
0.0
  0
LINE
  5
2F5
330
2E1
100
AcDbEntity
  8
0
  6
Continuous
 62
     0
370
    30
100
AcDbLine
 10
70.04953
 20
224.217712
 30
0.0
 11
63.381965
 21
224.217712
 31
0.0
  0
ARC
  5
2F6
330
2E1
100
AcDbEntity
  8
0
  6
Continuous
 62
     0
370
    30
100
AcDbCircle
 10
63.38203
 20
227.217861
 30
0.0
 40
3.000149024512111
100
AcDbArc
 50
223.170708
 51
269.998768
  0
ARC
  5
2F7
330
2E1
100
AcDbEntity
  8
0
  6
Continuous
 62
     0
370
    30
100
AcDbCircle
 10
36.701311
 20
202.189644
 30
0.0
 40
33.58225706384899
100
AcDbArc
 50
43.169477
 51
75.605899
  0
LINE
  5
2F8
330
2E1
100
AcDbEntity
  8
0
  6
Continuous
 62
     0
370
    30
100
AcDbLine
 10
31.638698
 20
238.662075
 30
0.0
 11
45.04953
 21
234.717712
 31
0.0
  0
ARC
  5
2F9
330
2E1
100
AcDbEntity
  8
0
  6
Continuous
 62
     0
370
    30
100
AcDbCircle
 10
33.049409
 20
243.458812
 30
0.0
 40
4.999879013537138
100
AcDbArc
 50
180.005828
 51
253.611497
  0
ARC
  5
2FA
330
2E1
100
AcDbEntity
  8
0
  6
Continuous
 62
     0
370
    30
100
AcDbCircle
 10
25.54953
 20
244.217714
 30
0.0
 40
2.500000000160834
100
AcDbArc
 50
180.016234
 51
359.999972
  0
ARC
  5
2FB
330
2E1
100
AcDbEntity
  8
0
  6
Continuous
 62
     0
370
    30
100
AcDbCircle
 10
10.103018
 20
254.689806
 30
0.0
 40
15.47218580020778
100
AcDbArc
 50
204.727625
 51
326.799585
  0
LINE
  5
2FC
330
2E1
100
AcDbEntity
  8
0
  6
Continuous
 62
     0
370
    30
100
AcDbLine
 10
-3.95047
 20
246.217712
 30
0.0
 11
-4.45047
 21
246.217712
 31
0.0
  0
ARC
  5
2FD
330
2E1
100
AcDbEntity
  8
0
  6
Continuous
 62
     0
370
    30
100
AcDbCircle
 10
47.138767
 20
254.217781
 30
0.0
 40
52.20584747927465
100
AcDbArc
 50
180.009762
 51
188.814785
  0
LINE
  5
2FE
330
2E1
100
AcDbEntity
  8
0
  6
Continuous
 62
     0
370
    30
100
AcDbLine
 10
23.104389
 20
535.659389
 30
0.0
 11
-2.895611
 21
535.659389
 31
0.0
  0
LINE
  5
2FF
330
2E1
100
AcDbEntity
  8
0
  6
Continuous
 62
     0
370
    30
100
AcDbLine
 10
23.104389
 20
535.659389
 30
0.0
 11
23.104389
 21
539.159389
 31
0.0
  0
LINE
  5
300
330
2E1
100
AcDbEntity
  8
0
  6
Continuous
 62
     0
370
    30
100
AcDbLine
 10
23.104389
 20
539.159389
 30
0.0
 11
-2.895611
 21
539.159389
 31
0.0
  0
ARC
  5
301
330
2E1
100
AcDbEntity
  8
0
  6
Continuous
 62
     0
370
    30
100
AcDbCircle
 10
-29.395611
 20
567.159389
 30
0.0
 40
59.49999999976617
100
AcDbArc
 50
331.927513
 51
28.072487
  0
LINE
  5
302
330
2E1
100
AcDbEntity
  8
0
  6
Continuous
 62
     0
370
    30
100
AcDbLine
 10
23.104389
 20
595.159389
 30
0.0
 11
-2.895611
 21
595.159389
 31
0.0
  0
LINE
  5
303
330
2E1
100
AcDbEntity
  8
0
  6
Continuous
 62
     0
370
    30
100
AcDbLine
 10
23.104389
 20
595.159389
 30
0.0
 11
23.104389
 21
598.659389
 31
0.0
  0
LINE
  5
304
330
2E1
100
AcDbEntity
  8
0
  6
Continuous
 62
     0
370
    30
100
AcDbLine
 10
23.104389
 20
598.659389
 30
0.0
 11
-2.895611
 21
598.659389
 31
0.0
  0
LINE
  5
305
330
2E1
100
AcDbEntity
  8
0
  6
Continuous
 62
     0
370
    30
100
AcDbLine
 10
-2.895611
 20
598.659389
 30
0.0
 11
-2.895611
 21
595.159389
 31
0.0
  0
ARC
  5
306
330
2E1
100
AcDbEntity
  8
0
  6
Continuous
 62
     0
370
    30
100
AcDbCircle
 10
49.607017
 20
567.158483
 30
0.0
 40
59.50274561488981
100
AcDbArc
 50
151.927934
 51
169.345826
  0
ARC
  5
307
330
2E1
100
AcDbEntity
  8
0
  6
Continuous
 62
     0
370
    30
100
AcDbCircle
 10
49.606916
 20
567.160261
 30
0.0
 40
59.5026405136482
100
AcDbArc
 50
190.65416
 51
208.072083
  0
LINE
  5
308
330
2E1
100
AcDbEntity
  8
0
  6
Continuous
 62
     0
370
    30
100
AcDbLine
 10
-2.895611
 20
539.159389
 30
0.0
 11
-2.895611
 21
535.659389
 31
0.0
  0
ARC
  5
309
330
2E1
100
AcDbEntity
  8
0
  6
Continuous
 62
     0
370
    30
100
AcDbCircle
 10
47.137883
 20
804.217712
 30
0.0
 40
52.20496358493851
100
AcDbArc
 50
171.18514
 51
180.0
  0
LINE
  5
30A
330
2E1
100
AcDbEntity
  8
0
  6
Continuous
 62
     0
370
    30
100
AcDbLine
 10
-4.45047
 20
796.217712
 30
0.0
 11
-4.45047
 21
812.217712
 31
0.0
  0
LINE
  5
30B
330
2E1
100
AcDbEntity
  8
0
  6
Continuous
 62
     0
370
    30
100
AcDbLine
 10
-4.45047
 20
812.217712
 30
0.0
 11
-3.95047
 21
812.217712
 31
0.0
  0
LINE
  5
30C
330
2E1
100
AcDbEntity
  8
0
  6
Continuous
 62
     0
370
    30
100
AcDbLine
 10
-3.95047
 20
796.217712
 30
0.0
 11
-3.95047
 21
812.217712
 31
0.0
  0
ARC
  5
30D
330
2E1
100
AcDbEntity
  8
0
  6
Continuous
 62
     0
370
    30
100
AcDbCircle
 10
10.103018
 20
803.745619
 30
0.0
 40
15.47218547989659
100
AcDbArc
 50
33.200413
 51
155.272377
  0
ARC
  5
30E
330
2E1
100
AcDbEntity
  8
0
  6
Continuous
 62
     0
370
    30
100
AcDbCircle
 10
8.080662
 20
541.39304
 30
0.0
 40
250.8075766965493
100
AcDbArc
 50
91.038892
 51
91.593901
  0
ARC
  5
30F
330
2E1
100
AcDbEntity
  8
0
  6
Continuous
 62
     0
370
    30
100
AcDbCircle
 10
12.241597
 20
543.869229
 30
0.0
 40
248.3311609277584
100
AcDbArc
 50
88.416408
 51
88.958821
  0
LINE
  5
310
330
2E1
100
AcDbEntity
  8
0
  6
Continuous
 62
     0
370
    30
100
AcDbLine
 10
23.04953
 20
794.217712
 30
0.0
 11
23.04953
 21
814.217712
 31
0.0
  0
ARC
  5
311
330
2E1
100
AcDbEntity
  8
0
  6
Continuous
 62
     0
370
    30
100
AcDbCircle
 10
25.54953
 20
814.217712
 30
0.0
 40
2.499999999990001
100
AcDbArc
 50
0.0
 51
180.0
  0
LINE
  5
312
330
2E1
100
AcDbEntity
  8
0
  6
Continuous
 62
     0
370
    30
100
AcDbLine
 10
28.04953
 20
793.458902
 30
0.0
 11
28.04953
 21
814.976523
 31
0.0
  0
ARC
  5
313
330
2E1
100
AcDbEntity
  8
0
  6
Continuous
 62
     0
370
    30
100
AcDbCircle
 10
33.04953
 20
814.976523
 30
0.0
 40
4.999999999980002
100
AcDbArc
 50
106.38954
 51
180.0
  0
LINE
  5
314
330
2E1
100
AcDbEntity
  8
0
  6
Continuous
 62
     0
370
     0
100
AcDbLine
 10
31.638698
 20
788.662075
 30
0.0
 11
31.638698
 21
819.77335
 31
0.0
  0
LINE
  5
315
330
2E1
100
AcDbEntity
  8
0
  6
Continuous
 62
     0
370
    30
100
AcDbLine
 10
31.638698
 20
819.77335
 30
0.0
 11
45.04953
 21
823.717712
 31
0.0
  0
LINE
  5
316
330
2E1
100
AcDbEntity
  8
0
  6
Continuous
 62
     0
370
     0
100
AcDbLine
 10
45.04953
 20
784.717712
 30
0.0
 11
45.04953
 21
823.717712
 31
0.0
  0
ARC
  5
317
330
2E1
100
AcDbEntity
  8
0
  6
Continuous
 62
     0
370
    30
100
AcDbCircle
 10
36.701313
 20
856.245778
 30
0.0
 40
33.58225369792324
100
AcDbArc
 50
284.394099
 51
316.830524
  0
LINE
  5
318
330
2E1
100
AcDbEntity
  8
0
  6
Continuous
 62
     0
370
     0
100
AcDbLine
 10
61.193966
 20
775.165236
 30
0.0
 11
61.193966
 21
833.270188
 31
0.0
  0
ARC
  5
319
330
2E1
100
AcDbEntity
  8
0
  6
Continuous
 62
     0
370
    30
100
AcDbCircle
 10
63.381965
 20
831.217712
 30
0.0
 40
2.999999999988001
100
AcDbArc
 50
90.0
 51
136.830524
  0
LINE
  5
31A
330
2E1
100
AcDbEntity
  8
0
  6
Continuous
 62
     0
370
     0
100
AcDbLine
 10
63.381965
 20
774.217712
 30
0.0
 11
63.381965
 21
834.217712
 31
0.0
  0
LINE
  5
31B
330
2E1
100
AcDbEntity
  8
0
  6
Continuous
 62
     0
370
    30
100
AcDbLine
 10
63.381965
 20
834.217712
 30
0.0
 11
70.04953
 21
834.217712
 31
0.0
  0
LINE
  5
31C
330
2E1
100
AcDbEntity
  8
0
  6
Continuous
 62
     0
370
    30
100
AcDbLine
 10
70.04953
 20
774.217712
 30
0.0
 11
70.04953
 21
834.217712
 31
0.0
  0
LINE
  5
31D
330
2E1
100
AcDbEntity
  8
0
  6
Continuous
 62
     0
370
    30
100
AcDbLine
 10
1.104389
 20
535.659389
 30
0.0
 11
1.104389
 21
266.33185
 31
0.0
  0
LINE
  5
31E
330
2E1
100
AcDbEntity
  8
0
  6
Continuous
 62
     0
370
    30
100
AcDbLine
 10
1.104389
 20
792.103575
 30
0.0
 11
1.104389
 21
598.659389
 31
0.0
  0
LINE
  5
31F
330
2E1
100
AcDbEntity
  8
0
  6
Continuous
 62
     0
370
    30
100
AcDbLine
 10
16.754023
 20
792.159389
 30
0.0
 11
3.533247
 21
792.159389
 31
0.0
  0
LINE
  5
320
330
2E1
100
AcDbEntity
  8
0
  6
Continuous
 62
     0
370
     0
100
AcDbLine
 10
-23.869965
 20
553.159389
 30
0.0
 11
-23.869965
 21
581.159389
 31
0.0
  0
LINE
  5
321
330
2E1
100
AcDbEntity
  8
0
  6
Continuous
 62
     0
370
    30
100
AcDbLine
 10
-23.869965
 20
581.159389
 30
0.0
 11
-33.869965
 21
581.159389
 31
0.0
  0
LINE
  5
322
330
2E1
100
AcDbEntity
  8
0
  6
Continuous
 62
     0
370
     0
100
AcDbLine
 10
-33.869965
 20
553.159389
 30
0.0
 11
-33.869965
 21
581.159389
 31
0.0
  0
ARC
  5
323
330
2E1
100
AcDbEntity
  8
0
  6
Continuous
 62
     0
370
    30
100
AcDbCircle
 10
-33.869965
 20
579.159389
 30
0.0
 40
1.999999999992002
100
AcDbArc
 50
90.0
 51
180.0
  0
LINE
  5
324
330
2E1
100
AcDbEntity
  8
0
  6
Continuous
 62
     0
370
    30
100
AcDbLine
 10
-35.869965
 20
555.159389
 30
0.0
 11
-35.869965
 21
579.159389
 31
0.0
  0
ARC
  5
325
330
2E1
100
AcDbEntity
  8
0
  6
Continuous
 62
     0
370
    30
100
AcDbCircle
 10
-34.709616
 20
571.49904
 30
0.0
 40
4.802630330675276
100
AcDbArc
 50
103.9814
 51
166.0186
  0
LINE
  5
326
330
2E1
100
AcDbEntity
  8
0
  6
Continuous
 62
     0
370
    30
100
AcDbLine
 10
-39.369965
 20
561.659389
 30
0.0
 11
-39.369965
 21
572.659389
 31
0.0
  0
LINE
  5
327
330
2E1
100
AcDbEntity
  8
0
  6
Continuous
 62
     0
370
    30
100
AcDbLine
 10
-8.86996
 20
578.159389
 30
0.0
 11
-22.869965
 21
578.159389
 31
0.0
  0
LINE
  5
328
330
2E1
100
AcDbEntity
  8
0
  6
Continuous
 62
     0
370
    30
100
AcDbLine
 10
-22.869965
 20
554.159389
 30
0.0
 11
-22.869965
 21
580.159389
 31
0.0
  0
ARC
  5
329
330
2E1
100
AcDbEntity
  8
0
  6
Continuous
 62
     0
370
    30
100
AcDbCircle
 10
-23.869965
 20
580.159389
 30
0.0
 40
0.999999999996
100
AcDbArc
 50
360.0
 51
90.0
  0
ARC
  5
32A
330
2E1
100
AcDbEntity
  8
0
  6
Continuous
 62
     0
370
    30
100
AcDbCircle
 10
-23.869968
 20
554.159392
 30
0.0
 40
1.000003375196806
100
AcDbArc
 50
270.000193
 51
359.991704
  0
LINE
  5
32B
330
2E1
100
AcDbEntity
  8
0
  6
Continuous
 62
     0
370
    30
100
AcDbLine
 10
-8.86996
 20
556.159389
 30
0.0
 11
-22.869965
 21
556.159389
 31
0.0
  0
ARC
  5
32C
330
2E1
100
AcDbEntity
  8
0
  6
Continuous
 62
     0
370
    30
100
AcDbCircle
 10
-34.709527
 20
562.819827
 30
0.0
 40
4.802738221377783
100
AcDbArc
 50
193.982174
 51
256.017826
  0
ARC
  5
32D
330
2E1
100
AcDbEntity
  8
0
  6
Continuous
 62
     0
370
    30
100
AcDbCircle
 10
-33.869875
 20
555.159479
 30
0.0
 40
2.000090101161499
100
AcDbArc
 50
180.002581
 51
269.997419
  0
LINE
  5
32E
330
2E1
100
AcDbEntity
  8
0
  6
Continuous
 62
     0
370
    30
100
AcDbLine
 10
-23.869965
 20
553.159389
 30
0.0
 11
-33.869965
 21
553.159389
 31
0.0
  0
LINE
  5
32F
330
2E1
100
AcDbEntity
  8
0
  6
Continuous
 62
     0
370
    30
100
AcDbLine
 10
19.104389
 20
535.659389
 30
0.0
 11
19.104389
 21
266.329889
 31
0.0
  0
LINE
  5
330
330
2E1
100
AcDbEntity
  8
0
  6
Continuous
 62
     0
370
    30
100
AcDbLine
 10
19.104389
 20
792.105543
 30
0.0
 11
19.104389
 21
598.659389
 31
0.0
  0
LINE
  5
331
330
2E1
100
AcDbEntity
  8
0
  6
Continuous
 62
     0
370
    30
100
AcDbLine
 10
70.04953
 20
774.217712
 30
0.0
 11
63.381965
 21
774.217712
 31
0.0
  0
ARC
  5
332
330
2E1
100
AcDbEntity
  8
0
  6
Continuous
 62
     0
370
    30
100
AcDbCircle
 10
63.38203
 20
777.217861
 30
0.0
 40
3.000149024522377
100
AcDbArc
 50
223.170708
 51
269.998768
  0
ARC
  5
333
330
2E1
100
AcDbEntity
  8
0
  6
Continuous
 62
     0
370
    30
100
AcDbCircle
 10
36.701311
 20
752.189644
 30
0.0
 40
33.58225706385318
100
AcDbArc
 50
43.169477
 51
75.605899
  0
LINE
  5
334
330
2E1
100
AcDbEntity
  8
0
  6
Continuous
 62
     0
370
    30
100
AcDbLine
 10
31.638698
 20
788.662075
 30
0.0
 11
45.04953
 21
784.717712
 31
0.0
  0
ARC
  5
335
330
2E1
100
AcDbEntity
  8
0
  6
Continuous
 62
     0
370
    30
100
AcDbCircle
 10
33.049409
 20
793.458812
 30
0.0
 40
4.999879013542303
100
AcDbArc
 50
180.005828
 51
253.611497
  0
ARC
  5
336
330
2E1
100
AcDbEntity
  8
0
  6
Continuous
 62
     0
370
    30
100
AcDbCircle
 10
25.54953
 20
794.217714
 30
0.0
 40
2.500000000160833
100
AcDbArc
 50
180.016234
 51
359.999972
  0
LWPOLYLINE
  5
337
330
2E1
100
AcDbEntity
  8
0
  6
Continuous
 62
     0
370
    30
100
AcDbPolyline
 90
        9
 70
     0
 43
0.0
 10
23.04953
 20
796.217712
 10
22.645323
 20
795.630066
 10
22.214415
 20
795.061584
 10
21.757795
 20
794.513611
 10
21.2764
 20
793.987305
 10
20.771257
 20
793.483704
 10
20.243435
 20
793.003906
 10
19.693975
 20
792.549133
 10
19.104933
 20
792.105896
  0
ARC
  5
338
330
2E1
100
AcDbEntity
  8
0
  6
Continuous
 62
     0
370
    30
100
AcDbCircle
 10
10.102933
 20
804.689735
 30
0.0
 40
15.47207886493848
100
AcDbArc
 50
204.727518
 51
234.43692
  0
LINE
  5
339
330
2E1
100
AcDbEntity
  8
0
  6
Continuous
 62
     0
370
    30
100
AcDbLine
 10
-3.95047
 20
796.217712
 30
0.0
 11
-4.45047
 21
796.217712
 31
0.0
  0
ARC
  5
33A
330
2E1
100
AcDbEntity
  8
0
  6
Continuous
 62
     0
370
    30
100
AcDbCircle
 10
47.138767
 20
804.217781
 30
0.0
 40
52.20584747869869
100
AcDbArc
 50
180.009762
 51
188.814785
  0
LINE
  5
33B
330
2E1
100
AcDbEntity
  8
0
  6
Continuous
 62
     0
370
    30
100
AcDbLine
 10
-83.826939
 20
557.742388
 30
0.0
 11
-88.496628
 21
571.997001
 31
0.0
  0
LINE
  5
33C
330
2E1
100
AcDbEntity
  8
0
  6
Continuous
 62
     0
370
     0
100
AcDbLine
 10
-83.826939
 20
557.742388
 30
0.0
 11
-83.803709
 21
557.749998
 31
0.0
  0
LINE
  5
33D
330
2E1
100
AcDbEntity
  8
0
  6
Continuous
 62
     0
370
     0
100
AcDbLine
 10
-83.803709
 20
557.749998
 30
0.0
 11
-88.473398
 21
572.004611
 31
0.0
  0
LINE
  5
33E
330
2E1
100
AcDbEntity
  8
0
  6
Continuous
 62
     0
370
     0
100
AcDbLine
 10
-88.496628
 20
571.997001
 30
0.0
 11
-88.473398
 21
572.004611
 31
0.0
  0
LINE
  5
33F
330
2E1
100
AcDbEntity
  8
0
  6
Continuous
 62
     0
370
    30
100
AcDbLine
 10
-88.177131
 20
572.627811
 30
0.0
 11
-85.677675
 21
573.446612
 31
0.0
  0
LINE
  5
340
330
2E1
100
AcDbEntity
  8
0
  6
Continuous
 62
     0
370
    30
100
AcDbLine
 10
-85.650128
 20
573.455636
 30
0.0
 11
-85.677675
 21
573.446612
 31
0.0
  0
LINE
  5
341
330
2E1
100
AcDbEntity
  8
0
  6
Continuous
 62
     0
370
    30
100
AcDbLine
 10
-85.650128
 20
573.455636
 30
0.0
 11
-67.745518
 21
579.321032
 31
0.0
  0
LINE
  5
342
330
2E1
100
AcDbEntity
  8
0
  6
Continuous
 62
     0
370
     0
100
AcDbLine
 10
-83.803709
 20
557.749998
 30
0.0
 11
-81.026536
 21
558.659776
 31
0.0
  0
LINE
  5
343
330
2E1
100
AcDbEntity
  8
0
  6
Continuous
 62
     0
370
     0
100
AcDbLine
 10
-81.026536
 20
558.659776
 30
0.0
 11
-85.696225
 21
572.914389
 31
0.0
  0
LINE
  5
344
330
2E1
100
AcDbEntity
  8
0
  6
Continuous
 62
     0
370
     0
100
AcDbLine
 10
-88.473398
 20
572.004611
 30
0.0
 11
-85.696225
 21
572.914389
 31
0.0
  0
LINE
  5
345
330
2E1
100
AcDbEntity
  8
0
  6
Continuous
 62
     0
370
     0
100
AcDbLine
 10
-81.012763
 20
558.664288
 30
0.0
 11
-81.026536
 21
558.659776
 31
0.0
  0
LINE
  5
346
330
2E1
100
AcDbEntity
  8
0
  6
Continuous
 62
     0
370
     0
100
AcDbLine
 10
-81.012763
 20
558.664288
 30
0.0
 11
-85.682452
 21
572.918901
 31
0.0
  0
LINE
  5
347
330
2E1
100
AcDbEntity
  8
0
  6
Continuous
 62
     0
370
     0
100
AcDbLine
 10
-85.682452
 20
572.918901
 30
0.0
 11
-85.696225
 21
572.914389
 31
0.0
  0
LINE
  5
348
330
2E1
100
AcDbEntity
  8
0
  6
Continuous
 62
     0
370
     0
100
AcDbLine
 10
-81.012763
 20
558.664288
 30
0.0
 11
-62.629075
 21
564.686626
 31
0.0
  0
LWPOLYLINE
  5
349
330
2E1
100
AcDbEntity
  8
0
  6
Continuous
 62
     0
370
    30
100
AcDbPolyline
 90
       10
 70
     0
 43
0.0
 10
-64.664261
 20
568.555481
 10
-64.467148
 20
567.998352
 10
-64.247772
 20
567.459229
 10
-64.011719
 20
566.946472
 10
-63.765999
 20
566.466187
 10
-63.517929
 20
566.024048
 10
-63.27486
 20
565.624573
 10
-63.044174
 20
565.270874
 10
-62.833214
 20
564.966003
 10
-62.629074
 20
564.686646
  0
LINE
  5
34A
330
2E1
100
AcDbEntity
  8
0
  6
Continuous
 62
     0
370
    30
100
AcDbLine
 10
-64.664259
 20
568.555498
 30
0.0
 11
-66.502485
 21
574.166834
 31
0.0
  0
ARC
  5
34B
330
2E1
100
AcDbEntity
  8
0
  6
Continuous
 62
     0
370
    30
100
AcDbCircle
 10
-50.693567
 20
579.367742
 30
0.0
 40
16.64245508601746
100
AcDbArc
 50
192.820751
 51
198.210467
  0
LWPOLYLINE
  5
34C
330
2E1
100
AcDbEntity
  8
0
  6
Continuous
 62
     0
370
    30
100
AcDbPolyline
 90
        9
 70
     0
 43
0.0
 10
-67.207977
 20
578.971008
 10
-67.218468
 20
578.756592
 10
-67.224617
 20
578.47583
 10
-67.222549
 20
578.133179
 10
-67.207657
 20
577.734253
 10
-67.175255
 20
577.284973
 10
-67.120842
 20
576.792847
 10
-67.040138
 20
576.266541
 10
-66.921112
 20
575.674744
  0
LINE
  5
34D
330
2E1
100
AcDbEntity
  8
0
  6
Continuous
 62
     0
370
     0
100
AcDbLine
 10
-85.682452
 20
572.918901
 30
0.0
 11
-67.207976
 21
578.970981
 31
0.0
  0
ARC
  5
34E
330
2E1
100
AcDbEntity
  8
0
  6
Continuous
 62
     0
370
    30
100
AcDbCircle
 10
-88.021474
 20
572.152658
 30
0.0
 40
0.5
100
AcDbArc
 50
108.138352
 51
198.138352
  0
ARC
  5
34F
330
2E1
100
AcDbEntity
  8
0
  6
Continuous
 62
     0
370
    30
100
AcDbCircle
 10
-83.351785
 20
557.898044
 30
0.0
 40
0.5
100
AcDbArc
 50
198.138352
 51
288.138352
  0
ELLIPSE
  5
350
330
2E1
100
AcDbEntity
  8
0
  6
Continuous
 62
     0
370
     0
100
AcDbEllipse
 10
-83.351785
 20
557.898044
 30
0.0
 11
-0.1556563208487345
 21
0.4751537748769717
 31
0.0
210
0.0
220
0.0
230
1.0
 40
0.951111
 41
1.5707962827348
 42
3.14159260952979
  0
LINE
  5
351
330
2E1
100
AcDbEntity
  8
0
  6
Continuous
 62
     0
370
    30
100
AcDbLine
 10
-83.196129
 20
557.42289
 30
0.0
 11
-80.696673
 21
558.241691
 31
0.0
  0
ELLIPSE
  5
352
330
2E1
100
AcDbEntity
  8
0
  6
Continuous
 62
     0
370
     0
100
AcDbEllipse
 10
-80.852329
 20
558.716845
 30
0.0
 11
0.1556563034849442
 21
-0.4751537805652009
 31
0.0
210
0.0
220
0.0
230
-1.0
 40
0.366632
 41
0.0000000146262616
 42
1.570796341421075
  0
LINE
  5
353
330
2E1
100
AcDbEntity
  8
0
  6
Continuous
 62
     0
370
    30
100
AcDbLine
 10
-80.669127
 20
558.250715
 30
0.0
 11
-80.696673
 21
558.241691
 31
0.0
  0
ELLIPSE
  5
354
330
2E1
100
AcDbEntity
  8
0
  6
Continuous
 62
     0
370
     0
100
AcDbEllipse
 10
-80.824783
 20
558.725869
 30
0.0
 11
-0.155656303722174
 21
0.4751537804874864
 31
0.0
210
0.0
220
0.0
230
1.0
 40
0.395619
 41
1.570796311978152
 42
3.141592638773061
  0
LINE
  5
355
330
2E1
100
AcDbEntity
  8
0
  6
Continuous
 62
     0
370
    30
100
AcDbLine
 10
-80.669127
 20
558.250715
 30
0.0
 11
-62.765738
 21
564.115711
 31
0.0
  0
LWPOLYLINE
  5
356
330
2E1
100
AcDbEntity
  8
0
  6
Continuous
 62
     0
370
    30
100
AcDbPolyline
 90
        7
 70
     0
 43
0.0
 10
-62.629074
 20
564.686646
 10
-62.555576
 20
564.554688
 10
-62.5298
 20
564.433105
 10
-62.542675
 20
564.327026
 10
-62.586807
 20
564.238953
 10
-62.656467
 20
564.17041
 10
-62.765739
 20
564.115723
  0
LWPOLYLINE
  5
357
330
2E1
100
AcDbEntity
  8
0
  6
Continuous
 62
     0
370
    30
100
AcDbPolyline
 90
        4
 70
     0
 43
0.0
 10
-67.207977
 20
578.971008
 10
-67.213486
 20
579.091248
 10
-67.231682
 20
579.16803
 10
-67.239487
 20
579.20105
  0
ELLIPSE
  5
358
330
2E1
100
AcDbEntity
  8
0
  6
Continuous
 62
     0
370
     0
100
AcDbEllipse
 10
-85.494472
 20
572.980482
 30
0.0
 11
0.155656303722174
 21
-0.4751537804874864
 31
0.0
210
0.0
220
0.0
230
-1.0
 40
0.395619
 41
1.570796341611658
 42
3.141592668406662
  0
ELLIPSE
  5
359
330
2E1
100
AcDbEntity
  8
0
  6
Continuous
 62
     0
370
     0
100
AcDbEllipse
 10
-85.522018
 20
572.971458
 30
0.0
 11
-0.1556563034849427
 21
0.4751537805652014
 31
0.0
210
0.0
220
0.0
230
1.0
 40
0.366632
 41
-0.0000000146263996
 42
1.570796312168486
  0
ELLIPSE
  5
35A
330
2E1
100
AcDbEntity
  8
0
  6
Continuous
 62
     0
370
     0
100
AcDbEllipse
 10
-88.021474
 20
572.152658
 30
0.0
 11
0.1556563208487349
 21
-0.4751537748769716
 31
0.0
210
0.0
220
0.0
230
-1.0
 40
0.951111
 41
1.570796370855012
 42
3.14159269764974
  0
LINE
  5
35B
330
2E1
100
AcDbEntity
  8
0
  6
Continuous
 62
     0
370
     0
100
AcDbLine
 10
-58.206359
 20
569.57928
 30
0.0
 11
-58.952851
 21
564.791316
 31
0.0
  0
ARC
  5
35C
330
2E1
100
AcDbEntity
  8
0
  6
Continuous
 62
     0
370
     0
100
AcDbCircle
 10
-59.681903
 20
559.855061
 30
0.0
 40
9.835531063500412
100
AcDbArc
 50
81.371811
 51
108.37376
  0
LINE
  5
35D
330
2E1
100
AcDbEntity
  8
0
  6
Continuous
 62
     0
370
     0
100
AcDbLine
 10
-61.279659
 20
564.602538
 30
0.0
 11
-62.782204
 21
569.189181
 31
0.0
  0
ARC
  5
35E
330
2E1
100
AcDbEntity
  8
0
  6
Continuous
 62
     0
370
    30
100
AcDbCircle
 10
-59.723073
 20
559.850711
 30
0.0
 40
5.00028216488835
100
AcDbArc
 50
81.139128
 51
108.137576
  0
LINE
  5
35F
330
2E1
100
AcDbEntity
  8
0
  6
Continuous
 62
     0
370
    30
100
AcDbLine
 10
-40.376962
 20
561.895147
 30
0.0
 11
-58.952851
 21
564.791316
 31
0.0
  0
LINE
  5
360
330
2E1
100
AcDbEntity
  8
0
  6
Continuous
 62
     0
370
     0
100
AcDbLine
 10
-39.492868
 20
566.818668
 30
0.0
 11
-58.206359
 21
569.57928
 31
0.0
  0
LWPOLYLINE
  5
361
330
2E1
100
AcDbEntity
  8
0
  6
Continuous
 62
     0
370
    30
100
AcDbPolyline
 90
       14
 70
     0
 43
0.0
 10
-40.376961
 20
561.895142
 10
-40.369728
 20
561.929565
 10
-40.348118
 20
562.032471
 10
-40.312408
 20
562.202515
 10
-40.263206
 20
562.436768
 10
-40.20116
 20
562.732178
 10
-40.127094
 20
563.084778
 10
-40.042107
 20
563.489441
 10
-39.947384
 20
563.94043
 10
-39.844269
 20
564.431396
 10
-39.734207
 20
564.955383
 10
-39.618748
 20
565.505127
 10
-39.499454
 20
566.073059
 10
-39.369965
 20
566.689575
  0
LINE
  5
362
330
2E1
100
AcDbEntity
  8
0
  6
Continuous
 62
     0
370
     0
100
AcDbLine
 10
-39.369965
 20
566.79298
 30
0.0
 11
-39.492868
 21
566.818668
 31
0.0
  0
LINE
  5
363
330
2E1
100
AcDbEntity
  8
0
  6
Continuous
 62
     0
370
    30
100
AcDbLine
 10
-66.029605
 20
579.034323
 30
0.0
 11
-39.369965
 21
571.959846
 31
0.0
  0
LINE
  5
364
330
2E1
100
AcDbEntity
  8
0
  6
Continuous
 62
     0
370
     0
100
AcDbLine
 10
-66.029605
 20
579.034323
 30
0.0
 11
-66.92111
 21
575.674753
 31
0.0
  0
LINE
  5
365
330
2E1
100
AcDbEntity
  8
0
  6
Continuous
 62
     0
370
     0
100
AcDbLine
 10
-66.502485
 20
574.166834
 30
0.0
 11
-39.492868
 21
566.818668
 31
0.0
  0
ARC
  5
366
330
2E1
100
AcDbEntity
  8
0
  6
Continuous
 62
     0
370
    30
100
AcDbCircle
 10
-67.311558
 20
574.203986
 30
0.0
 40
4.997555565393858
100
AcDbArc
 50
75.13657
 51
89.173667
  0
LINE
  5
367
330
2E1
100
AcDbEntity
  8
0
  6
Continuous
 62
     0
370
     0
100
AcDbLine
 10
-62.782205
 20
569.189181
 30
0.0
 11
-64.664259
 21
568.555498
 31
0.0
  0
LINE
  5
368
330
2E1
100
AcDbEntity
  8
0
  6
Continuous
 62
     0
370
    30
100
AcDbLine
 10
-61.279659
 20
564.602538
 30
0.0
 11
-62.765738
 21
564.115711
 31
0.0
  0
LINE
  5
369
330
2E1
100
AcDbEntity
  8
0
  6
Continuous
 62
     0
370
    30
100
AcDbLine
 10
-40.165041
 20
562.904132
 30
0.0
 11
-39.369965
 21
562.737139
 31
0.0
  0
LWPOLYLINE
  5
36A
330
2E1
100
AcDbEntity
  8
0
  6
Continuous
 62
     0
370
    30
100
AcDbPolyline
 90
        7
 70
     0
 43
0.0
 10
-67.745468
 20
579.321045
 10
-67.656876
 20
579.341248
 10
-67.565651
 20
579.345276
 10
-67.475342
 20
579.332581
 10
-67.389
 20
579.30365
 10
-67.309258
 20
579.259583
 10
-67.237923
 20
579.20105
  0
LINE
  5
36B
330
2E1
100
AcDbEntity
  8
0
  6
Continuous
 62
     0
370
     0
100
AcDbLine
 10
-4.41545
 20
542.217319
 30
0.0
 11
-4.792252
 21
542.330227
 31
0.0
  0
LINE
  5
36C
330
2E1
100
AcDbEntity
  8
0
  6
Continuous
 62
     0
370
     0
100
AcDbLine
 10
-2.89561
 20
535.752037
 30
0.0
 11
-5.623648
 21
536.569487
 31
0.0
  0
LINE
  5
36D
330
2E1
100
AcDbEntity
  8
0
  6
Continuous
 62
     0
370
     0
100
AcDbLine
 10
0.397558
 20
534.765246
 30
0.0
 11
-2.586422
 21
535.659389
 31
0.0
  0
LINE
  5
36E
330
2E1
100
AcDbEntity
  8
0
  6
Continuous
 62
     0
370
     0
100
AcDbLine
 10
1.10439
 20
534.553446
 30
0.0
 11
0.397558
 21
534.765246
 31
0.0
  0
LINE
  5
36F
330
2E1
100
AcDbEntity
  8
0
  6
Continuous
 62
     0
370
     0
100
AcDbLine
 10
-9.434753
 20
578.159389
 30
0.0
 11
-9.414266
 21
578.227758
 31
0.0
  0
LINE
  5
370
330
2E1
100
AcDbEntity
  8
0
  6
Continuous
 62
     0
370
     0
100
AcDbLine
 10
-15.892392
 20
578.159389
 30
0.0
 11
-14.724772
 21
582.056031
 31
0.0
  0
LINE
  5
371
330
2E1
100
AcDbEntity
  8
0
  6
Continuous
 62
     0
370
     0
100
AcDbLine
 10
-21.902258
 20
578.159389
 30
0.0
 11
-20.485512
 21
582.887427
 31
0.0
  0
LINE
  5
372
330
2E1
100
AcDbEntity
  8
0
  6
Continuous
 62
     0
370
     0
100
AcDbLine
 10
24.624231
 20
592.101459
 30
0.0
 11
25.001032
 21
591.988551
 31
0.0
  0
LINE
  5
373
330
2E1
100
AcDbEntity
  8
0
  6
Continuous
 62
     0
370
     0
100
AcDbLine
 10
23.10439
 20
598.566742
 30
0.0
 11
25.832428
 21
597.749291
 31
0.0
  0
LINE
  5
374
330
2E1
100
AcDbEntity
  8
0
  6
Continuous
 62
     0
370
     0
100
AcDbLine
 10
19.811222
 20
599.553532
 30
0.0
 11
22.795202
 21
598.659389
 31
0.0
  0
LINE
  5
375
330
2E1
100
AcDbEntity
  8
0
  6
Continuous
 62
     0
370
     0
100
AcDbLine
 10
19.10439
 20
599.765333
 30
0.0
 11
19.811222
 21
599.553532
 31
0.0
  0
LINE
  5
376
330
2E1
100
AcDbEntity
  8
0
  6
Continuous
 62
     0
370
     0
100
AcDbLine
 10
31.058238
 20
560.880615
 30
0.0
 11
29.623046
 21
556.09102
 31
0.0
  0
LINE
  5
377
330
2E1
100
AcDbEntity
  8
0
  6
Continuous
 62
     0
370
     0
100
AcDbLine
 10
32.49343
 20
565.670211
 30
0.0
 11
31.058238
 21
560.880615
 31
0.0
  0
LINE
  5
378
330
2E1
100
AcDbEntity
  8
0
  6
Continuous
 62
     0
370
     0
100
AcDbLine
 10
36.983826
 20
559.105026
 30
0.0
 11
34.933552
 21
552.262747
 31
0.0
  0
LINE
  5
379
330
2E1
100
AcDbEntity
  8
0
  6
Continuous
 62
     0
370
     0
100
AcDbLine
 10
39.034099
 20
565.947306
 30
0.0
 11
36.983826
 21
559.105026
 31
0.0
  0
LINE
  5
37A
330
2E1
100
AcDbEntity
  8
0
  6
Continuous
 62
     0
370
     0
100
AcDbLine
 10
42.498533
 20
557.452557
 30
0.0
 11
40.694292
 21
551.431351
 31
0.0
  0
LINE
  5
37B
330
2E1
100
AcDbEntity
  8
0
  6
Continuous
 62
     0
370
     0
100
AcDbLine
 10
44.302774
 20
563.473762
 30
0.0
 11
42.498533
 21
557.452557
 31
0.0
  0
ARC
  5
37C
330
2E1
100
AcDbEntity
  8
0
  6
Continuous
 62
     0
370
    30
100
AcDbCircle
 10
33.851165
 20
560.043747
 30
0.0
 40
11.00007955515788
100
AcDbArc
 50
308.469498
 51
343.315711
  0
ARC
  5
37D
330
2E1
100
AcDbEntity
  8
0
  6
Continuous
 62
     0
370
    30
100
AcDbCircle
 10
33.851151
 20
560.043699
 30
0.0
 40
11.00007956543092
100
AcDbArc
 50
343.322834
 51
18.169047
  0
ARC
  5
37E
330
2E1
100
AcDbEntity
  8
0
  6
Continuous
 62
     0
370
    30
100
AcDbCircle
 10
40.502208
 20
562.226454
 30
0.0
 40
4.000010184185937
100
AcDbArc
 50
18.169332
 51
111.532329
  0
ARC
  5
37F
330
2E1
100
AcDbEntity
  8
0
  6
Continuous
 62
     0
370
    30
100
AcDbCircle
 10
38.20591
 20
554.563129
 30
0.0
 40
4.000010184198134
100
AcDbArc
 50
215.106217
 51
308.469214
  0
ARC
  5
380
330
2E1
100
AcDbEntity
  8
0
  6
Continuous
 62
     0
370
    30
100
AcDbCircle
 10
35.363809
 20
575.249493
 30
0.0
 40
10.00008659322447
100
AcDbArc
 50
253.319445
 51
291.532312
  0
ARC
  5
381
330
2E1
100
AcDbEntity
  8
0
  6
Continuous
 62
     0
370
    30
100
AcDbCircle
 10
26.75261
 20
546.511755
 30
0.0
 40
10.00008659331275
100
AcDbArc
 50
35.106234
 51
73.319101
  0
LINE
  5
382
330
2E1
100
AcDbEntity
  8
0
  6
Continuous
 62
     0
370
    30
100
AcDbLine
 10
30.099384
 20
566.387581
 30
0.0
 11
32.49343
 21
565.670211
 31
0.0
  0
LINE
  5
383
330
2E1
100
AcDbEntity
  8
0
  6
Continuous
 62
     0
370
    30
100
AcDbLine
 10
29.095546
 20
556.249084
 30
0.0
 11
29.623046
 21
556.09102
 31
0.0
  0
ARC
  5
384
330
2E1
100
AcDbEntity
  8
0
  6
Continuous
 62
     0
370
    30
100
AcDbCircle
 10
17.220032
 20
590.906164
 30
0.0
 40
11.00007956496868
100
AcDbArc
 50
38.469498
 51
73.315711
  0
ARC
  5
385
330
2E1
100
AcDbEntity
  8
0
  6
Continuous
 62
     0
370
    30
100
AcDbCircle
 10
17.218563
 20
590.899796
 30
0.0
 40
11.00660177605898
100
AcDbArc
 50
73.324763
 51
80.134494
  0
ARC
  5
386
330
2E1
100
AcDbEntity
  8
0
  6
Continuous
 62
     0
370
    30
100
AcDbCircle
 10
22.70065
 20
595.260908
 30
0.0
 40
4.000010184175279
100
AcDbArc
 50
305.106217
 51
38.469214
  0
ARC
  5
387
330
2E1
100
AcDbEntity
  8
0
  6
Continuous
 62
     0
370
    30
100
AcDbCircle
 10
30.745791
 20
583.816548
 30
0.0
 40
9.98918823899188
100
AcDbArc
 50
125.106475
 51
126.835001
  0
ARC
  5
388
330
2E1
100
AcDbEntity
  8
0
  6
Continuous
 62
     0
370
    30
100
AcDbCircle
 10
-13.642318
 20
574.275017
 30
0.0
 40
11.00013272029457
100
AcDbArc
 50
128.469726
 51
147.06509
  0
ARC
  5
389
330
2E1
100
AcDbEntity
  8
0
  6
Continuous
 62
     0
370
    30
100
AcDbCircle
 10
-17.997129
 20
579.755649
 30
0.0
 40
4.000010184166403
100
AcDbArc
 50
35.106217
 51
128.469214
  0
ARC
  5
38A
330
2E1
100
AcDbEntity
  8
0
  6
Continuous
 62
     0
370
    30
100
AcDbCircle
 10
-6.543829
 20
587.807024
 30
0.0
 40
10.00008659323401
100
AcDbArc
 50
215.106234
 51
253.319101
  0
LINE
  5
38B
330
2E1
100
AcDbEntity
  8
0
  6
Continuous
 62
     0
370
    30
100
AcDbLine
 10
-9.186101
 20
578.159389
 30
0.0
 11
-9.414266
 21
578.227758
 31
0.0
  0
ARC
  5
38C
330
2E1
100
AcDbEntity
  8
0
  6
Continuous
 62
     0
370
    30
100
AcDbCircle
 10
2.988748
 20
543.412614
 30
0.0
 40
11.00007956537889
100
AcDbArc
 50
218.469498
 51
253.315711
  0
ARC
  5
38D
330
2E1
100
AcDbEntity
  8
0
  6
Continuous
 62
     0
370
    30
100
AcDbCircle
 10
2.990217
 20
543.418982
 30
0.0
 40
11.00660178944331
100
AcDbArc
 50
253.324763
 51
260.134494
  0
ARC
  5
38E
330
2E1
100
AcDbEntity
  8
0
  6
Continuous
 62
     0
370
    30
100
AcDbCircle
 10
-2.49187
 20
539.05787
 30
0.0
 40
4.000010184192619
100
AcDbArc
 50
125.106217
 51
218.469214
  0
ARC
  5
38F
330
2E1
100
AcDbEntity
  8
0
  6
Continuous
 62
     0
370
    30
100
AcDbCircle
 10
-10.537011
 20
550.50223
 30
0.0
 40
9.98918818552037
100
AcDbArc
 50
305.106475
 51
306.834997
  0
ENDBLK
  5
391
330
2E1
100
AcDbEntity
  8
0
100
AcDbBlockEnd
  0
ENDSEC
  0
SECTION
  2
ENTITIES
  0
INSERT
  5
150
330
1F
100
AcDbEntity
  8
0
  6
Continuous
 62
     7
420
 16250871
370
     0
100
AcDbBlockReference
  2
a
 10
240.24292
 20
212.015625
 30
0.0
  0
INSERT
  5
215
330
1F
100
AcDbEntity
  8
0
  6
Continuous
 62
     7
420
 16250871
370
     0
100
AcDbBlockReference
  2
b
 10
0.0
 20
138.044342
 30
0.0
  0
INSERT
  5
2E0
330
1F
100
AcDbEntity
  8
0
  6
Continuous
 62
     7
420
 16250871
370
     0
100
AcDbBlockReference
  2
c
 10
293.90625
 20
0.0
 30
0.0
  0
INSERT
  5
392
330
1F
100
AcDbEntity
  8
0
  6
Continuous
 62
     7
420
 16250871
370
     0
100
AcDbBlockReference
  2
d
 10
113.874893
 20
0.0
 30
0.0
  0
ENDSEC
  0
SECTION
  2
OBJECTS
  0
DICTIONARY
  5
C
330
0
100
AcDbDictionary
281
     1
  3
ACAD_DETAILVIEWSTYLE
350
3CA
  3
ACAD_GROUP
350
D
  3
ACAD_LAYOUT
350
1A
  3
ACAD_MATERIAL
350
43
  3
ACAD_MLEADERSTYLE
350
6B
  3
ACAD_MLINESTYLE
350
17
  3
ACAD_PLOTSETTINGS
350
19
  3
ACAD_PLOTSTYLENAME
350
E
  3
ACAD_SCALELIST
350
47
  3
ACAD_SECTIONVIEWSTYLE
350
3CB
  3
ACAD_TABLESTYLE
350
69
  3
ACAD_VISUALSTYLE
350
2A
  3
ACDB_RECOMPOSE_DATA
350
3C7
  3
AcDbVariableDictionary
350
393
  0
SUN
  5
6D
330
29
100
AcDbSun
 90
        1
290
     0
 63
     7
421
 16777215
 40
1.0
291
     1
 91
  2455826
 92
 54000000
292
     0
 70
     2
 71
   256
280
     1
  0
DICTIONARY
  5
3CA
102
{ACAD_REACTORS
330
C
102
}
330
C
100
AcDbDictionary
281
     1
  0
DICTIONARY
  5
D
102
{ACAD_REACTORS
330
C
102
}
330
C
100
AcDbDictionary
281
     1
  0
DICTIONARY
  5
1A
102
{ACAD_REACTORS
330
C
102
}
330
C
100
AcDbDictionary
281
     1
  3
Layout1
350
1E
  3
Layout2
350
26
  3
Model
350
22
  0
DICTIONARY
  5
43
102
{ACAD_REACTORS
330
C
102
}
330
C
100
AcDbDictionary
281
     1
  3
ByBlock
350
45
  3
ByLayer
350
44
  3
Global
350
46
  0
DICTIONARY
  5
6B
102
{ACAD_REACTORS
330
C
102
}
330
C
100
AcDbDictionary
281
     1
  3
Standard
350
6C
  0
DICTIONARY
  5
17
102
{ACAD_REACTORS
330
C
102
}
330
C
100
AcDbDictionary
281
     1
  3
Standard
350
18
  0
DICTIONARY
  5
19
102
{ACAD_REACTORS
330
C
102
}
330
C
100
AcDbDictionary
281
     1
  0
ACDBDICTIONARYWDFLT
  5
E
102
{ACAD_REACTORS
330
C
102
}
330
C
100
AcDbDictionary
281
     1
  3
Normal
350
F
100
AcDbDictionaryWithDefault
340
F
  0
DICTIONARY
  5
47
102
{ACAD_REACTORS
330
C
102
}
330
C
100
AcDbDictionary
281
     1
  3
A0
350
48
  3
A1
350
49
  3
A2
350
4A
  3
A3
350
4B
  3
A4
350
4C
  3
A5
350
4D
  3
A6
350
4E
  3
A7
350
4F
  3
A8
350
50
  3
A9
350
51
  3
B0
350
52
  3
B1
350
53
  3
B2
350
54
  3
B3
350
55
  3
B4
350
56
  3
B5
350
57
  3
B6
350
58
  3
B7
350
59
  3
B8
350
5A
  3
B9
350
5B
  3
C0
350
5C
  3
C1
350
5D
  3
C2
350
5E
  3
C3
350
5F
  3
C4
350
60
  3
C5
350
61
  3
C6
350
62
  3
C7
350
63
  3
C8
350
64
  3
C9
350
65
  3
D0
350
66
  3
D1
350
67
  3
D2
350
68
  0
DICTIONARY
  5
3CB
102
{ACAD_REACTORS
330
C
102
}
330
C
100
AcDbDictionary
281
     1
  0
DICTIONARY
  5
69
102
{ACAD_REACTORS
330
C
102
}
330
C
100
AcDbDictionary
281
     1
  3
Standard
350
6A
  0
DICTIONARY
  5
2A
102
{ACAD_REACTORS
330
C
102
}
330
C
100
AcDbDictionary
281
     1
  3
2dWireframe
350
2F
  3
Basic
350
32
  3
Brighten
350
36
  3
ColorChange
350
3A
  3
Conceptual
350
34
  3
Dim
350
35
  3
EdgeColorOff
350
3D
  3
Facepattern
350
39
  3
Flat
350
2B
  3
FlatWithEdges
350
2C
  3
Gouraud
350
2D
  3
GouraudWithEdges
350
2E
  3
Hidden
350
31
  3
JitterOff
350
3B
  3
Linepattern
350
38
  3
OverhangOff
350
3C
  3
Realistic
350
33
  3
Shaded
350
42
  3
Shaded with edges
350
41
  3
Shades of Gray
350
3E
  3
Sketchy
350
3F
  3
Thicken
350
37
  3
Wireframe
350
30
  3
X-Ray
350
40
  0
XRECORD
  5
3C7
102
{ACAD_REACTORS
330
C
102
}
330
C
100
AcDbXrecord
280
     1
 90
        1
330
6A
  0
DICTIONARY
  5
393
102
{ACAD_REACTORS
330
C
102
}
330
C
100
AcDbDictionary
281
     1
  3
CANNOSCALE
350
394
  3
CMLEADERSTYLE
350
3C9
  3
CTABLESTYLE
350
3C8
  0
LAYOUT
  5
1E
102
{ACAD_REACTORS
330
1A
102
}
330
1A
100
AcDbPlotSettings
  1

  2
none_device
  4

  6

 40
0.0
 41
0.0
 42
0.0
 43
0.0
 44
0.0
 45
0.0
 46
0.0
 47
0.0
 48
0.0
 49
0.0
140
0.0
141
0.0
142
1.0
143
1.0
 70
   688
 72
     1
 73
     0
 74
     5
  7

 75
    16
 76
     0
 77
     2
 78
   300
147
1.0
148
0.0
149
0.0
100
AcDbLayout
  1
Layout1
 70
     1
 71
     1
 10
0.0
 20
0.0
 11
420.0
 21
297.0
 12
0.0
 22
0.0
 32
0.0
 14
1.000000E+20
 24
1.000000E+20
 34
1.000000E+20
 15
-1.000000E+20
 25
-1.000000E+20
 35
-1.000000E+20
146
0.0
 13
0.0
 23
0.0
 33
0.0
 16
1.0
 26
0.0
 36
0.0
 17
0.0
 27
1.0
 37
0.0
 76
     0
330
1B
  0
LAYOUT
  5
26
102
{ACAD_REACTORS
330
1A
102
}
330
1A
100
AcDbPlotSettings
  1

  2
none_device
  4

  6

 40
0.0
 41
0.0
 42
0.0
 43
0.0
 44
0.0
 45
0.0
 46
0.0
 47
0.0
 48
0.0
 49
0.0
140
0.0
141
0.0
142
1.0
143
1.0
 70
   688
 72
     1
 73
     0
 74
     5
  7

 75
    16
 76
     0
 77
     2
 78
   300
147
1.0
148
0.0
149
0.0
100
AcDbLayout
  1
Layout2
 70
     1
 71
     2
 10
0.0
 20
0.0
 11
0.0
 21
0.0
 12
0.0
 22
0.0
 32
0.0
 14
0.0
 24
0.0
 34
0.0
 15
0.0
 25
0.0
 35
0.0
146
0.0
 13
0.0
 23
0.0
 33
0.0
 16
1.0
 26
0.0
 36
0.0
 17
0.0
 27
1.0
 37
0.0
 76
     0
330
23
  0
LAYOUT
  5
22
102
{ACAD_REACTORS
330
1A
102
}
330
1A
100
AcDbPlotSettings
  1

  2
none_device
  4
Letter_(8.50_x_11.00_Inches)
  6

 40
6.35
 41
6.35
 42
6.350005
 43
6.350005
 44
215.9
 45
279.4
 46
0.0
 47
0.0
 48
0.0
 49
0.0
140
0.0
141
0.0
142
1.0
143
1.0
 70
  1712
 72
     1
 73
     0
 74
     0
  7

 75
     0
 76
     0
 77
     2
 78
   300
147
1.0
148
0.0
149
0.0
100
AcDbLayout
  1
Model
 70
     1
 71
     0
 10
0.0
 20
0.0
 11
420.0
 21
297.0
 12
0.0
 22
0.0
 32
0.0
 14
1.000000E+20
 24
1.000000E+20
 34
1.000000E+20
 15
-1.000000E+20
 25
-1.000000E+20
 35
-1.000000E+20
146
0.0
 13
0.0
 23
0.0
 33
0.0
 16
1.0
 26
0.0
 36
0.0
 17
0.0
 27
1.0
 37
0.0
 76
     0
330
1F
331
29
  0
MATERIAL
  5
45
102
{ACAD_REACTORS
330
43
102
}
330
43
100
AcDbMaterial
  1
ByBlock
 72
     1
 94
      127
  0
MATERIAL
  5
44
102
{ACAD_REACTORS
330
43
102
}
330
43
100
AcDbMaterial
  1
ByLayer
 72
     1
 94
      127
  0
MATERIAL
  5
46
102
{ACAD_REACTORS
330
43
102
}
330
43
100
AcDbMaterial
  1
Global
 72
     1
 94
      127
  0
MLEADERSTYLE
  5
6C
102
{ACAD_REACTORS
330
6B
102
}
330
6B
100
AcDbMLeaderStyle
179
     2
170
     2
171
     1
172
     0
 90
        2
 40
0.0
 41
0.0
173
     1
 91
-1056964608
340
14
 92
       -2
290
     1
 42
2.0
291
     1
 43
8.0
  3
Standard
341
0
 44
4.0
300

342
11
174
     1
178
     6
175
     1
176
     0
 93
-1056964608
 45
4.0
292
     0
297
     0
 46
4.0
343
0
 94
-1056964608
 47
1.0
 49
1.0
140
1.0
293
     1
141
0.0
294
     1
177
     0
142
1.0
295
     0
296
     0
143
3.75
271
     0
272
     9
273
     9
  0
MLINESTYLE
  5
18
102
{ACAD_REACTORS
330
17
102
}
330
17
100
AcDbMlineStyle
  2
Standard
 70
     0
  3

 62
   256
 51
90.0
 52
90.0
 71
     2
 49
0.5
 62
   256
  6
BYLAYER
 49
-0.5
 62
   256
  6
BYLAYER
  0
ACDBPLACEHOLDER
  5
F
102
{ACAD_REACTORS
330
E
102
}
330
E
  0
SCALE
  5
48
102
{ACAD_REACTORS
330
47
102
}
330
47
100
AcDbScale
 70
     0
300
1:1
140
1.0
141
1.0
290
     1
  0
SCALE
  5
49
102
{ACAD_REACTORS
330
47
102
}
330
47
100
AcDbScale
 70
     0
300
1:2
140
1.0
141
2.0
290
     0
  0
SCALE
  5
4A
102
{ACAD_REACTORS
330
47
102
}
330
47
100
AcDbScale
 70
     0
300
1:4
140
1.0
141
4.0
290
     0
  0
SCALE
  5
4B
102
{ACAD_REACTORS
330
47
102
}
330
47
100
AcDbScale
 70
     0
300
1:5
140
1.0
141
5.0
290
     0
  0
SCALE
  5
4C
102
{ACAD_REACTORS
330
47
102
}
330
47
100
AcDbScale
 70
     0
300
1:8
140
1.0
141
8.0
290
     0
  0
SCALE
  5
4D
102
{ACAD_REACTORS
330
47
102
}
330
47
100
AcDbScale
 70
     0
300
1:10
140
1.0
141
10.0
290
     0
  0
SCALE
  5
4E
102
{ACAD_REACTORS
330
47
102
}
330
47
100
AcDbScale
 70
     0
300
1:16
140
1.0
141
16.0
290
     0
  0
SCALE
  5
4F
102
{ACAD_REACTORS
330
47
102
}
330
47
100
AcDbScale
 70
     0
300
1:20
140
1.0
141
20.0
290
     0
  0
SCALE
  5
50
102
{ACAD_REACTORS
330
47
102
}
330
47
100
AcDbScale
 70
     0
300
1:30
140
1.0
141
30.0
290
     0
  0
SCALE
  5
51
102
{ACAD_REACTORS
330
47
102
}
330
47
100
AcDbScale
 70
     0
300
1:40
140
1.0
141
40.0
290
     0
  0
SCALE
  5
52
102
{ACAD_REACTORS
330
47
102
}
330
47
100
AcDbScale
 70
     0
300
1:50
140
1.0
141
50.0
290
     0
  0
SCALE
  5
53
102
{ACAD_REACTORS
330
47
102
}
330
47
100
AcDbScale
 70
     0
300
1:100
140
1.0
141
100.0
290
     0
  0
SCALE
  5
54
102
{ACAD_REACTORS
330
47
102
}
330
47
100
AcDbScale
 70
     0
300
2:1
140
2.0
141
1.0
290
     0
  0
SCALE
  5
55
102
{ACAD_REACTORS
330
47
102
}
330
47
100
AcDbScale
 70
     0
300
4:1
140
4.0
141
1.0
290
     0
  0
SCALE
  5
56
102
{ACAD_REACTORS
330
47
102
}
330
47
100
AcDbScale
 70
     0
300
8:1
140
8.0
141
1.0
290
     0
  0
SCALE
  5
57
102
{ACAD_REACTORS
330
47
102
}
330
47
100
AcDbScale
 70
     0
300
10:1
140
10.0
141
1.0
290
     0
  0
SCALE
  5
58
102
{ACAD_REACTORS
330
47
102
}
330
47
100
AcDbScale
 70
     0
300
100:1
140
100.0
141
1.0
290
     0
  0
SCALE
  5
59
102
{ACAD_REACTORS
330
47
102
}
330
47
100
AcDbScale
 70
     0
300
1/128" = 1'-0"
140
0.007812
141
12.0
290
     0
  0
SCALE
  5
5A
102
{ACAD_REACTORS
330
47
102
}
330
47
100
AcDbScale
 70
     0
300
1/64" = 1'-0"
140
0.015625
141
12.0
290
     0
  0
SCALE
  5
5B
102
{ACAD_REACTORS
330
47
102
}
330
47
100
AcDbScale
 70
     0
300
1/32" = 1'-0"
140
0.03125
141
12.0
290
     0
  0
SCALE
  5
5C
102
{ACAD_REACTORS
330
47
102
}
330
47
100
AcDbScale
 70
     0
300
1/16" = 1'-0"
140
0.0625
141
12.0
290
     0
  0
SCALE
  5
5D
102
{ACAD_REACTORS
330
47
102
}
330
47
100
AcDbScale
 70
     0
300
3/32" = 1'-0"
140
0.09375
141
12.0
290
     0
  0
SCALE
  5
5E
102
{ACAD_REACTORS
330
47
102
}
330
47
100
AcDbScale
 70
     0
300
1/8" = 1'-0"
140
0.125
141
12.0
290
     0
  0
SCALE
  5
5F
102
{ACAD_REACTORS
330
47
102
}
330
47
100
AcDbScale
 70
     0
300
3/16" = 1'-0"
140
0.1875
141
12.0
290
     0
  0
SCALE
  5
60
102
{ACAD_REACTORS
330
47
102
}
330
47
100
AcDbScale
 70
     0
300
1/4" = 1'-0"
140
0.25
141
12.0
290
     0
  0
SCALE
  5
61
102
{ACAD_REACTORS
330
47
102
}
330
47
100
AcDbScale
 70
     0
300
3/8" = 1'-0"
140
0.375
141
12.0
290
     0
  0
SCALE
  5
62
102
{ACAD_REACTORS
330
47
102
}
330
47
100
AcDbScale
 70
     0
300
1/2" = 1'-0"
140
0.5
141
12.0
290
     0
  0
SCALE
  5
63
102
{ACAD_REACTORS
330
47
102
}
330
47
100
AcDbScale
 70
     0
300
3/4" = 1'-0"
140
0.75
141
12.0
290
     0
  0
SCALE
  5
64
102
{ACAD_REACTORS
330
47
102
}
330
47
100
AcDbScale
 70
     0
300
1" = 1'-0"
140
1.0
141
12.0
290
     0
  0
SCALE
  5
65
102
{ACAD_REACTORS
330
47
102
}
330
47
100
AcDbScale
 70
     0
300
1-1/2" = 1'-0"
140
1.5
141
12.0
290
     0
  0
SCALE
  5
66
102
{ACAD_REACTORS
330
47
102
}
330
47
100
AcDbScale
 70
     0
300
3" = 1'-0"
140
3.0
141
12.0
290
     0
  0
SCALE
  5
67
102
{ACAD_REACTORS
330
47
102
}
330
47
100
AcDbScale
 70
     0
300
6" = 1'-0"
140
6.0
141
12.0
290
     0
  0
SCALE
  5
68
102
{ACAD_REACTORS
330
47
102
}
330
47
100
AcDbScale
 70
     0
300
1'-0" = 1'-0"
140
12.0
141
12.0
290
     0
  0
TABLESTYLE
  5
6A
102
{ACAD_REACTORS
330
69
102
}
102
{ACAD_XDICTIONARY
360
3C5
102
}
330
69
100
AcDbTableStyle
  3
Standard
 70
     0
 71
     0
 40
0.06
 41
0.06
280
     0
281
     0
  7
Standard
140
4.5
170
     2
 62
     0
 63
   257
283
     0
 90
        4
 91
        0
  1

274
    -2
284
     1
 64
     0
275
    -2
285
     1
 65
     0
276
    -2
286
     1
 66
     0
277
    -2
287
     1
 67
     0
278
    -2
288
     1
 68
     0
279
    -2
289
     1
 69
     0
  7
Standard
140
6.0
170
     5
 62
     0
 63
   257
283
     0
 90
        4
 91
        0
  1

274
    -2
284
     1
 64
     0
275
    -2
285
     1
 65
     0
276
    -2
286
     1
 66
     0
277
    -2
287
     1
 67
     0
278
    -2
288
     1
 68
     0
279
    -2
289
     1
 69
     0
  7
Standard
140
4.5
170
     5
 62
     0
 63
   257
283
     0
 90
        4
 91
        0
  1

274
    -2
284
     1
 64
     0
275
    -2
285
     1
 65
     0
276
    -2
286
     1
 66
     0
277
    -2
287
     1
 67
     0
278
    -2
288
     1
 68
     0
279
    -2
289
     1
 69
     0
  0
VISUALSTYLE
  5
2F
102
{ACAD_REACTORS
330
2A
102
}
102
{ACAD_XDICTIONARY
360
39D
102
}
330
2A
100
AcDbVisualStyle
  2
2dWireframe
 70
     4
177
     2
291
     0
 71
     0
176
     1
 72
     2
176
     1
 73
     0
176
     1
 90
        0
176
     1
 40
0.6
176
     1
 41
30.0
176
     1
 62
     5
 63
     7
421
 16777215
176
     1
 74
     1
176
     1
 91
        4
176
     1
 64
     7
176
     1
 65
   257
176
     1
 75
     1
176
     1
175
     1
176
     1
 42
1.0
176
     1
 92
        0
176
     1
 66
   257
176
     1
 43
1.0
176
     1
 76
     1
176
     1
 77
     6
176
     1
 78
     2
176
     1
 67
     7
176
     1
 79
     5
176
     1
170
     0
176
     1
171
     0
176
     1
290
     0
176
     1
 93
        1
176
     1
 44
0.0
176
     1
173
     0
176
     1
  0
VISUALSTYLE
  5
32
102
{ACAD_REACTORS
330
2A
102
}
102
{ACAD_XDICTIONARY
360
3A3
102
}
330
2A
100
AcDbVisualStyle
  2
Basic
 70
     7
177
     2
291
     1
 71
     1
176
     1
 72
     0
176
     1
 73
     1
176
     1
 90
        0
176
     1
 40
0.6
176
     1
 41
30.0
176
     1
 62
     5
 63
     7
421
 16777215
176
     1
 74
     0
176
     1
 91
        4
176
     1
 64
     7
176
     1
 65
   257
176
     1
 75
     1
176
     1
175
     1
176
     1
 42
1.0
176
     1
 92
        8
176
     1
 66
     7
176
     1
 43
1.0
176
     1
 76
     1
176
     1
 77
     6
176
     1
 78
     2
176
     1
 67
     7
176
     1
 79
     5
176
     1
170
     0
176
     1
171
     0
176
     1
290
     0
176
     1
 93
        1
176
     1
 44
0.0
176
     1
173
     0
176
     1
  0
VISUALSTYLE
  5
36
102
{ACAD_REACTORS
330
2A
102
}
102
{ACAD_XDICTIONARY
360
3AB
102
}
330
2A
100
AcDbVisualStyle
  2
Brighten
 70
    12
177
     2
291
     1
 71
     2
176
     1
 72
     2
176
     1
 73
     0
176
     1
 90
        0
176
     1
 40
0.6
176
     1
 41
30.0
176
     1
 62
     5
 63
     7
421
 16777215
176
     1
 74
     1
176
     1
 91
        4
176
     1
 64
     7
176
     1
 65
   257
176
     1
 75
     1
176
     1
175
     1
176
     1
 42
1.0
176
     1
 92
        8
176
     1
 66
     7
176
     1
 43
1.0
176
     1
 76
     1
176
     1
 77
     6
176
     1
 78
     2
176
     1
 67
     7
176
     1
 79
     5
176
     1
170
     0
176
     1
171
     0
176
     1
290
     0
176
     1
 93
        1
176
     1
 44
50.0
176
     1
173
     0
176
     1
  0
VISUALSTYLE
  5
3A
102
{ACAD_REACTORS
330
2A
102
}
102
{ACAD_XDICTIONARY
360
3B3
102
}
330
2A
100
AcDbVisualStyle
  2
ColorChange
 70
    16
177
     2
291
     1
 71
     2
176
     1
 72
     2
176
     1
 73
     3
176
     1
 90
        0
176
     1
 40
0.6
176
     1
 41
30.0
176
     1
 62
     5
 63
     8
421
  8421504
176
     1
 74
     1
176
     1
 91
        4
176
     1
 64
     7
176
     1
 65
   257
176
     1
 75
     1
176
     1
175
     1
176
     1
 42
1.0
176
     1
 92
        8
176
     1
 66
     8
424
  8421504
176
     1
 43
1.0
176
     1
 76
     1
176
     1
 77
     6
176
     1
 78
     2
176
     1
 67
     7
176
     1
 79
     5
176
     1
170
     0
176
     1
171
     0
176
     1
290
     0
176
     1
 93
        1
176
     1
 44
0.0
176
     1
173
     0
176
     1
  0
VISUALSTYLE
  5
34
102
{ACAD_REACTORS
330
2A
102
}
102
{ACAD_XDICTIONARY
360
3A7
102
}
330
2A
100
AcDbVisualStyle
  2
Conceptual
 70
     9
177
     2
291
     0
 71
     3
176
     1
 72
     2
176
     1
 73
     0
176
     1
 90
        0
176
     1
 40
0.6
176
     1
 41
30.0
176
     1
 62
     5
 63
     7
421
 16777215
176
     1
 74
     2
176
     1
 91
        2
176
     1
 64
     7
176
     1
 65
   257
176
     1
 75
     1
176
     1
175
     1
176
     1
 42
179.0
176
     1
 92
        8
176
     1
 66
     7
176
     1
 43
1.0
176
     1
 76
     1
176
     1
 77
     6
176
     1
 78
     2
176
     1
 67
     7
176
     1
 79
     3
176
     1
170
     0
176
     1
171
     0
176
     1
290
     0
176
     1
 93
        1
176
     1
 44
0.0
176
     1
173
     0
176
     1
  0
VISUALSTYLE
  5
35
102
{ACAD_REACTORS
330
2A
102
}
102
{ACAD_XDICTIONARY
360
3A9
102
}
330
2A
100
AcDbVisualStyle
  2
Dim
 70
    11
177
     2
291
     1
 71
     2
176
     1
 72
     2
176
     1
 73
     0
176
     1
 90
        0
176
     1
 40
0.6
176
     1
 41
30.0
176
     1
 62
     5
 63
     7
421
 16777215
176
     1
 74
     1
176
     1
 91
        4
176
     1
 64
     7
176
     1
 65
   257
176
     1
 75
     1
176
     1
175
     1
176
     1
 42
1.0
176
     1
 92
        8
176
     1
 66
     7
176
     1
 43
1.0
176
     1
 76
     1
176
     1
 77
     6
176
     1
 78
     2
176
     1
 67
     7
176
     1
 79
     5
176
     1
170
     0
176
     1
171
     0
176
     1
290
     0
176
     1
 93
        1
176
     1
 44
-50.0
176
     1
173
     0
176
     1
  0
VISUALSTYLE
  5
3D
102
{ACAD_REACTORS
330
2A
102
}
102
{ACAD_XDICTIONARY
360
3B9
102
}
330
2A
100
AcDbVisualStyle
  2
EdgeColorOff
 70
    22
177
     2
291
     1
 71
     2
176
     0
 72
     2
176
     0
 73
     0
176
     0
 90
        0
176
     0
 40
0.6
176
     0
 41
30.0
176
     0
 62
     5
 63
     7
421
 16777215
176
     0
 74
     1
176
     0
 91
        4
176
     0
 64
     7
176
     0
 65
   257
176
     0
 75
     1
176
     0
175
     1
176
     0
 42
1.0
176
     0
 92
        8
176
     2
 66
     7
176
     0
 43
1.0
176
     0
 76
     1
176
     0
 77
     6
176
     0
 78
     2
176
     0
 67
     7
176
     0
 79
     5
176
     0
170
     0
176
     0
171
     0
176
     0
290
     0
176
     0
 93
        1
176
     0
 44
0.0
176
     0
173
     0
176
     0
  0
VISUALSTYLE
  5
39
102
{ACAD_REACTORS
330
2A
102
}
102
{ACAD_XDICTIONARY
360
3B1
102
}
330
2A
100
AcDbVisualStyle
  2
Facepattern
 70
    15
177
     2
291
     1
 71
     2
176
     1
 72
     2
176
     1
 73
     0
176
     1
 90
        0
176
     1
 40
0.6
176
     1
 41
30.0
176
     1
 62
     5
 63
     7
421
 16777215
176
     1
 74
     1
176
     1
 91
        4
176
     1
 64
     7
176
     1
 65
   257
176
     1
 75
     1
176
     1
175
     1
176
     1
 42
1.0
176
     1
 92
        8
176
     1
 66
     7
176
     1
 43
1.0
176
     1
 76
     1
176
     1
 77
     6
176
     1
 78
     2
176
     1
 67
     7
176
     1
 79
     5
176
     1
170
     0
176
     1
171
     0
176
     1
290
     0
176
     1
 93
        1
176
     1
 44
0.0
176
     1
173
     0
176
     1
  0
VISUALSTYLE
  5
2B
102
{ACAD_REACTORS
330
2A
102
}
102
{ACAD_XDICTIONARY
360
395
102
}
330
2A
100
AcDbVisualStyle
  2
Flat
 70
     0
177
     2
291
     1
 71
     2
176
     1
 72
     1
176
     1
 73
     1
176
     1
 90
        2
176
     1
 40
0.6
176
     1
 41
30.0
176
     1
 62
     5
 63
     7
421
 16777215
176
     1
 74
     0
176
     1
 91
        0
176
     1
 64
     7
176
     1
 65
   257
176
     1
 75
     1
176
     1
175
     1
176
     1
 42
1.0
176
     1
 92
        8
176
     1
 66
     7
176
     1
 43
1.0
176
     1
 76
     1
176
     1
 77
     6
176
     1
 78
     2
176
     1
 67
     7
176
     1
 79
     5
176
     1
170
     0
176
     1
171
     0
176
     1
290
     0
176
     1
 93
       13
176
     1
 44
0.0
176
     1
173
     0
176
     1
  0
VISUALSTYLE
  5
2C
102
{ACAD_REACTORS
330
2A
102
}
102
{ACAD_XDICTIONARY
360
397
102
}
330
2A
100
AcDbVisualStyle
  2
FlatWithEdges
 70
     1
177
     2
291
     1
 71
     2
176
     1
 72
     1
176
     1
 73
     1
176
     1
 90
        2
176
     1
 40
0.6
176
     1
 41
30.0
176
     1
 62
     5
 63
     7
421
 16777215
176
     1
 74
     1
176
     1
 91
        0
176
     1
 64
     7
176
     1
 65
   257
176
     1
 75
     1
176
     1
175
     1
176
     1
 42
1.0
176
     1
 92
        0
176
     1
 66
   257
176
     1
 43
1.0
176
     1
 76
     1
176
     1
 77
     6
176
     1
 78
     2
176
     1
 67
     7
176
     1
 79
     5
176
     1
170
     0
176
     1
171
     0
176
     1
290
     0
176
     1
 93
       13
176
     1
 44
0.0
176
     1
173
     0
176
     1
  0
VISUALSTYLE
  5
2D
102
{ACAD_REACTORS
330
2A
102
}
102
{ACAD_XDICTIONARY
360
399
102
}
330
2A
100
AcDbVisualStyle
  2
Gouraud
 70
     2
177
     2
291
     1
 71
     2
176
     1
 72
     2
176
     1
 73
     1
176
     1
 90
        2
176
     1
 40
0.6
176
     1
 41
30.0
176
     1
 62
     5
 63
     7
421
 16777215
176
     1
 74
     0
176
     1
 91
        0
176
     1
 64
     7
176
     1
 65
   257
176
     1
 75
     1
176
     1
175
     1
176
     1
 42
1.0
176
     1
 92
        0
176
     1
 66
     7
176
     1
 43
1.0
176
     1
 76
     1
176
     1
 77
     6
176
     1
 78
     2
176
     1
 67
     7
176
     1
 79
     5
176
     1
170
     0
176
     1
171
     0
176
     1
290
     0
176
     1
 93
       13
176
     1
 44
0.0
176
     1
173
     0
176
     1
  0
VISUALSTYLE
  5
2E
102
{ACAD_REACTORS
330
2A
102
}
102
{ACAD_XDICTIONARY
360
39B
102
}
330
2A
100
AcDbVisualStyle
  2
GouraudWithEdges
 70
     3
177
     2
291
     1
 71
     2
176
     1
 72
     2
176
     1
 73
     1
176
     1
 90
        2
176
     1
 40
0.6
176
     1
 41
30.0
176
     1
 62
     5
 63
     7
421
 16777215
176
     1
 74
     1
176
     1
 91
        0
176
     1
 64
     7
176
     1
 65
   257
176
     1
 75
     1
176
     1
175
     1
176
     1
 42
1.0
176
     1
 92
        0
176
     1
 66
   257
176
     1
 43
1.0
176
     1
 76
     1
176
     1
 77
     6
176
     1
 78
     2
176
     1
 67
     7
176
     1
 79
     5
176
     1
170
     0
176
     1
171
     0
176
     1
290
     0
176
     1
 93
       13
176
     1
 44
0.0
176
     1
173
     0
176
     1
  0
VISUALSTYLE
  5
31
102
{ACAD_REACTORS
330
2A
102
}
102
{ACAD_XDICTIONARY
360
3A1
102
}
330
2A
100
AcDbVisualStyle
  2
Hidden
 70
     6
177
     2
291
     0
 71
     1
176
     1
 72
     2
176
     1
 73
     2
176
     1
 90
        0
176
     1
 40
0.6
176
     1
 41
30.0
176
     1
 62
     5
 63
     7
421
 16777215
176
     1
 74
     2
176
     1
 91
        2
176
     1
 64
     7
176
     1
 65
   257
176
     1
 75
     2
176
     1
175
     1
176
     1
 42
40.0
176
     1
 92
        0
176
     1
 66
   257
176
     1
 43
1.0
176
     1
 76
     1
176
     1
 77
     6
176
     1
 78
     2
176
     1
 67
     7
176
     1
 79
     3
176
     1
170
     0
176
     1
171
     0
176
     1
290
     0
176
     1
 93
        1
176
     1
 44
0.0
176
     1
173
     0
176
     1
  0
VISUALSTYLE
  5
3B
102
{ACAD_REACTORS
330
2A
102
}
102
{ACAD_XDICTIONARY
360
3B5
102
}
330
2A
100
AcDbVisualStyle
  2
JitterOff
 70
    20
177
     2
291
     1
 71
     2
176
     0
 72
     2
176
     0
 73
     0
176
     0
 90
        0
176
     0
 40
0.6
176
     0
 41
30.0
176
     0
 62
     5
 63
     7
421
 16777215
176
     0
 74
     1
176
     0
 91
        4
176
     0
 64
     7
176
     0
 65
   257
176
     0
 75
     1
176
     0
175
     1
176
     0
 42
1.0
176
     0
 92
       10
176
     2
 66
     7
176
     0
 43
1.0
176
     0
 76
     1
176
     0
 77
     6
176
     0
 78
     2
176
     0
 67
     7
176
     0
 79
     5
176
     0
170
     0
176
     0
171
     0
176
     0
290
     0
176
     0
 93
        1
176
     0
 44
0.0
176
     0
173
     0
176
     0
  0
VISUALSTYLE
  5
38
102
{ACAD_REACTORS
330
2A
102
}
102
{ACAD_XDICTIONARY
360
3AF
102
}
330
2A
100
AcDbVisualStyle
  2
Linepattern
 70
    14
177
     2
291
     1
 71
     2
176
     1
 72
     2
176
     1
 73
     0
176
     1
 90
        0
176
     1
 40
0.6
176
     1
 41
30.0
176
     1
 62
     5
 63
     7
421
 16777215
176
     1
 74
     1
176
     1
 91
        4
176
     1
 64
     7
176
     1
 65
   257
176
     1
 75
     7
176
     1
175
     7
176
     1
 42
1.0
176
     1
 92
        8
176
     1
 66
     7
176
     1
 43
1.0
176
     1
 76
     1
176
     1
 77
     6
176
     1
 78
     2
176
     1
 67
     7
176
     1
 79
     5
176
     1
170
     0
176
     1
171
     0
176
     1
290
     0
176
     1
 93
        1
176
     1
 44
0.0
176
     1
173
     0
176
     1
  0
VISUALSTYLE
  5
3C
102
{ACAD_REACTORS
330
2A
102
}
102
{ACAD_XDICTIONARY
360
3B7
102
}
330
2A
100
AcDbVisualStyle
  2
OverhangOff
 70
    21
177
     2
291
     1
 71
     2
176
     0
 72
     2
176
     0
 73
     0
176
     0
 90
        0
176
     0
 40
0.6
176
     0
 41
30.0
176
     0
 62
     5
 63
     7
421
 16777215
176
     0
 74
     1
176
     0
 91
        4
176
     0
 64
     7
176
     0
 65
   257
176
     0
 75
     1
176
     0
175
     1
176
     0
 42
1.0
176
     0
 92
        9
176
     2
 66
     7
176
     0
 43
1.0
176
     0
 76
     1
176
     0
 77
     6
176
     0
 78
     2
176
     0
 67
     7
176
     0
 79
     5
176
     0
170
     0
176
     0
171
     0
176
     0
290
     0
176
     0
 93
        1
176
     0
 44
0.0
176
     0
173
     0
176
     0
  0
VISUALSTYLE
  5
33
102
{ACAD_REACTORS
330
2A
102
}
102
{ACAD_XDICTIONARY
360
3A5
102
}
330
2A
100
AcDbVisualStyle
  2
Realistic
 70
     8
177
     2
291
     0
 71
     2
176
     1
 72
     3
176
     1
 73
     0
176
     1
 90
        2
176
     1
 40
0.6
176
     1
 41
30.0
176
     1
 62
     5
 63
     7
421
 16777215
176
     1
 74
     0
176
     1
 91
        0
176
     1
 64
     7
176
     1
 65
   257
176
     1
 75
     1
176
     1
175
     1
176
     1
 42
1.0
176
     1
 92
        8
176
     1
 66
   257
176
     1
 43
1.0
176
     1
 76
     1
176
     1
 77
     6
176
     1
 78
     2
176
     1
 67
     7
176
     1
 79
     3
176
     1
170
     0
176
     1
171
     0
176
     1
290
     0
176
     1
 93
       13
176
     1
 44
0.0
176
     1
173
     0
176
     1
  0
VISUALSTYLE
  5
42
102
{ACAD_REACTORS
330
2A
102
}
102
{ACAD_XDICTIONARY
360
3C3
102
}
330
2A
100
AcDbVisualStyle
  2
Shaded
 70
    27
177
     2
291
     0
 71
     2
176
     1
 72
     2
176
     1
 73
     1
176
     1
 90
        2
176
     1
 40
0.6
176
     1
 41
30.0
176
     1
 62
     5
 63
     7
421
 16777215
176
     1
 74
     0
176
     1
 91
        4
176
     1
 64
     7
176
     1
 65
   257
176
     1
 75
     1
176
     1
175
     1
176
     1
 42
1.0
176
     1
 92
        8
176
     1
 66
   257
176
     1
 43
1.0
176
     1
 76
     1
176
     1
 77
     6
176
     1
 78
     2
176
     1
 67
     8
425
  7895160
176
     1
 79
     3
176
     1
170
     0
176
     1
171
     0
176
     1
290
     0
176
     1
 93
        5
176
     1
 44
0.0
176
     1
173
     0
176
     1
  0
VISUALSTYLE
  5
41
102
{ACAD_REACTORS
330
2A
102
}
102
{ACAD_XDICTIONARY
360
3C1
102
}
330
2A
100
AcDbVisualStyle
  2
Shaded with edges
 70
    26
177
     2
291
     0
 71
     2
176
     1
 72
     2
176
     1
 73
     1
176
     1
 90
        2
176
     1
 40
0.6
176
     1
 41
30.0
176
     1
 62
     5
 63
     7
421
 16777215
176
     1
 74
     1
176
     1
 91
       10
176
     1
 64
     7
176
     1
 65
   257
176
     1
 75
     2
176
     1
175
     1
176
     1
 42
1.0
176
     1
 92
        8
176
     1
 66
   257
176
     1
 43
1.0
176
     1
 76
     1
176
     1
 77
     6
176
     1
 78
     2
176
     1
 67
     7
176
     1
 79
     3
176
     1
170
     0
176
     1
171
     0
176
     1
290
     0
176
     1
 93
        5
176
     1
 44
0.0
176
     1
173
     0
176
     1
  0
VISUALSTYLE
  5
3E
102
{ACAD_REACTORS
330
2A
102
}
102
{ACAD_XDICTIONARY
360
3BB
102
}
330
2A
100
AcDbVisualStyle
  2
Shades of Gray
 70
    23
177
     2
291
     0
 71
     2
176
     1
 72
     2
176
     1
 73
     3
176
     1
 90
        0
176
     1
 40
0.6
176
     1
 41
30.0
176
     1
 62
     5
 63
     7
421
 16777215
176
     1
 74
     2
176
     1
 91
        2
176
     1
 64
     7
176
     1
 65
     7
176
     1
 75
     1
176
     1
175
     1
176
     1
 42
40.0
176
     1
 92
        8
176
     1
 66
     7
176
     1
 43
1.0
176
     1
 76
     1
176
     1
 77
     6
176
     1
 78
     2
176
     1
 67
     7
176
     1
 79
     3
176
     1
170
     0
176
     1
171
     0
176
     1
290
     0
176
     1
 93
        1
176
     1
 44
0.0
176
     1
173
     0
176
     1
  0
VISUALSTYLE
  5
3F
102
{ACAD_REACTORS
330
2A
102
}
102
{ACAD_XDICTIONARY
360
3BD
102
}
330
2A
100
AcDbVisualStyle
  2
Sketchy
 70
    24
177
     2
291
     0
 71
     1
176
     1
 72
     2
176
     1
 73
     2
176
     1
 90
        0
176
     1
 40
0.6
176
     1
 41
30.0
176
     1
 62
     5
 63
     7
421
 16777215
176
     1
 74
     2
176
     1
 91
        2
176
     1
 64
     7
176
     1
 65
     7
176
     1
 75
     1
176
     1
175
     1
176
     1
 42
40.0
176
     1
 92
       11
176
     1
 66
     7
176
     1
 43
1.0
176
     1
 76
     1
176
     1
 77
     6
176
     1
 78
     2
176
     1
 67
     7
176
     1
 79
     6
176
     1
170
     0
176
     1
171
     0
176
     1
290
     0
176
     1
 93
        1
176
     1
 44
0.0
176
     1
173
     0
176
     1
  0
VISUALSTYLE
  5
37
102
{ACAD_REACTORS
330
2A
102
}
102
{ACAD_XDICTIONARY
360
3AD
102
}
330
2A
100
AcDbVisualStyle
  2
Thicken
 70
    13
177
     2
291
     1
 71
     2
176
     1
 72
     2
176
     1
 73
     0
176
     1
 90
        0
176
     1
 40
0.6
176
     1
 41
30.0
176
     1
 62
     5
 63
     7
421
 16777215
176
     1
 74
     1
176
     1
 91
        4
176
     1
 64
     7
176
     1
 65
   257
176
     1
 75
     1
176
     1
175
     1
176
     1
 42
1.0
176
     1
 92
       12
176
     1
 66
     7
176
     1
 43
1.0
176
     1
 76
     1
176
     1
 77
     6
176
     1
 78
     2
176
     1
 67
     7
176
     1
 79
     5
176
     1
170
     0
176
     1
171
     0
176
     1
290
     0
176
     1
 93
        1
176
     1
 44
0.0
176
     1
173
     0
176
     1
  0
VISUALSTYLE
  5
30
102
{ACAD_REACTORS
330
2A
102
}
102
{ACAD_XDICTIONARY
360
39F
102
}
330
2A
100
AcDbVisualStyle
  2
Wireframe
 70
     5
177
     2
291
     0
 71
     0
176
     1
 72
     2
176
     1
 73
     0
176
     1
 90
        0
176
     1
 40
0.6
176
     1
 41
30.0
176
     1
 62
     5
 63
     7
421
 16777215
176
     1
 74
     1
176
     1
 91
        4
176
     1
 64
     7
176
     1
 65
   257
176
     1
 75
     1
176
     1
175
     1
176
     1
 42
1.0
176
     1
 92
        0
176
     1
 66
   257
176
     1
 43
1.0
176
     1
 76
     1
176
     1
 77
     6
176
     1
 78
     2
176
     1
 67
     7
176
     1
 79
     3
176
     1
170
     0
176
     1
171
     0
176
     1
290
     0
176
     1
 93
        1
176
     1
 44
0.0
176
     1
173
     0
176
     1
  0
VISUALSTYLE
  5
40
102
{ACAD_REACTORS
330
2A
102
}
102
{ACAD_XDICTIONARY
360
3BF
102
}
330
2A
100
AcDbVisualStyle
  2
X-Ray
 70
    25
177
     2
291
     0
 71
     2
176
     1
 72
     2
176
     1
 73
     1
176
     1
 90
        1
176
     1
 40
0.5
176
     1
 41
30.0
176
     1
 62
     5
 63
     7
421
 16777215
176
     1
 74
     1
176
     1
 91
        0
176
     1
 64
     7
176
     1
 65
   257
176
     1
 75
     1
176
     1
175
     1
176
     1
 42
1.0
176
     1
 92
        8
176
     1
 66
     7
176
     1
 43
1.0
176
     1
 76
     1
176
     1
 77
     6
176
     1
 78
     2
176
     1
 67
     7
176
     1
 79
     3
176
     1
170
     0
176
     1
171
     0
176
     1
290
     0
176
     1
 93
       13
176
     1
 44
0.0
176
     1
173
     0
176
     1
  0
DICTIONARYVAR
  5
394
102
{ACAD_REACTORS
330
393
102
}
330
393
100
DictionaryVariables
280
     0
  1
1:1
  0
DICTIONARYVAR
  5
3C9
102
{ACAD_REACTORS
330
393
102
}
330
393
100
DictionaryVariables
280
     0
  1
Standard
  0
DICTIONARYVAR
  5
3C8
102
{ACAD_REACTORS
330
393
102
}
330
393
100
DictionaryVariables
280
     0
  1
Standard
  0
DICTIONARY
  5
3C5
330
6A
100
AcDbDictionary
280
     1
281
     1
  3
ACAD_ROUNDTRIP_2008_TABLESTYLE_CELLSTYLEMAP
360
3C6
  0
DICTIONARY
  5
39D
330
2F
100
AcDbDictionary
280
     1
281
     1
  3
ACAD_XREC_ROUNDTRIP
360
39E
  0
DICTIONARY
  5
3A3
330
32
100
AcDbDictionary
280
     1
281
     1
  3
ACAD_XREC_ROUNDTRIP
360
3A4
  0
DICTIONARY
  5
3AB
330
36
100
AcDbDictionary
280
     1
281
     1
  3
ACAD_XREC_ROUNDTRIP
360
3AC
  0
DICTIONARY
  5
3B3
330
3A
100
AcDbDictionary
280
     1
281
     1
  3
ACAD_XREC_ROUNDTRIP
360
3B4
  0
DICTIONARY
  5
3A7
330
34
100
AcDbDictionary
280
     1
281
     1
  3
ACAD_XREC_ROUNDTRIP
360
3A8
  0
DICTIONARY
  5
3A9
330
35
100
AcDbDictionary
280
     1
281
     1
  3
ACAD_XREC_ROUNDTRIP
360
3AA
  0
DICTIONARY
  5
3B9
330
3D
100
AcDbDictionary
280
     1
281
     1
  3
ACAD_XREC_ROUNDTRIP
360
3BA
  0
DICTIONARY
  5
3B1
330
39
100
AcDbDictionary
280
     1
281
     1
  3
ACAD_XREC_ROUNDTRIP
360
3B2
  0
DICTIONARY
  5
395
330
2B
100
AcDbDictionary
280
     1
281
     1
  3
ACAD_XREC_ROUNDTRIP
360
396
  0
DICTIONARY
  5
397
330
2C
100
AcDbDictionary
280
     1
281
     1
  3
ACAD_XREC_ROUNDTRIP
360
398
  0
DICTIONARY
  5
399
330
2D
100
AcDbDictionary
280
     1
281
     1
  3
ACAD_XREC_ROUNDTRIP
360
39A
  0
DICTIONARY
  5
39B
330
2E
100
AcDbDictionary
280
     1
281
     1
  3
ACAD_XREC_ROUNDTRIP
360
39C
  0
DICTIONARY
  5
3A1
330
31
100
AcDbDictionary
280
     1
281
     1
  3
ACAD_XREC_ROUNDTRIP
360
3A2
  0
DICTIONARY
  5
3B5
330
3B
100
AcDbDictionary
280
     1
281
     1
  3
ACAD_XREC_ROUNDTRIP
360
3B6
  0
DICTIONARY
  5
3AF
330
38
100
AcDbDictionary
280
     1
281
     1
  3
ACAD_XREC_ROUNDTRIP
360
3B0
  0
DICTIONARY
  5
3B7
330
3C
100
AcDbDictionary
280
     1
281
     1
  3
ACAD_XREC_ROUNDTRIP
360
3B8
  0
DICTIONARY
  5
3A5
330
33
100
AcDbDictionary
280
     1
281
     1
  3
ACAD_XREC_ROUNDTRIP
360
3A6
  0
DICTIONARY
  5
3C3
330
42
100
AcDbDictionary
280
     1
281
     1
  3
ACAD_XREC_ROUNDTRIP
360
3C4
  0
DICTIONARY
  5
3C1
330
41
100
AcDbDictionary
280
     1
281
     1
  3
ACAD_XREC_ROUNDTRIP
360
3C2
  0
DICTIONARY
  5
3BB
330
3E
100
AcDbDictionary
280
     1
281
     1
  3
ACAD_XREC_ROUNDTRIP
360
3BC
  0
DICTIONARY
  5
3BD
330
3F
100
AcDbDictionary
280
     1
281
     1
  3
ACAD_XREC_ROUNDTRIP
360
3BE
  0
DICTIONARY
  5
3AD
330
37
100
AcDbDictionary
280
     1
281
     1
  3
ACAD_XREC_ROUNDTRIP
360
3AE
  0
DICTIONARY
  5
39F
330
30
100
AcDbDictionary
280
     1
281
     1
  3
ACAD_XREC_ROUNDTRIP
360
3A0
  0
DICTIONARY
  5
3BF
330
40
100
AcDbDictionary
280
     1
281
     1
  3
ACAD_XREC_ROUNDTRIP
360
3C0
  0
CELLSTYLEMAP
  5
3C6
102
{ACAD_REACTORS
330
3C5
102
}
330
3C5
100
AcDbCellStyleMap
 90
        3
300
CELLSTYLE
  1
TABLEFORMAT_BEGIN
 90
        5
170
     1
 91
        0
 92
    32768
 62
   257
 93
        1
300
CONTENTFORMAT
  1
CONTENTFORMAT_BEGIN
 90
        0
 91
        0
 92
        4
 93
        0
300

 40
0.0
140
1.0
 94
        5
 62
     0
340
11
144
6.0
309
CONTENTFORMAT_END
171
     1
301
MARGIN
  1
CELLMARGIN_BEGIN
 40
1.5
 40
1.5
 40
1.5
 40
1.5
 40
1.5
 40
1.5
309
CELLMARGIN_END
 94
        6
 95
        1
302
GRIDFORMAT
  1
GRIDFORMAT_BEGIN
 90
        0
 91
        1
 62
     0
 92
       -2
340
14
 93
        0
 40
0.045
309
GRIDFORMAT_END
 95
        2
302
GRIDFORMAT
  1
GRIDFORMAT_BEGIN
 90
        0
 91
        1
 62
     0
 92
       -2
340
14
 93
        0
 40
0.045
309
GRIDFORMAT_END
 95
        4
302
GRIDFORMAT
  1
GRIDFORMAT_BEGIN
 90
        0
 91
        1
 62
     0
 92
       -2
340
14
 93
        0
 40
0.045
309
GRIDFORMAT_END
 95
        8
302
GRIDFORMAT
  1
GRIDFORMAT_BEGIN
 90
        0
 91
        1
 62
     0
 92
       -2
340
14
 93
        0
 40
0.045
309
GRIDFORMAT_END
 95
       16
302
GRIDFORMAT
  1
GRIDFORMAT_BEGIN
 90
        0
 91
        1
 62
     0
 92
       -2
340
14
 93
        0
 40
0.045
309
GRIDFORMAT_END
 95
       32
302
GRIDFORMAT
  1
GRIDFORMAT_BEGIN
 90
        0
 91
        1
 62
     0
 92
       -2
340
14
 93
        0
 40
0.045
309
GRIDFORMAT_END
309
TABLEFORMAT_END
  1
CELLSTYLE_BEGIN
 90
        1
 91
        1
300
_TITLE
309
CELLSTYLE_END
300
CELLSTYLE
  1
TABLEFORMAT_BEGIN
 90
        5
170
     1
 91
        0
 92
        0
 62
   257
 93
        1
300
CONTENTFORMAT
  1
CONTENTFORMAT_BEGIN
 90
        0
 91
        0
 92
        4
 93
        0
300

 40
0.0
140
1.0
 94
        5
 62
     0
340
11
144
4.5
309
CONTENTFORMAT_END
171
     1
301
MARGIN
  1
CELLMARGIN_BEGIN
 40
1.5
 40
1.5
 40
1.5
 40
1.5
 40
1.5
 40
1.5
309
CELLMARGIN_END
 94
        6
 95
        1
302
GRIDFORMAT
  1
GRIDFORMAT_BEGIN
 90
        0
 91
        1
 62
     0
 92
       -2
340
14
 93
        0
 40
0.045
309
GRIDFORMAT_END
 95
        2
302
GRIDFORMAT
  1
GRIDFORMAT_BEGIN
 90
        0
 91
        1
 62
     0
 92
       -2
340
14
 93
        0
 40
0.045
309
GRIDFORMAT_END
 95
        4
302
GRIDFORMAT
  1
GRIDFORMAT_BEGIN
 90
        0
 91
        1
 62
     0
 92
       -2
340
14
 93
        0
 40
0.045
309
GRIDFORMAT_END
 95
        8
302
GRIDFORMAT
  1
GRIDFORMAT_BEGIN
 90
        0
 91
        1
 62
     0
 92
       -2
340
14
 93
        0
 40
0.045
309
GRIDFORMAT_END
 95
       16
302
GRIDFORMAT
  1
GRIDFORMAT_BEGIN
 90
        0
 91
        1
 62
     0
 92
       -2
340
14
 93
        0
 40
0.045
309
GRIDFORMAT_END
 95
       32
302
GRIDFORMAT
  1
GRIDFORMAT_BEGIN
 90
        0
 91
        1
 62
     0
 92
       -2
340
14
 93
        0
 40
0.045
309
GRIDFORMAT_END
309
TABLEFORMAT_END
  1
CELLSTYLE_BEGIN
 90
        2
 91
        1
300
_HEADER
309
CELLSTYLE_END
300
CELLSTYLE
  1
TABLEFORMAT_BEGIN
 90
        5
170
     1
 91
        0
 92
        0
 62
   257
 93
        1
300
CONTENTFORMAT
  1
CONTENTFORMAT_BEGIN
 90
        0
 91
        0
 92
        4
 93
        0
300

 40
0.0
140
1.0
 94
        2
 62
     0
340
11
144
4.5
309
CONTENTFORMAT_END
171
     1
301
MARGIN
  1
CELLMARGIN_BEGIN
 40
1.5
 40
1.5
 40
1.5
 40
1.5
 40
1.5
 40
1.5
309
CELLMARGIN_END
 94
        6
 95
        1
302
GRIDFORMAT
  1
GRIDFORMAT_BEGIN
 90
        0
 91
        1
 62
     0
 92
       -2
340
14
 93
        0
 40
0.045
309
GRIDFORMAT_END
 95
        2
302
GRIDFORMAT
  1
GRIDFORMAT_BEGIN
 90
        0
 91
        1
 62
     0
 92
       -2
340
14
 93
        0
 40
0.045
309
GRIDFORMAT_END
 95
        4
302
GRIDFORMAT
  1
GRIDFORMAT_BEGIN
 90
        0
 91
        1
 62
     0
 92
       -2
340
14
 93
        0
 40
0.045
309
GRIDFORMAT_END
 95
        8
302
GRIDFORMAT
  1
GRIDFORMAT_BEGIN
 90
        0
 91
        1
 62
     0
 92
       -2
340
14
 93
        0
 40
0.045
309
GRIDFORMAT_END
 95
       16
302
GRIDFORMAT
  1
GRIDFORMAT_BEGIN
 90
        0
 91
        1
 62
     0
 92
       -2
340
14
 93
        0
 40
0.045
309
GRIDFORMAT_END
 95
       32
302
GRIDFORMAT
  1
GRIDFORMAT_BEGIN
 90
        0
 91
        1
 62
     0
 92
       -2
340
14
 93
        0
 40
0.045
309
GRIDFORMAT_END
309
TABLEFORMAT_END
  1
CELLSTYLE_BEGIN
 90
        3
 91
        2
300
_DATA
309
CELLSTYLE_END
  0
XRECORD
  5
39E
102
{ACAD_REACTORS
330
39D
102
}
330
39D
100
AcDbXrecord
280
     1
102
RTVSPost2010Prop28
280
     1
102
RTVSPost2010PropOp28
 70
     1
102
RTVSPost2010Prop29
280
     1
102
RTVSPost2010PropOp29
 70
     1
102
RTVSPost2010Prop30
280
     0
102
RTVSPost2010PropOp30
 70
     1
102
RTVSPost2010Prop31
280
     0
102
RTVSPost2010PropOp31
 70
     1
102
RTVSPost2010Prop32
280
     0
102
RTVSPost2010PropOp32
 70
     1
102
RTVSPost2010Prop33
280
     0
102
RTVSPost2010PropOp33
 70
     1
102
RTVSPost2010Prop34
280
     0
102
RTVSPost2010PropOp34
 70
     1
102
RTVSPost2010Prop35
280
     0
102
RTVSPost2010PropOp35
 70
     1
102
RTVSPost2010Prop36
280
     0
102
RTVSPost2010PropOp36
 70
     1
102
RTVSPost2010Prop37
 90
       50
102
RTVSPost2010PropOp37
 70
     1
102
RTVSPost2010Prop38
140
0.0
102
RTVSPost2010PropOp38
 70
     1
102
RTVSPost2010Prop39
140
1.0
102
RTVSPost2010PropOp39
 70
     1
102
RTVSPost2010Prop40
 90
        0
102
RTVSPost2010PropOp40
 70
     1
102
RTVSPost2010Prop41ColorIndex
 90
       18
102
RTVSPost2010Prop41ColorRGB
 90
        0
102
RTVSPost2010PropOp41
 70
     1
102
RTVSPost2010Prop42
 90
       50
102
RTVSPost2010PropOp42
 70
     1
102
RTVSPost2010Prop43
 90
        3
102
RTVSPost2010PropOp43
 70
     1
102
RTVSPost2010Prop44ColorIndex
 90
        5
102
RTVSPost2010Prop44ColorRGB
 90
      255
102
RTVSPost2010PropOp44
 70
     1
102
RTVSPost2010Prop45
280
     0
102
RTVSPost2010PropOp45
 70
     1
102
RTVSPost2010Prop46
 90
       50
102
RTVSPost2010PropOp46
 70
     1
102
RTVSPost2010Prop47
 90
       50
102
RTVSPost2010PropOp47
 70
     1
102
RTVSPost2010Prop48
 90
       50
102
RTVSPost2010PropOp48
 70
     1
102
RTVSPost2010Prop49
280
     0
102
RTVSPost2010PropOp49
 70
     1
102
RTVSPost2010Prop50
 90
       50
102
RTVSPost2010PropOp50
 70
     1
102
RTVSPost2010Prop51ColorIndex
 90
      256
102
RTVSPost2010Prop51ColorRGB
 90
-16777216
102
RTVSPost2010PropOp51
 70
     0
102
RTVSPost2010Prop52
140
1.0
102
RTVSPost2010PropOp52
 70
     0
102
RTVSPost2010Prop53
 90
        2
102
RTVSPost2010PropOp53
 70
     1
102
RTVSPost2010Prop54
  1
strokes_ogs.tif
102
RTVSPost2010PropOp54
 70
     1
102
RTVSPost2010Prop55
280
     0
102
RTVSPost2010PropOp55
 70
     1
102
RTVSPost2010Prop56
140
1.0
102
RTVSPost2010PropOp56
 70
     1
102
RTVSPost2010Prop57
140
1.0
102
RTVSPost2010PropOp57
 70
     1
  0
XRECORD
  5
3A4
102
{ACAD_REACTORS
330
3A3
102
}
330
3A3
100
AcDbXrecord
280
     1
102
RTVSPost2010Prop28
280
     0
102
RTVSPost2010PropOp28
 70
     1
102
RTVSPost2010Prop29
280
     1
102
RTVSPost2010PropOp29
 70
     1
102
RTVSPost2010Prop30
280
     1
102
RTVSPost2010PropOp30
 70
     1
102
RTVSPost2010Prop31
280
     0
102
RTVSPost2010PropOp31
 70
     1
102
RTVSPost2010Prop32
280
     0
102
RTVSPost2010PropOp32
 70
     1
102
RTVSPost2010Prop33
280
     0
102
RTVSPost2010PropOp33
 70
     1
102
RTVSPost2010Prop34
280
     0
102
RTVSPost2010PropOp34
 70
     1
102
RTVSPost2010Prop35
280
     0
102
RTVSPost2010PropOp35
 70
     1
102
RTVSPost2010Prop36
280
     0
102
RTVSPost2010PropOp36
 70
     1
102
RTVSPost2010Prop37
 90
       50
102
RTVSPost2010PropOp37
 70
     1
102
RTVSPost2010Prop38
140
0.0
102
RTVSPost2010PropOp38
 70
     1
102
RTVSPost2010Prop39
140
1.0
102
RTVSPost2010PropOp39
 70
     1
102
RTVSPost2010Prop40
 90
        0
102
RTVSPost2010PropOp40
 70
     1
102
RTVSPost2010Prop41ColorIndex
 90
       18
102
RTVSPost2010Prop41ColorRGB
 90
        0
102
RTVSPost2010PropOp41
 70
     1
102
RTVSPost2010Prop42
 90
       50
102
RTVSPost2010PropOp42
 70
     1
102
RTVSPost2010Prop43
 90
        3
102
RTVSPost2010PropOp43
 70
     1
102
RTVSPost2010Prop44ColorIndex
 90
        5
102
RTVSPost2010Prop44ColorRGB
 90
      255
102
RTVSPost2010PropOp44
 70
     1
102
RTVSPost2010Prop45
280
     0
102
RTVSPost2010PropOp45
 70
     1
102
RTVSPost2010Prop46
 90
       50
102
RTVSPost2010PropOp46
 70
     1
102
RTVSPost2010Prop47
 90
       50
102
RTVSPost2010PropOp47
 70
     1
102
RTVSPost2010Prop48
 90
       50
102
RTVSPost2010PropOp48
 70
     1
102
RTVSPost2010Prop49
280
     0
102
RTVSPost2010PropOp49
 70
     1
102
RTVSPost2010Prop50
 90
       50
102
RTVSPost2010PropOp50
 70
     1
102
RTVSPost2010Prop51ColorIndex
 90
      256
102
RTVSPost2010Prop51ColorRGB
 90
-16777216
102
RTVSPost2010PropOp51
 70
     0
102
RTVSPost2010Prop52
140
1.0
102
RTVSPost2010PropOp52
 70
     0
102
RTVSPost2010Prop53
 90
        2
102
RTVSPost2010PropOp53
 70
     1
102
RTVSPost2010Prop54
  1
strokes_ogs.tif
102
RTVSPost2010PropOp54
 70
     1
102
RTVSPost2010Prop55
280
     0
102
RTVSPost2010PropOp55
 70
     1
102
RTVSPost2010Prop56
140
1.0
102
RTVSPost2010PropOp56
 70
     1
102
RTVSPost2010Prop57
140
1.0
102
RTVSPost2010PropOp57
 70
     1
  0
XRECORD
  5
3AC
102
{ACAD_REACTORS
330
3AB
102
}
330
3AB
100
AcDbXrecord
280
     1
102
RTVSPost2010Prop28
280
     0
102
RTVSPost2010PropOp28
 70
     1
102
RTVSPost2010Prop29
280
     1
102
RTVSPost2010PropOp29
 70
     1
102
RTVSPost2010Prop30
280
     1
102
RTVSPost2010PropOp30
 70
     1
102
RTVSPost2010Prop31
280
     0
102
RTVSPost2010PropOp31
 70
     1
102
RTVSPost2010Prop32
280
     0
102
RTVSPost2010PropOp32
 70
     1
102
RTVSPost2010Prop33
280
     0
102
RTVSPost2010PropOp33
 70
     1
102
RTVSPost2010Prop34
280
     0
102
RTVSPost2010PropOp34
 70
     1
102
RTVSPost2010Prop35
280
     0
102
RTVSPost2010PropOp35
 70
     1
102
RTVSPost2010Prop36
280
     0
102
RTVSPost2010PropOp36
 70
     1
102
RTVSPost2010Prop37
 90
       50
102
RTVSPost2010PropOp37
 70
     1
102
RTVSPost2010Prop38
140
0.0
102
RTVSPost2010PropOp38
 70
     1
102
RTVSPost2010Prop39
140
1.0
102
RTVSPost2010PropOp39
 70
     1
102
RTVSPost2010Prop40
 90
        0
102
RTVSPost2010PropOp40
 70
     1
102
RTVSPost2010Prop41ColorIndex
 90
       18
102
RTVSPost2010Prop41ColorRGB
 90
        0
102
RTVSPost2010PropOp41
 70
     1
102
RTVSPost2010Prop42
 90
       50
102
RTVSPost2010PropOp42
 70
     1
102
RTVSPost2010Prop43
 90
        3
102
RTVSPost2010PropOp43
 70
     1
102
RTVSPost2010Prop44ColorIndex
 90
        5
102
RTVSPost2010Prop44ColorRGB
 90
      255
102
RTVSPost2010PropOp44
 70
     1
102
RTVSPost2010Prop45
280
     0
102
RTVSPost2010PropOp45
 70
     1
102
RTVSPost2010Prop46
 90
       50
102
RTVSPost2010PropOp46
 70
     1
102
RTVSPost2010Prop47
 90
       50
102
RTVSPost2010PropOp47
 70
     1
102
RTVSPost2010Prop48
 90
       50
102
RTVSPost2010PropOp48
 70
     1
102
RTVSPost2010Prop49
280
     0
102
RTVSPost2010PropOp49
 70
     1
102
RTVSPost2010Prop50
 90
       50
102
RTVSPost2010PropOp50
 70
     1
102
RTVSPost2010Prop51ColorIndex
 90
      256
102
RTVSPost2010Prop51ColorRGB
 90
-16777216
102
RTVSPost2010PropOp51
 70
     0
102
RTVSPost2010Prop52
140
1.0
102
RTVSPost2010PropOp52
 70
     0
102
RTVSPost2010Prop53
 90
        2
102
RTVSPost2010PropOp53
 70
     1
102
RTVSPost2010Prop54
  1
strokes_ogs.tif
102
RTVSPost2010PropOp54
 70
     1
102
RTVSPost2010Prop55
280
     0
102
RTVSPost2010PropOp55
 70
     1
102
RTVSPost2010Prop56
140
1.0
102
RTVSPost2010PropOp56
 70
     1
102
RTVSPost2010Prop57
140
1.0
102
RTVSPost2010PropOp57
 70
     1
  0
XRECORD
  5
3B4
102
{ACAD_REACTORS
330
3B3
102
}
330
3B3
100
AcDbXrecord
280
     1
102
RTVSPost2010Prop28
280
     0
102
RTVSPost2010PropOp28
 70
     1
102
RTVSPost2010Prop29
280
     1
102
RTVSPost2010PropOp29
 70
     1
102
RTVSPost2010Prop30
280
     1
102
RTVSPost2010PropOp30
 70
     1
102
RTVSPost2010Prop31
280
     0
102
RTVSPost2010PropOp31
 70
     1
102
RTVSPost2010Prop32
280
     0
102
RTVSPost2010PropOp32
 70
     1
102
RTVSPost2010Prop33
280
     0
102
RTVSPost2010PropOp33
 70
     1
102
RTVSPost2010Prop34
280
     0
102
RTVSPost2010PropOp34
 70
     1
102
RTVSPost2010Prop35
280
     0
102
RTVSPost2010PropOp35
 70
     1
102
RTVSPost2010Prop36
280
     0
102
RTVSPost2010PropOp36
 70
     1
102
RTVSPost2010Prop37
 90
       50
102
RTVSPost2010PropOp37
 70
     1
102
RTVSPost2010Prop38
140
0.0
102
RTVSPost2010PropOp38
 70
     1
102
RTVSPost2010Prop39
140
1.0
102
RTVSPost2010PropOp39
 70
     1
102
RTVSPost2010Prop40
 90
        0
102
RTVSPost2010PropOp40
 70
     1
102
RTVSPost2010Prop41ColorIndex
 90
       18
102
RTVSPost2010Prop41ColorRGB
 90
        0
102
RTVSPost2010PropOp41
 70
     1
102
RTVSPost2010Prop42
 90
       50
102
RTVSPost2010PropOp42
 70
     1
102
RTVSPost2010Prop43
 90
        3
102
RTVSPost2010PropOp43
 70
     1
102
RTVSPost2010Prop44ColorIndex
 90
        5
102
RTVSPost2010Prop44ColorRGB
 90
      255
102
RTVSPost2010PropOp44
 70
     1
102
RTVSPost2010Prop45
280
     0
102
RTVSPost2010PropOp45
 70
     1
102
RTVSPost2010Prop46
 90
       50
102
RTVSPost2010PropOp46
 70
     1
102
RTVSPost2010Prop47
 90
       50
102
RTVSPost2010PropOp47
 70
     1
102
RTVSPost2010Prop48
 90
       50
102
RTVSPost2010PropOp48
 70
     1
102
RTVSPost2010Prop49
280
     0
102
RTVSPost2010PropOp49
 70
     1
102
RTVSPost2010Prop50
 90
       50
102
RTVSPost2010PropOp50
 70
     1
102
RTVSPost2010Prop51ColorIndex
 90
      256
102
RTVSPost2010Prop51ColorRGB
 90
-16777216
102
RTVSPost2010PropOp51
 70
     0
102
RTVSPost2010Prop52
140
1.0
102
RTVSPost2010PropOp52
 70
     0
102
RTVSPost2010Prop53
 90
        2
102
RTVSPost2010PropOp53
 70
     1
102
RTVSPost2010Prop54
  1
strokes_ogs.tif
102
RTVSPost2010PropOp54
 70
     1
102
RTVSPost2010Prop55
280
     0
102
RTVSPost2010PropOp55
 70
     1
102
RTVSPost2010Prop56
140
1.0
102
RTVSPost2010PropOp56
 70
     1
102
RTVSPost2010Prop57
140
1.0
102
RTVSPost2010PropOp57
 70
     1
  0
XRECORD
  5
3A8
102
{ACAD_REACTORS
330
3A7
102
}
330
3A7
100
AcDbXrecord
280
     1
102
RTVSPost2010Prop28
280
     0
102
RTVSPost2010PropOp28
 70
     1
102
RTVSPost2010Prop29
280
     1
102
RTVSPost2010PropOp29
 70
     1
102
RTVSPost2010Prop30
280
     1
102
RTVSPost2010PropOp30
 70
     1
102
RTVSPost2010Prop31
280
     0
102
RTVSPost2010PropOp31
 70
     1
102
RTVSPost2010Prop32
280
     0
102
RTVSPost2010PropOp32
 70
     1
102
RTVSPost2010Prop33
280
     0
102
RTVSPost2010PropOp33
 70
     1
102
RTVSPost2010Prop34
280
     0
102
RTVSPost2010PropOp34
 70
     1
102
RTVSPost2010Prop35
280
     0
102
RTVSPost2010PropOp35
 70
     1
102
RTVSPost2010Prop36
280
     0
102
RTVSPost2010PropOp36
 70
     1
102
RTVSPost2010Prop37
 90
       50
102
RTVSPost2010PropOp37
 70
     1
102
RTVSPost2010Prop38
140
0.0
102
RTVSPost2010PropOp38
 70
     1
102
RTVSPost2010Prop39
140
1.0
102
RTVSPost2010PropOp39
 70
     1
102
RTVSPost2010Prop40
 90
        0
102
RTVSPost2010PropOp40
 70
     1
102
RTVSPost2010Prop41ColorIndex
 90
       18
102
RTVSPost2010Prop41ColorRGB
 90
        0
102
RTVSPost2010PropOp41
 70
     1
102
RTVSPost2010Prop42
 90
       50
102
RTVSPost2010PropOp42
 70
     1
102
RTVSPost2010Prop43
 90
        3
102
RTVSPost2010PropOp43
 70
     1
102
RTVSPost2010Prop44ColorIndex
 90
        5
102
RTVSPost2010Prop44ColorRGB
 90
      255
102
RTVSPost2010PropOp44
 70
     1
102
RTVSPost2010Prop45
280
     0
102
RTVSPost2010PropOp45
 70
     1
102
RTVSPost2010Prop46
 90
       50
102
RTVSPost2010PropOp46
 70
     1
102
RTVSPost2010Prop47
 90
       50
102
RTVSPost2010PropOp47
 70
     1
102
RTVSPost2010Prop48
 90
       50
102
RTVSPost2010PropOp48
 70
     1
102
RTVSPost2010Prop49
280
     0
102
RTVSPost2010PropOp49
 70
     1
102
RTVSPost2010Prop50
 90
       50
102
RTVSPost2010PropOp50
 70
     1
102
RTVSPost2010Prop51ColorIndex
 90
      256
102
RTVSPost2010Prop51ColorRGB
 90
-16777216
102
RTVSPost2010PropOp51
 70
     0
102
RTVSPost2010Prop52
140
1.0
102
RTVSPost2010PropOp52
 70
     0
102
RTVSPost2010Prop53
 90
        2
102
RTVSPost2010PropOp53
 70
     1
102
RTVSPost2010Prop54
  1
strokes_ogs.tif
102
RTVSPost2010PropOp54
 70
     1
102
RTVSPost2010Prop55
280
     0
102
RTVSPost2010PropOp55
 70
     1
102
RTVSPost2010Prop56
140
1.0
102
RTVSPost2010PropOp56
 70
     1
102
RTVSPost2010Prop57
140
1.0
102
RTVSPost2010PropOp57
 70
     1
  0
XRECORD
  5
3AA
102
{ACAD_REACTORS
330
3A9
102
}
330
3A9
100
AcDbXrecord
280
     1
102
RTVSPost2010Prop28
280
     0
102
RTVSPost2010PropOp28
 70
     1
102
RTVSPost2010Prop29
280
     1
102
RTVSPost2010PropOp29
 70
     1
102
RTVSPost2010Prop30
280
     1
102
RTVSPost2010PropOp30
 70
     1
102
RTVSPost2010Prop31
280
     0
102
RTVSPost2010PropOp31
 70
     1
102
RTVSPost2010Prop32
280
     0
102
RTVSPost2010PropOp32
 70
     1
102
RTVSPost2010Prop33
280
     0
102
RTVSPost2010PropOp33
 70
     1
102
RTVSPost2010Prop34
280
     0
102
RTVSPost2010PropOp34
 70
     1
102
RTVSPost2010Prop35
280
     0
102
RTVSPost2010PropOp35
 70
     1
102
RTVSPost2010Prop36
280
     0
102
RTVSPost2010PropOp36
 70
     1
102
RTVSPost2010Prop37
 90
       50
102
RTVSPost2010PropOp37
 70
     1
102
RTVSPost2010Prop38
140
0.0
102
RTVSPost2010PropOp38
 70
     1
102
RTVSPost2010Prop39
140
1.0
102
RTVSPost2010PropOp39
 70
     1
102
RTVSPost2010Prop40
 90
        0
102
RTVSPost2010PropOp40
 70
     1
102
RTVSPost2010Prop41ColorIndex
 90
       18
102
RTVSPost2010Prop41ColorRGB
 90
        0
102
RTVSPost2010PropOp41
 70
     1
102
RTVSPost2010Prop42
 90
       50
102
RTVSPost2010PropOp42
 70
     1
102
RTVSPost2010Prop43
 90
        3
102
RTVSPost2010PropOp43
 70
     1
102
RTVSPost2010Prop44ColorIndex
 90
        5
102
RTVSPost2010Prop44ColorRGB
 90
      255
102
RTVSPost2010PropOp44
 70
     1
102
RTVSPost2010Prop45
280
     0
102
RTVSPost2010PropOp45
 70
     1
102
RTVSPost2010Prop46
 90
       50
102
RTVSPost2010PropOp46
 70
     1
102
RTVSPost2010Prop47
 90
       50
102
RTVSPost2010PropOp47
 70
     1
102
RTVSPost2010Prop48
 90
       50
102
RTVSPost2010PropOp48
 70
     1
102
RTVSPost2010Prop49
280
     0
102
RTVSPost2010PropOp49
 70
     1
102
RTVSPost2010Prop50
 90
       50
102
RTVSPost2010PropOp50
 70
     1
102
RTVSPost2010Prop51ColorIndex
 90
      256
102
RTVSPost2010Prop51ColorRGB
 90
-16777216
102
RTVSPost2010PropOp51
 70
     0
102
RTVSPost2010Prop52
140
1.0
102
RTVSPost2010PropOp52
 70
     0
102
RTVSPost2010Prop53
 90
        2
102
RTVSPost2010PropOp53
 70
     1
102
RTVSPost2010Prop54
  1
strokes_ogs.tif
102
RTVSPost2010PropOp54
 70
     1
102
RTVSPost2010Prop55
280
     0
102
RTVSPost2010PropOp55
 70
     1
102
RTVSPost2010Prop56
140
1.0
102
RTVSPost2010PropOp56
 70
     1
102
RTVSPost2010Prop57
140
1.0
102
RTVSPost2010PropOp57
 70
     1
  0
XRECORD
  5
3BA
102
{ACAD_REACTORS
330
3B9
102
}
330
3B9
100
AcDbXrecord
280
     1
102
RTVSPost2010Prop28
280
     0
102
RTVSPost2010PropOp28
 70
     0
102
RTVSPost2010Prop29
280
     1
102
RTVSPost2010PropOp29
 70
     0
102
RTVSPost2010Prop30
280
     1
102
RTVSPost2010PropOp30
 70
     0
102
RTVSPost2010Prop31
280
     0
102
RTVSPost2010PropOp31
 70
     0
102
RTVSPost2010Prop32
280
     0
102
RTVSPost2010PropOp32
 70
     0
102
RTVSPost2010Prop33
280
     0
102
RTVSPost2010PropOp33
 70
     0
102
RTVSPost2010Prop34
280
     0
102
RTVSPost2010PropOp34
 70
     0
102
RTVSPost2010Prop35
280
     0
102
RTVSPost2010PropOp35
 70
     0
102
RTVSPost2010Prop36
280
     0
102
RTVSPost2010PropOp36
 70
     0
102
RTVSPost2010Prop37
 90
       50
102
RTVSPost2010PropOp37
 70
     0
102
RTVSPost2010Prop38
140
0.0
102
RTVSPost2010PropOp38
 70
     0
102
RTVSPost2010Prop39
140
1.0
102
RTVSPost2010PropOp39
 70
     0
102
RTVSPost2010Prop40
 90
        0
102
RTVSPost2010PropOp40
 70
     0
102
RTVSPost2010Prop41ColorIndex
 90
       18
102
RTVSPost2010Prop41ColorRGB
 90
        0
102
RTVSPost2010PropOp41
 70
     0
102
RTVSPost2010Prop42
 90
       50
102
RTVSPost2010PropOp42
 70
     0
102
RTVSPost2010Prop43
 90
        3
102
RTVSPost2010PropOp43
 70
     0
102
RTVSPost2010Prop44ColorIndex
 90
        5
102
RTVSPost2010Prop44ColorRGB
 90
      255
102
RTVSPost2010PropOp44
 70
     0
102
RTVSPost2010Prop45
280
     0
102
RTVSPost2010PropOp45
 70
     0
102
RTVSPost2010Prop46
 90
       50
102
RTVSPost2010PropOp46
 70
     0
102
RTVSPost2010Prop47
 90
       50
102
RTVSPost2010PropOp47
 70
     0
102
RTVSPost2010Prop48
 90
       50
102
RTVSPost2010PropOp48
 70
     0
102
RTVSPost2010Prop49
280
     0
102
RTVSPost2010PropOp49
 70
     0
102
RTVSPost2010Prop50
 90
       50
102
RTVSPost2010PropOp50
 70
     0
102
RTVSPost2010Prop51ColorIndex
 90
      256
102
RTVSPost2010Prop51ColorRGB
 90
-16777216
102
RTVSPost2010PropOp51
 70
     0
102
RTVSPost2010Prop52
140
1.0
102
RTVSPost2010PropOp52
 70
     0
102
RTVSPost2010Prop53
 90
        2
102
RTVSPost2010PropOp53
 70
     0
102
RTVSPost2010Prop54
  1
strokes_ogs.tif
102
RTVSPost2010PropOp54
 70
     0
102
RTVSPost2010Prop55
280
     0
102
RTVSPost2010PropOp55
 70
     0
102
RTVSPost2010Prop56
140
1.0
102
RTVSPost2010PropOp56
 70
     0
102
RTVSPost2010Prop57
140
1.0
102
RTVSPost2010PropOp57
 70
     0
  0
XRECORD
  5
3B2
102
{ACAD_REACTORS
330
3B1
102
}
330
3B1
100
AcDbXrecord
280
     1
102
RTVSPost2010Prop28
280
     0
102
RTVSPost2010PropOp28
 70
     1
102
RTVSPost2010Prop29
280
     1
102
RTVSPost2010PropOp29
 70
     1
102
RTVSPost2010Prop30
280
     1
102
RTVSPost2010PropOp30
 70
     1
102
RTVSPost2010Prop31
280
     0
102
RTVSPost2010PropOp31
 70
     1
102
RTVSPost2010Prop32
280
     0
102
RTVSPost2010PropOp32
 70
     1
102
RTVSPost2010Prop33
280
     0
102
RTVSPost2010PropOp33
 70
     1
102
RTVSPost2010Prop34
280
     0
102
RTVSPost2010PropOp34
 70
     1
102
RTVSPost2010Prop35
280
     0
102
RTVSPost2010PropOp35
 70
     1
102
RTVSPost2010Prop36
280
     0
102
RTVSPost2010PropOp36
 70
     1
102
RTVSPost2010Prop37
 90
       50
102
RTVSPost2010PropOp37
 70
     1
102
RTVSPost2010Prop38
140
0.0
102
RTVSPost2010PropOp38
 70
     1
102
RTVSPost2010Prop39
140
1.0
102
RTVSPost2010PropOp39
 70
     1
102
RTVSPost2010Prop40
 90
        0
102
RTVSPost2010PropOp40
 70
     1
102
RTVSPost2010Prop41ColorIndex
 90
       18
102
RTVSPost2010Prop41ColorRGB
 90
        0
102
RTVSPost2010PropOp41
 70
     1
102
RTVSPost2010Prop42
 90
       50
102
RTVSPost2010PropOp42
 70
     1
102
RTVSPost2010Prop43
 90
        3
102
RTVSPost2010PropOp43
 70
     1
102
RTVSPost2010Prop44ColorIndex
 90
        5
102
RTVSPost2010Prop44ColorRGB
 90
      255
102
RTVSPost2010PropOp44
 70
     1
102
RTVSPost2010Prop45
280
     0
102
RTVSPost2010PropOp45
 70
     1
102
RTVSPost2010Prop46
 90
       50
102
RTVSPost2010PropOp46
 70
     1
102
RTVSPost2010Prop47
 90
       50
102
RTVSPost2010PropOp47
 70
     1
102
RTVSPost2010Prop48
 90
       50
102
RTVSPost2010PropOp48
 70
     1
102
RTVSPost2010Prop49
280
     0
102
RTVSPost2010PropOp49
 70
     1
102
RTVSPost2010Prop50
 90
       50
102
RTVSPost2010PropOp50
 70
     1
102
RTVSPost2010Prop51ColorIndex
 90
      256
102
RTVSPost2010Prop51ColorRGB
 90
-16777216
102
RTVSPost2010PropOp51
 70
     0
102
RTVSPost2010Prop52
140
1.0
102
RTVSPost2010PropOp52
 70
     0
102
RTVSPost2010Prop53
 90
        2
102
RTVSPost2010PropOp53
 70
     1
102
RTVSPost2010Prop54
  1
strokes_ogs.tif
102
RTVSPost2010PropOp54
 70
     1
102
RTVSPost2010Prop55
280
     0
102
RTVSPost2010PropOp55
 70
     1
102
RTVSPost2010Prop56
140
1.0
102
RTVSPost2010PropOp56
 70
     1
102
RTVSPost2010Prop57
140
1.0
102
RTVSPost2010PropOp57
 70
     1
  0
XRECORD
  5
396
102
{ACAD_REACTORS
330
395
102
}
330
395
100
AcDbXrecord
280
     1
102
RTVSPost2010Prop28
280
     0
102
RTVSPost2010PropOp28
 70
     1
102
RTVSPost2010Prop29
280
     1
102
RTVSPost2010PropOp29
 70
     1
102
RTVSPost2010Prop30
280
     1
102
RTVSPost2010PropOp30
 70
     1
102
RTVSPost2010Prop31
280
     0
102
RTVSPost2010PropOp31
 70
     1
102
RTVSPost2010Prop32
280
     0
102
RTVSPost2010PropOp32
 70
     1
102
RTVSPost2010Prop33
280
     0
102
RTVSPost2010PropOp33
 70
     1
102
RTVSPost2010Prop34
280
     0
102
RTVSPost2010PropOp34
 70
     1
102
RTVSPost2010Prop35
280
     0
102
RTVSPost2010PropOp35
 70
     1
102
RTVSPost2010Prop36
280
     0
102
RTVSPost2010PropOp36
 70
     1
102
RTVSPost2010Prop37
 90
       50
102
RTVSPost2010PropOp37
 70
     1
102
RTVSPost2010Prop38
140
0.0
102
RTVSPost2010PropOp38
 70
     1
102
RTVSPost2010Prop39
140
1.0
102
RTVSPost2010PropOp39
 70
     1
102
RTVSPost2010Prop40
 90
        0
102
RTVSPost2010PropOp40
 70
     1
102
RTVSPost2010Prop41ColorIndex
 90
       18
102
RTVSPost2010Prop41ColorRGB
 90
        0
102
RTVSPost2010PropOp41
 70
     1
102
RTVSPost2010Prop42
 90
       50
102
RTVSPost2010PropOp42
 70
     1
102
RTVSPost2010Prop43
 90
        3
102
RTVSPost2010PropOp43
 70
     1
102
RTVSPost2010Prop44ColorIndex
 90
        5
102
RTVSPost2010Prop44ColorRGB
 90
      255
102
RTVSPost2010PropOp44
 70
     1
102
RTVSPost2010Prop45
280
     0
102
RTVSPost2010PropOp45
 70
     1
102
RTVSPost2010Prop46
 90
       50
102
RTVSPost2010PropOp46
 70
     1
102
RTVSPost2010Prop47
 90
       50
102
RTVSPost2010PropOp47
 70
     1
102
RTVSPost2010Prop48
 90
       50
102
RTVSPost2010PropOp48
 70
     1
102
RTVSPost2010Prop49
280
     0
102
RTVSPost2010PropOp49
 70
     1
102
RTVSPost2010Prop50
 90
       50
102
RTVSPost2010PropOp50
 70
     1
102
RTVSPost2010Prop51ColorIndex
 90
      256
102
RTVSPost2010Prop51ColorRGB
 90
-16777216
102
RTVSPost2010PropOp51
 70
     0
102
RTVSPost2010Prop52
140
1.0
102
RTVSPost2010PropOp52
 70
     0
102
RTVSPost2010Prop53
 90
        2
102
RTVSPost2010PropOp53
 70
     1
102
RTVSPost2010Prop54
  1
strokes_ogs.tif
102
RTVSPost2010PropOp54
 70
     1
102
RTVSPost2010Prop55
280
     0
102
RTVSPost2010PropOp55
 70
     1
102
RTVSPost2010Prop56
140
1.0
102
RTVSPost2010PropOp56
 70
     1
102
RTVSPost2010Prop57
140
1.0
102
RTVSPost2010PropOp57
 70
     1
  0
XRECORD
  5
398
102
{ACAD_REACTORS
330
397
102
}
330
397
100
AcDbXrecord
280
     1
102
RTVSPost2010Prop28
280
     0
102
RTVSPost2010PropOp28
 70
     1
102
RTVSPost2010Prop29
280
     1
102
RTVSPost2010PropOp29
 70
     1
102
RTVSPost2010Prop30
280
     1
102
RTVSPost2010PropOp30
 70
     1
102
RTVSPost2010Prop31
280
     0
102
RTVSPost2010PropOp31
 70
     1
102
RTVSPost2010Prop32
280
     0
102
RTVSPost2010PropOp32
 70
     1
102
RTVSPost2010Prop33
280
     0
102
RTVSPost2010PropOp33
 70
     1
102
RTVSPost2010Prop34
280
     0
102
RTVSPost2010PropOp34
 70
     1
102
RTVSPost2010Prop35
280
     0
102
RTVSPost2010PropOp35
 70
     1
102
RTVSPost2010Prop36
280
     0
102
RTVSPost2010PropOp36
 70
     1
102
RTVSPost2010Prop37
 90
       50
102
RTVSPost2010PropOp37
 70
     1
102
RTVSPost2010Prop38
140
0.0
102
RTVSPost2010PropOp38
 70
     1
102
RTVSPost2010Prop39
140
1.0
102
RTVSPost2010PropOp39
 70
     1
102
RTVSPost2010Prop40
 90
        0
102
RTVSPost2010PropOp40
 70
     1
102
RTVSPost2010Prop41ColorIndex
 90
       18
102
RTVSPost2010Prop41ColorRGB
 90
        0
102
RTVSPost2010PropOp41
 70
     1
102
RTVSPost2010Prop42
 90
       50
102
RTVSPost2010PropOp42
 70
     1
102
RTVSPost2010Prop43
 90
        3
102
RTVSPost2010PropOp43
 70
     1
102
RTVSPost2010Prop44ColorIndex
 90
        5
102
RTVSPost2010Prop44ColorRGB
 90
      255
102
RTVSPost2010PropOp44
 70
     1
102
RTVSPost2010Prop45
280
     0
102
RTVSPost2010PropOp45
 70
     1
102
RTVSPost2010Prop46
 90
       50
102
RTVSPost2010PropOp46
 70
     1
102
RTVSPost2010Prop47
 90
       50
102
RTVSPost2010PropOp47
 70
     1
102
RTVSPost2010Prop48
 90
       50
102
RTVSPost2010PropOp48
 70
     1
102
RTVSPost2010Prop49
280
     0
102
RTVSPost2010PropOp49
 70
     1
102
RTVSPost2010Prop50
 90
       50
102
RTVSPost2010PropOp50
 70
     1
102
RTVSPost2010Prop51ColorIndex
 90
      256
102
RTVSPost2010Prop51ColorRGB
 90
-16777216
102
RTVSPost2010PropOp51
 70
     0
102
RTVSPost2010Prop52
140
1.0
102
RTVSPost2010PropOp52
 70
     0
102
RTVSPost2010Prop53
 90
        2
102
RTVSPost2010PropOp53
 70
     1
102
RTVSPost2010Prop54
  1
strokes_ogs.tif
102
RTVSPost2010PropOp54
 70
     1
102
RTVSPost2010Prop55
280
     0
102
RTVSPost2010PropOp55
 70
     1
102
RTVSPost2010Prop56
140
1.0
102
RTVSPost2010PropOp56
 70
     1
102
RTVSPost2010Prop57
140
1.0
102
RTVSPost2010PropOp57
 70
     1
  0
XRECORD
  5
39A
102
{ACAD_REACTORS
330
399
102
}
330
399
100
AcDbXrecord
280
     1
102
RTVSPost2010Prop28
280
     0
102
RTVSPost2010PropOp28
 70
     1
102
RTVSPost2010Prop29
280
     1
102
RTVSPost2010PropOp29
 70
     1
102
RTVSPost2010Prop30
280
     1
102
RTVSPost2010PropOp30
 70
     1
102
RTVSPost2010Prop31
280
     0
102
RTVSPost2010PropOp31
 70
     1
102
RTVSPost2010Prop32
280
     0
102
RTVSPost2010PropOp32
 70
     1
102
RTVSPost2010Prop33
280
     0
102
RTVSPost2010PropOp33
 70
     1
102
RTVSPost2010Prop34
280
     0
102
RTVSPost2010PropOp34
 70
     1
102
RTVSPost2010Prop35
280
     0
102
RTVSPost2010PropOp35
 70
     1
102
RTVSPost2010Prop36
280
     0
102
RTVSPost2010PropOp36
 70
     1
102
RTVSPost2010Prop37
 90
       50
102
RTVSPost2010PropOp37
 70
     1
102
RTVSPost2010Prop38
140
0.0
102
RTVSPost2010PropOp38
 70
     1
102
RTVSPost2010Prop39
140
1.0
102
RTVSPost2010PropOp39
 70
     1
102
RTVSPost2010Prop40
 90
        0
102
RTVSPost2010PropOp40
 70
     1
102
RTVSPost2010Prop41ColorIndex
 90
       18
102
RTVSPost2010Prop41ColorRGB
 90
        0
102
RTVSPost2010PropOp41
 70
     1
102
RTVSPost2010Prop42
 90
       50
102
RTVSPost2010PropOp42
 70
     1
102
RTVSPost2010Prop43
 90
        3
102
RTVSPost2010PropOp43
 70
     1
102
RTVSPost2010Prop44ColorIndex
 90
        5
102
RTVSPost2010Prop44ColorRGB
 90
      255
102
RTVSPost2010PropOp44
 70
     1
102
RTVSPost2010Prop45
280
     0
102
RTVSPost2010PropOp45
 70
     1
102
RTVSPost2010Prop46
 90
       50
102
RTVSPost2010PropOp46
 70
     1
102
RTVSPost2010Prop47
 90
       50
102
RTVSPost2010PropOp47
 70
     1
102
RTVSPost2010Prop48
 90
       50
102
RTVSPost2010PropOp48
 70
     1
102
RTVSPost2010Prop49
280
     0
102
RTVSPost2010PropOp49
 70
     1
102
RTVSPost2010Prop50
 90
       50
102
RTVSPost2010PropOp50
 70
     1
102
RTVSPost2010Prop51ColorIndex
 90
      256
102
RTVSPost2010Prop51ColorRGB
 90
-16777216
102
RTVSPost2010PropOp51
 70
     0
102
RTVSPost2010Prop52
140
1.0
102
RTVSPost2010PropOp52
 70
     0
102
RTVSPost2010Prop53
 90
        2
102
RTVSPost2010PropOp53
 70
     1
102
RTVSPost2010Prop54
  1
strokes_ogs.tif
102
RTVSPost2010PropOp54
 70
     1
102
RTVSPost2010Prop55
280
     0
102
RTVSPost2010PropOp55
 70
     1
102
RTVSPost2010Prop56
140
1.0
102
RTVSPost2010PropOp56
 70
     1
102
RTVSPost2010Prop57
140
1.0
102
RTVSPost2010PropOp57
 70
     1
  0
XRECORD
  5
39C
102
{ACAD_REACTORS
330
39B
102
}
330
39B
100
AcDbXrecord
280
     1
102
RTVSPost2010Prop28
280
     0
102
RTVSPost2010PropOp28
 70
     1
102
RTVSPost2010Prop29
280
     1
102
RTVSPost2010PropOp29
 70
     1
102
RTVSPost2010Prop30
280
     1
102
RTVSPost2010PropOp30
 70
     1
102
RTVSPost2010Prop31
280
     0
102
RTVSPost2010PropOp31
 70
     1
102
RTVSPost2010Prop32
280
     0
102
RTVSPost2010PropOp32
 70
     1
102
RTVSPost2010Prop33
280
     0
102
RTVSPost2010PropOp33
 70
     1
102
RTVSPost2010Prop34
280
     0
102
RTVSPost2010PropOp34
 70
     1
102
RTVSPost2010Prop35
280
     0
102
RTVSPost2010PropOp35
 70
     1
102
RTVSPost2010Prop36
280
     0
102
RTVSPost2010PropOp36
 70
     1
102
RTVSPost2010Prop37
 90
       50
102
RTVSPost2010PropOp37
 70
     1
102
RTVSPost2010Prop38
140
0.0
102
RTVSPost2010PropOp38
 70
     1
102
RTVSPost2010Prop39
140
1.0
102
RTVSPost2010PropOp39
 70
     1
102
RTVSPost2010Prop40
 90
        0
102
RTVSPost2010PropOp40
 70
     1
102
RTVSPost2010Prop41ColorIndex
 90
       18
102
RTVSPost2010Prop41ColorRGB
 90
        0
102
RTVSPost2010PropOp41
 70
     1
102
RTVSPost2010Prop42
 90
       50
102
RTVSPost2010PropOp42
 70
     1
102
RTVSPost2010Prop43
 90
        3
102
RTVSPost2010PropOp43
 70
     1
102
RTVSPost2010Prop44ColorIndex
 90
        5
102
RTVSPost2010Prop44ColorRGB
 90
      255
102
RTVSPost2010PropOp44
 70
     1
102
RTVSPost2010Prop45
280
     0
102
RTVSPost2010PropOp45
 70
     1
102
RTVSPost2010Prop46
 90
       50
102
RTVSPost2010PropOp46
 70
     1
102
RTVSPost2010Prop47
 90
       50
102
RTVSPost2010PropOp47
 70
     1
102
RTVSPost2010Prop48
 90
       50
102
RTVSPost2010PropOp48
 70
     1
102
RTVSPost2010Prop49
280
     0
102
RTVSPost2010PropOp49
 70
     1
102
RTVSPost2010Prop50
 90
       50
102
RTVSPost2010PropOp50
 70
     1
102
RTVSPost2010Prop51ColorIndex
 90
      256
102
RTVSPost2010Prop51ColorRGB
 90
-16777216
102
RTVSPost2010PropOp51
 70
     0
102
RTVSPost2010Prop52
140
1.0
102
RTVSPost2010PropOp52
 70
     0
102
RTVSPost2010Prop53
 90
        2
102
RTVSPost2010PropOp53
 70
     1
102
RTVSPost2010Prop54
  1
strokes_ogs.tif
102
RTVSPost2010PropOp54
 70
     1
102
RTVSPost2010Prop55
280
     0
102
RTVSPost2010PropOp55
 70
     1
102
RTVSPost2010Prop56
140
1.0
102
RTVSPost2010PropOp56
 70
     1
102
RTVSPost2010Prop57
140
1.0
102
RTVSPost2010PropOp57
 70
     1
  0
XRECORD
  5
3A2
102
{ACAD_REACTORS
330
3A1
102
}
330
3A1
100
AcDbXrecord
280
     1
102
RTVSPost2010Prop28
280
     0
102
RTVSPost2010PropOp28
 70
     1
102
RTVSPost2010Prop29
280
     1
102
RTVSPost2010PropOp29
 70
     1
102
RTVSPost2010Prop30
280
     1
102
RTVSPost2010PropOp30
 70
     1
102
RTVSPost2010Prop31
280
     0
102
RTVSPost2010PropOp31
 70
     1
102
RTVSPost2010Prop32
280
     0
102
RTVSPost2010PropOp32
 70
     1
102
RTVSPost2010Prop33
280
     0
102
RTVSPost2010PropOp33
 70
     1
102
RTVSPost2010Prop34
280
     0
102
RTVSPost2010PropOp34
 70
     1
102
RTVSPost2010Prop35
280
     0
102
RTVSPost2010PropOp35
 70
     1
102
RTVSPost2010Prop36
280
     0
102
RTVSPost2010PropOp36
 70
     1
102
RTVSPost2010Prop37
 90
       50
102
RTVSPost2010PropOp37
 70
     1
102
RTVSPost2010Prop38
140
0.0
102
RTVSPost2010PropOp38
 70
     1
102
RTVSPost2010Prop39
140
1.0
102
RTVSPost2010PropOp39
 70
     1
102
RTVSPost2010Prop40
 90
        0
102
RTVSPost2010PropOp40
 70
     1
102
RTVSPost2010Prop41ColorIndex
 90
       18
102
RTVSPost2010Prop41ColorRGB
 90
        0
102
RTVSPost2010PropOp41
 70
     1
102
RTVSPost2010Prop42
 90
       50
102
RTVSPost2010PropOp42
 70
     1
102
RTVSPost2010Prop43
 90
        3
102
RTVSPost2010PropOp43
 70
     1
102
RTVSPost2010Prop44ColorIndex
 90
        5
102
RTVSPost2010Prop44ColorRGB
 90
      255
102
RTVSPost2010PropOp44
 70
     1
102
RTVSPost2010Prop45
280
     0
102
RTVSPost2010PropOp45
 70
     1
102
RTVSPost2010Prop46
 90
       50
102
RTVSPost2010PropOp46
 70
     1
102
RTVSPost2010Prop47
 90
       50
102
RTVSPost2010PropOp47
 70
     1
102
RTVSPost2010Prop48
 90
       50
102
RTVSPost2010PropOp48
 70
     1
102
RTVSPost2010Prop49
280
     0
102
RTVSPost2010PropOp49
 70
     1
102
RTVSPost2010Prop50
 90
       50
102
RTVSPost2010PropOp50
 70
     1
102
RTVSPost2010Prop51ColorIndex
 90
      256
102
RTVSPost2010Prop51ColorRGB
 90
-16777216
102
RTVSPost2010PropOp51
 70
     0
102
RTVSPost2010Prop52
140
1.0
102
RTVSPost2010PropOp52
 70
     0
102
RTVSPost2010Prop53
 90
        2
102
RTVSPost2010PropOp53
 70
     1
102
RTVSPost2010Prop54
  1
strokes_ogs.tif
102
RTVSPost2010PropOp54
 70
     1
102
RTVSPost2010Prop55
280
     0
102
RTVSPost2010PropOp55
 70
     1
102
RTVSPost2010Prop56
140
1.0
102
RTVSPost2010PropOp56
 70
     1
102
RTVSPost2010Prop57
140
1.0
102
RTVSPost2010PropOp57
 70
     1
  0
XRECORD
  5
3B6
102
{ACAD_REACTORS
330
3B5
102
}
330
3B5
100
AcDbXrecord
280
     1
102
RTVSPost2010Prop28
280
     0
102
RTVSPost2010PropOp28
 70
     0
102
RTVSPost2010Prop29
280
     1
102
RTVSPost2010PropOp29
 70
     0
102
RTVSPost2010Prop30
280
     1
102
RTVSPost2010PropOp30
 70
     0
102
RTVSPost2010Prop31
280
     0
102
RTVSPost2010PropOp31
 70
     0
102
RTVSPost2010Prop32
280
     0
102
RTVSPost2010PropOp32
 70
     0
102
RTVSPost2010Prop33
280
     0
102
RTVSPost2010PropOp33
 70
     0
102
RTVSPost2010Prop34
280
     0
102
RTVSPost2010PropOp34
 70
     0
102
RTVSPost2010Prop35
280
     0
102
RTVSPost2010PropOp35
 70
     0
102
RTVSPost2010Prop36
280
     0
102
RTVSPost2010PropOp36
 70
     0
102
RTVSPost2010Prop37
 90
       50
102
RTVSPost2010PropOp37
 70
     0
102
RTVSPost2010Prop38
140
0.0
102
RTVSPost2010PropOp38
 70
     0
102
RTVSPost2010Prop39
140
1.0
102
RTVSPost2010PropOp39
 70
     0
102
RTVSPost2010Prop40
 90
        0
102
RTVSPost2010PropOp40
 70
     0
102
RTVSPost2010Prop41ColorIndex
 90
       18
102
RTVSPost2010Prop41ColorRGB
 90
        0
102
RTVSPost2010PropOp41
 70
     0
102
RTVSPost2010Prop42
 90
       50
102
RTVSPost2010PropOp42
 70
     0
102
RTVSPost2010Prop43
 90
        3
102
RTVSPost2010PropOp43
 70
     0
102
RTVSPost2010Prop44ColorIndex
 90
        5
102
RTVSPost2010Prop44ColorRGB
 90
      255
102
RTVSPost2010PropOp44
 70
     0
102
RTVSPost2010Prop45
280
     0
102
RTVSPost2010PropOp45
 70
     0
102
RTVSPost2010Prop46
 90
       50
102
RTVSPost2010PropOp46
 70
     0
102
RTVSPost2010Prop47
 90
       50
102
RTVSPost2010PropOp47
 70
     0
102
RTVSPost2010Prop48
 90
       50
102
RTVSPost2010PropOp48
 70
     0
102
RTVSPost2010Prop49
280
     0
102
RTVSPost2010PropOp49
 70
     0
102
RTVSPost2010Prop50
 90
       50
102
RTVSPost2010PropOp50
 70
     0
102
RTVSPost2010Prop51ColorIndex
 90
      256
102
RTVSPost2010Prop51ColorRGB
 90
-16777216
102
RTVSPost2010PropOp51
 70
     0
102
RTVSPost2010Prop52
140
1.0
102
RTVSPost2010PropOp52
 70
     0
102
RTVSPost2010Prop53
 90
        2
102
RTVSPost2010PropOp53
 70
     0
102
RTVSPost2010Prop54
  1
strokes_ogs.tif
102
RTVSPost2010PropOp54
 70
     0
102
RTVSPost2010Prop55
280
     0
102
RTVSPost2010PropOp55
 70
     0
102
RTVSPost2010Prop56
140
1.0
102
RTVSPost2010PropOp56
 70
     0
102
RTVSPost2010Prop57
140
1.0
102
RTVSPost2010PropOp57
 70
     0
  0
XRECORD
  5
3B0
102
{ACAD_REACTORS
330
3AF
102
}
330
3AF
100
AcDbXrecord
280
     1
102
RTVSPost2010Prop28
280
     0
102
RTVSPost2010PropOp28
 70
     1
102
RTVSPost2010Prop29
280
     1
102
RTVSPost2010PropOp29
 70
     1
102
RTVSPost2010Prop30
280
     1
102
RTVSPost2010PropOp30
 70
     1
102
RTVSPost2010Prop31
280
     0
102
RTVSPost2010PropOp31
 70
     1
102
RTVSPost2010Prop32
280
     0
102
RTVSPost2010PropOp32
 70
     1
102
RTVSPost2010Prop33
280
     0
102
RTVSPost2010PropOp33
 70
     1
102
RTVSPost2010Prop34
280
     0
102
RTVSPost2010PropOp34
 70
     1
102
RTVSPost2010Prop35
280
     0
102
RTVSPost2010PropOp35
 70
     1
102
RTVSPost2010Prop36
280
     0
102
RTVSPost2010PropOp36
 70
     1
102
RTVSPost2010Prop37
 90
       50
102
RTVSPost2010PropOp37
 70
     1
102
RTVSPost2010Prop38
140
0.0
102
RTVSPost2010PropOp38
 70
     1
102
RTVSPost2010Prop39
140
1.0
102
RTVSPost2010PropOp39
 70
     1
102
RTVSPost2010Prop40
 90
        0
102
RTVSPost2010PropOp40
 70
     1
102
RTVSPost2010Prop41ColorIndex
 90
       18
102
RTVSPost2010Prop41ColorRGB
 90
        0
102
RTVSPost2010PropOp41
 70
     1
102
RTVSPost2010Prop42
 90
       50
102
RTVSPost2010PropOp42
 70
     1
102
RTVSPost2010Prop43
 90
        3
102
RTVSPost2010PropOp43
 70
     1
102
RTVSPost2010Prop44ColorIndex
 90
        5
102
RTVSPost2010Prop44ColorRGB
 90
      255
102
RTVSPost2010PropOp44
 70
     1
102
RTVSPost2010Prop45
280
     0
102
RTVSPost2010PropOp45
 70
     1
102
RTVSPost2010Prop46
 90
       50
102
RTVSPost2010PropOp46
 70
     1
102
RTVSPost2010Prop47
 90
       50
102
RTVSPost2010PropOp47
 70
     1
102
RTVSPost2010Prop48
 90
       50
102
RTVSPost2010PropOp48
 70
     1
102
RTVSPost2010Prop49
280
     0
102
RTVSPost2010PropOp49
 70
     1
102
RTVSPost2010Prop50
 90
       50
102
RTVSPost2010PropOp50
 70
     1
102
RTVSPost2010Prop51ColorIndex
 90
      256
102
RTVSPost2010Prop51ColorRGB
 90
-16777216
102
RTVSPost2010PropOp51
 70
     0
102
RTVSPost2010Prop52
140
1.0
102
RTVSPost2010PropOp52
 70
     0
102
RTVSPost2010Prop53
 90
        2
102
RTVSPost2010PropOp53
 70
     1
102
RTVSPost2010Prop54
  1
strokes_ogs.tif
102
RTVSPost2010PropOp54
 70
     1
102
RTVSPost2010Prop55
280
     0
102
RTVSPost2010PropOp55
 70
     1
102
RTVSPost2010Prop56
140
1.0
102
RTVSPost2010PropOp56
 70
     1
102
RTVSPost2010Prop57
140
1.0
102
RTVSPost2010PropOp57
 70
     1
  0
XRECORD
  5
3B8
102
{ACAD_REACTORS
330
3B7
102
}
330
3B7
100
AcDbXrecord
280
     1
102
RTVSPost2010Prop28
280
     0
102
RTVSPost2010PropOp28
 70
     0
102
RTVSPost2010Prop29
280
     1
102
RTVSPost2010PropOp29
 70
     0
102
RTVSPost2010Prop30
280
     1
102
RTVSPost2010PropOp30
 70
     0
102
RTVSPost2010Prop31
280
     0
102
RTVSPost2010PropOp31
 70
     0
102
RTVSPost2010Prop32
280
     0
102
RTVSPost2010PropOp32
 70
     0
102
RTVSPost2010Prop33
280
     0
102
RTVSPost2010PropOp33
 70
     0
102
RTVSPost2010Prop34
280
     0
102
RTVSPost2010PropOp34
 70
     0
102
RTVSPost2010Prop35
280
     0
102
RTVSPost2010PropOp35
 70
     0
102
RTVSPost2010Prop36
280
     0
102
RTVSPost2010PropOp36
 70
     0
102
RTVSPost2010Prop37
 90
       50
102
RTVSPost2010PropOp37
 70
     0
102
RTVSPost2010Prop38
140
0.0
102
RTVSPost2010PropOp38
 70
     0
102
RTVSPost2010Prop39
140
1.0
102
RTVSPost2010PropOp39
 70
     0
102
RTVSPost2010Prop40
 90
        0
102
RTVSPost2010PropOp40
 70
     0
102
RTVSPost2010Prop41ColorIndex
 90
       18
102
RTVSPost2010Prop41ColorRGB
 90
        0
102
RTVSPost2010PropOp41
 70
     0
102
RTVSPost2010Prop42
 90
       50
102
RTVSPost2010PropOp42
 70
     0
102
RTVSPost2010Prop43
 90
        3
102
RTVSPost2010PropOp43
 70
     0
102
RTVSPost2010Prop44ColorIndex
 90
        5
102
RTVSPost2010Prop44ColorRGB
 90
      255
102
RTVSPost2010PropOp44
 70
     0
102
RTVSPost2010Prop45
280
     0
102
RTVSPost2010PropOp45
 70
     0
102
RTVSPost2010Prop46
 90
       50
102
RTVSPost2010PropOp46
 70
     0
102
RTVSPost2010Prop47
 90
       50
102
RTVSPost2010PropOp47
 70
     0
102
RTVSPost2010Prop48
 90
       50
102
RTVSPost2010PropOp48
 70
     0
102
RTVSPost2010Prop49
280
     0
102
RTVSPost2010PropOp49
 70
     0
102
RTVSPost2010Prop50
 90
       50
102
RTVSPost2010PropOp50
 70
     0
102
RTVSPost2010Prop51ColorIndex
 90
      256
102
RTVSPost2010Prop51ColorRGB
 90
-16777216
102
RTVSPost2010PropOp51
 70
     0
102
RTVSPost2010Prop52
140
1.0
102
RTVSPost2010PropOp52
 70
     0
102
RTVSPost2010Prop53
 90
        2
102
RTVSPost2010PropOp53
 70
     0
102
RTVSPost2010Prop54
  1
strokes_ogs.tif
102
RTVSPost2010PropOp54
 70
     0
102
RTVSPost2010Prop55
280
     0
102
RTVSPost2010PropOp55
 70
     0
102
RTVSPost2010Prop56
140
1.0
102
RTVSPost2010PropOp56
 70
     0
102
RTVSPost2010Prop57
140
1.0
102
RTVSPost2010PropOp57
 70
     0
  0
XRECORD
  5
3A6
102
{ACAD_REACTORS
330
3A5
102
}
330
3A5
100
AcDbXrecord
280
     1
102
RTVSPost2010Prop28
280
     0
102
RTVSPost2010PropOp28
 70
     1
102
RTVSPost2010Prop29
280
     1
102
RTVSPost2010PropOp29
 70
     1
102
RTVSPost2010Prop30
280
     1
102
RTVSPost2010PropOp30
 70
     1
102
RTVSPost2010Prop31
280
     0
102
RTVSPost2010PropOp31
 70
     1
102
RTVSPost2010Prop32
280
     0
102
RTVSPost2010PropOp32
 70
     1
102
RTVSPost2010Prop33
280
     0
102
RTVSPost2010PropOp33
 70
     1
102
RTVSPost2010Prop34
280
     0
102
RTVSPost2010PropOp34
 70
     1
102
RTVSPost2010Prop35
280
     0
102
RTVSPost2010PropOp35
 70
     1
102
RTVSPost2010Prop36
280
     0
102
RTVSPost2010PropOp36
 70
     1
102
RTVSPost2010Prop37
 90
       50
102
RTVSPost2010PropOp37
 70
     1
102
RTVSPost2010Prop38
140
0.0
102
RTVSPost2010PropOp38
 70
     1
102
RTVSPost2010Prop39
140
1.0
102
RTVSPost2010PropOp39
 70
     1
102
RTVSPost2010Prop40
 90
        0
102
RTVSPost2010PropOp40
 70
     1
102
RTVSPost2010Prop41ColorIndex
 90
       18
102
RTVSPost2010Prop41ColorRGB
 90
        0
102
RTVSPost2010PropOp41
 70
     1
102
RTVSPost2010Prop42
 90
       50
102
RTVSPost2010PropOp42
 70
     1
102
RTVSPost2010Prop43
 90
        3
102
RTVSPost2010PropOp43
 70
     1
102
RTVSPost2010Prop44ColorIndex
 90
        5
102
RTVSPost2010Prop44ColorRGB
 90
      255
102
RTVSPost2010PropOp44
 70
     1
102
RTVSPost2010Prop45
280
     0
102
RTVSPost2010PropOp45
 70
     1
102
RTVSPost2010Prop46
 90
       50
102
RTVSPost2010PropOp46
 70
     1
102
RTVSPost2010Prop47
 90
       50
102
RTVSPost2010PropOp47
 70
     1
102
RTVSPost2010Prop48
 90
       50
102
RTVSPost2010PropOp48
 70
     1
102
RTVSPost2010Prop49
280
     0
102
RTVSPost2010PropOp49
 70
     1
102
RTVSPost2010Prop50
 90
       50
102
RTVSPost2010PropOp50
 70
     1
102
RTVSPost2010Prop51ColorIndex
 90
      256
102
RTVSPost2010Prop51ColorRGB
 90
-16777216
102
RTVSPost2010PropOp51
 70
     0
102
RTVSPost2010Prop52
140
1.0
102
RTVSPost2010PropOp52
 70
     0
102
RTVSPost2010Prop53
 90
        2
102
RTVSPost2010PropOp53
 70
     1
102
RTVSPost2010Prop54
  1
strokes_ogs.tif
102
RTVSPost2010PropOp54
 70
     1
102
RTVSPost2010Prop55
280
     0
102
RTVSPost2010PropOp55
 70
     1
102
RTVSPost2010Prop56
140
1.0
102
RTVSPost2010PropOp56
 70
     1
102
RTVSPost2010Prop57
140
1.0
102
RTVSPost2010PropOp57
 70
     1
  0
XRECORD
  5
3C4
102
{ACAD_REACTORS
330
3C3
102
}
330
3C3
100
AcDbXrecord
280
     1
102
RTVSPost2010Prop28
280
     0
102
RTVSPost2010PropOp28
 70
     1
102
RTVSPost2010Prop29
280
     1
102
RTVSPost2010PropOp29
 70
     1
102
RTVSPost2010Prop30
280
     1
102
RTVSPost2010PropOp30
 70
     1
102
RTVSPost2010Prop31
280
     0
102
RTVSPost2010PropOp31
 70
     1
102
RTVSPost2010Prop32
280
     0
102
RTVSPost2010PropOp32
 70
     1
102
RTVSPost2010Prop33
280
     0
102
RTVSPost2010PropOp33
 70
     1
102
RTVSPost2010Prop34
280
     0
102
RTVSPost2010PropOp34
 70
     1
102
RTVSPost2010Prop35
280
     0
102
RTVSPost2010PropOp35
 70
     1
102
RTVSPost2010Prop36
280
     0
102
RTVSPost2010PropOp36
 70
     1
102
RTVSPost2010Prop37
 90
       50
102
RTVSPost2010PropOp37
 70
     1
102
RTVSPost2010Prop38
140
0.0
102
RTVSPost2010PropOp38
 70
     1
102
RTVSPost2010Prop39
140
1.0
102
RTVSPost2010PropOp39
 70
     1
102
RTVSPost2010Prop40
 90
        0
102
RTVSPost2010PropOp40
 70
     1
102
RTVSPost2010Prop41ColorIndex
 90
       18
102
RTVSPost2010Prop41ColorRGB
 90
        0
102
RTVSPost2010PropOp41
 70
     1
102
RTVSPost2010Prop42
 90
       50
102
RTVSPost2010PropOp42
 70
     1
102
RTVSPost2010Prop43
 90
        3
102
RTVSPost2010PropOp43
 70
     1
102
RTVSPost2010Prop44ColorIndex
 90
        5
102
RTVSPost2010Prop44ColorRGB
 90
      255
102
RTVSPost2010PropOp44
 70
     1
102
RTVSPost2010Prop45
280
     0
102
RTVSPost2010PropOp45
 70
     1
102
RTVSPost2010Prop46
 90
       50
102
RTVSPost2010PropOp46
 70
     1
102
RTVSPost2010Prop47
 90
       50
102
RTVSPost2010PropOp47
 70
     1
102
RTVSPost2010Prop48
 90
       50
102
RTVSPost2010PropOp48
 70
     1
102
RTVSPost2010Prop49
280
     0
102
RTVSPost2010PropOp49
 70
     1
102
RTVSPost2010Prop50
 90
       50
102
RTVSPost2010PropOp50
 70
     1
102
RTVSPost2010Prop51ColorIndex
 90
      256
102
RTVSPost2010Prop51ColorRGB
 90
-16777216
102
RTVSPost2010PropOp51
 70
     0
102
RTVSPost2010Prop52
140
1.0
102
RTVSPost2010PropOp52
 70
     0
102
RTVSPost2010Prop53
 90
        2
102
RTVSPost2010PropOp53
 70
     1
102
RTVSPost2010Prop54
  1
strokes_ogs.tif
102
RTVSPost2010PropOp54
 70
     1
102
RTVSPost2010Prop55
280
     0
102
RTVSPost2010PropOp55
 70
     1
102
RTVSPost2010Prop56
140
1.0
102
RTVSPost2010PropOp56
 70
     1
102
RTVSPost2010Prop57
140
1.0
102
RTVSPost2010PropOp57
 70
     1
  0
XRECORD
  5
3C2
102
{ACAD_REACTORS
330
3C1
102
}
330
3C1
100
AcDbXrecord
280
     1
102
RTVSPost2010Prop28
280
     0
102
RTVSPost2010PropOp28
 70
     1
102
RTVSPost2010Prop29
280
     1
102
RTVSPost2010PropOp29
 70
     1
102
RTVSPost2010Prop30
280
     1
102
RTVSPost2010PropOp30
 70
     1
102
RTVSPost2010Prop31
280
     0
102
RTVSPost2010PropOp31
 70
     1
102
RTVSPost2010Prop32
280
     0
102
RTVSPost2010PropOp32
 70
     1
102
RTVSPost2010Prop33
280
     0
102
RTVSPost2010PropOp33
 70
     1
102
RTVSPost2010Prop34
280
     0
102
RTVSPost2010PropOp34
 70
     1
102
RTVSPost2010Prop35
280
     0
102
RTVSPost2010PropOp35
 70
     1
102
RTVSPost2010Prop36
280
     0
102
RTVSPost2010PropOp36
 70
     1
102
RTVSPost2010Prop37
 90
       50
102
RTVSPost2010PropOp37
 70
     1
102
RTVSPost2010Prop38
140
0.0
102
RTVSPost2010PropOp38
 70
     1
102
RTVSPost2010Prop39
140
1.0
102
RTVSPost2010PropOp39
 70
     1
102
RTVSPost2010Prop40
 90
        0
102
RTVSPost2010PropOp40
 70
     1
102
RTVSPost2010Prop41ColorIndex
 90
       18
102
RTVSPost2010Prop41ColorRGB
 90
        0
102
RTVSPost2010PropOp41
 70
     1
102
RTVSPost2010Prop42
 90
       50
102
RTVSPost2010PropOp42
 70
     1
102
RTVSPost2010Prop43
 90
        3
102
RTVSPost2010PropOp43
 70
     1
102
RTVSPost2010Prop44ColorIndex
 90
        5
102
RTVSPost2010Prop44ColorRGB
 90
      255
102
RTVSPost2010PropOp44
 70
     1
102
RTVSPost2010Prop45
280
     0
102
RTVSPost2010PropOp45
 70
     1
102
RTVSPost2010Prop46
 90
       50
102
RTVSPost2010PropOp46
 70
     1
102
RTVSPost2010Prop47
 90
       50
102
RTVSPost2010PropOp47
 70
     1
102
RTVSPost2010Prop48
 90
       50
102
RTVSPost2010PropOp48
 70
     1
102
RTVSPost2010Prop49
280
     0
102
RTVSPost2010PropOp49
 70
     1
102
RTVSPost2010Prop50
 90
       50
102
RTVSPost2010PropOp50
 70
     1
102
RTVSPost2010Prop51ColorIndex
 90
      256
102
RTVSPost2010Prop51ColorRGB
 90
-16777216
102
RTVSPost2010PropOp51
 70
     0
102
RTVSPost2010Prop52
140
1.0
102
RTVSPost2010PropOp52
 70
     0
102
RTVSPost2010Prop53
 90
        2
102
RTVSPost2010PropOp53
 70
     1
102
RTVSPost2010Prop54
  1
strokes_ogs.tif
102
RTVSPost2010PropOp54
 70
     1
102
RTVSPost2010Prop55
280
     0
102
RTVSPost2010PropOp55
 70
     1
102
RTVSPost2010Prop56
140
1.0
102
RTVSPost2010PropOp56
 70
     1
102
RTVSPost2010Prop57
140
1.0
102
RTVSPost2010PropOp57
 70
     1
  0
XRECORD
  5
3BC
102
{ACAD_REACTORS
330
3BB
102
}
330
3BB
100
AcDbXrecord
280
     1
102
RTVSPost2010Prop28
280
     0
102
RTVSPost2010PropOp28
 70
     1
102
RTVSPost2010Prop29
280
     1
102
RTVSPost2010PropOp29
 70
     1
102
RTVSPost2010Prop30
280
     1
102
RTVSPost2010PropOp30
 70
     1
102
RTVSPost2010Prop31
280
     0
102
RTVSPost2010PropOp31
 70
     1
102
RTVSPost2010Prop32
280
     0
102
RTVSPost2010PropOp32
 70
     1
102
RTVSPost2010Prop33
280
     0
102
RTVSPost2010PropOp33
 70
     1
102
RTVSPost2010Prop34
280
     0
102
RTVSPost2010PropOp34
 70
     1
102
RTVSPost2010Prop35
280
     0
102
RTVSPost2010PropOp35
 70
     1
102
RTVSPost2010Prop36
280
     0
102
RTVSPost2010PropOp36
 70
     1
102
RTVSPost2010Prop37
 90
       50
102
RTVSPost2010PropOp37
 70
     1
102
RTVSPost2010Prop38
140
0.0
102
RTVSPost2010PropOp38
 70
     1
102
RTVSPost2010Prop39
140
1.0
102
RTVSPost2010PropOp39
 70
     1
102
RTVSPost2010Prop40
 90
        0
102
RTVSPost2010PropOp40
 70
     1
102
RTVSPost2010Prop41ColorIndex
 90
       18
102
RTVSPost2010Prop41ColorRGB
 90
        0
102
RTVSPost2010PropOp41
 70
     1
102
RTVSPost2010Prop42
 90
       50
102
RTVSPost2010PropOp42
 70
     1
102
RTVSPost2010Prop43
 90
        3
102
RTVSPost2010PropOp43
 70
     1
102
RTVSPost2010Prop44ColorIndex
 90
        5
102
RTVSPost2010Prop44ColorRGB
 90
      255
102
RTVSPost2010PropOp44
 70
     1
102
RTVSPost2010Prop45
280
     0
102
RTVSPost2010PropOp45
 70
     1
102
RTVSPost2010Prop46
 90
       50
102
RTVSPost2010PropOp46
 70
     1
102
RTVSPost2010Prop47
 90
       50
102
RTVSPost2010PropOp47
 70
     1
102
RTVSPost2010Prop48
 90
       50
102
RTVSPost2010PropOp48
 70
     1
102
RTVSPost2010Prop49
280
     0
102
RTVSPost2010PropOp49
 70
     1
102
RTVSPost2010Prop50
 90
       50
102
RTVSPost2010PropOp50
 70
     1
102
RTVSPost2010Prop51ColorIndex
 90
      256
102
RTVSPost2010Prop51ColorRGB
 90
-16777216
102
RTVSPost2010PropOp51
 70
     0
102
RTVSPost2010Prop52
140
1.0
102
RTVSPost2010PropOp52
 70
     0
102
RTVSPost2010Prop53
 90
        2
102
RTVSPost2010PropOp53
 70
     1
102
RTVSPost2010Prop54
  1
strokes_ogs.tif
102
RTVSPost2010PropOp54
 70
     1
102
RTVSPost2010Prop55
280
     0
102
RTVSPost2010PropOp55
 70
     1
102
RTVSPost2010Prop56
140
1.0
102
RTVSPost2010PropOp56
 70
     1
102
RTVSPost2010Prop57
140
1.0
102
RTVSPost2010PropOp57
 70
     1
  0
XRECORD
  5
3BE
102
{ACAD_REACTORS
330
3BD
102
}
330
3BD
100
AcDbXrecord
280
     1
102
RTVSPost2010Prop28
280
     0
102
RTVSPost2010PropOp28
 70
     1
102
RTVSPost2010Prop29
280
     1
102
RTVSPost2010PropOp29
 70
     1
102
RTVSPost2010Prop30
280
     1
102
RTVSPost2010PropOp30
 70
     1
102
RTVSPost2010Prop31
280
     0
102
RTVSPost2010PropOp31
 70
     1
102
RTVSPost2010Prop32
280
     0
102
RTVSPost2010PropOp32
 70
     1
102
RTVSPost2010Prop33
280
     0
102
RTVSPost2010PropOp33
 70
     1
102
RTVSPost2010Prop34
280
     0
102
RTVSPost2010PropOp34
 70
     1
102
RTVSPost2010Prop35
280
     0
102
RTVSPost2010PropOp35
 70
     1
102
RTVSPost2010Prop36
280
     0
102
RTVSPost2010PropOp36
 70
     1
102
RTVSPost2010Prop37
 90
       50
102
RTVSPost2010PropOp37
 70
     1
102
RTVSPost2010Prop38
140
0.0
102
RTVSPost2010PropOp38
 70
     1
102
RTVSPost2010Prop39
140
1.0
102
RTVSPost2010PropOp39
 70
     1
102
RTVSPost2010Prop40
 90
        0
102
RTVSPost2010PropOp40
 70
     1
102
RTVSPost2010Prop41ColorIndex
 90
       18
102
RTVSPost2010Prop41ColorRGB
 90
        0
102
RTVSPost2010PropOp41
 70
     1
102
RTVSPost2010Prop42
 90
       50
102
RTVSPost2010PropOp42
 70
     1
102
RTVSPost2010Prop43
 90
        3
102
RTVSPost2010PropOp43
 70
     1
102
RTVSPost2010Prop44ColorIndex
 90
        5
102
RTVSPost2010Prop44ColorRGB
 90
      255
102
RTVSPost2010PropOp44
 70
     1
102
RTVSPost2010Prop45
280
     0
102
RTVSPost2010PropOp45
 70
     1
102
RTVSPost2010Prop46
 90
       50
102
RTVSPost2010PropOp46
 70
     1
102
RTVSPost2010Prop47
 90
       50
102
RTVSPost2010PropOp47
 70
     1
102
RTVSPost2010Prop48
 90
       50
102
RTVSPost2010PropOp48
 70
     1
102
RTVSPost2010Prop49
280
     0
102
RTVSPost2010PropOp49
 70
     1
102
RTVSPost2010Prop50
 90
       50
102
RTVSPost2010PropOp50
 70
     1
102
RTVSPost2010Prop51ColorIndex
 90
      256
102
RTVSPost2010Prop51ColorRGB
 90
-16777216
102
RTVSPost2010PropOp51
 70
     0
102
RTVSPost2010Prop52
140
1.0
102
RTVSPost2010PropOp52
 70
     0
102
RTVSPost2010Prop53
 90
        2
102
RTVSPost2010PropOp53
 70
     1
102
RTVSPost2010Prop54
  1
strokes_ogs.tif
102
RTVSPost2010PropOp54
 70
     1
102
RTVSPost2010Prop55
280
     0
102
RTVSPost2010PropOp55
 70
     1
102
RTVSPost2010Prop56
140
1.0
102
RTVSPost2010PropOp56
 70
     1
102
RTVSPost2010Prop57
140
1.0
102
RTVSPost2010PropOp57
 70
     1
  0
XRECORD
  5
3AE
102
{ACAD_REACTORS
330
3AD
102
}
330
3AD
100
AcDbXrecord
280
     1
102
RTVSPost2010Prop28
280
     0
102
RTVSPost2010PropOp28
 70
     1
102
RTVSPost2010Prop29
280
     1
102
RTVSPost2010PropOp29
 70
     1
102
RTVSPost2010Prop30
280
     1
102
RTVSPost2010PropOp30
 70
     1
102
RTVSPost2010Prop31
280
     0
102
RTVSPost2010PropOp31
 70
     1
102
RTVSPost2010Prop32
280
     0
102
RTVSPost2010PropOp32
 70
     1
102
RTVSPost2010Prop33
280
     0
102
RTVSPost2010PropOp33
 70
     1
102
RTVSPost2010Prop34
280
     0
102
RTVSPost2010PropOp34
 70
     1
102
RTVSPost2010Prop35
280
     0
102
RTVSPost2010PropOp35
 70
     1
102
RTVSPost2010Prop36
280
     0
102
RTVSPost2010PropOp36
 70
     1
102
RTVSPost2010Prop37
 90
       50
102
RTVSPost2010PropOp37
 70
     1
102
RTVSPost2010Prop38
140
0.0
102
RTVSPost2010PropOp38
 70
     1
102
RTVSPost2010Prop39
140
1.0
102
RTVSPost2010PropOp39
 70
     1
102
RTVSPost2010Prop40
 90
        0
102
RTVSPost2010PropOp40
 70
     1
102
RTVSPost2010Prop41ColorIndex
 90
       18
102
RTVSPost2010Prop41ColorRGB
 90
        0
102
RTVSPost2010PropOp41
 70
     1
102
RTVSPost2010Prop42
 90
       50
102
RTVSPost2010PropOp42
 70
     1
102
RTVSPost2010Prop43
 90
        3
102
RTVSPost2010PropOp43
 70
     1
102
RTVSPost2010Prop44ColorIndex
 90
        5
102
RTVSPost2010Prop44ColorRGB
 90
      255
102
RTVSPost2010PropOp44
 70
     1
102
RTVSPost2010Prop45
280
     0
102
RTVSPost2010PropOp45
 70
     1
102
RTVSPost2010Prop46
 90
       50
102
RTVSPost2010PropOp46
 70
     1
102
RTVSPost2010Prop47
 90
       50
102
RTVSPost2010PropOp47
 70
     1
102
RTVSPost2010Prop48
 90
       50
102
RTVSPost2010PropOp48
 70
     1
102
RTVSPost2010Prop49
280
     0
102
RTVSPost2010PropOp49
 70
     1
102
RTVSPost2010Prop50
 90
       50
102
RTVSPost2010PropOp50
 70
     1
102
RTVSPost2010Prop51ColorIndex
 90
      256
102
RTVSPost2010Prop51ColorRGB
 90
-16777216
102
RTVSPost2010PropOp51
 70
     0
102
RTVSPost2010Prop52
140
1.0
102
RTVSPost2010PropOp52
 70
     0
102
RTVSPost2010Prop53
 90
        2
102
RTVSPost2010PropOp53
 70
     1
102
RTVSPost2010Prop54
  1
strokes_ogs.tif
102
RTVSPost2010PropOp54
 70
     1
102
RTVSPost2010Prop55
280
     0
102
RTVSPost2010PropOp55
 70
     1
102
RTVSPost2010Prop56
140
1.0
102
RTVSPost2010PropOp56
 70
     1
102
RTVSPost2010Prop57
140
1.0
102
RTVSPost2010PropOp57
 70
     1
  0
XRECORD
  5
3A0
102
{ACAD_REACTORS
330
39F
102
}
330
39F
100
AcDbXrecord
280
     1
102
RTVSPost2010Prop28
280
     0
102
RTVSPost2010PropOp28
 70
     1
102
RTVSPost2010Prop29
280
     1
102
RTVSPost2010PropOp29
 70
     1
102
RTVSPost2010Prop30
280
     1
102
RTVSPost2010PropOp30
 70
     1
102
RTVSPost2010Prop31
280
     0
102
RTVSPost2010PropOp31
 70
     1
102
RTVSPost2010Prop32
280
     0
102
RTVSPost2010PropOp32
 70
     1
102
RTVSPost2010Prop33
280
     0
102
RTVSPost2010PropOp33
 70
     1
102
RTVSPost2010Prop34
280
     0
102
RTVSPost2010PropOp34
 70
     1
102
RTVSPost2010Prop35
280
     0
102
RTVSPost2010PropOp35
 70
     1
102
RTVSPost2010Prop36
280
     0
102
RTVSPost2010PropOp36
 70
     1
102
RTVSPost2010Prop37
 90
       50
102
RTVSPost2010PropOp37
 70
     1
102
RTVSPost2010Prop38
140
0.0
102
RTVSPost2010PropOp38
 70
     1
102
RTVSPost2010Prop39
140
1.0
102
RTVSPost2010PropOp39
 70
     1
102
RTVSPost2010Prop40
 90
        0
102
RTVSPost2010PropOp40
 70
     1
102
RTVSPost2010Prop41ColorIndex
 90
       18
102
RTVSPost2010Prop41ColorRGB
 90
        0
102
RTVSPost2010PropOp41
 70
     1
102
RTVSPost2010Prop42
 90
       50
102
RTVSPost2010PropOp42
 70
     1
102
RTVSPost2010Prop43
 90
        3
102
RTVSPost2010PropOp43
 70
     1
102
RTVSPost2010Prop44ColorIndex
 90
        5
102
RTVSPost2010Prop44ColorRGB
 90
      255
102
RTVSPost2010PropOp44
 70
     1
102
RTVSPost2010Prop45
280
     0
102
RTVSPost2010PropOp45
 70
     1
102
RTVSPost2010Prop46
 90
       50
102
RTVSPost2010PropOp46
 70
     1
102
RTVSPost2010Prop47
 90
       50
102
RTVSPost2010PropOp47
 70
     1
102
RTVSPost2010Prop48
 90
       50
102
RTVSPost2010PropOp48
 70
     1
102
RTVSPost2010Prop49
280
     0
102
RTVSPost2010PropOp49
 70
     1
102
RTVSPost2010Prop50
 90
       50
102
RTVSPost2010PropOp50
 70
     1
102
RTVSPost2010Prop51ColorIndex
 90
      256
102
RTVSPost2010Prop51ColorRGB
 90
-16777216
102
RTVSPost2010PropOp51
 70
     0
102
RTVSPost2010Prop52
140
1.0
102
RTVSPost2010PropOp52
 70
     0
102
RTVSPost2010Prop53
 90
        2
102
RTVSPost2010PropOp53
 70
     1
102
RTVSPost2010Prop54
  1
strokes_ogs.tif
102
RTVSPost2010PropOp54
 70
     1
102
RTVSPost2010Prop55
280
     0
102
RTVSPost2010PropOp55
 70
     1
102
RTVSPost2010Prop56
140
1.0
102
RTVSPost2010PropOp56
 70
     1
102
RTVSPost2010Prop57
140
1.0
102
RTVSPost2010PropOp57
 70
     1
  0
XRECORD
  5
3C0
102
{ACAD_REACTORS
330
3BF
102
}
330
3BF
100
AcDbXrecord
280
     1
102
RTVSPost2010Prop28
280
     0
102
RTVSPost2010PropOp28
 70
     1
102
RTVSPost2010Prop29
280
     1
102
RTVSPost2010PropOp29
 70
     1
102
RTVSPost2010Prop30
280
     1
102
RTVSPost2010PropOp30
 70
     1
102
RTVSPost2010Prop31
280
     0
102
RTVSPost2010PropOp31
 70
     1
102
RTVSPost2010Prop32
280
     0
102
RTVSPost2010PropOp32
 70
     1
102
RTVSPost2010Prop33
280
     0
102
RTVSPost2010PropOp33
 70
     1
102
RTVSPost2010Prop34
280
     0
102
RTVSPost2010PropOp34
 70
     1
102
RTVSPost2010Prop35
280
     0
102
RTVSPost2010PropOp35
 70
     1
102
RTVSPost2010Prop36
280
     0
102
RTVSPost2010PropOp36
 70
     1
102
RTVSPost2010Prop37
 90
       50
102
RTVSPost2010PropOp37
 70
     1
102
RTVSPost2010Prop38
140
0.0
102
RTVSPost2010PropOp38
 70
     1
102
RTVSPost2010Prop39
140
1.0
102
RTVSPost2010PropOp39
 70
     1
102
RTVSPost2010Prop40
 90
        0
102
RTVSPost2010PropOp40
 70
     1
102
RTVSPost2010Prop41ColorIndex
 90
       18
102
RTVSPost2010Prop41ColorRGB
 90
        0
102
RTVSPost2010PropOp41
 70
     1
102
RTVSPost2010Prop42
 90
       50
102
RTVSPost2010PropOp42
 70
     1
102
RTVSPost2010Prop43
 90
        3
102
RTVSPost2010PropOp43
 70
     1
102
RTVSPost2010Prop44ColorIndex
 90
        5
102
RTVSPost2010Prop44ColorRGB
 90
      255
102
RTVSPost2010PropOp44
 70
     1
102
RTVSPost2010Prop45
280
     0
102
RTVSPost2010PropOp45
 70
     1
102
RTVSPost2010Prop46
 90
       50
102
RTVSPost2010PropOp46
 70
     1
102
RTVSPost2010Prop47
 90
       50
102
RTVSPost2010PropOp47
 70
     1
102
RTVSPost2010Prop48
 90
       50
102
RTVSPost2010PropOp48
 70
     1
102
RTVSPost2010Prop49
280
     0
102
RTVSPost2010PropOp49
 70
     1
102
RTVSPost2010Prop50
 90
       50
102
RTVSPost2010PropOp50
 70
     1
102
RTVSPost2010Prop51ColorIndex
 90
      256
102
RTVSPost2010Prop51ColorRGB
 90
-16777216
102
RTVSPost2010PropOp51
 70
     0
102
RTVSPost2010Prop52
140
1.0
102
RTVSPost2010PropOp52
 70
     0
102
RTVSPost2010Prop53
 90
        2
102
RTVSPost2010PropOp53
 70
     1
102
RTVSPost2010Prop54
  1
strokes_ogs.tif
102
RTVSPost2010PropOp54
 70
     1
102
RTVSPost2010Prop55
280
     0
102
RTVSPost2010PropOp55
 70
     1
102
RTVSPost2010Prop56
140
1.0
102
RTVSPost2010PropOp56
 70
     1
102
RTVSPost2010Prop57
140
1.0
102
RTVSPost2010PropOp57
 70
     1
  0
ENDSEC
  0
EOF
