  0
SECTION
  2
HEADER
  9
$ACADVER
  1
AC1024
  9
$ACADMAINTVER
 70
     6
  9
$DWGCODEPAGE
  3
ANSI_1252
  9
$INSBASE
 10
0.0
 20
0.0
 30
0.0
  9
$EXTMIN
 10
1.000000E+20
 20
1.000000E+20
 30
1.000000E+20
  9
$EXTMAX
 10
-1.000000E+20
 20
-1.000000E+20
 30
-1.000000E+20
  9
$LIMMIN
 10
0.0
 20
0.0
  9
$LIMMAX
 10
420.0
 20
297.0
  9
$ORTHOMODE
 70
     0
  9
$REGENMODE
 70
     1
  9
$FILLMODE
 70
     1
  9
$QTEXTMODE
 70
     0
  9
$MIRRTEXT
 70
     1
  9
$LTSCALE
 40
1.0
  9
$ATTMODE
 70
     1
  9
$TEXTSIZE
 40
2.5
  9
$TRACEWID
 40
1.0
  9
$TEXTSTYLE
  7
Standard
  9
$CLAYER
  8
0
  9
$CELTYPE
  6
ByLayer
  9
$CECOLOR
 62
   256
  9
$CELTSCALE
 40
1.0
  9
$DISPSILH
 70
     0
  9
$DIMSCALE
 40
1.0
  9
$DIMASZ
 40
2.5
  9
$DIMEXO
 40
0.625
  9
$DIMDLI
 40
3.75
  9
$DIMRND
 40
0.0
  9
$DIMDLE
 40
0.0
  9
$DIMEXE
 40
1.25
  9
$DIMTP
 40
0.0
  9
$DIMTM
 40
0.0
  9
$DIMTXT
 40
2.5
  9
$DIMCEN
 40
2.5
  9
$DIMTSZ
 40
0.0
  9
$DIMTOL
 70
     0
  9
$DIMLIM
 70
     0
  9
$DIMTIH
 70
     0
  9
$DIMTOH
 70
     0
  9
$DIMSE1
 70
     0
  9
$DIMSE2
 70
     0
  9
$DIMTAD
 70
     1
  9
$DIMZIN
 70
     8
  9
$DIMBLK
  1

  9
$DIMASO
 70
     1
  9
$DIMSHO
 70
     1
  9
$DIMPOST
  1

  9
$DIMAPOST
  1

  9
$DIMALT
 70
     0
  9
$DIMALTD
 70
     3
  9
$DIMALTF
 40
0.03937
  9
$DIMLFAC
 40
1.0
  9
$DIMTOFL
 70
     1
  9
$DIMTVP
 40
0.0
  9
$DIMTIX
 70
     0
  9
$DIMSOXD
 70
     0
  9
$DIMSAH
 70
     0
  9
$DIMBLK1
  1

  9
$DIMBLK2
  1

  9
$DIMSTYLE
  2
ISO-25
  9
$DIMCLRD
 70
     0
  9
$DIMCLRE
 70
     0
  9
$DIMCLRT
 70
     0
  9
$DIMTFAC
 40
1.0
  9
$DIMGAP
 40
0.625
  9
$DIMJUST
 70
     0
  9
$DIMSD1
 70
     0
  9
$DIMSD2
 70
     0
  9
$DIMTOLJ
 70
     0
  9
$DIMTZIN
 70
     8
  9
$DIMALTZ
 70
     0
  9
$DIMALTTZ
 70
     0
  9
$DIMUPT
 70
     0
  9
$DIMDEC
 70
     2
  9
$DIMTDEC
 70
     2
  9
$DIMALTU
 70
     2
  9
$DIMALTTD
 70
     3
  9
$DIMTXSTY
  7
Standard
  9
$DIMAUNIT
 70
     0
  9
$DIMADEC
 70
     0
  9
$DIMALTRND
 40
0.0
  9
$DIMAZIN
 70
     0
  9
$DIMDSEP
 70
    44
  9
$DIMATFIT
 70
     3
  9
$DIMFRAC
 70
     0
  9
$DIMLDRBLK
  1

  9
$DIMLUNIT
 70
     2
  9
$DIMLWD
 70
    -2
  9
$DIMLWE
 70
    -2
  9
$DIMTMOVE
 70
     0
  9
$DIMFXL
 40
1.0
  9
$DIMFXLON
 70
     0
  9
$DIMJOGANG
 40
0.785398
  9
$DIMTFILL
 70
     0
  9
$DIMTFILLCLR
 70
     0
  9
$DIMARCSYM
 70
     0
  9
$DIMLTYPE
  6

  9
$DIMLTEX1
  6

  9
$DIMLTEX2
  6

  9
$DIMTXTDIRECTION
 70
     0
  9
$LUNITS
 70
     2
  9
$LUPREC
 70
     4
  9
$SKETCHINC
 40
1.0
  9
$FILLETRAD
 40
10.0
  9
$AUNITS
 70
     0
  9
$AUPREC
 70
     0
  9
$MENU
  1
.
  9
$ELEVATION
 40
0.0
  9
$PELEVATION
 40
0.0
  9
$THICKNESS
 40
0.0
  9
$LIMCHECK
 70
     0
  9
$CHAMFERA
 40
0.0
  9
$CHAMFERB
 40
0.0
  9
$CHAMFERC
 40
0.0
  9
$CHAMFERD
 40
0.0
  9
$SKPOLY
 70
     0
  9
$TDCREATE
 40
2457809.470414271
  9
$TDUCREATE
 40
2457809.428747604
  9
$TDUPDATE
 40
2457809.470414988
  9
$TDUUPDATE
 40
2457809.428748322
  9
$TDINDWG
 40
0.0000000116
  9
$TDUSRTIMER
 40
0.0000000116
  9
$USRTIMER
 70
     1
  9
$ANGBASE
 50
0.0
  9
$ANGDIR
 70
     0
  9
$PDMODE
 70
     0
  9
$PDSIZE
 40
0.0
  9
$PLINEWID
 40
0.0
  9
$SPLFRAME
 70
     0
  9
$SPLINETYPE
 70
     6
  9
$SPLINESEGS
 70
     8
  9
$HANDSEED
  5
29F
  9
$SURFTAB1
 70
     6
  9
$SURFTAB2
 70
     6
  9
$SURFTYPE
 70
     6
  9
$SURFU
 70
     6
  9
$SURFV
 70
     6
  9
$UCSBASE
  2

  9
$UCSNAME
  2

  9
$UCSORG
 10
0.0
 20
0.0
 30
0.0
  9
$UCSXDIR
 10
1.0
 20
0.0
 30
0.0
  9
$UCSYDIR
 10
0.0
 20
1.0
 30
0.0
  9
$UCSORTHOREF
  2

  9
$UCSORTHOVIEW
 70
     0
  9
$UCSORGTOP
 10
0.0
 20
0.0
 30
0.0
  9
$UCSORGBOTTOM
 10
0.0
 20
0.0
 30
0.0
  9
$UCSORGLEFT
 10
0.0
 20
0.0
 30
0.0
  9
$UCSORGRIGHT
 10
0.0
 20
0.0
 30
0.0
  9
$UCSORGFRONT
 10
0.0
 20
0.0
 30
0.0
  9
$UCSORGBACK
 10
0.0
 20
0.0
 30
0.0
  9
$PUCSBASE
  2

  9
$PUCSNAME
  2

  9
$PUCSORG
 10
0.0
 20
0.0
 30
0.0
  9
$PUCSXDIR
 10
1.0
 20
0.0
 30
0.0
  9
$PUCSYDIR
 10
0.0
 20
1.0
 30
0.0
  9
$PUCSORTHOREF
  2

  9
$PUCSORTHOVIEW
 70
     0
  9
$PUCSORGTOP
 10
0.0
 20
0.0
 30
0.0
  9
$PUCSORGBOTTOM
 10
0.0
 20
0.0
 30
0.0
  9
$PUCSORGLEFT
 10
0.0
 20
0.0
 30
0.0
  9
$PUCSORGRIGHT
 10
0.0
 20
0.0
 30
0.0
  9
$PUCSORGFRONT
 10
0.0
 20
0.0
 30
0.0
  9
$PUCSORGBACK
 10
0.0
 20
0.0
 30
0.0
  9
$USERI1
 70
     0
  9
$USERI2
 70
     0
  9
$USERI3
 70
     0
  9
$USERI4
 70
     0
  9
$USERI5
 70
     0
  9
$USERR1
 40
0.0
  9
$USERR2
 40
0.0
  9
$USERR3
 40
0.0
  9
$USERR4
 40
0.0
  9
$USERR5
 40
0.0
  9
$WORLDVIEW
 70
     1
  9
$SHADEDGE
 70
     3
  9
$SHADEDIF
 70
    70
  9
$TILEMODE
 70
     1
  9
$MAXACTVP
 70
    64
  9
$PINSBASE
 10
0.0
 20
0.0
 30
0.0
  9
$PLIMCHECK
 70
     0
  9
$PEXTMIN
 10
1.000000E+20
 20
1.000000E+20
 30
1.000000E+20
  9
$PEXTMAX
 10
-1.000000E+20
 20
-1.000000E+20
 30
-1.000000E+20
  9
$PLIMMIN
 10
0.0
 20
0.0
  9
$PLIMMAX
 10
420.0
 20
297.0
  9
$UNITMODE
 70
     0
  9
$VISRETAIN
 70
     1
  9
$PLINEGEN
 70
     0
  9
$PSLTSCALE
 70
     1
  9
$TREEDEPTH
 70
  3020
  9
$CMLSTYLE
  2
Standard
  9
$CMLJUST
 70
     0
  9
$CMLSCALE
 40
20.0
  9
$PROXYGRAPHICS
 70
     1
  9
$MEASUREMENT
 70
     1
  9
$CELWEIGHT
370
    -1
  9
$ENDCAPS
280
     0
  9
$JOINSTYLE
280
     0
  9
$LWDISPLAY
290
     0
  9
$INSUNITS
 70
     4
  9
$HYPERLINKBASE
  1

  9
$STYLESHEET
  1

  9
$XEDIT
290
     1
  9
$CEPSNTYPE
380
     0
  9
$PSTYLEMODE
290
     1
  9
$FINGERPRINTGUID
  2
{E8F72ABA-5D81-468D-91F6-3443181E1A13}
  9
$VERSIONGUID
  2
{FAEB1C32-E019-11D5-929B-00C0DF256EC4}
  9
$EXTNAMES
290
     1
  9
$PSVPSCALE
 40
0.0
  9
$OLESTARTUP
290
     0
  9
$SORTENTS
280
   127
  9
$INDEXCTL
280
     0
  9
$HIDETEXT
280
     1
  9
$XCLIPFRAME
280
     2
  9
$HALOGAP
280
     0
  9
$OBSCOLOR
 70
   257
  9
$OBSLTYPE
280
     0
  9
$INTERSECTIONDISPLAY
280
     0
  9
$INTERSECTIONCOLOR
 70
   257
  9
$DIMASSOC
280
     2
  9
$PROJECTNAME
  1

  9
$CAMERADISPLAY
290
     0
  9
$LENSLENGTH
 40
50.0
  9
$CAMERAHEIGHT
 40
0.0
  9
$STEPSPERSEC
 40
2.0
  9
$STEPSIZE
 40
6.0
  9
$3DDWFPREC
 40
2.0
  9
$PSOLWIDTH
 40
5.0
  9
$PSOLHEIGHT
 40
80.0
  9
$LOFTANG1
 40
1.570796
  9
$LOFTANG2
 40
1.570796
  9
$LOFTMAG1
 40
0.0
  9
$LOFTMAG2
 40
0.0
  9
$LOFTPARAM
 70
     7
  9
$LOFTNORMALS
280
     1
  9
$LATITUDE
 40
37.795
  9
$LONGITUDE
 40
-122.394
  9
$NORTHDIRECTION
 40
0.0
  9
$TIMEZONE
 70
 -8000
  9
$LIGHTGLYPHDISPLAY
280
     1
  9
$TILEMODELIGHTSYNCH
280
     1
  9
$CMATERIAL
347
44
  9
$SOLIDHIST
280
     0
  9
$SHOWHIST
280
     1
  9
$DWFFRAME
280
     2
  9
$DGNFRAME
280
     2
  9
$REALWORLDSCALE
290
     1
  9
$INTERFERECOLOR
 62
   256
  9
$CSHADOW
280
     0
  9
$SHADOWPLANELOCATION
 40
0.0
  0
ENDSEC
  0
SECTION
  2
CLASSES
  0
CLASS
  1
ACDBDICTIONARYWDFLT
  2
AcDbDictionaryWithDefault
  3
ObjectDBX Classes
 90
        0
 91
        4
280
     0
281
     0
  0
CLASS
  1
VISUALSTYLE
  2
AcDbVisualStyle
  3
ObjectDBX Classes
 90
     4095
 91
        4
280
     0
281
     0
  0
CLASS
  1
MATERIAL
  2
AcDbMaterial
  3
ObjectDBX Classes
 90
     1153
 91
        4
280
     0
281
     0
  0
CLASS
  1
SCALE
  2
AcDbScale
  3
ObjectDBX Classes
 90
     1153
 91
        4
280
     0
281
     0
  0
CLASS
  1
TABLESTYLE
  2
AcDbTableStyle
  3
ObjectDBX Classes
 90
     4095
 91
        4
280
     0
281
     0
  0
CLASS
  1
MLEADERSTYLE
  2
AcDbMLeaderStyle
  3
ACDB_MLEADERSTYLE_CLASS
 90
     4095
 91
        4
280
     0
281
     0
  0
CLASS
  1
SUN
  2
AcDbSun
  3
SCENEOE
 90
     1153
 91
        4
280
     0
281
     0
  0
CLASS
  1
DICTIONARYVAR
  2
AcDbDictionaryVar
  3
ObjectDBX Classes
 90
        0
 91
        4
280
     0
281
     0
  0
CLASS
  1
CELLSTYLEMAP
  2
AcDbCellStyleMap
  3
ObjectDBX Classes
 90
     1152
 91
        4
280
     0
281
     0
  0
ENDSEC
  0
SECTION
  2
TABLES
  0
TABLE
  2
VPORT
  5
8
330
0
100
AcDbSymbolTable
 70
     1
  0
VPORT
  5
29
330
8
100
AcDbSymbolTableRecord
100
AcDbViewportTableRecord
  2
*Active
 70
     0
 10
0.0
 20
0.0
 11
1.0
 21
1.0
 12
344.186916
 22
148.5
 13
0.0
 23
0.0
 14
10.0
 24
10.0
 15
10.0
 25
10.0
 16
0.0
 26
0.0
 36
1.0
 17
0.0
 27
0.0
 37
0.0
 40
297.0
 41
1.972973
 42
50.0
 43
0.0
 44
0.0
 50
0.0
 51
0.0
 71
     0
 72
   100
 73
     1
 74
     3
 75
     0
 76
     0
 77
     0
 78
     0
281
     0
 65
     1
110
0.0
120
0.0
130
0.0
111
1.0
121
0.0
131
0.0
112
0.0
122
1.0
132
0.0
 79
     0
146
0.0
348
2F
 60
     3
 61
     5
292
     1
282
     1
141
0.0
142
0.0
 63
   250
361
6D
  0
ENDTAB
  0
TABLE
  2
LTYPE
  5
5
330
0
100
AcDbSymbolTable
 70
     1
  0
LTYPE
  5
14
330
5
100
AcDbSymbolTableRecord
100
AcDbLinetypeTableRecord
  2
ByBlock
 70
     0
  3

 72
    65
 73
     0
 40
0.0
  0
LTYPE
  5
15
330
5
100
AcDbSymbolTableRecord
100
AcDbLinetypeTableRecord
  2
ByLayer
 70
     0
  3

 72
    65
 73
     0
 40
0.0
  0
LTYPE
  5
16
330
5
100
AcDbSymbolTableRecord
100
AcDbLinetypeTableRecord
  2
Continuous
 70
     0
  3
Solid line
 72
    65
 73
     0
 40
0.0
  0
ENDTAB
  0
TABLE
  2
LAYER
  5
2
330
0
100
AcDbSymbolTable
 70
     1
  0
LAYER
  5
10
330
2
100
AcDbSymbolTableRecord
100
AcDbLayerTableRecord
  2
0
 70
     0
 62
   106
  6
Continuous
370
     0
390
F
347
46
  0
ENDTAB
  0
TABLE
  2
STYLE
  5
3
330
0
100
AcDbSymbolTable
 70
     4
  0
STYLE
  5
11
330
3
100
AcDbSymbolTableRecord
100
AcDbTextStyleTableRecord
  2
Standard
 70
     0
 40
0.0
 41
1.0
 50
0.0
 71
     0
 42
2.5
  3
txt
  4

  0
STYLE
  5
6E
330
3
100
AcDbSymbolTableRecord
100
AcDbTextStyleTableRecord
  2
Default
 70
     0
 40
0.0
 41
1.0
 50
0.0
 71
     0
 42
2.5
  3

  4

1001
ACAD
1000
txt
1071
        0
  0
STYLE
  5
6F
330
3
100
AcDbSymbolTableRecord
100
AcDbTextStyleTableRecord
  2
ISO
 70
     0
 40
0.0
 41
1.0
 50
0.0
 71
     0
 42
2.5
  3

  4

1001
ACAD
1000
txt
1071
        0
  0
STYLE
  5
70
330
3
100
AcDbSymbolTableRecord
100
AcDbTextStyleTableRecord
  2
zucchetti
 70
     0
 40
0.0
 41
1.0
 50
0.0
 71
     0
 42
2.5
  3

  4

1001
ACAD
1000
Arial
1071
        0
  0
ENDTAB
  0
TABLE
  2
VIEW
  5
6
330
0
100
AcDbSymbolTable
 70
     0
  0
ENDTAB
  0
TABLE
  2
UCS
  5
7
330
0
100
AcDbSymbolTable
 70
     0
  0
ENDTAB
  0
TABLE
  2
APPID
  5
9
330
0
100
AcDbSymbolTable
 70
     1
  0
APPID
  5
12
330
9
100
AcDbSymbolTableRecord
100
AcDbRegAppTableRecord
  2
ACAD
 70
     0
  0
ENDTAB
  0
TABLE
  2
DIMSTYLE
  5
A
330
0
100
AcDbSymbolTable
 70
     4
100
AcDbDimStyleTable
  0
DIMSTYLE
105
27
330
A
100
AcDbSymbolTableRecord
100
AcDbDimStyleTableRecord
  2
ISO-25
 70
     0
 41
2.5
 42
0.625
 43
3.75
 44
1.25
 73
     0
 74
     0
 77
     1
 78
     8
140
2.5
141
2.5
143
0.03937
147
0.625
171
     3
172
     1
178
     0
271
     2
272
     2
274
     3
278
    44
283
     0
284
     8
340
11
  0
DIMSTYLE
105
71
330
A
100
AcDbSymbolTableRecord
100
AcDbDimStyleTableRecord
  2
Default
 70
     0
  3
<>
 41
4.375
 42
1.05
 44
2.1
 49
10.01
 73
     0
 74
     0
 77
     1
 78
     8
140
3.5
146
0.4
147
1.75
172
     1
271
     2
178
     3
271
     2
272
     3
284
     8
340
6E
341
72
342
72
  0
DIMSTYLE
105
79
330
A
100
AcDbSymbolTableRecord
100
AcDbDimStyleTableRecord
  2
ISO
 70
     0
  3
<>
 41
4.375
 42
1.05
 44
2.1
 49
10.01
 73
     0
 74
     0
 77
     1
 78
     8
140
3.5
146
0.4
147
1.75
172
     1
271
     2
178
     3
271
     2
272
     3
284
     8
340
6F
341
72
342
72
  0
DIMSTYLE
105
7A
330
A
100
AcDbSymbolTableRecord
100
AcDbDimStyleTableRecord
  2
zucchetti
 70
     0
  3
<>
 41
3.0
 42
0.9
 44
1.8
 49
8.58
 73
     0
 74
     0
 77
     1
 78
     8
140
3.0
146
0.6
147
1.5
172
     1
176
     3
177
     3
271
     2
178
     3
271
     2
272
     2
284
     8
340
70
  0
ENDTAB
  0
TABLE
  2
BLOCK_RECORD
  5
1
330
0
100
AcDbSymbolTable
 70
     7
  0
BLOCK_RECORD
  5
1F
330
1
100
AcDbSymbolTableRecord
100
AcDbBlockTableRecord
  2
*Model_Space
340
22
 70
     0
280
     1
281
     0
  0
BLOCK_RECORD
  5
1B
330
1
100
AcDbSymbolTableRecord
100
AcDbBlockTableRecord
  2
*Paper_Space
340
1E
 70
     0
280
     1
281
     0
  0
BLOCK_RECORD
  5
23
330
1
100
AcDbSymbolTableRecord
100
AcDbBlockTableRecord
  2
*Paper_Space0
340
26
 70
     0
280
     1
281
     0
  0
BLOCK_RECORD
  5
72
330
1
100
AcDbSymbolTableRecord
100
AcDbBlockTableRecord
  2
_CLOSED
340
0
 70
     0
280
     1
281
     0
  0
BLOCK_RECORD
  5
7B
330
1
100
AcDbSymbolTableRecord
100
AcDbBlockTableRecord
  2
a
340
0
102
{BLKREFS
331
DC
102
}
 70
     0
280
     1
281
     0
  0
BLOCK_RECORD
  5
DD
330
1
100
AcDbSymbolTableRecord
100
AcDbBlockTableRecord
  2
b
340
0
102
{BLKREFS
331
14D
102
}
 70
     0
280
     1
281
     0
  0
BLOCK_RECORD
  5
14E
330
1
100
AcDbSymbolTableRecord
100
AcDbBlockTableRecord
  2
c
340
0
102
{BLKREFS
331
1A3
102
}
 70
     0
280
     1
281
     0
  0
BLOCK_RECORD
  5
1A4
330
1
100
AcDbSymbolTableRecord
100
AcDbBlockTableRecord
  2
d
340
0
102
{BLKREFS
331
25D
102
}
 70
     0
280
     1
281
     0
  0
BLOCK_RECORD
  5
25E
330
1
100
AcDbSymbolTableRecord
100
AcDbBlockTableRecord
  2
e
340
0
102
{BLKREFS
331
265
102
}
 70
     0
280
     1
281
     0
  0
ENDTAB
  0
ENDSEC
  0
SECTION
  2
BLOCKS
  0
BLOCK
  5
20
330
1F
100
AcDbEntity
  8
0
100
AcDbBlockBegin
  2
*Model_Space
 70
     0
 10
0.0
 20
0.0
 30
0.0
  3
*Model_Space
  1

  0
ENDBLK
  5
21
330
1F
100
AcDbEntity
  8
0
100
AcDbBlockEnd
  0
BLOCK
  5
1C
330
1B
100
AcDbEntity
 67
     1
  8
0
100
AcDbBlockBegin
  2
*Paper_Space
 70
     0
 10
0.0
 20
0.0
 30
0.0
  3
*Paper_Space
  1

  0
ENDBLK
  5
1D
330
1B
100
AcDbEntity
 67
     1
  8
0
100
AcDbBlockEnd
  0
BLOCK
  5
24
330
23
100
AcDbEntity
  8
0
100
AcDbBlockBegin
  2
*Paper_Space0
 70
     0
 10
0.0
 20
0.0
 30
0.0
  3
*Paper_Space0
  1

  0
ENDBLK
  5
25
330
23
100
AcDbEntity
  8
0
100
AcDbBlockEnd
  0
BLOCK
  5
73
330
72
100
AcDbEntity
  8
0
100
AcDbBlockBegin
  2
_CLOSED
 70
     0
 10
0.0
 20
0.0
 30
0.0
  3
_CLOSED
  1

  0
LINE
  5
75
330
72
100
AcDbEntity
  8
0
  6
ByBlock
 62
     0
370
    -2
100
AcDbLine
 10
-1.0
 20
0.166667
 30
0.0
 11
0.0
 21
0.0
 31
0.0
  0
LINE
  5
76
330
72
100
AcDbEntity
  8
0
  6
ByBlock
 62
     0
370
    -2
100
AcDbLine
 10
0.0
 20
0.0
 30
0.0
 11
-1.0
 21
-0.166667
 31
0.0
  0
LINE
  5
77
330
72
100
AcDbEntity
  8
0
  6
ByBlock
 62
     0
370
    -2
100
AcDbLine
 10
-1.0
 20
0.166667
 30
0.0
 11
-1.0
 21
-0.166667
 31
0.0
  0
LINE
  5
78
330
72
100
AcDbEntity
  8
0
  6
ByBlock
 62
     0
370
    -2
100
AcDbLine
 10
0.0
 20
0.0
 30
0.0
 11
-1.0
 21
0.0
 31
0.0
  0
ENDBLK
  5
74
330
72
100
AcDbEntity
  8
0
100
AcDbBlockEnd
  0
BLOCK
  5
DA
330
7B
100
AcDbEntity
  8
0
100
AcDbBlockBegin
  2
a
 70
     0
 10
65.788673
 20
62.557575
 30
0.0
  3
a
  1

  0
LWPOLYLINE
  5
7C
330
7B
100
AcDbEntity
  8
0
  6
Continuous
 62
     0
370
    30
100
AcDbPolyline
 90
       60
 70
     0
 43
0.0
 10
161.545486
 20
255.540466
 10
161.545502
 20
254.123581
 10
161.545502
 20
252.689056
 10
161.545517
 20
251.241013
 10
161.545517
 20
249.7836
 10
161.545517
 20
248.320953
 10
161.545517
 20
246.857239
 10
161.545517
 20
245.396561
 10
161.545517
 20
243.943039
 10
161.545502
 20
242.500748
 10
161.545502
 20
241.073792
 10
161.545486
 20
239.666229
 10
161.545471
 20
238.282181
 10
161.545456
 20
236.925613
 10
161.545441
 20
235.600189
 10
161.545425
 20
234.30957
 10
161.545395
 20
233.057388
 10
161.54538
 20
231.847321
 10
161.545349
 20
230.682968
 10
161.545319
 20
229.567749
 10
161.545288
 20
228.504501
 10
161.545258
 20
227.496109
 10
161.545227
 20
226.54541
 10
161.545197
 20
225.655243
 10
161.545166
 20
224.828445
 10
161.545135
 20
224.067398
 10
161.54509
 20
223.373917
 10
161.545059
 20
222.749756
 10
161.545013
 20
222.196701
 10
161.544983
 20
221.716492
 10
161.544937
 20
221.310883
 10
161.544891
 20
220.981018
 10
161.544861
 20
220.727417
 10
161.544815
 20
220.550629
 10
161.544769
 20
220.451141
 10
161.544739
 20
220.429489
 10
161.544693
 20
220.486115
 10
161.544647
 20
220.620804
 10
161.544617
 20
220.832779
 10
161.544571
 20
221.121246
 10
161.544525
 20
221.485413
 10
161.544495
 20
221.924484
 10
161.544449
 20
222.437622
 10
161.544418
 20
223.023224
 10
161.544373
 20
223.679306
 10
161.544342
 20
224.403839
 10
161.544312
 20
225.194809
 10
161.544266
 20
226.050201
 10
161.544235
 20
226.967941
 10
161.544205
 20
227.945251
 10
161.544174
 20
228.979095
 10
161.544144
 20
230.066422
 10
161.544128
 20
231.204193
 10
161.544098
 20
232.389343
 10
161.544083
 20
233.618744
 10
161.544052
 20
234.888809
 10
161.544037
 20
236.195786
 10
161.544022
 20
237.535889
 10
161.544006
 20
238.905396
 10
161.543991
 20
240.315201
  0
LWPOLYLINE
  5
7D
330
7B
100
AcDbEntity
  8
0
  6
Continuous
 62
     0
370
    30
100
AcDbPolyline
 90
       26
 70
     0
 43
0.0
 10
161.544739
 20
275.427826
 10
161.544785
 20
275.397339
 10
161.544815
 20
275.29306
 10
161.544861
 20
275.115601
 10
161.544907
 20
274.865692
 10
161.544937
 20
274.544067
 10
161.544983
 20
274.151459
 10
161.545013
 20
273.688568
 10
161.545059
 20
273.156433
 10
161.54509
 20
272.556824
 10
161.54512
 20
271.891571
 10
161.545166
 20
271.162537
 10
161.545197
 20
270.371521
 10
161.545227
 20
269.520386
 10
161.545258
 20
268.611237
 10
161.545288
 20
267.646698
 10
161.545319
 20
266.629578
 10
161.545334
 20
265.562683
 10
161.545364
 20
264.448792
 10
161.545395
 20
263.29071
 10
161.54541
 20
262.091339
 10
161.545425
 20
260.854034
 10
161.545441
 20
259.582214
 10
161.545456
 20
258.279358
 10
161.545471
 20
256.948914
 10
161.545486
 20
255.540466
  0
LINE
  5
7E
330
7B
100
AcDbEntity
  8
0
  6
Continuous
 62
     0
370
     0
100
AcDbLine
 10
155.021483
 20
255.540463
 30
0.0
 11
155.020735
 21
220.42783
 31
0.0
  0
LINE
  5
7F
330
7B
100
AcDbEntity
  8
0
  6
Continuous
 62
     0
370
     0
100
AcDbLine
 10
155.020735
 20
275.42783
 30
0.0
 11
155.021483
 21
255.540463
 31
0.0
  0
LINE
  5
80
330
7B
100
AcDbEntity
  8
0
  6
Continuous
 62
     0
370
     0
100
AcDbLine
 10
154.522514
 20
255.41099
 30
0.0
 11
154.521778
 21
220.895541
 31
0.0
  0
LWPOLYLINE
  5
81
330
7B
100
AcDbEntity
  8
0
  6
Continuous
 62
     0
370
     0
100
AcDbPolyline
 90
       26
 70
     0
 43
0.0
 10
154.521774
 20
274.960114
 10
154.52182
 20
274.925995
 10
154.521851
 20
274.820862
 10
154.521896
 20
274.642761
 10
154.521942
 20
274.390228
 10
154.521973
 20
274.062408
 10
154.522018
 20
273.659058
 10
154.522049
 20
273.180603
 10
154.522095
 20
272.628052
 10
154.522125
 20
272.003143
 10
154.522156
 20
271.308258
 10
154.522202
 20
270.546326
 10
154.522232
 20
269.720917
 10
154.522263
 20
268.83609
 10
154.522293
 20
267.896362
 10
154.522324
 20
266.906616
 10
154.522354
 20
265.872009
 10
154.522369
 20
264.798004
 10
154.5224
 20
263.690125
 10
154.522415
 20
262.553986
 10
154.522446
 20
261.395142
 10
154.522461
 20
260.219086
 10
154.522476
 20
259.031097
 10
154.522491
 20
257.836334
 10
154.522507
 20
256.639587
 10
154.522507
 20
255.410995
  0
LINE
  5
82
330
7B
100
AcDbEntity
  8
0
  6
Continuous
 62
     0
370
     0
100
AcDbLine
 10
146.7613
 20
252.695648
 30
0.0
 11
146.760831
 21
230.704483
 31
0.0
  0
LWPOLYLINE
  5
83
330
7B
100
AcDbEntity
  8
0
  6
Continuous
 62
     0
370
     0
100
AcDbPolyline
 90
       21
 70
     0
 43
0.0
 10
146.760834
 20
265.151184
 10
146.760864
 20
265.116547
 10
146.760895
 20
265.010834
 10
146.760925
 20
264.831818
 10
146.760956
 20
264.578125
 10
146.760986
 20
264.24942
 10
146.761017
 20
263.846252
 10
146.761047
 20
263.37027
 10
146.761078
 20
262.824097
 10
146.761108
 20
262.211334
 10
146.761124
 20
261.536469
 10
146.761154
 20
260.804718
 10
146.761185
 20
260.022034
 10
146.7612
 20
259.194763
 10
146.761215
 20
258.329681
 10
146.76123
 20
257.433685
 10
146.761261
 20
256.513702
 10
146.761261
 20
255.576569
 10
146.761276
 20
254.62883
 10
146.761292
 20
253.676712
 10
146.761307
 20
252.695648
  0
LINE
  5
84
330
7B
100
AcDbEntity
  8
0
  6
Continuous
 62
     0
370
     0
100
AcDbLine
 10
135.545085
 20
251.4158
 30
0.0
 11
135.544743
 21
260.52783
 31
0.0
  0
LWPOLYLINE
  5
85
330
7B
100
AcDbEntity
  8
0
  6
Continuous
 62
     0
370
     0
100
AcDbPolyline
 90
       25
 70
     0
 43
0.0
 10
135.544739
 20
235.327835
 10
135.544769
 20
235.363037
 10
135.5448
 20
235.467743
 10
135.544815
 20
235.636307
 10
135.544846
 20
235.862686
 10
135.544876
 20
236.152054
 10
135.544891
 20
236.511414
 10
135.544922
 20
236.942932
 10
135.544937
 20
237.447601
 10
135.544968
 20
238.025085
 10
135.544983
 20
238.673615
 10
135.544998
 20
239.389862
 10
135.545029
 20
240.169006
 10
135.545044
 20
241.004745
 10
135.545059
 20
241.889465
 10
135.545074
 20
242.814484
 10
135.545074
 20
243.77034
 10
135.54509
 20
244.747055
 10
135.54509
 20
245.734543
 10
135.545105
 20
246.72287
 10
135.545105
 20
247.702637
 10
135.545105
 20
248.665176
 10
135.54509
 20
249.602768
 10
135.54509
 20
250.508774
 10
135.54509
 20
251.415802
  0
LINE
  5
86
330
7B
100
AcDbEntity
  8
0
  6
Continuous
 62
     0
370
     0
100
AcDbLine
 10
136.898943
 20
251.860972
 30
0.0
 11
136.898548
 21
262.13284
 31
0.0
  0
LWPOLYLINE
  5
87
330
7B
100
AcDbEntity
  8
0
  6
Continuous
 62
     0
370
     0
100
AcDbPolyline
 90
       26
 70
     0
 43
0.0
 10
136.89856
 20
233.719681
 10
136.89859
 20
233.757584
 10
136.898621
 20
233.867874
 10
136.898636
 20
234.044937
 10
136.898666
 20
234.282578
 10
136.898697
 20
234.583862
 10
136.898727
 20
234.957397
 10
136.898743
 20
235.405548
 10
136.898773
 20
235.929611
 10
136.898804
 20
236.529648
 10
136.898819
 20
237.204346
 10
136.898849
 20
237.950958
 10
136.898865
 20
238.765274
 10
136.89888
 20
239.641632
 10
136.898895
 20
240.573029
 10
136.898911
 20
241.551346
 10
136.898926
 20
242.56752
 10
136.898941
 20
243.611847
 10
136.898941
 20
244.674286
 10
136.898956
 20
245.744797
 10
136.898956
 20
246.813583
 10
136.898956
 20
247.871399
 10
136.898956
 20
248.909775
 10
136.898956
 20
249.921158
 10
136.898956
 20
250.899094
 10
136.898941
 20
251.860977
  0
LINE
  5
88
330
7B
100
AcDbEntity
  8
0
  6
Continuous
 62
     0
370
    30
100
AcDbLine
 10
129.338942
 20
239.177695
 30
0.0
 11
129.338942
 21
247.927695
 31
0.0
  0
LINE
  5
89
330
7B
100
AcDbEntity
  8
0
  6
Continuous
 62
     0
370
    30
100
AcDbLine
 10
129.338942
 20
247.927695
 30
0.0
 11
129.338942
 21
256.677695
 31
0.0
  0
LINE
  5
8A
330
7B
100
AcDbEntity
  8
0
  6
Continuous
 62
     0
370
    30
100
AcDbLine
 10
131.838942
 20
236.427695
 30
0.0
 11
131.838942
 21
242.927695
 31
0.0
  0
LINE
  5
8B
330
7B
100
AcDbEntity
  8
0
  6
Continuous
 62
     0
370
    30
100
AcDbLine
 10
131.838942
 20
242.927695
 30
0.0
 11
131.548342
 21
242.927695
 31
0.0
  0
ARC
  5
8C
330
7B
100
AcDbEntity
  8
0
  6
Continuous
 62
     0
370
    30
100
AcDbCircle
 10
142.6612
 20
247.927695
 30
0.0
 40
12.18587802588321
100
AcDbArc
 50
155.775626
 51
204.224374
  0
LINE
  5
8D
330
7B
100
AcDbEntity
  8
0
  6
Continuous
 62
     0
370
    30
100
AcDbLine
 10
131.548342
 20
252.927695
 30
0.0
 11
131.838942
 21
252.927695
 31
0.0
  0
LINE
  5
8E
330
7B
100
AcDbEntity
  8
0
  6
Continuous
 62
     0
370
    30
100
AcDbLine
 10
131.838942
 20
252.927695
 30
0.0
 11
131.838942
 21
259.427695
 31
0.0
  0
LINE
  5
8F
330
7B
100
AcDbEntity
  8
0
  6
Continuous
 62
     0
370
    30
100
AcDbLine
 10
131.838942
 20
252.927695
 30
0.0
 11
133.838942
 21
252.927695
 31
0.0
  0
LINE
  5
90
330
7B
100
AcDbEntity
  8
0
  6
Continuous
 62
     0
370
    30
100
AcDbLine
 10
133.838942
 20
252.927695
 30
0.0
 11
133.838942
 21
242.927695
 31
0.0
  0
LINE
  5
91
330
7B
100
AcDbEntity
  8
0
  6
Continuous
 62
     0
370
    30
100
AcDbLine
 10
133.838942
 20
242.927695
 30
0.0
 11
131.838942
 21
242.927695
 31
0.0
  0
LINE
  5
92
330
7B
100
AcDbEntity
  8
0
  6
Continuous
 62
     0
370
     0
100
AcDbLine
 10
95.338942
 20
247.927695
 30
0.0
 11
95.338942
 21
263.427695
 31
0.0
  0
LINE
  5
93
330
7B
100
AcDbEntity
  8
0
  6
Continuous
 62
     0
370
     0
100
AcDbLine
 10
95.338942
 20
232.427695
 30
0.0
 11
95.338942
 21
247.927695
 31
0.0
  0
LINE
  5
94
330
7B
100
AcDbEntity
  8
0
  6
Continuous
 62
     0
370
     0
100
AcDbLine
 10
95.338942
 20
235.157575
 30
0.0
 11
95.338942
 21
232.427695
 31
0.0
  0
LINE
  5
95
330
7B
100
AcDbEntity
  8
0
  6
Continuous
 62
     0
370
     0
100
AcDbLine
 10
95.838942
 20
231.927695
 30
0.0
 11
95.838942
 21
247.927695
 31
0.0
  0
LINE
  5
96
330
7B
100
AcDbEntity
  8
0
  6
Continuous
 62
     0
370
     0
100
AcDbLine
 10
95.838942
 20
247.927695
 30
0.0
 11
95.838942
 21
263.927695
 31
0.0
  0
LINE
  5
97
330
7B
100
AcDbEntity
  8
0
  6
Continuous
 62
     0
370
    30
100
AcDbLine
 10
93.338942
 20
235.908025
 30
0.0
 11
93.338942
 21
237.947366
 31
0.0
  0
ARC
  5
98
330
7B
100
AcDbEntity
  8
0
  6
Continuous
 62
     0
370
    30
100
AcDbCircle
 10
93.638942
 20
235.908025
 30
0.0
 40
0.3000000119187258
100
AcDbArc
 50
180.0
 51
264.0
  0
LINE
  5
99
330
7B
100
AcDbEntity
  8
0
  6
Continuous
 62
     0
370
     0
100
AcDbLine
 10
93.607583
 20
235.609668
 30
0.0
 11
93.607583
 21
238.18318
 31
0.0
  0
LWPOLYLINE
  5
9A
330
7B
100
AcDbEntity
  8
0
  6
Continuous
 62
     0
370
     0
100
AcDbPolyline
 90
       13
 70
     0
 43
0.0
 10
93.607582
 20
256.946289
 10
93.607582
 20
256.983185
 10
93.607582
 20
257.095245
 10
93.607582
 20
257.274841
 10
93.607582
 20
257.503204
 10
93.607582
 20
257.756317
 10
93.607582
 20
258.025604
 10
93.607582
 20
258.32486
 10
93.607582
 20
258.634583
 10
93.607582
 20
258.928314
 10
93.607582
 20
259.18042
 10
93.607582
 20
259.373199
 10
93.607582
 20
259.502869
  0
LWPOLYLINE
  5
9B
330
7B
100
AcDbEntity
  8
0
  6
Continuous
 62
     0
370
     0
100
AcDbPolyline
 90
       14
 70
     0
 43
0.0
 10
95.070297
 20
256.792542
 10
95.070297
 20
256.827454
 10
95.070297
 20
256.933777
 10
95.070297
 20
257.106201
 10
95.070297
 20
257.329803
 10
95.070297
 20
257.584198
 10
95.070297
 20
257.850891
 10
95.070297
 20
258.144592
 10
95.070297
 20
258.460052
 10
95.070297
 20
258.77652
 10
95.070297
 20
259.070312
 10
95.070297
 20
259.32019
 10
95.070297
 20
259.512268
 10
95.070297
 20
259.647308
  0
LINE
  5
9C
330
7B
100
AcDbEntity
  8
0
  6
Continuous
 62
     0
370
     0
100
AcDbLine
 10
93.607583
 20
252.109668
 30
0.0
 11
93.607583
 21
254.086709
 31
0.0
  0
LINE
  5
9D
330
7B
100
AcDbEntity
  8
0
  6
Continuous
 62
     0
370
     0
100
AcDbLine
 10
93.607583
 20
254.086709
 30
0.0
 11
93.607583
 21
254.745722
 31
0.0
  0
LINE
  5
9E
330
7B
100
AcDbEntity
  8
0
  6
Continuous
 62
     0
370
     0
100
AcDbLine
 10
95.0703
 20
254.163578
 30
0.0
 11
95.0703
 21
254.89946
 31
0.0
  0
LWPOLYLINE
  5
9F
330
7B
100
AcDbEntity
  8
0
  6
Continuous
 62
     0
370
     0
100
AcDbPolyline
 90
       11
 70
     0
 43
0.0
 10
95.070297
 20
251.955933
 10
95.070297
 20
251.989029
 10
95.070297
 20
252.080643
 10
95.070297
 20
252.218109
 10
95.070297
 20
252.409317
 10
95.070297
 20
252.654831
 10
95.070297
 20
252.944061
 10
95.070297
 20
253.258759
 10
95.070297
 20
253.576477
 10
95.070297
 20
253.875732
 10
95.070297
 20
254.163574
  0
LWPOLYLINE
  5
A0
330
7B
100
AcDbEntity
  8
0
  6
Continuous
 62
     0
370
     0
100
AcDbPolyline
 90
        7
 70
     0
 43
0.0
 10
93.607582
 20
244.699539
 10
93.607582
 20
244.734634
 10
93.607582
 20
244.833679
 10
93.607582
 20
244.997681
 10
93.607582
 20
245.22113
 10
93.607582
 20
245.487076
 10
93.607582
 20
245.788696
  0
LINE
  5
A1
330
7B
100
AcDbEntity
  8
0
  6
Continuous
 62
     0
370
     0
100
AcDbLine
 10
93.607583
 20
245.788692
 30
0.0
 11
93.607583
 21
247.335592
 31
0.0
  0
LINE
  5
A2
330
7B
100
AcDbEntity
  8
0
  6
Continuous
 62
     0
370
     0
100
AcDbLine
 10
95.0703
 20
245.761996
 30
0.0
 11
95.0703
 21
247.48933
 31
0.0
  0
LWPOLYLINE
  5
A3
330
7B
100
AcDbEntity
  8
0
  6
Continuous
 62
     0
370
     0
100
AcDbPolyline
 90
        8
 70
     0
 43
0.0
 10
95.070297
 20
244.545807
 10
95.070297
 20
244.573837
 10
95.070297
 20
244.653244
 10
95.070297
 20
244.783325
 10
95.070297
 20
244.964355
 10
95.070297
 20
245.188599
 10
95.070297
 20
245.442963
 10
95.070297
 20
245.761993
  0
LINE
  5
A4
330
7B
100
AcDbEntity
  8
0
  6
Continuous
 62
     0
370
     0
100
AcDbLine
 10
93.607583
 20
238.18318
 30
0.0
 11
93.607583
 21
238.491539
 31
0.0
  0
LINE
  5
A5
330
7B
100
AcDbEntity
  8
0
  6
Continuous
 62
     0
370
     0
100
AcDbLine
 10
93.607583
 20
238.491539
 30
0.0
 11
93.607583
 21
240.819233
 31
0.0
  0
LINE
  5
A6
330
7B
100
AcDbEntity
  8
0
  6
Continuous
 62
     0
370
     0
100
AcDbLine
 10
95.0703
 20
238.373769
 30
0.0
 11
95.0703
 21
240.972971
 31
0.0
  0
LINE
  5
A7
330
7B
100
AcDbEntity
  8
0
  6
Continuous
 62
     0
370
     0
100
AcDbLine
 10
95.0703
 20
238.029442
 30
0.0
 11
95.0703
 21
238.373769
 31
0.0
  0
LINE
  5
A8
330
7B
100
AcDbEntity
  8
0
  6
Continuous
 62
     0
370
    30
100
AcDbLine
 10
95.0703
 20
235.455931
 30
0.0
 11
93.607583
 21
235.609668
 31
0.0
  0
LINE
  5
A9
330
7B
100
AcDbEntity
  8
0
  6
Continuous
 62
     0
370
     0
100
AcDbLine
 10
95.0703
 20
235.455931
 30
0.0
 11
95.0703
 21
238.029442
 31
0.0
  0
LINE
  5
AA
330
7B
100
AcDbEntity
  8
0
  6
Continuous
 62
     0
370
    30
100
AcDbLine
 10
93.338942
 20
257.306138
 30
0.0
 11
93.338942
 21
259.283984
 31
0.0
  0
LINE
  5
AB
330
7B
100
AcDbEntity
  8
0
  6
Continuous
 62
     0
370
    30
100
AcDbLine
 10
93.338942
 20
252.408025
 30
0.0
 11
93.338942
 21
252.91786
 31
0.0
  0
LINE
  5
AC
330
7B
100
AcDbEntity
  8
0
  6
Continuous
 62
     0
370
    30
100
AcDbLine
 10
93.338942
 20
252.91786
 30
0.0
 11
93.338942
 21
254.447366
 31
0.0
  0
LWPOLYLINE
  5
AD
330
7B
100
AcDbEntity
  8
0
  6
Continuous
 62
     0
370
    30
100
AcDbPolyline
 90
        8
 70
     0
 43
0.0
 10
93.338943
 20
244.997894
 10
93.338943
 20
245.024246
 10
93.338943
 20
245.105423
 10
93.338943
 20
245.246826
 10
93.338943
 20
245.442978
 10
93.338943
 20
245.676895
 10
93.338943
 20
245.92453
 10
93.338943
 20
246.194626
  0
LINE
  5
AE
330
7B
100
AcDbEntity
  8
0
  6
Continuous
 62
     0
370
    30
100
AcDbLine
 10
93.338942
 20
246.194629
 30
0.0
 11
93.338942
 21
247.037236
 31
0.0
  0
LWPOLYLINE
  5
AF
330
7B
100
AcDbEntity
  8
0
  6
Continuous
 62
     0
370
    30
100
AcDbPolyline
 90
       11
 70
     0
 43
0.0
 10
93.338943
 20
238.481537
 10
93.338943
 20
238.514313
 10
93.338943
 20
238.607925
 10
93.338943
 20
238.748062
 10
93.338943
 20
238.918167
 10
93.338943
 20
239.127625
 10
93.338943
 20
239.371033
 10
93.338943
 20
239.629166
 10
93.338943
 20
239.87793
 10
93.338943
 20
240.095367
 10
93.338943
 20
240.282318
  0
LINE
  5
B0
330
7B
100
AcDbEntity
  8
0
  6
Continuous
 62
     0
370
    30
100
AcDbLine
 10
93.338942
 20
240.282319
 30
0.0
 11
93.338942
 21
240.520877
 31
0.0
  0
ARC
  5
B1
330
7B
100
AcDbEntity
  8
0
  6
Continuous
 62
     0
370
    30
100
AcDbCircle
 10
95.038942
 20
235.157574
 30
0.0
 40
0.3000000119247495
100
AcDbArc
 50
0.0
 51
84.0
  0
LINE
  5
B2
330
7B
100
AcDbEntity
  8
0
  6
Continuous
 62
     0
370
    30
100
AcDbLine
 10
124.338942
 20
247.927695
 30
0.0
 11
124.338942
 21
263.627695
 31
0.0
  0
LINE
  5
B3
330
7B
100
AcDbEntity
  8
0
  6
Continuous
 62
     0
370
    30
100
AcDbLine
 10
124.338942
 20
232.227695
 30
0.0
 11
124.338942
 21
247.927695
 31
0.0
  0
LINE
  5
B4
330
7B
100
AcDbEntity
  8
0
  6
Continuous
 62
     0
370
     0
100
AcDbLine
 10
124.038942
 20
247.927695
 30
0.0
 11
124.038942
 21
263.927695
 31
0.0
  0
LINE
  5
B5
330
7B
100
AcDbEntity
  8
0
  6
Continuous
 62
     0
370
     0
100
AcDbLine
 10
124.038942
 20
231.927695
 30
0.0
 11
124.038942
 21
247.927695
 31
0.0
  0
LINE
  5
B6
330
7B
100
AcDbEntity
  8
0
  6
Continuous
 62
     0
370
     0
100
AcDbLine
 10
106.538942
 20
231.927695
 30
0.0
 11
106.538942
 21
247.927695
 31
0.0
  0
LINE
  5
B7
330
7B
100
AcDbEntity
  8
0
  6
Continuous
 62
     0
370
     0
100
AcDbLine
 10
106.538942
 20
247.927695
 30
0.0
 11
106.538942
 21
263.927695
 31
0.0
  0
LINE
  5
B8
330
7B
100
AcDbEntity
  8
0
  6
Continuous
 62
     0
370
    30
100
AcDbLine
 10
106.838942
 20
247.927695
 30
0.0
 11
106.838942
 21
263.627695
 31
0.0
  0
LINE
  5
B9
330
7B
100
AcDbEntity
  8
0
  6
Continuous
 62
     0
370
    30
100
AcDbLine
 10
106.838942
 20
232.227695
 30
0.0
 11
106.838942
 21
247.927695
 31
0.0
  0
LINE
  5
BA
330
7B
100
AcDbEntity
  8
0
  6
Continuous
 62
     0
370
     0
100
AcDbLine
 10
108.138942
 20
247.927695
 30
0.0
 11
108.138942
 21
263.927695
 31
0.0
  0
LINE
  5
BB
330
7B
100
AcDbEntity
  8
0
  6
Continuous
 62
     0
370
     0
100
AcDbLine
 10
108.138942
 20
231.927695
 30
0.0
 11
108.138942
 21
247.927695
 31
0.0
  0
LINE
  5
BC
330
7B
100
AcDbEntity
  8
0
  6
Continuous
 62
     0
370
    30
100
AcDbLine
 10
107.838942
 20
232.227695
 30
0.0
 11
107.838942
 21
247.927695
 31
0.0
  0
LINE
  5
BD
330
7B
100
AcDbEntity
  8
0
  6
Continuous
 62
     0
370
    30
100
AcDbLine
 10
107.838942
 20
247.927695
 30
0.0
 11
107.838942
 21
263.627695
 31
0.0
  0
LINE
  5
BE
330
7B
100
AcDbEntity
  8
0
  6
Continuous
 62
     0
370
    30
100
AcDbLine
 10
108.138942
 20
263.927695
 30
0.0
 11
124.038942
 21
263.927695
 31
0.0
  0
LINE
  5
BF
330
7B
100
AcDbEntity
  8
0
  6
Continuous
 62
     0
370
    30
100
AcDbLine
 10
108.138942
 20
231.927695
 30
0.0
 11
124.038942
 21
231.927695
 31
0.0
  0
LINE
  5
C0
330
7B
100
AcDbEntity
  8
0
  6
Continuous
 62
     0
370
    30
100
AcDbLine
 10
106.538942
 20
231.927695
 30
0.0
 11
95.838942
 21
231.927695
 31
0.0
  0
LINE
  5
C1
330
7B
100
AcDbEntity
  8
0
  6
Continuous
 62
     0
370
    30
100
AcDbLine
 10
106.538942
 20
263.927695
 30
0.0
 11
95.838942
 21
263.927695
 31
0.0
  0
LINE
  5
C2
330
7B
100
AcDbEntity
  8
0
  6
Continuous
 62
     0
370
    30
100
AcDbLine
 10
93.607583
 20
238.18318
 30
0.0
 11
95.0703
 21
238.029442
 31
0.0
  0
LINE
  5
C3
330
7B
100
AcDbEntity
  8
0
  6
Continuous
 62
     0
370
    30
100
AcDbLine
 10
93.607583
 20
240.819233
 30
0.0
 11
95.0703
 21
240.972971
 31
0.0
  0
LINE
  5
C4
330
7B
100
AcDbEntity
  8
0
  6
Continuous
 62
     0
370
    30
100
AcDbLine
 10
93.607583
 20
244.699538
 30
0.0
 11
95.0703
 21
244.545801
 31
0.0
  0
LINE
  5
C5
330
7B
100
AcDbEntity
  8
0
  6
Continuous
 62
     0
370
    30
100
AcDbLine
 10
93.607583
 20
247.335592
 30
0.0
 11
95.0703
 21
247.48933
 31
0.0
  0
LINE
  5
C6
330
7B
100
AcDbEntity
  8
0
  6
Continuous
 62
     0
370
    30
100
AcDbLine
 10
93.607583
 20
252.109668
 30
0.0
 11
95.0703
 21
251.955931
 31
0.0
  0
LINE
  5
C7
330
7B
100
AcDbEntity
  8
0
  6
Continuous
 62
     0
370
    30
100
AcDbLine
 10
93.607583
 20
254.745722
 30
0.0
 11
95.0703
 21
254.89946
 31
0.0
  0
LINE
  5
C8
330
7B
100
AcDbEntity
  8
0
  6
Continuous
 62
     0
370
    30
100
AcDbLine
 10
93.607583
 20
256.946287
 30
0.0
 11
95.0703
 21
256.79255
 31
0.0
  0
LINE
  5
C9
330
7B
100
AcDbEntity
  8
0
  6
Continuous
 62
     0
370
    30
100
AcDbLine
 10
93.607583
 20
259.582341
 30
0.0
 11
95.0703
 21
259.736079
 31
0.0
  0
LINE
  5
CA
330
7B
100
AcDbEntity
  8
0
  6
Continuous
 62
     0
370
    30
100
AcDbLine
 10
131.838942
 20
259.427695
 30
0.0
 11
135.044743
 21
259.427695
 31
0.0
  0
LINE
  5
CB
330
7B
100
AcDbEntity
  8
0
  6
Continuous
 62
     0
370
    30
100
AcDbLine
 10
131.838942
 20
236.427695
 30
0.0
 11
135.044743
 21
236.427695
 31
0.0
  0
LINE
  5
CC
330
7B
100
AcDbEntity
  8
0
  6
Continuous
 62
     0
370
    30
100
AcDbLine
 10
131.838942
 20
236.427695
 30
0.0
 11
129.338942
 21
239.177695
 31
0.0
  0
LINE
  5
CD
330
7B
100
AcDbEntity
  8
0
  6
Continuous
 62
     0
370
    30
100
AcDbLine
 10
131.838942
 20
259.427695
 30
0.0
 11
129.338942
 21
256.677695
 31
0.0
  0
ARC
  5
CE
330
7B
100
AcDbEntity
  8
0
  6
Continuous
 62
     0
370
    30
100
AcDbCircle
 10
123.347741
 20
244.150333
 30
0.0
 40
7.785988496249971
100
AcDbArc
 50
277.313928
 51
320.30766
  0
ARC
  5
CF
330
7B
100
AcDbEntity
  8
0
  6
Continuous
 62
     0
370
    30
100
AcDbCircle
 10
123.347741
 20
251.705057
 30
0.0
 40
7.78598849625026
100
AcDbArc
 50
39.69234
 51
82.686072
  0
LINE
  5
D0
330
7B
100
AcDbEntity
  8
0
  6
Continuous
 62
     0
370
    30
100
AcDbLine
 10
107.838942
 20
234.927695
 30
0.0
 11
106.838942
 21
234.927695
 31
0.0
  0
LINE
  5
D1
330
7B
100
AcDbEntity
  8
0
  6
Continuous
 62
     0
370
    30
100
AcDbLine
 10
107.838942
 20
260.927695
 30
0.0
 11
106.838942
 21
260.927695
 31
0.0
  0
LINE
  5
D2
330
7B
100
AcDbEntity
  8
0
  6
Continuous
 62
     0
370
    30
100
AcDbLine
 10
136.898557
 20
262.135976
 30
0.0
 11
146.760831
 21
265.151176
 31
0.0
  0
LINE
  5
D3
330
7B
100
AcDbEntity
  8
0
  6
Continuous
 62
     0
370
    30
100
AcDbLine
 10
146.760831
 20
230.704483
 30
0.0
 11
136.898557
 21
233.719683
 31
0.0
  0
ARC
  5
D4
330
7B
100
AcDbEntity
  8
0
  6
Continuous
 62
     0
370
    30
100
AcDbCircle
 10
135.544742
 20
234.327829
 30
0.0
 40
1.000000274391592
100
AcDbArc
 50
1.647132
 51
89.999974
  0
ARC
  5
D5
330
7B
100
AcDbEntity
  8
0
  6
Continuous
 62
     0
370
    30
100
AcDbCircle
 10
135.544742
 20
261.52783
 30
0.0
 40
1.000000274975669
100
AcDbArc
 50
270.000026
 51
358.352868
  0
ARC
  5
D6
330
7B
100
AcDbEntity
  8
0
  6
Continuous
 62
     0
370
    30
100
AcDbCircle
 10
143.543616
 20
275.67142
 30
0.0
 40
11.00118174077542
100
AcDbArc
 50
287.004254
 51
356.292852
  0
ARC
  5
D7
330
7B
100
AcDbEntity
  8
0
  6
Continuous
 62
     0
370
    30
100
AcDbCircle
 10
143.543616
 20
220.18424
 30
0.0
 40
11.00118173962124
100
AcDbArc
 50
3.707148
 51
72.995746
  0
LINE
  5
D8
330
7B
100
AcDbEntity
  8
0
  6
Continuous
 62
     0
370
    30
100
AcDbLine
 10
161.544743
 20
275.42783
 30
0.0
 11
155.020735
 21
275.42783
 31
0.0
  0
LINE
  5
D9
330
7B
100
AcDbEntity
  8
0
  6
Continuous
 62
     0
370
    30
100
AcDbLine
 10
161.544743
 20
220.42783
 30
0.0
 11
155.020735
 21
220.42783
 31
0.0
  0
ENDBLK
  5
DB
330
7B
100
AcDbEntity
  8
0
100
AcDbBlockEnd
  0
BLOCK
  5
14B
330
DD
100
AcDbEntity
  8
0
100
AcDbBlockBegin
  2
b
 70
     0
 10
65.788673
 20
62.557575
 30
0.0
  3
b
  1

  0
LINE
  5
DE
330
DD
100
AcDbEntity
  8
0
  6
Continuous
 62
     0
370
    30
100
AcDbLine
 10
161.54549
 20
75.647138
 30
0.0
 11
161.545521
 21
74.572175
 31
0.0
  0
LINE
  5
DF
330
DD
100
AcDbEntity
  8
0
  6
Continuous
 62
     0
370
    30
100
AcDbLine
 10
161.543964
 20
129.572753
 30
0.0
 11
161.54549
 21
75.647138
 31
0.0
  0
LINE
  5
E0
330
DD
100
AcDbEntity
  8
0
  6
Continuous
 62
     0
370
     0
100
AcDbLine
 10
155.021483
 20
75.646954
 30
0.0
 11
155.021513
 21
74.572279
 31
0.0
  0
LINE
  5
E1
330
DD
100
AcDbEntity
  8
0
  6
Continuous
 62
     0
370
     0
100
AcDbLine
 10
155.019957
 20
129.572279
 30
0.0
 11
155.021483
 21
75.646954
 31
0.0
  0
LINE
  5
E2
330
DD
100
AcDbEntity
  8
0
  6
Continuous
 62
     0
370
     0
100
AcDbLine
 10
154.522514
 20
76.096371
 30
0.0
 11
154.522544
 21
75.039974
 31
0.0
  0
LINE
  5
E3
330
DD
100
AcDbEntity
  8
0
  6
Continuous
 62
     0
370
     0
100
AcDbLine
 10
154.521014
 20
129.104556
 30
0.0
 11
154.522514
 21
76.096371
 31
0.0
  0
LINE
  5
E4
330
DD
100
AcDbEntity
  8
0
  6
Continuous
 62
     0
370
     0
100
AcDbLine
 10
154.521025
 20
128.708052
 30
0.0
 11
154.521014
 21
129.104556
 31
0.0
  0
LINE
  5
E5
330
DD
100
AcDbEntity
  8
0
  6
Continuous
 62
     0
370
     0
100
AcDbLine
 10
146.7613
 20
85.521772
 30
0.0
 11
146.761319
 21
84.848699
 31
0.0
  0
LINE
  5
E6
330
DD
100
AcDbEntity
  8
0
  6
Continuous
 62
     0
370
     0
100
AcDbLine
 10
146.760344
 20
119.295392
 30
0.0
 11
146.7613
 21
85.521772
 31
0.0
  0
LINE
  5
E7
330
DD
100
AcDbEntity
  8
0
  6
Continuous
 62
     0
370
     0
100
AcDbLine
 10
135.545085
 20
89.964124
 30
0.0
 11
135.544386
 21
114.671728
 31
0.0
  0
LWPOLYLINE
  5
E8
330
DD
100
AcDbEntity
  8
0
  6
Continuous
 62
     0
370
     0
100
AcDbPolyline
 90
        5
 70
     0
 43
0.0
 10
135.545105
 20
89.471725
 10
135.545105
 20
89.502884
 10
135.54509
 20
89.593689
 10
135.54509
 20
89.739693
 10
135.54509
 20
89.964127
  0
LINE
  5
E9
330
DD
100
AcDbEntity
  8
0
  6
Continuous
 62
     0
370
     0
100
AcDbLine
 10
136.898943
 20
88.418861
 30
0.0
 11
136.898155
 21
116.279913
 31
0.0
  0
LWPOLYLINE
  5
EA
330
DD
100
AcDbEntity
  8
0
  6
Continuous
 62
     0
370
     0
100
AcDbPolyline
 90
        5
 70
     0
 43
0.0
 10
136.898956
 20
87.863617
 10
136.898956
 20
87.900291
 10
136.898956
 20
88.00708
 10
136.898956
 20
88.178642
 10
136.898941
 20
88.418861
  0
LINE
  5
EB
330
DD
100
AcDbEntity
  8
0
  6
Continuous
 62
     0
370
    30
100
AcDbLine
 10
106.838942
 20
115.071675
 30
0.0
 11
107.838942
 21
115.071675
 31
0.0
  0
ARC
  5
EC
330
DD
100
AcDbEntity
  8
0
  6
Continuous
 62
     0
370
    30
100
AcDbCircle
 10
123.349254
 20
105.851788
 30
0.0
 40
7.783067506745814
100
AcDbArc
 50
39.683871
 51
82.694541
  0
LWPOLYLINE
  5
ED
330
DD
100
AcDbEntity
  8
0
  6
Continuous
 62
     0
370
    30
100
AcDbPolyline
 90
       35
 70
     0
 43
0.0
 10
129.338943
 20
93.321678
 10
129.338943
 20
93.352928
 10
129.338943
 20
93.450462
 10
129.338943
 20
93.619148
 10
129.338943
 20
93.862495
 10
129.338943
 20
94.182304
 10
129.338943
 20
94.578384
 10
129.338943
 20
95.048386
 10
129.338943
 20
95.587715
 10
129.338943
 20
96.189705
 10
129.338943
 20
96.845825
 10
129.338943
 20
97.546135
 10
129.338943
 20
98.279724
 10
129.338943
 20
99.035271
 10
129.338943
 20
99.801582
 10
129.338943
 20
100.568047
 10
129.338943
 20
101.325027
 10
129.338943
 20
102.06414
 10
129.338943
 20
102.802803
 10
129.338943
 20
103.559494
 10
129.338943
 20
104.325859
 10
129.338943
 20
105.092278
 10
129.338943
 20
105.84816
 10
129.338943
 20
106.582314
 10
129.338943
 20
107.283424
 10
129.338943
 20
107.940567
 10
129.338943
 20
108.54377
 10
129.338943
 20
109.084473
 10
129.338943
 20
109.555962
 10
129.338943
 20
109.953613
 10
129.338943
 20
110.275009
 10
129.338943
 20
110.519928
 10
129.338943
 20
110.690132
 10
129.338943
 20
110.789093
 10
129.338943
 20
110.821678
  0
LINE
  5
EE
330
DD
100
AcDbEntity
  8
0
  6
Continuous
 62
     0
370
    30
100
AcDbLine
 10
129.338942
 20
110.821675
 30
0.0
 11
130.475305
 21
112.071675
 31
0.0
  0
LINE
  5
EF
330
DD
100
AcDbEntity
  8
0
  6
Continuous
 62
     0
370
    30
100
AcDbLine
 10
131.548342
 20
92.071675
 30
0.0
 11
130.475322
 21
92.071675
 31
0.0
  0
LINE
  5
F0
330
DD
100
AcDbEntity
  8
0
  6
Continuous
 62
     0
370
    30
100
AcDbLine
 10
131.548342
 20
92.071675
 30
0.0
 11
131.838942
 21
91.715517
 31
0.0
  0
LINE
  5
F1
330
DD
100
AcDbEntity
  8
0
  6
Continuous
 62
     0
370
    30
100
AcDbLine
 10
131.838942
 20
91.715517
 30
0.0
 11
131.838942
 21
112.427833
 31
0.0
  0
LINE
  5
F2
330
DD
100
AcDbEntity
  8
0
  6
Continuous
 62
     0
370
    30
100
AcDbLine
 10
131.838942
 20
112.427833
 30
0.0
 11
131.548342
 21
112.071675
 31
0.0
  0
LINE
  5
F3
330
DD
100
AcDbEntity
  8
0
  6
Continuous
 62
     0
370
    30
100
AcDbLine
 10
130.475305
 20
112.071675
 30
0.0
 11
131.548342
 21
112.071675
 31
0.0
  0
LINE
  5
F4
330
DD
100
AcDbEntity
  8
0
  6
Continuous
 62
     0
370
    30
100
AcDbLine
 10
133.838942
 20
113.571675
 30
0.0
 11
133.838942
 21
112.427833
 31
0.0
  0
LINE
  5
F5
330
DD
100
AcDbEntity
  8
0
  6
Continuous
 62
     0
370
    30
100
AcDbLine
 10
133.838942
 20
112.427833
 30
0.0
 11
131.838942
 21
112.427833
 31
0.0
  0
LINE
  5
F6
330
DD
100
AcDbEntity
  8
0
  6
Continuous
 62
     0
370
    30
100
AcDbLine
 10
131.838942
 20
91.715517
 30
0.0
 11
133.838942
 21
91.715517
 31
0.0
  0
LINE
  5
F7
330
DD
100
AcDbEntity
  8
0
  6
Continuous
 62
     0
370
    30
100
AcDbLine
 10
133.838942
 20
91.715517
 30
0.0
 11
133.838942
 21
90.571675
 31
0.0
  0
LINE
  5
F8
330
DD
100
AcDbEntity
  8
0
  6
Continuous
 62
     0
370
    30
100
AcDbLine
 10
133.838942
 20
113.571675
 30
0.0
 11
135.044417
 21
113.571675
 31
0.0
  0
ARC
  5
F9
330
DD
100
AcDbEntity
  8
0
  6
Continuous
 62
     0
370
    30
100
AcDbCircle
 10
95.838942
 20
117.571675
 30
0.0
 40
0.499999999999325
100
AcDbArc
 50
90.0
 51
180.0
  0
LWPOLYLINE
  5
FA
330
DD
100
AcDbEntity
  8
0
  6
Continuous
 62
     0
370
    30
100
AcDbPolyline
 90
       46
 70
     0
 43
0.0
 10
95.338943
 20
86.571678
 10
95.338943
 20
86.60305
 10
95.338943
 20
86.700157
 10
95.338943
 20
86.867035
 10
95.338943
 20
87.107063
 10
95.338943
 20
87.422752
 10
95.338943
 20
87.815651
 10
95.338943
 20
88.286148
 10
95.338943
 20
88.833435
 10
95.338943
 20
89.455429
 10
95.338943
 20
90.14875
 10
95.338943
 20
90.908768
 10
95.338943
 20
91.729736
 10
95.338943
 20
92.604874
 10
95.338943
 20
93.526604
 10
95.338943
 20
94.486732
 10
95.338943
 20
95.476707
 10
95.338943
 20
96.487839
 10
95.338943
 20
97.511536
 10
95.338943
 20
98.539513
 10
95.338943
 20
99.563965
 10
95.338943
 20
100.577736
 10
95.338943
 20
101.574379
 10
95.338943
 20
102.554436
 10
95.338943
 20
103.550781
 10
95.338943
 20
104.564346
 10
95.338943
 20
105.588692
 10
95.338943
 20
106.616676
 10
95.338943
 20
107.640495
 10
95.338943
 20
108.651871
 10
95.338943
 20
109.64222
 10
95.338943
 20
110.602852
 10
95.338943
 20
111.525208
 10
95.338943
 20
112.401093
 10
95.338943
 20
113.2229
 10
95.338943
 20
113.983871
 10
95.338943
 20
114.678207
 10
95.338943
 20
115.301277
 10
95.338943
 20
115.849693
 10
95.338943
 20
116.321327
 10
95.338943
 20
116.715363
 10
95.338943
 20
117.032188
 10
95.338943
 20
117.273315
 10
95.338943
 20
117.441246
 10
95.338943
 20
117.539352
 10
95.338943
 20
117.571678
  0
LWPOLYLINE
  5
FB
330
DD
100
AcDbEntity
  8
0
  6
Continuous
 62
     0
370
     0
100
AcDbPolyline
 90
       47
 70
     0
 43
0.0
 10
95.838943
 20
86.071678
 10
95.838943
 20
86.102646
 10
95.838943
 20
86.198441
 10
95.838943
 20
86.362984
 10
95.838943
 20
86.599571
 10
95.838943
 20
86.910721
 10
95.838943
 20
87.297997
 10
95.838943
 20
87.761932
 10
95.838943
 20
88.301926
 10
95.838943
 20
88.916145
 10
95.838943
 20
89.60157
 10
95.838943
 20
90.353973
 10
95.838943
 20
91.168037
 10
95.838943
 20
92.037445
 10
95.838943
 20
92.955063
 10
95.838943
 20
93.913139
 10
95.838943
 20
94.903481
 10
95.838943
 20
95.917725
 10
95.838943
 20
96.94751
 10
95.838943
 20
97.984688
 10
95.838943
 20
99.021523
 10
95.838943
 20
100.050804
 10
95.838943
 20
101.066002
 10
95.838943
 20
102.061302
 10
95.838943
 20
103.056129
 10
95.838943
 20
104.070969
 10
95.838943
 20
105.100021
 10
95.838943
 20
106.136765
 10
95.838943
 20
107.174019
 10
95.838943
 20
108.204041
 10
95.838943
 20
109.218697
 10
95.838943
 20
110.209633
 10
95.838943
 20
111.168472
 10
95.838943
 20
112.087029
 10
95.838943
 20
112.957527
 10
95.838943
 20
113.77282
 10
95.838943
 20
114.526588
 10
95.838943
 20
115.21347
 10
95.838943
 20
115.829231
 10
95.838943
 20
116.370804
 10
95.838943
 20
116.836365
 10
95.838943
 20
117.225258
 10
95.838943
 20
117.537994
 10
95.838943
 20
117.776131
 10
95.838943
 20
117.942162
 10
95.838943
 20
118.039368
 10
95.838943
 20
118.071678
  0
LWPOLYLINE
  5
FC
330
DD
100
AcDbEntity
  8
0
  6
Continuous
 62
     0
370
    30
100
AcDbPolyline
 90
        7
 70
     0
 43
0.0
 10
93.338943
 20
101.052002
 10
93.338943
 20
101.082146
 10
93.338943
 20
101.179321
 10
93.338943
 20
101.344162
 10
93.338943
 20
101.5625
 10
93.338943
 20
101.808952
 10
93.338943
 20
102.071678
  0
LINE
  5
FD
330
DD
100
AcDbEntity
  8
0
  6
Continuous
 62
     0
370
    30
100
AcDbLine
 10
93.338942
 20
102.071676
 30
0.0
 11
93.338942
 21
103.091346
 31
0.0
  0
LWPOLYLINE
  5
FE
330
DD
100
AcDbEntity
  8
0
  6
Continuous
 62
     0
370
     0
100
AcDbPolyline
 90
        8
 70
     0
 43
0.0
 10
93.607582
 20
100.753647
 10
93.607582
 20
100.781815
 10
93.607582
 20
100.872391
 10
93.607582
 20
101.028419
 10
93.607582
 20
101.242775
 10
93.607582
 20
101.49865
 10
93.607582
 20
101.773727
 10
93.607582
 20
102.071678
  0
LINE
  5
FF
330
DD
100
AcDbEntity
  8
0
  6
Continuous
 62
     0
370
     0
100
AcDbLine
 10
93.607583
 20
102.071676
 30
0.0
 11
93.607583
 21
103.389703
 31
0.0
  0
LINE
  5
100
330
DD
100
AcDbEntity
  8
0
  6
Continuous
 62
     0
370
     0
100
AcDbLine
 10
93.607583
 20
108.295128
 30
0.0
 11
93.607583
 21
110.279928
 31
0.0
  0
LWPOLYLINE
  5
101
330
DD
100
AcDbEntity
  8
0
  6
Continuous
 62
     0
370
     0
100
AcDbPolyline
 90
        5
 70
     0
 43
0.0
 10
93.607582
 20
107.82431
 10
93.607582
 20
107.853287
 10
93.607582
 20
107.940605
 10
93.607582
 20
108.081024
 10
93.607582
 20
108.295128
  0
LWPOLYLINE
  5
102
330
DD
100
AcDbEntity
  8
0
  6
Continuous
 62
     0
370
     0
100
AcDbPolyline
 90
        5
 70
     0
 43
0.0
 10
95.070297
 20
107.670578
 10
95.070297
 20
107.7043
 10
95.070297
 20
107.805847
 10
95.070297
 20
107.968712
 10
95.070297
 20
108.196304
  0
LINE
  5
103
330
DD
100
AcDbEntity
  8
0
  6
Continuous
 62
     0
370
     0
100
AcDbLine
 10
95.0703
 20
108.196307
 30
0.0
 11
95.0703
 21
110.12619
 31
0.0
  0
LINE
  5
104
330
DD
100
AcDbEntity
  8
0
  6
Continuous
 62
     0
370
     0
100
AcDbLine
 10
93.607583
 20
112.915982
 30
0.0
 11
93.607583
 21
114.222588
 31
0.0
  0
LINE
  5
105
330
DD
100
AcDbEntity
  8
0
  6
Continuous
 62
     0
370
     0
100
AcDbLine
 10
95.0703
 20
113.069719
 30
0.0
 11
95.0703
 21
114.376325
 31
0.0
  0
LWPOLYLINE
  5
106
330
DD
100
AcDbEntity
  8
0
  6
Continuous
 62
     0
370
     0
100
AcDbPolyline
 90
       12
 70
     0
 43
0.0
 10
93.607582
 20
110.27993
 10
93.607582
 20
110.318329
 10
93.607582
 20
110.427116
 10
93.607582
 20
110.596893
 10
93.607582
 20
110.829361
 10
93.607582
 20
111.109398
 10
93.607582
 20
111.412682
 10
93.607582
 20
111.715424
 10
93.607582
 20
112.020195
 10
93.607582
 20
112.307693
 10
93.607582
 20
112.55246
 10
93.607582
 20
112.739403
  0
LINE
  5
107
330
DD
100
AcDbEntity
  8
0
  6
Continuous
 62
     0
370
     0
100
AcDbLine
 10
93.607583
 20
112.739399
 30
0.0
 11
93.607583
 21
112.915981
 31
0.0
  0
LINE
  5
108
330
DD
100
AcDbEntity
  8
0
  6
Continuous
 62
     0
370
     0
100
AcDbLine
 10
95.0703
 20
112.87254
 30
0.0
 11
95.0703
 21
113.069719
 31
0.0
  0
LWPOLYLINE
  5
109
330
DD
100
AcDbEntity
  8
0
  6
Continuous
 62
     0
370
     0
100
AcDbPolyline
 90
       13
 70
     0
 43
0.0
 10
95.070297
 20
110.12619
 10
95.070297
 20
110.163963
 10
95.070297
 20
110.275932
 10
95.070297
 20
110.451759
 10
95.070297
 20
110.672882
 10
95.070297
 20
110.918823
 10
95.070297
 20
111.199982
 10
95.070297
 20
111.515961
 10
95.070297
 20
111.847221
 10
95.070297
 20
112.169014
 10
95.070297
 20
112.457001
 10
95.070297
 20
112.693115
 10
95.070297
 20
112.872543
  0
LWPOLYLINE
  5
10A
330
DD
100
AcDbEntity
  8
0
  6
Continuous
 62
     0
370
     0
100
AcDbPolyline
 90
        9
 70
     0
 43
0.0
 10
93.607582
 20
104.515869
 10
93.607582
 20
104.553993
 10
93.607582
 20
104.668098
 10
93.607582
 20
104.847923
 10
93.607582
 20
105.075104
 10
93.607582
 20
105.35067
 10
93.607582
 20
105.661095
 10
93.607582
 20
105.980087
 10
93.607582
 20
106.284691
  0
LINE
  5
10B
330
DD
100
AcDbEntity
  8
0
  6
Continuous
 62
     0
370
     0
100
AcDbLine
 10
93.607583
 20
106.284688
 30
0.0
 11
93.607583
 21
107.151923
 31
0.0
  0
LINE
  5
10C
330
DD
100
AcDbEntity
  8
0
  6
Continuous
 62
     0
370
     0
100
AcDbLine
 10
95.0703
 20
106.33727
 30
0.0
 11
95.0703
 21
107.305661
 31
0.0
  0
LWPOLYLINE
  5
10D
330
DD
100
AcDbEntity
  8
0
  6
Continuous
 62
     0
370
     0
100
AcDbPolyline
 90
       10
 70
     0
 43
0.0
 10
95.070297
 20
104.362129
 10
95.070297
 20
104.393784
 10
95.070297
 20
104.480217
 10
95.070297
 20
104.623817
 10
95.070297
 20
104.829216
 10
95.070297
 20
105.089897
 10
95.070297
 20
105.390137
 10
95.070297
 20
105.707802
 10
95.070297
 20
106.019524
 10
95.070297
 20
106.337273
  0
LWPOLYLINE
  5
10E
330
DD
100
AcDbEntity
  8
0
  6
Continuous
 62
     0
370
     0
100
AcDbPolyline
 90
        7
 70
     0
 43
0.0
 10
93.607582
 20
96.991425
 10
93.607582
 20
97.017326
 10
93.607582
 20
97.096466
 10
93.607582
 20
97.226128
 10
93.607582
 20
97.397453
 10
93.607582
 20
97.597305
 10
93.607582
 20
97.858658
  0
LINE
  5
10F
330
DD
100
AcDbEntity
  8
0
  6
Continuous
 62
     0
370
     0
100
AcDbLine
 10
93.607583
 20
97.858661
 30
0.0
 11
93.607583
 21
99.62748
 31
0.0
  0
LINE
  5
110
330
DD
100
AcDbEntity
  8
0
  6
Continuous
 62
     0
370
     0
100
AcDbLine
 10
95.0703
 20
97.80608
 30
0.0
 11
95.0703
 21
99.781218
 31
0.0
  0
LWPOLYLINE
  5
111
330
DD
100
AcDbEntity
  8
0
  6
Continuous
 62
     0
370
     0
100
AcDbPolyline
 90
        7
 70
     0
 43
0.0
 10
95.070297
 20
96.837692
 10
95.070297
 20
96.867378
 10
95.070297
 20
96.958076
 10
95.070297
 20
97.106491
 10
95.070297
 20
97.302109
 10
95.070297
 20
97.529564
 10
95.070297
 20
97.806084
  0
LINE
  5
112
330
DD
100
AcDbEntity
  8
0
  6
Continuous
 62
     0
370
     0
100
AcDbLine
 10
93.607583
 20
91.227369
 30
0.0
 11
93.607583
 21
91.403951
 31
0.0
  0
LINE
  5
113
330
DD
100
AcDbEntity
  8
0
  6
Continuous
 62
     0
370
     0
100
AcDbLine
 10
93.607583
 20
91.403951
 30
0.0
 11
93.607583
 21
93.863423
 31
0.0
  0
LINE
  5
114
330
DD
100
AcDbEntity
  8
0
  6
Continuous
 62
     0
370
     0
100
AcDbLine
 10
95.0703
 20
91.27081
 30
0.0
 11
95.0703
 21
94.01716
 31
0.0
  0
LWPOLYLINE
  5
115
330
DD
100
AcDbEntity
  8
0
  6
Continuous
 62
     0
370
     0
100
AcDbPolyline
 90
        4
 70
     0
 43
0.0
 10
95.070297
 20
91.073631
 10
95.070297
 20
91.092133
 10
95.070297
 20
91.144806
 10
95.070297
 20
91.270813
  0
LWPOLYLINE
  5
116
330
DD
100
AcDbEntity
  8
0
  6
Continuous
 62
     0
370
     0
100
AcDbPolyline
 90
        8
 70
     0
 43
0.0
 10
93.607582
 20
89.920761
 10
93.607582
 20
89.951935
 10
93.607582
 20
90.049507
 10
93.607582
 20
90.21209
 10
93.607582
 20
90.427895
 10
93.607582
 20
90.677383
 10
93.607582
 20
90.93866
 10
93.607582
 20
91.227371
  0
LWPOLYLINE
  5
117
330
DD
100
AcDbEntity
  8
0
  6
Continuous
 62
     0
370
     0
100
AcDbPolyline
 90
        8
 70
     0
 43
0.0
 10
95.070297
 20
89.767029
 10
95.070297
 20
89.796783
 10
95.070297
 20
89.889977
 10
95.070297
 20
90.046402
 10
95.070297
 20
90.257202
 10
95.070297
 20
90.506325
 10
95.070297
 20
90.774384
 10
95.070297
 20
91.073631
  0
LINE
  5
118
330
DD
100
AcDbEntity
  8
0
  6
Continuous
 62
     0
370
     0
100
AcDbLine
 10
93.607583
 20
95.848223
 30
0.0
 11
93.607583
 21
96.319039
 31
0.0
  0
LINE
  5
119
330
DD
100
AcDbEntity
  8
0
  6
Continuous
 62
     0
370
     0
100
AcDbLine
 10
93.607583
 20
93.863423
 30
0.0
 11
93.607583
 21
95.848223
 31
0.0
  0
LINE
  5
11A
330
DD
100
AcDbEntity
  8
0
  6
Continuous
 62
     0
370
     0
100
AcDbLine
 10
95.0703
 20
94.017161
 30
0.0
 11
95.0703
 21
95.947044
 31
0.0
  0
LINE
  5
11B
330
DD
100
AcDbEntity
  8
0
  6
Continuous
 62
     0
370
     0
100
AcDbLine
 10
95.0703
 20
95.947044
 30
0.0
 11
95.0703
 21
96.472777
 31
0.0
  0
LWPOLYLINE
  5
11C
330
DD
100
AcDbEntity
  8
0
  6
Continuous
 62
     0
370
     0
100
AcDbPolyline
 90
        8
 70
     0
 43
0.0
 10
95.070297
 20
100.599915
 10
95.070297
 20
100.631996
 10
95.070297
 20
100.735229
 10
95.070297
 20
100.912918
 10
95.070297
 20
101.156586
 10
95.070297
 20
101.446602
 10
95.070297
 20
101.757187
 10
95.070297
 20
102.071678
  0
LINE
  5
11D
330
DD
100
AcDbEntity
  8
0
  6
Continuous
 62
     0
370
     0
100
AcDbLine
 10
95.0703
 20
102.071676
 30
0.0
 11
95.0703
 21
103.54344
 31
0.0
  0
LWPOLYLINE
  5
11E
330
DD
100
AcDbEntity
  8
0
  6
Continuous
 62
     0
370
    30
100
AcDbPolyline
 90
       10
 70
     0
 43
0.0
 10
93.338943
 20
93.981339
 10
93.338943
 20
94.015831
 10
93.338943
 20
94.111252
 10
93.338943
 20
94.249985
 10
93.338943
 20
94.434853
 10
93.338943
 20
94.666916
 10
93.338943
 20
94.928955
 10
93.338943
 20
95.195381
 10
93.338943
 20
95.439964
 10
93.338943
 20
95.656441
  0
LINE
  5
11F
330
DD
100
AcDbEntity
  8
0
  6
Continuous
 62
     0
370
    30
100
AcDbLine
 10
93.338942
 20
95.656443
 30
0.0
 11
93.338942
 21
96.020682
 31
0.0
  0
LWPOLYLINE
  5
120
330
DD
100
AcDbEntity
  8
0
  6
Continuous
 62
     0
370
    30
100
AcDbPolyline
 90
       12
 70
     0
 43
0.0
 10
93.338943
 20
90.219116
 10
93.338943
 20
90.255142
 10
93.338943
 20
90.367416
 10
93.338943
 20
90.54921
 10
93.338943
 20
90.777855
 10
93.338943
 20
91.023384
 10
93.338943
 20
91.276573
 10
93.338943
 20
91.546021
 10
93.338943
 20
91.803185
 10
93.338943
 20
92.016861
 10
93.338943
 20
92.165161
 10
93.338943
 20
92.242966
  0
LINE
  5
121
330
DD
100
AcDbEntity
  8
0
  6
Continuous
 62
     0
370
    30
100
AcDbLine
 10
93.338942
 20
111.900381
 30
0.0
 11
93.338942
 21
113.924231
 31
0.0
  0
LWPOLYLINE
  5
122
330
DD
100
AcDbEntity
  8
0
  6
Continuous
 62
     0
370
    30
100
AcDbPolyline
 90
        5
 70
     0
 43
0.0
 10
93.338943
 20
108.122665
 10
93.338943
 20
108.145416
 10
93.338943
 20
108.211487
 10
93.338943
 20
108.313805
 10
93.338943
 20
108.486908
  0
LINE
  5
123
330
DD
100
AcDbEntity
  8
0
  6
Continuous
 62
     0
370
    30
100
AcDbLine
 10
93.338942
 20
108.486908
 30
0.0
 11
93.338942
 21
110.16201
 31
0.0
  0
LWPOLYLINE
  5
124
330
DD
100
AcDbEntity
  8
0
  6
Continuous
 62
     0
370
    30
100
AcDbPolyline
 90
       46
 70
     0
 43
0.0
 10
124.338943
 20
86.371674
 10
124.338943
 20
86.403465
 10
124.338943
 20
86.501854
 10
124.338943
 20
86.670937
 10
124.338943
 20
86.914139
 10
124.338943
 20
87.234001
 10
124.338943
 20
87.632088
 10
124.338943
 20
88.108803
 10
124.338943
 20
88.663322
 10
124.338943
 20
89.293526
 10
124.338943
 20
89.995987
 10
124.338943
 20
90.766029
 10
124.338943
 20
91.597809
 10
124.338943
 20
92.484467
 10
124.338943
 20
93.418312
 10
124.338943
 20
94.391045
 10
124.338943
 20
95.394005
 10
124.338943
 20
96.418373
 10
124.338943
 20
97.455452
 10
124.338943
 20
98.496849
 10
124.338943
 20
99.534653
 10
124.338943
 20
100.561607
 10
124.338943
 20
101.571205
 10
124.338943
 20
102.564049
 10
124.338943
 20
103.573471
 10
124.338943
 20
104.600311
 10
124.338943
 20
105.638062
 10
124.338943
 20
106.679459
 10
124.338943
 20
107.716606
 10
124.338943
 20
108.741119
 10
124.338943
 20
109.744278
 10
124.338943
 20
110.717293
 10
124.338943
 20
111.651489
 10
124.338943
 20
112.538559
 10
124.338943
 20
113.370811
 10
124.338943
 20
114.14138
 10
124.338943
 20
114.844414
 10
124.338943
 20
115.47522
 10
124.338943
 20
116.030365
 10
124.338943
 20
116.507713
 10
124.338943
 20
116.906433
 10
124.338943
 20
117.226929
 10
124.338943
 20
117.470741
 10
124.338943
 20
117.640411
 10
124.338943
 20
117.739357
 10
124.338943
 20
117.771675
  0
ARC
  5
125
330
DD
100
AcDbEntity
  8
0
  6
Continuous
 62
     0
370
    30
100
AcDbCircle
 10
124.038942
 20
117.771675
 30
0.0
 40
0.3000000119198738
100
AcDbArc
 50
360.0
 51
90.0
  0
LWPOLYLINE
  5
126
330
DD
100
AcDbEntity
  8
0
  6
Continuous
 62
     0
370
     0
100
AcDbPolyline
 90
       47
 70
     0
 43
0.0
 10
124.03894
 20
86.071678
 10
124.03894
 20
86.102646
 10
124.03894
 20
86.198441
 10
124.03894
 20
86.362984
 10
124.03894
 20
86.599571
 10
124.03894
 20
86.910721
 10
124.03894
 20
87.297997
 10
124.03894
 20
87.761932
 10
124.03894
 20
88.301926
 10
124.03894
 20
88.916145
 10
124.03894
 20
89.60157
 10
124.03894
 20
90.353973
 10
124.03894
 20
91.168037
 10
124.03894
 20
92.037445
 10
124.03894
 20
92.955063
 10
124.03894
 20
93.913139
 10
124.03894
 20
94.903481
 10
124.03894
 20
95.917725
 10
124.03894
 20
96.94751
 10
124.03894
 20
97.984688
 10
124.03894
 20
99.021523
 10
124.03894
 20
100.050804
 10
124.03894
 20
101.066002
 10
124.03894
 20
102.061302
 10
124.03894
 20
103.056129
 10
124.03894
 20
104.070969
 10
124.03894
 20
105.100021
 10
124.03894
 20
106.136765
 10
124.03894
 20
107.174019
 10
124.03894
 20
108.204041
 10
124.03894
 20
109.218697
 10
124.03894
 20
110.209633
 10
124.03894
 20
111.168472
 10
124.03894
 20
112.087029
 10
124.03894
 20
112.957527
 10
124.03894
 20
113.77282
 10
124.03894
 20
114.526588
 10
124.03894
 20
115.21347
 10
124.03894
 20
115.829231
 10
124.03894
 20
116.370804
 10
124.03894
 20
116.836365
 10
124.03894
 20
117.225258
 10
124.03894
 20
117.537994
 10
124.03894
 20
117.776131
 10
124.03894
 20
117.942162
 10
124.03894
 20
118.039368
 10
124.03894
 20
118.071678
  0
LINE
  5
127
330
DD
100
AcDbEntity
  8
0
  6
Continuous
 62
     0
370
    30
100
AcDbLine
 10
95.838942
 20
118.071675
 30
0.0
 11
106.538942
 21
118.071675
 31
0.0
  0
LWPOLYLINE
  5
128
330
DD
100
AcDbEntity
  8
0
  6
Continuous
 62
     0
370
     0
100
AcDbPolyline
 90
       47
 70
     0
 43
0.0
 10
106.53894
 20
86.071678
 10
106.53894
 20
86.102646
 10
106.53894
 20
86.198441
 10
106.53894
 20
86.362984
 10
106.53894
 20
86.599571
 10
106.53894
 20
86.910721
 10
106.53894
 20
87.297997
 10
106.53894
 20
87.761932
 10
106.53894
 20
88.301926
 10
106.53894
 20
88.916145
 10
106.53894
 20
89.60157
 10
106.53894
 20
90.353973
 10
106.53894
 20
91.168037
 10
106.53894
 20
92.037445
 10
106.53894
 20
92.955063
 10
106.53894
 20
93.913139
 10
106.53894
 20
94.903481
 10
106.53894
 20
95.917725
 10
106.53894
 20
96.94751
 10
106.53894
 20
97.984688
 10
106.53894
 20
99.021523
 10
106.53894
 20
100.050804
 10
106.53894
 20
101.066002
 10
106.53894
 20
102.061302
 10
106.53894
 20
103.056129
 10
106.53894
 20
104.070969
 10
106.53894
 20
105.100021
 10
106.53894
 20
106.136765
 10
106.53894
 20
107.174019
 10
106.53894
 20
108.204041
 10
106.53894
 20
109.218697
 10
106.53894
 20
110.209633
 10
106.53894
 20
111.168472
 10
106.53894
 20
112.087029
 10
106.53894
 20
112.957527
 10
106.53894
 20
113.77282
 10
106.53894
 20
114.526588
 10
106.53894
 20
115.21347
 10
106.53894
 20
115.829231
 10
106.53894
 20
116.370804
 10
106.53894
 20
116.836365
 10
106.53894
 20
117.225258
 10
106.53894
 20
117.537994
 10
106.53894
 20
117.776131
 10
106.53894
 20
117.942162
 10
106.53894
 20
118.039368
 10
106.53894
 20
118.071678
  0
LWPOLYLINE
  5
129
330
DD
100
AcDbEntity
  8
0
  6
Continuous
 62
     0
370
    30
100
AcDbPolyline
 90
       46
 70
     0
 43
0.0
 10
106.838943
 20
86.371674
 10
106.838943
 20
86.403465
 10
106.838943
 20
86.501854
 10
106.838943
 20
86.670937
 10
106.838943
 20
86.914139
 10
106.838943
 20
87.234001
 10
106.838943
 20
87.632088
 10
106.838943
 20
88.108803
 10
106.838943
 20
88.663322
 10
106.838943
 20
89.293526
 10
106.838943
 20
89.995987
 10
106.838943
 20
90.766029
 10
106.838943
 20
91.597809
 10
106.838943
 20
92.484467
 10
106.838943
 20
93.418312
 10
106.838943
 20
94.391045
 10
106.838943
 20
95.394005
 10
106.838943
 20
96.418373
 10
106.838943
 20
97.455452
 10
106.838943
 20
98.496849
 10
106.838943
 20
99.534653
 10
106.838943
 20
100.561607
 10
106.838943
 20
101.571205
 10
106.838943
 20
102.564049
 10
106.838943
 20
103.573471
 10
106.838943
 20
104.600311
 10
106.838943
 20
105.638062
 10
106.838943
 20
106.679459
 10
106.838943
 20
107.716606
 10
106.838943
 20
108.741119
 10
106.838943
 20
109.744278
 10
106.838943
 20
110.717293
 10
106.838943
 20
111.651489
 10
106.838943
 20
112.538559
 10
106.838943
 20
113.370811
 10
106.838943
 20
114.14138
 10
106.838943
 20
114.844414
 10
106.838943
 20
115.47522
 10
106.838943
 20
116.030365
 10
106.838943
 20
116.507713
 10
106.838943
 20
116.906433
 10
106.838943
 20
117.226929
 10
106.838943
 20
117.470741
 10
106.838943
 20
117.640411
 10
106.838943
 20
117.739357
 10
106.838943
 20
117.771675
  0
LINE
  5
12A
330
DD
100
AcDbEntity
  8
0
  6
Continuous
 62
     0
370
    30
100
AcDbLine
 10
108.138942
 20
118.071675
 30
0.0
 11
124.038942
 21
118.071675
 31
0.0
  0
LWPOLYLINE
  5
12B
330
DD
100
AcDbEntity
  8
0
  6
Continuous
 62
     0
370
     0
100
AcDbPolyline
 90
       47
 70
     0
 43
0.0
 10
108.138939
 20
86.071678
 10
108.138939
 20
86.102646
 10
108.138939
 20
86.198441
 10
108.138939
 20
86.362984
 10
108.138939
 20
86.599571
 10
108.138939
 20
86.910721
 10
108.138939
 20
87.297997
 10
108.138939
 20
87.761932
 10
108.138939
 20
88.301926
 10
108.138939
 20
88.916145
 10
108.138939
 20
89.60157
 10
108.138939
 20
90.353973
 10
108.138939
 20
91.168037
 10
108.138939
 20
92.037445
 10
108.138939
 20
92.955063
 10
108.138939
 20
93.913139
 10
108.138939
 20
94.903481
 10
108.138939
 20
95.917725
 10
108.138939
 20
96.94751
 10
108.138939
 20
97.984688
 10
108.138939
 20
99.021523
 10
108.138939
 20
100.050804
 10
108.138939
 20
101.066002
 10
108.138939
 20
102.061302
 10
108.138939
 20
103.056129
 10
108.138939
 20
104.070969
 10
108.138939
 20
105.100021
 10
108.138939
 20
106.136765
 10
108.138939
 20
107.174019
 10
108.138939
 20
108.204041
 10
108.138939
 20
109.218697
 10
108.138939
 20
110.209633
 10
108.138939
 20
111.168472
 10
108.138939
 20
112.087029
 10
108.138939
 20
112.957527
 10
108.138939
 20
113.77282
 10
108.138939
 20
114.526588
 10
108.138939
 20
115.21347
 10
108.138939
 20
115.829231
 10
108.138939
 20
116.370804
 10
108.138939
 20
116.836365
 10
108.138939
 20
117.225258
 10
108.138939
 20
117.537994
 10
108.138939
 20
117.776131
 10
108.138939
 20
117.942162
 10
108.138939
 20
118.039368
 10
108.138939
 20
118.071678
  0
LWPOLYLINE
  5
12C
330
DD
100
AcDbEntity
  8
0
  6
Continuous
 62
     0
370
    30
100
AcDbPolyline
 90
       46
 70
     0
 43
0.0
 10
107.838943
 20
86.371674
 10
107.838943
 20
86.403465
 10
107.838943
 20
86.501854
 10
107.838943
 20
86.670937
 10
107.838943
 20
86.914139
 10
107.838943
 20
87.234001
 10
107.838943
 20
87.632088
 10
107.838943
 20
88.108803
 10
107.838943
 20
88.663322
 10
107.838943
 20
89.293526
 10
107.838943
 20
89.995987
 10
107.838943
 20
90.766029
 10
107.838943
 20
91.597809
 10
107.838943
 20
92.484467
 10
107.838943
 20
93.418312
 10
107.838943
 20
94.391045
 10
107.838943
 20
95.394005
 10
107.838943
 20
96.418373
 10
107.838943
 20
97.455452
 10
107.838943
 20
98.496849
 10
107.838943
 20
99.534653
 10
107.838943
 20
100.561607
 10
107.838943
 20
101.571205
 10
107.838943
 20
102.564049
 10
107.838943
 20
103.573471
 10
107.838943
 20
104.600311
 10
107.838943
 20
105.638062
 10
107.838943
 20
106.679459
 10
107.838943
 20
107.716606
 10
107.838943
 20
108.741119
 10
107.838943
 20
109.744278
 10
107.838943
 20
110.717293
 10
107.838943
 20
111.651489
 10
107.838943
 20
112.538559
 10
107.838943
 20
113.370811
 10
107.838943
 20
114.14138
 10
107.838943
 20
114.844414
 10
107.838943
 20
115.47522
 10
107.838943
 20
116.030365
 10
107.838943
 20
116.507713
 10
107.838943
 20
116.906433
 10
107.838943
 20
117.226929
 10
107.838943
 20
117.470741
 10
107.838943
 20
117.640411
 10
107.838943
 20
117.739357
 10
107.838943
 20
117.771675
  0
ARC
  5
12D
330
DD
100
AcDbEntity
  8
0
  6
Continuous
 62
     0
370
    30
100
AcDbCircle
 10
108.138942
 20
117.771675
 30
0.0
 40
0.3000000119211705
100
AcDbArc
 50
90.0
 51
180.0
  0
ARC
  5
12E
330
DD
100
AcDbEntity
  8
0
  6
Continuous
 62
     0
370
    30
100
AcDbCircle
 10
106.538942
 20
117.771675
 30
0.0
 40
0.3000000119225126
100
AcDbArc
 50
0.0
 51
90.0
  0
LINE
  5
12F
330
DD
100
AcDbEntity
  8
0
  6
Continuous
 62
     0
370
    30
100
AcDbLine
 10
108.138942
 20
86.071675
 30
0.0
 11
124.038942
 21
86.071675
 31
0.0
  0
LINE
  5
130
330
DD
100
AcDbEntity
  8
0
  6
Continuous
 62
     0
370
    30
100
AcDbLine
 10
106.538942
 20
86.071675
 30
0.0
 11
95.838942
 21
86.071675
 31
0.0
  0
LINE
  5
131
330
DD
100
AcDbEntity
  8
0
  6
Continuous
 62
     0
370
    30
100
AcDbLine
 10
93.607583
 20
103.389703
 30
0.0
 11
95.0703
 21
103.54344
 31
0.0
  0
LINE
  5
132
330
DD
100
AcDbEntity
  8
0
  6
Continuous
 62
     0
370
    30
100
AcDbLine
 10
93.607583
 20
100.753649
 30
0.0
 11
95.0703
 21
100.599911
 31
0.0
  0
LINE
  5
133
330
DD
100
AcDbEntity
  8
0
  6
Continuous
 62
     0
370
    30
100
AcDbLine
 10
93.607583
 20
96.319039
 30
0.0
 11
95.0703
 21
96.472777
 31
0.0
  0
LINE
  5
134
330
DD
100
AcDbEntity
  8
0
  6
Continuous
 62
     0
370
    30
100
AcDbLine
 10
93.607583
 20
89.920763
 30
0.0
 11
95.0703
 21
89.767025
 31
0.0
  0
LINE
  5
135
330
DD
100
AcDbEntity
  8
0
  6
Continuous
 62
     0
370
    30
100
AcDbLine
 10
93.607583
 20
91.227369
 30
0.0
 11
95.0703
 21
91.073631
 31
0.0
  0
LINE
  5
136
330
DD
100
AcDbEntity
  8
0
  6
Continuous
 62
     0
370
    30
100
AcDbLine
 10
93.607583
 20
93.863423
 30
0.0
 11
95.0703
 21
94.01716
 31
0.0
  0
LINE
  5
137
330
DD
100
AcDbEntity
  8
0
  6
Continuous
 62
     0
370
    30
100
AcDbLine
 10
93.607583
 20
96.991426
 30
0.0
 11
95.0703
 21
96.837689
 31
0.0
  0
LINE
  5
138
330
DD
100
AcDbEntity
  8
0
  6
Continuous
 62
     0
370
    30
100
AcDbLine
 10
93.607583
 20
99.62748
 30
0.0
 11
95.0703
 21
99.781218
 31
0.0
  0
LINE
  5
139
330
DD
100
AcDbEntity
  8
0
  6
Continuous
 62
     0
370
    30
100
AcDbLine
 10
93.607583
 20
104.51587
 30
0.0
 11
95.0703
 21
104.362132
 31
0.0
  0
LINE
  5
13A
330
DD
100
AcDbEntity
  8
0
  6
Continuous
 62
     0
370
    30
100
AcDbLine
 10
93.607583
 20
107.151923
 30
0.0
 11
95.0703
 21
107.305661
 31
0.0
  0
LINE
  5
13B
330
DD
100
AcDbEntity
  8
0
  6
Continuous
 62
     0
370
    30
100
AcDbLine
 10
93.607583
 20
110.279928
 30
0.0
 11
95.0703
 21
110.12619
 31
0.0
  0
LINE
  5
13C
330
DD
100
AcDbEntity
  8
0
  6
Continuous
 62
     0
370
    30
100
AcDbLine
 10
93.607583
 20
112.915981
 30
0.0
 11
95.0703
 21
113.069719
 31
0.0
  0
LINE
  5
13D
330
DD
100
AcDbEntity
  8
0
  6
Continuous
 62
     0
370
    30
100
AcDbLine
 10
93.607583
 20
114.222588
 30
0.0
 11
95.0703
 21
114.376325
 31
0.0
  0
LINE
  5
13E
330
DD
100
AcDbEntity
  8
0
  6
Continuous
 62
     0
370
    30
100
AcDbLine
 10
93.607583
 20
107.824312
 30
0.0
 11
95.0703
 21
107.670575
 31
0.0
  0
LINE
  5
13F
330
DD
100
AcDbEntity
  8
0
  6
Continuous
 62
     0
370
    30
100
AcDbLine
 10
133.838942
 20
90.571675
 30
0.0
 11
135.045068
 21
90.571675
 31
0.0
  0
LINE
  5
140
330
DD
100
AcDbEntity
  8
0
  6
Continuous
 62
     0
370
    30
100
AcDbLine
 10
130.475353
 20
92.071623
 30
0.0
 11
129.338942
 21
93.321675
 31
0.0
  0
ARC
  5
141
330
DD
100
AcDbEntity
  8
0
  6
Continuous
 62
     0
370
    30
100
AcDbCircle
 10
123.347741
 20
98.294313
 30
0.0
 40
7.785988496250146
100
AcDbArc
 50
277.313928
 51
320.30766
  0
LINE
  5
142
330
DD
100
AcDbEntity
  8
0
  6
Continuous
 62
     0
370
    30
100
AcDbLine
 10
107.838942
 20
89.071675
 30
0.0
 11
106.838942
 21
89.071675
 31
0.0
  0
LINE
  5
143
330
DD
100
AcDbEntity
  8
0
  6
Continuous
 62
     0
370
    30
100
AcDbLine
 10
136.898155
 20
116.279913
 30
0.0
 11
146.760344
 21
119.295392
 31
0.0
  0
LINE
  5
144
330
DD
100
AcDbEntity
  8
0
  6
Continuous
 62
     0
370
    30
100
AcDbLine
 10
146.761319
 20
84.848699
 30
0.0
 11
136.898959
 21
87.86362
 31
0.0
  0
ARC
  5
145
330
DD
100
AcDbEntity
  8
0
  6
Continuous
 62
     0
370
    30
100
AcDbCircle
 10
135.545126
 20
88.471727
 30
0.0
 40
1.000001168826009
100
AcDbArc
 50
1.648426
 51
90.001556
  0
ARC
  5
146
330
DD
100
AcDbEntity
  8
0
  6
Continuous
 62
     0
370
    30
100
AcDbCircle
 10
135.544357
 20
115.671729
 30
0.0
 40
1.00000116882643
100
AcDbArc
 50
270.001686
 51
358.354816
  0
ARC
  5
147
330
DD
100
AcDbEntity
  8
0
  6
Continuous
 62
     0
370
    30
100
AcDbCircle
 10
143.542811
 20
129.815561
 30
0.0
 40
11.00120331667118
100
AcDbArc
 50
287.005952
 51
356.294409
  0
ARC
  5
148
330
DD
100
AcDbEntity
  8
0
  6
Continuous
 62
     0
370
    30
100
AcDbCircle
 10
143.544381
 20
74.328348
 30
0.0
 40
11.00120331667116
100
AcDbArc
 50
3.708833
 51
72.99729
  0
LINE
  5
149
330
DD
100
AcDbEntity
  8
0
  6
Continuous
 62
     0
370
    30
100
AcDbLine
 10
161.543965
 20
129.572464
 30
0.0
 11
155.019957
 21
129.572279
 31
0.0
  0
LINE
  5
14A
330
DD
100
AcDbEntity
  8
0
  6
Continuous
 62
     0
370
    30
100
AcDbLine
 10
161.545521
 20
74.572464
 30
0.0
 11
155.021513
 21
74.572279
 31
0.0
  0
ENDBLK
  5
14C
330
DD
100
AcDbEntity
  8
0
100
AcDbBlockEnd
  0
BLOCK
  5
1A1
330
14E
100
AcDbEntity
  8
0
100
AcDbBlockBegin
  2
c
 70
     0
 10
65.788673
 20
62.557575
 30
0.0
  3
c
  1

  0
ARC
  5
14F
330
14E
100
AcDbEntity
  8
0
  6
Continuous
 62
     0
370
    30
100
AcDbCircle
 10
299.163829
 20
247.92783
 30
0.0
 40
27.49999998980431
100
AcDbArc
 50
196.070683
 51
16.070683
  0
ARC
  5
150
330
14E
100
AcDbEntity
  8
0
  6
Continuous
 62
     0
370
    30
100
AcDbCircle
 10
299.163829
 20
247.92783
 30
0.0
 40
27.49999998980431
100
AcDbArc
 50
16.070683
 51
196.070683
  0
ARC
  5
151
330
14E
100
AcDbEntity
  8
0
  6
Continuous
 62
     0
370
     0
100
AcDbCircle
 10
299.163843
 20
247.92783
 30
0.0
 40
27.03229123304181
100
AcDbArc
 50
196.070683
 51
16.070683
  0
ARC
  5
152
330
14E
100
AcDbEntity
  8
0
  6
Continuous
 62
     0
370
     0
100
AcDbCircle
 10
299.163843
 20
247.92783
 30
0.0
 40
27.03229123304182
100
AcDbArc
 50
16.070683
 51
196.070683
  0
ARC
  5
153
330
14E
100
AcDbEntity
  8
0
  6
Continuous
 62
     0
370
     0
100
AcDbCircle
 10
299.164063
 20
247.92783
 30
0.0
 40
17.22334626849543
100
AcDbArc
 50
196.070683
 51
16.070683
  0
ARC
  5
154
330
14E
100
AcDbEntity
  8
0
  6
Continuous
 62
     0
370
     0
100
AcDbCircle
 10
299.164063
 20
247.92783
 30
0.0
 40
17.22334626849543
100
AcDbArc
 50
16.070683
 51
196.070683
  0
ARC
  5
155
330
14E
100
AcDbEntity
  8
0
  6
Continuous
 62
     0
370
     0
100
AcDbCircle
 10
299.164435
 20
247.927695
 30
0.0
 40
15.49999999993595
100
AcDbArc
 50
360.0
 51
180.0
  0
ARC
  5
156
330
14E
100
AcDbEntity
  8
0
  6
Continuous
 62
     0
370
     0
100
AcDbCircle
 10
299.164435
 20
247.927695
 30
0.0
 40
15.49999999993595
100
AcDbArc
 50
180.0
 51
360.0
  0
ARC
  5
157
330
14E
100
AcDbEntity
  8
0
  6
Continuous
 62
     0
370
    30
100
AcDbCircle
 10
299.164435
 20
247.927695
 30
0.0
 40
15.99999999993595
100
AcDbArc
 50
180.0
 51
360.0
  0
ARC
  5
158
330
14E
100
AcDbEntity
  8
0
  6
Continuous
 62
     0
370
    30
100
AcDbCircle
 10
299.164435
 20
247.927695
 30
0.0
 40
15.99999999993595
100
AcDbArc
 50
360.0
 51
180.0
  0
ARC
  5
159
330
14E
100
AcDbEntity
  8
0
  6
Continuous
 62
     0
370
     0
100
AcDbCircle
 10
299.164436
 20
236.927695
 30
0.0
 40
1.019670305445643
100
AcDbArc
 50
270.0
 51
90.0
  0
ARC
  5
15A
330
14E
100
AcDbEntity
  8
0
  6
Continuous
 62
     0
370
     0
100
AcDbCircle
 10
299.164436
 20
236.927695
 30
0.0
 40
1.019670305445643
100
AcDbArc
 50
90.0
 51
270.0
  0
ARC
  5
15B
330
14E
100
AcDbEntity
  8
0
  6
Continuous
 62
     0
370
     0
100
AcDbCircle
 10
299.164436
 20
236.927695
 30
0.0
 40
1.318026885911749
100
AcDbArc
 50
270.0
 51
90.0
  0
ARC
  5
15C
330
14E
100
AcDbEntity
  8
0
  6
Continuous
 62
     0
370
     0
100
AcDbCircle
 10
299.164436
 20
236.927695
 30
0.0
 40
1.318026885911749
100
AcDbArc
 50
90.0
 51
270.0
  0
ARC
  5
15D
330
14E
100
AcDbEntity
  8
0
  6
Continuous
 62
     0
370
     0
100
AcDbCircle
 10
299.164435
 20
236.927695
 30
0.0
 40
1.770121224023004
100
AcDbArc
 50
90.0
 51
270.0
  0
ARC
  5
15E
330
14E
100
AcDbEntity
  8
0
  6
Continuous
 62
     0
370
     0
100
AcDbCircle
 10
299.164435
 20
236.927695
 30
0.0
 40
1.770121224023004
100
AcDbArc
 50
270.0
 51
90.0
  0
ARC
  5
15F
330
14E
100
AcDbEntity
  8
0
  6
Continuous
 62
     0
370
     0
100
AcDbCircle
 10
306.235099
 20
239.501206
 30
0.0
 40
1.770121224023003
100
AcDbArc
 50
130.0
 51
310.0
  0
ARC
  5
160
330
14E
100
AcDbEntity
  8
0
  6
Continuous
 62
     0
370
     0
100
AcDbCircle
 10
306.235099
 20
239.501206
 30
0.0
 40
1.770121224023003
100
AcDbArc
 50
310.0
 51
130.0
  0
ARC
  5
161
330
14E
100
AcDbEntity
  8
0
  6
Continuous
 62
     0
370
     0
100
AcDbCircle
 10
309.997321
 20
246.017565
 30
0.0
 40
1.770121224023005
100
AcDbArc
 50
170.0
 51
350.0
  0
ARC
  5
162
330
14E
100
AcDbEntity
  8
0
  6
Continuous
 62
     0
370
     0
100
AcDbCircle
 10
309.997321
 20
246.017565
 30
0.0
 40
1.770121224023005
100
AcDbArc
 50
350.0
 51
170.0
  0
ARC
  5
163
330
14E
100
AcDbEntity
  8
0
  6
Continuous
 62
     0
370
     0
100
AcDbCircle
 10
308.690715
 20
253.427695
 30
0.0
 40
1.770121224023001
100
AcDbArc
 50
210.0
 51
30.0
  0
ARC
  5
164
330
14E
100
AcDbEntity
  8
0
  6
Continuous
 62
     0
370
     0
100
AcDbCircle
 10
308.690715
 20
253.427695
 30
0.0
 40
1.770121224023001
100
AcDbArc
 50
30.0
 51
210.0
  0
ARC
  5
165
330
14E
100
AcDbEntity
  8
0
  6
Continuous
 62
     0
370
     0
100
AcDbCircle
 10
302.926657
 20
258.264314
 30
0.0
 40
1.770121224023003
100
AcDbArc
 50
250.0
 51
70.0
  0
ARC
  5
166
330
14E
100
AcDbEntity
  8
0
  6
Continuous
 62
     0
370
     0
100
AcDbCircle
 10
302.926657
 20
258.264314
 30
0.0
 40
1.770121224023003
100
AcDbArc
 50
70.0
 51
250.0
  0
ARC
  5
167
330
14E
100
AcDbEntity
  8
0
  6
Continuous
 62
     0
370
     0
100
AcDbCircle
 10
295.402214
 20
258.264314
 30
0.0
 40
1.770121224023005
100
AcDbArc
 50
290.0
 51
110.0
  0
ARC
  5
168
330
14E
100
AcDbEntity
  8
0
  6
Continuous
 62
     0
370
     0
100
AcDbCircle
 10
295.402214
 20
258.264314
 30
0.0
 40
1.770121224023005
100
AcDbArc
 50
110.0
 51
290.0
  0
ARC
  5
169
330
14E
100
AcDbEntity
  8
0
  6
Continuous
 62
     0
370
     0
100
AcDbCircle
 10
289.638156
 20
253.427695
 30
0.0
 40
1.770121224023003
100
AcDbArc
 50
330.0
 51
150.0
  0
ARC
  5
16A
330
14E
100
AcDbEntity
  8
0
  6
Continuous
 62
     0
370
     0
100
AcDbCircle
 10
289.638156
 20
253.427695
 30
0.0
 40
1.770121224023003
100
AcDbArc
 50
150.0
 51
330.0
  0
ARC
  5
16B
330
14E
100
AcDbEntity
  8
0
  6
Continuous
 62
     0
370
     0
100
AcDbCircle
 10
288.33155
 20
246.017565
 30
0.0
 40
1.770121224023003
100
AcDbArc
 50
10.0
 51
190.0
  0
ARC
  5
16C
330
14E
100
AcDbEntity
  8
0
  6
Continuous
 62
     0
370
     0
100
AcDbCircle
 10
288.33155
 20
246.017565
 30
0.0
 40
1.770121224023003
100
AcDbArc
 50
190.0
 51
10.0
  0
ARC
  5
16D
330
14E
100
AcDbEntity
  8
0
  6
Continuous
 62
     0
370
     0
100
AcDbCircle
 10
292.093772
 20
239.501206
 30
0.0
 40
1.770121224023002
100
AcDbArc
 50
50.0
 51
230.0
  0
ARC
  5
16E
330
14E
100
AcDbEntity
  8
0
  6
Continuous
 62
     0
370
     0
100
AcDbCircle
 10
292.093772
 20
239.501206
 30
0.0
 40
1.770121224023002
100
AcDbArc
 50
230.0
 51
50.0
  0
ARC
  5
16F
330
14E
100
AcDbEntity
  8
0
  6
Continuous
 62
     0
370
     0
100
AcDbCircle
 10
292.093772
 20
239.501206
 30
0.0
 40
1.318026885911747
100
AcDbArc
 50
50.0
 51
230.0
  0
ARC
  5
170
330
14E
100
AcDbEntity
  8
0
  6
Continuous
 62
     0
370
     0
100
AcDbCircle
 10
292.093772
 20
239.501206
 30
0.0
 40
1.318026885911747
100
AcDbArc
 50
230.0
 51
50.0
  0
ARC
  5
171
330
14E
100
AcDbEntity
  8
0
  6
Continuous
 62
     0
370
     0
100
AcDbCircle
 10
292.093772
 20
239.501206
 30
0.0
 40
1.471764643556898
100
AcDbArc
 50
230.0
 51
50.0
  0
ARC
  5
172
330
14E
100
AcDbEntity
  8
0
  6
Continuous
 62
     0
370
     0
100
AcDbCircle
 10
292.093772
 20
239.501206
 30
0.0
 40
1.471764643556898
100
AcDbArc
 50
50.0
 51
230.0
  0
ARC
  5
173
330
14E
100
AcDbEntity
  8
0
  6
Continuous
 62
     0
370
     0
100
AcDbCircle
 10
288.33155
 20
246.017565
 30
0.0
 40
1.318026885911751
100
AcDbArc
 50
10.0
 51
190.0
  0
ARC
  5
174
330
14E
100
AcDbEntity
  8
0
  6
Continuous
 62
     0
370
     0
100
AcDbCircle
 10
288.33155
 20
246.017565
 30
0.0
 40
1.318026885911751
100
AcDbArc
 50
190.0
 51
10.0
  0
ARC
  5
175
330
14E
100
AcDbEntity
  8
0
  6
Continuous
 62
     0
370
     0
100
AcDbCircle
 10
288.33155
 20
246.017565
 30
0.0
 40
1.471764643556897
100
AcDbArc
 50
190.0
 51
10.0
  0
ARC
  5
176
330
14E
100
AcDbEntity
  8
0
  6
Continuous
 62
     0
370
     0
100
AcDbCircle
 10
288.33155
 20
246.017565
 30
0.0
 40
1.471764643556897
100
AcDbArc
 50
10.0
 51
190.0
  0
ARC
  5
177
330
14E
100
AcDbEntity
  8
0
  6
Continuous
 62
     0
370
     0
100
AcDbCircle
 10
289.638156
 20
253.427695
 30
0.0
 40
1.318026885911749
100
AcDbArc
 50
330.0
 51
150.0
  0
ARC
  5
178
330
14E
100
AcDbEntity
  8
0
  6
Continuous
 62
     0
370
     0
100
AcDbCircle
 10
289.638156
 20
253.427695
 30
0.0
 40
1.318026885911749
100
AcDbArc
 50
150.0
 51
330.0
  0
ARC
  5
179
330
14E
100
AcDbEntity
  8
0
  6
Continuous
 62
     0
370
     0
100
AcDbCircle
 10
289.638156
 20
253.427695
 30
0.0
 40
1.471764643556893
100
AcDbArc
 50
150.0
 51
330.0
  0
ARC
  5
17A
330
14E
100
AcDbEntity
  8
0
  6
Continuous
 62
     0
370
     0
100
AcDbCircle
 10
289.638156
 20
253.427695
 30
0.0
 40
1.471764643556893
100
AcDbArc
 50
330.0
 51
150.0
  0
ARC
  5
17B
330
14E
100
AcDbEntity
  8
0
  6
Continuous
 62
     0
370
     0
100
AcDbCircle
 10
295.402214
 20
258.264314
 30
0.0
 40
1.318026885911751
100
AcDbArc
 50
290.0
 51
110.0
  0
ARC
  5
17C
330
14E
100
AcDbEntity
  8
0
  6
Continuous
 62
     0
370
     0
100
AcDbCircle
 10
295.402214
 20
258.264314
 30
0.0
 40
1.318026885911751
100
AcDbArc
 50
110.0
 51
290.0
  0
ARC
  5
17D
330
14E
100
AcDbEntity
  8
0
  6
Continuous
 62
     0
370
     0
100
AcDbCircle
 10
295.402214
 20
258.264314
 30
0.0
 40
1.471764643556898
100
AcDbArc
 50
110.0
 51
290.0
  0
ARC
  5
17E
330
14E
100
AcDbEntity
  8
0
  6
Continuous
 62
     0
370
     0
100
AcDbCircle
 10
295.402214
 20
258.264314
 30
0.0
 40
1.471764643556898
100
AcDbArc
 50
290.0
 51
110.0
  0
ARC
  5
17F
330
14E
100
AcDbEntity
  8
0
  6
Continuous
 62
     0
370
     0
100
AcDbCircle
 10
302.926657
 20
258.264314
 30
0.0
 40
1.318026885911749
100
AcDbArc
 50
250.0
 51
70.0
  0
ARC
  5
180
330
14E
100
AcDbEntity
  8
0
  6
Continuous
 62
     0
370
     0
100
AcDbCircle
 10
302.926657
 20
258.264314
 30
0.0
 40
1.318026885911749
100
AcDbArc
 50
70.0
 51
250.0
  0
ARC
  5
181
330
14E
100
AcDbEntity
  8
0
  6
Continuous
 62
     0
370
     0
100
AcDbCircle
 10
302.926657
 20
258.264314
 30
0.0
 40
1.471764643556897
100
AcDbArc
 50
70.0
 51
250.0
  0
ARC
  5
182
330
14E
100
AcDbEntity
  8
0
  6
Continuous
 62
     0
370
     0
100
AcDbCircle
 10
302.926657
 20
258.264314
 30
0.0
 40
1.471764643556896
100
AcDbArc
 50
250.0
 51
70.0
  0
ARC
  5
183
330
14E
100
AcDbEntity
  8
0
  6
Continuous
 62
     0
370
     0
100
AcDbCircle
 10
308.690715
 20
253.427695
 30
0.0
 40
1.318026885911748
100
AcDbArc
 50
210.0
 51
30.0
  0
ARC
  5
184
330
14E
100
AcDbEntity
  8
0
  6
Continuous
 62
     0
370
     0
100
AcDbCircle
 10
308.690715
 20
253.427695
 30
0.0
 40
1.318026885911748
100
AcDbArc
 50
30.0
 51
210.0
  0
ARC
  5
185
330
14E
100
AcDbEntity
  8
0
  6
Continuous
 62
     0
370
     0
100
AcDbCircle
 10
308.690715
 20
253.427695
 30
0.0
 40
1.471764643556898
100
AcDbArc
 50
30.0
 51
210.0
  0
ARC
  5
186
330
14E
100
AcDbEntity
  8
0
  6
Continuous
 62
     0
370
     0
100
AcDbCircle
 10
308.690715
 20
253.427695
 30
0.0
 40
1.471764643556898
100
AcDbArc
 50
210.0
 51
30.0
  0
ARC
  5
187
330
14E
100
AcDbEntity
  8
0
  6
Continuous
 62
     0
370
     0
100
AcDbCircle
 10
309.997321
 20
246.017565
 30
0.0
 40
1.31802688591175
100
AcDbArc
 50
170.0
 51
350.0
  0
ARC
  5
188
330
14E
100
AcDbEntity
  8
0
  6
Continuous
 62
     0
370
     0
100
AcDbCircle
 10
309.997321
 20
246.017565
 30
0.0
 40
1.31802688591175
100
AcDbArc
 50
350.0
 51
170.0
  0
ARC
  5
189
330
14E
100
AcDbEntity
  8
0
  6
Continuous
 62
     0
370
     0
100
AcDbCircle
 10
309.997321
 20
246.017565
 30
0.0
 40
1.471764643556897
100
AcDbArc
 50
350.0
 51
170.0
  0
ARC
  5
18A
330
14E
100
AcDbEntity
  8
0
  6
Continuous
 62
     0
370
     0
100
AcDbCircle
 10
309.997321
 20
246.017565
 30
0.0
 40
1.471764643556897
100
AcDbArc
 50
170.0
 51
350.0
  0
ARC
  5
18B
330
14E
100
AcDbEntity
  8
0
  6
Continuous
 62
     0
370
     0
100
AcDbCircle
 10
306.235099
 20
239.501206
 30
0.0
 40
1.318026885911749
100
AcDbArc
 50
130.0
 51
310.0
  0
ARC
  5
18C
330
14E
100
AcDbEntity
  8
0
  6
Continuous
 62
     0
370
     0
100
AcDbCircle
 10
306.235099
 20
239.501206
 30
0.0
 40
1.318026885911749
100
AcDbArc
 50
310.0
 51
130.0
  0
ARC
  5
18D
330
14E
100
AcDbEntity
  8
0
  6
Continuous
 62
     0
370
     0
100
AcDbCircle
 10
306.235099
 20
239.501206
 30
0.0
 40
1.4717646435569
100
AcDbArc
 50
310.0
 51
130.0
  0
ARC
  5
18E
330
14E
100
AcDbEntity
  8
0
  6
Continuous
 62
     0
370
     0
100
AcDbCircle
 10
306.235099
 20
239.501206
 30
0.0
 40
1.4717646435569
100
AcDbArc
 50
130.0
 51
310.0
  0
ARC
  5
18F
330
14E
100
AcDbEntity
  8
0
  6
Continuous
 62
     0
370
     0
100
AcDbCircle
 10
299.164435
 20
236.927695
 30
0.0
 40
1.471764643556897
100
AcDbArc
 50
270.0
 51
90.0
  0
ARC
  5
190
330
14E
100
AcDbEntity
  8
0
  6
Continuous
 62
     0
370
     0
100
AcDbCircle
 10
299.164435
 20
236.927695
 30
0.0
 40
1.471764643556897
100
AcDbArc
 50
90.0
 51
270.0
  0
ARC
  5
191
330
14E
100
AcDbEntity
  8
0
  6
Continuous
 62
     0
370
     0
100
AcDbCircle
 10
306.235099
 20
239.501206
 30
0.0
 40
1.019670305445643
100
AcDbArc
 50
310.0
 51
130.0
  0
ARC
  5
192
330
14E
100
AcDbEntity
  8
0
  6
Continuous
 62
     0
370
     0
100
AcDbCircle
 10
306.235099
 20
239.501206
 30
0.0
 40
1.019670305445643
100
AcDbArc
 50
130.0
 51
310.0
  0
ARC
  5
193
330
14E
100
AcDbEntity
  8
0
  6
Continuous
 62
     0
370
     0
100
AcDbCircle
 10
309.997321
 20
246.017565
 30
0.0
 40
1.019670305445644
100
AcDbArc
 50
350.0
 51
170.0
  0
ARC
  5
194
330
14E
100
AcDbEntity
  8
0
  6
Continuous
 62
     0
370
     0
100
AcDbCircle
 10
309.997321
 20
246.017565
 30
0.0
 40
1.019670305445644
100
AcDbArc
 50
170.0
 51
350.0
  0
ARC
  5
195
330
14E
100
AcDbEntity
  8
0
  6
Continuous
 62
     0
370
     0
100
AcDbCircle
 10
308.690715
 20
253.427695
 30
0.0
 40
1.019670305445644
100
AcDbArc
 50
30.0
 51
210.0
  0
ARC
  5
196
330
14E
100
AcDbEntity
  8
0
  6
Continuous
 62
     0
370
     0
100
AcDbCircle
 10
308.690715
 20
253.427695
 30
0.0
 40
1.019670305445644
100
AcDbArc
 50
210.0
 51
30.0
  0
ARC
  5
197
330
14E
100
AcDbEntity
  8
0
  6
Continuous
 62
     0
370
     0
100
AcDbCircle
 10
302.926657
 20
258.264314
 30
0.0
 40
1.019670305445644
100
AcDbArc
 50
70.0
 51
250.0
  0
ARC
  5
198
330
14E
100
AcDbEntity
  8
0
  6
Continuous
 62
     0
370
     0
100
AcDbCircle
 10
302.926657
 20
258.264314
 30
0.0
 40
1.019670305445644
100
AcDbArc
 50
250.0
 51
70.0
  0
ARC
  5
199
330
14E
100
AcDbEntity
  8
0
  6
Continuous
 62
     0
370
     0
100
AcDbCircle
 10
295.402214
 20
258.264314
 30
0.0
 40
1.019670305445645
100
AcDbArc
 50
110.0
 51
290.0
  0
ARC
  5
19A
330
14E
100
AcDbEntity
  8
0
  6
Continuous
 62
     0
370
     0
100
AcDbCircle
 10
295.402214
 20
258.264314
 30
0.0
 40
1.019670305445645
100
AcDbArc
 50
290.0
 51
110.0
  0
ARC
  5
19B
330
14E
100
AcDbEntity
  8
0
  6
Continuous
 62
     0
370
     0
100
AcDbCircle
 10
289.638156
 20
253.427695
 30
0.0
 40
1.019670305445641
100
AcDbArc
 50
150.0
 51
330.0
  0
ARC
  5
19C
330
14E
100
AcDbEntity
  8
0
  6
Continuous
 62
     0
370
     0
100
AcDbCircle
 10
289.638156
 20
253.427695
 30
0.0
 40
1.019670305445641
100
AcDbArc
 50
330.0
 51
150.0
  0
ARC
  5
19D
330
14E
100
AcDbEntity
  8
0
  6
Continuous
 62
     0
370
     0
100
AcDbCircle
 10
288.33155
 20
246.017565
 30
0.0
 40
1.019670305445644
100
AcDbArc
 50
190.0
 51
10.0
  0
ARC
  5
19E
330
14E
100
AcDbEntity
  8
0
  6
Continuous
 62
     0
370
     0
100
AcDbCircle
 10
288.33155
 20
246.017565
 30
0.0
 40
1.019670305445644
100
AcDbArc
 50
10.0
 51
190.0
  0
ARC
  5
19F
330
14E
100
AcDbEntity
  8
0
  6
Continuous
 62
     0
370
     0
100
AcDbCircle
 10
292.093772
 20
239.501206
 30
0.0
 40
1.019670305445643
100
AcDbArc
 50
230.0
 51
50.0
  0
ARC
  5
1A0
330
14E
100
AcDbEntity
  8
0
  6
Continuous
 62
     0
370
     0
100
AcDbCircle
 10
292.093772
 20
239.501206
 30
0.0
 40
1.019670305445643
100
AcDbArc
 50
50.0
 51
230.0
  0
ENDBLK
  5
1A2
330
14E
100
AcDbEntity
  8
0
100
AcDbBlockEnd
  0
BLOCK
  5
25B
330
1A4
100
AcDbEntity
  8
0
100
AcDbBlockBegin
  2
d
 70
     0
 10
65.788673
 20
62.557575
 30
0.0
  3
d
  1

  0
LWPOLYLINE
  5
1A5
330
1A4
100
AcDbEntity
  8
0
  6
Continuous
 62
     0
370
    30
100
AcDbPolyline
 90
       24
 70
     0
 43
0.0
 10
317.006622
 20
114.100731
 10
317.268524
 20
112.783394
 10
317.475677
 20
111.48304
 10
317.627747
 20
110.203339
 10
317.724396
 20
108.947937
 10
317.765289
 20
107.720505
 10
317.750061
 20
106.524704
 10
317.678619
 20
105.364052
 10
317.551453
 20
104.241699
 10
317.36908
 20
103.160736
 10
317.132111
 20
102.12426
 10
316.841064
 20
101.135368
 10
316.496521
 20
100.197151
 10
316.099396
 20
99.312393
 10
315.651062
 20
98.483353
 10
315.152985
 20
97.712227
 10
314.606628
 20
97.001236
 10
314.013458
 20
96.35257
 10
313.374939
 20
95.768425
 10
312.692871
 20
95.250511
 10
311.969482
 20
94.799973
 10
311.206909
 20
94.4179
 10
310.407349
 20
94.105423
 10
309.569366
 20
93.862732
  0
LWPOLYLINE
  5
1A6
330
1A4
100
AcDbEntity
  8
0
  6
Continuous
 62
     0
370
    30
100
AcDbPolyline
 90
       43
 70
     0
 43
0.0
 10
282.457947
 20
140.818909
 10
283.081116
 20
141.418701
 10
283.748016
 20
141.953232
 10
284.456543
 20
142.42131
 10
285.204529
 20
142.821838
 10
285.989777
 20
143.153717
 10
286.81012
 20
143.415863
 10
287.663422
 20
143.607178
 10
288.547272
 20
143.726959
 10
289.459045
 20
143.775253
 10
290.396057
 20
143.752167
 10
291.35556
 20
143.657761
 10
292.3349
 20
143.492172
 10
293.33136
 20
143.255508
 10
294.342163
 20
142.948364
 10
295.364319
 20
142.57196
 10
296.394867
 20
142.127609
 10
297.430908
 20
141.616562
 10
298.469452
 20
141.040131
 10
299.507568
 20
140.399597
 10
300.542267
 20
139.696793
 10
301.570679
 20
138.934036
 10
302.589874
 20
138.113663
 10
303.596893
 20
137.238022
 10
304.588867
 20
136.309448
 10
305.562836
 20
135.330322
 10
306.516113
 20
134.303452
 10
307.446045
 20
133.23204
 10
308.350037
 20
132.119217
 10
309.225464
 20
130.96817
 10
310.069763
 20
129.782074
 10
310.880341
 20
128.564117
 10
311.654968
 20
127.31781
 10
312.391663
 20
126.046867
 10
313.088348
 20
124.754951
 10
313.743042
 20
123.445755
 10
314.353668
 20
122.122963
 10
314.918335
 20
120.790276
 10
315.435547
 20
119.451508
 10
315.903992
 20
118.110497
 10
316.322449
 20
116.771095
 10
316.689545
 20
115.437141
 10
317.006622
 20
114.100731
  0
LWPOLYLINE
  5
1A7
330
1A4
100
AcDbEntity
  8
0
  6
Continuous
 62
     0
370
     0
100
AcDbPolyline
 90
       37
 70
     0
 43
0.0
 10
312.393585
 20
111.437241
 10
312.620392
 20
110.312172
 10
312.810577
 20
109.179054
 10
312.961426
 20
108.041786
 10
313.070404
 20
106.904549
 10
313.13504
 20
105.77182
 10
313.153168
 20
104.648293
 10
313.122803
 20
103.538872
 10
313.042267
 20
102.448593
 10
312.910217
 20
101.382584
 10
312.725739
 20
100.34597
 10
312.48819
 20
99.343834
 10
312.19751
 20
98.381111
 10
311.853973
 20
97.462547
 10
311.458344
 20
96.592606
 10
311.011841
 20
95.775398
 10
310.516144
 20
95.014626
 10
309.973297
 20
94.313538
 10
309.385773
 20
93.674858
 10
308.756409
 20
93.100769
 10
308.088379
 20
92.59288
 10
307.38504
 20
92.152229
 10
306.650024
 20
91.779266
 10
305.887085
 20
91.473892
 10
305.100067
 20
91.235435
 10
304.292908
 20
91.062744
 10
303.469452
 20
90.954193
 10
302.633545
 20
90.90773
 10
301.78891
 20
90.920952
 10
300.939087
 20
90.991127
 10
300.087463
 20
91.11528
 10
299.237244
 20
91.290237
 10
298.380371
 20
91.515884
 10
297.498352
 20
91.797943
 10
296.592712
 20
92.138527
 10
295.66571
 20
92.539314
 10
294.70163
 20
93.011124
  0
LWPOLYLINE
  5
1A8
330
1A4
100
AcDbEntity
  8
0
  6
Continuous
 62
     0
370
     0
100
AcDbPolyline
 90
       56
 70
     0
 43
0.0
 10
274.286926
 20
128.368423
 10
274.363129
 20
129.469406
 10
274.491547
 20
130.546234
 10
274.673157
 20
131.593643
 10
274.90863
 20
132.60643
 10
275.19812
 20
133.579514
 10
275.541321
 20
134.508026
 10
275.937469
 20
135.387375
 10
276.385406
 20
136.213348
 10
276.883392
 20
136.982117
 10
277.429321
 20
137.690353
 10
278.020691
 20
138.335236
 10
278.654602
 20
138.914536
 10
279.32785
 20
139.42659
 10
280.036926
 20
139.870346
 10
280.778168
 20
140.245331
 10
281.547699
 20
140.551666
 10
282.341553
 20
140.790039
 10
283.155792
 20
140.961655
 10
283.986389
 20
141.068192
 10
284.829468
 20
141.111771
 10
285.681213
 20
141.094864
 10
286.537994
 20
141.020294
 10
287.396332
 20
140.891113
 10
288.253021
 20
140.710587
 10
289.118774
 20
140.478058
 10
290.010254
 20
140.187912
 10
290.925507
 20
139.838135
 10
291.862152
 20
139.427032
 10
292.817505
 20
138.953293
 10
293.788544
 20
138.416031
 10
294.771912
 20
137.81485
 10
295.764008
 20
137.149826
 10
296.761017
 20
136.421616
 10
297.75885
 20
135.631378
 10
298.753326
 20
134.780899
 10
299.740112
 20
133.872513
 10
300.714844
 20
132.909088
 10
301.673157
 20
131.894043
 10
302.610809
 20
130.831299
 10
303.523682
 20
129.725235
 10
304.407837
 20
128.580566
 10
305.259583
 20
127.402359
 10
306.075562
 20
126.195946
 10
306.852753
 20
124.966774
 10
307.588562
 20
123.720421
 10
308.280731
 20
122.462448
 10
308.92749
 20
121.198341
 10
309.527466
 20
119.933464
 10
310.079742
 20
118.672943
 10
310.583832
 20
117.421669
 10
311.039642
 20
116.184196
 10
311.447449
 20
114.964737
 10
311.807861
 20
113.767105
 10
312.121857
 20
112.594742
 10
312.393585
 20
111.437241
  0
LWPOLYLINE
  5
1A9
330
1A4
100
AcDbEntity
  8
0
  6
Continuous
 62
     0
370
     0
100
AcDbPolyline
 90
       41
 70
     0
 43
0.0
 10
311.722961
 20
111.311295
 10
311.950165
 20
110.182495
 10
312.139771
 20
109.04554
 10
312.289001
 20
107.904495
 10
312.395203
 20
106.763771
 10
312.455811
 20
105.628036
 10
312.468567
 20
104.502235
 10
312.431458
 20
103.391518
 10
312.342743
 20
102.301147
 10
312.201141
 20
101.236496
 10
312.005676
 20
100.202911
 10
311.755829
 20
99.205673
 10
311.45163
 20
98.249924
 10
311.093414
 20
97.340538
 10
310.68219
 20
96.482094
 10
310.21933
 20
95.678787
 10
309.706665
 20
94.934341
 10
309.146545
 20
94.251984
 10
308.541687
 20
93.634361
 10
307.895111
 20
93.083557
 10
307.210297
 20
92.601021
 10
306.490814
 20
92.187592
 10
305.74057
 20
91.843483
 10
304.963501
 20
91.568329
 10
304.163666
 20
91.361206
 10
303.345184
 20
91.220642
 10
302.512054
 20
91.144722
 10
301.668213
 20
91.131096
 10
300.817474
 20
91.177055
 10
299.96344
 20
91.27961
 10
299.109558
 20
91.435501
 10
298.255615
 20
91.642258
 10
297.379578
 20
91.90506
 10
296.478607
 20
92.227119
 10
295.554993
 20
92.610306
 10
294.611389
 20
93.056114
 10
293.650696
 20
93.565636
 10
292.676208
 20
94.139481
 10
291.691528
 20
94.777763
 10
290.700439
 20
95.480042
 10
289.699829
 20
96.251106
  0
LWPOLYLINE
  5
1AA
330
1A4
100
AcDbEntity
  8
0
  6
Continuous
 62
     0
370
     0
100
AcDbPolyline
 90
       60
 70
     0
 43
0.0
 10
274.592224
 20
122.416748
 10
274.437073
 20
123.561638
 10
274.324951
 20
124.706787
 10
274.258423
 20
125.847504
 10
274.239838
 20
126.978821
 10
274.271271
 20
128.095566
 10
274.354492
 20
129.192413
 10
274.490875
 20
130.263947
 10
274.681396
 20
131.304749
 10
274.926666
 20
132.309479
 10
275.226746
 20
133.272919
 10
275.581238
 20
134.190109
 10
275.989288
 20
135.056396
 10
276.449463
 20
135.867493
 10
276.959961
 20
136.619598
 10
277.518494
 20
137.309402
 10
278.122284
 20
137.934189
 10
278.768341
 20
138.491806
 10
279.453186
 20
138.980728
 10
280.173157
 20
139.400101
 10
280.924377
 20
139.749619
 10
281.70285
 20
140.029663
 10
282.504456
 20
140.241119
 10
283.325073
 20
140.385437
 10
284.160645
 20
140.464539
 10
285.007172
 20
140.480789
 10
285.860809
 20
140.436905
 10
286.717865
 20
140.335907
 10
287.57489
 20
140.181061
 10
288.431702
 20
139.975006
 10
289.310272
 20
139.712631
 10
290.21402
 20
139.390625
 10
291.140594
 20
139.007095
 10
292.087402
 20
138.560486
 10
293.051422
 20
138.049728
 10
294.029358
 20
137.474167
 10
295.017609
 20
136.83371
 10
296.012299
 20
136.128799
 10
297.009277
 20
135.360443
 10
298.004272
 20
134.530258
 10
298.992859
 20
133.640457
 10
299.970581
 20
132.693848
 10
300.932892
 20
131.693802
 10
301.875366
 20
130.644211
 10
302.793732
 20
129.549469
 10
303.683838
 20
128.414383
 10
304.54187
 20
127.244087
 10
305.364288
 20
126.044022
 10
306.147858
 20
124.819817
 10
306.889832
 20
123.577187
 10
307.58783
 20
122.321884
 10
308.23996
 20
121.059593
 10
308.844757
 20
119.795845
 10
309.401215
 20
118.535988
 10
309.908783
 20
117.285072
 10
310.36731
 20
116.047829
 10
310.777069
 20
114.828636
 10
311.138702
 20
113.631454
 10
311.453186
 20
112.459839
 10
311.722961
 20
111.311295
  0
LWPOLYLINE
  5
1AB
330
1A4
100
AcDbEntity
  8
0
  6
Continuous
 62
     0
370
     0
100
AcDbPolyline
 90
       21
 70
     0
 43
0.0
 10
299.57019
 20
109.773628
 10
299.745056
 20
108.887314
 10
299.883026
 20
107.994019
 10
299.980774
 20
107.098717
 10
300.035248
 20
106.206841
 10
300.043671
 20
105.324196
 10
300.003662
 20
104.456909
 10
299.9133
 20
103.611282
 10
299.77124
 20
102.793686
 10
299.576752
 20
102.010437
 10
299.329773
 20
101.267624
 10
299.030914
 20
100.570999
 10
298.681519
 20
99.925812
 10
298.28363
 20
99.336678
 10
297.839905
 20
98.807503
 10
297.353668
 20
98.341354
 10
296.828674
 20
97.940437
 10
296.269165
 20
97.606064
 10
295.679657
 20
97.338623
 10
295.06488
 20
97.137642
 10
294.413605
 20
96.999275
  0
LWPOLYLINE
  5
1AC
330
1A4
100
AcDbEntity
  8
0
  6
Continuous
 62
     0
370
     0
100
AcDbPolyline
 90
       37
 70
     0
 43
0.0
 10
277.595367
 20
126.123215
 10
278.057312
 20
126.634865
 10
278.561157
 20
127.081688
 10
279.102844
 20
127.461761
 10
279.677917
 20
127.774086
 10
280.281677
 20
128.01857
 10
280.909241
 20
128.19603
 10
281.555664
 20
128.308044
 10
282.216034
 20
128.356964
 10
282.88559
 20
128.345718
 10
283.559845
 20
128.277786
 10
284.234558
 20
128.156998
 10
284.911865
 20
127.985779
 10
285.612549
 20
127.758476
 10
286.336456
 20
127.472099
 10
287.080566
 20
127.124657
 10
287.841309
 20
126.714783
 10
288.614655
 20
126.241829
 10
289.396149
 20
125.70591
 10
290.180939
 20
125.107986
 10
290.963867
 20
124.449898
 10
291.739655
 20
123.734375
 10
292.502899
 20
122.965019
 10
293.248169
 20
122.146233
 10
293.970337
 20
121.283188
 10
294.664459
 20
120.381653
 10
295.325958
 20
119.447929
 10
295.950836
 20
118.488663
 10
296.535614
 20
117.510704
 10
297.077454
 20
116.520958
 10
297.574127
 20
115.526222
 10
298.02417
 20
114.533043
 10
298.426758
 20
113.547623
 10
298.781647
 20
112.575668
 10
299.089264
 20
111.622353
 10
299.350494
 20
110.692253
 10
299.57019
 20
109.773628
  0
LWPOLYLINE
  5
1AD
330
1A4
100
AcDbEntity
  8
0
  6
Continuous
 62
     0
370
     0
100
AcDbPolyline
 90
       17
 70
     0
 43
0.0
 10
287.566803
 20
105.900406
 10
287.723999
 20
105.070656
 10
287.829895
 20
104.2584
 10
287.884033
 20
103.468704
 10
287.885956
 20
102.706619
 10
287.835419
 20
101.977066
 10
287.733002
 20
101.284416
 10
287.579529
 20
100.63295
 10
287.375732
 20
100.026939
 10
287.12265
 20
99.470406
 10
286.822174
 20
98.966545
 10
286.476318
 20
98.51841
 10
286.087067
 20
98.129036
 10
285.656738
 20
97.801125
 10
285.188232
 20
97.536362
 10
284.68457
 20
97.336296
 10
284.127411
 20
97.198601
  0
LWPOLYLINE
  5
1AE
330
1A4
100
AcDbEntity
  8
0
  6
Continuous
 62
     0
370
     0
100
AcDbPolyline
 90
       29
 70
     0
 43
0.0
 10
272.626923
 20
117.116905
 10
273.019745
 20
117.526466
 10
273.456329
 20
117.871567
 10
273.933533
 20
118.150253
 10
274.448059
 20
118.360863
 10
274.996674
 20
118.501747
 10
275.575836
 20
118.571671
 10
276.18158
 20
118.57058
 10
276.809784
 20
118.498634
 10
277.45639
 20
118.355988
 10
278.117188
 20
118.143387
 10
278.78772
 20
117.862656
 10
279.46347
 20
117.515732
 10
280.139984
 20
117.104576
 10
280.812836
 20
116.631836
 10
281.477539
 20
116.100998
 10
282.12973
 20
115.515602
 10
282.764923
 20
114.879234
 10
283.378998
 20
114.196129
 10
283.967957
 20
113.471062
 10
284.527863
 20
112.708824
 10
285.05481
 20
111.914276
 10
285.545441
 20
111.092712
 10
285.996643
 20
110.249733
 10
286.405334
 20
109.390907
 10
286.768616
 20
108.521851
 10
287.084198
 20
107.648331
 10
287.350128
 20
106.776176
 10
287.566803
 20
105.900406
  0
LWPOLYLINE
  5
1AF
330
1A4
100
AcDbEntity
  8
0
  6
Continuous
 62
     0
370
    30
100
AcDbPolyline
 90
       32
 70
     0
 43
0.0
 10
272.812805
 20
116.963448
 10
273.206543
 20
117.361732
 10
273.643311
 20
117.695877
 10
274.120331
 20
117.96328
 10
274.634613
 20
118.161728
 10
275.182465
 20
118.290276
 10
275.760071
 20
118.348236
 10
276.363617
 20
118.334915
 10
276.989044
 20
118.250267
 10
277.63205
 20
118.095299
 10
278.288269
 20
117.871086
 10
278.953308
 20
117.578827
 10
279.62262
 20
117.220543
 10
280.291626
 20
116.798737
 10
280.95575
 20
116.315926
 10
281.610474
 20
115.775261
 10
282.251556
 20
115.181007
 10
282.874664
 20
114.537567
 10
283.475586
 20
113.849304
 10
284.050049
 20
113.120605
 10
284.593781
 20
112.355881
 10
285.103119
 20
111.560127
 10
285.575165
 20
110.739105
 10
286.007019
 20
109.898582
 10
286.395782
 20
109.044342
 10
286.738556
 20
108.182182
 10
287.032471
 20
107.317879
 10
287.275177
 20
106.457191
 10
287.465607
 20
105.605858
 10
287.602905
 20
104.769592
 10
287.686218
 20
103.954117
 10
287.714691
 20
103.158951
  0
LWPOLYLINE
  5
1B0
330
1A4
100
AcDbEntity
  8
0
  6
Continuous
 62
     0
370
    30
100
AcDbPolyline
 90
       13
 70
     0
 43
0.0
 10
287.714691
 20
103.158951
 10
287.687378
 20
102.40728
 10
287.605225
 20
101.692421
 10
287.469482
 20
101.018639
 10
287.281433
 20
100.390152
 10
287.042328
 20
99.811195
 10
286.753479
 20
99.285988
 10
286.416199
 20
98.818733
 10
286.032532
 20
98.412628
 10
285.605682
 20
98.069626
 10
285.138794
 20
97.791588
 10
284.63504
 20
97.580368
 10
284.086731
 20
97.435745
  0
LWPOLYLINE
  5
1B1
330
1A4
100
AcDbEntity
  8
0
  6
Continuous
 62
     0
370
     0
100
AcDbPolyline
 90
       31
 70
     0
 43
0.0
 10
287.804626
 20
105.842216
 10
287.590027
 20
106.713043
 10
287.324554
 20
107.591148
 10
287.010071
 20
108.470924
 10
286.648499
 20
109.346756
 10
286.241882
 20
110.213074
 10
285.79306
 20
111.064476
 10
285.304962
 20
111.895569
 10
284.780579
 20
112.700981
 10
284.223053
 20
113.47551
 10
283.636108
 20
114.214432
 10
283.023529
 20
114.913139
 10
282.38913
 20
115.567001
 10
281.736816
 20
116.171722
 10
281.070862
 20
116.723755
 10
280.395508
 20
117.219704
 10
279.715027
 20
117.656151
 10
279.033661
 20
118.030144
 10
278.355774
 20
118.339691
 10
277.685638
 20
118.582932
 10
277.027588
 20
118.757996
 10
276.385803
 20
118.863594
 10
275.764252
 20
118.89949
 10
275.16684
 20
118.865532
 10
274.597534
 20
118.761581
 10
274.059967
 20
118.588158
 10
273.557343
 20
118.346771
 10
273.092834
 20
118.039024
 10
272.669617
 20
117.666527
 10
272.290375
 20
117.231544
 10
271.951111
 20
116.726715
  0
LWPOLYLINE
  5
1B2
330
1A4
100
AcDbEntity
  8
0
  6
Continuous
 62
     0
370
     0
100
AcDbPolyline
 90
       19
 70
     0
 43
0.0
 10
283.451843
 20
96.808548
 10
284.023987
 20
96.845406
 10
284.570038
 20
96.946823
 10
285.086853
 20
97.112312
 10
285.571503
 20
97.340538
 10
286.02124
 20
97.630081
 10
286.433228
 20
97.979523
 10
286.804962
 20
98.387009
 10
287.134521
 20
98.849815
 10
287.420044
 20
99.365128
 10
287.659637
 20
99.93013
 10
287.851746
 20
100.541733
 10
287.995514
 20
101.196098
 10
288.09024
 20
101.889282
 10
288.135193
 20
102.617332
 10
288.129883
 20
103.376167
 10
288.074554
 20
104.161224
 10
287.969666
 20
104.967834
 10
287.804626
 20
105.842216
  0
LWPOLYLINE
  5
1B3
330
1A4
100
AcDbEntity
  8
0
  6
Continuous
 62
     0
370
     0
100
AcDbPolyline
 90
       34
 70
     0
 43
0.0
 10
288.497925
 20
105.963219
 10
288.307953
 20
106.746216
 10
288.071747
 20
107.556358
 10
287.787689
 20
108.388672
 10
287.455017
 20
109.237312
 10
287.073669
 20
110.095604
 10
286.64447
 20
110.956154
 10
286.169281
 20
111.81105
 10
285.650879
 20
112.652054
 10
285.092926
 20
113.470802
 10
284.500061
 20
114.25914
 10
283.877563
 20
115.009308
 10
283.231354
 20
115.714256
 10
282.56778
 20
116.367813
 10
281.893311
 20
116.964897
 10
281.214447
 20
117.501625
 10
280.537537
 20
117.97538
 10
279.868469
 20
118.384789
 10
279.212677
 20
118.729706
 10
278.574921
 20
119.011078
 10
277.959259
 20
119.230835
 10
277.368591
 20
119.391838
 10
276.785034
 20
119.500252
 10
276.201965
 20
119.554596
 10
275.624542
 20
119.55027
 10
275.058258
 20
119.483238
 10
274.509003
 20
119.350273
 10
273.982727
 20
119.149101
 10
273.485382
 20
118.878593
 10
273.022675
 20
118.538849
 10
272.599854
 20
118.131287
 10
272.221619
 20
117.658653
 10
271.891846
 20
117.124992
 10
271.612
 20
116.531685
  0
LWPOLYLINE
  5
1B4
330
1A4
100
AcDbEntity
  8
0
  6
Continuous
 62
     0
370
     0
100
AcDbPolyline
 90
       21
 70
     0
 43
0.0
 10
283.112671
 20
96.612419
 10
283.683441
 20
96.560989
 10
284.248749
 20
96.56591
 10
284.803314
 20
96.630943
 10
285.341675
 20
96.75914
 10
285.858246
 20
96.952644
 10
286.347412
 20
97.212593
 10
286.803864
 20
97.538979
 10
287.222534
 20
97.930573
 10
287.598999
 20
98.384933
 10
287.929474
 20
98.898453
 10
288.211029
 20
99.4664
 10
288.441589
 20
100.08313
 10
288.620087
 20
100.74221
 10
288.746338
 20
101.436676
 10
288.821136
 20
102.159225
 10
288.8461
 20
102.902473
 10
288.823547
 20
103.659142
 10
288.756409
 20
104.422256
 10
288.648132
 20
105.18531
 10
288.497925
 20
105.963219
  0
LWPOLYLINE
  5
1B5
330
1A4
100
AcDbEntity
  8
0
  6
Continuous
 62
     0
370
     0
100
AcDbPolyline
 90
       30
 70
     0
 43
0.0
 10
287.309174
 20
112.622223
 10
286.780792
 20
113.472153
 10
286.215057
 20
114.300537
 10
285.616119
 20
115.100105
 10
284.988678
 20
115.86393
 10
284.337921
 20
116.585648
 10
283.669464
 20
117.259621
 10
282.989075
 20
117.881096
 10
282.302582
 20
118.446297
 10
281.615662
 20
118.952484
 10
280.933777
 20
119.39798
 10
280.261963
 20
119.782158
 10
279.604767
 20
120.105347
 10
278.966248
 20
120.368767
 10
278.349792
 20
120.574394
 10
277.75592
 20
120.725327
 10
277.164856
 20
120.827042
 10
276.574799
 20
120.876846
 10
275.990417
 20
120.870674
 10
275.416626
 20
120.804955
 10
274.858612
 20
120.676781
 10
274.321747
 20
120.484039
 10
273.811279
 20
120.225555
 10
273.332367
 20
119.901169
 10
272.889862
 20
119.511818
 10
272.488098
 20
119.05954
 10
272.13089
 20
118.547478
 10
271.821259
 20
117.979782
 10
271.561462
 20
117.361534
 10
271.346924
 20
116.676033
  0
LWPOLYLINE
  5
1B6
330
1A4
100
AcDbEntity
  8
0
  6
Continuous
 62
     0
370
     0
100
AcDbPolyline
 90
       23
 70
     0
 43
0.0
 10
283.105133
 20
96.310745
 10
283.710419
 20
96.171181
 10
284.315948
 20
96.083351
 10
284.918854
 20
96.051414
 10
285.514038
 20
96.079582
 10
286.096069
 20
96.171455
 10
286.659302
 20
96.329834
 10
287.197998
 20
96.556595
 10
287.706543
 20
96.852531
 10
288.179504
 20
97.21727
 10
288.611969
 20
97.649246
 10
288.999512
 20
98.145638
 10
289.338531
 20
98.702484
 10
289.626129
 20
99.314758
 10
289.860474
 20
99.976517
 10
290.040619
 20
100.681099
 10
290.166534
 20
101.42131
 10
290.239136
 20
102.189697
 10
290.260162
 20
102.978714
 10
290.232086
 20
103.780975
 10
290.157928
 20
104.589401
 10
290.04126
 20
105.397392
 10
289.884491
 20
106.205223
  0
LWPOLYLINE
  5
1B7
330
1A4
100
AcDbEntity
  8
0
  6
Continuous
 62
     0
370
     0
100
AcDbPolyline
 90
       36
 70
     0
 43
0.0
 10
289.972839
 20
106.183609
 10
289.747345
 20
107.105728
 10
289.471405
 20
108.035408
 10
289.146759
 20
108.967491
 10
288.775146
 20
109.896767
 10
288.358398
 20
110.818092
 10
287.898926
 20
111.726433
 10
287.399475
 20
112.616814
 10
286.862793
 20
113.484276
 10
286.291595
 20
114.323868
 10
285.689026
 20
115.131012
 10
285.058624
 20
115.901413
 10
284.4039
 20
116.630814
 10
283.728363
 20
117.314957
 10
283.035706
 20
117.949982
 10
282.329803
 20
118.532684
 10
281.614624
 20
119.059906
 10
280.894104
 20
119.528503
 10
280.17218
 20
119.935638
 10
279.45282
 20
120.279419
 10
278.740051
 20
120.558105
 10
278.037781
 20
120.769981
 10
277.350037
 20
120.913498
 10
276.68045
 20
120.988152
 10
276.032715
 20
120.993797
 10
275.410461
 20
120.930313
 10
274.81723
 20
120.79763
 10
274.256317
 20
120.596603
 10
273.73056
 20
120.328705
 10
273.24295
 20
119.995399
 10
272.796387
 20
119.598183
 10
272.393341
 20
119.139175
 10
272.035797
 20
118.621284
 10
271.725739
 20
118.047432
 10
271.465027
 20
117.420547
 10
271.250793
 20
116.726608
  0
LWPOLYLINE
  5
1B8
330
1A4
100
AcDbEntity
  8
0
  6
Continuous
 62
     0
370
     0
100
AcDbPolyline
 90
       22
 70
     0
 43
0.0
 10
283.100891
 20
96.202026
 10
283.806519
 20
96.041298
 10
284.493896
 20
95.952347
 10
285.159149
 20
95.935326
 10
285.798431
 20
95.990387
 10
286.407867
 20
96.11763
 10
286.983978
 20
96.316277
 10
287.523651
 20
96.584801
 10
288.023743
 20
96.921638
 10
288.481171
 20
97.325188
 10
288.89325
 20
97.793221
 10
289.257874
 20
98.322678
 10
289.572968
 20
98.910431
 10
289.836487
 20
99.553345
 10
290.046783
 20
100.247902
 10
290.202911
 20
100.989784
 10
290.304138
 20
101.77462
 10
290.34967
 20
102.598022
 10
290.338959
 20
103.455421
 10
290.272369
 20
104.341713
 10
290.150421
 20
105.251732
 10
289.972839
 20
106.183609
  0
LWPOLYLINE
  5
1B9
330
1A4
100
AcDbEntity
  8
0
  6
Continuous
 62
     0
370
     0
100
AcDbPolyline
 90
       34
 70
     0
 43
0.0
 10
290.547913
 20
106.248558
 10
290.352264
 20
107.061485
 10
290.112396
 20
107.900772
 10
289.826874
 20
108.762131
 10
289.494812
 20
109.640526
 10
289.115997
 20
110.530258
 10
288.690918
 20
111.425003
 10
288.220795
 20
112.317932
 10
287.707642
 20
113.201889
 10
287.154297
 20
114.069496
 10
286.56427
 20
114.913422
 10
285.941803
 20
115.726494
 10
285.291687
 20
116.501961
 10
284.619263
 20
117.233658
 10
283.930054
 20
117.916153
 10
283.229858
 20
118.544899
 10
282.524414
 20
119.116318
 10
281.819366
 20
119.627853
 10
281.120026
 20
120.077995
 10
280.431427
 20
120.466217
 10
279.757965
 20
120.792946
 10
279.103607
 20
121.059464
 10
278.471741
 20
121.267769
 10
277.862396
 20
121.421066
 10
277.255371
 20
121.52475
 10
276.649414
 20
121.576004
 10
276.049103
 20
121.570786
 10
275.459351
 20
121.505554
 10
274.885315
 20
121.37738
 10
274.332275
 20
121.184135
 10
273.805481
 20
120.924576
 10
273.310059
 20
120.598457
 10
272.850861
 20
120.206589
 10
272.421326
 20
119.737442
  0
LWPOLYLINE
  5
1BA
330
1A4
100
AcDbEntity
  8
0
  6
Continuous
 62
     0
370
     0
100
AcDbPolyline
 90
       24
 70
     0
 43
0.0
 10
283.091919
 20
96.021843
 10
283.721832
 20
95.846214
 10
284.342194
 20
95.723755
 10
284.96283
 20
95.654747
 10
285.57901
 20
95.643654
 10
286.185516
 20
95.694435
 10
286.776917
 20
95.810394
 10
287.347565
 20
95.994026
 10
287.891846
 20
96.246872
 10
288.404175
 20
96.569397
 10
288.879395
 20
96.960915
 10
289.312683
 20
97.419571
 10
289.69986
 20
97.942307
 10
290.037476
 20
98.524971
 10
290.322937
 20
99.162399
 10
290.554535
 20
99.848587
 10
290.731445
 20
100.576828
 10
290.853851
 20
101.339989
 10
290.922729
 20
102.130661
 10
290.939911
 20
102.941399
 10
290.907806
 20
103.7649
 10
290.829529
 20
104.594215
 10
290.708588
 20
105.422836
 10
290.547913
 20
106.248558
  0
ARC
  5
1BB
330
1A4
100
AcDbEntity
  8
0
  6
Continuous
 62
     0
370
    30
100
AcDbCircle
 10
280.910047
 20
100.215311
 30
0.0
 40
4.222193821557422
100
AcDbArc
 50
301.444894
 51
332.024221
  0
LINE
  5
1BC
330
1A4
100
AcDbEntity
  8
0
  6
Continuous
 62
     0
370
    30
100
AcDbLine
 10
284.63886
 20
98.234687
 30
0.0
 11
284.181533
 21
98.261451
 31
0.0
  0
ARC
  5
1BD
330
1A4
100
AcDbEntity
  8
0
  6
Continuous
 62
     0
370
    30
100
AcDbCircle
 10
294.658849
 20
102.343934
 30
0.0
 40
11.24458995760217
100
AcDbArc
 50
158.711639
 51
201.288361
  0
LINE
  5
1BE
330
1A4
100
AcDbEntity
  8
0
  6
Continuous
 62
     0
370
    30
100
AcDbLine
 10
284.181533
 20
106.426417
 30
0.0
 11
284.63886
 21
106.399653
 31
0.0
  0
LWPOLYLINE
  5
1BF
330
1A4
100
AcDbEntity
  8
0
  6
Continuous
 62
     0
370
    30
100
AcDbPolyline
 90
       25
 70
     0
 43
0.0
 10
284.638855
 20
106.399651
 10
284.351349
 20
107.191788
 10
284.01712
 20
107.995171
 10
283.636932
 20
108.802727
 10
283.212341
 20
109.606842
 10
282.745972
 20
110.399551
 10
282.241272
 20
111.172791
 10
281.702637
 20
111.918671
 10
281.135132
 20
112.629707
 10
280.544403
 20
113.299088
 10
279.936462
 20
113.920883
 10
279.317566
 20
114.490227
 10
278.693878
 20
115.003426
 10
278.071442
 20
115.457977
 10
277.455811
 20
115.852638
 10
276.84436
 20
116.191238
 10
276.224365
 20
116.480003
 10
275.600525
 20
116.71386
 10
274.978668
 20
116.88797
 10
274.364929
 20
116.998413
 10
273.765533
 20
117.042336
 10
273.186615
 20
117.018097
 10
272.634064
 20
116.925377
 10
272.11319
 20
116.765175
 10
271.613068
 20
116.531097
  0
LINE
  5
1C0
330
1A4
100
AcDbEntity
  8
0
  6
Continuous
 62
     0
370
    30
100
AcDbLine
 10
284.63886
 20
106.399653
 30
0.0
 11
286.053074
 21
107.21615
 31
0.0
  0
ARC
  5
1C1
330
1A4
100
AcDbEntity
  8
0
  6
Continuous
 62
     0
370
    30
100
AcDbCircle
 10
276.289195
 20
103.133667
 30
0.0
 40
10.58300524421412
100
AcDbArc
 50
337.309171
 51
22.690829
  0
LINE
  5
1C2
330
1A4
100
AcDbEntity
  8
0
  6
Continuous
 62
     0
370
    30
100
AcDbLine
 10
286.053074
 20
99.051184
 30
0.0
 11
284.63886
 21
98.234687
 31
0.0
  0
LWPOLYLINE
  5
1C3
330
1A4
100
AcDbEntity
  8
0
  6
Continuous
 62
     0
370
     0
100
AcDbPolyline
 90
       48
 70
     0
 43
0.0
 10
262.466705
 20
85.316139
 10
262.446381
 20
86.098061
 10
262.383606
 20
86.919708
 10
262.275787
 20
87.778275
 10
262.120819
 20
88.670166
 10
261.917053
 20
89.591049
 10
261.663391
 20
90.535828
 10
261.359406
 20
91.498749
 10
261.005432
 20
92.47345
 10
260.602448
 20
93.453102
 10
260.152344
 20
94.430573
 10
259.657593
 20
95.398537
 10
259.121521
 20
96.349686
 10
258.548004
 20
97.276932
 10
257.941498
 20
98.173538
 10
257.306915
 20
99.033295
 10
256.649414
 20
99.850685
 10
255.974365
 20
100.620949
 10
255.28714
 20
101.340218
 10
254.593048
 20
102.005501
 10
253.897171
 20
102.614738
 10
253.2043
 20
103.16674
 10
252.518814
 20
103.661171
 10
251.844666
 20
104.098457
 10
251.181381
 20
104.481857
 10
250.507492
 20
104.823807
 10
249.822189
 20
105.121819
 10
249.12941
 20
105.37088
 10
248.433548
 20
105.566261
 10
247.73938
 20
105.703606
 10
247.051971
 20
105.779106
 10
246.376633
 20
105.789604
 10
245.718735
 20
105.732758
 10
245.083664
 20
105.607101
 10
244.476578
 20
105.412155
 10
243.902374
 20
105.148468
 10
243.36554
 20
104.817604
 10
242.869965
 20
104.422142
 10
242.41893
 20
103.965584
 10
242.01503
 20
103.452278
 10
241.66008
 20
102.887283
 10
241.355148
 20
102.276192
 10
241.10051
 20
101.625031
 10
240.895767
 20
100.940048
 10
240.739868
 20
100.227562
 10
240.631165
 20
99.493835
 10
240.56752
 20
98.744934
 10
240.546402
 20
97.97184
  0
LWPOLYLINE
  5
1C4
330
1A4
100
AcDbEntity
  8
0
  6
Continuous
 62
     0
370
     0
100
AcDbPolyline
 90
       48
 70
     0
 43
0.0
 10
240.546402
 20
97.97184
 10
240.566711
 20
97.189926
 10
240.629501
 20
96.368279
 10
240.73732
 20
95.509712
 10
240.892288
 20
94.617813
 10
241.096069
 20
93.69693
 10
241.349731
 20
92.752151
 10
241.653702
 20
91.789238
 10
242.007675
 20
90.814537
 10
242.410645
 20
89.834877
 10
242.860779
 20
88.857407
 10
243.355515
 20
87.88945
 10
243.891602
 20
86.938293
 10
244.465103
 20
86.011047
 10
245.071609
 20
85.114449
 10
245.706192
 20
84.254684
 10
246.363693
 20
83.437302
 10
247.038742
 20
82.66703
 10
247.725967
 20
81.947762
 10
248.420059
 20
81.282478
 10
249.115936
 20
80.673248
 10
249.808807
 20
80.121246
 10
250.494293
 20
79.626816
 10
251.168442
 20
79.189529
 10
251.831726
 20
78.806129
 10
252.505615
 20
78.464172
 10
253.190918
 20
78.166168
 10
253.883698
 20
77.917107
 10
254.579559
 20
77.721725
 10
255.273727
 20
77.584381
 10
255.961136
 20
77.508881
 10
256.636475
 20
77.498375
 10
257.294373
 20
77.555229
 10
257.929443
 20
77.680885
 10
258.53653
 20
77.875824
 10
259.110718
 20
78.139519
 10
259.647583
 20
78.470375
 10
260.143158
 20
78.865845
 10
260.594177
 20
79.322395
 10
260.998077
 20
79.835701
 10
261.353027
 20
80.400703
 10
261.657959
 20
81.011787
 10
261.912598
 20
81.662949
 10
262.11734
 20
82.347939
 10
262.273224
 20
83.060425
 10
262.381958
 20
83.794144
 10
262.445587
 20
84.543053
 10
262.466705
 20
85.316139
  0
LWPOLYLINE
  5
1C5
330
1A4
100
AcDbEntity
  8
0
  6
Continuous
 62
     0
370
     0
100
AcDbPolyline
 90
       25
 70
     0
 43
0.0
 10
251.681931
 20
78.888664
 10
252.360474
 20
78.508064
 10
253.052139
 20
78.168663
 10
253.754456
 20
77.874893
 10
254.463409
 20
77.631699
 10
255.174515
 20
77.443764
 10
255.882919
 20
77.315331
 10
256.583466
 20
77.250114
 10
257.270844
 20
77.251129
 10
257.939667
 20
77.320587
 10
258.584595
 20
77.459778
 10
259.200439
 20
77.669044
 10
259.782349
 20
77.947685
 10
260.325958
 20
78.293999
 10
260.827393
 20
78.705284
 10
261.283447
 20
79.177933
 10
261.69165
 20
79.70752
 10
262.050201
 20
80.288925
 10
262.358093
 20
80.916489
 10
262.615143
 20
81.584175
 10
262.821747
 20
82.285706
 10
262.979004
 20
83.014763
 10
263.088623
 20
83.765076
 10
263.15271
 20
84.530579
 10
263.173828
 20
85.316139
  0
LWPOLYLINE
  5
1C6
330
1A4
100
AcDbEntity
  8
0
  6
Continuous
 62
     0
370
     0
100
AcDbPolyline
 90
       48
 70
     0
 43
0.0
 10
263.173828
 20
85.316139
 10
263.152832
 20
86.123573
 10
263.087952
 20
86.972038
 10
262.976593
 20
87.858643
 10
262.816498
 20
88.779671
 10
262.606018
 20
89.730637
 10
262.343964
 20
90.706276
 10
262.029968
 20
91.70063
 10
261.664307
 20
92.707146
 10
261.248047
 20
93.718765
 10
260.783081
 20
94.728096
 10
260.272034
 20
95.727577
 10
259.718292
 20
96.709671
 10
259.125916
 20
97.667046
 10
258.499512
 20
98.592728
 10
257.844086
 20
99.480316
 10
257.165009
 20
100.32412
 10
256.467865
 20
101.119217
 10
255.758163
 20
101.861618
 10
255.041412
 20
102.548233
 10
254.322845
 20
103.176941
 10
253.607407
 20
103.746521
 10
252.899628
 20
104.25663
 10
252.203598
 20
104.707726
 10
251.518677
 20
105.103233
 10
250.822693
 20
105.455978
 10
250.114944
 20
105.763275
 10
249.399521
 20
106.019974
 10
248.680954
 20
106.221169
 10
247.964188
 20
106.362381
 10
247.254456
 20
106.439667
 10
246.557251
 20
106.449776
 10
245.878128
 20
106.390305
 10
245.222626
 20
106.259735
 10
244.596115
 20
106.057594
 10
244.003632
 20
105.784462
 10
243.449768
 20
105.441963
 10
242.938599
 20
105.032768
 10
242.47348
 20
104.560524
 10
242.057083
 20
104.029724
 10
241.691254
 20
103.445595
 10
241.377106
 20
102.81395
 10
241.114914
 20
102.140999
 10
240.904251
 20
101.433197
 10
240.744019
 20
100.69709
 10
240.632507
 20
99.939148
 10
240.567505
 20
99.165611
 10
240.546402
 20
98.380089
  0
LWPOLYLINE
  5
1C7
330
1A4
100
AcDbEntity
  8
0
  6
Continuous
 62
     0
370
     0
100
AcDbPolyline
 90
       13
 70
     0
 43
0.0
 10
250.092346
 20
81.013474
 10
250.268066
 20
80.937126
 10
250.444504
 20
80.916214
 10
250.601624
 20
80.962654
 10
250.720749
 20
81.075035
 10
250.79126
 20
81.237976
 10
250.813354
 20
81.428223
 10
250.791962
 20
81.643402
 10
250.722244
 20
81.887459
 10
250.603821
 20
82.137527
 10
250.447159
 20
82.365936
 10
250.270874
 20
82.549583
 10
250.092346
 20
82.678589
  0
LWPOLYLINE
  5
1C8
330
1A4
100
AcDbEntity
  8
0
  6
Continuous
 62
     0
370
     0
100
AcDbPolyline
 90
       13
 70
     0
 43
0.0
 10
250.092346
 20
82.678589
 10
249.916611
 20
82.754944
 10
249.740173
 20
82.775848
 10
249.583054
 20
82.729408
 10
249.463928
 20
82.617027
 10
249.393417
 20
82.454094
 10
249.371323
 20
82.263847
 10
249.392715
 20
82.04866
 10
249.462433
 20
81.804604
 10
249.580856
 20
81.554543
 10
249.737518
 20
81.326126
 10
249.913803
 20
81.142479
 10
250.092346
 20
81.013474
  0
LWPOLYLINE
  5
1C9
330
1A4
100
AcDbEntity
  8
0
  6
Continuous
 62
     0
370
     0
100
AcDbPolyline
 90
       15
 70
     0
 43
0.0
 10
250.282303
 20
80.879539
 10
250.476028
 20
80.791199
 10
250.672989
 20
80.753098
 10
250.857361
 20
80.776817
 10
251.012726
 20
80.865585
 10
251.12645
 20
81.01226
 10
251.192993
 20
81.20118
 10
251.214279
 20
81.412842
 10
251.194839
 20
81.647507
 10
251.130402
 20
81.912254
 10
251.018692
 20
82.19017
 10
250.864944
 20
82.459244
 10
250.681534
 20
82.697639
 10
250.484756
 20
82.889275
 10
250.282303
 20
83.031868
  0
ARC
  5
1CA
330
1A4
100
AcDbEntity
  8
0
  6
Continuous
 62
     0
370
     0
100
AcDbCircle
 10
249.908002
 20
82.547961
 30
0.0
 40
0.6117719797500973
100
AcDbArc
 50
52.278573
 51
208.694025
  0
ARC
  5
1CB
330
1A4
100
AcDbEntity
  8
0
  6
Continuous
 62
     0
370
     0
100
AcDbCircle
 10
251.008353
 20
83.560722
 30
0.0
 40
0.7399508894522944
100
AcDbArc
 50
47.678606
 51
177.365132
  0
LWPOLYLINE
  5
1CC
330
1A4
100
AcDbEntity
  8
0
  6
Continuous
 62
     0
370
     0
100
AcDbPolyline
 90
       16
 70
     0
 43
0.0
 10
251.69519
 20
81.124832
 10
251.930542
 20
81.057884
 10
252.159348
 20
81.052475
 10
252.365906
 20
81.115555
 10
252.535812
 20
81.245857
 10
252.65918
 20
81.433609
 10
252.732407
 20
81.662773
 10
252.758026
 20
81.914902
 10
252.740921
 20
82.189331
 10
252.677292
 20
82.497871
 10
252.563553
 20
82.826355
 10
252.402069
 20
83.155266
 10
252.201599
 20
83.463234
 10
251.975861
 20
83.73143
 10
251.740601
 20
83.947212
 10
251.506546
 20
84.107826
  0
ARC
  5
1CD
330
1A4
100
AcDbEntity
  8
0
  6
Continuous
 62
     0
370
     0
100
AcDbCircle
 10
257.043333
 20
81.359821
 30
0.0
 40
1.087691951744673
100
AcDbArc
 50
224.916898
 51
284.236443
  0
ARC
  5
1CE
330
1A4
100
AcDbEntity
  8
0
  6
Continuous
 62
     0
370
     0
100
AcDbCircle
 10
256.013472
 20
82.771662
 30
0.0
 40
0.7455301268314681
100
AcDbArc
 50
114.719168
 51
177.097337
  0
LWPOLYLINE
  5
1CF
330
1A4
100
AcDbEntity
  8
0
  6
Continuous
 62
     0
370
     0
100
AcDbPolyline
 90
       16
 70
     0
 43
0.0
 10
257.310822
 20
80.305534
 10
257.488953
 20
80.414688
 10
257.629913
 20
80.591705
 10
257.721405
 20
80.829086
 10
257.757355
 20
81.110893
 10
257.738953
 20
81.416153
 10
257.669098
 20
81.740646
 10
257.545837
 20
82.081978
 10
257.373962
 20
82.41787
 10
257.16507
 20
82.725754
 10
256.934906
 20
82.987648
 10
256.68689
 20
83.203102
 10
256.422638
 20
83.367561
 10
256.15918
 20
83.466209
 10
255.914246
 20
83.492416
 10
255.701706
 20
83.448875
  0
ARC
  5
1D0
330
1A4
100
AcDbEntity
  8
0
  6
Continuous
 62
     0
370
     0
100
AcDbCircle
 10
259.699186
 20
84.734886
 30
0.0
 40
0.7009302149772547
100
AcDbArc
 50
240.608939
 51
357.08384
  0
LWPOLYLINE
  5
1D1
330
1A4
100
AcDbEntity
  8
0
  6
Continuous
 62
     0
370
     0
100
AcDbPolyline
 90
       17
 70
     0
 43
0.0
 10
260.3992
 20
84.699226
 10
260.418182
 20
84.950935
 10
260.392853
 20
85.243362
 10
260.31778
 20
85.564445
 10
260.192993
 20
85.89637
 10
260.02478
 20
86.218437
 10
259.824799
 20
86.511131
 10
259.607544
 20
86.759903
 10
259.387238
 20
86.957123
 10
259.160034
 20
87.110916
 10
258.919556
 20
87.221352
 10
258.678925
 20
87.274513
 10
258.453491
 20
87.261391
 10
258.258148
 20
87.180618
 10
258.103943
 20
87.039162
 10
257.996429
 20
86.85054
 10
257.933899
 20
86.624512
  0
LWPOLYLINE
  5
1D2
330
1A4
100
AcDbEntity
  8
0
  6
Continuous
 62
     0
370
     0
100
AcDbPolyline
 90
       11
 70
     0
 43
0.0
 10
258.431274
 20
90.707939
 10
258.664978
 20
90.641258
 10
258.886688
 20
90.634506
 10
259.083344
 20
90.689491
 10
259.244812
 20
90.801132
 10
259.36615
 20
90.959877
 10
259.450226
 20
91.168175
 10
259.49115
 20
91.422241
 10
259.484467
 20
91.709663
 10
259.430878
 20
92.013901
 10
259.32663
 20
92.342453
  0
LWPOLYLINE
  5
1D3
330
1A4
100
AcDbEntity
  8
0
  6
Continuous
 62
     0
370
     0
100
AcDbPolyline
 90
       14
 70
     0
 43
0.0
 10
259.32663
 20
92.342453
 10
259.201111
 20
92.621796
 10
259.036499
 20
92.904701
 10
258.836334
 20
93.175262
 10
258.608826
 20
93.416298
 10
258.366272
 20
93.612503
 10
258.122772
 20
93.753494
 10
257.891785
 20
93.835564
 10
257.683655
 20
93.861526
 10
257.499786
 20
93.837753
 10
257.329895
 20
93.761574
 10
257.184235
 20
93.628227
 10
257.07431
 20
93.438728
 10
257.00528
 20
93.177841
  0
LWPOLYLINE
  5
1D4
330
1A4
100
AcDbEntity
  8
0
  6
Continuous
 62
     0
370
     0
100
AcDbPolyline
 90
       14
 70
     0
 43
0.0
 10
254.355484
 20
97.010185
 10
254.610764
 20
96.940239
 10
254.848053
 20
96.942085
 10
255.051834
 20
97.01487
 10
255.21167
 20
97.148827
 10
255.323715
 20
97.328232
 10
255.392197
 20
97.545609
 10
255.418472
 20
97.814026
 10
255.393784
 20
98.125359
 10
255.314194
 20
98.463104
 10
255.182785
 20
98.805557
 10
255.00946
 20
99.130142
 10
254.80864
 20
99.41819
 10
254.59494
 20
99.658859
  0
ARC
  5
1D5
330
1A4
100
AcDbEntity
  8
0
  6
Continuous
 62
     0
370
     0
100
AcDbCircle
 10
253.787846
 20
99.330621
 30
0.0
 40
0.8712871094247994
100
AcDbArc
 50
22.131218
 51
170.121781
  0
LWPOLYLINE
  5
1D6
330
1A4
100
AcDbEntity
  8
0
  6
Continuous
 62
     0
370
     0
100
AcDbPolyline
 90
       17
 70
     0
 43
0.0
 10
249.274353
 20
100.014427
 10
249.480759
 20
100.007561
 10
249.676376
 20
100.058746
 10
249.847107
 20
100.173965
 10
249.97963
 20
100.352036
 10
250.064285
 20
100.583694
 10
250.097336
 20
100.853088
 10
250.081329
 20
101.141197
 10
250.023849
 20
101.42968
 10
249.927414
 20
101.723778
 10
249.786118
 20
102.031624
 10
249.601715
 20
102.335922
 10
249.381805
 20
102.616852
 10
249.13913
 20
102.855812
 10
248.889282
 20
103.03933
 10
248.647507
 20
103.161438
 10
248.418167
 20
103.225021
  0
ARC
  5
1D7
330
1A4
100
AcDbEntity
  8
0
  6
Continuous
 62
     0
370
     0
100
AcDbCircle
 10
248.294018
 20
102.551238
 30
0.0
 40
0.6851261907310942
100
AcDbArc
 50
79.560006
 51
179.941692
  0
LWPOLYLINE
  5
1D8
330
1A4
100
AcDbEntity
  8
0
  6
Continuous
 62
     0
370
     0
100
AcDbPolyline
 90
       17
 70
     0
 43
0.0
 10
245.854431
 20
98.675331
 10
245.949982
 20
98.859245
 10
246.008484
 20
99.096245
 10
246.020325
 20
99.379745
 10
245.980225
 20
99.696129
 10
245.889084
 20
100.026413
 10
245.753983
 20
100.349907
 10
245.586655
 20
100.648308
 10
245.40065
 20
100.908714
 10
245.19429
 20
101.139023
 10
244.960327
 20
101.342758
 10
244.709122
 20
101.502785
 10
244.455048
 20
101.604568
 10
244.214111
 20
101.639694
 10
244.000748
 20
101.607918
 10
243.825043
 20
101.516823
 10
243.686478
 20
101.372292
  0
ARC
  5
1D9
330
1A4
100
AcDbEntity
  8
0
  6
Continuous
 62
     0
370
     0
100
AcDbCircle
 10
245.297686
 20
99.096836
 30
0.0
 40
0.6983064001463674
100
AcDbArc
 50
240.995153
 51
322.870843
  0
LINE
  5
1DA
330
1A4
100
AcDbEntity
  8
0
  6
Continuous
 62
     0
370
     0
100
AcDbLine
 10
243.686483
 20
101.372291
 30
0.0
 11
243.533087
 21
100.956019
 31
0.0
  0
LWPOLYLINE
  5
1DB
330
1A4
100
AcDbEntity
  8
0
  6
Continuous
 62
     0
370
     0
100
AcDbPolyline
 90
       15
 70
     0
 43
0.0
 10
245.079193
 20
94.046188
 10
245.017593
 20
94.341095
 10
244.90799
 20
94.659996
 10
244.749924
 20
94.985687
 10
244.549316
 20
95.297112
 10
244.318161
 20
95.573372
 10
244.072266
 20
95.798164
 10
243.827866
 20
95.962807
 10
243.598175
 20
96.066841
 10
243.373199
 20
96.118134
 10
243.153442
 20
96.110527
 10
242.954224
 20
96.035591
 10
242.790588
 20
95.892532
 10
242.67395
 20
95.68943
 10
242.609177
 20
95.439095
  0
ARC
  5
1DC
330
1A4
100
AcDbEntity
  8
0
  6
Continuous
 62
     0
370
     0
100
AcDbCircle
 10
244.361733
 20
93.697154
 30
0.0
 40
0.7978570162972196
100
AcDbArc
 50
245.839814
 51
25.942078
  0
LWPOLYLINE
  5
1DD
330
1A4
100
AcDbEntity
  8
0
  6
Continuous
 62
     0
370
     0
100
AcDbPolyline
 90
       12
 70
     0
 43
0.0
 10
247.311386
 20
88.29303
 10
247.119644
 20
88.556793
 10
246.899414
 20
88.796089
 10
246.661301
 20
88.995453
 10
246.418503
 20
89.143074
 10
246.184509
 20
89.233025
 10
245.967987
 20
89.265991
 10
245.764267
 20
89.242577
 10
245.583557
 20
89.159286
 10
245.437119
 20
89.018425
 10
245.332581
 20
88.82872
 10
245.26947
 20
88.582588
  0
LWPOLYLINE
  5
1DE
330
1A4
100
AcDbEntity
  8
0
  6
Continuous
 62
     0
370
     0
100
AcDbPolyline
 90
       13
 70
     0
 43
0.0
 10
246.695465
 20
86.112679
 10
246.936066
 20
86.044907
 10
247.154343
 20
86.039665
 10
247.340668
 20
86.091072
 10
247.490494
 20
86.188721
 10
247.612457
 20
86.334534
 10
247.702911
 20
86.533859
 10
247.751846
 20
86.782654
 10
247.752686
 20
87.070274
 10
247.704086
 20
87.380653
 10
247.610428
 20
87.695152
 10
247.480667
 20
87.996124
 10
247.311386
 20
88.29303
  0
LWPOLYLINE
  5
1DF
330
1A4
100
AcDbEntity
  8
0
  6
Continuous
 62
     0
370
     0
100
AcDbPolyline
 90
       12
 70
     0
 43
0.0
 10
245.881653
 20
87.422073
 10
245.720276
 20
87.640953
 10
245.527451
 20
87.840538
 10
245.313919
 20
88.001022
 10
245.095703
 20
88.105759
 10
244.890442
 20
88.146225
 10
244.712921
 20
88.124176
 10
244.571869
 20
88.050049
 10
244.462311
 20
87.928024
 10
244.384842
 20
87.750931
 10
244.351334
 20
87.524132
 10
244.371643
 20
87.242081
  0
LWPOLYLINE
  5
1E0
330
1A4
100
AcDbEntity
  8
0
  6
Continuous
 62
     0
370
     0
100
AcDbPolyline
 90
       13
 70
     0
 43
0.0
 10
245.085648
 20
86.005394
 10
245.29303
 20
85.861427
 10
245.495743
 20
85.77285
 10
245.682236
 20
85.740616
 10
245.855392
 20
85.763931
 10
246.004318
 20
85.845985
 10
246.117081
 20
85.982582
 10
246.187042
 20
86.161713
 10
246.214127
 20
86.372383
 10
246.197906
 20
86.617661
 10
246.135956
 20
86.883438
 10
246.03215
 20
87.150322
 10
245.881653
 20
87.422073
  0
LWPOLYLINE
  5
1E1
330
1A4
100
AcDbEntity
  8
0
  6
Continuous
 62
     0
370
     0
100
AcDbPolyline
 90
       13
 70
     0
 43
0.0
 10
246.214569
 20
86.403908
 10
246.436279
 20
86.278015
 10
246.646255
 20
86.210625
 10
246.840149
 20
86.19986
 10
247.017853
 20
86.247795
 10
247.165955
 20
86.355637
 10
247.274124
 20
86.516541
 10
247.33757
 20
86.716934
 10
247.357544
 20
86.950226
 10
247.332275
 20
87.217789
 10
247.260147
 20
87.503769
 10
247.145737
 20
87.788826
 10
246.985825
 20
88.075035
  0
ARC
  5
1E2
330
1A4
100
AcDbEntity
  8
0
  6
Continuous
 62
     0
370
     0
100
AcDbCircle
 10
245.891013
 20
87.670979
 30
0.0
 40
1.166996033535573
100
AcDbArc
 50
20.257422
 51
108.105797
  0
LWPOLYLINE
  5
1E3
330
1A4
100
AcDbEntity
  8
0
  6
Continuous
 62
     0
370
     0
100
AcDbPolyline
 90
       15
 70
     0
 43
0.0
 10
243.540115
 20
93.457024
 10
243.486435
 20
93.704201
 10
243.387772
 20
93.971985
 10
243.244781
 20
94.241577
 10
243.065659
 20
94.490677
 10
242.864838
 20
94.699104
 10
242.659439
 20
94.85392
 10
242.464752
 20
94.951691
 10
242.277588
 20
94.998924
 10
242.094727
 20
94.991798
 10
241.932098
 20
94.921707
 10
241.804947
 20
94.789062
 10
241.723724
 20
94.604446
 10
241.691238
 20
94.385925
 10
241.704468
 20
94.143089
  0
ARC
  5
1E4
330
1A4
100
AcDbEntity
  8
0
  6
Continuous
 62
     0
370
     0
100
AcDbCircle
 10
242.958498
 20
93.204861
 30
0.0
 40
0.6339309925818233
100
AcDbArc
 50
212.752266
 51
23.439424
  0
ARC
  5
1E5
330
1A4
100
AcDbEntity
  8
0
  6
Continuous
 62
     0
370
     0
100
AcDbCircle
 10
243.907084
 20
93.780518
 30
0.0
 40
0.8088684895966001
100
AcDbArc
 50
302.002135
 51
16.789524
  0
LWPOLYLINE
  5
1E6
330
1A4
100
AcDbEntity
  8
0
  6
Continuous
 62
     0
370
     0
100
AcDbPolyline
 90
       16
 70
     0
 43
0.0
 10
244.681473
 20
94.014168
 10
244.627121
 20
94.270638
 10
244.529205
 20
94.548233
 10
244.387665
 20
94.830376
 10
244.208755
 20
95.097015
 10
244.004547
 20
95.32885
 10
243.790268
 20
95.511765
 10
243.580887
 20
95.639427
 10
243.384842
 20
95.714104
 10
243.189865
 20
95.740738
 10
243.004944
 20
95.710388
 10
242.844803
 20
95.617821
 10
242.722412
 20
95.466156
 10
242.645813
 20
95.266861
 10
242.616455
 20
95.037056
 10
242.631699
 20
94.780258
  0
LWPOLYLINE
  5
1E7
330
1A4
100
AcDbEntity
  8
0
  6
Continuous
 62
     0
370
     0
100
AcDbPolyline
 90
       14
 70
     0
 43
0.0
 10
244.353317
 20
98.312912
 10
244.44017
 20
98.496643
 10
244.477402
 20
98.735016
 10
244.458603
 20
99.009689
 10
244.387054
 20
99.295647
 10
244.270676
 20
99.575691
 10
244.108078
 20
99.851173
 10
243.90921
 20
100.098572
 10
243.691711
 20
100.295944
 10
243.473877
 20
100.431656
 10
243.254623
 20
100.507469
 10
243.047348
 20
100.514023
 10
242.871063
 20
100.448654
 10
242.739075
 20
100.32106
  0
LINE
  5
1E8
330
1A4
100
AcDbEntity
  8
0
  6
Continuous
 62
     0
370
     0
100
AcDbLine
 10
244.155777
 20
98.150991
 30
0.0
 11
244.353324
 21
98.31291
 31
0.0
  0
ARC
  5
1E9
330
1A4
100
AcDbEntity
  8
0
  6
Continuous
 62
     0
370
     0
100
AcDbCircle
 10
244.972849
 20
99.243433
 30
0.0
 40
0.6796590191224301
100
AcDbArc
 50
223.296795
 51
318.485062
  0
LWPOLYLINE
  5
1EA
330
1A4
100
AcDbEntity
  8
0
  6
Continuous
 62
     0
370
     0
100
AcDbPolyline
 90
       15
 70
     0
 43
0.0
 10
245.481766
 20
98.792946
 10
245.570465
 20
98.971962
 10
245.61702
 20
99.208176
 10
245.610489
 20
99.491394
 10
245.546967
 20
99.801842
 10
245.431625
 20
100.114227
 10
245.27739
 20
100.404259
 10
245.100891
 20
100.654343
 10
244.901535
 20
100.871872
 10
244.673691
 20
101.057198
 10
244.431671
 20
101.1894
 10
244.19458
 20
101.25296
 10
243.981705
 20
101.242699
 10
243.807632
 20
101.165108
 10
243.67923
 20
101.035332
  0
LWPOLYLINE
  5
1EB
330
1A4
100
AcDbEntity
  8
0
  6
Continuous
 62
     0
370
     0
100
AcDbPolyline
 90
       15
 70
     0
 43
0.0
 10
247.940765
 20
99.717606
 10
248.123001
 20
99.716202
 10
248.286377
 20
99.774605
 10
248.416946
 20
99.892204
 10
248.505234
 20
100.059433
 10
248.548508
 20
100.261368
 10
248.54808
 20
100.499313
 10
248.500641
 20
100.764526
 10
248.407883
 20
101.037659
 10
248.278305
 20
101.298073
 10
248.121155
 20
101.533516
 10
247.934113
 20
101.746735
 10
247.72757
 20
101.921196
 10
247.517014
 20
102.042831
 10
247.303253
 20
102.1082
  0
LINE
  5
1EC
330
1A4
100
AcDbEntity
  8
0
  6
Continuous
 62
     0
370
     0
100
AcDbLine
 10
247.647938
 20
99.822181
 30
0.0
 11
247.940763
 21
99.717603
 31
0.0
  0
ARC
  5
1ED
330
1A4
100
AcDbEntity
  8
0
  6
Continuous
 62
     0
370
     0
100
AcDbCircle
 10
247.265444
 20
101.489254
 30
0.0
 40
0.6200996961124969
100
AcDbArc
 50
86.504836
 51
206.617828
  0
ARC
  5
1EE
330
1A4
100
AcDbEntity
  8
0
  6
Continuous
 62
     0
370
     0
100
AcDbCircle
 10
248.234443
 20
102.199516
 30
0.0
 40
0.648616907964425
100
AcDbArc
 50
84.1668
 51
198.85986
  0
LWPOLYLINE
  5
1EF
330
1A4
100
AcDbEntity
  8
0
  6
Continuous
 62
     0
370
     0
100
AcDbPolyline
 90
       16
 70
     0
 43
0.0
 10
249.012238
 20
100.175331
 10
249.194702
 20
100.17083
 10
249.36615
 20
100.221466
 10
249.512482
 20
100.332603
 10
249.620758
 20
100.50174
 10
249.682541
 20
100.717934
 10
249.695938
 20
100.964035
 10
249.665482
 20
101.220856
 10
249.598755
 20
101.475586
 10
249.491837
 20
101.744057
 10
249.343033
 20
102.016479
 10
249.157669
 20
102.273628
 10
248.946991
 20
102.496086
 10
248.72612
 20
102.668724
 10
248.51059
 20
102.784035
 10
248.300369
 20
102.844772
  0
LWPOLYLINE
  5
1F0
330
1A4
100
AcDbEntity
  8
0
  6
Continuous
 62
     0
370
     0
100
AcDbPolyline
 90
       14
 70
     0
 43
0.0
 10
252.745651
 20
96.902901
 10
252.95401
 20
96.758385
 10
253.172119
 20
96.665527
 10
253.381851
 20
96.638313
 10
253.564896
 20
96.680664
 10
253.707809
 20
96.784943
 10
253.804932
 20
96.935005
 10
253.860153
 20
97.122726
 10
253.873352
 20
97.358879
 10
253.835861
 20
97.632294
 10
253.746048
 20
97.922546
 10
253.61113
 20
98.204895
 10
253.445358
 20
98.45694
 10
253.261353
 20
98.668289
  0
ARC
  5
1F1
330
1A4
100
AcDbEntity
  8
0
  6
Continuous
 62
     0
370
     0
100
AcDbCircle
 10
252.641871
 20
98.4147
 30
0.0
 40
0.6693718153611343
100
AcDbArc
 50
22.26221
 51
204.268007
  0
ARC
  5
1F2
330
1A4
100
AcDbEntity
  8
0
  6
Continuous
 62
     0
370
     0
100
AcDbCircle
 10
253.573689
 20
98.840565
 30
0.0
 40
0.9209290466835822
100
AcDbArc
 50
34.480789
 51
114.891487
  0
LWPOLYLINE
  5
1F3
330
1A4
100
AcDbEntity
  8
0
  6
Continuous
 62
     0
370
     0
100
AcDbPolyline
 90
       14
 70
     0
 43
0.0
 10
253.874573
 20
97.301414
 10
254.105759
 20
97.171364
 10
254.338455
 20
97.102631
 10
254.553879
 20
97.105003
 10
254.735306
 20
97.17746
 10
254.872131
 20
97.308609
 10
254.961578
 20
97.48082
 10
255.009949
 20
97.696465
 10
255.01236
 20
97.96067
 10
254.961304
 20
98.259659
 10
254.856812
 20
98.571838
 10
254.707291
 20
98.872513
 10
254.527512
 20
99.140022
 10
254.332825
 20
99.361931
  0
ARC
  5
1F4
330
1A4
100
AcDbEntity
  8
0
  6
Continuous
 62
     0
370
     0
100
AcDbCircle
 10
257.368611
 20
91.060927
 30
0.0
 40
0.7150064636992091
100
AcDbArc
 50
220.071053
 51
50.280841
  0
LWPOLYLINE
  5
1F5
330
1A4
100
AcDbEntity
  8
0
  6
Continuous
 62
     0
370
     0
100
AcDbPolyline
 90
       13
 70
     0
 43
0.0
 10
257.825531
 20
91.610901
 10
257.704559
 20
91.870941
 10
257.539093
 20
92.130714
 10
257.336792
 20
92.366394
 10
257.11319
 20
92.554665
 10
256.888214
 20
92.679581
 10
256.680664
 20
92.736816
 10
256.502197
 20
92.732857
 10
256.342346
 20
92.669899
 10
256.210114
 20
92.541214
 10
256.121521
 20
92.349236
 10
256.086823
 20
92.108139
 10
256.107452
 20
91.837334
  0
LWPOLYLINE
  5
1F6
330
1A4
100
AcDbEntity
  8
0
  6
Continuous
 62
     0
370
     0
100
AcDbPolyline
 90
       14
 70
     0
 43
0.0
 10
258.953949
 20
92.216461
 10
258.837646
 20
92.471779
 10
258.682373
 20
92.729187
 10
258.492767
 20
92.970848
 10
258.279144
 20
93.178131
 10
258.055878
 20
93.335808
 10
257.83847
 20
93.4356
 10
257.640106
 20
93.477386
 10
257.467499
 20
93.467537
 10
257.309875
 20
93.406471
 10
257.17511
 20
93.288521
 10
257.075836
 20
93.114334
 10
257.021393
 20
92.892593
 10
257.017029
 20
92.615761
  0
ARC
  5
1F7
330
1A4
100
AcDbEntity
  8
0
  6
Continuous
 62
     0
370
     0
100
AcDbCircle
 10
258.086039
 20
91.648015
 30
0.0
 40
1.03750538909655
100
AcDbArc
 50
307.99908
 51
33.222798
  0
ARC
  5
1F8
330
1A4
100
AcDbEntity
  8
0
  6
Continuous
 62
     0
370
     0
100
AcDbCircle
 10
258.261725
 20
84.334148
 30
0.0
 40
0.6060394947739723
100
AcDbArc
 50
211.567426
 51
350.896705
  0
LWPOLYLINE
  5
1F9
330
1A4
100
AcDbEntity
  8
0
  6
Continuous
 62
     0
370
     0
100
AcDbPolyline
 90
       15
 70
     0
 43
0.0
 10
258.860138
 20
84.238266
 10
258.873718
 20
84.454758
 10
258.843445
 20
84.709312
 10
258.764496
 20
84.987129
 10
258.639313
 20
85.267036
 10
258.477997
 20
85.526382
 10
258.295715
 20
85.746796
 10
258.108429
 20
85.918053
 10
257.914551
 20
86.046761
 10
257.70932
 20
86.131554
 10
257.507935
 20
86.157967
 10
257.327423
 20
86.118767
 10
257.182526
 20
86.016953
 10
257.081726
 20
85.865013
 10
257.024475
 20
85.671829
  0
LWPOLYLINE
  5
1FA
330
1A4
100
AcDbEntity
  8
0
  6
Continuous
 62
     0
370
     0
100
AcDbPolyline
 90
       16
 70
     0
 43
0.0
 10
260.001495
 20
84.751808
 10
260.01709
 20
84.975792
 10
259.99054
 20
85.237511
 10
259.916901
 20
85.524261
 10
259.79718
 20
85.817535
 10
259.639038
 20
86.096558
 10
259.4552
 20
86.342934
 10
259.260468
 20
86.544441
 10
259.064819
 20
86.698624
 10
258.856171
 20
86.815346
 10
258.641785
 20
86.883308
 10
258.436493
 20
86.891212
 10
258.255615
 20
86.835045
 10
258.111511
 20
86.719666
 10
258.010834
 20
86.55751
 10
257.951721
 20
86.352585
  0
ARC
  5
1FB
330
1A4
100
AcDbEntity
  8
0
  6
Continuous
 62
     0
370
     0
100
AcDbCircle
 10
259.36568
 20
84.825547
 30
0.0
 40
0.6400676687301685
100
AcDbArc
 50
219.850717
 51
353.384647
  0
ARC
  5
1FC
330
1A4
100
AcDbEntity
  8
0
  6
Continuous
 62
     0
370
     0
100
AcDbCircle
 10
255.685093
 20
80.808997
 30
0.0
 40
0.8322829293581712
100
AcDbArc
 50
223.868367
 51
283.620065
  0
ARC
  5
1FD
330
1A4
100
AcDbEntity
  8
0
  6
Continuous
 62
     0
370
     0
100
AcDbCircle
 10
255.063228
 20
81.712938
 30
0.0
 40
0.7339150288513047
100
AcDbArc
 50
121.208837
 51
199.420992
  0
ARC
  5
1FE
330
1A4
100
AcDbEntity
  8
0
  6
Continuous
 62
     0
370
     0
100
AcDbCircle
 10
254.616625
 20
80.829763
 30
0.0
 40
1.512335140608992
100
AcDbArc
 50
326.730008
 51
87.486704
  0
ARC
  5
1FF
330
1A4
100
AcDbEntity
  8
0
  6
Continuous
 62
     0
370
     0
100
AcDbCircle
 10
255.57331
 20
81.387185
 30
0.0
 40
1.688737470341604
100
AcDbArc
 50
326.730008
 51
87.486704
  0
LINE
  5
200
330
1A4
100
AcDbEntity
  8
0
  6
Continuous
 62
     0
370
     0
100
AcDbLine
 10
255.647364
 20
83.074298
 30
0.0
 11
255.527771
 21
83.007018
 31
0.0
  0
LWPOLYLINE
  5
201
330
1A4
100
AcDbEntity
  8
0
  6
Continuous
 62
     0
370
     0
100
AcDbPolyline
 90
       16
 70
     0
 43
0.0
 10
251.316589
 20
81.351166
 10
251.518036
 20
81.257591
 10
251.723602
 20
81.211891
 10
251.919144
 20
81.225189
 10
252.089539
 20
81.301941
 10
252.222168
 20
81.437859
 10
252.30983
 20
81.620667
 10
252.351929
 20
81.833336
 10
252.353088
 20
82.062325
 10
252.313599
 20
82.3218
 10
252.228683
 20
82.604942
 10
252.098602
 20
82.894272
 10
251.930145
 20
83.169266
 10
251.735687
 20
83.410835
 10
251.530289
 20
83.60556
 10
251.316589
 20
83.754547
  0
ARC
  5
202
330
1A4
100
AcDbEntity
  8
0
  6
Continuous
 62
     0
370
     0
100
AcDbCircle
 10
250.896768
 20
83.253005
 30
0.0
 40
0.6540631559543352
100
AcDbArc
 50
50.068247
 51
199.68817
  0
ARC
  5
203
330
1A4
100
AcDbEntity
  8
0
  6
Continuous
 62
     0
370
     0
100
AcDbCircle
 10
254.577288
 20
80.797195
 30
0.0
 40
1.169993762072905
100
AcDbArc
 50
326.730008
 51
87.486704
  0
ARC
  5
204
330
1A4
100
AcDbEntity
  8
0
  6
Continuous
 62
     0
370
     0
100
AcDbCircle
 10
255.60682
 20
81.324222
 30
0.0
 40
1.169993762073104
100
AcDbArc
 50
146.730008
 51
267.486704
  0
LWPOLYLINE
  5
205
330
1A4
100
AcDbEntity
  8
0
  6
Continuous
 62
     0
370
     0
100
AcDbPolyline
 90
       13
 70
     0
 43
0.0
 10
258.462402
 20
84.290848
 10
258.471527
 20
84.489746
 10
258.433136
 20
84.726555
 10
258.343475
 20
84.980774
 10
258.209717
 20
85.22493
 10
258.048309
 20
85.43367
 10
257.879059
 20
85.59182
 10
257.702393
 20
85.704765
 10
257.51651
 20
85.768295
 10
257.340973
 20
85.766632
 10
257.196075
 20
85.69622
 10
257.095551
 20
85.568069
 10
257.042297
 20
85.399902
  0
LWPOLYLINE
  5
206
330
1A4
100
AcDbEntity
  8
0
  6
Continuous
 62
     0
370
     0
100
AcDbPolyline
 90
       13
 70
     0
 43
0.0
 10
257.042297
 20
85.399902
 10
257.033173
 20
85.201004
 10
257.071564
 20
84.964195
 10
257.161224
 20
84.709976
 10
257.294983
 20
84.465813
 10
257.45639
 20
84.257072
 10
257.625641
 20
84.098923
 10
257.802277
 20
83.985977
 10
257.98819
 20
83.922455
 10
258.163696
 20
83.92411
 10
258.308624
 20
83.99453
 10
258.409119
 20
84.122673
 10
258.462402
 20
84.290848
  0
LWPOLYLINE
  5
207
330
1A4
100
AcDbEntity
  8
0
  6
Continuous
 62
     0
370
     0
100
AcDbPolyline
 90
       13
 70
     0
 43
0.0
 10
257.45285
 20
91.484909
 10
257.346344
 20
91.709358
 10
257.197723
 20
91.931007
 10
257.016632
 20
92.124176
 10
256.821503
 20
92.265663
 10
256.633667
 20
92.343193
 10
256.470367
 20
92.358505
 10
256.32901
 20
92.317963
 10
256.210815
 20
92.215317
 10
256.13327
 20
92.051468
 10
256.107422
 20
91.841133
 10
256.133392
 20
91.608932
 10
256.20401
 20
91.373367
  0
LWPOLYLINE
  5
208
330
1A4
100
AcDbEntity
  8
0
  6
Continuous
 62
     0
370
     0
100
AcDbPolyline
 90
       13
 70
     0
 43
0.0
 10
256.20401
 20
91.373367
 10
256.310516
 20
91.148918
 10
256.459167
 20
90.927269
 10
256.640228
 20
90.7341
 10
256.835358
 20
90.592613
 10
257.023193
 20
90.515083
 10
257.186493
 20
90.499771
 10
257.327881
 20
90.540314
 10
257.446045
 20
90.64296
 10
257.52359
 20
90.806808
 10
257.549438
 20
91.017143
 10
257.523468
 20
91.249344
 10
257.45285
 20
91.484909
  0
LWPOLYLINE
  5
209
330
1A4
100
AcDbEntity
  8
0
  6
Continuous
 62
     0
370
     0
100
AcDbPolyline
 90
       13
 70
     0
 43
0.0
 10
252.999237
 20
98.371361
 10
252.826797
 20
98.516708
 10
252.637192
 20
98.619858
 10
252.449036
 20
98.661819
 10
252.283478
 20
98.634453
 10
252.156845
 20
98.544266
 10
252.075821
 20
98.40918
 10
252.035675
 20
98.233604
 10
252.040527
 20
98.011978
 10
252.09761
 20
97.761589
 10
252.203568
 20
97.508781
 10
252.34465
 20
97.280479
 10
252.506027
 20
97.091415
  0
LWPOLYLINE
  5
20A
330
1A4
100
AcDbEntity
  8
0
  6
Continuous
 62
     0
370
     0
100
AcDbPolyline
 90
       13
 70
     0
 43
0.0
 10
252.506027
 20
97.091415
 10
252.678467
 20
96.946068
 10
252.868073
 20
96.842918
 10
253.056229
 20
96.800949
 10
253.221786
 20
96.828323
 10
253.348419
 20
96.91851
 10
253.429443
 20
97.053589
 10
253.469589
 20
97.229172
 10
253.464737
 20
97.450798
 10
253.407654
 20
97.70118
 10
253.301697
 20
97.953995
 10
253.160614
 20
98.182297
 10
252.999237
 20
98.371361
  0
LWPOLYLINE
  5
20B
330
1A4
100
AcDbEntity
  8
0
  6
Continuous
 62
     0
370
     0
100
AcDbPolyline
 90
       13
 70
     0
 43
0.0
 10
247.18544
 20
101.727951
 10
247.027863
 20
101.726028
 10
246.886139
 20
101.662277
 10
246.779114
 20
101.533348
 10
246.720718
 20
101.349976
 10
246.71463
 20
101.134422
 10
246.753799
 20
100.912361
 10
246.833694
 20
100.684181
 10
246.959213
 20
100.447678
 10
247.123978
 20
100.228355
 10
247.311813
 20
100.051743
 10
247.501648
 20
99.93438
 10
247.67865
 20
99.878502
  0
LWPOLYLINE
  5
20C
330
1A4
100
AcDbEntity
  8
0
  6
Continuous
 62
     0
370
     0
100
AcDbPolyline
 90
       13
 70
     0
 43
0.0
 10
247.67865
 20
99.878502
 10
247.836227
 20
99.880432
 10
247.977966
 20
99.944183
 10
248.084991
 20
100.073105
 10
248.143372
 20
100.256485
 10
248.149475
 20
100.472031
 10
248.110306
 20
100.694099
 10
248.030411
 20
100.922279
 10
247.904877
 20
101.158775
 10
247.740112
 20
101.378098
 10
247.552277
 20
101.554718
 10
247.362442
 20
101.672081
 10
247.18544
 20
101.727951
  0
LWPOLYLINE
  5
20D
330
1A4
100
AcDbEntity
  8
0
  6
Continuous
 62
     0
370
     0
100
AcDbPolyline
 90
       13
 70
     0
 43
0.0
 10
242.731827
 20
99.9841
 10
242.660873
 20
99.82888
 10
242.635223
 20
99.625603
 10
242.659988
 20
99.393005
 10
242.730209
 20
99.155731
 10
242.841095
 20
98.922234
 10
242.991226
 20
98.700073
 10
243.167023
 20
98.513176
 10
243.349747
 20
98.37854
 10
243.532227
 20
98.298332
 10
243.709198
 20
98.27755
 10
243.86174
 20
98.321785
 10
243.980667
 20
98.430527
  0
ARC
  5
20E
330
1A4
100
AcDbEntity
  8
0
  6
Continuous
 62
     0
370
     0
100
AcDbCircle
 10
242.96785
 20
98.895104
 30
0.0
 40
1.114279572784013
100
AcDbArc
 50
335.359028
 51
102.228926
  0
LWPOLYLINE
  5
20F
330
1A4
100
AcDbEntity
  8
0
  6
Continuous
 62
     0
370
     0
100
AcDbPolyline
 90
       13
 70
     0
 43
0.0
 10
241.722275
 20
93.955772
 10
241.774185
 20
93.730362
 10
241.87384
 20
93.486282
 10
242.018051
 20
93.248177
 10
242.193192
 20
93.04303
 10
242.379074
 20
92.890846
 10
242.55603
 20
92.798752
 10
242.725281
 20
92.760513
 10
242.886978
 20
92.781715
 10
243.021408
 20
92.870216
 10
243.111954
 20
93.019966
 10
243.15126
 20
93.211914
 10
243.142395
 20
93.425003
  0
LWPOLYLINE
  5
210
330
1A4
100
AcDbEntity
  8
0
  6
Continuous
 62
     0
370
     0
100
AcDbPolyline
 90
       13
 70
     0
 43
0.0
 10
243.142395
 20
93.425003
 10
243.090485
 20
93.650414
 10
242.990829
 20
93.894493
 10
242.846619
 20
94.132599
 10
242.671478
 20
94.337746
 10
242.48558
 20
94.489922
 10
242.308624
 20
94.582016
 10
242.139389
 20
94.620262
 10
241.977676
 20
94.599052
 10
241.843246
 20
94.510559
 10
241.752716
 20
94.360809
 10
241.713409
 20
94.168861
 10
241.722275
 20
93.955772
  0
LWPOLYLINE
  5
211
330
1A4
100
AcDbEntity
  8
0
  6
Continuous
 62
     0
370
     0
100
AcDbPolyline
 90
       13
 70
     0
 43
0.0
 10
244.629166
 20
86.463684
 10
244.777344
 20
86.267174
 10
244.957001
 20
86.094482
 10
245.153183
 20
85.969307
 10
245.34494
 20
85.908295
 10
245.512253
 20
85.914581
 10
245.642426
 20
85.977837
 10
245.739182
 20
86.092117
 10
245.799911
 20
86.263832
 10
245.811462
 20
86.483498
 10
245.769623
 20
86.729485
 10
245.681427
 20
86.974472
 10
245.556091
 20
87.204079
  0
LWPOLYLINE
  5
212
330
1A4
100
AcDbEntity
  8
0
  6
Continuous
 62
     0
370
     0
100
AcDbPolyline
 90
       13
 70
     0
 43
0.0
 10
245.556091
 20
87.204079
 10
245.401047
 20
87.408356
 10
245.219437
 20
87.580238
 10
245.028915
 20
87.699966
 10
244.848907
 20
87.758148
 10
244.685089
 20
87.755981
 10
244.543472
 20
87.69043
 10
244.440155
 20
87.564896
 10
244.383652
 20
87.394737
 10
244.373505
 20
87.188622
 10
244.412338
 20
86.950813
 10
244.498825
 20
86.704468
 10
244.629166
 20
86.463684
  0
LWPOLYLINE
  5
213
330
1A4
100
AcDbEntity
  8
0
  6
Continuous
 62
     0
370
     0
100
AcDbPolyline
 90
       37
 70
     0
 43
0.0
 10
283.114227
 20
96.828743
 10
283.094147
 20
97.618332
 10
283.032104
 20
98.447266
 10
282.925659
 20
99.312851
 10
282.772675
 20
100.211639
 10
282.571564
 20
101.139496
 10
282.321167
 20
102.091553
 10
282.021057
 20
103.062309
 10
281.671387
 20
104.045685
 10
281.273071
 20
105.035133
 10
280.827667
 20
106.023788
 10
280.337555
 20
107.004578
 10
279.805756
 20
107.970421
 10
279.235901
 20
108.914375
 10
278.632172
 20
109.829819
 10
277.999176
 20
110.710571
 10
277.341858
 20
111.551086
 10
276.665405
 20
112.346497
 10
275.974976
 20
113.092751
 10
275.275757
 20
113.786636
 10
274.572815
 20
114.425804
 10
273.87085
 20
115.008759
 10
273.174316
 20
115.534821
 10
272.487244
 20
116.004089
 10
271.813202
 20
116.417328
 10
271.139709
 20
116.783875
 10
270.453064
 20
117.109627
 10
269.756836
 20
117.389679
 10
269.054993
 20
117.619286
 10
268.35199
 20
117.793999
 10
267.652557
 20
117.909798
 10
266.9617
 20
117.963211
 10
266.284607
 20
117.951454
 10
265.626465
 20
117.87252
 10
264.992462
 20
117.725296
 10
264.387512
 20
117.509583
 10
263.800507
 20
117.217125
  0
ARC
  5
214
330
1A4
100
AcDbEntity
  8
0
  6
Continuous
 62
     0
370
     0
100
AcDbCircle
 10
275.098009
 20
96.044495
 30
0.0
 40
8.054488349439225
100
AcDbArc
 50
305.660446
 51
5.587631
  0
ARC
  5
215
330
1A4
100
AcDbEntity
  8
0
  6
Continuous
 62
     0
370
     0
100
AcDbCircle
 10
262.723641
 20
88.90015
 30
0.0
 40
8.054488349435989
100
AcDbArc
 50
305.660446
 51
5.587631
  0
LWPOLYLINE
  5
216
330
1A4
100
AcDbEntity
  8
0
  6
Continuous
 62
     0
370
     0
100
AcDbPolyline
 90
       37
 70
     0
 43
0.0
 10
270.739868
 20
89.684402
 10
270.719788
 20
90.473984
 10
270.657745
 20
91.302925
 10
270.5513
 20
92.168503
 10
270.398315
 20
93.067299
 10
270.197205
 20
93.995148
 10
269.946808
 20
94.947212
 10
269.646698
 20
95.917961
 10
269.297028
 20
96.901337
 10
268.898682
 20
97.890793
 10
268.453308
 20
98.87944
 10
267.963196
 20
99.860229
 10
267.431396
 20
100.826073
 10
266.861542
 20
101.770027
 10
266.257812
 20
102.685471
 10
265.624817
 20
103.566231
 10
264.967499
 20
104.406738
 10
264.291016
 20
105.202156
 10
263.600586
 20
105.94841
 10
262.901398
 20
106.642296
 10
262.198456
 20
107.281456
 10
261.49649
 20
107.86441
 10
260.799957
 20
108.39048
 10
260.112885
 20
108.859749
 10
259.438843
 20
109.272987
 10
258.76535
 20
109.639526
 10
258.078705
 20
109.965286
 10
257.382446
 20
110.245331
 10
256.680634
 20
110.474937
 10
255.977631
 20
110.649658
 10
255.278198
 20
110.76545
 10
254.587341
 20
110.818863
 10
253.910233
 20
110.807106
 10
253.252106
 20
110.728172
 10
252.618088
 20
110.580948
 10
252.013153
 20
110.365242
 10
251.426147
 20
110.072777
  0
LWPOLYLINE
  5
217
330
1A4
100
AcDbEntity
  8
0
  6
Continuous
 62
     0
370
     0
100
AcDbPolyline
 90
       37
 70
     0
 43
0.0
 10
271.871216
 20
90.337593
 10
271.850555
 20
91.138931
 10
271.786652
 20
91.980728
 10
271.676971
 20
92.860146
 10
271.519348
 20
93.773575
 10
271.312073
 20
94.716644
 10
271.054047
 20
95.684227
 10
270.744812
 20
96.670532
 10
270.384644
 20
97.669159
 10
269.974548
 20
98.673241
 10
269.516296
 20
99.675552
 10
269.012421
 20
100.668709
 10
268.466217
 20
101.645332
 10
267.881531
 20
102.598213
 10
267.262848
 20
103.520508
 10
266.615082
 20
104.405891
 10
265.94339
 20
105.248711
 10
265.253265
 20
106.04406
 10
264.550079
 20
106.787926
 10
263.839203
 20
107.477173
 10
263.125885
 20
108.109596
 10
262.414948
 20
108.683876
 10
261.710876
 20
109.199562
 10
261.017792
 20
109.656967
 10
260.337463
 20
110.058098
 10
259.649078
 20
110.415817
 10
258.948425
 20
110.729721
 10
258.23941
 20
110.994713
 10
257.526367
 20
111.205948
 10
256.814087
 20
111.358955
 10
256.107605
 20
111.449738
 10
255.412247
 20
111.474976
 10
254.733475
 20
111.432114
 10
254.076691
 20
111.319458
 10
253.447205
 20
111.136299
 10
252.850052
 20
110.88295
 10
252.28363
 20
110.556625
  0
ARC
  5
218
330
1A4
100
AcDbEntity
  8
0
  6
Continuous
 62
     0
370
     0
100
AcDbCircle
 10
264.189722
 20
89.456676
 30
0.0
 40
7.73185346345505
100
AcDbArc
 50
299.806366
 51
6.54214
  0
ARC
  5
219
330
1A4
100
AcDbEntity
  8
0
  6
Continuous
 62
     0
370
     0
100
AcDbCircle
 10
262.928165
 20
89.73016
 30
0.0
 40
8.54042857368796
100
AcDbArc
 50
315.165471
 51
4.078595
  0
LWPOLYLINE
  5
21A
330
1A4
100
AcDbEntity
  8
0
  6
Continuous
 62
     0
370
     0
100
AcDbPolyline
 90
       34
 70
     0
 43
0.0
 10
271.44696
 20
90.337593
 10
271.425446
 20
91.147942
 10
271.358856
 20
92.000313
 10
271.244476
 20
92.891624
 10
271.080048
 20
93.817947
 10
270.86377
 20
94.774506
 10
270.594574
 20
95.75573
 10
270.272095
 20
96.755272
 10
269.89679
 20
97.76619
 10
269.469879
 20
98.781006
 10
268.9935
 20
99.791939
 10
268.470612
 20
100.791054
 10
267.904877
 20
101.77047
 10
267.300751
 20
102.722595
 10
266.663177
 20
103.640266
 10
265.997528
 20
104.516998
 10
265.30954
 20
105.347046
 10
264.605042
 20
106.12561
 10
263.889801
 20
106.848831
 10
263.169495
 20
107.51387
 10
262.449524
 20
108.118904
 10
261.734894
 20
108.663055
 10
261.030121
 20
109.146362
 10
260.339233
 20
109.569641
 10
259.648071
 20
109.943375
 10
258.943085
 20
110.273033
 10
258.228302
 20
110.553139
 10
257.508301
 20
110.778419
 10
256.788025
 20
110.943985
 10
256.072937
 20
111.045456
 10
255.368668
 20
111.079155
 10
254.68103
 20
111.042236
 10
254.015854
 20
110.9328
 10
253.373337
 20
110.748085
  0
LINE
  5
21B
330
1A4
100
AcDbEntity
  8
0
  6
Continuous
 62
     0
370
    30
100
AcDbLine
 10
285.801232
 20
99.196585
 30
0.0
 11
286.053074
 21
99.051184
 31
0.0
  0
LINE
  5
21C
330
1A4
100
AcDbEntity
  8
0
  6
Continuous
 62
     0
370
    30
100
AcDbLine
 10
285.801232
 20
99.196585
 30
0.0
 11
285.801232
 21
107.070749
 31
0.0
  0
LINE
  5
21D
330
1A4
100
AcDbEntity
  8
0
  6
Continuous
 62
     0
370
    30
100
AcDbLine
 10
284.181533
 20
98.261451
 30
0.0
 11
285.801232
 21
99.196585
 31
0.0
  0
LINE
  5
21E
330
1A4
100
AcDbEntity
  8
0
  6
Continuous
 62
     0
370
    30
100
AcDbLine
 10
251.423625
 20
110.071322
 30
0.0
 11
251.717802
 21
110.229426
 31
0.0
  0
LINE
  5
21F
330
1A4
100
AcDbEntity
  8
0
  6
Continuous
 62
     0
370
    30
100
AcDbLine
 10
267.426136
 20
82.359958
 30
0.0
 11
267.709559
 21
82.535306
 31
0.0
  0
LINE
  5
220
330
1A4
100
AcDbEntity
  8
0
  6
Continuous
 62
     0
370
    30
100
AcDbLine
 10
252.554996
 20
110.724519
 30
0.0
 11
252.271009
 21
110.548818
 31
0.0
  0
LINE
  5
221
330
1A4
100
AcDbEntity
  8
0
  6
Continuous
 62
     0
370
    30
100
AcDbLine
 10
252.55752
 20
110.725976
 30
0.0
 11
263.800518
 21
117.217123
 31
0.0
  0
LINE
  5
222
330
1A4
100
AcDbEntity
  8
0
  6
Continuous
 62
     0
370
    30
100
AcDbLine
 10
268.55752
 20
83.013163
 30
0.0
 11
279.800518
 21
89.504311
 31
0.0
  0
LINE
  5
223
330
1A4
100
AcDbEntity
  8
0
  6
Continuous
 62
     0
370
    30
100
AcDbLine
 10
267.426149
 20
82.359966
 30
0.0
 11
259.860107
 21
77.991709
 31
0.0
  0
LINE
  5
224
330
1A4
100
AcDbEntity
  8
0
  6
Continuous
 62
     0
370
    30
100
AcDbLine
 10
251.426149
 20
110.072778
 30
0.0
 11
243.860106
 21
105.704522
 31
0.0
  0
LINE
  5
225
330
1A4
100
AcDbEntity
  8
0
  6
Continuous
 62
     0
370
    30
100
AcDbLine
 10
263.797994
 20
117.215667
 30
0.0
 11
264.092171
 21
117.373772
 31
0.0
  0
LINE
  5
226
330
1A4
100
AcDbEntity
  8
0
  6
Continuous
 62
     0
370
    30
100
AcDbLine
 10
279.800505
 20
89.504303
 30
0.0
 11
280.083928
 21
89.679651
 31
0.0
  0
LINE
  5
227
330
1A4
100
AcDbEntity
  8
0
  6
Continuous
 62
     0
370
    30
100
AcDbLine
 10
254.579079
 20
82.282048
 30
0.0
 11
254.477102
 21
82.185276
 31
0.0
  0
LINE
  5
228
330
1A4
100
AcDbEntity
  8
0
  6
Continuous
 62
     0
370
    30
100
AcDbLine
 10
255.877104
 20
79.998511
 30
0.0
 11
255.744398
 21
79.962227
 31
0.0
  0
LINE
  5
229
330
1A4
100
AcDbEntity
  8
0
  6
Continuous
 62
     0
370
    30
100
AcDbLine
 10
257.239185
 20
86.065819
 30
0.0
 11
257.135496
 21
85.96735
 31
0.0
  0
LINE
  5
22A
330
1A4
100
AcDbEntity
  8
0
  6
Continuous
 62
     0
370
    30
100
AcDbLine
 10
258.551883
 20
83.788475
 30
0.0
 11
258.418616
 21
83.749384
 31
0.0
  0
LINE
  5
22B
330
1A4
100
AcDbEntity
  8
0
  6
Continuous
 62
     0
370
    30
100
AcDbLine
 10
256.313923
 20
92.649089
 30
0.0
 11
256.210027
 21
92.550338
 31
0.0
  0
LINE
  5
22C
330
1A4
100
AcDbEntity
  8
0
  6
Continuous
 62
     0
370
    30
100
AcDbLine
 10
257.619877
 20
90.371305
 30
0.0
 11
257.482627
 21
90.331086
 31
0.0
  0
LINE
  5
22D
330
1A4
100
AcDbEntity
  8
0
  6
Continuous
 62
     0
370
    30
100
AcDbLine
 10
253.54899
 20
96.67461
 30
0.0
 11
253.411187
 21
96.634075
 31
0.0
  0
LINE
  5
22E
330
1A4
100
AcDbEntity
  8
0
  6
Continuous
 62
     0
370
    30
100
AcDbLine
 10
246.914173
 20
102.022143
 30
0.0
 11
246.812155
 21
101.924892
 31
0.0
  0
LINE
  5
22F
330
1A4
100
AcDbEntity
  8
0
  6
Continuous
 62
     0
370
    30
100
AcDbLine
 10
248.228689
 20
99.747414
 30
0.0
 11
248.090069
 21
99.70656
 31
0.0
  0
ARC
  5
230
330
1A4
100
AcDbEntity
  8
0
  6
Continuous
 62
     0
370
    30
100
AcDbCircle
 10
244.098083
 20
99.675499
 30
0.0
 40
1.52417066280475
100
AcDbArc
 50
156.675751
 51
272.147016
  0
LINE
  5
231
330
1A4
100
AcDbEntity
  8
0
  6
Continuous
 62
     0
370
    30
100
AcDbLine
 10
242.839702
 20
100.426355
 30
0.0
 11
242.69847
 21
100.27897
 31
0.0
  0
ARC
  5
232
330
1A4
100
AcDbEntity
  8
0
  6
Continuous
 62
     0
370
    30
100
AcDbCircle
 10
243.001493
 20
93.828464
 30
0.0
 40
1.215617210236418
100
AcDbArc
 50
202.661881
 51
280.930019
  0
LINE
  5
233
330
1A4
100
AcDbEntity
  8
0
  6
Continuous
 62
     0
370
    30
100
AcDbLine
 10
241.911095
 20
94.904942
 30
0.0
 11
241.809023
 21
94.807482
 31
0.0
  0
ARC
  5
234
330
1A4
100
AcDbEntity
  8
0
  6
Continuous
 62
     0
370
    30
100
AcDbCircle
 10
242.492548
 20
94.244274
 30
0.0
 40
0.8800960527935893
100
AcDbArc
 50
131.351115
 51
193.650621
  0
ARC
  5
235
330
1A4
100
AcDbEntity
  8
0
  6
Continuous
 62
     0
370
    30
100
AcDbCircle
 10
245.642031
 20
86.91412
 30
0.0
 40
1.161465391739399
100
AcDbArc
 50
205.001047
 51
282.642828
  0
LINE
  5
236
330
1A4
100
AcDbEntity
  8
0
  6
Continuous
 62
     0
370
    30
100
AcDbLine
 10
244.577856
 20
88.054734
 30
0.0
 11
244.479756
 21
87.961555
 31
0.0
  0
ARC
  5
237
330
1A4
100
AcDbEntity
  8
0
  6
Continuous
 62
     0
370
    30
100
AcDbCircle
 10
245.544358
 20
87.245784
 30
0.0
 40
1.260367548188433
100
AcDbArc
 50
140.071108
 51
220.739348
  0
LINE
  5
238
330
1A4
100
AcDbEntity
  8
0
  6
Continuous
 62
     0
370
    30
100
AcDbLine
 10
249.576129
 20
83.065715
 30
0.0
 11
250.528057
 21
83.792341
 31
0.0
  0
LINE
  5
239
330
1A4
100
AcDbEntity
  8
0
  6
Continuous
 62
     0
370
    30
100
AcDbLine
 10
250.890511
 20
80.789139
 30
0.0
 11
251.995752
 21
81.25022
 31
0.0
  0
LINE
  5
23A
330
1A4
100
AcDbEntity
  8
0
  6
Continuous
 62
     0
370
    30
100
AcDbLine
 10
254.575843
 20
82.280392
 30
0.0
 11
255.527771
 21
83.007018
 31
0.0
  0
LINE
  5
23B
330
1A4
100
AcDbEntity
  8
0
  6
Continuous
 62
     0
370
    30
100
AcDbLine
 10
258.550518
 20
83.78848
 30
0.0
 11
259.655758
 21
84.249561
 31
0.0
  0
LINE
  5
23C
330
1A4
100
AcDbEntity
  8
0
  6
Continuous
 62
     0
370
    30
100
AcDbLine
 10
257.236136
 20
86.065056
 30
0.0
 11
258.188064
 21
86.791682
 31
0.0
  0
LINE
  5
23D
330
1A4
100
AcDbEntity
  8
0
  6
Continuous
 62
     0
370
    30
100
AcDbLine
 10
257.626608
 20
90.372245
 30
0.0
 11
258.731848
 21
90.833326
 31
0.0
  0
LINE
  5
23E
330
1A4
100
AcDbEntity
  8
0
  6
Continuous
 62
     0
370
    30
100
AcDbLine
 10
256.312226
 20
92.648822
 30
0.0
 11
257.264154
 21
93.375448
 31
0.0
  0
LINE
  5
23F
330
1A4
100
AcDbEntity
  8
0
  6
Continuous
 62
     0
370
    30
100
AcDbLine
 10
253.550803
 20
96.674495
 30
0.0
 11
254.656044
 21
97.135576
 31
0.0
  0
LINE
  5
240
330
1A4
100
AcDbEntity
  8
0
  6
Continuous
 62
     0
370
    30
100
AcDbLine
 10
252.236422
 20
98.951071
 30
0.0
 11
253.188349
 21
99.677697
 31
0.0
  0
LINE
  5
241
330
1A4
100
AcDbEntity
  8
0
  6
Continuous
 62
     0
370
    30
100
AcDbLine
 10
248.230219
 20
99.746336
 30
0.0
 11
249.335459
 21
100.207417
 31
0.0
  0
LINE
  5
242
330
1A4
100
AcDbEntity
  8
0
  6
Continuous
 62
     0
370
    30
100
AcDbLine
 10
246.915837
 20
102.022912
 30
0.0
 11
247.867765
 21
102.749538
 31
0.0
  0
LINE
  5
243
330
1A4
100
AcDbEntity
  8
0
  6
Continuous
 62
     0
370
    30
100
AcDbLine
 10
242.840032
 20
100.426996
 30
0.0
 11
243.79196
 21
101.153622
 31
0.0
  0
LINE
  5
244
330
1A4
100
AcDbEntity
  8
0
  6
Continuous
 62
     0
370
    30
100
AcDbLine
 10
244.381577
 20
98.245187
 30
0.0
 11
245.259655
 21
98.611501
 31
0.0
  0
LINE
  5
245
330
1A4
100
AcDbEntity
  8
0
  6
Continuous
 62
     0
370
    30
100
AcDbLine
 10
241.916122
 20
94.91007
 30
0.0
 11
242.86805
 21
95.636696
 31
0.0
  0
LINE
  5
246
330
1A4
100
AcDbEntity
  8
0
  6
Continuous
 62
     0
370
    30
100
AcDbLine
 10
243.230504
 20
92.633494
 30
0.0
 11
244.335745
 21
93.094575
 31
0.0
  0
LINE
  5
247
330
1A4
100
AcDbEntity
  8
0
  6
Continuous
 62
     0
370
    30
100
AcDbLine
 10
244.576415
 20
88.053565
 30
0.0
 11
245.528343
 21
88.780191
 31
0.0
  0
LINE
  5
248
330
1A4
100
AcDbEntity
  8
0
  6
Continuous
 62
     0
370
    30
100
AcDbLine
 10
245.890797
 20
85.776989
 30
0.0
 11
246.996037
 21
86.238069
 31
0.0
  0
LINE
  5
249
330
1A4
100
AcDbEntity
  8
0
  6
Continuous
 62
     0
370
    30
100
AcDbLine
 10
250.154439
 20
80.876163
 30
0.0
 11
250.888621
 21
80.78786
 31
0.0
  0
LINE
  5
24A
330
1A4
100
AcDbEntity
  8
0
  6
Continuous
 62
     0
370
    30
100
AcDbLine
 10
249.577372
 20
83.066577
 30
0.0
 11
249.476952
 21
82.971293
 31
0.0
  0
ARC
  5
24B
330
1A4
100
AcDbEntity
  8
0
  6
Continuous
 62
     0
370
    30
100
AcDbCircle
 10
250.466659
 20
82.277253
 30
0.0
 40
1.189060006757647
100
AcDbArc
 50
138.408016
 51
216.168967
  0
LINE
  5
24C
330
1A4
100
AcDbEntity
  8
0
  6
Continuous
 62
     0
370
    30
100
AcDbLine
 10
250.154439
 20
80.876163
 30
0.0
 11
250.044777
 21
80.94703
 31
0.0
  0
ARC
  5
24D
330
1A4
100
AcDbEntity
  8
0
  6
Continuous
 62
     0
370
    30
100
AcDbCircle
 10
248.598158
 20
98.967751
 30
0.0
 40
8.236353729598573
100
AcDbArc
 50
125.13937
 51
185.516545
  0
LWPOLYLINE
  5
24E
330
1A4
100
AcDbEntity
  8
0
  6
Continuous
 62
     0
370
    30
100
AcDbPolyline
 90
       35
 70
     0
 43
0.0
 10
240.399948
 20
98.175964
 10
240.427536
 20
97.25544
 10
240.509521
 20
96.30928
 10
240.644806
 20
95.342499
 10
240.832336
 20
94.359787
 10
241.071198
 20
93.365585
 10
241.360443
 20
92.364357
 10
241.699097
 20
91.360542
 10
242.085846
 20
90.358688
 10
242.518524
 20
89.363518
 10
242.994904
 20
88.379784
 10
243.512756
 20
87.412239
 10
244.069778
 20
86.465553
 10
244.663162
 20
85.54406
 10
245.289917
 20
84.651947
 10
245.947083
 20
83.793396
 10
246.631668
 20
82.97261
 10
247.340683
 20
82.193764
 10
248.070953
 20
81.460533
 10
248.819061
 20
80.776001
 10
249.581558
 20
80.143173
 10
250.354996
 20
79.565071
 10
251.135925
 20
79.044731
 10
251.920944
 20
78.584984
 10
252.706696
 20
78.187866
 10
253.489868
 20
77.855141
 10
254.267166
 20
77.588585
 10
255.035278
 20
77.389977
 10
255.790878
 20
77.26107
 10
256.530518
 20
77.203064
 10
257.25061
 20
77.216522
 10
257.947571
 20
77.301987
 10
258.617767
 20
77.459969
 10
259.256683
 20
77.690094
 10
259.860107
 20
77.991699
  0
LINE
  5
24F
330
1A4
100
AcDbEntity
  8
0
  6
Continuous
 62
     0
370
    30
100
AcDbLine
 10
271.56595
 20
116.504346
 30
0.0
 11
273.832679
 21
117.813042
 31
0.0
  0
LINE
  5
250
330
1A4
100
AcDbEntity
  8
0
  6
Continuous
 62
     0
370
    30
100
AcDbLine
 10
283.065951
 20
96.585762
 30
0.0
 11
285.33291
 21
97.894591
 31
0.0
  0
LINE
  5
251
330
1A4
100
AcDbEntity
  8
0
  6
Continuous
 62
     0
370
    30
100
AcDbLine
 10
272.421338
 20
119.73744
 30
0.0
 11
277.596876
 21
126.125069
 31
0.0
  0
LINE
  5
252
330
1A4
100
AcDbEntity
  8
0
  6
Continuous
 62
     0
370
    30
100
AcDbLine
 10
294.413614
 20
96.999274
 30
0.0
 11
286.294059
 21
95.710543
 31
0.0
  0
LWPOLYLINE
  5
253
330
1A4
100
AcDbEntity
  8
0
  6
Continuous
 62
     0
370
    30
100
AcDbPolyline
 90
        6
 70
     0
 43
0.0
 10
283.090149
 20
95.991043
 10
283.739166
 20
95.820137
 10
284.378967
 20
95.704575
 10
285.006989
 20
95.645363
 10
285.620026
 20
95.643143
 10
286.294067
 20
95.710541
  0
LWPOLYLINE
  5
254
330
1A4
100
AcDbEntity
  8
0
  6
Continuous
 62
     0
370
    30
100
AcDbPolyline
 90
        6
 70
     0
 43
0.0
 10
272.421326
 20
119.737442
 10
272.070526
 20
119.256393
 10
271.760376
 20
118.730484
 10
271.492096
 20
118.162773
 10
271.266724
 20
117.556259
 10
271.062897
 20
116.822739
  0
LWPOLYLINE
  5
255
330
1A4
100
AcDbEntity
  8
0
  6
Continuous
 62
     0
370
    30
100
AcDbPolyline
 90
        7
 70
     0
 43
0.0
 10
283.111572
 20
96.547508
 10
283.660583
 20
96.513054
 10
284.196411
 20
96.528885
 10
284.716797
 20
96.595787
 10
285.218842
 20
96.713722
 10
285.699127
 20
96.881996
 10
286.236572
 20
97.146309
  0
LWPOLYLINE
  5
256
330
1A4
100
AcDbEntity
  8
0
  6
Continuous
 62
     0
370
    30
100
AcDbPolyline
 90
        7
 70
     0
 43
0.0
 10
273.636047
 20
118.969841
 10
273.214691
 20
118.693855
 10
272.823212
 20
118.370621
 10
272.463776
 20
118.002785
 10
272.13855
 20
117.593002
 10
271.84964
 20
117.143898
 10
271.555054
 20
116.563309
  0
LWPOLYLINE
  5
257
330
1A4
100
AcDbEntity
  8
0
  6
Continuous
 62
     0
370
    30
100
AcDbPolyline
 90
       20
 70
     0
 43
0.0
 10
289.572266
 20
96.230858
 10
290.565826
 20
95.4543
 10
291.567993
 20
94.732018
 10
292.576111
 20
94.065994
 10
293.587646
 20
93.458244
 10
294.600006
 20
92.910774
 10
295.610626
 20
92.425575
 10
296.616913
 20
92.004326
 10
297.616425
 20
91.647888
 10
298.606659
 20
91.356995
 10
299.585144
 20
91.13237
 10
300.549347
 20
90.974747
 10
301.496857
 20
90.884865
 10
302.42511
 20
90.863464
 10
303.331696
 20
90.911263
 10
304.21402
 20
91.028854
 10
305.069153
 20
91.215813
 10
305.894043
 20
91.47123
 10
306.685547
 20
91.794212
 10
307.458099
 20
92.193977
  0
LWPOLYLINE
  5
258
330
1A4
100
AcDbEntity
  8
0
  6
Continuous
 62
     0
370
    30
100
AcDbPolyline
 90
       20
 70
     0
 43
0.0
 10
279.95694
 20
139.824692
 10
279.241333
 20
139.367279
 10
278.565094
 20
138.844818
 10
277.930573
 20
138.259598
 10
277.339966
 20
137.613892
 10
276.795593
 20
136.909988
 10
276.299438
 20
136.150208
 10
275.852478
 20
135.337006
 10
275.455261
 20
134.47287
 10
275.108459
 20
133.560318
 10
274.812622
 20
132.601822
 10
274.56839
 20
131.599884
 10
274.376343
 20
130.557007
 10
274.237122
 20
129.475693
 10
274.151154
 20
128.358551
 10
274.118134
 20
127.208694
 10
274.137665
 20
126.029358
 10
274.20932
 20
124.823776
 10
274.332581
 20
123.5952
 10
274.511749
 20
122.317429
  0
LINE
  5
259
330
1A4
100
AcDbEntity
  8
0
  6
Continuous
 62
     0
370
    30
100
AcDbLine
 10
284.569982
 20
142.488189
 30
0.0
 11
279.956943
 21
139.824699
 31
0.0
  0
LINE
  5
25A
330
1A4
100
AcDbEntity
  8
0
  6
Continuous
 62
     0
370
    30
100
AcDbLine
 10
312.07115
 20
94.857466
 30
0.0
 11
307.458111
 21
92.193976
 31
0.0
  0
ENDBLK
  5
25C
330
1A4
100
AcDbEntity
  8
0
100
AcDbBlockEnd
  0
BLOCK
  5
263
330
25E
100
AcDbEntity
  8
0
100
AcDbBlockBegin
  2
e
 70
     0
 10
57.941799
 20
0.0
 30
0.0
  3
e
  1

  0
ARC
  5
25F
330
25E
100
AcDbEntity
  8
0
  6
Continuous
 62
     0
370
     0
100
AcDbCircle
 10
6.901228
 20
247.927512
 30
0.0
 40
23.99999999337891
100
AcDbArc
 50
163.928537
 51
343.930096
  0
ARC
  5
260
330
25E
100
AcDbEntity
  8
0
  6
Continuous
 62
     0
370
     0
100
AcDbCircle
 10
6.901409
 20
247.92814
 30
0.0
 40
23.99999999337891
100
AcDbArc
 50
343.928537
 51
163.930096
  0
ARC
  5
261
330
25E
100
AcDbEntity
  8
0
  6
Continuous
 62
     0
370
    30
100
AcDbCircle
 10
6.901215
 20
247.927466
 30
0.0
 40
27.49999999241334
100
AcDbArc
 50
163.928537
 51
343.930096
  0
ARC
  5
262
330
25E
100
AcDbEntity
  8
0
  6
Continuous
 62
     0
370
    30
100
AcDbCircle
 10
6.901422
 20
247.928186
 30
0.0
 40
27.49999999241334
100
AcDbArc
 50
343.928537
 51
163.930096
  0
ENDBLK
  5
264
330
25E
100
AcDbEntity
  8
0
100
AcDbBlockEnd
  0
ENDSEC
  0
SECTION
  2
ENTITIES
  0
INSERT
  5
DC
330
1F
100
AcDbEntity
  8
0
  6
Continuous
 62
     7
420
 16250871
370
     0
100
AcDbBlockReference
  2
a
 10
65.788673
 20
62.557575
 30
0.0
  0
INSERT
  5
14D
330
1F
100
AcDbEntity
  8
0
  6
Continuous
 62
     7
420
 16250871
370
     0
100
AcDbBlockReference
  2
b
 10
65.788673
 20
62.557575
 30
0.0
  0
INSERT
  5
1A3
330
1F
100
AcDbEntity
  8
0
  6
Continuous
 62
     7
420
 16250871
370
     0
100
AcDbBlockReference
  2
c
 10
65.788673
 20
62.557575
 30
0.0
  0
INSERT
  5
25D
330
1F
100
AcDbEntity
  8
0
  6
Continuous
 62
     7
420
 16250871
370
     0
100
AcDbBlockReference
  2
d
 10
65.788673
 20
62.557575
 30
0.0
  0
INSERT
  5
265
330
1F
100
AcDbEntity
  8
0
  6
Continuous
 62
     7
420
 16250871
370
     0
100
AcDbBlockReference
  2
e
 10
57.941799
 20
0.0
 30
0.0
  0
ENDSEC
  0
SECTION
  2
OBJECTS
  0
DICTIONARY
  5
C
330
0
100
AcDbDictionary
281
     1
  3
ACAD_DETAILVIEWSTYLE
350
29D
  3
ACAD_GROUP
350
D
  3
ACAD_LAYOUT
350
1A
  3
ACAD_MATERIAL
350
43
  3
ACAD_MLEADERSTYLE
350
6B
  3
ACAD_MLINESTYLE
350
17
  3
ACAD_PLOTSETTINGS
350
19
  3
ACAD_PLOTSTYLENAME
350
E
  3
ACAD_SCALELIST
350
47
  3
ACAD_SECTIONVIEWSTYLE
350
29E
  3
ACAD_TABLESTYLE
350
69
  3
ACAD_VISUALSTYLE
350
2A
  3
ACDB_RECOMPOSE_DATA
350
29A
  3
AcDbVariableDictionary
350
266
  0
SUN
  5
6D
330
29
100
AcDbSun
 90
        1
290
     0
 63
     7
421
 16777215
 40
1.0
291
     1
 91
  2455826
 92
 54000000
292
     0
 70
     2
 71
   256
280
     1
  0
DICTIONARY
  5
29D
102
{ACAD_REACTORS
330
C
102
}
330
C
100
AcDbDictionary
281
     1
  0
DICTIONARY
  5
D
102
{ACAD_REACTORS
330
C
102
}
330
C
100
AcDbDictionary
281
     1
  0
DICTIONARY
  5
1A
102
{ACAD_REACTORS
330
C
102
}
330
C
100
AcDbDictionary
281
     1
  3
Layout1
350
1E
  3
Layout2
350
26
  3
Model
350
22
  0
DICTIONARY
  5
43
102
{ACAD_REACTORS
330
C
102
}
330
C
100
AcDbDictionary
281
     1
  3
ByBlock
350
45
  3
ByLayer
350
44
  3
Global
350
46
  0
DICTIONARY
  5
6B
102
{ACAD_REACTORS
330
C
102
}
330
C
100
AcDbDictionary
281
     1
  3
Standard
350
6C
  0
DICTIONARY
  5
17
102
{ACAD_REACTORS
330
C
102
}
330
C
100
AcDbDictionary
281
     1
  3
Standard
350
18
  0
DICTIONARY
  5
19
102
{ACAD_REACTORS
330
C
102
}
330
C
100
AcDbDictionary
281
     1
  0
ACDBDICTIONARYWDFLT
  5
E
102
{ACAD_REACTORS
330
C
102
}
330
C
100
AcDbDictionary
281
     1
  3
Normal
350
F
100
AcDbDictionaryWithDefault
340
F
  0
DICTIONARY
  5
47
102
{ACAD_REACTORS
330
C
102
}
330
C
100
AcDbDictionary
281
     1
  3
A0
350
48
  3
A1
350
49
  3
A2
350
4A
  3
A3
350
4B
  3
A4
350
4C
  3
A5
350
4D
  3
A6
350
4E
  3
A7
350
4F
  3
A8
350
50
  3
A9
350
51
  3
B0
350
52
  3
B1
350
53
  3
B2
350
54
  3
B3
350
55
  3
B4
350
56
  3
B5
350
57
  3
B6
350
58
  3
B7
350
59
  3
B8
350
5A
  3
B9
350
5B
  3
C0
350
5C
  3
C1
350
5D
  3
C2
350
5E
  3
C3
350
5F
  3
C4
350
60
  3
C5
350
61
  3
C6
350
62
  3
C7
350
63
  3
C8
350
64
  3
C9
350
65
  3
D0
350
66
  3
D1
350
67
  3
D2
350
68
  0
DICTIONARY
  5
29E
102
{ACAD_REACTORS
330
C
102
}
330
C
100
AcDbDictionary
281
     1
  0
DICTIONARY
  5
69
102
{ACAD_REACTORS
330
C
102
}
330
C
100
AcDbDictionary
281
     1
  3
Standard
350
6A
  0
DICTIONARY
  5
2A
102
{ACAD_REACTORS
330
C
102
}
330
C
100
AcDbDictionary
281
     1
  3
2dWireframe
350
2F
  3
Basic
350
32
  3
Brighten
350
36
  3
ColorChange
350
3A
  3
Conceptual
350
34
  3
Dim
350
35
  3
EdgeColorOff
350
3D
  3
Facepattern
350
39
  3
Flat
350
2B
  3
FlatWithEdges
350
2C
  3
Gouraud
350
2D
  3
GouraudWithEdges
350
2E
  3
Hidden
350
31
  3
JitterOff
350
3B
  3
Linepattern
350
38
  3
OverhangOff
350
3C
  3
Realistic
350
33
  3
Shaded
350
42
  3
Shaded with edges
350
41
  3
Shades of Gray
350
3E
  3
Sketchy
350
3F
  3
Thicken
350
37
  3
Wireframe
350
30
  3
X-Ray
350
40
  0
XRECORD
  5
29A
102
{ACAD_REACTORS
330
C
102
}
330
C
100
AcDbXrecord
280
     1
 90
        1
330
6A
  0
DICTIONARY
  5
266
102
{ACAD_REACTORS
330
C
102
}
330
C
100
AcDbDictionary
281
     1
  3
CANNOSCALE
350
267
  3
CMLEADERSTYLE
350
29C
  3
CTABLESTYLE
350
29B
  0
LAYOUT
  5
1E
102
{ACAD_REACTORS
330
1A
102
}
330
1A
100
AcDbPlotSettings
  1

  2
none_device
  4

  6

 40
0.0
 41
0.0
 42
0.0
 43
0.0
 44
0.0
 45
0.0
 46
0.0
 47
0.0
 48
0.0
 49
0.0
140
0.0
141
0.0
142
1.0
143
1.0
 70
   688
 72
     1
 73
     0
 74
     5
  7

 75
    16
 76
     0
 77
     2
 78
   300
147
1.0
148
0.0
149
0.0
100
AcDbLayout
  1
Layout1
 70
     1
 71
     1
 10
0.0
 20
0.0
 11
420.0
 21
297.0
 12
0.0
 22
0.0
 32
0.0
 14
1.000000E+20
 24
1.000000E+20
 34
1.000000E+20
 15
-1.000000E+20
 25
-1.000000E+20
 35
-1.000000E+20
146
0.0
 13
0.0
 23
0.0
 33
0.0
 16
1.0
 26
0.0
 36
0.0
 17
0.0
 27
1.0
 37
0.0
 76
     0
330
1B
  0
LAYOUT
  5
26
102
{ACAD_REACTORS
330
1A
102
}
330
1A
100
AcDbPlotSettings
  1

  2
none_device
  4

  6

 40
0.0
 41
0.0
 42
0.0
 43
0.0
 44
0.0
 45
0.0
 46
0.0
 47
0.0
 48
0.0
 49
0.0
140
0.0
141
0.0
142
1.0
143
1.0
 70
   688
 72
     1
 73
     0
 74
     5
  7

 75
    16
 76
     0
 77
     2
 78
   300
147
1.0
148
0.0
149
0.0
100
AcDbLayout
  1
Layout2
 70
     1
 71
     2
 10
0.0
 20
0.0
 11
0.0
 21
0.0
 12
0.0
 22
0.0
 32
0.0
 14
0.0
 24
0.0
 34
0.0
 15
0.0
 25
0.0
 35
0.0
146
0.0
 13
0.0
 23
0.0
 33
0.0
 16
1.0
 26
0.0
 36
0.0
 17
0.0
 27
1.0
 37
0.0
 76
     0
330
23
  0
LAYOUT
  5
22
102
{ACAD_REACTORS
330
1A
102
}
330
1A
100
AcDbPlotSettings
  1

  2
none_device
  4
Letter_(8.50_x_11.00_Inches)
  6

 40
6.35
 41
6.35
 42
6.350005
 43
6.350005
 44
215.9
 45
279.4
 46
0.0
 47
0.0
 48
0.0
 49
0.0
140
0.0
141
0.0
142
1.0
143
1.0
 70
  1712
 72
     1
 73
     0
 74
     0
  7

 75
     0
 76
     0
 77
     2
 78
   300
147
1.0
148
0.0
149
0.0
100
AcDbLayout
  1
Model
 70
     1
 71
     0
 10
0.0
 20
0.0
 11
420.0
 21
297.0
 12
0.0
 22
0.0
 32
0.0
 14
1.000000E+20
 24
1.000000E+20
 34
1.000000E+20
 15
-1.000000E+20
 25
-1.000000E+20
 35
-1.000000E+20
146
0.0
 13
0.0
 23
0.0
 33
0.0
 16
1.0
 26
0.0
 36
0.0
 17
0.0
 27
1.0
 37
0.0
 76
     0
330
1F
331
29
  0
MATERIAL
  5
45
102
{ACAD_REACTORS
330
43
102
}
330
43
100
AcDbMaterial
  1
ByBlock
 72
     1
 94
      127
  0
MATERIAL
  5
44
102
{ACAD_REACTORS
330
43
102
}
330
43
100
AcDbMaterial
  1
ByLayer
 72
     1
 94
      127
  0
MATERIAL
  5
46
102
{ACAD_REACTORS
330
43
102
}
330
43
100
AcDbMaterial
  1
Global
 72
     1
 94
      127
  0
MLEADERSTYLE
  5
6C
102
{ACAD_REACTORS
330
6B
102
}
330
6B
100
AcDbMLeaderStyle
179
     2
170
     2
171
     1
172
     0
 90
        2
 40
0.0
 41
0.0
173
     1
 91
-1056964608
340
14
 92
       -2
290
     1
 42
2.0
291
     1
 43
8.0
  3
Standard
341
0
 44
4.0
300

342
11
174
     1
178
     6
175
     1
176
     0
 93
-1056964608
 45
4.0
292
     0
297
     0
 46
4.0
343
0
 94
-1056964608
 47
1.0
 49
1.0
140
1.0
293
     1
141
0.0
294
     1
177
     0
142
1.0
295
     0
296
     0
143
3.75
271
     0
272
     9
273
     9
  0
MLINESTYLE
  5
18
102
{ACAD_REACTORS
330
17
102
}
330
17
100
AcDbMlineStyle
  2
Standard
 70
     0
  3

 62
   256
 51
90.0
 52
90.0
 71
     2
 49
0.5
 62
   256
  6
BYLAYER
 49
-0.5
 62
   256
  6
BYLAYER
  0
ACDBPLACEHOLDER
  5
F
102
{ACAD_REACTORS
330
E
102
}
330
E
  0
SCALE
  5
48
102
{ACAD_REACTORS
330
47
102
}
330
47
100
AcDbScale
 70
     0
300
1:1
140
1.0
141
1.0
290
     1
  0
SCALE
  5
49
102
{ACAD_REACTORS
330
47
102
}
330
47
100
AcDbScale
 70
     0
300
1:2
140
1.0
141
2.0
290
     0
  0
SCALE
  5
4A
102
{ACAD_REACTORS
330
47
102
}
330
47
100
AcDbScale
 70
     0
300
1:4
140
1.0
141
4.0
290
     0
  0
SCALE
  5
4B
102
{ACAD_REACTORS
330
47
102
}
330
47
100
AcDbScale
 70
     0
300
1:5
140
1.0
141
5.0
290
     0
  0
SCALE
  5
4C
102
{ACAD_REACTORS
330
47
102
}
330
47
100
AcDbScale
 70
     0
300
1:8
140
1.0
141
8.0
290
     0
  0
SCALE
  5
4D
102
{ACAD_REACTORS
330
47
102
}
330
47
100
AcDbScale
 70
     0
300
1:10
140
1.0
141
10.0
290
     0
  0
SCALE
  5
4E
102
{ACAD_REACTORS
330
47
102
}
330
47
100
AcDbScale
 70
     0
300
1:16
140
1.0
141
16.0
290
     0
  0
SCALE
  5
4F
102
{ACAD_REACTORS
330
47
102
}
330
47
100
AcDbScale
 70
     0
300
1:20
140
1.0
141
20.0
290
     0
  0
SCALE
  5
50
102
{ACAD_REACTORS
330
47
102
}
330
47
100
AcDbScale
 70
     0
300
1:30
140
1.0
141
30.0
290
     0
  0
SCALE
  5
51
102
{ACAD_REACTORS
330
47
102
}
330
47
100
AcDbScale
 70
     0
300
1:40
140
1.0
141
40.0
290
     0
  0
SCALE
  5
52
102
{ACAD_REACTORS
330
47
102
}
330
47
100
AcDbScale
 70
     0
300
1:50
140
1.0
141
50.0
290
     0
  0
SCALE
  5
53
102
{ACAD_REACTORS
330
47
102
}
330
47
100
AcDbScale
 70
     0
300
1:100
140
1.0
141
100.0
290
     0
  0
SCALE
  5
54
102
{ACAD_REACTORS
330
47
102
}
330
47
100
AcDbScale
 70
     0
300
2:1
140
2.0
141
1.0
290
     0
  0
SCALE
  5
55
102
{ACAD_REACTORS
330
47
102
}
330
47
100
AcDbScale
 70
     0
300
4:1
140
4.0
141
1.0
290
     0
  0
SCALE
  5
56
102
{ACAD_REACTORS
330
47
102
}
330
47
100
AcDbScale
 70
     0
300
8:1
140
8.0
141
1.0
290
     0
  0
SCALE
  5
57
102
{ACAD_REACTORS
330
47
102
}
330
47
100
AcDbScale
 70
     0
300
10:1
140
10.0
141
1.0
290
     0
  0
SCALE
  5
58
102
{ACAD_REACTORS
330
47
102
}
330
47
100
AcDbScale
 70
     0
300
100:1
140
100.0
141
1.0
290
     0
  0
SCALE
  5
59
102
{ACAD_REACTORS
330
47
102
}
330
47
100
AcDbScale
 70
     0
300
1/128" = 1'-0"
140
0.007812
141
12.0
290
     0
  0
SCALE
  5
5A
102
{ACAD_REACTORS
330
47
102
}
330
47
100
AcDbScale
 70
     0
300
1/64" = 1'-0"
140
0.015625
141
12.0
290
     0
  0
SCALE
  5
5B
102
{ACAD_REACTORS
330
47
102
}
330
47
100
AcDbScale
 70
     0
300
1/32" = 1'-0"
140
0.03125
141
12.0
290
     0
  0
SCALE
  5
5C
102
{ACAD_REACTORS
330
47
102
}
330
47
100
AcDbScale
 70
     0
300
1/16" = 1'-0"
140
0.0625
141
12.0
290
     0
  0
SCALE
  5
5D
102
{ACAD_REACTORS
330
47
102
}
330
47
100
AcDbScale
 70
     0
300
3/32" = 1'-0"
140
0.09375
141
12.0
290
     0
  0
SCALE
  5
5E
102
{ACAD_REACTORS
330
47
102
}
330
47
100
AcDbScale
 70
     0
300
1/8" = 1'-0"
140
0.125
141
12.0
290
     0
  0
SCALE
  5
5F
102
{ACAD_REACTORS
330
47
102
}
330
47
100
AcDbScale
 70
     0
300
3/16" = 1'-0"
140
0.1875
141
12.0
290
     0
  0
SCALE
  5
60
102
{ACAD_REACTORS
330
47
102
}
330
47
100
AcDbScale
 70
     0
300
1/4" = 1'-0"
140
0.25
141
12.0
290
     0
  0
SCALE
  5
61
102
{ACAD_REACTORS
330
47
102
}
330
47
100
AcDbScale
 70
     0
300
3/8" = 1'-0"
140
0.375
141
12.0
290
     0
  0
SCALE
  5
62
102
{ACAD_REACTORS
330
47
102
}
330
47
100
AcDbScale
 70
     0
300
1/2" = 1'-0"
140
0.5
141
12.0
290
     0
  0
SCALE
  5
63
102
{ACAD_REACTORS
330
47
102
}
330
47
100
AcDbScale
 70
     0
300
3/4" = 1'-0"
140
0.75
141
12.0
290
     0
  0
SCALE
  5
64
102
{ACAD_REACTORS
330
47
102
}
330
47
100
AcDbScale
 70
     0
300
1" = 1'-0"
140
1.0
141
12.0
290
     0
  0
SCALE
  5
65
102
{ACAD_REACTORS
330
47
102
}
330
47
100
AcDbScale
 70
     0
300
1-1/2" = 1'-0"
140
1.5
141
12.0
290
     0
  0
SCALE
  5
66
102
{ACAD_REACTORS
330
47
102
}
330
47
100
AcDbScale
 70
     0
300
3" = 1'-0"
140
3.0
141
12.0
290
     0
  0
SCALE
  5
67
102
{ACAD_REACTORS
330
47
102
}
330
47
100
AcDbScale
 70
     0
300
6" = 1'-0"
140
6.0
141
12.0
290
     0
  0
SCALE
  5
68
102
{ACAD_REACTORS
330
47
102
}
330
47
100
AcDbScale
 70
     0
300
1'-0" = 1'-0"
140
12.0
141
12.0
290
     0
  0
TABLESTYLE
  5
6A
102
{ACAD_REACTORS
330
69
102
}
102
{ACAD_XDICTIONARY
360
298
102
}
330
69
100
AcDbTableStyle
  3
Standard
 70
     0
 71
     0
 40
0.06
 41
0.06
280
     0
281
     0
  7
Standard
140
4.5
170
     2
 62
     0
 63
   257
283
     0
 90
        4
 91
        0
  1

274
    -2
284
     1
 64
     0
275
    -2
285
     1
 65
     0
276
    -2
286
     1
 66
     0
277
    -2
287
     1
 67
     0
278
    -2
288
     1
 68
     0
279
    -2
289
     1
 69
     0
  7
Standard
140
6.0
170
     5
 62
     0
 63
   257
283
     0
 90
        4
 91
        0
  1

274
    -2
284
     1
 64
     0
275
    -2
285
     1
 65
     0
276
    -2
286
     1
 66
     0
277
    -2
287
     1
 67
     0
278
    -2
288
     1
 68
     0
279
    -2
289
     1
 69
     0
  7
Standard
140
4.5
170
     5
 62
     0
 63
   257
283
     0
 90
        4
 91
        0
  1

274
    -2
284
     1
 64
     0
275
    -2
285
     1
 65
     0
276
    -2
286
     1
 66
     0
277
    -2
287
     1
 67
     0
278
    -2
288
     1
 68
     0
279
    -2
289
     1
 69
     0
  0
VISUALSTYLE
  5
2F
102
{ACAD_REACTORS
330
2A
102
}
102
{ACAD_XDICTIONARY
360
270
102
}
330
2A
100
AcDbVisualStyle
  2
2dWireframe
 70
     4
177
     2
291
     0
 71
     0
176
     1
 72
     2
176
     1
 73
     0
176
     1
 90
        0
176
     1
 40
0.6
176
     1
 41
30.0
176
     1
 62
     5
 63
     7
421
 16777215
176
     1
 74
     1
176
     1
 91
        4
176
     1
 64
     7
176
     1
 65
   257
176
     1
 75
     1
176
     1
175
     1
176
     1
 42
1.0
176
     1
 92
        0
176
     1
 66
   257
176
     1
 43
1.0
176
     1
 76
     1
176
     1
 77
     6
176
     1
 78
     2
176
     1
 67
     7
176
     1
 79
     5
176
     1
170
     0
176
     1
171
     0
176
     1
290
     0
176
     1
 93
        1
176
     1
 44
0.0
176
     1
173
     0
176
     1
  0
VISUALSTYLE
  5
32
102
{ACAD_REACTORS
330
2A
102
}
102
{ACAD_XDICTIONARY
360
276
102
}
330
2A
100
AcDbVisualStyle
  2
Basic
 70
     7
177
     2
291
     1
 71
     1
176
     1
 72
     0
176
     1
 73
     1
176
     1
 90
        0
176
     1
 40
0.6
176
     1
 41
30.0
176
     1
 62
     5
 63
     7
421
 16777215
176
     1
 74
     0
176
     1
 91
        4
176
     1
 64
     7
176
     1
 65
   257
176
     1
 75
     1
176
     1
175
     1
176
     1
 42
1.0
176
     1
 92
        8
176
     1
 66
     7
176
     1
 43
1.0
176
     1
 76
     1
176
     1
 77
     6
176
     1
 78
     2
176
     1
 67
     7
176
     1
 79
     5
176
     1
170
     0
176
     1
171
     0
176
     1
290
     0
176
     1
 93
        1
176
     1
 44
0.0
176
     1
173
     0
176
     1
  0
VISUALSTYLE
  5
36
102
{ACAD_REACTORS
330
2A
102
}
102
{ACAD_XDICTIONARY
360
27E
102
}
330
2A
100
AcDbVisualStyle
  2
Brighten
 70
    12
177
     2
291
     1
 71
     2
176
     1
 72
     2
176
     1
 73
     0
176
     1
 90
        0
176
     1
 40
0.6
176
     1
 41
30.0
176
     1
 62
     5
 63
     7
421
 16777215
176
     1
 74
     1
176
     1
 91
        4
176
     1
 64
     7
176
     1
 65
   257
176
     1
 75
     1
176
     1
175
     1
176
     1
 42
1.0
176
     1
 92
        8
176
     1
 66
     7
176
     1
 43
1.0
176
     1
 76
     1
176
     1
 77
     6
176
     1
 78
     2
176
     1
 67
     7
176
     1
 79
     5
176
     1
170
     0
176
     1
171
     0
176
     1
290
     0
176
     1
 93
        1
176
     1
 44
50.0
176
     1
173
     0
176
     1
  0
VISUALSTYLE
  5
3A
102
{ACAD_REACTORS
330
2A
102
}
102
{ACAD_XDICTIONARY
360
286
102
}
330
2A
100
AcDbVisualStyle
  2
ColorChange
 70
    16
177
     2
291
     1
 71
     2
176
     1
 72
     2
176
     1
 73
     3
176
     1
 90
        0
176
     1
 40
0.6
176
     1
 41
30.0
176
     1
 62
     5
 63
     8
421
  8421504
176
     1
 74
     1
176
     1
 91
        4
176
     1
 64
     7
176
     1
 65
   257
176
     1
 75
     1
176
     1
175
     1
176
     1
 42
1.0
176
     1
 92
        8
176
     1
 66
     8
424
  8421504
176
     1
 43
1.0
176
     1
 76
     1
176
     1
 77
     6
176
     1
 78
     2
176
     1
 67
     7
176
     1
 79
     5
176
     1
170
     0
176
     1
171
     0
176
     1
290
     0
176
     1
 93
        1
176
     1
 44
0.0
176
     1
173
     0
176
     1
  0
VISUALSTYLE
  5
34
102
{ACAD_REACTORS
330
2A
102
}
102
{ACAD_XDICTIONARY
360
27A
102
}
330
2A
100
AcDbVisualStyle
  2
Conceptual
 70
     9
177
     2
291
     0
 71
     3
176
     1
 72
     2
176
     1
 73
     0
176
     1
 90
        0
176
     1
 40
0.6
176
     1
 41
30.0
176
     1
 62
     5
 63
     7
421
 16777215
176
     1
 74
     2
176
     1
 91
        2
176
     1
 64
     7
176
     1
 65
   257
176
     1
 75
     1
176
     1
175
     1
176
     1
 42
179.0
176
     1
 92
        8
176
     1
 66
     7
176
     1
 43
1.0
176
     1
 76
     1
176
     1
 77
     6
176
     1
 78
     2
176
     1
 67
     7
176
     1
 79
     3
176
     1
170
     0
176
     1
171
     0
176
     1
290
     0
176
     1
 93
        1
176
     1
 44
0.0
176
     1
173
     0
176
     1
  0
VISUALSTYLE
  5
35
102
{ACAD_REACTORS
330
2A
102
}
102
{ACAD_XDICTIONARY
360
27C
102
}
330
2A
100
AcDbVisualStyle
  2
Dim
 70
    11
177
     2
291
     1
 71
     2
176
     1
 72
     2
176
     1
 73
     0
176
     1
 90
        0
176
     1
 40
0.6
176
     1
 41
30.0
176
     1
 62
     5
 63
     7
421
 16777215
176
     1
 74
     1
176
     1
 91
        4
176
     1
 64
     7
176
     1
 65
   257
176
     1
 75
     1
176
     1
175
     1
176
     1
 42
1.0
176
     1
 92
        8
176
     1
 66
     7
176
     1
 43
1.0
176
     1
 76
     1
176
     1
 77
     6
176
     1
 78
     2
176
     1
 67
     7
176
     1
 79
     5
176
     1
170
     0
176
     1
171
     0
176
     1
290
     0
176
     1
 93
        1
176
     1
 44
-50.0
176
     1
173
     0
176
     1
  0
VISUALSTYLE
  5
3D
102
{ACAD_REACTORS
330
2A
102
}
102
{ACAD_XDICTIONARY
360
28C
102
}
330
2A
100
AcDbVisualStyle
  2
EdgeColorOff
 70
    22
177
     2
291
     1
 71
     2
176
     0
 72
     2
176
     0
 73
     0
176
     0
 90
        0
176
     0
 40
0.6
176
     0
 41
30.0
176
     0
 62
     5
 63
     7
421
 16777215
176
     0
 74
     1
176
     0
 91
        4
176
     0
 64
     7
176
     0
 65
   257
176
     0
 75
     1
176
     0
175
     1
176
     0
 42
1.0
176
     0
 92
        8
176
     2
 66
     7
176
     0
 43
1.0
176
     0
 76
     1
176
     0
 77
     6
176
     0
 78
     2
176
     0
 67
     7
176
     0
 79
     5
176
     0
170
     0
176
     0
171
     0
176
     0
290
     0
176
     0
 93
        1
176
     0
 44
0.0
176
     0
173
     0
176
     0
  0
VISUALSTYLE
  5
39
102
{ACAD_REACTORS
330
2A
102
}
102
{ACAD_XDICTIONARY
360
284
102
}
330
2A
100
AcDbVisualStyle
  2
Facepattern
 70
    15
177
     2
291
     1
 71
     2
176
     1
 72
     2
176
     1
 73
     0
176
     1
 90
        0
176
     1
 40
0.6
176
     1
 41
30.0
176
     1
 62
     5
 63
     7
421
 16777215
176
     1
 74
     1
176
     1
 91
        4
176
     1
 64
     7
176
     1
 65
   257
176
     1
 75
     1
176
     1
175
     1
176
     1
 42
1.0
176
     1
 92
        8
176
     1
 66
     7
176
     1
 43
1.0
176
     1
 76
     1
176
     1
 77
     6
176
     1
 78
     2
176
     1
 67
     7
176
     1
 79
     5
176
     1
170
     0
176
     1
171
     0
176
     1
290
     0
176
     1
 93
        1
176
     1
 44
0.0
176
     1
173
     0
176
     1
  0
VISUALSTYLE
  5
2B
102
{ACAD_REACTORS
330
2A
102
}
102
{ACAD_XDICTIONARY
360
268
102
}
330
2A
100
AcDbVisualStyle
  2
Flat
 70
     0
177
     2
291
     1
 71
     2
176
     1
 72
     1
176
     1
 73
     1
176
     1
 90
        2
176
     1
 40
0.6
176
     1
 41
30.0
176
     1
 62
     5
 63
     7
421
 16777215
176
     1
 74
     0
176
     1
 91
        0
176
     1
 64
     7
176
     1
 65
   257
176
     1
 75
     1
176
     1
175
     1
176
     1
 42
1.0
176
     1
 92
        8
176
     1
 66
     7
176
     1
 43
1.0
176
     1
 76
     1
176
     1
 77
     6
176
     1
 78
     2
176
     1
 67
     7
176
     1
 79
     5
176
     1
170
     0
176
     1
171
     0
176
     1
290
     0
176
     1
 93
       13
176
     1
 44
0.0
176
     1
173
     0
176
     1
  0
VISUALSTYLE
  5
2C
102
{ACAD_REACTORS
330
2A
102
}
102
{ACAD_XDICTIONARY
360
26A
102
}
330
2A
100
AcDbVisualStyle
  2
FlatWithEdges
 70
     1
177
     2
291
     1
 71
     2
176
     1
 72
     1
176
     1
 73
     1
176
     1
 90
        2
176
     1
 40
0.6
176
     1
 41
30.0
176
     1
 62
     5
 63
     7
421
 16777215
176
     1
 74
     1
176
     1
 91
        0
176
     1
 64
     7
176
     1
 65
   257
176
     1
 75
     1
176
     1
175
     1
176
     1
 42
1.0
176
     1
 92
        0
176
     1
 66
   257
176
     1
 43
1.0
176
     1
 76
     1
176
     1
 77
     6
176
     1
 78
     2
176
     1
 67
     7
176
     1
 79
     5
176
     1
170
     0
176
     1
171
     0
176
     1
290
     0
176
     1
 93
       13
176
     1
 44
0.0
176
     1
173
     0
176
     1
  0
VISUALSTYLE
  5
2D
102
{ACAD_REACTORS
330
2A
102
}
102
{ACAD_XDICTIONARY
360
26C
102
}
330
2A
100
AcDbVisualStyle
  2
Gouraud
 70
     2
177
     2
291
     1
 71
     2
176
     1
 72
     2
176
     1
 73
     1
176
     1
 90
        2
176
     1
 40
0.6
176
     1
 41
30.0
176
     1
 62
     5
 63
     7
421
 16777215
176
     1
 74
     0
176
     1
 91
        0
176
     1
 64
     7
176
     1
 65
   257
176
     1
 75
     1
176
     1
175
     1
176
     1
 42
1.0
176
     1
 92
        0
176
     1
 66
     7
176
     1
 43
1.0
176
     1
 76
     1
176
     1
 77
     6
176
     1
 78
     2
176
     1
 67
     7
176
     1
 79
     5
176
     1
170
     0
176
     1
171
     0
176
     1
290
     0
176
     1
 93
       13
176
     1
 44
0.0
176
     1
173
     0
176
     1
  0
VISUALSTYLE
  5
2E
102
{ACAD_REACTORS
330
2A
102
}
102
{ACAD_XDICTIONARY
360
26E
102
}
330
2A
100
AcDbVisualStyle
  2
GouraudWithEdges
 70
     3
177
     2
291
     1
 71
     2
176
     1
 72
     2
176
     1
 73
     1
176
     1
 90
        2
176
     1
 40
0.6
176
     1
 41
30.0
176
     1
 62
     5
 63
     7
421
 16777215
176
     1
 74
     1
176
     1
 91
        0
176
     1
 64
     7
176
     1
 65
   257
176
     1
 75
     1
176
     1
175
     1
176
     1
 42
1.0
176
     1
 92
        0
176
     1
 66
   257
176
     1
 43
1.0
176
     1
 76
     1
176
     1
 77
     6
176
     1
 78
     2
176
     1
 67
     7
176
     1
 79
     5
176
     1
170
     0
176
     1
171
     0
176
     1
290
     0
176
     1
 93
       13
176
     1
 44
0.0
176
     1
173
     0
176
     1
  0
VISUALSTYLE
  5
31
102
{ACAD_REACTORS
330
2A
102
}
102
{ACAD_XDICTIONARY
360
274
102
}
330
2A
100
AcDbVisualStyle
  2
Hidden
 70
     6
177
     2
291
     0
 71
     1
176
     1
 72
     2
176
     1
 73
     2
176
     1
 90
        0
176
     1
 40
0.6
176
     1
 41
30.0
176
     1
 62
     5
 63
     7
421
 16777215
176
     1
 74
     2
176
     1
 91
        2
176
     1
 64
     7
176
     1
 65
   257
176
     1
 75
     2
176
     1
175
     1
176
     1
 42
40.0
176
     1
 92
        0
176
     1
 66
   257
176
     1
 43
1.0
176
     1
 76
     1
176
     1
 77
     6
176
     1
 78
     2
176
     1
 67
     7
176
     1
 79
     3
176
     1
170
     0
176
     1
171
     0
176
     1
290
     0
176
     1
 93
        1
176
     1
 44
0.0
176
     1
173
     0
176
     1
  0
VISUALSTYLE
  5
3B
102
{ACAD_REACTORS
330
2A
102
}
102
{ACAD_XDICTIONARY
360
288
102
}
330
2A
100
AcDbVisualStyle
  2
JitterOff
 70
    20
177
     2
291
     1
 71
     2
176
     0
 72
     2
176
     0
 73
     0
176
     0
 90
        0
176
     0
 40
0.6
176
     0
 41
30.0
176
     0
 62
     5
 63
     7
421
 16777215
176
     0
 74
     1
176
     0
 91
        4
176
     0
 64
     7
176
     0
 65
   257
176
     0
 75
     1
176
     0
175
     1
176
     0
 42
1.0
176
     0
 92
       10
176
     2
 66
     7
176
     0
 43
1.0
176
     0
 76
     1
176
     0
 77
     6
176
     0
 78
     2
176
     0
 67
     7
176
     0
 79
     5
176
     0
170
     0
176
     0
171
     0
176
     0
290
     0
176
     0
 93
        1
176
     0
 44
0.0
176
     0
173
     0
176
     0
  0
VISUALSTYLE
  5
38
102
{ACAD_REACTORS
330
2A
102
}
102
{ACAD_XDICTIONARY
360
282
102
}
330
2A
100
AcDbVisualStyle
  2
Linepattern
 70
    14
177
     2
291
     1
 71
     2
176
     1
 72
     2
176
     1
 73
     0
176
     1
 90
        0
176
     1
 40
0.6
176
     1
 41
30.0
176
     1
 62
     5
 63
     7
421
 16777215
176
     1
 74
     1
176
     1
 91
        4
176
     1
 64
     7
176
     1
 65
   257
176
     1
 75
     7
176
     1
175
     7
176
     1
 42
1.0
176
     1
 92
        8
176
     1
 66
     7
176
     1
 43
1.0
176
     1
 76
     1
176
     1
 77
     6
176
     1
 78
     2
176
     1
 67
     7
176
     1
 79
     5
176
     1
170
     0
176
     1
171
     0
176
     1
290
     0
176
     1
 93
        1
176
     1
 44
0.0
176
     1
173
     0
176
     1
  0
VISUALSTYLE
  5
3C
102
{ACAD_REACTORS
330
2A
102
}
102
{ACAD_XDICTIONARY
360
28A
102
}
330
2A
100
AcDbVisualStyle
  2
OverhangOff
 70
    21
177
     2
291
     1
 71
     2
176
     0
 72
     2
176
     0
 73
     0
176
     0
 90
        0
176
     0
 40
0.6
176
     0
 41
30.0
176
     0
 62
     5
 63
     7
421
 16777215
176
     0
 74
     1
176
     0
 91
        4
176
     0
 64
     7
176
     0
 65
   257
176
     0
 75
     1
176
     0
175
     1
176
     0
 42
1.0
176
     0
 92
        9
176
     2
 66
     7
176
     0
 43
1.0
176
     0
 76
     1
176
     0
 77
     6
176
     0
 78
     2
176
     0
 67
     7
176
     0
 79
     5
176
     0
170
     0
176
     0
171
     0
176
     0
290
     0
176
     0
 93
        1
176
     0
 44
0.0
176
     0
173
     0
176
     0
  0
VISUALSTYLE
  5
33
102
{ACAD_REACTORS
330
2A
102
}
102
{ACAD_XDICTIONARY
360
278
102
}
330
2A
100
AcDbVisualStyle
  2
Realistic
 70
     8
177
     2
291
     0
 71
     2
176
     1
 72
     3
176
     1
 73
     0
176
     1
 90
        2
176
     1
 40
0.6
176
     1
 41
30.0
176
     1
 62
     5
 63
     7
421
 16777215
176
     1
 74
     0
176
     1
 91
        0
176
     1
 64
     7
176
     1
 65
   257
176
     1
 75
     1
176
     1
175
     1
176
     1
 42
1.0
176
     1
 92
        8
176
     1
 66
   257
176
     1
 43
1.0
176
     1
 76
     1
176
     1
 77
     6
176
     1
 78
     2
176
     1
 67
     7
176
     1
 79
     3
176
     1
170
     0
176
     1
171
     0
176
     1
290
     0
176
     1
 93
       13
176
     1
 44
0.0
176
     1
173
     0
176
     1
  0
VISUALSTYLE
  5
42
102
{ACAD_REACTORS
330
2A
102
}
102
{ACAD_XDICTIONARY
360
296
102
}
330
2A
100
AcDbVisualStyle
  2
Shaded
 70
    27
177
     2
291
     0
 71
     2
176
     1
 72
     2
176
     1
 73
     1
176
     1
 90
        2
176
     1
 40
0.6
176
     1
 41
30.0
176
     1
 62
     5
 63
     7
421
 16777215
176
     1
 74
     0
176
     1
 91
        4
176
     1
 64
     7
176
     1
 65
   257
176
     1
 75
     1
176
     1
175
     1
176
     1
 42
1.0
176
     1
 92
        8
176
     1
 66
   257
176
     1
 43
1.0
176
     1
 76
     1
176
     1
 77
     6
176
     1
 78
     2
176
     1
 67
     8
425
  7895160
176
     1
 79
     3
176
     1
170
     0
176
     1
171
     0
176
     1
290
     0
176
     1
 93
        5
176
     1
 44
0.0
176
     1
173
     0
176
     1
  0
VISUALSTYLE
  5
41
102
{ACAD_REACTORS
330
2A
102
}
102
{ACAD_XDICTIONARY
360
294
102
}
330
2A
100
AcDbVisualStyle
  2
Shaded with edges
 70
    26
177
     2
291
     0
 71
     2
176
     1
 72
     2
176
     1
 73
     1
176
     1
 90
        2
176
     1
 40
0.6
176
     1
 41
30.0
176
     1
 62
     5
 63
     7
421
 16777215
176
     1
 74
     1
176
     1
 91
       10
176
     1
 64
     7
176
     1
 65
   257
176
     1
 75
     2
176
     1
175
     1
176
     1
 42
1.0
176
     1
 92
        8
176
     1
 66
   257
176
     1
 43
1.0
176
     1
 76
     1
176
     1
 77
     6
176
     1
 78
     2
176
     1
 67
     7
176
     1
 79
     3
176
     1
170
     0
176
     1
171
     0
176
     1
290
     0
176
     1
 93
        5
176
     1
 44
0.0
176
     1
173
     0
176
     1
  0
VISUALSTYLE
  5
3E
102
{ACAD_REACTORS
330
2A
102
}
102
{ACAD_XDICTIONARY
360
28E
102
}
330
2A
100
AcDbVisualStyle
  2
Shades of Gray
 70
    23
177
     2
291
     0
 71
     2
176
     1
 72
     2
176
     1
 73
     3
176
     1
 90
        0
176
     1
 40
0.6
176
     1
 41
30.0
176
     1
 62
     5
 63
     7
421
 16777215
176
     1
 74
     2
176
     1
 91
        2
176
     1
 64
     7
176
     1
 65
     7
176
     1
 75
     1
176
     1
175
     1
176
     1
 42
40.0
176
     1
 92
        8
176
     1
 66
     7
176
     1
 43
1.0
176
     1
 76
     1
176
     1
 77
     6
176
     1
 78
     2
176
     1
 67
     7
176
     1
 79
     3
176
     1
170
     0
176
     1
171
     0
176
     1
290
     0
176
     1
 93
        1
176
     1
 44
0.0
176
     1
173
     0
176
     1
  0
VISUALSTYLE
  5
3F
102
{ACAD_REACTORS
330
2A
102
}
102
{ACAD_XDICTIONARY
360
290
102
}
330
2A
100
AcDbVisualStyle
  2
Sketchy
 70
    24
177
     2
291
     0
 71
     1
176
     1
 72
     2
176
     1
 73
     2
176
     1
 90
        0
176
     1
 40
0.6
176
     1
 41
30.0
176
     1
 62
     5
 63
     7
421
 16777215
176
     1
 74
     2
176
     1
 91
        2
176
     1
 64
     7
176
     1
 65
     7
176
     1
 75
     1
176
     1
175
     1
176
     1
 42
40.0
176
     1
 92
       11
176
     1
 66
     7
176
     1
 43
1.0
176
     1
 76
     1
176
     1
 77
     6
176
     1
 78
     2
176
     1
 67
     7
176
     1
 79
     6
176
     1
170
     0
176
     1
171
     0
176
     1
290
     0
176
     1
 93
        1
176
     1
 44
0.0
176
     1
173
     0
176
     1
  0
VISUALSTYLE
  5
37
102
{ACAD_REACTORS
330
2A
102
}
102
{ACAD_XDICTIONARY
360
280
102
}
330
2A
100
AcDbVisualStyle
  2
Thicken
 70
    13
177
     2
291
     1
 71
     2
176
     1
 72
     2
176
     1
 73
     0
176
     1
 90
        0
176
     1
 40
0.6
176
     1
 41
30.0
176
     1
 62
     5
 63
     7
421
 16777215
176
     1
 74
     1
176
     1
 91
        4
176
     1
 64
     7
176
     1
 65
   257
176
     1
 75
     1
176
     1
175
     1
176
     1
 42
1.0
176
     1
 92
       12
176
     1
 66
     7
176
     1
 43
1.0
176
     1
 76
     1
176
     1
 77
     6
176
     1
 78
     2
176
     1
 67
     7
176
     1
 79
     5
176
     1
170
     0
176
     1
171
     0
176
     1
290
     0
176
     1
 93
        1
176
     1
 44
0.0
176
     1
173
     0
176
     1
  0
VISUALSTYLE
  5
30
102
{ACAD_REACTORS
330
2A
102
}
102
{ACAD_XDICTIONARY
360
272
102
}
330
2A
100
AcDbVisualStyle
  2
Wireframe
 70
     5
177
     2
291
     0
 71
     0
176
     1
 72
     2
176
     1
 73
     0
176
     1
 90
        0
176
     1
 40
0.6
176
     1
 41
30.0
176
     1
 62
     5
 63
     7
421
 16777215
176
     1
 74
     1
176
     1
 91
        4
176
     1
 64
     7
176
     1
 65
   257
176
     1
 75
     1
176
     1
175
     1
176
     1
 42
1.0
176
     1
 92
        0
176
     1
 66
   257
176
     1
 43
1.0
176
     1
 76
     1
176
     1
 77
     6
176
     1
 78
     2
176
     1
 67
     7
176
     1
 79
     3
176
     1
170
     0
176
     1
171
     0
176
     1
290
     0
176
     1
 93
        1
176
     1
 44
0.0
176
     1
173
     0
176
     1
  0
VISUALSTYLE
  5
40
102
{ACAD_REACTORS
330
2A
102
}
102
{ACAD_XDICTIONARY
360
292
102
}
330
2A
100
AcDbVisualStyle
  2
X-Ray
 70
    25
177
     2
291
     0
 71
     2
176
     1
 72
     2
176
     1
 73
     1
176
     1
 90
        1
176
     1
 40
0.5
176
     1
 41
30.0
176
     1
 62
     5
 63
     7
421
 16777215
176
     1
 74
     1
176
     1
 91
        0
176
     1
 64
     7
176
     1
 65
   257
176
     1
 75
     1
176
     1
175
     1
176
     1
 42
1.0
176
     1
 92
        8
176
     1
 66
     7
176
     1
 43
1.0
176
     1
 76
     1
176
     1
 77
     6
176
     1
 78
     2
176
     1
 67
     7
176
     1
 79
     3
176
     1
170
     0
176
     1
171
     0
176
     1
290
     0
176
     1
 93
       13
176
     1
 44
0.0
176
     1
173
     0
176
     1
  0
DICTIONARYVAR
  5
267
102
{ACAD_REACTORS
330
266
102
}
330
266
100
DictionaryVariables
280
     0
  1
1:1
  0
DICTIONARYVAR
  5
29C
102
{ACAD_REACTORS
330
266
102
}
330
266
100
DictionaryVariables
280
     0
  1
Standard
  0
DICTIONARYVAR
  5
29B
102
{ACAD_REACTORS
330
266
102
}
330
266
100
DictionaryVariables
280
     0
  1
Standard
  0
DICTIONARY
  5
298
330
6A
100
AcDbDictionary
280
     1
281
     1
  3
ACAD_ROUNDTRIP_2008_TABLESTYLE_CELLSTYLEMAP
360
299
  0
DICTIONARY
  5
270
330
2F
100
AcDbDictionary
280
     1
281
     1
  3
ACAD_XREC_ROUNDTRIP
360
271
  0
DICTIONARY
  5
276
330
32
100
AcDbDictionary
280
     1
281
     1
  3
ACAD_XREC_ROUNDTRIP
360
277
  0
DICTIONARY
  5
27E
330
36
100
AcDbDictionary
280
     1
281
     1
  3
ACAD_XREC_ROUNDTRIP
360
27F
  0
DICTIONARY
  5
286
330
3A
100
AcDbDictionary
280
     1
281
     1
  3
ACAD_XREC_ROUNDTRIP
360
287
  0
DICTIONARY
  5
27A
330
34
100
AcDbDictionary
280
     1
281
     1
  3
ACAD_XREC_ROUNDTRIP
360
27B
  0
DICTIONARY
  5
27C
330
35
100
AcDbDictionary
280
     1
281
     1
  3
ACAD_XREC_ROUNDTRIP
360
27D
  0
DICTIONARY
  5
28C
330
3D
100
AcDbDictionary
280
     1
281
     1
  3
ACAD_XREC_ROUNDTRIP
360
28D
  0
DICTIONARY
  5
284
330
39
100
AcDbDictionary
280
     1
281
     1
  3
ACAD_XREC_ROUNDTRIP
360
285
  0
DICTIONARY
  5
268
330
2B
100
AcDbDictionary
280
     1
281
     1
  3
ACAD_XREC_ROUNDTRIP
360
269
  0
DICTIONARY
  5
26A
330
2C
100
AcDbDictionary
280
     1
281
     1
  3
ACAD_XREC_ROUNDTRIP
360
26B
  0
DICTIONARY
  5
26C
330
2D
100
AcDbDictionary
280
     1
281
     1
  3
ACAD_XREC_ROUNDTRIP
360
26D
  0
DICTIONARY
  5
26E
330
2E
100
AcDbDictionary
280
     1
281
     1
  3
ACAD_XREC_ROUNDTRIP
360
26F
  0
DICTIONARY
  5
274
330
31
100
AcDbDictionary
280
     1
281
     1
  3
ACAD_XREC_ROUNDTRIP
360
275
  0
DICTIONARY
  5
288
330
3B
100
AcDbDictionary
280
     1
281
     1
  3
ACAD_XREC_ROUNDTRIP
360
289
  0
DICTIONARY
  5
282
330
38
100
AcDbDictionary
280
     1
281
     1
  3
ACAD_XREC_ROUNDTRIP
360
283
  0
DICTIONARY
  5
28A
330
3C
100
AcDbDictionary
280
     1
281
     1
  3
ACAD_XREC_ROUNDTRIP
360
28B
  0
DICTIONARY
  5
278
330
33
100
AcDbDictionary
280
     1
281
     1
  3
ACAD_XREC_ROUNDTRIP
360
279
  0
DICTIONARY
  5
296
330
42
100
AcDbDictionary
280
     1
281
     1
  3
ACAD_XREC_ROUNDTRIP
360
297
  0
DICTIONARY
  5
294
330
41
100
AcDbDictionary
280
     1
281
     1
  3
ACAD_XREC_ROUNDTRIP
360
295
  0
DICTIONARY
  5
28E
330
3E
100
AcDbDictionary
280
     1
281
     1
  3
ACAD_XREC_ROUNDTRIP
360
28F
  0
DICTIONARY
  5
290
330
3F
100
AcDbDictionary
280
     1
281
     1
  3
ACAD_XREC_ROUNDTRIP
360
291
  0
DICTIONARY
  5
280
330
37
100
AcDbDictionary
280
     1
281
     1
  3
ACAD_XREC_ROUNDTRIP
360
281
  0
DICTIONARY
  5
272
330
30
100
AcDbDictionary
280
     1
281
     1
  3
ACAD_XREC_ROUNDTRIP
360
273
  0
DICTIONARY
  5
292
330
40
100
AcDbDictionary
280
     1
281
     1
  3
ACAD_XREC_ROUNDTRIP
360
293
  0
CELLSTYLEMAP
  5
299
102
{ACAD_REACTORS
330
298
102
}
330
298
100
AcDbCellStyleMap
 90
        3
300
CELLSTYLE
  1
TABLEFORMAT_BEGIN
 90
        5
170
     1
 91
        0
 92
    32768
 62
   257
 93
        1
300
CONTENTFORMAT
  1
CONTENTFORMAT_BEGIN
 90
        0
 91
        0
 92
        4
 93
        0
300

 40
0.0
140
1.0
 94
        5
 62
     0
340
11
144
6.0
309
CONTENTFORMAT_END
171
     1
301
MARGIN
  1
CELLMARGIN_BEGIN
 40
1.5
 40
1.5
 40
1.5
 40
1.5
 40
1.5
 40
1.5
309
CELLMARGIN_END
 94
        6
 95
        1
302
GRIDFORMAT
  1
GRIDFORMAT_BEGIN
 90
        0
 91
        1
 62
     0
 92
       -2
340
14
 93
        0
 40
0.045
309
GRIDFORMAT_END
 95
        2
302
GRIDFORMAT
  1
GRIDFORMAT_BEGIN
 90
        0
 91
        1
 62
     0
 92
       -2
340
14
 93
        0
 40
0.045
309
GRIDFORMAT_END
 95
        4
302
GRIDFORMAT
  1
GRIDFORMAT_BEGIN
 90
        0
 91
        1
 62
     0
 92
       -2
340
14
 93
        0
 40
0.045
309
GRIDFORMAT_END
 95
        8
302
GRIDFORMAT
  1
GRIDFORMAT_BEGIN
 90
        0
 91
        1
 62
     0
 92
       -2
340
14
 93
        0
 40
0.045
309
GRIDFORMAT_END
 95
       16
302
GRIDFORMAT
  1
GRIDFORMAT_BEGIN
 90
        0
 91
        1
 62
     0
 92
       -2
340
14
 93
        0
 40
0.045
309
GRIDFORMAT_END
 95
       32
302
GRIDFORMAT
  1
GRIDFORMAT_BEGIN
 90
        0
 91
        1
 62
     0
 92
       -2
340
14
 93
        0
 40
0.045
309
GRIDFORMAT_END
309
TABLEFORMAT_END
  1
CELLSTYLE_BEGIN
 90
        1
 91
        1
300
_TITLE
309
CELLSTYLE_END
300
CELLSTYLE
  1
TABLEFORMAT_BEGIN
 90
        5
170
     1
 91
        0
 92
        0
 62
   257
 93
        1
300
CONTENTFORMAT
  1
CONTENTFORMAT_BEGIN
 90
        0
 91
        0
 92
        4
 93
        0
300

 40
0.0
140
1.0
 94
        5
 62
     0
340
11
144
4.5
309
CONTENTFORMAT_END
171
     1
301
MARGIN
  1
CELLMARGIN_BEGIN
 40
1.5
 40
1.5
 40
1.5
 40
1.5
 40
1.5
 40
1.5
309
CELLMARGIN_END
 94
        6
 95
        1
302
GRIDFORMAT
  1
GRIDFORMAT_BEGIN
 90
        0
 91
        1
 62
     0
 92
       -2
340
14
 93
        0
 40
0.045
309
GRIDFORMAT_END
 95
        2
302
GRIDFORMAT
  1
GRIDFORMAT_BEGIN
 90
        0
 91
        1
 62
     0
 92
       -2
340
14
 93
        0
 40
0.045
309
GRIDFORMAT_END
 95
        4
302
GRIDFORMAT
  1
GRIDFORMAT_BEGIN
 90
        0
 91
        1
 62
     0
 92
       -2
340
14
 93
        0
 40
0.045
309
GRIDFORMAT_END
 95
        8
302
GRIDFORMAT
  1
GRIDFORMAT_BEGIN
 90
        0
 91
        1
 62
     0
 92
       -2
340
14
 93
        0
 40
0.045
309
GRIDFORMAT_END
 95
       16
302
GRIDFORMAT
  1
GRIDFORMAT_BEGIN
 90
        0
 91
        1
 62
     0
 92
       -2
340
14
 93
        0
 40
0.045
309
GRIDFORMAT_END
 95
       32
302
GRIDFORMAT
  1
GRIDFORMAT_BEGIN
 90
        0
 91
        1
 62
     0
 92
       -2
340
14
 93
        0
 40
0.045
309
GRIDFORMAT_END
309
TABLEFORMAT_END
  1
CELLSTYLE_BEGIN
 90
        2
 91
        1
300
_HEADER
309
CELLSTYLE_END
300
CELLSTYLE
  1
TABLEFORMAT_BEGIN
 90
        5
170
     1
 91
        0
 92
        0
 62
   257
 93
        1
300
CONTENTFORMAT
  1
CONTENTFORMAT_BEGIN
 90
        0
 91
        0
 92
        4
 93
        0
300

 40
0.0
140
1.0
 94
        2
 62
     0
340
11
144
4.5
309
CONTENTFORMAT_END
171
     1
301
MARGIN
  1
CELLMARGIN_BEGIN
 40
1.5
 40
1.5
 40
1.5
 40
1.5
 40
1.5
 40
1.5
309
CELLMARGIN_END
 94
        6
 95
        1
302
GRIDFORMAT
  1
GRIDFORMAT_BEGIN
 90
        0
 91
        1
 62
     0
 92
       -2
340
14
 93
        0
 40
0.045
309
GRIDFORMAT_END
 95
        2
302
GRIDFORMAT
  1
GRIDFORMAT_BEGIN
 90
        0
 91
        1
 62
     0
 92
       -2
340
14
 93
        0
 40
0.045
309
GRIDFORMAT_END
 95
        4
302
GRIDFORMAT
  1
GRIDFORMAT_BEGIN
 90
        0
 91
        1
 62
     0
 92
       -2
340
14
 93
        0
 40
0.045
309
GRIDFORMAT_END
 95
        8
302
GRIDFORMAT
  1
GRIDFORMAT_BEGIN
 90
        0
 91
        1
 62
     0
 92
       -2
340
14
 93
        0
 40
0.045
309
GRIDFORMAT_END
 95
       16
302
GRIDFORMAT
  1
GRIDFORMAT_BEGIN
 90
        0
 91
        1
 62
     0
 92
       -2
340
14
 93
        0
 40
0.045
309
GRIDFORMAT_END
 95
       32
302
GRIDFORMAT
  1
GRIDFORMAT_BEGIN
 90
        0
 91
        1
 62
     0
 92
       -2
340
14
 93
        0
 40
0.045
309
GRIDFORMAT_END
309
TABLEFORMAT_END
  1
CELLSTYLE_BEGIN
 90
        3
 91
        2
300
_DATA
309
CELLSTYLE_END
  0
XRECORD
  5
271
102
{ACAD_REACTORS
330
270
102
}
330
270
100
AcDbXrecord
280
     1
102
RTVSPost2010Prop28
280
     1
102
RTVSPost2010PropOp28
 70
     1
102
RTVSPost2010Prop29
280
     1
102
RTVSPost2010PropOp29
 70
     1
102
RTVSPost2010Prop30
280
     0
102
RTVSPost2010PropOp30
 70
     1
102
RTVSPost2010Prop31
280
     0
102
RTVSPost2010PropOp31
 70
     1
102
RTVSPost2010Prop32
280
     0
102
RTVSPost2010PropOp32
 70
     1
102
RTVSPost2010Prop33
280
     0
102
RTVSPost2010PropOp33
 70
     1
102
RTVSPost2010Prop34
280
     0
102
RTVSPost2010PropOp34
 70
     1
102
RTVSPost2010Prop35
280
     0
102
RTVSPost2010PropOp35
 70
     1
102
RTVSPost2010Prop36
280
     0
102
RTVSPost2010PropOp36
 70
     1
102
RTVSPost2010Prop37
 90
       50
102
RTVSPost2010PropOp37
 70
     1
102
RTVSPost2010Prop38
140
0.0
102
RTVSPost2010PropOp38
 70
     1
102
RTVSPost2010Prop39
140
1.0
102
RTVSPost2010PropOp39
 70
     1
102
RTVSPost2010Prop40
 90
        0
102
RTVSPost2010PropOp40
 70
     1
102
RTVSPost2010Prop41ColorIndex
 90
       18
102
RTVSPost2010Prop41ColorRGB
 90
        0
102
RTVSPost2010PropOp41
 70
     1
102
RTVSPost2010Prop42
 90
       50
102
RTVSPost2010PropOp42
 70
     1
102
RTVSPost2010Prop43
 90
        3
102
RTVSPost2010PropOp43
 70
     1
102
RTVSPost2010Prop44ColorIndex
 90
        5
102
RTVSPost2010Prop44ColorRGB
 90
      255
102
RTVSPost2010PropOp44
 70
     1
102
RTVSPost2010Prop45
280
     0
102
RTVSPost2010PropOp45
 70
     1
102
RTVSPost2010Prop46
 90
       50
102
RTVSPost2010PropOp46
 70
     1
102
RTVSPost2010Prop47
 90
       50
102
RTVSPost2010PropOp47
 70
     1
102
RTVSPost2010Prop48
 90
       50
102
RTVSPost2010PropOp48
 70
     1
102
RTVSPost2010Prop49
280
     0
102
RTVSPost2010PropOp49
 70
     1
102
RTVSPost2010Prop50
 90
       50
102
RTVSPost2010PropOp50
 70
     1
102
RTVSPost2010Prop51ColorIndex
 90
      256
102
RTVSPost2010Prop51ColorRGB
 90
-16777216
102
RTVSPost2010PropOp51
 70
     0
102
RTVSPost2010Prop52
140
1.0
102
RTVSPost2010PropOp52
 70
     0
102
RTVSPost2010Prop53
 90
        2
102
RTVSPost2010PropOp53
 70
     1
102
RTVSPost2010Prop54
  1
strokes_ogs.tif
102
RTVSPost2010PropOp54
 70
     1
102
RTVSPost2010Prop55
280
     0
102
RTVSPost2010PropOp55
 70
     1
102
RTVSPost2010Prop56
140
1.0
102
RTVSPost2010PropOp56
 70
     1
102
RTVSPost2010Prop57
140
1.0
102
RTVSPost2010PropOp57
 70
     1
  0
XRECORD
  5
277
102
{ACAD_REACTORS
330
276
102
}
330
276
100
AcDbXrecord
280
     1
102
RTVSPost2010Prop28
280
     0
102
RTVSPost2010PropOp28
 70
     1
102
RTVSPost2010Prop29
280
     1
102
RTVSPost2010PropOp29
 70
     1
102
RTVSPost2010Prop30
280
     1
102
RTVSPost2010PropOp30
 70
     1
102
RTVSPost2010Prop31
280
     0
102
RTVSPost2010PropOp31
 70
     1
102
RTVSPost2010Prop32
280
     0
102
RTVSPost2010PropOp32
 70
     1
102
RTVSPost2010Prop33
280
     0
102
RTVSPost2010PropOp33
 70
     1
102
RTVSPost2010Prop34
280
     0
102
RTVSPost2010PropOp34
 70
     1
102
RTVSPost2010Prop35
280
     0
102
RTVSPost2010PropOp35
 70
     1
102
RTVSPost2010Prop36
280
     0
102
RTVSPost2010PropOp36
 70
     1
102
RTVSPost2010Prop37
 90
       50
102
RTVSPost2010PropOp37
 70
     1
102
RTVSPost2010Prop38
140
0.0
102
RTVSPost2010PropOp38
 70
     1
102
RTVSPost2010Prop39
140
1.0
102
RTVSPost2010PropOp39
 70
     1
102
RTVSPost2010Prop40
 90
        0
102
RTVSPost2010PropOp40
 70
     1
102
RTVSPost2010Prop41ColorIndex
 90
       18
102
RTVSPost2010Prop41ColorRGB
 90
        0
102
RTVSPost2010PropOp41
 70
     1
102
RTVSPost2010Prop42
 90
       50
102
RTVSPost2010PropOp42
 70
     1
102
RTVSPost2010Prop43
 90
        3
102
RTVSPost2010PropOp43
 70
     1
102
RTVSPost2010Prop44ColorIndex
 90
        5
102
RTVSPost2010Prop44ColorRGB
 90
      255
102
RTVSPost2010PropOp44
 70
     1
102
RTVSPost2010Prop45
280
     0
102
RTVSPost2010PropOp45
 70
     1
102
RTVSPost2010Prop46
 90
       50
102
RTVSPost2010PropOp46
 70
     1
102
RTVSPost2010Prop47
 90
       50
102
RTVSPost2010PropOp47
 70
     1
102
RTVSPost2010Prop48
 90
       50
102
RTVSPost2010PropOp48
 70
     1
102
RTVSPost2010Prop49
280
     0
102
RTVSPost2010PropOp49
 70
     1
102
RTVSPost2010Prop50
 90
       50
102
RTVSPost2010PropOp50
 70
     1
102
RTVSPost2010Prop51ColorIndex
 90
      256
102
RTVSPost2010Prop51ColorRGB
 90
-16777216
102
RTVSPost2010PropOp51
 70
     0
102
RTVSPost2010Prop52
140
1.0
102
RTVSPost2010PropOp52
 70
     0
102
RTVSPost2010Prop53
 90
        2
102
RTVSPost2010PropOp53
 70
     1
102
RTVSPost2010Prop54
  1
strokes_ogs.tif
102
RTVSPost2010PropOp54
 70
     1
102
RTVSPost2010Prop55
280
     0
102
RTVSPost2010PropOp55
 70
     1
102
RTVSPost2010Prop56
140
1.0
102
RTVSPost2010PropOp56
 70
     1
102
RTVSPost2010Prop57
140
1.0
102
RTVSPost2010PropOp57
 70
     1
  0
XRECORD
  5
27F
102
{ACAD_REACTORS
330
27E
102
}
330
27E
100
AcDbXrecord
280
     1
102
RTVSPost2010Prop28
280
     0
102
RTVSPost2010PropOp28
 70
     1
102
RTVSPost2010Prop29
280
     1
102
RTVSPost2010PropOp29
 70
     1
102
RTVSPost2010Prop30
280
     1
102
RTVSPost2010PropOp30
 70
     1
102
RTVSPost2010Prop31
280
     0
102
RTVSPost2010PropOp31
 70
     1
102
RTVSPost2010Prop32
280
     0
102
RTVSPost2010PropOp32
 70
     1
102
RTVSPost2010Prop33
280
     0
102
RTVSPost2010PropOp33
 70
     1
102
RTVSPost2010Prop34
280
     0
102
RTVSPost2010PropOp34
 70
     1
102
RTVSPost2010Prop35
280
     0
102
RTVSPost2010PropOp35
 70
     1
102
RTVSPost2010Prop36
280
     0
102
RTVSPost2010PropOp36
 70
     1
102
RTVSPost2010Prop37
 90
       50
102
RTVSPost2010PropOp37
 70
     1
102
RTVSPost2010Prop38
140
0.0
102
RTVSPost2010PropOp38
 70
     1
102
RTVSPost2010Prop39
140
1.0
102
RTVSPost2010PropOp39
 70
     1
102
RTVSPost2010Prop40
 90
        0
102
RTVSPost2010PropOp40
 70
     1
102
RTVSPost2010Prop41ColorIndex
 90
       18
102
RTVSPost2010Prop41ColorRGB
 90
        0
102
RTVSPost2010PropOp41
 70
     1
102
RTVSPost2010Prop42
 90
       50
102
RTVSPost2010PropOp42
 70
     1
102
RTVSPost2010Prop43
 90
        3
102
RTVSPost2010PropOp43
 70
     1
102
RTVSPost2010Prop44ColorIndex
 90
        5
102
RTVSPost2010Prop44ColorRGB
 90
      255
102
RTVSPost2010PropOp44
 70
     1
102
RTVSPost2010Prop45
280
     0
102
RTVSPost2010PropOp45
 70
     1
102
RTVSPost2010Prop46
 90
       50
102
RTVSPost2010PropOp46
 70
     1
102
RTVSPost2010Prop47
 90
       50
102
RTVSPost2010PropOp47
 70
     1
102
RTVSPost2010Prop48
 90
       50
102
RTVSPost2010PropOp48
 70
     1
102
RTVSPost2010Prop49
280
     0
102
RTVSPost2010PropOp49
 70
     1
102
RTVSPost2010Prop50
 90
       50
102
RTVSPost2010PropOp50
 70
     1
102
RTVSPost2010Prop51ColorIndex
 90
      256
102
RTVSPost2010Prop51ColorRGB
 90
-16777216
102
RTVSPost2010PropOp51
 70
     0
102
RTVSPost2010Prop52
140
1.0
102
RTVSPost2010PropOp52
 70
     0
102
RTVSPost2010Prop53
 90
        2
102
RTVSPost2010PropOp53
 70
     1
102
RTVSPost2010Prop54
  1
strokes_ogs.tif
102
RTVSPost2010PropOp54
 70
     1
102
RTVSPost2010Prop55
280
     0
102
RTVSPost2010PropOp55
 70
     1
102
RTVSPost2010Prop56
140
1.0
102
RTVSPost2010PropOp56
 70
     1
102
RTVSPost2010Prop57
140
1.0
102
RTVSPost2010PropOp57
 70
     1
  0
XRECORD
  5
287
102
{ACAD_REACTORS
330
286
102
}
330
286
100
AcDbXrecord
280
     1
102
RTVSPost2010Prop28
280
     0
102
RTVSPost2010PropOp28
 70
     1
102
RTVSPost2010Prop29
280
     1
102
RTVSPost2010PropOp29
 70
     1
102
RTVSPost2010Prop30
280
     1
102
RTVSPost2010PropOp30
 70
     1
102
RTVSPost2010Prop31
280
     0
102
RTVSPost2010PropOp31
 70
     1
102
RTVSPost2010Prop32
280
     0
102
RTVSPost2010PropOp32
 70
     1
102
RTVSPost2010Prop33
280
     0
102
RTVSPost2010PropOp33
 70
     1
102
RTVSPost2010Prop34
280
     0
102
RTVSPost2010PropOp34
 70
     1
102
RTVSPost2010Prop35
280
     0
102
RTVSPost2010PropOp35
 70
     1
102
RTVSPost2010Prop36
280
     0
102
RTVSPost2010PropOp36
 70
     1
102
RTVSPost2010Prop37
 90
       50
102
RTVSPost2010PropOp37
 70
     1
102
RTVSPost2010Prop38
140
0.0
102
RTVSPost2010PropOp38
 70
     1
102
RTVSPost2010Prop39
140
1.0
102
RTVSPost2010PropOp39
 70
     1
102
RTVSPost2010Prop40
 90
        0
102
RTVSPost2010PropOp40
 70
     1
102
RTVSPost2010Prop41ColorIndex
 90
       18
102
RTVSPost2010Prop41ColorRGB
 90
        0
102
RTVSPost2010PropOp41
 70
     1
102
RTVSPost2010Prop42
 90
       50
102
RTVSPost2010PropOp42
 70
     1
102
RTVSPost2010Prop43
 90
        3
102
RTVSPost2010PropOp43
 70
     1
102
RTVSPost2010Prop44ColorIndex
 90
        5
102
RTVSPost2010Prop44ColorRGB
 90
      255
102
RTVSPost2010PropOp44
 70
     1
102
RTVSPost2010Prop45
280
     0
102
RTVSPost2010PropOp45
 70
     1
102
RTVSPost2010Prop46
 90
       50
102
RTVSPost2010PropOp46
 70
     1
102
RTVSPost2010Prop47
 90
       50
102
RTVSPost2010PropOp47
 70
     1
102
RTVSPost2010Prop48
 90
       50
102
RTVSPost2010PropOp48
 70
     1
102
RTVSPost2010Prop49
280
     0
102
RTVSPost2010PropOp49
 70
     1
102
RTVSPost2010Prop50
 90
       50
102
RTVSPost2010PropOp50
 70
     1
102
RTVSPost2010Prop51ColorIndex
 90
      256
102
RTVSPost2010Prop51ColorRGB
 90
-16777216
102
RTVSPost2010PropOp51
 70
     0
102
RTVSPost2010Prop52
140
1.0
102
RTVSPost2010PropOp52
 70
     0
102
RTVSPost2010Prop53
 90
        2
102
RTVSPost2010PropOp53
 70
     1
102
RTVSPost2010Prop54
  1
strokes_ogs.tif
102
RTVSPost2010PropOp54
 70
     1
102
RTVSPost2010Prop55
280
     0
102
RTVSPost2010PropOp55
 70
     1
102
RTVSPost2010Prop56
140
1.0
102
RTVSPost2010PropOp56
 70
     1
102
RTVSPost2010Prop57
140
1.0
102
RTVSPost2010PropOp57
 70
     1
  0
XRECORD
  5
27B
102
{ACAD_REACTORS
330
27A
102
}
330
27A
100
AcDbXrecord
280
     1
102
RTVSPost2010Prop28
280
     0
102
RTVSPost2010PropOp28
 70
     1
102
RTVSPost2010Prop29
280
     1
102
RTVSPost2010PropOp29
 70
     1
102
RTVSPost2010Prop30
280
     1
102
RTVSPost2010PropOp30
 70
     1
102
RTVSPost2010Prop31
280
     0
102
RTVSPost2010PropOp31
 70
     1
102
RTVSPost2010Prop32
280
     0
102
RTVSPost2010PropOp32
 70
     1
102
RTVSPost2010Prop33
280
     0
102
RTVSPost2010PropOp33
 70
     1
102
RTVSPost2010Prop34
280
     0
102
RTVSPost2010PropOp34
 70
     1
102
RTVSPost2010Prop35
280
     0
102
RTVSPost2010PropOp35
 70
     1
102
RTVSPost2010Prop36
280
     0
102
RTVSPost2010PropOp36
 70
     1
102
RTVSPost2010Prop37
 90
       50
102
RTVSPost2010PropOp37
 70
     1
102
RTVSPost2010Prop38
140
0.0
102
RTVSPost2010PropOp38
 70
     1
102
RTVSPost2010Prop39
140
1.0
102
RTVSPost2010PropOp39
 70
     1
102
RTVSPost2010Prop40
 90
        0
102
RTVSPost2010PropOp40
 70
     1
102
RTVSPost2010Prop41ColorIndex
 90
       18
102
RTVSPost2010Prop41ColorRGB
 90
        0
102
RTVSPost2010PropOp41
 70
     1
102
RTVSPost2010Prop42
 90
       50
102
RTVSPost2010PropOp42
 70
     1
102
RTVSPost2010Prop43
 90
        3
102
RTVSPost2010PropOp43
 70
     1
102
RTVSPost2010Prop44ColorIndex
 90
        5
102
RTVSPost2010Prop44ColorRGB
 90
      255
102
RTVSPost2010PropOp44
 70
     1
102
RTVSPost2010Prop45
280
     0
102
RTVSPost2010PropOp45
 70
     1
102
RTVSPost2010Prop46
 90
       50
102
RTVSPost2010PropOp46
 70
     1
102
RTVSPost2010Prop47
 90
       50
102
RTVSPost2010PropOp47
 70
     1
102
RTVSPost2010Prop48
 90
       50
102
RTVSPost2010PropOp48
 70
     1
102
RTVSPost2010Prop49
280
     0
102
RTVSPost2010PropOp49
 70
     1
102
RTVSPost2010Prop50
 90
       50
102
RTVSPost2010PropOp50
 70
     1
102
RTVSPost2010Prop51ColorIndex
 90
      256
102
RTVSPost2010Prop51ColorRGB
 90
-16777216
102
RTVSPost2010PropOp51
 70
     0
102
RTVSPost2010Prop52
140
1.0
102
RTVSPost2010PropOp52
 70
     0
102
RTVSPost2010Prop53
 90
        2
102
RTVSPost2010PropOp53
 70
     1
102
RTVSPost2010Prop54
  1
strokes_ogs.tif
102
RTVSPost2010PropOp54
 70
     1
102
RTVSPost2010Prop55
280
     0
102
RTVSPost2010PropOp55
 70
     1
102
RTVSPost2010Prop56
140
1.0
102
RTVSPost2010PropOp56
 70
     1
102
RTVSPost2010Prop57
140
1.0
102
RTVSPost2010PropOp57
 70
     1
  0
XRECORD
  5
27D
102
{ACAD_REACTORS
330
27C
102
}
330
27C
100
AcDbXrecord
280
     1
102
RTVSPost2010Prop28
280
     0
102
RTVSPost2010PropOp28
 70
     1
102
RTVSPost2010Prop29
280
     1
102
RTVSPost2010PropOp29
 70
     1
102
RTVSPost2010Prop30
280
     1
102
RTVSPost2010PropOp30
 70
     1
102
RTVSPost2010Prop31
280
     0
102
RTVSPost2010PropOp31
 70
     1
102
RTVSPost2010Prop32
280
     0
102
RTVSPost2010PropOp32
 70
     1
102
RTVSPost2010Prop33
280
     0
102
RTVSPost2010PropOp33
 70
     1
102
RTVSPost2010Prop34
280
     0
102
RTVSPost2010PropOp34
 70
     1
102
RTVSPost2010Prop35
280
     0
102
RTVSPost2010PropOp35
 70
     1
102
RTVSPost2010Prop36
280
     0
102
RTVSPost2010PropOp36
 70
     1
102
RTVSPost2010Prop37
 90
       50
102
RTVSPost2010PropOp37
 70
     1
102
RTVSPost2010Prop38
140
0.0
102
RTVSPost2010PropOp38
 70
     1
102
RTVSPost2010Prop39
140
1.0
102
RTVSPost2010PropOp39
 70
     1
102
RTVSPost2010Prop40
 90
        0
102
RTVSPost2010PropOp40
 70
     1
102
RTVSPost2010Prop41ColorIndex
 90
       18
102
RTVSPost2010Prop41ColorRGB
 90
        0
102
RTVSPost2010PropOp41
 70
     1
102
RTVSPost2010Prop42
 90
       50
102
RTVSPost2010PropOp42
 70
     1
102
RTVSPost2010Prop43
 90
        3
102
RTVSPost2010PropOp43
 70
     1
102
RTVSPost2010Prop44ColorIndex
 90
        5
102
RTVSPost2010Prop44ColorRGB
 90
      255
102
RTVSPost2010PropOp44
 70
     1
102
RTVSPost2010Prop45
280
     0
102
RTVSPost2010PropOp45
 70
     1
102
RTVSPost2010Prop46
 90
       50
102
RTVSPost2010PropOp46
 70
     1
102
RTVSPost2010Prop47
 90
       50
102
RTVSPost2010PropOp47
 70
     1
102
RTVSPost2010Prop48
 90
       50
102
RTVSPost2010PropOp48
 70
     1
102
RTVSPost2010Prop49
280
     0
102
RTVSPost2010PropOp49
 70
     1
102
RTVSPost2010Prop50
 90
       50
102
RTVSPost2010PropOp50
 70
     1
102
RTVSPost2010Prop51ColorIndex
 90
      256
102
RTVSPost2010Prop51ColorRGB
 90
-16777216
102
RTVSPost2010PropOp51
 70
     0
102
RTVSPost2010Prop52
140
1.0
102
RTVSPost2010PropOp52
 70
     0
102
RTVSPost2010Prop53
 90
        2
102
RTVSPost2010PropOp53
 70
     1
102
RTVSPost2010Prop54
  1
strokes_ogs.tif
102
RTVSPost2010PropOp54
 70
     1
102
RTVSPost2010Prop55
280
     0
102
RTVSPost2010PropOp55
 70
     1
102
RTVSPost2010Prop56
140
1.0
102
RTVSPost2010PropOp56
 70
     1
102
RTVSPost2010Prop57
140
1.0
102
RTVSPost2010PropOp57
 70
     1
  0
XRECORD
  5
28D
102
{ACAD_REACTORS
330
28C
102
}
330
28C
100
AcDbXrecord
280
     1
102
RTVSPost2010Prop28
280
     0
102
RTVSPost2010PropOp28
 70
     0
102
RTVSPost2010Prop29
280
     1
102
RTVSPost2010PropOp29
 70
     0
102
RTVSPost2010Prop30
280
     1
102
RTVSPost2010PropOp30
 70
     0
102
RTVSPost2010Prop31
280
     0
102
RTVSPost2010PropOp31
 70
     0
102
RTVSPost2010Prop32
280
     0
102
RTVSPost2010PropOp32
 70
     0
102
RTVSPost2010Prop33
280
     0
102
RTVSPost2010PropOp33
 70
     0
102
RTVSPost2010Prop34
280
     0
102
RTVSPost2010PropOp34
 70
     0
102
RTVSPost2010Prop35
280
     0
102
RTVSPost2010PropOp35
 70
     0
102
RTVSPost2010Prop36
280
     0
102
RTVSPost2010PropOp36
 70
     0
102
RTVSPost2010Prop37
 90
       50
102
RTVSPost2010PropOp37
 70
     0
102
RTVSPost2010Prop38
140
0.0
102
RTVSPost2010PropOp38
 70
     0
102
RTVSPost2010Prop39
140
1.0
102
RTVSPost2010PropOp39
 70
     0
102
RTVSPost2010Prop40
 90
        0
102
RTVSPost2010PropOp40
 70
     0
102
RTVSPost2010Prop41ColorIndex
 90
       18
102
RTVSPost2010Prop41ColorRGB
 90
        0
102
RTVSPost2010PropOp41
 70
     0
102
RTVSPost2010Prop42
 90
       50
102
RTVSPost2010PropOp42
 70
     0
102
RTVSPost2010Prop43
 90
        3
102
RTVSPost2010PropOp43
 70
     0
102
RTVSPost2010Prop44ColorIndex
 90
        5
102
RTVSPost2010Prop44ColorRGB
 90
      255
102
RTVSPost2010PropOp44
 70
     0
102
RTVSPost2010Prop45
280
     0
102
RTVSPost2010PropOp45
 70
     0
102
RTVSPost2010Prop46
 90
       50
102
RTVSPost2010PropOp46
 70
     0
102
RTVSPost2010Prop47
 90
       50
102
RTVSPost2010PropOp47
 70
     0
102
RTVSPost2010Prop48
 90
       50
102
RTVSPost2010PropOp48
 70
     0
102
RTVSPost2010Prop49
280
     0
102
RTVSPost2010PropOp49
 70
     0
102
RTVSPost2010Prop50
 90
       50
102
RTVSPost2010PropOp50
 70
     0
102
RTVSPost2010Prop51ColorIndex
 90
      256
102
RTVSPost2010Prop51ColorRGB
 90
-16777216
102
RTVSPost2010PropOp51
 70
     0
102
RTVSPost2010Prop52
140
1.0
102
RTVSPost2010PropOp52
 70
     0
102
RTVSPost2010Prop53
 90
        2
102
RTVSPost2010PropOp53
 70
     0
102
RTVSPost2010Prop54
  1
strokes_ogs.tif
102
RTVSPost2010PropOp54
 70
     0
102
RTVSPost2010Prop55
280
     0
102
RTVSPost2010PropOp55
 70
     0
102
RTVSPost2010Prop56
140
1.0
102
RTVSPost2010PropOp56
 70
     0
102
RTVSPost2010Prop57
140
1.0
102
RTVSPost2010PropOp57
 70
     0
  0
XRECORD
  5
285
102
{ACAD_REACTORS
330
284
102
}
330
284
100
AcDbXrecord
280
     1
102
RTVSPost2010Prop28
280
     0
102
RTVSPost2010PropOp28
 70
     1
102
RTVSPost2010Prop29
280
     1
102
RTVSPost2010PropOp29
 70
     1
102
RTVSPost2010Prop30
280
     1
102
RTVSPost2010PropOp30
 70
     1
102
RTVSPost2010Prop31
280
     0
102
RTVSPost2010PropOp31
 70
     1
102
RTVSPost2010Prop32
280
     0
102
RTVSPost2010PropOp32
 70
     1
102
RTVSPost2010Prop33
280
     0
102
RTVSPost2010PropOp33
 70
     1
102
RTVSPost2010Prop34
280
     0
102
RTVSPost2010PropOp34
 70
     1
102
RTVSPost2010Prop35
280
     0
102
RTVSPost2010PropOp35
 70
     1
102
RTVSPost2010Prop36
280
     0
102
RTVSPost2010PropOp36
 70
     1
102
RTVSPost2010Prop37
 90
       50
102
RTVSPost2010PropOp37
 70
     1
102
RTVSPost2010Prop38
140
0.0
102
RTVSPost2010PropOp38
 70
     1
102
RTVSPost2010Prop39
140
1.0
102
RTVSPost2010PropOp39
 70
     1
102
RTVSPost2010Prop40
 90
        0
102
RTVSPost2010PropOp40
 70
     1
102
RTVSPost2010Prop41ColorIndex
 90
       18
102
RTVSPost2010Prop41ColorRGB
 90
        0
102
RTVSPost2010PropOp41
 70
     1
102
RTVSPost2010Prop42
 90
       50
102
RTVSPost2010PropOp42
 70
     1
102
RTVSPost2010Prop43
 90
        3
102
RTVSPost2010PropOp43
 70
     1
102
RTVSPost2010Prop44ColorIndex
 90
        5
102
RTVSPost2010Prop44ColorRGB
 90
      255
102
RTVSPost2010PropOp44
 70
     1
102
RTVSPost2010Prop45
280
     0
102
RTVSPost2010PropOp45
 70
     1
102
RTVSPost2010Prop46
 90
       50
102
RTVSPost2010PropOp46
 70
     1
102
RTVSPost2010Prop47
 90
       50
102
RTVSPost2010PropOp47
 70
     1
102
RTVSPost2010Prop48
 90
       50
102
RTVSPost2010PropOp48
 70
     1
102
RTVSPost2010Prop49
280
     0
102
RTVSPost2010PropOp49
 70
     1
102
RTVSPost2010Prop50
 90
       50
102
RTVSPost2010PropOp50
 70
     1
102
RTVSPost2010Prop51ColorIndex
 90
      256
102
RTVSPost2010Prop51ColorRGB
 90
-16777216
102
RTVSPost2010PropOp51
 70
     0
102
RTVSPost2010Prop52
140
1.0
102
RTVSPost2010PropOp52
 70
     0
102
RTVSPost2010Prop53
 90
        2
102
RTVSPost2010PropOp53
 70
     1
102
RTVSPost2010Prop54
  1
strokes_ogs.tif
102
RTVSPost2010PropOp54
 70
     1
102
RTVSPost2010Prop55
280
     0
102
RTVSPost2010PropOp55
 70
     1
102
RTVSPost2010Prop56
140
1.0
102
RTVSPost2010PropOp56
 70
     1
102
RTVSPost2010Prop57
140
1.0
102
RTVSPost2010PropOp57
 70
     1
  0
XRECORD
  5
269
102
{ACAD_REACTORS
330
268
102
}
330
268
100
AcDbXrecord
280
     1
102
RTVSPost2010Prop28
280
     0
102
RTVSPost2010PropOp28
 70
     1
102
RTVSPost2010Prop29
280
     1
102
RTVSPost2010PropOp29
 70
     1
102
RTVSPost2010Prop30
280
     1
102
RTVSPost2010PropOp30
 70
     1
102
RTVSPost2010Prop31
280
     0
102
RTVSPost2010PropOp31
 70
     1
102
RTVSPost2010Prop32
280
     0
102
RTVSPost2010PropOp32
 70
     1
102
RTVSPost2010Prop33
280
     0
102
RTVSPost2010PropOp33
 70
     1
102
RTVSPost2010Prop34
280
     0
102
RTVSPost2010PropOp34
 70
     1
102
RTVSPost2010Prop35
280
     0
102
RTVSPost2010PropOp35
 70
     1
102
RTVSPost2010Prop36
280
     0
102
RTVSPost2010PropOp36
 70
     1
102
RTVSPost2010Prop37
 90
       50
102
RTVSPost2010PropOp37
 70
     1
102
RTVSPost2010Prop38
140
0.0
102
RTVSPost2010PropOp38
 70
     1
102
RTVSPost2010Prop39
140
1.0
102
RTVSPost2010PropOp39
 70
     1
102
RTVSPost2010Prop40
 90
        0
102
RTVSPost2010PropOp40
 70
     1
102
RTVSPost2010Prop41ColorIndex
 90
       18
102
RTVSPost2010Prop41ColorRGB
 90
        0
102
RTVSPost2010PropOp41
 70
     1
102
RTVSPost2010Prop42
 90
       50
102
RTVSPost2010PropOp42
 70
     1
102
RTVSPost2010Prop43
 90
        3
102
RTVSPost2010PropOp43
 70
     1
102
RTVSPost2010Prop44ColorIndex
 90
        5
102
RTVSPost2010Prop44ColorRGB
 90
      255
102
RTVSPost2010PropOp44
 70
     1
102
RTVSPost2010Prop45
280
     0
102
RTVSPost2010PropOp45
 70
     1
102
RTVSPost2010Prop46
 90
       50
102
RTVSPost2010PropOp46
 70
     1
102
RTVSPost2010Prop47
 90
       50
102
RTVSPost2010PropOp47
 70
     1
102
RTVSPost2010Prop48
 90
       50
102
RTVSPost2010PropOp48
 70
     1
102
RTVSPost2010Prop49
280
     0
102
RTVSPost2010PropOp49
 70
     1
102
RTVSPost2010Prop50
 90
       50
102
RTVSPost2010PropOp50
 70
     1
102
RTVSPost2010Prop51ColorIndex
 90
      256
102
RTVSPost2010Prop51ColorRGB
 90
-16777216
102
RTVSPost2010PropOp51
 70
     0
102
RTVSPost2010Prop52
140
1.0
102
RTVSPost2010PropOp52
 70
     0
102
RTVSPost2010Prop53
 90
        2
102
RTVSPost2010PropOp53
 70
     1
102
RTVSPost2010Prop54
  1
strokes_ogs.tif
102
RTVSPost2010PropOp54
 70
     1
102
RTVSPost2010Prop55
280
     0
102
RTVSPost2010PropOp55
 70
     1
102
RTVSPost2010Prop56
140
1.0
102
RTVSPost2010PropOp56
 70
     1
102
RTVSPost2010Prop57
140
1.0
102
RTVSPost2010PropOp57
 70
     1
  0
XRECORD
  5
26B
102
{ACAD_REACTORS
330
26A
102
}
330
26A
100
AcDbXrecord
280
     1
102
RTVSPost2010Prop28
280
     0
102
RTVSPost2010PropOp28
 70
     1
102
RTVSPost2010Prop29
280
     1
102
RTVSPost2010PropOp29
 70
     1
102
RTVSPost2010Prop30
280
     1
102
RTVSPost2010PropOp30
 70
     1
102
RTVSPost2010Prop31
280
     0
102
RTVSPost2010PropOp31
 70
     1
102
RTVSPost2010Prop32
280
     0
102
RTVSPost2010PropOp32
 70
     1
102
RTVSPost2010Prop33
280
     0
102
RTVSPost2010PropOp33
 70
     1
102
RTVSPost2010Prop34
280
     0
102
RTVSPost2010PropOp34
 70
     1
102
RTVSPost2010Prop35
280
     0
102
RTVSPost2010PropOp35
 70
     1
102
RTVSPost2010Prop36
280
     0
102
RTVSPost2010PropOp36
 70
     1
102
RTVSPost2010Prop37
 90
       50
102
RTVSPost2010PropOp37
 70
     1
102
RTVSPost2010Prop38
140
0.0
102
RTVSPost2010PropOp38
 70
     1
102
RTVSPost2010Prop39
140
1.0
102
RTVSPost2010PropOp39
 70
     1
102
RTVSPost2010Prop40
 90
        0
102
RTVSPost2010PropOp40
 70
     1
102
RTVSPost2010Prop41ColorIndex
 90
       18
102
RTVSPost2010Prop41ColorRGB
 90
        0
102
RTVSPost2010PropOp41
 70
     1
102
RTVSPost2010Prop42
 90
       50
102
RTVSPost2010PropOp42
 70
     1
102
RTVSPost2010Prop43
 90
        3
102
RTVSPost2010PropOp43
 70
     1
102
RTVSPost2010Prop44ColorIndex
 90
        5
102
RTVSPost2010Prop44ColorRGB
 90
      255
102
RTVSPost2010PropOp44
 70
     1
102
RTVSPost2010Prop45
280
     0
102
RTVSPost2010PropOp45
 70
     1
102
RTVSPost2010Prop46
 90
       50
102
RTVSPost2010PropOp46
 70
     1
102
RTVSPost2010Prop47
 90
       50
102
RTVSPost2010PropOp47
 70
     1
102
RTVSPost2010Prop48
 90
       50
102
RTVSPost2010PropOp48
 70
     1
102
RTVSPost2010Prop49
280
     0
102
RTVSPost2010PropOp49
 70
     1
102
RTVSPost2010Prop50
 90
       50
102
RTVSPost2010PropOp50
 70
     1
102
RTVSPost2010Prop51ColorIndex
 90
      256
102
RTVSPost2010Prop51ColorRGB
 90
-16777216
102
RTVSPost2010PropOp51
 70
     0
102
RTVSPost2010Prop52
140
1.0
102
RTVSPost2010PropOp52
 70
     0
102
RTVSPost2010Prop53
 90
        2
102
RTVSPost2010PropOp53
 70
     1
102
RTVSPost2010Prop54
  1
strokes_ogs.tif
102
RTVSPost2010PropOp54
 70
     1
102
RTVSPost2010Prop55
280
     0
102
RTVSPost2010PropOp55
 70
     1
102
RTVSPost2010Prop56
140
1.0
102
RTVSPost2010PropOp56
 70
     1
102
RTVSPost2010Prop57
140
1.0
102
RTVSPost2010PropOp57
 70
     1
  0
XRECORD
  5
26D
102
{ACAD_REACTORS
330
26C
102
}
330
26C
100
AcDbXrecord
280
     1
102
RTVSPost2010Prop28
280
     0
102
RTVSPost2010PropOp28
 70
     1
102
RTVSPost2010Prop29
280
     1
102
RTVSPost2010PropOp29
 70
     1
102
RTVSPost2010Prop30
280
     1
102
RTVSPost2010PropOp30
 70
     1
102
RTVSPost2010Prop31
280
     0
102
RTVSPost2010PropOp31
 70
     1
102
RTVSPost2010Prop32
280
     0
102
RTVSPost2010PropOp32
 70
     1
102
RTVSPost2010Prop33
280
     0
102
RTVSPost2010PropOp33
 70
     1
102
RTVSPost2010Prop34
280
     0
102
RTVSPost2010PropOp34
 70
     1
102
RTVSPost2010Prop35
280
     0
102
RTVSPost2010PropOp35
 70
     1
102
RTVSPost2010Prop36
280
     0
102
RTVSPost2010PropOp36
 70
     1
102
RTVSPost2010Prop37
 90
       50
102
RTVSPost2010PropOp37
 70
     1
102
RTVSPost2010Prop38
140
0.0
102
RTVSPost2010PropOp38
 70
     1
102
RTVSPost2010Prop39
140
1.0
102
RTVSPost2010PropOp39
 70
     1
102
RTVSPost2010Prop40
 90
        0
102
RTVSPost2010PropOp40
 70
     1
102
RTVSPost2010Prop41ColorIndex
 90
       18
102
RTVSPost2010Prop41ColorRGB
 90
        0
102
RTVSPost2010PropOp41
 70
     1
102
RTVSPost2010Prop42
 90
       50
102
RTVSPost2010PropOp42
 70
     1
102
RTVSPost2010Prop43
 90
        3
102
RTVSPost2010PropOp43
 70
     1
102
RTVSPost2010Prop44ColorIndex
 90
        5
102
RTVSPost2010Prop44ColorRGB
 90
      255
102
RTVSPost2010PropOp44
 70
     1
102
RTVSPost2010Prop45
280
     0
102
RTVSPost2010PropOp45
 70
     1
102
RTVSPost2010Prop46
 90
       50
102
RTVSPost2010PropOp46
 70
     1
102
RTVSPost2010Prop47
 90
       50
102
RTVSPost2010PropOp47
 70
     1
102
RTVSPost2010Prop48
 90
       50
102
RTVSPost2010PropOp48
 70
     1
102
RTVSPost2010Prop49
280
     0
102
RTVSPost2010PropOp49
 70
     1
102
RTVSPost2010Prop50
 90
       50
102
RTVSPost2010PropOp50
 70
     1
102
RTVSPost2010Prop51ColorIndex
 90
      256
102
RTVSPost2010Prop51ColorRGB
 90
-16777216
102
RTVSPost2010PropOp51
 70
     0
102
RTVSPost2010Prop52
140
1.0
102
RTVSPost2010PropOp52
 70
     0
102
RTVSPost2010Prop53
 90
        2
102
RTVSPost2010PropOp53
 70
     1
102
RTVSPost2010Prop54
  1
strokes_ogs.tif
102
RTVSPost2010PropOp54
 70
     1
102
RTVSPost2010Prop55
280
     0
102
RTVSPost2010PropOp55
 70
     1
102
RTVSPost2010Prop56
140
1.0
102
RTVSPost2010PropOp56
 70
     1
102
RTVSPost2010Prop57
140
1.0
102
RTVSPost2010PropOp57
 70
     1
  0
XRECORD
  5
26F
102
{ACAD_REACTORS
330
26E
102
}
330
26E
100
AcDbXrecord
280
     1
102
RTVSPost2010Prop28
280
     0
102
RTVSPost2010PropOp28
 70
     1
102
RTVSPost2010Prop29
280
     1
102
RTVSPost2010PropOp29
 70
     1
102
RTVSPost2010Prop30
280
     1
102
RTVSPost2010PropOp30
 70
     1
102
RTVSPost2010Prop31
280
     0
102
RTVSPost2010PropOp31
 70
     1
102
RTVSPost2010Prop32
280
     0
102
RTVSPost2010PropOp32
 70
     1
102
RTVSPost2010Prop33
280
     0
102
RTVSPost2010PropOp33
 70
     1
102
RTVSPost2010Prop34
280
     0
102
RTVSPost2010PropOp34
 70
     1
102
RTVSPost2010Prop35
280
     0
102
RTVSPost2010PropOp35
 70
     1
102
RTVSPost2010Prop36
280
     0
102
RTVSPost2010PropOp36
 70
     1
102
RTVSPost2010Prop37
 90
       50
102
RTVSPost2010PropOp37
 70
     1
102
RTVSPost2010Prop38
140
0.0
102
RTVSPost2010PropOp38
 70
     1
102
RTVSPost2010Prop39
140
1.0
102
RTVSPost2010PropOp39
 70
     1
102
RTVSPost2010Prop40
 90
        0
102
RTVSPost2010PropOp40
 70
     1
102
RTVSPost2010Prop41ColorIndex
 90
       18
102
RTVSPost2010Prop41ColorRGB
 90
        0
102
RTVSPost2010PropOp41
 70
     1
102
RTVSPost2010Prop42
 90
       50
102
RTVSPost2010PropOp42
 70
     1
102
RTVSPost2010Prop43
 90
        3
102
RTVSPost2010PropOp43
 70
     1
102
RTVSPost2010Prop44ColorIndex
 90
        5
102
RTVSPost2010Prop44ColorRGB
 90
      255
102
RTVSPost2010PropOp44
 70
     1
102
RTVSPost2010Prop45
280
     0
102
RTVSPost2010PropOp45
 70
     1
102
RTVSPost2010Prop46
 90
       50
102
RTVSPost2010PropOp46
 70
     1
102
RTVSPost2010Prop47
 90
       50
102
RTVSPost2010PropOp47
 70
     1
102
RTVSPost2010Prop48
 90
       50
102
RTVSPost2010PropOp48
 70
     1
102
RTVSPost2010Prop49
280
     0
102
RTVSPost2010PropOp49
 70
     1
102
RTVSPost2010Prop50
 90
       50
102
RTVSPost2010PropOp50
 70
     1
102
RTVSPost2010Prop51ColorIndex
 90
      256
102
RTVSPost2010Prop51ColorRGB
 90
-16777216
102
RTVSPost2010PropOp51
 70
     0
102
RTVSPost2010Prop52
140
1.0
102
RTVSPost2010PropOp52
 70
     0
102
RTVSPost2010Prop53
 90
        2
102
RTVSPost2010PropOp53
 70
     1
102
RTVSPost2010Prop54
  1
strokes_ogs.tif
102
RTVSPost2010PropOp54
 70
     1
102
RTVSPost2010Prop55
280
     0
102
RTVSPost2010PropOp55
 70
     1
102
RTVSPost2010Prop56
140
1.0
102
RTVSPost2010PropOp56
 70
     1
102
RTVSPost2010Prop57
140
1.0
102
RTVSPost2010PropOp57
 70
     1
  0
XRECORD
  5
275
102
{ACAD_REACTORS
330
274
102
}
330
274
100
AcDbXrecord
280
     1
102
RTVSPost2010Prop28
280
     0
102
RTVSPost2010PropOp28
 70
     1
102
RTVSPost2010Prop29
280
     1
102
RTVSPost2010PropOp29
 70
     1
102
RTVSPost2010Prop30
280
     1
102
RTVSPost2010PropOp30
 70
     1
102
RTVSPost2010Prop31
280
     0
102
RTVSPost2010PropOp31
 70
     1
102
RTVSPost2010Prop32
280
     0
102
RTVSPost2010PropOp32
 70
     1
102
RTVSPost2010Prop33
280
     0
102
RTVSPost2010PropOp33
 70
     1
102
RTVSPost2010Prop34
280
     0
102
RTVSPost2010PropOp34
 70
     1
102
RTVSPost2010Prop35
280
     0
102
RTVSPost2010PropOp35
 70
     1
102
RTVSPost2010Prop36
280
     0
102
RTVSPost2010PropOp36
 70
     1
102
RTVSPost2010Prop37
 90
       50
102
RTVSPost2010PropOp37
 70
     1
102
RTVSPost2010Prop38
140
0.0
102
RTVSPost2010PropOp38
 70
     1
102
RTVSPost2010Prop39
140
1.0
102
RTVSPost2010PropOp39
 70
     1
102
RTVSPost2010Prop40
 90
        0
102
RTVSPost2010PropOp40
 70
     1
102
RTVSPost2010Prop41ColorIndex
 90
       18
102
RTVSPost2010Prop41ColorRGB
 90
        0
102
RTVSPost2010PropOp41
 70
     1
102
RTVSPost2010Prop42
 90
       50
102
RTVSPost2010PropOp42
 70
     1
102
RTVSPost2010Prop43
 90
        3
102
RTVSPost2010PropOp43
 70
     1
102
RTVSPost2010Prop44ColorIndex
 90
        5
102
RTVSPost2010Prop44ColorRGB
 90
      255
102
RTVSPost2010PropOp44
 70
     1
102
RTVSPost2010Prop45
280
     0
102
RTVSPost2010PropOp45
 70
     1
102
RTVSPost2010Prop46
 90
       50
102
RTVSPost2010PropOp46
 70
     1
102
RTVSPost2010Prop47
 90
       50
102
RTVSPost2010PropOp47
 70
     1
102
RTVSPost2010Prop48
 90
       50
102
RTVSPost2010PropOp48
 70
     1
102
RTVSPost2010Prop49
280
     0
102
RTVSPost2010PropOp49
 70
     1
102
RTVSPost2010Prop50
 90
       50
102
RTVSPost2010PropOp50
 70
     1
102
RTVSPost2010Prop51ColorIndex
 90
      256
102
RTVSPost2010Prop51ColorRGB
 90
-16777216
102
RTVSPost2010PropOp51
 70
     0
102
RTVSPost2010Prop52
140
1.0
102
RTVSPost2010PropOp52
 70
     0
102
RTVSPost2010Prop53
 90
        2
102
RTVSPost2010PropOp53
 70
     1
102
RTVSPost2010Prop54
  1
strokes_ogs.tif
102
RTVSPost2010PropOp54
 70
     1
102
RTVSPost2010Prop55
280
     0
102
RTVSPost2010PropOp55
 70
     1
102
RTVSPost2010Prop56
140
1.0
102
RTVSPost2010PropOp56
 70
     1
102
RTVSPost2010Prop57
140
1.0
102
RTVSPost2010PropOp57
 70
     1
  0
XRECORD
  5
289
102
{ACAD_REACTORS
330
288
102
}
330
288
100
AcDbXrecord
280
     1
102
RTVSPost2010Prop28
280
     0
102
RTVSPost2010PropOp28
 70
     0
102
RTVSPost2010Prop29
280
     1
102
RTVSPost2010PropOp29
 70
     0
102
RTVSPost2010Prop30
280
     1
102
RTVSPost2010PropOp30
 70
     0
102
RTVSPost2010Prop31
280
     0
102
RTVSPost2010PropOp31
 70
     0
102
RTVSPost2010Prop32
280
     0
102
RTVSPost2010PropOp32
 70
     0
102
RTVSPost2010Prop33
280
     0
102
RTVSPost2010PropOp33
 70
     0
102
RTVSPost2010Prop34
280
     0
102
RTVSPost2010PropOp34
 70
     0
102
RTVSPost2010Prop35
280
     0
102
RTVSPost2010PropOp35
 70
     0
102
RTVSPost2010Prop36
280
     0
102
RTVSPost2010PropOp36
 70
     0
102
RTVSPost2010Prop37
 90
       50
102
RTVSPost2010PropOp37
 70
     0
102
RTVSPost2010Prop38
140
0.0
102
RTVSPost2010PropOp38
 70
     0
102
RTVSPost2010Prop39
140
1.0
102
RTVSPost2010PropOp39
 70
     0
102
RTVSPost2010Prop40
 90
        0
102
RTVSPost2010PropOp40
 70
     0
102
RTVSPost2010Prop41ColorIndex
 90
       18
102
RTVSPost2010Prop41ColorRGB
 90
        0
102
RTVSPost2010PropOp41
 70
     0
102
RTVSPost2010Prop42
 90
       50
102
RTVSPost2010PropOp42
 70
     0
102
RTVSPost2010Prop43
 90
        3
102
RTVSPost2010PropOp43
 70
     0
102
RTVSPost2010Prop44ColorIndex
 90
        5
102
RTVSPost2010Prop44ColorRGB
 90
      255
102
RTVSPost2010PropOp44
 70
     0
102
RTVSPost2010Prop45
280
     0
102
RTVSPost2010PropOp45
 70
     0
102
RTVSPost2010Prop46
 90
       50
102
RTVSPost2010PropOp46
 70
     0
102
RTVSPost2010Prop47
 90
       50
102
RTVSPost2010PropOp47
 70
     0
102
RTVSPost2010Prop48
 90
       50
102
RTVSPost2010PropOp48
 70
     0
102
RTVSPost2010Prop49
280
     0
102
RTVSPost2010PropOp49
 70
     0
102
RTVSPost2010Prop50
 90
       50
102
RTVSPost2010PropOp50
 70
     0
102
RTVSPost2010Prop51ColorIndex
 90
      256
102
RTVSPost2010Prop51ColorRGB
 90
-16777216
102
RTVSPost2010PropOp51
 70
     0
102
RTVSPost2010Prop52
140
1.0
102
RTVSPost2010PropOp52
 70
     0
102
RTVSPost2010Prop53
 90
        2
102
RTVSPost2010PropOp53
 70
     0
102
RTVSPost2010Prop54
  1
strokes_ogs.tif
102
RTVSPost2010PropOp54
 70
     0
102
RTVSPost2010Prop55
280
     0
102
RTVSPost2010PropOp55
 70
     0
102
RTVSPost2010Prop56
140
1.0
102
RTVSPost2010PropOp56
 70
     0
102
RTVSPost2010Prop57
140
1.0
102
RTVSPost2010PropOp57
 70
     0
  0
XRECORD
  5
283
102
{ACAD_REACTORS
330
282
102
}
330
282
100
AcDbXrecord
280
     1
102
RTVSPost2010Prop28
280
     0
102
RTVSPost2010PropOp28
 70
     1
102
RTVSPost2010Prop29
280
     1
102
RTVSPost2010PropOp29
 70
     1
102
RTVSPost2010Prop30
280
     1
102
RTVSPost2010PropOp30
 70
     1
102
RTVSPost2010Prop31
280
     0
102
RTVSPost2010PropOp31
 70
     1
102
RTVSPost2010Prop32
280
     0
102
RTVSPost2010PropOp32
 70
     1
102
RTVSPost2010Prop33
280
     0
102
RTVSPost2010PropOp33
 70
     1
102
RTVSPost2010Prop34
280
     0
102
RTVSPost2010PropOp34
 70
     1
102
RTVSPost2010Prop35
280
     0
102
RTVSPost2010PropOp35
 70
     1
102
RTVSPost2010Prop36
280
     0
102
RTVSPost2010PropOp36
 70
     1
102
RTVSPost2010Prop37
 90
       50
102
RTVSPost2010PropOp37
 70
     1
102
RTVSPost2010Prop38
140
0.0
102
RTVSPost2010PropOp38
 70
     1
102
RTVSPost2010Prop39
140
1.0
102
RTVSPost2010PropOp39
 70
     1
102
RTVSPost2010Prop40
 90
        0
102
RTVSPost2010PropOp40
 70
     1
102
RTVSPost2010Prop41ColorIndex
 90
       18
102
RTVSPost2010Prop41ColorRGB
 90
        0
102
RTVSPost2010PropOp41
 70
     1
102
RTVSPost2010Prop42
 90
       50
102
RTVSPost2010PropOp42
 70
     1
102
RTVSPost2010Prop43
 90
        3
102
RTVSPost2010PropOp43
 70
     1
102
RTVSPost2010Prop44ColorIndex
 90
        5
102
RTVSPost2010Prop44ColorRGB
 90
      255
102
RTVSPost2010PropOp44
 70
     1
102
RTVSPost2010Prop45
280
     0
102
RTVSPost2010PropOp45
 70
     1
102
RTVSPost2010Prop46
 90
       50
102
RTVSPost2010PropOp46
 70
     1
102
RTVSPost2010Prop47
 90
       50
102
RTVSPost2010PropOp47
 70
     1
102
RTVSPost2010Prop48
 90
       50
102
RTVSPost2010PropOp48
 70
     1
102
RTVSPost2010Prop49
280
     0
102
RTVSPost2010PropOp49
 70
     1
102
RTVSPost2010Prop50
 90
       50
102
RTVSPost2010PropOp50
 70
     1
102
RTVSPost2010Prop51ColorIndex
 90
      256
102
RTVSPost2010Prop51ColorRGB
 90
-16777216
102
RTVSPost2010PropOp51
 70
     0
102
RTVSPost2010Prop52
140
1.0
102
RTVSPost2010PropOp52
 70
     0
102
RTVSPost2010Prop53
 90
        2
102
RTVSPost2010PropOp53
 70
     1
102
RTVSPost2010Prop54
  1
strokes_ogs.tif
102
RTVSPost2010PropOp54
 70
     1
102
RTVSPost2010Prop55
280
     0
102
RTVSPost2010PropOp55
 70
     1
102
RTVSPost2010Prop56
140
1.0
102
RTVSPost2010PropOp56
 70
     1
102
RTVSPost2010Prop57
140
1.0
102
RTVSPost2010PropOp57
 70
     1
  0
XRECORD
  5
28B
102
{ACAD_REACTORS
330
28A
102
}
330
28A
100
AcDbXrecord
280
     1
102
RTVSPost2010Prop28
280
     0
102
RTVSPost2010PropOp28
 70
     0
102
RTVSPost2010Prop29
280
     1
102
RTVSPost2010PropOp29
 70
     0
102
RTVSPost2010Prop30
280
     1
102
RTVSPost2010PropOp30
 70
     0
102
RTVSPost2010Prop31
280
     0
102
RTVSPost2010PropOp31
 70
     0
102
RTVSPost2010Prop32
280
     0
102
RTVSPost2010PropOp32
 70
     0
102
RTVSPost2010Prop33
280
     0
102
RTVSPost2010PropOp33
 70
     0
102
RTVSPost2010Prop34
280
     0
102
RTVSPost2010PropOp34
 70
     0
102
RTVSPost2010Prop35
280
     0
102
RTVSPost2010PropOp35
 70
     0
102
RTVSPost2010Prop36
280
     0
102
RTVSPost2010PropOp36
 70
     0
102
RTVSPost2010Prop37
 90
       50
102
RTVSPost2010PropOp37
 70
     0
102
RTVSPost2010Prop38
140
0.0
102
RTVSPost2010PropOp38
 70
     0
102
RTVSPost2010Prop39
140
1.0
102
RTVSPost2010PropOp39
 70
     0
102
RTVSPost2010Prop40
 90
        0
102
RTVSPost2010PropOp40
 70
     0
102
RTVSPost2010Prop41ColorIndex
 90
       18
102
RTVSPost2010Prop41ColorRGB
 90
        0
102
RTVSPost2010PropOp41
 70
     0
102
RTVSPost2010Prop42
 90
       50
102
RTVSPost2010PropOp42
 70
     0
102
RTVSPost2010Prop43
 90
        3
102
RTVSPost2010PropOp43
 70
     0
102
RTVSPost2010Prop44ColorIndex
 90
        5
102
RTVSPost2010Prop44ColorRGB
 90
      255
102
RTVSPost2010PropOp44
 70
     0
102
RTVSPost2010Prop45
280
     0
102
RTVSPost2010PropOp45
 70
     0
102
RTVSPost2010Prop46
 90
       50
102
RTVSPost2010PropOp46
 70
     0
102
RTVSPost2010Prop47
 90
       50
102
RTVSPost2010PropOp47
 70
     0
102
RTVSPost2010Prop48
 90
       50
102
RTVSPost2010PropOp48
 70
     0
102
RTVSPost2010Prop49
280
     0
102
RTVSPost2010PropOp49
 70
     0
102
RTVSPost2010Prop50
 90
       50
102
RTVSPost2010PropOp50
 70
     0
102
RTVSPost2010Prop51ColorIndex
 90
      256
102
RTVSPost2010Prop51ColorRGB
 90
-16777216
102
RTVSPost2010PropOp51
 70
     0
102
RTVSPost2010Prop52
140
1.0
102
RTVSPost2010PropOp52
 70
     0
102
RTVSPost2010Prop53
 90
        2
102
RTVSPost2010PropOp53
 70
     0
102
RTVSPost2010Prop54
  1
strokes_ogs.tif
102
RTVSPost2010PropOp54
 70
     0
102
RTVSPost2010Prop55
280
     0
102
RTVSPost2010PropOp55
 70
     0
102
RTVSPost2010Prop56
140
1.0
102
RTVSPost2010PropOp56
 70
     0
102
RTVSPost2010Prop57
140
1.0
102
RTVSPost2010PropOp57
 70
     0
  0
XRECORD
  5
279
102
{ACAD_REACTORS
330
278
102
}
330
278
100
AcDbXrecord
280
     1
102
RTVSPost2010Prop28
280
     0
102
RTVSPost2010PropOp28
 70
     1
102
RTVSPost2010Prop29
280
     1
102
RTVSPost2010PropOp29
 70
     1
102
RTVSPost2010Prop30
280
     1
102
RTVSPost2010PropOp30
 70
     1
102
RTVSPost2010Prop31
280
     0
102
RTVSPost2010PropOp31
 70
     1
102
RTVSPost2010Prop32
280
     0
102
RTVSPost2010PropOp32
 70
     1
102
RTVSPost2010Prop33
280
     0
102
RTVSPost2010PropOp33
 70
     1
102
RTVSPost2010Prop34
280
     0
102
RTVSPost2010PropOp34
 70
     1
102
RTVSPost2010Prop35
280
     0
102
RTVSPost2010PropOp35
 70
     1
102
RTVSPost2010Prop36
280
     0
102
RTVSPost2010PropOp36
 70
     1
102
RTVSPost2010Prop37
 90
       50
102
RTVSPost2010PropOp37
 70
     1
102
RTVSPost2010Prop38
140
0.0
102
RTVSPost2010PropOp38
 70
     1
102
RTVSPost2010Prop39
140
1.0
102
RTVSPost2010PropOp39
 70
     1
102
RTVSPost2010Prop40
 90
        0
102
RTVSPost2010PropOp40
 70
     1
102
RTVSPost2010Prop41ColorIndex
 90
       18
102
RTVSPost2010Prop41ColorRGB
 90
        0
102
RTVSPost2010PropOp41
 70
     1
102
RTVSPost2010Prop42
 90
       50
102
RTVSPost2010PropOp42
 70
     1
102
RTVSPost2010Prop43
 90
        3
102
RTVSPost2010PropOp43
 70
     1
102
RTVSPost2010Prop44ColorIndex
 90
        5
102
RTVSPost2010Prop44ColorRGB
 90
      255
102
RTVSPost2010PropOp44
 70
     1
102
RTVSPost2010Prop45
280
     0
102
RTVSPost2010PropOp45
 70
     1
102
RTVSPost2010Prop46
 90
       50
102
RTVSPost2010PropOp46
 70
     1
102
RTVSPost2010Prop47
 90
       50
102
RTVSPost2010PropOp47
 70
     1
102
RTVSPost2010Prop48
 90
       50
102
RTVSPost2010PropOp48
 70
     1
102
RTVSPost2010Prop49
280
     0
102
RTVSPost2010PropOp49
 70
     1
102
RTVSPost2010Prop50
 90
       50
102
RTVSPost2010PropOp50
 70
     1
102
RTVSPost2010Prop51ColorIndex
 90
      256
102
RTVSPost2010Prop51ColorRGB
 90
-16777216
102
RTVSPost2010PropOp51
 70
     0
102
RTVSPost2010Prop52
140
1.0
102
RTVSPost2010PropOp52
 70
     0
102
RTVSPost2010Prop53
 90
        2
102
RTVSPost2010PropOp53
 70
     1
102
RTVSPost2010Prop54
  1
strokes_ogs.tif
102
RTVSPost2010PropOp54
 70
     1
102
RTVSPost2010Prop55
280
     0
102
RTVSPost2010PropOp55
 70
     1
102
RTVSPost2010Prop56
140
1.0
102
RTVSPost2010PropOp56
 70
     1
102
RTVSPost2010Prop57
140
1.0
102
RTVSPost2010PropOp57
 70
     1
  0
XRECORD
  5
297
102
{ACAD_REACTORS
330
296
102
}
330
296
100
AcDbXrecord
280
     1
102
RTVSPost2010Prop28
280
     0
102
RTVSPost2010PropOp28
 70
     1
102
RTVSPost2010Prop29
280
     1
102
RTVSPost2010PropOp29
 70
     1
102
RTVSPost2010Prop30
280
     1
102
RTVSPost2010PropOp30
 70
     1
102
RTVSPost2010Prop31
280
     0
102
RTVSPost2010PropOp31
 70
     1
102
RTVSPost2010Prop32
280
     0
102
RTVSPost2010PropOp32
 70
     1
102
RTVSPost2010Prop33
280
     0
102
RTVSPost2010PropOp33
 70
     1
102
RTVSPost2010Prop34
280
     0
102
RTVSPost2010PropOp34
 70
     1
102
RTVSPost2010Prop35
280
     0
102
RTVSPost2010PropOp35
 70
     1
102
RTVSPost2010Prop36
280
     0
102
RTVSPost2010PropOp36
 70
     1
102
RTVSPost2010Prop37
 90
       50
102
RTVSPost2010PropOp37
 70
     1
102
RTVSPost2010Prop38
140
0.0
102
RTVSPost2010PropOp38
 70
     1
102
RTVSPost2010Prop39
140
1.0
102
RTVSPost2010PropOp39
 70
     1
102
RTVSPost2010Prop40
 90
        0
102
RTVSPost2010PropOp40
 70
     1
102
RTVSPost2010Prop41ColorIndex
 90
       18
102
RTVSPost2010Prop41ColorRGB
 90
        0
102
RTVSPost2010PropOp41
 70
     1
102
RTVSPost2010Prop42
 90
       50
102
RTVSPost2010PropOp42
 70
     1
102
RTVSPost2010Prop43
 90
        3
102
RTVSPost2010PropOp43
 70
     1
102
RTVSPost2010Prop44ColorIndex
 90
        5
102
RTVSPost2010Prop44ColorRGB
 90
      255
102
RTVSPost2010PropOp44
 70
     1
102
RTVSPost2010Prop45
280
     0
102
RTVSPost2010PropOp45
 70
     1
102
RTVSPost2010Prop46
 90
       50
102
RTVSPost2010PropOp46
 70
     1
102
RTVSPost2010Prop47
 90
       50
102
RTVSPost2010PropOp47
 70
     1
102
RTVSPost2010Prop48
 90
       50
102
RTVSPost2010PropOp48
 70
     1
102
RTVSPost2010Prop49
280
     0
102
RTVSPost2010PropOp49
 70
     1
102
RTVSPost2010Prop50
 90
       50
102
RTVSPost2010PropOp50
 70
     1
102
RTVSPost2010Prop51ColorIndex
 90
      256
102
RTVSPost2010Prop51ColorRGB
 90
-16777216
102
RTVSPost2010PropOp51
 70
     0
102
RTVSPost2010Prop52
140
1.0
102
RTVSPost2010PropOp52
 70
     0
102
RTVSPost2010Prop53
 90
        2
102
RTVSPost2010PropOp53
 70
     1
102
RTVSPost2010Prop54
  1
strokes_ogs.tif
102
RTVSPost2010PropOp54
 70
     1
102
RTVSPost2010Prop55
280
     0
102
RTVSPost2010PropOp55
 70
     1
102
RTVSPost2010Prop56
140
1.0
102
RTVSPost2010PropOp56
 70
     1
102
RTVSPost2010Prop57
140
1.0
102
RTVSPost2010PropOp57
 70
     1
  0
XRECORD
  5
295
102
{ACAD_REACTORS
330
294
102
}
330
294
100
AcDbXrecord
280
     1
102
RTVSPost2010Prop28
280
     0
102
RTVSPost2010PropOp28
 70
     1
102
RTVSPost2010Prop29
280
     1
102
RTVSPost2010PropOp29
 70
     1
102
RTVSPost2010Prop30
280
     1
102
RTVSPost2010PropOp30
 70
     1
102
RTVSPost2010Prop31
280
     0
102
RTVSPost2010PropOp31
 70
     1
102
RTVSPost2010Prop32
280
     0
102
RTVSPost2010PropOp32
 70
     1
102
RTVSPost2010Prop33
280
     0
102
RTVSPost2010PropOp33
 70
     1
102
RTVSPost2010Prop34
280
     0
102
RTVSPost2010PropOp34
 70
     1
102
RTVSPost2010Prop35
280
     0
102
RTVSPost2010PropOp35
 70
     1
102
RTVSPost2010Prop36
280
     0
102
RTVSPost2010PropOp36
 70
     1
102
RTVSPost2010Prop37
 90
       50
102
RTVSPost2010PropOp37
 70
     1
102
RTVSPost2010Prop38
140
0.0
102
RTVSPost2010PropOp38
 70
     1
102
RTVSPost2010Prop39
140
1.0
102
RTVSPost2010PropOp39
 70
     1
102
RTVSPost2010Prop40
 90
        0
102
RTVSPost2010PropOp40
 70
     1
102
RTVSPost2010Prop41ColorIndex
 90
       18
102
RTVSPost2010Prop41ColorRGB
 90
        0
102
RTVSPost2010PropOp41
 70
     1
102
RTVSPost2010Prop42
 90
       50
102
RTVSPost2010PropOp42
 70
     1
102
RTVSPost2010Prop43
 90
        3
102
RTVSPost2010PropOp43
 70
     1
102
RTVSPost2010Prop44ColorIndex
 90
        5
102
RTVSPost2010Prop44ColorRGB
 90
      255
102
RTVSPost2010PropOp44
 70
     1
102
RTVSPost2010Prop45
280
     0
102
RTVSPost2010PropOp45
 70
     1
102
RTVSPost2010Prop46
 90
       50
102
RTVSPost2010PropOp46
 70
     1
102
RTVSPost2010Prop47
 90
       50
102
RTVSPost2010PropOp47
 70
     1
102
RTVSPost2010Prop48
 90
       50
102
RTVSPost2010PropOp48
 70
     1
102
RTVSPost2010Prop49
280
     0
102
RTVSPost2010PropOp49
 70
     1
102
RTVSPost2010Prop50
 90
       50
102
RTVSPost2010PropOp50
 70
     1
102
RTVSPost2010Prop51ColorIndex
 90
      256
102
RTVSPost2010Prop51ColorRGB
 90
-16777216
102
RTVSPost2010PropOp51
 70
     0
102
RTVSPost2010Prop52
140
1.0
102
RTVSPost2010PropOp52
 70
     0
102
RTVSPost2010Prop53
 90
        2
102
RTVSPost2010PropOp53
 70
     1
102
RTVSPost2010Prop54
  1
strokes_ogs.tif
102
RTVSPost2010PropOp54
 70
     1
102
RTVSPost2010Prop55
280
     0
102
RTVSPost2010PropOp55
 70
     1
102
RTVSPost2010Prop56
140
1.0
102
RTVSPost2010PropOp56
 70
     1
102
RTVSPost2010Prop57
140
1.0
102
RTVSPost2010PropOp57
 70
     1
  0
XRECORD
  5
28F
102
{ACAD_REACTORS
330
28E
102
}
330
28E
100
AcDbXrecord
280
     1
102
RTVSPost2010Prop28
280
     0
102
RTVSPost2010PropOp28
 70
     1
102
RTVSPost2010Prop29
280
     1
102
RTVSPost2010PropOp29
 70
     1
102
RTVSPost2010Prop30
280
     1
102
RTVSPost2010PropOp30
 70
     1
102
RTVSPost2010Prop31
280
     0
102
RTVSPost2010PropOp31
 70
     1
102
RTVSPost2010Prop32
280
     0
102
RTVSPost2010PropOp32
 70
     1
102
RTVSPost2010Prop33
280
     0
102
RTVSPost2010PropOp33
 70
     1
102
RTVSPost2010Prop34
280
     0
102
RTVSPost2010PropOp34
 70
     1
102
RTVSPost2010Prop35
280
     0
102
RTVSPost2010PropOp35
 70
     1
102
RTVSPost2010Prop36
280
     0
102
RTVSPost2010PropOp36
 70
     1
102
RTVSPost2010Prop37
 90
       50
102
RTVSPost2010PropOp37
 70
     1
102
RTVSPost2010Prop38
140
0.0
102
RTVSPost2010PropOp38
 70
     1
102
RTVSPost2010Prop39
140
1.0
102
RTVSPost2010PropOp39
 70
     1
102
RTVSPost2010Prop40
 90
        0
102
RTVSPost2010PropOp40
 70
     1
102
RTVSPost2010Prop41ColorIndex
 90
       18
102
RTVSPost2010Prop41ColorRGB
 90
        0
102
RTVSPost2010PropOp41
 70
     1
102
RTVSPost2010Prop42
 90
       50
102
RTVSPost2010PropOp42
 70
     1
102
RTVSPost2010Prop43
 90
        3
102
RTVSPost2010PropOp43
 70
     1
102
RTVSPost2010Prop44ColorIndex
 90
        5
102
RTVSPost2010Prop44ColorRGB
 90
      255
102
RTVSPost2010PropOp44
 70
     1
102
RTVSPost2010Prop45
280
     0
102
RTVSPost2010PropOp45
 70
     1
102
RTVSPost2010Prop46
 90
       50
102
RTVSPost2010PropOp46
 70
     1
102
RTVSPost2010Prop47
 90
       50
102
RTVSPost2010PropOp47
 70
     1
102
RTVSPost2010Prop48
 90
       50
102
RTVSPost2010PropOp48
 70
     1
102
RTVSPost2010Prop49
280
     0
102
RTVSPost2010PropOp49
 70
     1
102
RTVSPost2010Prop50
 90
       50
102
RTVSPost2010PropOp50
 70
     1
102
RTVSPost2010Prop51ColorIndex
 90
      256
102
RTVSPost2010Prop51ColorRGB
 90
-16777216
102
RTVSPost2010PropOp51
 70
     0
102
RTVSPost2010Prop52
140
1.0
102
RTVSPost2010PropOp52
 70
     0
102
RTVSPost2010Prop53
 90
        2
102
RTVSPost2010PropOp53
 70
     1
102
RTVSPost2010Prop54
  1
strokes_ogs.tif
102
RTVSPost2010PropOp54
 70
     1
102
RTVSPost2010Prop55
280
     0
102
RTVSPost2010PropOp55
 70
     1
102
RTVSPost2010Prop56
140
1.0
102
RTVSPost2010PropOp56
 70
     1
102
RTVSPost2010Prop57
140
1.0
102
RTVSPost2010PropOp57
 70
     1
  0
XRECORD
  5
291
102
{ACAD_REACTORS
330
290
102
}
330
290
100
AcDbXrecord
280
     1
102
RTVSPost2010Prop28
280
     0
102
RTVSPost2010PropOp28
 70
     1
102
RTVSPost2010Prop29
280
     1
102
RTVSPost2010PropOp29
 70
     1
102
RTVSPost2010Prop30
280
     1
102
RTVSPost2010PropOp30
 70
     1
102
RTVSPost2010Prop31
280
     0
102
RTVSPost2010PropOp31
 70
     1
102
RTVSPost2010Prop32
280
     0
102
RTVSPost2010PropOp32
 70
     1
102
RTVSPost2010Prop33
280
     0
102
RTVSPost2010PropOp33
 70
     1
102
RTVSPost2010Prop34
280
     0
102
RTVSPost2010PropOp34
 70
     1
102
RTVSPost2010Prop35
280
     0
102
RTVSPost2010PropOp35
 70
     1
102
RTVSPost2010Prop36
280
     0
102
RTVSPost2010PropOp36
 70
     1
102
RTVSPost2010Prop37
 90
       50
102
RTVSPost2010PropOp37
 70
     1
102
RTVSPost2010Prop38
140
0.0
102
RTVSPost2010PropOp38
 70
     1
102
RTVSPost2010Prop39
140
1.0
102
RTVSPost2010PropOp39
 70
     1
102
RTVSPost2010Prop40
 90
        0
102
RTVSPost2010PropOp40
 70
     1
102
RTVSPost2010Prop41ColorIndex
 90
       18
102
RTVSPost2010Prop41ColorRGB
 90
        0
102
RTVSPost2010PropOp41
 70
     1
102
RTVSPost2010Prop42
 90
       50
102
RTVSPost2010PropOp42
 70
     1
102
RTVSPost2010Prop43
 90
        3
102
RTVSPost2010PropOp43
 70
     1
102
RTVSPost2010Prop44ColorIndex
 90
        5
102
RTVSPost2010Prop44ColorRGB
 90
      255
102
RTVSPost2010PropOp44
 70
     1
102
RTVSPost2010Prop45
280
     0
102
RTVSPost2010PropOp45
 70
     1
102
RTVSPost2010Prop46
 90
       50
102
RTVSPost2010PropOp46
 70
     1
102
RTVSPost2010Prop47
 90
       50
102
RTVSPost2010PropOp47
 70
     1
102
RTVSPost2010Prop48
 90
       50
102
RTVSPost2010PropOp48
 70
     1
102
RTVSPost2010Prop49
280
     0
102
RTVSPost2010PropOp49
 70
     1
102
RTVSPost2010Prop50
 90
       50
102
RTVSPost2010PropOp50
 70
     1
102
RTVSPost2010Prop51ColorIndex
 90
      256
102
RTVSPost2010Prop51ColorRGB
 90
-16777216
102
RTVSPost2010PropOp51
 70
     0
102
RTVSPost2010Prop52
140
1.0
102
RTVSPost2010PropOp52
 70
     0
102
RTVSPost2010Prop53
 90
        2
102
RTVSPost2010PropOp53
 70
     1
102
RTVSPost2010Prop54
  1
strokes_ogs.tif
102
RTVSPost2010PropOp54
 70
     1
102
RTVSPost2010Prop55
280
     0
102
RTVSPost2010PropOp55
 70
     1
102
RTVSPost2010Prop56
140
1.0
102
RTVSPost2010PropOp56
 70
     1
102
RTVSPost2010Prop57
140
1.0
102
RTVSPost2010PropOp57
 70
     1
  0
XRECORD
  5
281
102
{ACAD_REACTORS
330
280
102
}
330
280
100
AcDbXrecord
280
     1
102
RTVSPost2010Prop28
280
     0
102
RTVSPost2010PropOp28
 70
     1
102
RTVSPost2010Prop29
280
     1
102
RTVSPost2010PropOp29
 70
     1
102
RTVSPost2010Prop30
280
     1
102
RTVSPost2010PropOp30
 70
     1
102
RTVSPost2010Prop31
280
     0
102
RTVSPost2010PropOp31
 70
     1
102
RTVSPost2010Prop32
280
     0
102
RTVSPost2010PropOp32
 70
     1
102
RTVSPost2010Prop33
280
     0
102
RTVSPost2010PropOp33
 70
     1
102
RTVSPost2010Prop34
280
     0
102
RTVSPost2010PropOp34
 70
     1
102
RTVSPost2010Prop35
280
     0
102
RTVSPost2010PropOp35
 70
     1
102
RTVSPost2010Prop36
280
     0
102
RTVSPost2010PropOp36
 70
     1
102
RTVSPost2010Prop37
 90
       50
102
RTVSPost2010PropOp37
 70
     1
102
RTVSPost2010Prop38
140
0.0
102
RTVSPost2010PropOp38
 70
     1
102
RTVSPost2010Prop39
140
1.0
102
RTVSPost2010PropOp39
 70
     1
102
RTVSPost2010Prop40
 90
        0
102
RTVSPost2010PropOp40
 70
     1
102
RTVSPost2010Prop41ColorIndex
 90
       18
102
RTVSPost2010Prop41ColorRGB
 90
        0
102
RTVSPost2010PropOp41
 70
     1
102
RTVSPost2010Prop42
 90
       50
102
RTVSPost2010PropOp42
 70
     1
102
RTVSPost2010Prop43
 90
        3
102
RTVSPost2010PropOp43
 70
     1
102
RTVSPost2010Prop44ColorIndex
 90
        5
102
RTVSPost2010Prop44ColorRGB
 90
      255
102
RTVSPost2010PropOp44
 70
     1
102
RTVSPost2010Prop45
280
     0
102
RTVSPost2010PropOp45
 70
     1
102
RTVSPost2010Prop46
 90
       50
102
RTVSPost2010PropOp46
 70
     1
102
RTVSPost2010Prop47
 90
       50
102
RTVSPost2010PropOp47
 70
     1
102
RTVSPost2010Prop48
 90
       50
102
RTVSPost2010PropOp48
 70
     1
102
RTVSPost2010Prop49
280
     0
102
RTVSPost2010PropOp49
 70
     1
102
RTVSPost2010Prop50
 90
       50
102
RTVSPost2010PropOp50
 70
     1
102
RTVSPost2010Prop51ColorIndex
 90
      256
102
RTVSPost2010Prop51ColorRGB
 90
-16777216
102
RTVSPost2010PropOp51
 70
     0
102
RTVSPost2010Prop52
140
1.0
102
RTVSPost2010PropOp52
 70
     0
102
RTVSPost2010Prop53
 90
        2
102
RTVSPost2010PropOp53
 70
     1
102
RTVSPost2010Prop54
  1
strokes_ogs.tif
102
RTVSPost2010PropOp54
 70
     1
102
RTVSPost2010Prop55
280
     0
102
RTVSPost2010PropOp55
 70
     1
102
RTVSPost2010Prop56
140
1.0
102
RTVSPost2010PropOp56
 70
     1
102
RTVSPost2010Prop57
140
1.0
102
RTVSPost2010PropOp57
 70
     1
  0
XRECORD
  5
273
102
{ACAD_REACTORS
330
272
102
}
330
272
100
AcDbXrecord
280
     1
102
RTVSPost2010Prop28
280
     0
102
RTVSPost2010PropOp28
 70
     1
102
RTVSPost2010Prop29
280
     1
102
RTVSPost2010PropOp29
 70
     1
102
RTVSPost2010Prop30
280
     1
102
RTVSPost2010PropOp30
 70
     1
102
RTVSPost2010Prop31
280
     0
102
RTVSPost2010PropOp31
 70
     1
102
RTVSPost2010Prop32
280
     0
102
RTVSPost2010PropOp32
 70
     1
102
RTVSPost2010Prop33
280
     0
102
RTVSPost2010PropOp33
 70
     1
102
RTVSPost2010Prop34
280
     0
102
RTVSPost2010PropOp34
 70
     1
102
RTVSPost2010Prop35
280
     0
102
RTVSPost2010PropOp35
 70
     1
102
RTVSPost2010Prop36
280
     0
102
RTVSPost2010PropOp36
 70
     1
102
RTVSPost2010Prop37
 90
       50
102
RTVSPost2010PropOp37
 70
     1
102
RTVSPost2010Prop38
140
0.0
102
RTVSPost2010PropOp38
 70
     1
102
RTVSPost2010Prop39
140
1.0
102
RTVSPost2010PropOp39
 70
     1
102
RTVSPost2010Prop40
 90
        0
102
RTVSPost2010PropOp40
 70
     1
102
RTVSPost2010Prop41ColorIndex
 90
       18
102
RTVSPost2010Prop41ColorRGB
 90
        0
102
RTVSPost2010PropOp41
 70
     1
102
RTVSPost2010Prop42
 90
       50
102
RTVSPost2010PropOp42
 70
     1
102
RTVSPost2010Prop43
 90
        3
102
RTVSPost2010PropOp43
 70
     1
102
RTVSPost2010Prop44ColorIndex
 90
        5
102
RTVSPost2010Prop44ColorRGB
 90
      255
102
RTVSPost2010PropOp44
 70
     1
102
RTVSPost2010Prop45
280
     0
102
RTVSPost2010PropOp45
 70
     1
102
RTVSPost2010Prop46
 90
       50
102
RTVSPost2010PropOp46
 70
     1
102
RTVSPost2010Prop47
 90
       50
102
RTVSPost2010PropOp47
 70
     1
102
RTVSPost2010Prop48
 90
       50
102
RTVSPost2010PropOp48
 70
     1
102
RTVSPost2010Prop49
280
     0
102
RTVSPost2010PropOp49
 70
     1
102
RTVSPost2010Prop50
 90
       50
102
RTVSPost2010PropOp50
 70
     1
102
RTVSPost2010Prop51ColorIndex
 90
      256
102
RTVSPost2010Prop51ColorRGB
 90
-16777216
102
RTVSPost2010PropOp51
 70
     0
102
RTVSPost2010Prop52
140
1.0
102
RTVSPost2010PropOp52
 70
     0
102
RTVSPost2010Prop53
 90
        2
102
RTVSPost2010PropOp53
 70
     1
102
RTVSPost2010Prop54
  1
strokes_ogs.tif
102
RTVSPost2010PropOp54
 70
     1
102
RTVSPost2010Prop55
280
     0
102
RTVSPost2010PropOp55
 70
     1
102
RTVSPost2010Prop56
140
1.0
102
RTVSPost2010PropOp56
 70
     1
102
RTVSPost2010Prop57
140
1.0
102
RTVSPost2010PropOp57
 70
     1
  0
XRECORD
  5
293
102
{ACAD_REACTORS
330
292
102
}
330
292
100
AcDbXrecord
280
     1
102
RTVSPost2010Prop28
280
     0
102
RTVSPost2010PropOp28
 70
     1
102
RTVSPost2010Prop29
280
     1
102
RTVSPost2010PropOp29
 70
     1
102
RTVSPost2010Prop30
280
     1
102
RTVSPost2010PropOp30
 70
     1
102
RTVSPost2010Prop31
280
     0
102
RTVSPost2010PropOp31
 70
     1
102
RTVSPost2010Prop32
280
     0
102
RTVSPost2010PropOp32
 70
     1
102
RTVSPost2010Prop33
280
     0
102
RTVSPost2010PropOp33
 70
     1
102
RTVSPost2010Prop34
280
     0
102
RTVSPost2010PropOp34
 70
     1
102
RTVSPost2010Prop35
280
     0
102
RTVSPost2010PropOp35
 70
     1
102
RTVSPost2010Prop36
280
     0
102
RTVSPost2010PropOp36
 70
     1
102
RTVSPost2010Prop37
 90
       50
102
RTVSPost2010PropOp37
 70
     1
102
RTVSPost2010Prop38
140
0.0
102
RTVSPost2010PropOp38
 70
     1
102
RTVSPost2010Prop39
140
1.0
102
RTVSPost2010PropOp39
 70
     1
102
RTVSPost2010Prop40
 90
        0
102
RTVSPost2010PropOp40
 70
     1
102
RTVSPost2010Prop41ColorIndex
 90
       18
102
RTVSPost2010Prop41ColorRGB
 90
        0
102
RTVSPost2010PropOp41
 70
     1
102
RTVSPost2010Prop42
 90
       50
102
RTVSPost2010PropOp42
 70
     1
102
RTVSPost2010Prop43
 90
        3
102
RTVSPost2010PropOp43
 70
     1
102
RTVSPost2010Prop44ColorIndex
 90
        5
102
RTVSPost2010Prop44ColorRGB
 90
      255
102
RTVSPost2010PropOp44
 70
     1
102
RTVSPost2010Prop45
280
     0
102
RTVSPost2010PropOp45
 70
     1
102
RTVSPost2010Prop46
 90
       50
102
RTVSPost2010PropOp46
 70
     1
102
RTVSPost2010Prop47
 90
       50
102
RTVSPost2010PropOp47
 70
     1
102
RTVSPost2010Prop48
 90
       50
102
RTVSPost2010PropOp48
 70
     1
102
RTVSPost2010Prop49
280
     0
102
RTVSPost2010PropOp49
 70
     1
102
RTVSPost2010Prop50
 90
       50
102
RTVSPost2010PropOp50
 70
     1
102
RTVSPost2010Prop51ColorIndex
 90
      256
102
RTVSPost2010Prop51ColorRGB
 90
-16777216
102
RTVSPost2010PropOp51
 70
     0
102
RTVSPost2010Prop52
140
1.0
102
RTVSPost2010PropOp52
 70
     0
102
RTVSPost2010Prop53
 90
        2
102
RTVSPost2010PropOp53
 70
     1
102
RTVSPost2010Prop54
  1
strokes_ogs.tif
102
RTVSPost2010PropOp54
 70
     1
102
RTVSPost2010Prop55
280
     0
102
RTVSPost2010PropOp55
 70
     1
102
RTVSPost2010Prop56
140
1.0
102
RTVSPost2010PropOp56
 70
     1
102
RTVSPost2010Prop57
140
1.0
102
RTVSPost2010PropOp57
 70
     1
  0
ENDSEC
  0
EOF
