  0
SECTION
  2
HEADER
  9
$ACADVER
  1
AC1015
  9
$ACADMAINTVER
 70
    13
  9
$DWGCODEPAGE
  3
ANSI_1252
  9
$INSBASE
 10
0.0
 20
0.0
 30
0.0
  9
$EXTMIN
 10
-37.09635495425426
 20
115.8164430397011
 30
0.0
  9
$EXTMAX
 10
269.5841886287195
 20
268.0892476097203
 30
0.0
  9
$LIMMIN
 10
-37.03908920288085
 20
107.6933288574218
  9
$LIMMAX
 10
269.5269165039062
 20
266.8466186523437
  9
$ORTHOMODE
 70
     0
  9
$REGENMODE
 70
     1
  9
$FILLMODE
 70
     1
  9
$QTEXTMODE
 70
     0
  9
$MIRRTEXT
 70
     1
  9
$LTSCALE
 40
1.0
  9
$ATTMODE
 70
     1
  9
$TEXTSIZE
 40
2.5
  9
$TRACEWID
 40
1.0
  9
$TEXTSTYLE
  7
Standard
  9
$CLAYER
  8
0
  9
$CELTYPE
  6
ByLayer
  9
$CECOLOR
 62
   256
  9
$CELTSCALE
 40
1.0
  9
$DISPSILH
 70
     0
  9
$DIMSCALE
 40
1.0
  9
$DIMASZ
 40
2.5
  9
$DIMEXO
 40
0.625
  9
$DIMDLI
 40
3.75
  9
$DIMRND
 40
0.0
  9
$DIMDLE
 40
0.0
  9
$DIMEXE
 40
1.25
  9
$DIMTP
 40
0.0
  9
$DIMTM
 40
0.0
  9
$DIMTXT
 40
2.5
  9
$DIMCEN
 40
2.5
  9
$DIMTSZ
 40
0.0
  9
$DIMTOL
 70
     0
  9
$DIMLIM
 70
     0
  9
$DIMTIH
 70
     0
  9
$DIMTOH
 70
     0
  9
$DIMSE1
 70
     0
  9
$DIMSE2
 70
     0
  9
$DIMTAD
 70
     1
  9
$DIMZIN
 70
     8
  9
$DIMBLK
  1

  9
$DIMASO
 70
     1
  9
$DIMSHO
 70
     1
  9
$DIMPOST
  1

  9
$DIMAPOST
  1

  9
$DIMALT
 70
     0
  9
$DIMALTD
 70
     3
  9
$DIMALTF
 40
0.03937007874016
  9
$DIMLFAC
 40
1.0
  9
$DIMTOFL
 70
     1
  9
$DIMTVP
 40
0.0
  9
$DIMTIX
 70
     0
  9
$DIMSOXD
 70
     0
  9
$DIMSAH
 70
     0
  9
$DIMBLK1
  1

  9
$DIMBLK2
  1

  9
$DIMSTYLE
  2
ISO-25
  9
$DIMCLRD
 70
     0
  9
$DIMCLRE
 70
     0
  9
$DIMCLRT
 70
     0
  9
$DIMTFAC
 40
1.0
  9
$DIMGAP
 40
0.625
  9
$DIMJUST
 70
     0
  9
$DIMSD1
 70
     0
  9
$DIMSD2
 70
     0
  9
$DIMTOLJ
 70
     0
  9
$DIMTZIN
 70
     8
  9
$DIMALTZ
 70
     0
  9
$DIMALTTZ
 70
     0
  9
$DIMUPT
 70
     0
  9
$DIMDEC
 70
     2
  9
$DIMTDEC
 70
     2
  9
$DIMALTU
 70
     2
  9
$DIMALTTD
 70
     3
  9
$DIMTXSTY
  7
Standard
  9
$DIMAUNIT
 70
     0
  9
$DIMADEC
 70
     0
  9
$DIMALTRND
 40
0.0
  9
$DIMAZIN
 70
     0
  9
$DIMDSEP
 70
    44
  9
$DIMATFIT
 70
     3
  9
$DIMFRAC
 70
     0
  9
$DIMLDRBLK
  1

  9
$DIMLUNIT
 70
     2
  9
$DIMLWD
 70
    -2
  9
$DIMLWE
 70
    -2
  9
$DIMTMOVE
 70
     0
  9
$LUNITS
 70
     2
  9
$LUPREC
 70
     4
  9
$SKETCHINC
 40
1.0
  9
$FILLETRAD
 40
10.0
  9
$AUNITS
 70
     0
  9
$AUPREC
 70
     0
  9
$MENU
  1
.
  9
$ELEVATION
 40
0.0
  9
$PELEVATION
 40
0.0
  9
$THICKNESS
 40
0.0
  9
$LIMCHECK
 70
     0
  9
$CHAMFERA
 40
10.0
  9
$CHAMFERB
 40
10.0
  9
$CHAMFERC
 40
20.0
  9
$CHAMFERD
 40
0.0
  9
$SKPOLY
 70
     0
  9
$TDCREATE
 40
2455520.494878403
  9
$TDUCREATE
 40
2455520.453211736
  9
$TDUPDATE
 40
2455523.586153923
  9
$TDUUPDATE
 40
2455523.544487256
  9
$TDINDWG
 40
0.0002202894
  9
$TDUSRTIMER
 40
0.0002202894
  9
$USRTIMER
 70
     1
  9
$ANGBASE
 50
0.0
  9
$ANGDIR
 70
     0
  9
$PDMODE
 70
     0
  9
$PDSIZE
 40
0.0
  9
$PLINEWID
 40
0.0
  9
$SPLFRAME
 70
     0
  9
$SPLINETYPE
 70
     6
  9
$SPLINESEGS
 70
     8
  9
$HANDSEED
  5
207
  9
$SURFTAB1
 70
     6
  9
$SURFTAB2
 70
     6
  9
$SURFTYPE
 70
     6
  9
$SURFU
 70
     6
  9
$SURFV
 70
     6
  9
$UCSBASE
  2

  9
$UCSNAME
  2

  9
$UCSORG
 10
0.0
 20
0.0
 30
0.0
  9
$UCSXDIR
 10
1.0
 20
0.0
 30
0.0
  9
$UCSYDIR
 10
0.0
 20
1.0
 30
0.0
  9
$UCSORTHOREF
  2

  9
$UCSORTHOVIEW
 70
     0
  9
$UCSORGTOP
 10
0.0
 20
0.0
 30
0.0
  9
$UCSORGBOTTOM
 10
0.0
 20
0.0
 30
0.0
  9
$UCSORGLEFT
 10
0.0
 20
0.0
 30
0.0
  9
$UCSORGRIGHT
 10
0.0
 20
0.0
 30
0.0
  9
$UCSORGFRONT
 10
0.0
 20
0.0
 30
0.0
  9
$UCSORGBACK
 10
0.0
 20
0.0
 30
0.0
  9
$PUCSBASE
  2

  9
$PUCSNAME
  2

  9
$PUCSORG
 10
0.0
 20
0.0
 30
0.0
  9
$PUCSXDIR
 10
1.0
 20
0.0
 30
0.0
  9
$PUCSYDIR
 10
0.0
 20
1.0
 30
0.0
  9
$PUCSORTHOREF
  2

  9
$PUCSORTHOVIEW
 70
     0
  9
$PUCSORGTOP
 10
0.0
 20
0.0
 30
0.0
  9
$PUCSORGBOTTOM
 10
0.0
 20
0.0
 30
0.0
  9
$PUCSORGLEFT
 10
0.0
 20
0.0
 30
0.0
  9
$PUCSORGRIGHT
 10
0.0
 20
0.0
 30
0.0
  9
$PUCSORGFRONT
 10
0.0
 20
0.0
 30
0.0
  9
$PUCSORGBACK
 10
0.0
 20
0.0
 30
0.0
  9
$USERI1
 70
     0
  9
$USERI2
 70
     0
  9
$USERI3
 70
     0
  9
$USERI4
 70
     0
  9
$USERI5
 70
     0
  9
$USERR1
 40
0.0
  9
$USERR2
 40
0.0
  9
$USERR3
 40
0.0
  9
$USERR4
 40
0.0
  9
$USERR5
 40
0.0
  9
$WORLDVIEW
 70
     1
  9
$SHADEDGE
 70
     3
  9
$SHADEDIF
 70
    70
  9
$TILEMODE
 70
     1
  9
$MAXACTVP
 70
    64
  9
$PINSBASE
 10
0.0
 20
0.0
 30
0.0
  9
$PLIMCHECK
 70
     0
  9
$PEXTMIN
 10
1.000000000000000E+20
 20
1.000000000000000E+20
 30
1.000000000000000E+20
  9
$PEXTMAX
 10
-1.000000000000000E+20
 20
-1.000000000000000E+20
 30
-1.000000000000000E+20
  9
$PLIMMIN
 10
0.0
 20
0.0
  9
$PLIMMAX
 10
420.0
 20
297.0
  9
$UNITMODE
 70
     0
  9
$VISRETAIN
 70
     1
  9
$PLINEGEN
 70
     0
  9
$PSLTSCALE
 70
     1
  9
$TREEDEPTH
 70
  3020
  9
$CMLSTYLE
  2
Standard
  9
$CMLJUST
 70
     0
  9
$CMLSCALE
 40
20.0
  9
$PROXYGRAPHICS
 70
     1
  9
$MEASUREMENT
 70
     1
  9
$CELWEIGHT
370
    -1
  9
$ENDCAPS
280
     0
  9
$JOINSTYLE
280
     0
  9
$LWDISPLAY
290
     0
  9
$INSUNITS
 70
     4
  9
$HYPERLINKBASE
  1

  9
$STYLESHEET
  1

  9
$XEDIT
290
     1
  9
$CEPSNTYPE
380
     0
  9
$PSTYLEMODE
290
     1
  9
$FINGERPRINTGUID
  2
{A434AD1E-7486-4B65-89A3-8E1F5183DD66}
  9
$VERSIONGUID
  2
{C8DB48AD-2B8B-416B-A030-682376B6D70D}
  9
$EXTNAMES
290
     1
  9
$PSVPSCALE
 40
0.0
  9
$OLESTARTUP
290
     0
  0
ENDSEC
  0
SECTION
  2
CLASSES
  0
CLASS
  1
ACDBDICTIONARYWDFLT
  2
AcDbDictionaryWithDefault
  3
AutoCAD 2000
 90
        0
280
     0
281
     0
  0
CLASS
  1
VISUALSTYLE
  2
AcDbVisualStyle
  3
ObjectDBX Classes
 90
     4095
280
     0
281
     0
  0
CLASS
  1
DICTIONARYVAR
  2
AcDbDictionaryVar
  3
AutoCAD 2000
 90
        0
280
     0
281
     0
  0
CLASS
  1
ACDBPLACEHOLDER
  2
AcDbPlaceHolder
  3
AutoCAD 2000
 90
        0
280
     0
281
     0
  0
CLASS
  1
LAYOUT
  2
AcDbLayout
  3
AutoCAD 2000
 90
        0
280
     0
281
     0
  0
ENDSEC
  0
SECTION
  2
TABLES
  0
TABLE
  2
VPORT
  5
8
330
0
100
AcDbSymbolTable
 70
     2
  0
VPORT
  5
206
330
8
100
AcDbSymbolTableRecord
100
AcDbViewportTableRecord
  2
*Active
 70
     0
 10
0.0
 20
0.0
 11
1.0
 21
1.0
 12
116.2439143642923
 22
191.9508818164322
 13
0.0
 23
0.0
 14
10.0
 24
10.0
 15
10.0
 25
10.0
 16
0.0
 26
0.0
 36
1.0
 17
0.0
 27
0.0
 37
0.0
 40
161.3792273685571
 41
1.906832298136645
 42
50.0
 43
0.0
 44
0.0
 50
0.0
 51
0.0
 71
     0
 72
   100
 73
     1
 74
     3
 75
     0
 76
     0
 77
     0
 78
     0
281
     0
 65
     1
110
0.0
120
0.0
130
0.0
111
1.0
121
0.0
131
0.0
112
0.0
122
1.0
132
0.0
 79
     0
146
0.0
  0
ENDTAB
  0
TABLE
  2
LTYPE
  5
5
330
0
100
AcDbSymbolTable
 70
     1
  0
LTYPE
  5
14
330
5
100
AcDbSymbolTableRecord
100
AcDbLinetypeTableRecord
  2
ByBlock
 70
     0
  3

 72
    65
 73
     0
 40
0.0
  0
LTYPE
  5
15
330
5
100
AcDbSymbolTableRecord
100
AcDbLinetypeTableRecord
  2
ByLayer
 70
     0
  3

 72
    65
 73
     0
 40
0.0
  0
LTYPE
  5
16
330
5
100
AcDbSymbolTableRecord
100
AcDbLinetypeTableRecord
  2
Continuous
 70
     0
  3
Solid line
 72
    65
 73
     0
 40
0.0
  0
ENDTAB
  0
TABLE
  2
LAYER
  5
2
330
0
100
AcDbSymbolTable
 70
     1
  0
LAYER
  5
10
330
2
100
AcDbSymbolTableRecord
100
AcDbLayerTableRecord
  2
0
 70
     0
 62
   106
  6
Continuous
370
     0
390
F
  0
ENDTAB
  0
TABLE
  2
STYLE
  5
3
330
0
100
AcDbSymbolTable
 70
     4
  0
STYLE
  5
11
330
3
100
AcDbSymbolTableRecord
100
AcDbTextStyleTableRecord
  2
Standard
 70
     0
 40
0.0
 41
1.0
 50
0.0
 71
     0
 42
2.5
  3
txt
  4

  0
STYLE
  5
3B
330
3
100
AcDbSymbolTableRecord
100
AcDbTextStyleTableRecord
  2
Default
 70
     0
 40
0.0
 41
1.0
 50
0.0
 71
     0
 42
0.2
  3
txt_____.ttf
  4

1001
ACAD
1000
txt
1071
        0
  0
STYLE
  5
3C
330
3
100
AcDbSymbolTableRecord
100
AcDbTextStyleTableRecord
  2
ISO
 70
     0
 40
0.0
 41
1.0
 50
0.0
 71
     0
 42
0.2
  3
txt_____.ttf
  4

1001
ACAD
1000
txt
1071
        0
  0
STYLE
  5
3D
330
3
100
AcDbSymbolTableRecord
100
AcDbTextStyleTableRecord
  2
GIANLU
 70
     0
 40
0.0
 41
1.0
 50
0.0
 71
     0
 42
0.2
  3
ARIAL.TTF
  4

1001
ACAD
1000
Arial
1071
        0
  0
ENDTAB
  0
TABLE
  2
VIEW
  5
6
330
0
100
AcDbSymbolTable
 70
     0
  0
ENDTAB
  0
TABLE
  2
UCS
  5
7
330
0
100
AcDbSymbolTable
 70
     0
  0
ENDTAB
  0
TABLE
  2
APPID
  5
9
330
0
100
AcDbSymbolTable
 70
     1
  0
APPID
  5
12
330
9
100
AcDbSymbolTableRecord
100
AcDbRegAppTableRecord
  2
ACAD
 70
     0
  0
ENDTAB
  0
TABLE
  2
DIMSTYLE
  5
A
330
0
100
AcDbSymbolTable
 70
     4
100
AcDbDimStyleTable
 71
     0
  0
DIMSTYLE
105
27
330
A
100
AcDbSymbolTableRecord
100
AcDbDimStyleTableRecord
  2
ISO-25
 70
     0
 41
2.5
 42
0.625
 43
3.75
 44
1.25
 73
     0
 74
     0
 77
     1
 78
     8
140
2.5
141
2.5
143
0.03937007874016
147
0.625
171
     3
172
     1
271
     2
272
     2
274
     3
278
    44
283
     0
284
     8
340
11
  0
DIMSTYLE
105
3E
330
A
100
AcDbSymbolTableRecord
100
AcDbDimStyleTableRecord
  2
Default
 70
     0
  3
<>
 41
4.375
 42
1.05
 44
2.1
 73
     0
 74
     0
 77
     1
 78
     8
140
3.5
146
0.4
147
1.75
178
     3
271
     2
272
     3
284
     8
340
3B
341
3F
342
3F
  0
DIMSTYLE
105
46
330
A
100
AcDbSymbolTableRecord
100
AcDbDimStyleTableRecord
  2
ISO
 70
     0
  3
<>
 41
4.375
 42
1.05
 44
2.1
 73
     0
 74
     0
 77
     1
 78
     8
140
3.5
146
0.4
147
1.75
178
     3
271
     2
272
     3
284
     8
340
3C
341
3F
342
3F
  0
DIMSTYLE
105
47
330
A
100
AcDbSymbolTableRecord
100
AcDbDimStyleTableRecord
  2
zucchetti_unico
 70
     0
  3
<>
 41
3.0
 42
0.9
 44
1.799999999999999
 73
     0
 74
     0
 77
     1
 78
     8
140
3.0
146
0.6
147
1.5
176
   104
177
     3
178
     3
271
     2
272
     2
284
     8
340
3D
  0
ENDTAB
  0
TABLE
  2
BLOCK_RECORD
  5
1
330
0
100
AcDbSymbolTable
 70
     6
  0
BLOCK_RECORD
  5
1F
330
1
100
AcDbSymbolTableRecord
100
AcDbBlockTableRecord
  2
*Model_Space
340
22
  0
BLOCK_RECORD
  5
1B
330
1
100
AcDbSymbolTableRecord
100
AcDbBlockTableRecord
  2
*Paper_Space
340
1E
  0
BLOCK_RECORD
  5
23
330
1
100
AcDbSymbolTableRecord
100
AcDbBlockTableRecord
  2
*Paper_Space0
340
26
  0
BLOCK_RECORD
  5
3F
330
1
100
AcDbSymbolTableRecord
100
AcDbBlockTableRecord
  2
_CLOSED
340
0
  0
BLOCK_RECORD
  5
48
330
1
100
AcDbSymbolTableRecord
100
AcDbBlockTableRecord
  2
a
340
0
102
{BLKREFS
331
79
102
}
  0
BLOCK_RECORD
  5
7A
330
1
100
AcDbSymbolTableRecord
100
AcDbBlockTableRecord
  2
b
340
0
102
{BLKREFS
331
E3
102
}
  0
BLOCK_RECORD
  5
E4
330
1
100
AcDbSymbolTableRecord
100
AcDbBlockTableRecord
  2
c
340
0
102
{BLKREFS
331
16A
102
}
  0
BLOCK_RECORD
  5
16B
330
1
100
AcDbSymbolTableRecord
100
AcDbBlockTableRecord
  2
d
340
0
102
{BLKREFS
331
1F4
102
}
  0
ENDTAB
  0
ENDSEC
  0
SECTION
  2
BLOCKS
  0
BLOCK
  5
20
330
1F
100
AcDbEntity
  8
0
100
AcDbBlockBegin
  2
*Model_Space
 70
     0
 10
0.0
 20
0.0
 30
0.0
  3
*Model_Space
  1

  0
ENDBLK
  5
21
330
1F
100
AcDbEntity
  8
0
100
AcDbBlockEnd
  0
BLOCK
  5
1C
330
1B
100
AcDbEntity
 67
     1
  8
0
100
AcDbBlockBegin
  2
*Paper_Space
 70
     0
 10
0.0
 20
0.0
 30
0.0
  3
*Paper_Space
  1

  0
ENDBLK
  5
1D
330
1B
100
AcDbEntity
 67
     1
  8
0
100
AcDbBlockEnd
  0
BLOCK
  5
24
330
23
100
AcDbEntity
  8
0
100
AcDbBlockBegin
  2
*Paper_Space0
 70
     0
 10
0.0
 20
0.0
 30
0.0
  3
*Paper_Space0
  1

  0
ENDBLK
  5
25
330
23
100
AcDbEntity
  8
0
100
AcDbBlockEnd
  0
BLOCK
  5
40
330
3F
100
AcDbEntity
  8
0
100
AcDbBlockBegin
  2
_CLOSED
 70
     0
 10
0.0
 20
0.0
 30
0.0
  3
_CLOSED
  1

  0
LINE
  5
42
330
3F
100
AcDbEntity
  8
0
  6
ByBlock
 62
     0
370
    -2
100
AcDbLine
 10
-1.0
 20
0.166667
 30
0.0
 11
0.0
 21
0.0
 31
0.0
  0
LINE
  5
43
330
3F
100
AcDbEntity
  8
0
  6
ByBlock
 62
     0
370
    -2
100
AcDbLine
 10
0.0
 20
0.0
 30
0.0
 11
-1.0
 21
-0.166667
 31
0.0
  0
LINE
  5
44
330
3F
100
AcDbEntity
  8
0
  6
ByBlock
 62
     0
370
    -2
100
AcDbLine
 10
-1.0
 20
0.166667
 30
0.0
 11
-1.0
 21
-0.166667
 31
0.0
  0
LINE
  5
45
330
3F
100
AcDbEntity
  8
0
  6
ByBlock
 62
     0
370
    -2
100
AcDbLine
 10
0.0
 20
0.0
 30
0.0
 11
-1.0
 21
0.0
 31
0.0
  0
ENDBLK
  5
41
330
3F
100
AcDbEntity
  8
0
100
AcDbBlockEnd
  0
BLOCK
  5
77
330
48
100
AcDbEntity
  8
0
100
AcDbBlockBegin
  2
a
 70
     0
 10
67.04307556152343
 20
77.13893127441406
 30
0.0
  3
a
  1

  0
CIRCLE
  5
49
330
48
100
AcDbEntity
  8
0
  6
Continuous
 62
     0
370
    30
100
AcDbCircle
 10
113.8243226612125
 20
246.8466069226044
 30
0.0
 40
15.99999999993596
  0
CIRCLE
  5
4A
330
48
100
AcDbEntity
  8
0
  6
Continuous
 62
     0
370
     0
100
AcDbCircle
 10
113.8243226612125
 20
246.8466069226044
 30
0.0
 40
15.49999999993596
  0
CIRCLE
  5
4B
330
48
100
AcDbEntity
  8
0
  6
Continuous
 62
     0
370
     0
100
AcDbCircle
 10
124.8243226612125
 20
246.8466069226044
 30
0.0
 40
1.019670305445643
  0
CIRCLE
  5
4C
330
48
100
AcDbEntity
  8
0
  6
Continuous
 62
     0
370
     0
100
AcDbCircle
 10
124.8243226612125
 20
246.8466069226044
 30
0.0
 40
1.31802688591175
  0
CIRCLE
  5
4D
330
48
100
AcDbEntity
  8
0
  6
Continuous
 62
     0
370
     0
100
AcDbCircle
 10
124.8243226612125
 20
246.8466069226044
 30
0.0
 40
1.770121224023004
  0
CIRCLE
  5
4E
330
48
100
AcDbEntity
  8
0
  6
Continuous
 62
     0
370
     0
100
AcDbCircle
 10
122.2508115355212
 20
253.9172706291563
 30
0.0
 40
1.770121224023004
  0
CIRCLE
  5
4F
330
48
100
AcDbEntity
  8
0
  6
Continuous
 62
     0
370
     0
100
AcDbCircle
 10
115.7344526155487
 20
257.6794922057387
 30
0.0
 40
1.770121224023004
  0
CIRCLE
  5
50
330
48
100
AcDbEntity
  8
0
  6
Continuous
 62
     0
370
     0
100
AcDbCircle
 10
108.3243226612125
 20
256.3728863642332
 30
0.0
 40
1.770121224023002
  0
CIRCLE
  5
51
330
48
100
AcDbEntity
  8
0
  6
Continuous
 62
     0
370
     0
100
AcDbCircle
 10
103.4877038325675
 20
250.6088284991867
 30
0.0
 40
1.770121224023003
  0
CIRCLE
  5
52
330
48
100
AcDbEntity
  8
0
  6
Continuous
 62
     0
370
     0
100
AcDbCircle
 10
103.4877038325675
 20
243.0843853460221
 30
0.0
 40
1.770121224023004
  0
CIRCLE
  5
53
330
48
100
AcDbEntity
  8
0
  6
Continuous
 62
     0
370
     0
100
AcDbCircle
 10
108.3243226612125
 20
237.3203274809756
 30
0.0
 40
1.770121224023002
  0
CIRCLE
  5
54
330
48
100
AcDbEntity
  8
0
  6
Continuous
 62
     0
370
     0
100
AcDbCircle
 10
115.7344526155487
 20
236.0137216394701
 30
0.0
 40
1.770121224023004
  0
CIRCLE
  5
55
330
48
100
AcDbEntity
  8
0
  6
Continuous
 62
     0
370
     0
100
AcDbCircle
 10
122.2508115355212
 20
239.7759432160525
 30
0.0
 40
1.770121224023003
  0
CIRCLE
  5
56
330
48
100
AcDbEntity
  8
0
  6
Continuous
 62
     0
370
     0
100
AcDbCircle
 10
122.2508115355212
 20
239.7759432160525
 30
0.0
 40
1.318026885911744
  0
CIRCLE
  5
57
330
48
100
AcDbEntity
  8
0
  6
Continuous
 62
     0
370
     0
100
AcDbCircle
 10
122.2508115355212
 20
239.7759432160525
 30
0.0
 40
1.471764643556892
  0
CIRCLE
  5
58
330
48
100
AcDbEntity
  8
0
  6
Continuous
 62
     0
370
     0
100
AcDbCircle
 10
115.7344526155487
 20
236.0137216394701
 30
0.0
 40
1.318026885911747
  0
CIRCLE
  5
59
330
48
100
AcDbEntity
  8
0
  6
Continuous
 62
     0
370
     0
100
AcDbCircle
 10
115.7344526155487
 20
236.0137216394701
 30
0.0
 40
1.471764643556893
  0
CIRCLE
  5
5A
330
48
100
AcDbEntity
  8
0
  6
Continuous
 62
     0
370
     0
100
AcDbCircle
 10
108.3243226612125
 20
237.3203274809756
 30
0.0
 40
1.318026885911747
  0
CIRCLE
  5
5B
330
48
100
AcDbEntity
  8
0
  6
Continuous
 62
     0
370
     0
100
AcDbCircle
 10
108.3243226612125
 20
237.3203274809756
 30
0.0
 40
1.471764643556895
  0
CIRCLE
  5
5C
330
48
100
AcDbEntity
  8
0
  6
Continuous
 62
     0
370
     0
100
AcDbCircle
 10
103.4877038325675
 20
243.0843853460221
 30
0.0
 40
1.31802688591175
  0
CIRCLE
  5
5D
330
48
100
AcDbEntity
  8
0
  6
Continuous
 62
     0
370
     0
100
AcDbCircle
 10
103.4877038325675
 20
243.0843853460221
 30
0.0
 40
1.471764643556897
  0
CIRCLE
  5
5E
330
48
100
AcDbEntity
  8
0
  6
Continuous
 62
     0
370
     0
100
AcDbCircle
 10
103.4877038325675
 20
250.6088284991867
 30
0.0
 40
1.318026885911745
  0
CIRCLE
  5
5F
330
48
100
AcDbEntity
  8
0
  6
Continuous
 62
     0
370
     0
100
AcDbCircle
 10
103.4877038325675
 20
250.6088284991867
 30
0.0
 40
1.471764643556892
  0
CIRCLE
  5
60
330
48
100
AcDbEntity
  8
0
  6
Continuous
 62
     0
370
     0
100
AcDbCircle
 10
108.3243226612125
 20
256.3728863642332
 30
0.0
 40
1.318026885911738
  0
CIRCLE
  5
61
330
48
100
AcDbEntity
  8
0
  6
Continuous
 62
     0
370
     0
100
AcDbCircle
 10
108.3243226612125
 20
256.3728863642332
 30
0.0
 40
1.471764643556885
  0
CIRCLE
  5
62
330
48
100
AcDbEntity
  8
0
  6
Continuous
 62
     0
370
     0
100
AcDbCircle
 10
115.7344526155487
 20
257.6794922057387
 30
0.0
 40
1.318026885911746
  0
CIRCLE
  5
63
330
48
100
AcDbEntity
  8
0
  6
Continuous
 62
     0
370
     0
100
AcDbCircle
 10
115.7344526155487
 20
257.6794922057387
 30
0.0
 40
1.471764643556892
  0
CIRCLE
  5
64
330
48
100
AcDbEntity
  8
0
  6
Continuous
 62
     0
370
     0
100
AcDbCircle
 10
122.2508115355212
 20
253.9172706291563
 30
0.0
 40
1.318026885911754
  0
CIRCLE
  5
65
330
48
100
AcDbEntity
  8
0
  6
Continuous
 62
     0
370
     0
100
AcDbCircle
 10
122.2508115355212
 20
253.9172706291563
 30
0.0
 40
1.471764643556901
  0
CIRCLE
  5
66
330
48
100
AcDbEntity
  8
0
  6
Continuous
 62
     0
370
     0
100
AcDbCircle
 10
124.8243226612125
 20
246.8466069226044
 30
0.0
 40
1.471764643556896
  0
CIRCLE
  5
67
330
48
100
AcDbEntity
  8
0
  6
Continuous
 62
     0
370
     0
100
AcDbCircle
 10
122.2508115355212
 20
253.9172706291563
 30
0.0
 40
1.019670305445644
  0
CIRCLE
  5
68
330
48
100
AcDbEntity
  8
0
  6
Continuous
 62
     0
370
     0
100
AcDbCircle
 10
115.7344526155487
 20
257.6794922057387
 30
0.0
 40
1.019670305445645
  0
CIRCLE
  5
69
330
48
100
AcDbEntity
  8
0
  6
Continuous
 62
     0
370
     0
100
AcDbCircle
 10
108.3243226612125
 20
256.3728863642332
 30
0.0
 40
1.019670305445643
  0
CIRCLE
  5
6A
330
48
100
AcDbEntity
  8
0
  6
Continuous
 62
     0
370
     0
100
AcDbCircle
 10
103.4877038325675
 20
250.6088284991867
 30
0.0
 40
1.019670305445643
  0
CIRCLE
  5
6B
330
48
100
AcDbEntity
  8
0
  6
Continuous
 62
     0
370
     0
100
AcDbCircle
 10
103.4877038325675
 20
243.0843853460221
 30
0.0
 40
1.019670305445645
  0
CIRCLE
  5
6C
330
48
100
AcDbEntity
  8
0
  6
Continuous
 62
     0
370
     0
100
AcDbCircle
 10
108.3243226612125
 20
237.3203274809756
 30
0.0
 40
1.019670305445641
  0
CIRCLE
  5
6D
330
48
100
AcDbEntity
  8
0
  6
Continuous
 62
     0
370
     0
100
AcDbCircle
 10
115.7344526155487
 20
236.0137216394701
 30
0.0
 40
1.019670305445645
  0
CIRCLE
  5
6E
330
48
100
AcDbEntity
  8
0
  6
Continuous
 62
     0
370
     0
100
AcDbCircle
 10
122.2508115355212
 20
239.7759432160525
 30
0.0
 40
1.019670305445642
  0
LINE
  5
6F
330
48
100
AcDbEntity
  8
0
  6
Continuous
 62
     0
370
    30
100
AcDbLine
 10
127.8243226612125
 20
226.8466069226044
 30
0.0
 11
99.8243226612125
 21
226.8466069226044
 31
0.0
  0
LINE
  5
70
330
48
100
AcDbEntity
  8
0
  6
Continuous
 62
     0
370
    30
100
AcDbLine
 10
133.8243226612125
 20
260.8466069226044
 30
0.0
 11
133.8243226612125
 21
232.8466069226044
 31
0.0
  0
LINE
  5
71
330
48
100
AcDbEntity
  8
0
  6
Continuous
 62
     0
370
    30
100
AcDbLine
 10
99.82432266121254
 20
266.8466069226044
 30
0.0
 11
127.8243226612125
 21
266.8466069226044
 31
0.0
  0
LINE
  5
72
330
48
100
AcDbEntity
  8
0
  6
Continuous
 62
     0
370
    30
100
AcDbLine
 10
93.82432266121252
 20
232.8466069226045
 30
0.0
 11
93.82432266121254
 21
260.8466069226044
 31
0.0
  0
ARC
  5
73
330
48
100
AcDbEntity
  8
0
  6
Continuous
 62
     0
370
    30
100
AcDbCircle
 10
127.8243226612125
 20
232.8466069226045
 30
0.0
 40
6.0
100
AcDbArc
 50
270.0
 51
359.9999999997767
  0
ARC
  5
74
330
48
100
AcDbEntity
  8
0
  6
Continuous
 62
     0
370
    30
100
AcDbCircle
 10
99.8243226612125
 20
232.8466069226045
 30
0.0
 40
6.0
100
AcDbArc
 50
179.9999999999999
 51
269.9999999997767
  0
ARC
  5
75
330
48
100
AcDbEntity
  8
0
  6
Continuous
 62
     0
370
    30
100
AcDbCircle
 10
127.8243226612125
 20
260.8466069226044
 30
0.0
 40
5.999999999999996
100
AcDbArc
 50
360.0
 51
89.99999999977674
  0
ARC
  5
76
330
48
100
AcDbEntity
  8
0
  6
Continuous
 62
     0
370
    30
100
AcDbCircle
 10
99.82432266121254
 20
260.8466069226044
 30
0.0
 40
6.000000000000003
100
AcDbArc
 50
90.0
 51
179.9999999997766
  0
ENDBLK
  5
78
330
48
100
AcDbEntity
  8
0
100
AcDbBlockEnd
  0
BLOCK
  5
E1
330
7A
100
AcDbEntity
  8
0
100
AcDbBlockBegin
  2
b
 70
     0
 10
67.04307174682617
 20
109.8592681884765
 30
0.0
  3
b
  1

  0
LINE
  5
7B
330
7A
100
AcDbEntity
  8
0
  6
Continuous
 62
     0
370
    30
100
AcDbLine
 10
105.0743188465502
 20
151.8737076935138
 30
0.0
 11
122.5743188464802
 21
151.8737076935138
 31
0.0
  0
LINE
  5
7C
330
7A
100
AcDbEntity
  8
0
  6
Continuous
 62
     0
370
    30
100
AcDbLine
 10
102.3243188465612
 20
154.3737076935038
 30
0.0
 11
108.8243188465152
 21
154.3737076935038
 31
0.0
  0
LINE
  5
7D
330
7A
100
AcDbEntity
  8
0
  6
Continuous
 62
     0
370
    30
100
AcDbLine
 10
108.8243188465152
 20
154.3737072408218
 30
0.0
 11
108.8243188465152
 21
154.083107154158
 31
0.0
  0
LWPOLYLINE
  5
7E
330
7A
100
AcDbEntity
  8
0
  6
Continuous
 62
     0
370
    30
100
AcDbPolyline
 90
        9
 70
     0
 43
0.0
 10
108.8243179321288
 20
154.0831146240234
 10
110.0322570800781
 20
153.6417388916015
 10
111.2725524902343
 20
153.3013763427734
 10
112.5403289794921
 20
153.0847473144531
 10
113.8243179321289
 20
153.0101623535156
 10
115.1083068847656
 20
153.0847625732421
 10
116.3760833740234
 20
153.3013916015625
 10
117.6163787841796
 20
153.6417388916015
 10
118.8243179321289
 20
154.0831146240234
  0
LINE
  5
7F
330
7A
100
AcDbEntity
  8
0
  6
Continuous
 62
     0
370
    30
100
AcDbLine
 10
118.8243188465152
 20
154.083107154158
 30
0.0
 11
118.8243188465152
 21
154.3737072408218
 31
0.0
  0
LINE
  5
80
330
7A
100
AcDbEntity
  8
0
  6
Continuous
 62
     0
370
    30
100
AcDbLine
 10
118.8243188465152
 20
154.3737076935038
 30
0.0
 11
125.3243188464692
 21
154.3737076935038
 31
0.0
  0
LINE
  5
81
330
7A
100
AcDbEntity
  8
0
  6
Continuous
 62
     0
370
    30
100
AcDbLine
 10
118.8243188465152
 20
154.3737072408218
 30
0.0
 11
118.8243188465152
 21
156.3737072407718
 31
0.0
  0
LINE
  5
82
330
7A
100
AcDbEntity
  8
0
  6
Continuous
 62
     0
370
    30
100
AcDbLine
 10
118.8243188465152
 20
156.3737076934539
 30
0.0
 11
108.8243188465152
 21
156.3737076934539
 31
0.0
  0
LINE
  5
83
330
7A
100
AcDbEntity
  8
0
  6
Continuous
 62
     0
370
    30
100
AcDbLine
 10
108.8243188465152
 20
156.3737072407718
 30
0.0
 11
108.8243188465152
 21
154.3737072408218
 31
0.0
  0
LINE
  5
84
330
7A
100
AcDbEntity
  8
0
  6
Continuous
 62
     0
370
     0
100
AcDbLine
 10
97.82431884657929
 20
118.3737076936499
 30
0.0
 11
129.8243188464512
 21
118.3737076936499
 31
0.0
  0
LINE
  5
85
330
7A
100
AcDbEntity
  8
0
  6
Continuous
 62
     0
370
    30
100
AcDbLine
 10
129.3243188464512
 20
117.8737076936499
 30
0.0
 11
98.32431884657928
 21
117.8737076936499
 31
0.0
  0
LINE
  5
86
330
7A
100
AcDbEntity
  8
0
  6
Continuous
 62
     0
370
    30
100
AcDbLine
 10
125.8439891519609
 20
115.8737076936499
 30
0.0
 11
123.8046485410696
 21
115.8737076936499
 31
0.0
  0
ARC
  5
87
330
7A
100
AcDbEntity
  8
0
  6
Continuous
 62
     0
370
    30
100
AcDbCircle
 10
125.8439891519609
 20
116.1737077055709
 30
0.0
 40
0.3000000119209289
100
AcDbArc
 50
270.0
 51
353.9999999997931
  0
LINE
  5
88
330
7A
100
AcDbEntity
  8
0
  6
Continuous
 62
     0
370
     0
100
AcDbLine
 10
126.1423457324269
 20
116.1423491653445
 30
0.0
 11
123.5688346067357
 21
116.1423491653445
 31
0.0
  0
LINE
  5
89
330
7A
100
AcDbEntity
  8
0
  6
Continuous
 62
     0
370
     0
100
AcDbLine
 10
102.1696731319585
 20
116.1423490008925
 30
0.0
 11
102.2491598791815
 21
116.1423490008925
 31
0.0
  0
LINE
  5
8A
330
7A
100
AcDbEntity
  8
0
  6
Continuous
 62
     0
370
     0
100
AcDbLine
 10
102.2491598791815
 20
116.1423490008925
 30
0.0
 11
104.805726903782
 21
116.1423490008925
 31
0.0
  0
LINE
  5
8B
330
7A
100
AcDbEntity
  8
0
  6
Continuous
 62
     0
370
     0
100
AcDbLine
 10
104.9594646614271
 20
117.6050660575034
 30
0.0
 11
102.1046936427862
 21
117.6050660575034
 31
0.0
  0
LINE
  5
8C
330
7A
100
AcDbEntity
  8
0
  6
Continuous
 62
     0
370
     0
100
AcDbLine
 10
102.1046936427862
 20
117.6050660575034
 30
0.0
 11
102.0159353743133
 21
117.6050660575034
 31
0.0
  0
LINE
  5
8D
330
7A
100
AcDbEntity
  8
0
  6
Continuous
 62
     0
370
     0
100
AcDbLine
 10
107.0062919606035
 20
116.1423487489376
 30
0.0
 11
107.6653054035593
 21
116.1423487489376
 31
0.0
  0
LINE
  5
8E
330
7A
100
AcDbEntity
  8
0
  6
Continuous
 62
     0
370
     0
100
AcDbLine
 10
107.6653054035593
 20
116.1423487489376
 30
0.0
 11
109.642345732427
 21
116.1423487489376
 31
0.0
  0
LINE
  5
8F
330
7A
100
AcDbEntity
  8
0
  6
Continuous
 62
     0
370
     0
100
AcDbLine
 10
109.7960834900721
 20
117.6050658055485
 30
0.0
 11
107.5884365247368
 21
117.6050658055485
 31
0.0
  0
LINE
  5
90
330
7A
100
AcDbEntity
  8
0
  6
Continuous
 62
     0
370
     0
100
AcDbLine
 10
107.5884365247368
 20
117.6050658055485
 30
0.0
 11
106.8525542029583
 21
117.6050658055485
 31
0.0
  0
LINE
  5
91
330
7A
100
AcDbEntity
  8
0
  6
Continuous
 62
     0
370
     0
100
AcDbLine
 10
114.4164219149397
 20
116.142348691824
 30
0.0
 11
115.963321767706
 21
116.142348691824
 31
0.0
  0
LINE
  5
92
330
7A
100
AcDbEntity
  8
0
  6
Continuous
 62
     0
370
     0
100
AcDbLine
 10
115.963321767706
 20
116.142348691824
 30
0.0
 11
117.0524756867632
 21
116.142348691824
 31
0.0
  0
LINE
  5
93
330
7A
100
AcDbEntity
  8
0
  6
Continuous
 62
     0
370
     0
100
AcDbLine
 10
117.2062134444083
 20
117.6050657484349
 30
0.0
 11
115.9900180491597
 21
117.6050657484349
 31
0.0
  0
LINE
  5
94
330
7A
100
AcDbEntity
  8
0
  6
Continuous
 62
     0
370
     0
100
AcDbLine
 10
115.9900180491597
 20
117.6050657484349
 30
0.0
 11
114.2626841572945
 21
117.6050657484349
 31
0.0
  0
LINE
  5
95
330
7A
100
AcDbEntity
  8
0
  6
Continuous
 62
     0
370
     0
100
AcDbLine
 10
120.9327808349122
 20
116.1423488562759
 30
0.0
 11
123.2604748926581
 21
116.1423488562759
 31
0.0
  0
LINE
  5
96
330
7A
100
AcDbEntity
  8
0
  6
Continuous
 62
     0
370
     0
100
AcDbLine
 10
123.2604748926581
 20
116.1423488562759
 30
0.0
 11
123.5688346067357
 21
116.1423488562759
 31
0.0
  0
LINE
  5
97
330
7A
100
AcDbEntity
  8
0
  6
Continuous
 62
     0
370
     0
100
AcDbLine
 10
123.7225723643809
 20
117.6050659128868
 30
0.0
 11
123.3782448475997
 21
117.6050659128868
 31
0.0
  0
LINE
  5
98
330
7A
100
AcDbEntity
  8
0
  6
Continuous
 62
     0
370
     0
100
AcDbLine
 10
123.3782448475997
 20
117.6050659128868
 30
0.0
 11
120.7790430772671
 21
117.6050659128868
 31
0.0
  0
LINE
  5
99
330
7A
100
AcDbEntity
  8
0
  6
Continuous
 62
     0
370
    30
100
AcDbLine
 10
126.1423457324269
 20
116.1423491653445
 30
0.0
 11
126.2960834900721
 21
117.6050662219554
 31
0.0
  0
LINE
  5
9A
330
7A
100
AcDbEntity
  8
0
  6
Continuous
 62
     0
370
     0
100
AcDbLine
 10
126.2960834900721
 20
117.6050662219554
 30
0.0
 11
123.7225723643809
 21
117.6050662219554
 31
0.0
  0
LINE
  5
9B
330
7A
100
AcDbEntity
  8
0
  6
Continuous
 62
     0
370
    30
100
AcDbLine
 10
123.2704780262696
 20
115.8737073845814
 30
0.0
 11
123.031920492124
 21
115.8737073845814
 31
0.0
  0
LINE
  5
9C
330
7A
100
AcDbEntity
  8
0
  6
Continuous
 62
     0
370
    30
100
AcDbLine
 10
123.031920492124
 20
115.8737073845814
 30
0.0
 11
121.2311374153783
 21
115.8737073845814
 31
0.0
  0
LINE
  5
9D
330
7A
100
AcDbEntity
  8
0
  6
Continuous
 62
     0
370
    30
100
AcDbLine
 10
116.7541191062971
 20
115.8737072201295
 30
0.0
 11
115.9115126912132
 21
115.8737072201295
 31
0.0
  0
LINE
  5
9E
330
7A
100
AcDbEntity
  8
0
  6
Continuous
 62
     0
370
    30
100
AcDbLine
 10
115.9115126912132
 20
115.8737072201295
 30
0.0
 11
114.7147784954058
 21
115.8737072201295
 31
0.0
  0
LINE
  5
9F
330
7A
100
AcDbEntity
  8
0
  6
Continuous
 62
     0
370
    30
100
AcDbLine
 10
109.3439891519609
 20
115.873707277243
 30
0.0
 11
107.8144836937924
 21
115.873707277243
 31
0.0
  0
LINE
  5
A0
330
7A
100
AcDbEntity
  8
0
  6
Continuous
 62
     0
370
    30
100
AcDbLine
 10
107.8144836937924
 20
115.873707277243
 30
0.0
 11
107.3046485410696
 21
115.873707277243
 31
0.0
  0
LINE
  5
A1
330
7A
100
AcDbEntity
  8
0
  6
Continuous
 62
     0
370
    30
100
AcDbLine
 10
104.5073703233158
 20
115.873707529198
 30
0.0
 11
102.5295233562084
 21
115.873707529198
 31
0.0
  0
LINE
  5
A2
330
7A
100
AcDbEntity
  8
0
  6
Continuous
 62
     0
370
    30
100
AcDbLine
 10
102.5295233562084
 20
115.873707529198
 30
0.0
 11
102.4680297124246
 21
115.873707529198
 31
0.0
  0
ARC
  5
A3
330
7A
100
AcDbEntity
  8
0
  6
Continuous
 62
     0
370
    30
100
AcDbCircle
 10
126.5944400705382
 20
117.573707681729
 30
0.0
 40
0.3000000119209299
100
AcDbArc
 50
90.00000000020838
 51
173.9999999999988
  0
LINE
  5
A4
330
7A
100
AcDbEntity
  8
0
  6
Continuous
 62
     0
370
    30
100
AcDbLine
 10
129.5243188345303
 20
146.8737076935338
 30
0.0
 11
98.12431885850022
 21
146.8737076935338
 31
0.0
  0
LINE
  5
A5
330
7A
100
AcDbEntity
  8
0
  6
Continuous
 62
     0
370
     0
100
AcDbLine
 10
129.8243188464512
 20
146.5737076816129
 30
0.0
 11
97.82431884657929
 21
146.5737076816129
 31
0.0
  0
LINE
  5
A6
330
7A
100
AcDbEntity
  8
0
  6
Continuous
 62
     0
370
     0
100
AcDbLine
 10
97.82431884657929
 20
129.073707681683
 30
0.0
 11
129.8243188464512
 21
129.073707681683
 31
0.0
  0
LINE
  5
A7
330
7A
100
AcDbEntity
  8
0
  6
Continuous
 62
     0
370
    30
100
AcDbLine
 10
129.5243188345302
 20
129.3737076936039
 30
0.0
 11
98.12431885850022
 21
129.3737076936039
 31
0.0
  0
LINE
  5
A8
330
7A
100
AcDbEntity
  8
0
  6
Continuous
 62
     0
370
     0
100
AcDbLine
 10
129.8243188464512
 20
130.6737077055209
 30
0.0
 11
97.82431884657929
 21
130.6737077055209
 31
0.0
  0
LINE
  5
A9
330
7A
100
AcDbEntity
  8
0
  6
Continuous
 62
     0
370
    30
100
AcDbLine
 10
98.12431885850022
 20
130.3737076936
 30
0.0
 11
129.5243188345303
 21
130.3737076936
 31
0.0
  0
LINE
  5
AA
330
7A
100
AcDbEntity
  8
0
  6
Continuous
 62
     0
370
    30
100
AcDbLine
 10
133.8243188465152
 20
166.8737070814944
 30
0.0
 11
133.8243188465152
 21
176.8737070814944
 31
0.0
  0
LINE
  5
AB
330
7A
100
AcDbEntity
  8
0
  6
Continuous
 62
     0
370
     0
100
AcDbLine
 10
127.8243188465152
 20
166.8737068192261
 30
0.0
 11
127.8243188465152
 21
176.8737068192261
 31
0.0
  0
LINE
  5
AC
330
7A
100
AcDbEntity
  8
0
  6
Continuous
 62
     0
370
     0
100
AcDbLine
 10
99.82431884651527
 20
166.8737068192261
 30
0.0
 11
99.82431884651527
 21
176.8737068192261
 31
0.0
  0
LINE
  5
AD
330
7A
100
AcDbEntity
  8
0
  6
Continuous
 62
     0
370
    30
100
AcDbLine
 10
93.82431884651527
 20
166.8737070814945
 30
0.0
 11
93.82431884651527
 21
176.8737070814944
 31
0.0
  0
LINE
  5
AE
330
7A
100
AcDbEntity
  8
0
  6
Continuous
 62
     0
370
    30
100
AcDbLine
 10
99.82431884651527
 20
166.8737068192261
 30
0.0
 11
127.8243188465152
 21
166.8737068192261
 31
0.0
  0
LINE
  5
AF
330
7A
100
AcDbEntity
  8
0
  6
Continuous
 62
     0
370
    30
100
AcDbLine
 10
99.82431884651527
 20
176.8737068192261
 30
0.0
 11
127.8243188465152
 21
176.8737068192261
 31
0.0
  0
LINE
  5
B0
330
7A
100
AcDbEntity
  8
0
  6
Continuous
 62
     0
370
    30
100
AcDbLine
 10
133.8243188465152
 20
166.8737070814945
 30
0.0
 11
127.8243188465152
 21
166.8737070814945
 31
0.0
  0
LINE
  5
B1
330
7A
100
AcDbEntity
  8
0
  6
Continuous
 62
     0
370
    30
100
AcDbLine
 10
133.8243188465152
 20
176.8737070814944
 30
0.0
 11
127.8243188465152
 21
176.8737070814944
 31
0.0
  0
LINE
  5
B2
330
7A
100
AcDbEntity
  8
0
  6
Continuous
 62
     0
370
    30
100
AcDbLine
 10
99.82431884651527
 20
166.8737070814945
 30
0.0
 11
93.82431884651527
 21
166.8737070814945
 31
0.0
  0
LINE
  5
B3
330
7A
100
AcDbEntity
  8
0
  6
Continuous
 62
     0
370
    30
100
AcDbLine
 10
99.82431884651527
 20
176.8737070814944
 30
0.0
 11
93.82431884651527
 21
176.8737070814944
 31
0.0
  0
ARC
  5
B4
330
7A
100
AcDbEntity
  8
0
  6
Continuous
 62
     0
370
    30
100
AcDbCircle
 10
129.5243188345302
 20
129.073707681683
 30
0.0
 40
0.3000000119209289
100
AcDbArc
 50
0.0000000002232495
 51
90.0
  0
ARC
  5
B5
330
7A
100
AcDbEntity
  8
0
  6
Continuous
 62
     0
370
    30
100
AcDbCircle
 10
98.12431885850022
 20
129.073707681683
 30
0.0
 40
0.3000000119209289
100
AcDbArc
 50
90.0
 51
179.9999999997767
  0
ARC
  5
B6
330
7A
100
AcDbEntity
  8
0
  6
Continuous
 62
     0
370
    30
100
AcDbCircle
 10
129.5243188345302
 20
130.6737077055209
 30
0.0
 40
0.3000000119209289
100
AcDbArc
 50
270.0
 51
359.9999999997767
  0
ARC
  5
B7
330
7A
100
AcDbEntity
  8
0
  6
Continuous
 62
     0
370
    30
100
AcDbCircle
 10
98.12431885850022
 20
130.6737077055209
 30
0.0
 40
0.3000000119209289
100
AcDbArc
 50
180.0000000002232
 51
270.0
  0
LINE
  5
B8
330
7A
100
AcDbEntity
  8
0
  6
Continuous
 62
     0
370
    30
100
AcDbLine
 10
129.8243188464512
 20
130.6737077055209
 30
0.0
 11
129.8243188464512
 21
146.573707681613
 31
0.0
  0
LINE
  5
B9
330
7A
100
AcDbEntity
  8
0
  6
Continuous
 62
     0
370
    30
100
AcDbLine
 10
97.82431884657929
 20
130.6737077055209
 30
0.0
 11
97.82431884657929
 21
146.573707681613
 31
0.0
  0
LINE
  5
BA
330
7A
100
AcDbEntity
  8
0
  6
Continuous
 62
     0
370
    30
100
AcDbLine
 10
129.8243188464512
 20
118.3737076936499
 30
0.0
 11
129.8243188464512
 21
129.073707681683
 31
0.0
  0
LINE
  5
BB
330
7A
100
AcDbEntity
  8
0
  6
Continuous
 62
     0
370
    30
100
AcDbLine
 10
97.82431884657929
 20
118.3737076936499
 30
0.0
 11
97.82431884657929
 21
129.073707681683
 31
0.0
  0
ARC
  5
BC
330
7A
100
AcDbEntity
  8
0
  6
Continuous
 62
     0
370
    30
100
AcDbCircle
 10
129.5243188345302
 20
146.5737076816129
 30
0.0
 40
0.3000000119209289
100
AcDbArc
 50
0.0000000002232495
 51
90.0
  0
ARC
  5
BD
330
7A
100
AcDbEntity
  8
0
  6
Continuous
 62
     0
370
    30
100
AcDbCircle
 10
98.12431885850022
 20
146.5737076816129
 30
0.0
 40
0.3000000119209289
100
AcDbArc
 50
90.0
 51
179.9999999997767
  0
ARC
  5
BE
330
7A
100
AcDbEntity
  8
0
  6
Continuous
 62
     0
370
    30
100
AcDbCircle
 10
101.7175787938472
 20
117.5737075172771
 30
0.0
 40
0.3000000119209282
100
AcDbArc
 50
6.000000000001136
 51
89.99999999979165
  0
ARC
  5
BF
330
7A
100
AcDbEntity
  8
0
  6
Continuous
 62
     0
370
    30
100
AcDbCircle
 10
105.2578212418932
 20
117.5737075172771
 30
0.0
 40
0.3000000119209282
100
AcDbArc
 50
90.00000000020836
 51
173.9999999999988
  0
ARC
  5
C0
330
7A
100
AcDbEntity
  8
0
  6
Continuous
 62
     0
370
    30
100
AcDbCircle
 10
106.5541976224922
 20
117.5737072653221
 30
0.0
 40
0.3000000119209282
100
AcDbArc
 50
6.000000000001136
 51
89.99999999979165
  0
ARC
  5
C1
330
7A
100
AcDbEntity
  8
0
  6
Continuous
 62
     0
370
    30
100
AcDbCircle
 10
110.0944400705382
 20
117.5737072653221
 30
0.0
 40
0.3000000119209282
100
AcDbArc
 50
90.00000000020836
 51
173.9999999999988
  0
ARC
  5
C2
330
7A
100
AcDbEntity
  8
0
  6
Continuous
 62
     0
370
    30
100
AcDbCircle
 10
113.9643275768284
 20
117.5737072082085
 30
0.0
 40
0.3000000119209282
100
AcDbArc
 50
6.000000000001136
 51
89.9999999997903
  0
ARC
  5
C3
330
7A
100
AcDbEntity
  8
0
  6
Continuous
 62
     0
370
    30
100
AcDbCircle
 10
117.5045700248744
 20
117.5737072082085
 30
0.0
 40
0.3000000119209282
100
AcDbArc
 50
90.00000000020701
 51
173.9999999999988
  0
ARC
  5
C4
330
7A
100
AcDbEntity
  8
0
  6
Continuous
 62
     0
370
    30
100
AcDbCircle
 10
120.480686496801
 20
117.5737073726605
 30
0.0
 40
0.3000000119209282
100
AcDbArc
 50
6.000000000001136
 51
89.99999999979165
  0
ARC
  5
C5
330
7A
100
AcDbEntity
  8
0
  6
Continuous
 62
     0
370
    30
100
AcDbCircle
 10
124.020928944847
 20
117.5737073726605
 30
0.0
 40
0.3000000119209282
100
AcDbArc
 50
90.00000000020836
 51
173.9999999999988
  0
ARC
  5
C6
330
7A
100
AcDbEntity
  8
0
  6
Continuous
 62
     0
370
    30
100
AcDbCircle
 10
121.2311374153783
 20
116.1737073965023
 30
0.0
 40
0.3000000119209289
100
AcDbArc
 50
186.0000000002068
 51
270.0
  0
ARC
  5
C7
330
7A
100
AcDbEntity
  8
0
  6
Continuous
 62
     0
370
    30
100
AcDbCircle
 10
123.2704780262696
 20
116.1737073965023
 30
0.0
 40
0.3000000119209289
100
AcDbArc
 50
270.0
 51
353.9999999997931
  0
ARC
  5
C8
330
7A
100
AcDbEntity
  8
0
  6
Continuous
 62
     0
370
    30
100
AcDbCircle
 10
114.7147784954058
 20
116.1737072320504
 30
0.0
 40
0.3000000119209289
100
AcDbArc
 50
186.0000000002068
 51
270.0
  0
ARC
  5
C9
330
7A
100
AcDbEntity
  8
0
  6
Continuous
 62
     0
370
    30
100
AcDbCircle
 10
116.7541191062971
 20
116.1737072320504
 30
0.0
 40
0.3000000119209289
100
AcDbArc
 50
270.0
 51
353.9999999997931
  0
ARC
  5
CA
330
7A
100
AcDbEntity
  8
0
  6
Continuous
 62
     0
370
    30
100
AcDbCircle
 10
107.3046485410696
 20
116.173707289164
 30
0.0
 40
0.3000000119209289
100
AcDbArc
 50
186.0000000002068
 51
270.0
  0
ARC
  5
CB
330
7A
100
AcDbEntity
  8
0
  6
Continuous
 62
     0
370
    30
100
AcDbCircle
 10
109.3439891519609
 20
116.173707289164
 30
0.0
 40
0.3000000119209289
100
AcDbArc
 50
270.0
 51
353.9999999997931
  0
ARC
  5
CC
330
7A
100
AcDbEntity
  8
0
  6
Continuous
 62
     0
370
    30
100
AcDbCircle
 10
102.4680297124246
 20
116.1737075411189
 30
0.0
 40
0.3000000119209289
100
AcDbArc
 50
186.0000000002068
 51
270.0
  0
ARC
  5
CD
330
7A
100
AcDbEntity
  8
0
  6
Continuous
 62
     0
370
    30
100
AcDbCircle
 10
104.5073703233159
 20
116.1737075411189
 30
0.0
 40
0.3000000119209289
100
AcDbArc
 50
270.0
 51
353.9999999997931
  0
LINE
  5
CE
330
7A
100
AcDbEntity
  8
0
  6
Continuous
 62
     0
370
    30
100
AcDbLine
 10
120.7790430772671
 20
117.6050659128868
 30
0.0
 11
120.9327808349122
 21
116.142348856276
 31
0.0
  0
LINE
  5
CF
330
7A
100
AcDbEntity
  8
0
  6
Continuous
 62
     0
370
    30
100
AcDbLine
 10
123.7225723643809
 20
117.6050659128868
 30
0.0
 11
123.5688346067357
 21
116.142348856276
 31
0.0
  0
LINE
  5
D0
330
7A
100
AcDbEntity
  8
0
  6
Continuous
 62
     0
370
    30
100
AcDbLine
 10
114.2626841572946
 20
117.6050657484349
 30
0.0
 11
114.4164219149397
 21
116.142348691824
 31
0.0
  0
LINE
  5
D1
330
7A
100
AcDbEntity
  8
0
  6
Continuous
 62
     0
370
    30
100
AcDbLine
 10
117.2062134444083
 20
117.6050657484349
 30
0.0
 11
117.0524756867632
 21
116.142348691824
 31
0.0
  0
LINE
  5
D2
330
7A
100
AcDbEntity
  8
0
  6
Continuous
 62
     0
370
    30
100
AcDbLine
 10
106.8525542029583
 20
117.6050658055485
 30
0.0
 11
107.0062919606035
 21
116.1423487489376
 31
0.0
  0
LINE
  5
D3
330
7A
100
AcDbEntity
  8
0
  6
Continuous
 62
     0
370
    30
100
AcDbLine
 10
109.7960834900721
 20
117.6050658055485
 30
0.0
 11
109.6423457324269
 21
116.1423487489376
 31
0.0
  0
LINE
  5
D4
330
7A
100
AcDbEntity
  8
0
  6
Continuous
 62
     0
370
    30
100
AcDbLine
 10
102.0159353743133
 20
117.6050660575034
 30
0.0
 11
102.1696731319585
 21
116.1423490008925
 31
0.0
  0
LINE
  5
D5
330
7A
100
AcDbEntity
  8
0
  6
Continuous
 62
     0
370
    30
100
AcDbLine
 10
104.9594646614271
 20
117.6050660575034
 30
0.0
 11
104.805726903782
 21
116.1423490008925
 31
0.0
  0
ARC
  5
D6
330
7A
100
AcDbEntity
  8
0
  6
Continuous
 62
     0
370
    30
100
AcDbCircle
 10
123.8046485410696
 20
116.1737077055709
 30
0.0
 40
0.3000000119209289
100
AcDbArc
 50
207.091024470534
 51
270.0
  0
ARC
  5
D7
330
7A
100
AcDbEntity
  8
0
  6
Continuous
 62
     0
370
    30
100
AcDbCircle
 10
129.3243188464512
 20
118.3737076936499
 30
0.0
 40
0.5
100
AcDbArc
 50
270.0000000002232
 51
0.0
  0
ARC
  5
D8
330
7A
100
AcDbEntity
  8
0
  6
Continuous
 62
     0
370
    30
100
AcDbCircle
 10
98.32431884657928
 20
118.3737076936499
 30
0.0
 40
0.5
100
AcDbArc
 50
180.0
 51
269.9999999997767
  0
LINE
  5
D9
330
7A
100
AcDbEntity
  8
0
  6
Continuous
 62
     0
370
    30
100
AcDbLine
 10
125.3243188464692
 20
154.3737076935039
 30
0.0
 11
125.3243188464692
 21
166.8737076934539
 31
0.0
  0
LINE
  5
DA
330
7A
100
AcDbEntity
  8
0
  6
Continuous
 62
     0
370
    30
100
AcDbLine
 10
102.3243188465612
 20
154.3737076935039
 30
0.0
 11
102.3243188465612
 21
166.8737076934539
 31
0.0
  0
LINE
  5
DB
330
7A
100
AcDbEntity
  8
0
  6
Continuous
 62
     0
370
    30
100
AcDbLine
 10
122.5743188464802
 20
151.8737076935138
 30
0.0
 11
125.3243188464692
 21
154.3737076935038
 31
0.0
  0
LINE
  5
DC
330
7A
100
AcDbEntity
  8
0
  6
Continuous
 62
     0
370
    30
100
AcDbLine
 10
105.0743188465502
 20
151.8737076935138
 30
0.0
 11
102.3243188465612
 21
154.3737076935038
 31
0.0
  0
ARC
  5
DD
330
7A
100
AcDbEntity
  8
0
  6
Continuous
 62
     0
370
    30
100
AcDbCircle
 10
117.6044316963442
 20
145.884019760952
 30
0.0
 40
7.783067506745879
100
AcDbArc
 50
7.305458776335447
 51
50.31612870902202
  0
ARC
  5
DE
330
7A
100
AcDbEntity
  8
0
  6
Continuous
 62
     0
370
    30
100
AcDbCircle
 10
110.0442059966862
 20
145.884019760952
 30
0.0
 40
7.783067506745879
100
AcDbArc
 50
129.6838712909779
 51
172.6945412236645
  0
LINE
  5
DF
330
7A
100
AcDbEntity
  8
0
  6
Continuous
 62
     0
370
    30
100
AcDbLine
 10
126.8243188464632
 20
129.3737076936038
 30
0.0
 11
126.8243188464632
 21
130.3737076936
 31
0.0
  0
LINE
  5
E0
330
7A
100
AcDbEntity
  8
0
  6
Continuous
 62
     0
370
    30
100
AcDbLine
 10
100.8243188465673
 20
129.3737076936038
 30
0.0
 11
100.8243188465673
 21
130.3737076936
 31
0.0
  0
ENDBLK
  5
E2
330
7A
100
AcDbEntity
  8
0
100
AcDbBlockEnd
  0
BLOCK
  5
168
330
E4
100
AcDbEntity
  8
0
100
AcDbBlockBegin
  2
c
 70
     0
 10
10.39433288574218
 20
77.13892364501953
 30
0.0
  3
c
  1

  0
LINE
  5
E5
330
E4
100
AcDbEntity
  8
0
  6
Continuous
 62
     0
370
    30
100
AcDbLine
 10
256.0269239965094
 20
233.846614552051
 30
0.0
 11
255.0269239965131
 21
233.846614552051
 31
0.0
  0
ARC
  5
E6
330
E4
100
AcDbEntity
  8
0
  6
Continuous
 62
     0
370
    30
100
AcDbCircle
 10
239.5166119291611
 20
243.06650170217
 30
0.0
 40
7.783067506745879
100
AcDbArc
 50
219.6838712909779
 51
262.6945412236644
  0
LINE
  5
E7
330
E4
100
AcDbEntity
  8
0
  6
Continuous
 62
     0
370
    30
100
AcDbLine
 10
233.5269239965994
 20
238.096614552034
 30
0.0
 11
233.5269239965994
 21
255.596614551964
 31
0.0
  0
LINE
  5
E8
330
E4
100
AcDbEntity
  8
0
  6
Continuous
 62
     0
370
    30
100
AcDbLine
 10
233.5269239965994
 20
238.0966145520339
 30
0.0
 11
232.3905603602039
 21
236.846614551999
 31
0.0
  0
LWPOLYLINE
  5
E9
330
E4
100
AcDbEntity
  8
0
  6
Continuous
 62
     0
370
    30
100
AcDbPolyline
 90
        5
 70
     0
 43
0.0
 10
232.3905639648437
 20
236.8466186523437
 10
232.3158111572265
 20
236.8466033935546
 10
232.0991821289062
 20
236.8466033935546
 10
231.7588653564452
 20
236.8466033935546
 10
231.3175201416015
 20
236.8466186523437
  0
LINE
  5
EA
330
E4
100
AcDbEntity
  8
0
  6
Continuous
 62
     0
370
    30
100
AcDbLine
 10
231.3175243173982
 20
236.846614551999
 30
0.0
 11
231.0269242151663
 21
236.4904569634461
 31
0.0
  0
LINE
  5
EB
330
E4
100
AcDbEntity
  8
0
  6
Continuous
 62
     0
370
    30
100
AcDbLine
 10
231.0269239966094
 20
236.4904569634461
 30
0.0
 11
231.0269239966094
 21
257.2027721405519
 31
0.0
  0
LINE
  5
EC
330
E4
100
AcDbEntity
  8
0
  6
Continuous
 62
     0
370
    30
100
AcDbLine
 10
231.0269242151663
 20
257.2027721405519
 30
0.0
 11
231.3175243173982
 21
256.8466145519989
 31
0.0
  0
LINE
  5
ED
330
E4
100
AcDbEntity
  8
0
  6
Continuous
 62
     0
370
    30
100
AcDbLine
 10
231.3175243173982
 20
256.8466145519989
 30
0.0
 11
232.3904736206519
 21
256.84661709753
 31
0.0
  0
LINE
  5
EE
330
E4
100
AcDbEntity
  8
0
  6
Continuous
 62
     0
370
    30
100
AcDbLine
 10
218.5269239966593
 20
235.3466145520449
 30
0.0
 11
229.0269239966593
 21
235.3466145520449
 31
0.0
  0
LINE
  5
EF
330
E4
100
AcDbEntity
  8
0
  6
Continuous
 62
     0
370
    30
100
AcDbLine
 10
229.0269239966593
 20
258.3466145519529
 30
0.0
 11
229.0269239966593
 21
257.2027721405519
 31
0.0
  0
LINE
  5
F0
330
E4
100
AcDbEntity
  8
0
  6
Continuous
 62
     0
370
    30
100
AcDbLine
 10
229.0269242152162
 20
257.2027721405519
 30
0.0
 11
231.0269242151662
 21
257.2027721405519
 31
0.0
  0
LINE
  5
F1
330
E4
100
AcDbEntity
  8
0
  6
Continuous
 62
     0
370
    30
100
AcDbLine
 10
231.0269242151662
 20
236.4904569634461
 30
0.0
 11
229.0269242152162
 21
236.4904569634461
 31
0.0
  0
LINE
  5
F2
330
E4
100
AcDbEntity
  8
0
  6
Continuous
 62
     0
370
    30
100
AcDbLine
 10
229.0269239966593
 20
236.4904569634461
 30
0.0
 11
229.0269239966593
 21
235.3466145520449
 31
0.0
  0
LINE
  5
F3
330
E4
100
AcDbEntity
  8
0
  6
Continuous
 62
     0
370
     0
100
AcDbLine
 10
267.0269239964632
 20
230.846614552063
 30
0.0
 11
267.0269239964632
 21
262.8466145519349
 31
0.0
  0
ARC
  5
F4
330
E4
100
AcDbEntity
  8
0
  6
Continuous
 62
     0
370
    30
100
AcDbCircle
 10
267.0269239964632
 20
231.346614552063
 30
0.0
 40
0.5
100
AcDbArc
 50
270.0
 51
359.9999999997767
  0
LINE
  5
F5
330
E4
100
AcDbEntity
  8
0
  6
Continuous
 62
     0
370
    30
100
AcDbLine
 10
267.5269239964632
 20
262.3466145519349
 30
0.0
 11
267.5269239964632
 21
231.346614552063
 31
0.0
  0
LINE
  5
F6
330
E4
100
AcDbEntity
  8
0
  6
Continuous
 62
     0
370
    30
100
AcDbLine
 10
269.5269235156379
 20
247.8662848574446
 30
0.0
 11
269.5269235156379
 21
245.8269442465533
 31
0.0
  0
LINE
  5
F7
330
E4
100
AcDbEntity
  8
0
  6
Continuous
 62
     0
370
     0
100
AcDbLine
 10
269.2582820439434
 20
248.1646414379107
 30
0.0
 11
269.2582820439434
 21
245.5285876660872
 31
0.0
  0
LINE
  5
F8
330
E4
100
AcDbEntity
  8
0
  6
Continuous
 62
     0
370
     0
100
AcDbLine
 10
269.2582821564351
 20
238.6383619962819
 30
0.0
 11
269.2582821564351
 21
241.0939777313588
 31
0.0
  0
LINE
  5
F9
330
E4
100
AcDbEntity
  8
0
  6
Continuous
 62
     0
370
     0
100
AcDbLine
 10
267.7955650998243
 20
241.2477154890039
 30
0.0
 11
267.7955650998243
 21
238.7920997539271
 31
0.0
  0
LINE
  5
FA
330
E4
100
AcDbEntity
  8
0
  6
Continuous
 62
     0
370
     0
100
AcDbLine
 10
269.2582824412742
 20
234.6957023829529
 30
0.0
 11
269.2582824412742
 21
236.0023082244584
 31
0.0
  0
LINE
  5
FB
330
E4
100
AcDbEntity
  8
0
  6
Continuous
 62
     0
370
     0
100
AcDbLine
 10
267.7955653846634
 20
235.8485704668132
 30
0.0
 11
267.7955653846634
 21
234.5419646253077
 31
0.0
  0
LINE
  5
FC
330
E4
100
AcDbEntity
  8
0
  6
Continuous
 62
     0
370
     0
100
AcDbLine
 10
269.2582827651813
 20
236.0023082244584
 30
0.0
 11
269.2582827651813
 21
236.1788903442997
 31
0.0
  0
LINE
  5
FD
330
E4
100
AcDbEntity
  8
0
  6
Continuous
 62
     0
370
     0
100
AcDbLine
 10
269.2582827651813
 20
236.1788903442997
 30
0.0
 11
269.2582827651813
 21
238.6383619962819
 31
0.0
  0
LINE
  5
FE
330
E4
100
AcDbEntity
  8
0
  6
Continuous
 62
     0
370
     0
100
AcDbLine
 10
267.7955657085704
 20
238.792099753927
 30
0.0
 11
267.7955657085704
 21
236.0457495406581
 31
0.0
  0
LINE
  5
FF
330
E4
100
AcDbEntity
  8
0
  6
Continuous
 62
     0
370
     0
100
AcDbLine
 10
267.7955657085704
 20
236.0457495406581
 30
0.0
 11
267.7955657085704
 21
235.8485704668132
 31
0.0
  0
LINE
  5
100
330
E4
100
AcDbEntity
  8
0
  6
Continuous
 62
     0
370
     0
100
AcDbLine
 10
269.2582829765966
 20
241.7663660895048
 30
0.0
 11
269.2582829765966
 21
242.6336012309899
 31
0.0
  0
LINE
  5
101
330
E4
100
AcDbEntity
  8
0
  6
Continuous
 62
     0
370
     0
100
AcDbLine
 10
269.2582829765966
 20
242.6336012309899
 30
0.0
 11
269.2582829765966
 21
244.4024198613283
 31
0.0
  0
LINE
  5
102
330
E4
100
AcDbEntity
  8
0
  6
Continuous
 62
     0
370
     0
100
AcDbLine
 10
267.7955659199858
 20
244.5561576189735
 30
0.0
 11
267.7955659199858
 21
242.5810198210856
 31
0.0
  0
LINE
  5
103
330
E4
100
AcDbEntity
  8
0
  6
Continuous
 62
     0
370
     0
100
AcDbLine
 10
267.7955659199858
 20
242.5810198210856
 30
0.0
 11
267.7955659199858
 21
241.6126283318597
 31
0.0
  0
LINE
  5
104
330
E4
100
AcDbEntity
  8
0
  6
Continuous
 62
     0
370
     0
100
AcDbLine
 10
269.2582829765966
 20
249.2908092426695
 30
0.0
 11
269.2582829765966
 21
251.0596278730079
 31
0.0
  0
LINE
  5
105
330
E4
100
AcDbEntity
  8
0
  6
Continuous
 62
     0
370
     0
100
AcDbLine
 10
269.2582829765966
 20
251.0596278730079
 30
0.0
 11
269.2582829765966
 21
251.926863014493
 31
0.0
  0
LINE
  5
106
330
E4
100
AcDbEntity
  8
0
  6
Continuous
 62
     0
370
     0
100
AcDbLine
 10
267.7955659199858
 20
252.0806007721382
 30
0.0
 11
267.7955659199858
 21
251.1122092829123
 31
0.0
  0
LINE
  5
107
330
E4
100
AcDbEntity
  8
0
  6
Continuous
 62
     0
370
     0
100
AcDbLine
 10
267.7955659199858
 20
251.1122092829123
 30
0.0
 11
267.7955659199858
 21
249.1370714850244
 31
0.0
  0
LINE
  5
108
330
E4
100
AcDbEntity
  8
0
  6
Continuous
 62
     0
370
     0
100
AcDbLine
 10
269.2582827651813
 20
255.054867107716
 30
0.0
 11
269.2582827651813
 21
257.5143387596982
 31
0.0
  0
LINE
  5
109
330
E4
100
AcDbEntity
  8
0
  6
Continuous
 62
     0
370
     0
100
AcDbLine
 10
269.2582827651813
 20
257.5143387596982
 30
0.0
 11
269.2582827651813
 21
257.6909208795395
 31
0.0
  0
LINE
  5
10A
330
E4
100
AcDbEntity
  8
0
  6
Continuous
 62
     0
370
     0
100
AcDbLine
 10
267.7955657085704
 20
257.8446586371847
 30
0.0
 11
267.7955657085704
 21
257.6474795633398
 31
0.0
  0
LINE
  5
10B
330
E4
100
AcDbEntity
  8
0
  6
Continuous
 62
     0
370
     0
100
AcDbLine
 10
267.7955657085704
 20
257.6474795633398
 30
0.0
 11
267.7955657085704
 21
254.9011293500709
 31
0.0
  0
LINE
  5
10C
330
E4
100
AcDbEntity
  8
0
  6
Continuous
 62
     0
370
     0
100
AcDbLine
 10
269.2582824412742
 20
257.6909208795395
 30
0.0
 11
269.2582824412742
 21
258.997526721045
 31
0.0
  0
LINE
  5
10D
330
E4
100
AcDbEntity
  8
0
  6
Continuous
 62
     0
370
     0
100
AcDbLine
 10
267.7955653846634
 20
259.1512644786901
 30
0.0
 11
267.7955653846634
 21
257.8446586371847
 31
0.0
  0
LINE
  5
10E
330
E4
100
AcDbEntity
  8
0
  6
Continuous
 62
     0
370
     0
100
AcDbLine
 10
269.2582821564351
 20
252.5992513726391
 30
0.0
 11
269.2582821564351
 21
255.0548671077161
 31
0.0
  0
LINE
  5
10F
330
E4
100
AcDbEntity
  8
0
  6
Continuous
 62
     0
370
     0
100
AcDbLine
 10
267.7955650998243
 20
254.9011293500709
 30
0.0
 11
267.7955650998243
 21
252.445513614994
 31
0.0
  0
LINE
  5
110
330
E4
100
AcDbEntity
  8
0
  6
Continuous
 62
     0
370
     0
100
AcDbLine
 10
267.7955649873325
 20
248.3183791955558
 30
0.0
 11
267.7955649873325
 21
245.374849908442
 31
0.0
  0
LINE
  5
111
330
E4
100
AcDbEntity
  8
0
  6
Continuous
 62
     0
370
    30
100
AcDbLine
 10
269.5269236281297
 20
254.9369485639965
 30
0.0
 11
269.5269236281297
 21
252.8976079531052
 31
0.0
  0
LINE
  5
112
330
E4
100
AcDbEntity
  8
0
  6
Continuous
 62
     0
370
    30
100
AcDbLine
 10
269.5269239129688
 20
258.6991701405788
 30
0.0
 11
269.5269239129688
 21
257.3925642990734
 31
0.0
  0
LINE
  5
113
330
E4
100
AcDbEntity
  8
0
  6
Continuous
 62
     0
370
    30
100
AcDbLine
 10
269.5269242368758
 20
257.3925642990734
 30
0.0
 11
269.5269242368758
 21
257.2559543816284
 31
0.0
  0
LINE
  5
114
330
E4
100
AcDbEntity
  8
0
  6
Continuous
 62
     0
370
    30
100
AcDbLine
 10
269.5269242368758
 20
257.2559543816284
 30
0.0
 11
269.5269242368758
 21
255.3532236881821
 31
0.0
  0
LINE
  5
115
330
E4
100
AcDbEntity
  8
0
  6
Continuous
 62
     0
370
    30
100
AcDbLine
 10
269.5269244482911
 20
251.6285064340269
 30
0.0
 11
269.5269244482911
 21
250.9575839125948
 31
0.0
  0
LINE
  5
116
330
E4
100
AcDbEntity
  8
0
  6
Continuous
 62
     0
370
    30
100
AcDbLine
 10
269.5269244482911
 20
250.9575839125948
 30
0.0
 11
269.5269244482911
 21
249.5891658231356
 31
0.0
  0
LINE
  5
117
330
E4
100
AcDbEntity
  8
0
  6
Continuous
 62
     0
370
    30
100
AcDbLine
 10
269.5269244482911
 20
244.1040632808622
 30
0.0
 11
269.5269244482911
 21
242.7356451914031
 31
0.0
  0
LINE
  5
118
330
E4
100
AcDbEntity
  8
0
  6
Continuous
 62
     0
370
    30
100
AcDbLine
 10
269.5269244482911
 20
242.7356451914031
 30
0.0
 11
269.5269244482911
 21
242.0647226699709
 31
0.0
  0
LINE
  5
119
330
E4
100
AcDbEntity
  8
0
  6
Continuous
 62
     0
370
    30
100
AcDbLine
 10
269.5269242368758
 20
238.3400054158158
 30
0.0
 11
269.5269242368758
 21
236.4372747223696
 31
0.0
  0
LINE
  5
11A
330
E4
100
AcDbEntity
  8
0
  6
Continuous
 62
     0
370
    30
100
AcDbLine
 10
269.5269242368758
 20
236.4372747223696
 30
0.0
 11
269.5269242368758
 21
236.3006648049245
 31
0.0
  0
LINE
  5
11B
330
E4
100
AcDbEntity
  8
0
  6
Continuous
 62
     0
370
    30
100
AcDbLine
 10
269.5269239129688
 20
236.3006648049245
 30
0.0
 11
269.5269239129688
 21
234.994058963419
 31
0.0
  0
LINE
  5
11C
330
E4
100
AcDbEntity
  8
0
  6
Continuous
 62
     0
370
    30
100
AcDbLine
 10
269.5269236281297
 20
240.7956211508927
 30
0.0
 11
269.5269236281297
 21
238.7562805400014
 31
0.0
  0
LINE
  5
11D
330
E4
100
AcDbEntity
  8
0
  6
Continuous
 62
     0
370
    30
100
AcDbLine
 10
238.5269239965793
 20
262.546614540014
 30
0.0
 11
238.5269239965793
 21
231.1466145639839
 31
0.0
  0
ARC
  5
11E
330
E4
100
AcDbEntity
  8
0
  6
Continuous
 62
     0
370
    30
100
AcDbCircle
 10
238.8269240085002
 20
231.1466145639839
 30
0.0
 40
0.3000000119209361
100
AcDbArc
 50
180.0
 51
269.9999999997767
  0
LINE
  5
11F
330
E4
100
AcDbEntity
  8
0
  6
Continuous
 62
     0
370
     0
100
AcDbLine
 10
238.8269240085002
 20
262.8466145519349
 30
0.0
 11
238.8269240085002
 21
230.846614552063
 31
0.0
  0
LINE
  5
120
330
E4
100
AcDbEntity
  8
0
  6
Continuous
 62
     0
370
    30
100
AcDbLine
 10
267.0269239964632
 20
230.846614552063
 30
0.0
 11
256.3269240084301
 21
230.846614552063
 31
0.0
  0
LINE
  5
121
330
E4
100
AcDbEntity
  8
0
  6
Continuous
 62
     0
370
     0
100
AcDbLine
 10
256.3269240084301
 20
230.846614552063
 30
0.0
 11
256.3269240084301
 21
262.8466145519349
 31
0.0
  0
LINE
  5
122
330
E4
100
AcDbEntity
  8
0
  6
Continuous
 62
     0
370
    30
100
AcDbLine
 10
256.0269239965092
 20
262.5466145400139
 30
0.0
 11
256.0269239965092
 21
231.1466145639839
 31
0.0
  0
LINE
  5
123
330
E4
100
AcDbEntity
  8
0
  6
Continuous
 62
     0
370
    30
100
AcDbLine
 10
238.8269240085002
 20
230.846614552063
 30
0.0
 11
254.7269239845923
 21
230.846614552063
 31
0.0
  0
LINE
  5
124
330
E4
100
AcDbEntity
  8
0
  6
Continuous
 62
     0
370
     0
100
AcDbLine
 10
254.7269239845923
 20
262.8466145519349
 30
0.0
 11
254.7269239845923
 21
230.846614552063
 31
0.0
  0
LINE
  5
125
330
E4
100
AcDbEntity
  8
0
  6
Continuous
 62
     0
370
    30
100
AcDbLine
 10
255.0269239965132
 20
231.1466145639839
 30
0.0
 11
255.0269239965132
 21
262.546614540014
 31
0.0
  0
ARC
  5
126
330
E4
100
AcDbEntity
  8
0
  6
Continuous
 62
     0
370
    30
100
AcDbCircle
 10
254.7269239845923
 20
231.1466145639839
 30
0.0
 40
0.3000000119209289
100
AcDbArc
 50
270.0000000002232
 51
0.0
  0
ARC
  5
127
330
E4
100
AcDbEntity
  8
0
  6
Continuous
 62
     0
370
    30
100
AcDbCircle
 10
256.3269240084301
 20
231.1466145639839
 30
0.0
 40
0.3000000119209289
100
AcDbArc
 50
180.0
 51
269.9999999997767
  0
LINE
  5
128
330
E4
100
AcDbEntity
  8
0
  6
Continuous
 62
     0
370
     0
100
AcDbLine
 10
218.526924870887
 20
232.8466145519989
 30
0.0
 11
208.526924870887
 21
232.8466145519989
 31
0.0
  0
LINE
  5
129
330
E4
100
AcDbEntity
  8
0
  6
Continuous
 62
     0
370
    30
100
AcDbLine
 10
218.5269246086187
 20
226.846614551999
 30
0.0
 11
208.5269246086187
 21
226.846614551999
 31
0.0
  0
LINE
  5
12A
330
E4
100
AcDbEntity
  8
0
  6
Continuous
 62
     0
370
    30
100
AcDbLine
 10
218.5269246086187
 20
266.8466145519989
 30
0.0
 11
208.5269246086187
 21
266.8466145519989
 31
0.0
  0
LINE
  5
12B
330
E4
100
AcDbEntity
  8
0
  6
Continuous
 62
     0
370
     0
100
AcDbLine
 10
218.5269248708871
 20
260.8466145519989
 30
0.0
 11
208.5269248708871
 21
260.8466145519989
 31
0.0
  0
LINE
  5
12C
330
E4
100
AcDbEntity
  8
0
  6
Continuous
 62
     0
370
    30
100
AcDbLine
 10
218.526924870887
 20
232.8466145519989
 30
0.0
 11
218.526924870887
 21
260.8466145519989
 31
0.0
  0
LINE
  5
12D
330
E4
100
AcDbEntity
  8
0
  6
Continuous
 62
     0
370
    30
100
AcDbLine
 10
208.5269248708871
 20
232.8466145519989
 30
0.0
 11
208.5269248708871
 21
260.8466145519989
 31
0.0
  0
LINE
  5
12E
330
E4
100
AcDbEntity
  8
0
  6
Continuous
 62
     0
370
    30
100
AcDbLine
 10
218.5269246086187
 20
232.8466145519989
 30
0.0
 11
218.5269246086187
 21
226.846614551999
 31
0.0
  0
LINE
  5
12F
330
E4
100
AcDbEntity
  8
0
  6
Continuous
 62
     0
370
    30
100
AcDbLine
 10
208.5269246086187
 20
232.8466145519989
 30
0.0
 11
208.5269246086187
 21
226.846614551999
 31
0.0
  0
LINE
  5
130
330
E4
100
AcDbEntity
  8
0
  6
Continuous
 62
     0
370
    30
100
AcDbLine
 10
218.5269246086187
 20
266.8466145519989
 30
0.0
 11
218.5269246086187
 21
260.8466145519989
 31
0.0
  0
LINE
  5
131
330
E4
100
AcDbEntity
  8
0
  6
Continuous
 62
     0
370
    30
100
AcDbLine
 10
208.5269246086187
 20
266.8466145519989
 30
0.0
 11
208.5269246086187
 21
260.8466145519989
 31
0.0
  0
ARC
  5
132
330
E4
100
AcDbEntity
  8
0
  6
Continuous
 62
     0
370
    30
100
AcDbCircle
 10
256.3269240084301
 20
262.546614540014
 30
0.0
 40
0.3000000119209289
100
AcDbArc
 50
90.00000000022327
 51
180.0
  0
ARC
  5
133
330
E4
100
AcDbEntity
  8
0
  6
Continuous
 62
     0
370
    30
100
AcDbCircle
 10
254.7269239845923
 20
262.546614540014
 30
0.0
 40
0.3000000119209289
100
AcDbArc
 50
0.0000000000000064
 51
89.99999999977676
  0
LINE
  5
134
330
E4
100
AcDbEntity
  8
0
  6
Continuous
 62
     0
370
    30
100
AcDbLine
 10
254.7269239845923
 20
262.8466145519349
 30
0.0
 11
238.8269240085002
 21
262.8466145519349
 31
0.0
  0
LINE
  5
135
330
E4
100
AcDbEntity
  8
0
  6
Continuous
 62
     0
370
    30
100
AcDbLine
 10
267.0269239964632
 20
262.8466145519349
 30
0.0
 11
256.3269240084301
 21
262.8466145519349
 31
0.0
  0
ARC
  5
136
330
E4
100
AcDbEntity
  8
0
  6
Continuous
 62
     0
370
    30
100
AcDbCircle
 10
238.8269240085002
 20
262.546614540014
 30
0.0
 40
0.3000000119209183
100
AcDbArc
 50
90.00000000022327
 51
180.0
  0
ARC
  5
137
330
E4
100
AcDbEntity
  8
0
  6
Continuous
 62
     0
370
    30
100
AcDbCircle
 10
267.8269236400506
 20
241.54607206947
 30
0.0
 40
0.3000000119209299
100
AcDbArc
 50
202.726572176333
 51
263.9999999999989
  0
ARC
  5
138
330
E4
100
AcDbEntity
  8
0
  6
Continuous
 62
     0
370
    30
100
AcDbCircle
 10
267.8269239248897
 20
234.2436080448417
 30
0.0
 40
0.3000000119209282
100
AcDbArc
 50
96.00000000000115
 51
179.9999999997916
  0
ARC
  5
139
330
E4
100
AcDbEntity
  8
0
  6
Continuous
 62
     0
370
    30
100
AcDbCircle
 10
267.8269242487968
 20
235.5502138863471
 30
0.0
 40
0.3000000119209282
100
AcDbArc
 50
96.00000000000115
 51
179.9999999997889
  0
ARC
  5
13A
330
E4
100
AcDbEntity
  8
0
  6
Continuous
 62
     0
370
    30
100
AcDbCircle
 10
267.8269242487968
 20
239.0904563343931
 30
0.0
 40
0.3000000119209317
100
AcDbArc
 50
180.0000000002063
 51
263.9999999999989
  0
ARC
  5
13B
330
E4
100
AcDbEntity
  8
0
  6
Continuous
 62
     0
370
    30
100
AcDbCircle
 10
267.8269244602121
 20
241.3142717513936
 30
0.0
 40
0.3000000119209282
100
AcDbArc
 50
96.00000000000115
 51
179.9999999997916
  0
ARC
  5
13C
330
E4
100
AcDbEntity
  8
0
  6
Continuous
 62
     0
370
    30
100
AcDbCircle
 10
267.8269244602121
 20
244.8545141994396
 30
0.0
 40
0.3000000119209282
100
AcDbArc
 50
180.0000000002084
 51
263.9999999999988
  0
ARC
  5
13D
330
E4
100
AcDbEntity
  8
0
  6
Continuous
 62
     0
370
    30
100
AcDbCircle
 10
267.8269244602121
 20
248.8387149045583
 30
0.0
 40
0.300000011920929
100
AcDbArc
 50
96.00000000000113
 51
179.9999999997916
  0
ARC
  5
13E
330
E4
100
AcDbEntity
  8
0
  6
Continuous
 62
     0
370
    30
100
AcDbCircle
 10
267.8269244602121
 20
252.3789573526043
 30
0.0
 40
0.300000011920929
100
AcDbArc
 50
180.0000000002084
 51
263.9999999999989
  0
ARC
  5
13F
330
E4
100
AcDbEntity
  8
0
  6
Continuous
 62
     0
370
    30
100
AcDbCircle
 10
267.8269242487968
 20
254.6027727696048
 30
0.0
 40
0.3000000119209293
100
AcDbArc
 50
96.00000000000113
 51
179.9999999997943
  0
ARC
  5
140
330
E4
100
AcDbEntity
  8
0
  6
Continuous
 62
     0
370
    30
100
AcDbCircle
 10
267.8269242487968
 20
258.1430152176508
 30
0.0
 40
0.300000011920929
100
AcDbArc
 50
180.0000000002112
 51
263.9999999999989
  0
ARC
  5
141
330
E4
100
AcDbEntity
  8
0
  6
Continuous
 62
     0
370
    30
100
AcDbCircle
 10
267.8269239248897
 20
259.4496210591562
 30
0.0
 40
0.300000011920929
100
AcDbArc
 50
180.0000000002084
 51
263.9999999999989
  0
ARC
  5
142
330
E4
100
AcDbEntity
  8
0
  6
Continuous
 62
     0
370
    30
100
AcDbCircle
 10
267.8269236400506
 20
252.1471570345279
 30
0.0
 40
0.3000000119209295
100
AcDbArc
 50
96.00000000000111
 51
157.273427823666
  0
ARC
  5
143
330
E4
100
AcDbEntity
  8
0
  6
Continuous
 62
     0
370
    30
100
AcDbCircle
 10
267.8269235275589
 20
248.6167357760219
 30
0.0
 40
0.3000000119209299
100
AcDbArc
 50
180.0000000002084
 51
263.9999999999989
  0
ARC
  5
144
330
E4
100
AcDbEntity
  8
0
  6
Continuous
 62
     0
370
    30
100
AcDbCircle
 10
267.8269235275589
 20
245.076493327976
 30
0.0
 40
0.3000000119209299
100
AcDbArc
 50
96.00000000000111
 51
179.9999999997916
  0
ARC
  5
145
330
E4
100
AcDbEntity
  8
0
  6
Continuous
 62
     0
370
    30
100
AcDbCircle
 10
269.2269236162088
 20
254.9369485639965
 30
0.0
 40
0.3000000119209289
100
AcDbArc
 50
0.0000000000000064
 51
43.93102097459563
  0
ARC
  5
146
330
E4
100
AcDbEntity
  8
0
  6
Continuous
 62
     0
370
    30
100
AcDbCircle
 10
269.2269236162088
 20
252.8976079531052
 30
0.0
 40
0.3000000119209289
100
AcDbArc
 50
276.0000000002067
 51
0.0
  0
ARC
  5
147
330
E4
100
AcDbEntity
  8
0
  6
Continuous
 62
     0
370
    30
100
AcDbCircle
 10
269.2269239010478
 20
258.6991701405789
 30
0.0
 40
0.3000000119209289
100
AcDbArc
 50
0.0000000000000912
 51
83.99999999979323
  0
ARC
  5
148
330
E4
100
AcDbEntity
  8
0
  6
Continuous
 62
     0
370
    30
100
AcDbCircle
 10
269.2269242249549
 20
255.3532236881821
 30
0.0
 40
0.3000000119209289
100
AcDbArc
 50
276.0000000002067
 51
0.0000000000000509
  0
ARC
  5
149
330
E4
100
AcDbEntity
  8
0
  6
Continuous
 62
     0
370
    30
100
AcDbCircle
 10
269.2269242249549
 20
257.3925642990734
 30
0.0
 40
0.3000000119209289
100
AcDbArc
 50
359.9999999999999
 51
83.9999999997932
  0
ARC
  5
14A
330
E4
100
AcDbEntity
  8
0
  6
Continuous
 62
     0
370
    30
100
AcDbCircle
 10
269.2269244363702
 20
249.5891658231357
 30
0.0
 40
0.3000000119209289
100
AcDbArc
 50
276.0000000002067
 51
0.0
  0
ARC
  5
14B
330
E4
100
AcDbEntity
  8
0
  6
Continuous
 62
     0
370
    30
100
AcDbCircle
 10
269.2269244363702
 20
251.6285064340269
 30
0.0
 40
0.3000000119209289
100
AcDbArc
 50
0.0000000000000064
 51
83.9999999997932
  0
ARC
  5
14C
330
E4
100
AcDbEntity
  8
0
  6
Continuous
 62
     0
370
    30
100
AcDbCircle
 10
269.2269244363702
 20
242.0647226699709
 30
0.0
 40
0.3000000119209289
100
AcDbArc
 50
276.0000000002067
 51
0.0
  0
ARC
  5
14D
330
E4
100
AcDbEntity
  8
0
  6
Continuous
 62
     0
370
    30
100
AcDbCircle
 10
269.2269244363702
 20
244.1040632808622
 30
0.0
 40
0.3000000119209289
100
AcDbArc
 50
0.0000000000000064
 51
83.9999999997932
  0
ARC
  5
14E
330
E4
100
AcDbEntity
  8
0
  6
Continuous
 62
     0
370
    30
100
AcDbCircle
 10
269.2269242249549
 20
236.3006648049245
 30
0.0
 40
0.3000000119209289
100
AcDbArc
 50
276.0000000002067
 51
359.9999999999993
  0
ARC
  5
14F
330
E4
100
AcDbEntity
  8
0
  6
Continuous
 62
     0
370
    30
100
AcDbCircle
 10
269.2269242249549
 20
238.3400054158157
 30
0.0
 40
0.3000000119209289
100
AcDbArc
 50
0.0000000000006849
 51
83.99999999979327
  0
ARC
  5
150
330
E4
100
AcDbEntity
  8
0
  6
Continuous
 62
     0
370
    30
100
AcDbCircle
 10
269.2269239010478
 20
234.994058963419
 30
0.0
 40
0.3000000119209289
100
AcDbArc
 50
276.0000000002067
 51
0.0
  0
ARC
  5
151
330
E4
100
AcDbEntity
  8
0
  6
Continuous
 62
     0
370
    30
100
AcDbCircle
 10
269.2269236162088
 20
240.7956211508926
 30
0.0
 40
0.3000000119209289
100
AcDbArc
 50
0.0000000000003456
 51
83.99999999979321
  0
ARC
  5
152
330
E4
100
AcDbEntity
  8
0
  6
Continuous
 62
     0
370
    30
100
AcDbCircle
 10
269.2269236162088
 20
238.7562805400014
 30
0.0
 40
0.3000000119209289
100
AcDbArc
 50
316.0689790254062
 51
0.0
  0
LINE
  5
153
330
E4
100
AcDbEntity
  8
0
  6
Continuous
 62
     0
370
    30
100
AcDbLine
 10
267.7955649873325
 20
248.3183791955558
 30
0.0
 11
269.2582820439434
 21
248.1646414379107
 31
0.0
  0
LINE
  5
154
330
E4
100
AcDbEntity
  8
0
  6
Continuous
 62
     0
370
    30
100
AcDbLine
 10
267.7955649873325
 20
245.374849908442
 30
0.0
 11
269.2582820439434
 21
245.5285876660872
 31
0.0
  0
LINE
  5
155
330
E4
100
AcDbEntity
  8
0
  6
Continuous
 62
     0
370
    30
100
AcDbLine
 10
267.7955650998242
 20
252.445513614994
 30
0.0
 11
269.2582821564351
 21
252.5992513726391
 31
0.0
  0
LINE
  5
156
330
E4
100
AcDbEntity
  8
0
  6
Continuous
 62
     0
370
    30
100
AcDbLine
 10
267.7955653846634
 20
259.1512644786901
 30
0.0
 11
269.2582824412742
 21
258.997526721045
 31
0.0
  0
LINE
  5
157
330
E4
100
AcDbEntity
  8
0
  6
Continuous
 62
     0
370
    30
100
AcDbLine
 10
267.7955657085704
 20
254.9011293500709
 30
0.0
 11
269.2582827651813
 21
255.054867107716
 31
0.0
  0
LINE
  5
158
330
E4
100
AcDbEntity
  8
0
  6
Continuous
 62
     0
370
    30
100
AcDbLine
 10
267.7955657085704
 20
257.8446586371847
 30
0.0
 11
269.2582827651813
 21
257.6909208795395
 31
0.0
  0
LINE
  5
159
330
E4
100
AcDbEntity
  8
0
  6
Continuous
 62
     0
370
    30
100
AcDbLine
 10
267.7955659199858
 20
249.1370714850244
 30
0.0
 11
269.2582829765966
 21
249.2908092426695
 31
0.0
  0
LINE
  5
15A
330
E4
100
AcDbEntity
  8
0
  6
Continuous
 62
     0
370
    30
100
AcDbLine
 10
267.7955659199858
 20
252.0806007721382
 30
0.0
 11
269.2582829765966
 21
251.926863014493
 31
0.0
  0
LINE
  5
15B
330
E4
100
AcDbEntity
  8
0
  6
Continuous
 62
     0
370
    30
100
AcDbLine
 10
267.7955659199858
 20
241.6126283318597
 30
0.0
 11
269.2582829765966
 21
241.7663660895049
 31
0.0
  0
LINE
  5
15C
330
E4
100
AcDbEntity
  8
0
  6
Continuous
 62
     0
370
    30
100
AcDbLine
 10
267.7955659199858
 20
244.5561576189735
 30
0.0
 11
269.2582829765966
 21
244.4024198613283
 31
0.0
  0
LINE
  5
15D
330
E4
100
AcDbEntity
  8
0
  6
Continuous
 62
     0
370
    30
100
AcDbLine
 10
267.7955657085704
 20
235.8485704668132
 30
0.0
 11
269.2582827651813
 21
236.0023082244584
 31
0.0
  0
LINE
  5
15E
330
E4
100
AcDbEntity
  8
0
  6
Continuous
 62
     0
370
    30
100
AcDbLine
 10
267.7955657085704
 20
238.792099753927
 30
0.0
 11
269.2582827651813
 21
238.6383619962819
 31
0.0
  0
LINE
  5
15F
330
E4
100
AcDbEntity
  8
0
  6
Continuous
 62
     0
370
    30
100
AcDbLine
 10
267.7955653846634
 20
234.5419646253077
 30
0.0
 11
269.2582824412742
 21
234.6957023829529
 31
0.0
  0
LINE
  5
160
330
E4
100
AcDbEntity
  8
0
  6
Continuous
 62
     0
370
    30
100
AcDbLine
 10
267.7955650998242
 20
241.2477154890039
 30
0.0
 11
269.2582821564351
 21
241.0939777313588
 31
0.0
  0
ARC
  5
161
330
E4
100
AcDbEntity
  8
0
  6
Continuous
 62
     0
370
    30
100
AcDbCircle
 10
269.226923503717
 20
247.8662848574446
 30
0.0
 40
0.3000000119209289
100
AcDbArc
 50
0.0000000000000064
 51
83.99999999979323
  0
ARC
  5
162
330
E4
100
AcDbEntity
  8
0
  6
Continuous
 62
     0
370
    30
100
AcDbCircle
 10
269.226923503717
 20
245.8269442465533
 30
0.0
 40
0.3000000119209289
100
AcDbArc
 50
276.0000000002067
 51
0.0
  0
ARC
  5
163
330
E4
100
AcDbEntity
  8
0
  6
Continuous
 62
     0
370
    30
100
AcDbCircle
 10
267.0269239964632
 20
262.3466145519349
 30
0.0
 40
0.5
100
AcDbArc
 50
0.0000000002232495
 51
90.0
  0
LINE
  5
164
330
E4
100
AcDbEntity
  8
0
  6
Continuous
 62
     0
370
    30
100
AcDbLine
 10
229.0269239966593
 20
258.3466145519529
 30
0.0
 11
218.5269239966593
 21
258.3466145519529
 31
0.0
  0
LINE
  5
165
330
E4
100
AcDbEntity
  8
0
  6
Continuous
 62
     0
370
    30
100
AcDbLine
 10
233.5269239965994
 20
255.596614551964
 30
0.0
 11
232.3905096226904
 21
256.8466703632638
 31
0.0
  0
ARC
  5
166
330
E4
100
AcDbEntity
  8
0
  6
Continuous
 62
     0
370
    30
100
AcDbCircle
 10
239.5166119291611
 20
250.6267274018279
 30
0.0
 40
7.783067506745879
100
AcDbArc
 50
97.30545877633543
 51
140.3161287090219
  0
LINE
  5
167
330
E4
100
AcDbEntity
  8
0
  6
Continuous
 62
     0
370
    30
100
AcDbLine
 10
256.0269239965093
 20
259.8466145519469
 30
0.0
 11
255.0269239965131
 21
259.8466145519469
 31
0.0
  0
ENDBLK
  5
169
330
E4
100
AcDbEntity
  8
0
100
AcDbBlockEnd
  0
BLOCK
  5
1F2
330
16B
100
AcDbEntity
  8
0
100
AcDbBlockBegin
  2
d
 70
     0
 10
40.61660766601562
 20
0.0
 30
0.0
  3
d
  1

  0
LINE
  5
16C
330
16B
100
AcDbEntity
  8
0
  6
Continuous
 62
     0
370
    30
100
AcDbLine
 10
-23.53909029304677
 20
233.8466069226564
 30
0.0
 11
-22.53909029305055
 21
233.8466069226564
 31
0.0
  0
ARC
  5
16D
330
16B
100
AcDbEntity
  8
0
  6
Continuous
 62
     0
370
    30
100
AcDbCircle
 10
-7.028778225698545
 20
243.0664940727754
 30
0.0
 40
7.783067506745879
100
AcDbArc
 50
277.3054587763355
 51
320.316128709022
  0
LINE
  5
16E
330
16B
100
AcDbEntity
  8
0
  6
Continuous
 62
     0
370
    30
100
AcDbLine
 10
-1.039090293136769
 20
255.5966069225694
 30
0.0
 11
-1.039090293136763
 21
238.0966069226395
 31
0.0
  0
LINE
  5
16F
330
16B
100
AcDbEntity
  8
0
  6
Continuous
 62
     0
370
    30
100
AcDbLine
 10
-1.039090293136737
 20
238.0966069226394
 30
0.0
 11
0.0972733432587003
 21
236.8466069226044
 31
0.0
  0
LINE
  5
170
330
16B
100
AcDbEntity
  8
0
  6
Continuous
 62
     0
370
    30
100
AcDbLine
 10
0.0973600828107451
 20
256.8466094681355
 30
0.0
 11
1.170309386064396
 21
256.8466069226044
 31
0.0
  0
LINE
  5
171
330
16B
100
AcDbEntity
  8
0
  6
Continuous
 62
     0
370
    30
100
AcDbLine
 10
1.170309386064403
 20
256.8466069226044
 30
0.0
 11
1.460909488296311
 21
257.2027645111574
 31
0.0
  0
LINE
  5
172
330
16B
100
AcDbEntity
  8
0
  6
Continuous
 62
     0
370
    30
100
AcDbLine
 10
1.460909706853251
 20
257.2027645111574
 30
0.0
 11
1.460909706853263
 21
236.4904493340515
 31
0.0
  0
LINE
  5
173
330
16B
100
AcDbEntity
  8
0
  6
Continuous
 62
     0
370
    30
100
AcDbLine
 10
1.460909488296323
 20
236.4904493340515
 30
0.0
 11
1.17030938606445
 21
236.8466069226044
 31
0.0
  0
LINE
  5
174
330
16B
100
AcDbEntity
  8
0
  6
Continuous
 62
     0
370
    30
100
AcDbLine
 10
1.170309386064445
 20
236.8466069226044
 30
0.0
 11
0.097273343258701
 21
236.8466069226044
 31
0.0
  0
LINE
  5
175
330
16B
100
AcDbEntity
  8
0
  6
Continuous
 62
     0
370
    30
100
AcDbLine
 10
13.96090970680334
 20
235.3466069226504
 30
0.0
 11
3.460909706803331
 21
235.3466069226504
 31
0.0
  0
LINE
  5
176
330
16B
100
AcDbEntity
  8
0
  6
Continuous
 62
     0
370
    30
100
AcDbLine
 10
3.460909706803334
 20
235.3466069226504
 30
0.0
 11
3.460909706803333
 21
236.4904493340515
 31
0.0
  0
LINE
  5
177
330
16B
100
AcDbEntity
  8
0
  6
Continuous
 62
     0
370
    30
100
AcDbLine
 10
3.460909488246386
 20
236.4904493340515
 30
0.0
 11
1.460909488296403
 21
236.4904493340515
 31
0.0
  0
LINE
  5
178
330
16B
100
AcDbEntity
  8
0
  6
Continuous
 62
     0
370
    30
100
AcDbLine
 10
1.460909488296394
 20
257.2027645111574
 30
0.0
 11
3.460909488246391
 21
257.2027645111574
 31
0.0
  0
LINE
  5
179
330
16B
100
AcDbEntity
  8
0
  6
Continuous
 62
     0
370
    30
100
AcDbLine
 10
3.460909706803322
 20
257.2027645111574
 30
0.0
 11
3.460909706803321
 21
258.3466069225584
 31
0.0
  0
LINE
  5
17A
330
16B
100
AcDbEntity
  8
0
  6
Continuous
 62
     0
370
     0
100
AcDbLine
 10
-34.53909029300061
 20
262.8466069225404
 30
0.0
 11
-34.53909029300061
 21
230.8466069226684
 31
0.0
  0
ARC
  5
17B
330
16B
100
AcDbEntity
  8
0
  6
Continuous
 62
     0
370
    30
100
AcDbCircle
 10
-34.53909029300061
 20
231.3466069226684
 30
0.0
 40
0.5
100
AcDbArc
 50
180.0000000002232
 51
270.0
  0
LINE
  5
17C
330
16B
100
AcDbEntity
  8
0
  6
Continuous
 62
     0
370
    30
100
AcDbLine
 10
-35.03909029300061
 20
231.3466069226684
 30
0.0
 11
-35.03909029300061
 21
262.3466069225404
 31
0.0
  0
LINE
  5
17D
330
16B
100
AcDbEntity
  8
0
  6
Continuous
 62
     0
370
    30
100
AcDbLine
 10
-37.03909077382589
 20
245.8269366171588
 30
0.0
 11
-37.03909077382589
 21
246.8466069226044
 31
0.0
  0
LINE
  5
17E
330
16B
100
AcDbEntity
  8
0
  6
Continuous
 62
     0
370
    30
100
AcDbLine
 10
-37.03909077382589
 20
246.8466069226044
 30
0.0
 11
-37.03909077382589
 21
247.86627722805
 31
0.0
  0
LINE
  5
17F
330
16B
100
AcDbEntity
  8
0
  6
Continuous
 62
     0
370
     0
100
AcDbLine
 10
-36.77044930213132
 20
245.5285800366926
 30
0.0
 11
-36.77044930213132
 21
246.8466069226044
 31
0.0
  0
LINE
  5
180
330
16B
100
AcDbEntity
  8
0
  6
Continuous
 62
     0
370
     0
100
AcDbLine
 10
-36.77044930213132
 20
246.8466069226044
 30
0.0
 11
-36.77044930213132
 21
248.1646338085162
 31
0.0
  0
LINE
  5
181
330
16B
100
AcDbEntity
  8
0
  6
Continuous
 62
     0
370
     0
100
AcDbLine
 10
-36.77044918963959
 20
241.0939701019642
 30
0.0
 11
-36.77044918963959
 21
238.9287318645547
 31
0.0
  0
LINE
  5
182
330
16B
100
AcDbEntity
  8
0
  6
Continuous
 62
     0
370
     0
100
AcDbLine
 10
-36.77044918963959
 20
238.9287318645547
 30
0.0
 11
-36.77044918963959
 21
238.4579163301407
 31
0.0
  0
LINE
  5
183
330
16B
100
AcDbEntity
  8
0
  6
Continuous
 62
     0
370
     0
100
AcDbLine
 10
-35.3077321330287
 20
238.3041785724956
 30
0.0
 11
-35.3077321330287
 21
238.8299111387994
 31
0.0
  0
LINE
  5
184
330
16B
100
AcDbEntity
  8
0
  6
Continuous
 62
     0
370
     0
100
AcDbLine
 10
-35.3077321330287
 20
238.8299111387994
 30
0.0
 11
-35.3077321330287
 21
241.2477078596094
 31
0.0
  0
LINE
  5
185
330
16B
100
AcDbEntity
  8
0
  6
Continuous
 62
     0
370
     0
100
AcDbLine
 10
-36.7704489048005
 20
237.3317485253819
 30
0.0
 11
-36.7704489048005
 21
234.7157185435457
 31
0.0
  0
LINE
  5
186
330
16B
100
AcDbEntity
  8
0
  6
Continuous
 62
     0
370
     0
100
AcDbLine
 10
-36.7704489048005
 20
234.7157185435457
 30
0.0
 11
-36.7704489048005
 21
234.6956947535584
 31
0.0
  0
LINE
  5
187
330
16B
100
AcDbEntity
  8
0
  6
Continuous
 62
     0
370
     0
100
AcDbLine
 10
-35.30773184818961
 20
234.5419569959132
 30
0.0
 11
-35.30773184818961
 21
234.5643164078861
 31
0.0
  0
LINE
  5
188
330
16B
100
AcDbEntity
  8
0
  6
Continuous
 62
     0
370
     0
100
AcDbLine
 10
-35.30773184818961
 20
234.5643164078861
 30
0.0
 11
-35.30773184818961
 21
237.485486283027
 31
0.0
  0
LINE
  5
189
330
16B
100
AcDbEntity
  8
0
  6
Continuous
 62
     0
370
     0
100
AcDbLine
 10
-36.77044858089343
 20
238.4579163301406
 30
0.0
 11
-36.77044858089343
 21
237.3317485253819
 31
0.0
  0
LINE
  5
18A
330
16B
100
AcDbEntity
  8
0
  6
Continuous
 62
     0
370
     0
100
AcDbLine
 10
-35.30773152428256
 20
237.485486283027
 30
0.0
 11
-35.30773152428256
 21
238.3041785724956
 31
0.0
  0
LINE
  5
18B
330
16B
100
AcDbEntity
  8
0
  6
Continuous
 62
     0
370
     0
100
AcDbLine
 10
-36.77044836947811
 20
244.4024122319338
 30
0.0
 11
-36.77044836947811
 21
241.7663584601103
 31
0.0
  0
LINE
  5
18C
330
16B
100
AcDbEntity
  8
0
  6
Continuous
 62
     0
370
     0
100
AcDbLine
 10
-35.30773131286721
 20
241.6126207024651
 30
0.0
 11
-35.30773131286721
 21
244.5561499895789
 31
0.0
  0
LINE
  5
18D
330
16B
100
AcDbEntity
  8
0
  6
Continuous
 62
     0
370
     0
100
AcDbLine
 10
-36.77044836947811
 20
251.9268553850985
 30
0.0
 11
-36.77044836947811
 21
249.2908016132751
 31
0.0
  0
LINE
  5
18E
330
16B
100
AcDbEntity
  8
0
  6
Continuous
 62
     0
370
     0
100
AcDbLine
 10
-35.30773131286721
 20
249.1370638556299
 30
0.0
 11
-35.30773131286721
 21
252.0805931427437
 31
0.0
  0
LINE
  5
18F
330
16B
100
AcDbEntity
  8
0
  6
Continuous
 62
     0
370
     0
100
AcDbLine
 10
-36.77044858089343
 20
256.3614653198269
 30
0.0
 11
-36.77044858089343
 21
255.2352975150681
 31
0.0
  0
LINE
  5
190
330
16B
100
AcDbEntity
  8
0
  6
Continuous
 62
     0
370
     0
100
AcDbLine
 10
-35.30773152428256
 20
255.3890352727133
 30
0.0
 11
-35.30773152428256
 21
256.2077275621818
 31
0.0
  0
LINE
  5
191
330
16B
100
AcDbEntity
  8
0
  6
Continuous
 62
     0
370
     0
100
AcDbLine
 10
-36.7704489048005
 20
258.9975190916505
 30
0.0
 11
-36.7704489048005
 21
258.9774953016631
 31
0.0
  0
LINE
  5
192
330
16B
100
AcDbEntity
  8
0
  6
Continuous
 62
     0
370
     0
100
AcDbLine
 10
-36.7704489048005
 20
258.9774953016631
 30
0.0
 11
-36.7704489048005
 21
256.3614653198269
 31
0.0
  0
LINE
  5
193
330
16B
100
AcDbEntity
  8
0
  6
Continuous
 62
     0
370
     0
100
AcDbLine
 10
-35.30773184818961
 20
256.2077275621819
 30
0.0
 11
-35.30773184818961
 21
259.1288974373228
 31
0.0
  0
LINE
  5
194
330
16B
100
AcDbEntity
  8
0
  6
Continuous
 62
     0
370
     0
100
AcDbLine
 10
-35.30773184818961
 20
259.1288974373228
 30
0.0
 11
-35.30773184818961
 21
259.1512568492956
 31
0.0
  0
LINE
  5
195
330
16B
100
AcDbEntity
  8
0
  6
Continuous
 62
     0
370
     0
100
AcDbLine
 10
-36.77044918963959
 20
255.2352975150681
 30
0.0
 11
-36.77044918963959
 21
254.7644819806541
 31
0.0
  0
LINE
  5
196
330
16B
100
AcDbEntity
  8
0
  6
Continuous
 62
     0
370
     0
100
AcDbLine
 10
-36.77044918963959
 20
254.7644819806541
 30
0.0
 11
-36.77044918963959
 21
252.5992437432446
 31
0.0
  0
LINE
  5
197
330
16B
100
AcDbEntity
  8
0
  6
Continuous
 62
     0
370
     0
100
AcDbLine
 10
-35.3077321330287
 20
252.4455059855994
 30
0.0
 11
-35.3077321330287
 21
254.8633027064095
 31
0.0
  0
LINE
  5
198
330
16B
100
AcDbEntity
  8
0
  6
Continuous
 62
     0
370
     0
100
AcDbLine
 10
-35.3077321330287
 20
254.8633027064095
 30
0.0
 11
-35.3077321330287
 21
255.3890352727132
 31
0.0
  0
LINE
  5
199
330
16B
100
AcDbEntity
  8
0
  6
Continuous
 62
     0
370
     0
100
AcDbLine
 10
-35.30773224552045
 20
245.3748422790475
 30
0.0
 11
-35.30773224552045
 21
246.8466069226044
 31
0.0
  0
LINE
  5
19A
330
16B
100
AcDbEntity
  8
0
  6
Continuous
 62
     0
370
     0
100
AcDbLine
 10
-35.30773224552045
 20
246.8466069226044
 30
0.0
 11
-35.30773224552045
 21
248.3183715661613
 31
0.0
  0
LINE
  5
19B
330
16B
100
AcDbEntity
  8
0
  6
Continuous
 62
     0
370
    30
100
AcDbLine
 10
-37.03909066133414
 20
252.8976003237107
 30
0.0
 11
-37.03909066133414
 21
254.5727020674621
 31
0.0
  0
LINE
  5
19C
330
16B
100
AcDbEntity
  8
0
  6
Continuous
 62
     0
370
    30
100
AcDbLine
 10
-37.03909066133414
 20
254.5727020674621
 30
0.0
 11
-37.03909066133414
 21
254.936940934602
 31
0.0
  0
LINE
  5
19D
330
16B
100
AcDbEntity
  8
0
  6
Continuous
 62
     0
370
    30
100
AcDbLine
 10
-37.03909037649504
 20
256.6598219002931
 30
0.0
 11
-37.03909037649504
 21
258.6836714280579
 31
0.0
  0
LINE
  5
19E
330
16B
100
AcDbEntity
  8
0
  6
Continuous
 62
     0
370
    30
100
AcDbLine
 10
-37.03909037649504
 20
258.6836714280579
 30
0.0
 11
-37.03909037649504
 21
258.6991625111843
 31
0.0
  0
LINE
  5
19F
330
16B
100
AcDbEntity
  8
0
  6
Continuous
 62
     0
370
    30
100
AcDbLine
 10
-37.03909005258798
 20
255.3532160587876
 30
0.0
 11
-37.03909005258798
 21
256.6598219002931
 31
0.0
  0
LINE
  5
1A0
330
16B
100
AcDbEntity
  8
0
  6
Continuous
 62
     0
370
    30
100
AcDbLine
 10
-37.03908984117265
 20
249.5891581937411
 30
0.0
 11
-37.03908984117265
 21
251.6284988046324
 31
0.0
  0
LINE
  5
1A1
330
16B
100
AcDbEntity
  8
0
  6
Continuous
 62
     0
370
    30
100
AcDbLine
 10
-37.03908984117265
 20
242.0647150405764
 30
0.0
 11
-37.03908984117265
 21
244.1040556514677
 31
0.0
  0
LINE
  5
1A2
330
16B
100
AcDbEntity
  8
0
  6
Continuous
 62
     0
370
    30
100
AcDbLine
 10
-37.03909005258798
 20
237.0333919449158
 30
0.0
 11
-37.03909005258798
 21
238.3399977864212
 31
0.0
  0
LINE
  5
1A3
330
16B
100
AcDbEntity
  8
0
  6
Continuous
 62
     0
370
    30
100
AcDbLine
 10
-37.03909037649504
 20
234.9940513340245
 30
0.0
 11
-37.03909037649504
 21
235.0095424171509
 31
0.0
  0
LINE
  5
1A4
330
16B
100
AcDbEntity
  8
0
  6
Continuous
 62
     0
370
    30
100
AcDbLine
 10
-37.03909037649504
 20
235.0095424171509
 30
0.0
 11
-37.03909037649504
 21
237.0333919449158
 31
0.0
  0
LINE
  5
1A5
330
16B
100
AcDbEntity
  8
0
  6
Continuous
 62
     0
370
    30
100
AcDbLine
 10
-37.03909066133414
 20
238.7562729106068
 30
0.0
 11
-37.03909066133414
 21
239.1205117777467
 31
0.0
  0
LINE
  5
1A6
330
16B
100
AcDbEntity
  8
0
  6
Continuous
 62
     0
370
    30
100
AcDbLine
 10
-37.03909066133414
 20
239.1205117777467
 30
0.0
 11
-37.03909066133414
 21
240.7956135214981
 31
0.0
  0
LINE
  5
1A7
330
16B
100
AcDbEntity
  8
0
  6
Continuous
 62
     0
370
    30
100
AcDbLine
 10
-6.039090293116679
 20
231.1466069345894
 30
0.0
 11
-6.039090293116693
 21
262.5466069106195
 31
0.0
  0
ARC
  5
1A8
330
16B
100
AcDbEntity
  8
0
  6
Continuous
 62
     0
370
    30
100
AcDbCircle
 10
-6.339090305037615
 20
231.1466069345894
 30
0.0
 40
0.3000000119209361
100
AcDbArc
 50
270.0000000002232
 51
0.0
  0
LINE
  5
1A9
330
16B
100
AcDbEntity
  8
0
  6
Continuous
 62
     0
370
     0
100
AcDbLine
 10
-6.339090305037609
 20
230.8466069226684
 30
0.0
 11
-6.339090305037607
 21
262.8466069225404
 31
0.0
  0
LINE
  5
1AA
330
16B
100
AcDbEntity
  8
0
  6
Continuous
 62
     0
370
    30
100
AcDbLine
 10
-34.53909029300061
 20
230.8466069226684
 30
0.0
 11
-23.83909030496754
 21
230.8466069226684
 31
0.0
  0
LINE
  5
1AB
330
16B
100
AcDbEntity
  8
0
  6
Continuous
 62
     0
370
     0
100
AcDbLine
 10
-23.83909030496755
 20
262.8466069225404
 30
0.0
 11
-23.83909030496755
 21
230.8466069226684
 31
0.0
  0
LINE
  5
1AC
330
16B
100
AcDbEntity
  8
0
  6
Continuous
 62
     0
370
    30
100
AcDbLine
 10
-23.53909029304662
 20
231.1466069345894
 30
0.0
 11
-23.53909029304662
 21
262.5466069106194
 31
0.0
  0
LINE
  5
1AD
330
16B
100
AcDbEntity
  8
0
  6
Continuous
 62
     0
370
    30
100
AcDbLine
 10
-6.339090305037615
 20
230.8466069226684
 30
0.0
 11
-22.23909028112966
 21
230.8466069226684
 31
0.0
  0
LINE
  5
1AE
330
16B
100
AcDbEntity
  8
0
  6
Continuous
 62
     0
370
     0
100
AcDbLine
 10
-22.23909028112966
 20
230.8466069226684
 30
0.0
 11
-22.23909028112966
 21
262.8466069225404
 31
0.0
  0
LINE
  5
1AF
330
16B
100
AcDbEntity
  8
0
  6
Continuous
 62
     0
370
    30
100
AcDbLine
 10
-22.53909029305059
 20
262.5466069106195
 30
0.0
 11
-22.53909029305059
 21
231.1466069345894
 31
0.0
  0
ARC
  5
1B0
330
16B
100
AcDbEntity
  8
0
  6
Continuous
 62
     0
370
    30
100
AcDbCircle
 10
-22.23909028112967
 20
231.1466069345894
 30
0.0
 40
0.3000000119209289
100
AcDbArc
 50
180.0
 51
269.9999999997767
  0
ARC
  5
1B1
330
16B
100
AcDbEntity
  8
0
  6
Continuous
 62
     0
370
    30
100
AcDbCircle
 10
-23.83909030496755
 20
231.1466069345894
 30
0.0
 40
0.3000000119209289
100
AcDbArc
 50
270.0000000002232
 51
0.0
  0
LINE
  5
1B2
330
16B
100
AcDbEntity
  8
0
  6
Continuous
 62
     0
370
    30
100
AcDbLine
 10
13.9609090948439
 20
226.8466069226044
 30
0.0
 11
23.96090909484389
 21
226.8466069226044
 31
0.0
  0
LINE
  5
1B3
330
16B
100
AcDbEntity
  8
0
  6
Continuous
 62
     0
370
     0
100
AcDbLine
 10
13.96090883257556
 20
232.8466069226045
 30
0.0
 11
23.96090883257556
 21
232.8466069226045
 31
0.0
  0
LINE
  5
1B4
330
16B
100
AcDbEntity
  8
0
  6
Continuous
 62
     0
370
     0
100
AcDbLine
 10
13.96090883257556
 20
260.8466069226044
 30
0.0
 11
23.96090883257555
 21
260.8466069226044
 31
0.0
  0
LINE
  5
1B5
330
16B
100
AcDbEntity
  8
0
  6
Continuous
 62
     0
370
    30
100
AcDbLine
 10
13.96090909484389
 20
266.8466069226044
 30
0.0
 11
23.96090909484388
 21
266.8466069226044
 31
0.0
  0
LINE
  5
1B6
330
16B
100
AcDbEntity
  8
0
  6
Continuous
 62
     0
370
    30
100
AcDbLine
 10
13.96090883257556
 20
260.8466069226044
 30
0.0
 11
13.96090883257556
 21
232.8466069226044
 31
0.0
  0
LINE
  5
1B7
330
16B
100
AcDbEntity
  8
0
  6
Continuous
 62
     0
370
    30
100
AcDbLine
 10
23.96090883257555
 20
260.8466069226044
 30
0.0
 11
23.96090883257556
 21
232.8466069226044
 31
0.0
  0
LINE
  5
1B8
330
16B
100
AcDbEntity
  8
0
  6
Continuous
 62
     0
370
    30
100
AcDbLine
 10
13.96090909484392
 20
226.8466069226044
 30
0.0
 11
13.96090909484392
 21
232.8466069226045
 31
0.0
  0
LINE
  5
1B9
330
16B
100
AcDbEntity
  8
0
  6
Continuous
 62
     0
370
    30
100
AcDbLine
 10
23.96090909484391
 20
226.8466069226044
 30
0.0
 11
23.96090909484391
 21
232.8466069226045
 31
0.0
  0
LINE
  5
1BA
330
16B
100
AcDbEntity
  8
0
  6
Continuous
 62
     0
370
    30
100
AcDbLine
 10
13.96090909484391
 20
260.8466069226044
 30
0.0
 11
13.96090909484391
 21
266.8466069226044
 31
0.0
  0
LINE
  5
1BB
330
16B
100
AcDbEntity
  8
0
  6
Continuous
 62
     0
370
    30
100
AcDbLine
 10
23.9609090948439
 20
260.8466069226044
 30
0.0
 11
23.9609090948439
 21
266.8466069226044
 31
0.0
  0
ARC
  5
1BC
330
16B
100
AcDbEntity
  8
0
  6
Continuous
 62
     0
370
    30
100
AcDbCircle
 10
-23.83909030496754
 20
262.5466069106195
 30
0.0
 40
0.3000000119209289
100
AcDbArc
 50
360.0
 51
89.99999999977672
  0
ARC
  5
1BD
330
16B
100
AcDbEntity
  8
0
  6
Continuous
 62
     0
370
    30
100
AcDbCircle
 10
-22.23909028112966
 20
262.5466069106195
 30
0.0
 40
0.3000000119209289
100
AcDbArc
 50
90.00000000022323
 51
180.0
  0
LINE
  5
1BE
330
16B
100
AcDbEntity
  8
0
  6
Continuous
 62
     0
370
    30
100
AcDbLine
 10
-22.23909028112966
 20
262.8466069225404
 30
0.0
 11
-6.339090305037613
 21
262.8466069225404
 31
0.0
  0
LINE
  5
1BF
330
16B
100
AcDbEntity
  8
0
  6
Continuous
 62
     0
370
    30
100
AcDbLine
 10
-34.53909029300061
 20
262.8466069225404
 30
0.0
 11
-23.83909030496754
 21
262.8466069225404
 31
0.0
  0
ARC
  5
1C0
330
16B
100
AcDbEntity
  8
0
  6
Continuous
 62
     0
370
    30
100
AcDbCircle
 10
-6.339090305037608
 20
262.5466069106195
 30
0.0
 40
0.3000000119209183
100
AcDbArc
 50
360.0
 51
89.99999999977672
  0
ARC
  5
1C1
330
16B
100
AcDbEntity
  8
0
  6
Continuous
 62
     0
370
    30
100
AcDbCircle
 10
-35.33909067325507
 20
241.5460644400755
 30
0.0
 40
0.3000000119209299
100
AcDbArc
 50
276.000000000001
 51
359.9999999997915
  0
ARC
  5
1C2
330
16B
100
AcDbEntity
  8
0
  6
Continuous
 62
     0
370
    30
100
AcDbCircle
 10
-35.33909067325507
 20
238.0058219920294
 30
0.0
 40
0.3000000119209317
100
AcDbArc
 50
0.0000000002083645
 51
83.99999999999891
  0
ARC
  5
1C3
330
16B
100
AcDbEntity
  8
0
  6
Continuous
 62
     0
370
    30
100
AcDbCircle
 10
-35.33909038841598
 20
237.7838428634931
 30
0.0
 40
0.3000000119209282
100
AcDbArc
 50
276.0000000000011
 51
359.9999999997915
  0
ARC
  5
1C4
330
16B
100
AcDbEntity
  8
0
  6
Continuous
 62
     0
370
    30
100
AcDbCircle
 10
-35.33909038841598
 20
234.2436004154471
 30
0.0
 40
0.3000000119209282
100
AcDbArc
 50
0.0000000002083645
 51
83.99999999999886
  0
ARC
  5
1C5
330
16B
100
AcDbEntity
  8
0
  6
Continuous
 62
     0
370
    30
100
AcDbCircle
 10
-35.33908985309358
 20
241.3142641219991
 30
0.0
 40
0.3000000119209282
100
AcDbArc
 50
22.72657217633231
 51
83.99999999999886
  0
ARC
  5
1C6
330
16B
100
AcDbEntity
  8
0
  6
Continuous
 62
     0
370
    30
100
AcDbCircle
 10
-35.33908985309358
 20
244.8545065700451
 30
0.0
 40
0.3000000119209282
100
AcDbArc
 50
276.0000000000011
 51
359.9999999997915
  0
ARC
  5
1C7
330
16B
100
AcDbEntity
  8
0
  6
Continuous
 62
     0
370
    30
100
AcDbCircle
 10
-35.33908985309358
 20
248.8387072751638
 30
0.0
 40
0.300000011920929
100
AcDbArc
 50
0.0000000002083645
 51
83.99999999999888
  0
ARC
  5
1C8
330
16B
100
AcDbEntity
  8
0
  6
Continuous
 62
     0
370
    30
100
AcDbCircle
 10
-35.33908985309358
 20
252.3789497232098
 30
0.0
 40
0.300000011920929
100
AcDbArc
 50
276.000000000001
 51
337.2734278236662
  0
ARC
  5
1C9
330
16B
100
AcDbEntity
  8
0
  6
Continuous
 62
     0
370
    30
100
AcDbCircle
 10
-35.33909038841598
 20
259.4496134297617
 30
0.0
 40
0.300000011920929
100
AcDbArc
 50
276.000000000001
 51
359.9999999997915
  0
ARC
  5
1CA
330
16B
100
AcDbEntity
  8
0
  6
Continuous
 62
     0
370
    30
100
AcDbCircle
 10
-35.33909038841598
 20
255.9093709817157
 30
0.0
 40
0.300000011920929
100
AcDbArc
 50
0.0000000002083645
 51
83.99999999999888
  0
ARC
  5
1CB
330
16B
100
AcDbEntity
  8
0
  6
Continuous
 62
     0
370
    30
100
AcDbCircle
 10
-35.33909067325507
 20
255.6873918531793
 30
0.0
 40
0.300000011920929
100
AcDbArc
 50
276.000000000001
 51
359.9999999997915
  0
ARC
  5
1CC
330
16B
100
AcDbEntity
  8
0
  6
Continuous
 62
     0
370
    30
100
AcDbCircle
 10
-35.33909067325507
 20
252.1471494051333
 30
0.0
 40
0.3000000119209295
100
AcDbArc
 50
0.0000000002083645
 51
83.99999999999888
  0
ARC
  5
1CD
330
16B
100
AcDbEntity
  8
0
  6
Continuous
 62
     0
370
    30
100
AcDbCircle
 10
-35.33909078574682
 20
248.6167281466274
 30
0.0
 40
0.3000000119209299
100
AcDbArc
 50
276.000000000001
 51
359.9999999997915
  0
ARC
  5
1CE
330
16B
100
AcDbEntity
  8
0
  6
Continuous
 62
     0
370
    30
100
AcDbCircle
 10
-35.33909078574682
 20
245.0764856985814
 30
0.0
 40
0.3000000119209299
100
AcDbArc
 50
0.0000000002083645
 51
83.99999999999888
  0
ARC
  5
1CF
330
16B
100
AcDbEntity
  8
0
  6
Continuous
 62
     0
370
    30
100
AcDbCircle
 10
-36.73909064941321
 20
254.936940934602
 30
0.0
 40
0.3000000119209289
100
AcDbArc
 50
96.00000000020679
 51
180.0
  0
ARC
  5
1D0
330
16B
100
AcDbEntity
  8
0
  6
Continuous
 62
     0
370
    30
100
AcDbCircle
 10
-36.73909064941321
 20
252.8976003237107
 30
0.0
 40
0.3000000119209289
100
AcDbArc
 50
180.0
 51
263.9999999997932
  0
ARC
  5
1D1
330
16B
100
AcDbEntity
  8
0
  6
Continuous
 62
     0
370
    30
100
AcDbCircle
 10
-36.73909036457412
 20
258.6991625111843
 30
0.0
 40
0.3000000119209289
100
AcDbArc
 50
96.00000000020678
 51
180.0
  0
ARC
  5
1D2
330
16B
100
AcDbEntity
  8
0
  6
Continuous
 62
     0
370
    30
100
AcDbCircle
 10
-36.73909036457412
 20
256.659821900293
 30
0.0
 40
0.3000000119209289
100
AcDbArc
 50
180.0
 51
263.9999999997932
  0
ARC
  5
1D3
330
16B
100
AcDbEntity
  8
0
  6
Continuous
 62
     0
370
    30
100
AcDbCircle
 10
-36.73909004066705
 20
255.3532160587876
 30
0.0
 40
0.3000000119209289
100
AcDbArc
 50
179.9999999999999
 51
223.9310209745956
  0
ARC
  5
1D4
330
16B
100
AcDbEntity
  8
0
  6
Continuous
 62
     0
370
    30
100
AcDbCircle
 10
-36.73908982925172
 20
249.5891581937411
 30
0.0
 40
0.3000000119209289
100
AcDbArc
 50
180.0
 51
263.9999999997932
  0
ARC
  5
1D5
330
16B
100
AcDbEntity
  8
0
  6
Continuous
 62
     0
370
    30
100
AcDbCircle
 10
-36.73908982925172
 20
251.6284988046324
 30
0.0
 40
0.3000000119209289
100
AcDbArc
 50
96.00000000020681
 51
180.0
  0
ARC
  5
1D6
330
16B
100
AcDbEntity
  8
0
  6
Continuous
 62
     0
370
    30
100
AcDbCircle
 10
-36.73908982925172
 20
242.0647150405764
 30
0.0
 40
0.3000000119209289
100
AcDbArc
 50
180.0
 51
263.9999999997932
  0
ARC
  5
1D7
330
16B
100
AcDbEntity
  8
0
  6
Continuous
 62
     0
370
    30
100
AcDbCircle
 10
-36.73908982925172
 20
244.1040556514677
 30
0.0
 40
0.3000000119209289
100
AcDbArc
 50
96.00000000020681
 51
180.0
  0
ARC
  5
1D8
330
16B
100
AcDbEntity
  8
0
  6
Continuous
 62
     0
370
    30
100
AcDbCircle
 10
-36.73909004066705
 20
238.3399977864212
 30
0.0
 40
0.3000000119209289
100
AcDbArc
 50
136.0689790254057
 51
179.9999999999993
  0
ARC
  5
1D9
330
16B
100
AcDbEntity
  8
0
  6
Continuous
 62
     0
370
    30
100
AcDbCircle
 10
-36.73909036457412
 20
237.0333919449158
 30
0.0
 40
0.3000000119209289
100
AcDbArc
 50
96.00000000020681
 51
180.0
  0
ARC
  5
1DA
330
16B
100
AcDbEntity
  8
0
  6
Continuous
 62
     0
370
    30
100
AcDbCircle
 10
-36.73909036457412
 20
234.9940513340245
 30
0.0
 40
0.3000000119209289
100
AcDbArc
 50
180.0
 51
263.9999999997932
  0
ARC
  5
1DB
330
16B
100
AcDbEntity
  8
0
  6
Continuous
 62
     0
370
    30
100
AcDbCircle
 10
-36.73909064941321
 20
240.7956135214981
 30
0.0
 40
0.3000000119209289
100
AcDbArc
 50
96.00000000020678
 51
179.9999999999996
  0
ARC
  5
1DC
330
16B
100
AcDbEntity
  8
0
  6
Continuous
 62
     0
370
    30
100
AcDbCircle
 10
-36.73909064941321
 20
238.7562729106068
 30
0.0
 40
0.3000000119209289
100
AcDbArc
 50
180.0
 51
263.9999999997932
  0
LINE
  5
1DD
330
16B
100
AcDbEntity
  8
0
  6
Continuous
 62
     0
370
    30
100
AcDbLine
 10
-35.30773224552044
 20
248.3183715661613
 30
0.0
 11
-36.77044930213132
 21
248.1646338085162
 31
0.0
  0
LINE
  5
1DE
330
16B
100
AcDbEntity
  8
0
  6
Continuous
 62
     0
370
    30
100
AcDbLine
 10
-35.30773224552044
 20
245.3748422790475
 30
0.0
 11
-36.77044930213132
 21
245.5285800366927
 31
0.0
  0
LINE
  5
1DF
330
16B
100
AcDbEntity
  8
0
  6
Continuous
 62
     0
370
    30
100
AcDbLine
 10
-35.3077321330287
 20
255.3890352727132
 30
0.0
 11
-36.77044918963958
 21
255.2352975150681
 31
0.0
  0
LINE
  5
1E0
330
16B
100
AcDbEntity
  8
0
  6
Continuous
 62
     0
370
    30
100
AcDbLine
 10
-35.3077321330287
 20
252.4455059855994
 30
0.0
 11
-36.77044918963958
 21
252.5992437432446
 31
0.0
  0
LINE
  5
1E1
330
16B
100
AcDbEntity
  8
0
  6
Continuous
 62
     0
370
    30
100
AcDbLine
 10
-35.3077318481896
 20
259.1512568492956
 30
0.0
 11
-36.77044890480049
 21
258.9975190916504
 31
0.0
  0
LINE
  5
1E2
330
16B
100
AcDbEntity
  8
0
  6
Continuous
 62
     0
370
    30
100
AcDbLine
 10
-35.3077318481896
 20
256.2077275621818
 30
0.0
 11
-36.77044890480049
 21
256.3614653198269
 31
0.0
  0
LINE
  5
1E3
330
16B
100
AcDbEntity
  8
0
  6
Continuous
 62
     0
370
    30
100
AcDbLine
 10
-35.30773131286721
 20
249.1370638556299
 30
0.0
 11
-36.7704483694781
 21
249.2908016132751
 31
0.0
  0
LINE
  5
1E4
330
16B
100
AcDbEntity
  8
0
  6
Continuous
 62
     0
370
    30
100
AcDbLine
 10
-35.30773131286721
 20
252.0805931427437
 30
0.0
 11
-36.7704483694781
 21
251.9268553850985
 31
0.0
  0
LINE
  5
1E5
330
16B
100
AcDbEntity
  8
0
  6
Continuous
 62
     0
370
    30
100
AcDbLine
 10
-35.30773131286721
 20
241.6126207024651
 30
0.0
 11
-36.7704483694781
 21
241.7663584601103
 31
0.0
  0
LINE
  5
1E6
330
16B
100
AcDbEntity
  8
0
  6
Continuous
 62
     0
370
    30
100
AcDbLine
 10
-35.30773131286721
 20
244.5561499895789
 30
0.0
 11
-36.7704483694781
 21
244.4024122319338
 31
0.0
  0
LINE
  5
1E7
330
16B
100
AcDbEntity
  8
0
  6
Continuous
 62
     0
370
    30
100
AcDbLine
 10
-35.3077318481896
 20
237.485486283027
 30
0.0
 11
-36.77044890480049
 21
237.3317485253819
 31
0.0
  0
LINE
  5
1E8
330
16B
100
AcDbEntity
  8
0
  6
Continuous
 62
     0
370
    30
100
AcDbLine
 10
-35.3077318481896
 20
234.5419569959132
 30
0.0
 11
-36.77044890480049
 21
234.6956947535584
 31
0.0
  0
LINE
  5
1E9
330
16B
100
AcDbEntity
  8
0
  6
Continuous
 62
     0
370
    30
100
AcDbLine
 10
-35.3077321330287
 20
241.2477078596094
 30
0.0
 11
-36.77044918963958
 21
241.0939701019642
 31
0.0
  0
LINE
  5
1EA
330
16B
100
AcDbEntity
  8
0
  6
Continuous
 62
     0
370
    30
100
AcDbLine
 10
-35.3077321330287
 20
238.3041785724956
 30
0.0
 11
-36.77044918963958
 21
238.4579163301407
 31
0.0
  0
ARC
  5
1EB
330
16B
100
AcDbEntity
  8
0
  6
Continuous
 62
     0
370
    30
100
AcDbCircle
 10
-36.73909076190496
 20
247.8662772280501
 30
0.0
 40
0.3000000119209289
100
AcDbArc
 50
96.00000000020678
 51
180.0
  0
ARC
  5
1EC
330
16B
100
AcDbEntity
  8
0
  6
Continuous
 62
     0
370
    30
100
AcDbCircle
 10
-36.73909076190496
 20
245.8269366171588
 30
0.0
 40
0.3000000119209289
100
AcDbArc
 50
180.0
 51
263.9999999997932
  0
ARC
  5
1ED
330
16B
100
AcDbEntity
  8
0
  6
Continuous
 62
     0
370
    30
100
AcDbCircle
 10
-34.53909029300061
 20
262.3466069225404
 30
0.0
 40
0.5
100
AcDbArc
 50
90.0
 51
179.9999999997767
  0
LINE
  5
1EE
330
16B
100
AcDbEntity
  8
0
  6
Continuous
 62
     0
370
    30
100
AcDbLine
 10
3.46090970680332
 20
258.3466069225584
 30
0.0
 11
13.96090970680332
 21
258.3466069225584
 31
0.0
  0
LINE
  5
1EF
330
16B
100
AcDbEntity
  8
0
  6
Continuous
 62
     0
370
    30
100
AcDbLine
 10
-1.039090293136744
 20
255.5966069225695
 30
0.0
 11
0.0973240807722031
 21
256.8466627338693
 31
0.0
  0
ARC
  5
1F0
330
16B
100
AcDbEntity
  8
0
  6
Continuous
 62
     0
370
    30
100
AcDbCircle
 10
-7.028778225698545
 20
250.6267197724334
 30
0.0
 40
7.783067506745879
100
AcDbArc
 50
39.68387129097799
 51
82.69454122366457
  0
LINE
  5
1F1
330
16B
100
AcDbEntity
  8
0
  6
Continuous
 62
     0
370
    30
100
AcDbLine
 10
-23.53909029304675
 20
259.8466069225524
 30
0.0
 11
-22.53909029305054
 21
259.8466069225524
 31
0.0
  0
ENDBLK
  5
1F3
330
16B
100
AcDbEntity
  8
0
100
AcDbBlockEnd
  0
ENDSEC
  0
SECTION
  2
ENTITIES
  0
INSERT
  5
79
330
1F
100
AcDbEntity
  8
0
  6
Continuous
 62
   250
370
     0
100
AcDbBlockReference
  2
a
 10
67.04307556152343
 20
77.13893127441406
 30
0.0
  0
INSERT
  5
E3
330
1F
100
AcDbEntity
  8
0
  6
Continuous
 62
   250
370
     0
100
AcDbBlockReference
  2
b
 10
67.04307174682617
 20
109.8592681884765
 30
0.0
  0
INSERT
  5
16A
330
1F
100
AcDbEntity
  8
0
  6
Continuous
 62
   250
370
     0
100
AcDbBlockReference
  2
c
 10
10.39433288574218
 20
77.13892364501953
 30
0.0
  0
INSERT
  5
1F4
330
1F
100
AcDbEntity
  8
0
  6
Continuous
 62
   250
370
     0
100
AcDbBlockReference
  2
d
 10
40.61660766601562
 20
0.0
 30
0.0
  0
ENDSEC
  0
SECTION
  2
OBJECTS
  0
DICTIONARY
  5
C
330
0
100
AcDbDictionary
281
     1
  3
ACAD_GROUP
350
D
  3
ACAD_LAYOUT
350
1A
  3
ACAD_MLEADERSTYLE
350
1F7
  3
ACAD_MLINESTYLE
350
17
  3
ACAD_PLOTSETTINGS
350
19
  3
ACAD_PLOTSTYLENAME
350
E
  3
ACAD_VISUALSTYLE
350
2A
  3
AcDbVariableDictionary
350
1F5
  0
DICTIONARY
  5
D
102
{ACAD_REACTORS
330
C
102
}
330
C
100
AcDbDictionary
281
     1
  0
DICTIONARY
  5
1A
102
{ACAD_REACTORS
330
C
102
}
330
C
100
AcDbDictionary
281
     1
  3
Layout1
350
1E
  3
Layout2
350
26
  3
Model
350
22
  0
DICTIONARY
  5
1F7
102
{ACAD_REACTORS
330
C
102
}
330
C
100
AcDbDictionary
281
     1
  0
DICTIONARY
  5
17
102
{ACAD_REACTORS
330
C
102
}
330
C
100
AcDbDictionary
281
     1
  3
Standard
350
18
  0
DICTIONARY
  5
19
102
{ACAD_REACTORS
330
C
102
}
330
C
100
AcDbDictionary
281
     1
  0
ACDBDICTIONARYWDFLT
  5
E
102
{ACAD_REACTORS
330
C
102
}
330
C
100
AcDbDictionary
281
     1
  3
Normal
350
F
100
AcDbDictionaryWithDefault
340
F
  0
DICTIONARY
  5
2A
102
{ACAD_REACTORS
330
C
102
}
330
C
100
AcDbDictionary
281
     1
  3
2dWireframe
350
2F
  3
3D Hidden
350
31
  3
3dWireframe
350
30
  3
Basic
350
32
  3
Brighten
350
36
  3
ColorChange
350
3A
  3
Conceptual
350
34
  3
Dim
350
35
  3
Facepattern
350
39
  3
Flat
350
2B
  3
FlatWithEdges
350
2C
  3
Gouraud
350
2D
  3
GouraudWithEdges
350
2E
  3
Linepattern
350
38
  3
Realistic
350
33
  3
Thicken
350
37
  0
DICTIONARY
  5
1F5
102
{ACAD_REACTORS
330
C
102
}
330
C
100
AcDbDictionary
281
     1
  3
DIMASSOC
350
200
  3
PSOLHEIGHT
350
1F9
  3
PSOLWIDTH
350
1F8
  0
LAYOUT
  5
1E
102
{ACAD_REACTORS
330
1A
102
}
330
1A
100
AcDbPlotSettings
  1

  2
none_device
  4

  6

 40
0.0
 41
0.0
 42
0.0
 43
0.0
 44
0.0
 45
0.0
 46
0.0
 47
0.0
 48
0.0
 49
0.0
140
0.0
141
0.0
142
1.0
143
1.0
 70
   688
 72
     0
 73
     0
 74
     5
  7

 75
    16
147
1.0
148
0.0
149
0.0
100
AcDbLayout
  1
Layout1
 70
     1
 71
     1
 10
0.0
 20
0.0
 11
420.0
 21
297.0
 12
0.0
 22
0.0
 32
0.0
 14
1.000000000000000E+20
 24
1.000000000000000E+20
 34
1.000000000000000E+20
 15
-1.000000000000000E+20
 25
-1.000000000000000E+20
 35
-1.000000000000000E+20
146
0.0
 13
0.0
 23
0.0
 33
0.0
 16
1.0
 26
0.0
 36
0.0
 17
0.0
 27
1.0
 37
0.0
 76
     0
330
1B
  0
LAYOUT
  5
26
102
{ACAD_REACTORS
330
1A
102
}
330
1A
100
AcDbPlotSettings
  1

  2
none_device
  4

  6

 40
0.0
 41
0.0
 42
0.0
 43
0.0
 44
0.0
 45
0.0
 46
0.0
 47
0.0
 48
0.0
 49
0.0
140
0.0
141
0.0
142
1.0
143
1.0
 70
   688
 72
     0
 73
     0
 74
     5
  7

 75
    16
147
1.0
148
0.0
149
0.0
100
AcDbLayout
  1
Layout2
 70
     1
 71
     2
 10
0.0
 20
0.0
 11
0.0
 21
0.0
 12
0.0
 22
0.0
 32
0.0
 14
0.0
 24
0.0
 34
0.0
 15
0.0
 25
0.0
 35
0.0
146
0.0
 13
0.0
 23
0.0
 33
0.0
 16
1.0
 26
0.0
 36
0.0
 17
0.0
 27
1.0
 37
0.0
 76
     0
330
23
  0
LAYOUT
  5
22
102
{ACAD_REACTORS
330
1A
102
}
330
1A
100
AcDbPlotSettings
  1

  2
none_device
  4

  6

 40
0.0
 41
0.0
 42
0.0
 43
0.0
 44
0.0
 45
0.0
 46
0.0
 47
0.0
 48
0.0
 49
0.0
140
0.0
141
0.0
142
1.0
143
1.0
 70
  1712
 72
     0
 73
     0
 74
     0
  7

 75
     0
147
1.0
148
0.0
149
0.0
100
AcDbLayout
  1
Model
 70
     1
 71
     0
 10
-37.03908920288085
 20
107.6933288574218
 11
269.5269165039062
 21
266.8466186523437
 12
0.0
 22
0.0
 32
0.0
 14
-37.03908920288085
 24
107.6933288574218
 34
0.0
 15
269.5269165039062
 25
266.8466186523437
 35
0.0
146
0.0
 13
0.0
 23
0.0
 33
0.0
 16
1.0
 26
0.0
 36
0.0
 17
0.0
 27
1.0
 37
0.0
 76
     0
330
1F
  0
MLINESTYLE
  5
18
102
{ACAD_REACTORS
330
17
102
}
330
17
100
AcDbMlineStyle
  2
STANDARD
 70
     0
  3

 62
   256
 51
90.0
 52
90.0
 71
     2
 49
0.5
 62
   256
  6
BYLAYER
 49
-0.5
 62
   256
  6
BYLAYER
  0
ACDBPLACEHOLDER
  5
F
102
{ACAD_REACTORS
330
E
102
}
330
E
  0
ACAD_PROXY_OBJECT
  5
2F
102
{ACAD_REACTORS
330
2A
102
}
330
2A
100
AcDbProxyObject
 90
      499
 91
      501
 95
   851991
 70
     0
 93
      436
310
42CC9915DA5C99599C985B595049028333333333333E3BF0000000000000FB0107901411070040501600405405064090741402480A0340
 94
        0
1001
ACAD
1000
AcDbSavedByObjectVersion
1070
     0
  0
ACAD_PROXY_OBJECT
  5
31
102
{ACAD_REACTORS
330
2A
102
}
330
2A
100
AcDbProxyObject
 90
      499
 91
      501
 95
   851991
 70
     0
 93
      500
310
424CD108121A5919195B90640502408333333333333E3BF0000000000000FB01079024090700405020000000000001110200405405064090740C02480A034D
 94
        0
1001
ACAD
1000
AcDbSavedByObjectVersion
1070
     0
  0
ACAD_PROXY_OBJECT
  5
30
102
{ACAD_REACTORS
330
2A
102
}
330
2A
100
AcDbProxyObject
 90
      499
 91
      501
 95
   851991
 70
     0
 93
      436
310
42CCD915DA5C99599C985B595059028333333333333E3BF0000000000000FB0107901411070040501600405405064090741402480A0340
 94
        0
1001
ACAD
1000
AcDbSavedByObjectVersion
1070
     0
  0
ACAD_PROXY_OBJECT
  5
32
102
{ACAD_REACTORS
330
2A
102
}
330
2A
100
AcDbProxyObject
 90
      499
 91
      501
 95
   851991
 70
     0
 93
      388
310
4150985CDA58D07406404333333333333E3BF0000000000000FB0107A41107004050150841D405064090741402480A0352
 94
        0
1001
ACAD
1000
AcDbSavedByObjectVersion
1070
     0
  0
ACAD_PROXY_OBJECT
  5
36
102
{ACAD_REACTORS
330
2A
102
}
330
2A
100
AcDbProxyObject
 90
      499
 91
      501
 95
   851991
 70
     0
 93
      428
310
42109C9A59DA1D195B90C409028333333333333E3BF0000000000000FB010790141107004050150841D405064090741402480A029956
 94
        0
1001
ACAD
1000
AcDbSavedByObjectVersion
1070
     0
  0
ACAD_PROXY_OBJECT
  5
3A
102
{ACAD_REACTORS
330
2A
102
}
330
2A
100
AcDbProxyObject
 90
      499
 91
      501
 95
   851991
 70
     0
 93
      452
310
42D0DBDB1BDC90DA185B99D95104090240C333333333333E3BF0000000000000FB0108901411070040501508421405064090741402480A0354
 94
        0
1001
ACAD
1000
AcDbSavedByObjectVersion
1070
     0
  0
ACAD_PROXY_OBJECT
  5
34
102
{ACAD_REACTORS
330
2A
102
}
330
2A
100
AcDbProxyObject
 90
      499
 91
      501
 95
   851991
 70
     0
 93
      500
310
4290DBDB98D95C1D1D585B10940D028333333333333E3BF0000000000000FB0107902409070040501000000000000111010841D405064090740C02480A034D
 94
        0
1001
ACAD
1000
AcDbSavedByObjectVersion
1070
     0
  0
ACAD_PROXY_OBJECT
  5
35
102
{ACAD_REACTORS
330
2A
102
}
330
2A
100
AcDbProxyObject
 90
      499
 91
      501
 95
   851991
 70
     0
 93
      412
310
40D11A5B50B409028333333333333E3BF0000000000000FB010790141107004050150841D405064090741402480A02677FFFFFD4
 94
        0
1001
ACAD
1000
AcDbSavedByObjectVersion
1070
     0
  0
ACAD_PROXY_OBJECT
  5
39
102
{ACAD_REACTORS
330
2A
102
}
330
2A
100
AcDbProxyObject
 90
      499
 91
      501
 95
   851991
 70
     0
 93
      444
310
42D19858D95C185D1D195C9B90F409028333333333333E3BF0000000000000FB010790141107004050150841D405064090741402480A0350
 94
        0
1001
ACAD
1000
AcDbSavedByObjectVersion
1070
     0
  0
ACAD_PROXY_OBJECT
  5
2B
102
{ACAD_REACTORS
330
2A
102
}
330
2A
100
AcDbProxyObject
 90
      499
 91
      501
 95
   851991
 70
     0
 93
      388
310
41119B185D240901404333333333333E3BF0000000000000F9010740A41107004050150841D405064090741402480A1B5D
 94
        0
1001
ACAD
1000
AcDbSavedByObjectVersion
1070
     0
  0
ACAD_PROXY_OBJECT
  5
2C
102
{ACAD_REACTORS
330
2A
102
}
330
2A
100
AcDbProxyObject
 90
      499
 91
      501
 95
   851991
 70
     0
 93
      476
310
43519B185D15DA5D1A115919D95CD0140901404333333333333E3BF0000000000000F9010740901411070040501600405405064090741402480A1B50
 94
        0
1001
ACAD
1000
AcDbSavedByObjectVersion
1070
     0
  0
ACAD_PROXY_OBJECT
  5
2D
102
{ACAD_REACTORS
330
2A
102
}
330
2A
100
AcDbProxyObject
 90
      499
 91
      501
 95
   851991
 70
     0
 93
      412
310
41D1DBDD5C985D5910240902404333333333333E3BF0000000000000F9010740A411070040501641D405064090741402480A1B50
 94
        0
1001
ACAD
1000
AcDbSavedByObjectVersion
1070
     0
  0
ACAD_PROXY_OBJECT
  5
2E
102
{ACAD_REACTORS
330
2A
102
}
330
2A
100
AcDbProxyObject
 90
      499
 91
      501
 95
   851991
 70
     0
 93
      500
310
4411DBDD5C985D5915DA5D1A115919D95CD0340902404333333333333E3BF0000000000000F9010740901411070040501600405405064090741402480A1B5D
 94
        0
1001
ACAD
1000
AcDbSavedByObjectVersion
1070
     0
  0
ACAD_PROXY_OBJECT
  5
38
102
{ACAD_REACTORS
330
2A
102
}
330
2A
100
AcDbProxyObject
 90
      499
 91
      501
 95
   851991
 70
     0
 93
      444
310
42D31A5B995C185D1D195C9B90E409028333333333333E3BF0000000000000FB010790141107004050750841D405064090741402483A0350
 94
        0
1001
ACAD
1000
AcDbSavedByObjectVersion
1070
     0
  0
ACAD_PROXY_OBJECT
  5
33
102
{ACAD_REACTORS
330
2A
102
}
330
2A
100
AcDbProxyObject
 90
      499
 91
      501
 95
   851991
 70
     0
 93
      420
310
425499585B1A5CDD1A58D08409028333333333333E3BF0000000000000FB01079019070040501508421405064090741402480A1B45
 94
        0
1001
ACAD
1000
AcDbSavedByObjectVersion
1070
     0
  0
ACAD_PROXY_OBJECT
  5
37
102
{ACAD_REACTORS
330
2A
102
}
330
2A
100
AcDbProxyObject
 90
      499
 91
      501
 95
   851991
 70
     0
 93
      412
310
41D51A1A58DAD95B90D409028333333333333E3BF0000000000000FB010790141107004050150C41D405064090741402480A0352
 94
        0
1001
ACAD
1000
AcDbSavedByObjectVersion
1070
     0
  0
DICTIONARYVAR
  5
200
102
{ACAD_REACTORS
330
1F5
102
}
330
1F5
100
DictionaryVariables
280
     0
  1
1
  0
DICTIONARYVAR
  5
1F9
102
{ACAD_REACTORS
330
1F5
102
}
330
1F5
100
DictionaryVariables
280
     0
  1
80.000000
  0
DICTIONARYVAR
  5
1F8
102
{ACAD_REACTORS
330
1F5
102
}
330
1F5
100
DictionaryVariables
280
     0
  1
5.000000
  0
ENDSEC
  0
EOF
