  0
SECTION
  2
HEADER
  9
$ACADVER
  1
AC1015
  9
$ACADMAINTVER
 70
     6
  9
$DWGCODEPAGE
  3
ANSI_1252
  9
$INSBASE
 10
0.0
 20
0.0
 30
0.0
  9
$EXTMIN
 10
-57.634701
 20
63.667107
 30
0.0
  9
$EXTMAX
 10
327.119476
 20
266.309937
 30
0.0
  9
$LIMMIN
 10
-57.634701
 20
63.667107
  9
$LIMMAX
 10
327.119476
 20
266.309937
  9
$ORTHOMODE
 70
     0
  9
$REGENMODE
 70
     1
  9
$FILLMODE
 70
     1
  9
$QTEXTMODE
 70
     0
  9
$MIRRTEXT
 70
     1
  9
$LTSCALE
 40
1.0
  9
$ATTMODE
 70
     1
  9
$TEXTSIZE
 40
2.5
  9
$TRACEWID
 40
1.0
  9
$TEXTSTYLE
  7
Standard
  9
$CLAYER
  8
0
  9
$CELTYPE
  6
ByLayer
  9
$CECOLOR
 62
   256
  9
$CELTSCALE
 40
1.0
  9
$DISPSILH
 70
     0
  9
$DIMSCALE
 40
1.0
  9
$DIMASZ
 40
2.5
  9
$DIMEXO
 40
0.625
  9
$DIMDLI
 40
3.75
  9
$DIMRND
 40
0.0
  9
$DIMDLE
 40
0.0
  9
$DIMEXE
 40
1.25
  9
$DIMTP
 40
0.0
  9
$DIMTM
 40
0.0
  9
$DIMTXT
 40
2.5
  9
$DIMCEN
 40
2.5
  9
$DIMTSZ
 40
0.0
  9
$DIMTOL
 70
     0
  9
$DIMLIM
 70
     0
  9
$DIMTIH
 70
     0
  9
$DIMTOH
 70
     0
  9
$DIMSE1
 70
     0
  9
$DIMSE2
 70
     0
  9
$DIMTAD
 70
     1
  9
$DIMZIN
 70
     8
  9
$DIMBLK
  1

  9
$DIMASO
 70
     1
  9
$DIMSHO
 70
     1
  9
$DIMPOST
  1

  9
$DIMAPOST
  1

  9
$DIMALT
 70
     0
  9
$DIMALTD
 70
     3
  9
$DIMALTF
 40
0.03937
  9
$DIMLFAC
 40
1.0
  9
$DIMTOFL
 70
     1
  9
$DIMTVP
 40
0.0
  9
$DIMTIX
 70
     0
  9
$DIMSOXD
 70
     0
  9
$DIMSAH
 70
     0
  9
$DIMBLK1
  1

  9
$DIMBLK2
  1

  9
$DIMSTYLE
  2
ISO-25
  9
$DIMCLRD
 70
     0
  9
$DIMCLRE
 70
     0
  9
$DIMCLRT
 70
     0
  9
$DIMTFAC
 40
1.0
  9
$DIMGAP
 40
0.625
  9
$DIMJUST
 70
     0
  9
$DIMSD1
 70
     0
  9
$DIMSD2
 70
     0
  9
$DIMTOLJ
 70
     0
  9
$DIMTZIN
 70
     8
  9
$DIMALTZ
 70
     0
  9
$DIMALTTZ
 70
     0
  9
$DIMUPT
 70
     0
  9
$DIMDEC
 70
     2
  9
$DIMTDEC
 70
     2
  9
$DIMALTU
 70
     2
  9
$DIMALTTD
 70
     3
  9
$DIMTXSTY
  7
Standard
  9
$DIMAUNIT
 70
     0
  9
$DIMADEC
 70
     0
  9
$DIMALTRND
 40
0.0
  9
$DIMAZIN
 70
     0
  9
$DIMDSEP
 70
    44
  9
$DIMATFIT
 70
     3
  9
$DIMFRAC
 70
     0
  9
$DIMLDRBLK
  1

  9
$DIMLUNIT
 70
     2
  9
$DIMLWD
 70
    -2
  9
$DIMLWE
 70
    -2
  9
$DIMTMOVE
 70
     0
  9
$LUNITS
 70
     2
  9
$LUPREC
 70
     4
  9
$SKETCHINC
 40
1.0
  9
$FILLETRAD
 40
10.0
  9
$AUNITS
 70
     0
  9
$AUPREC
 70
     0
  9
$MENU
  1
.
  9
$ELEVATION
 40
0.0
  9
$PELEVATION
 40
0.0
  9
$THICKNESS
 40
0.0
  9
$LIMCHECK
 70
     0
  9
$CHAMFERA
 40
10.0
  9
$CHAMFERB
 40
10.0
  9
$CHAMFERC
 40
20.0
  9
$CHAMFERD
 40
0.0
  9
$SKPOLY
 70
     0
  9
$TDCREATE
 40
2455554.60379809
  9
$TDUCREATE
 40
2455554.562131424
  9
$TDUPDATE
 40
2455554.603798102
  9
$TDUUPDATE
 40
2455554.562131435
  9
$TDINDWG
 40
0.0000000116
  9
$TDUSRTIMER
 40
0.0000000116
  9
$USRTIMER
 70
     1
  9
$ANGBASE
 50
0.0
  9
$ANGDIR
 70
     0
  9
$PDMODE
 70
     0
  9
$PDSIZE
 40
0.0
  9
$PLINEWID
 40
0.0
  9
$SPLFRAME
 70
     0
  9
$SPLINETYPE
 70
     6
  9
$SPLINESEGS
 70
     8
  9
$HANDSEED
  5
2CF
  9
$SURFTAB1
 70
     6
  9
$SURFTAB2
 70
     6
  9
$SURFTYPE
 70
     6
  9
$SURFU
 70
     6
  9
$SURFV
 70
     6
  9
$UCSBASE
  2

  9
$UCSNAME
  2

  9
$UCSORG
 10
0.0
 20
0.0
 30
0.0
  9
$UCSXDIR
 10
1.0
 20
0.0
 30
0.0
  9
$UCSYDIR
 10
0.0
 20
1.0
 30
0.0
  9
$UCSORTHOREF
  2

  9
$UCSORTHOVIEW
 70
     0
  9
$UCSORGTOP
 10
0.0
 20
0.0
 30
0.0
  9
$UCSORGBOTTOM
 10
0.0
 20
0.0
 30
0.0
  9
$UCSORGLEFT
 10
0.0
 20
0.0
 30
0.0
  9
$UCSORGRIGHT
 10
0.0
 20
0.0
 30
0.0
  9
$UCSORGFRONT
 10
0.0
 20
0.0
 30
0.0
  9
$UCSORGBACK
 10
0.0
 20
0.0
 30
0.0
  9
$PUCSBASE
  2

  9
$PUCSNAME
  2

  9
$PUCSORG
 10
0.0
 20
0.0
 30
0.0
  9
$PUCSXDIR
 10
1.0
 20
0.0
 30
0.0
  9
$PUCSYDIR
 10
0.0
 20
1.0
 30
0.0
  9
$PUCSORTHOREF
  2

  9
$PUCSORTHOVIEW
 70
     0
  9
$PUCSORGTOP
 10
0.0
 20
0.0
 30
0.0
  9
$PUCSORGBOTTOM
 10
0.0
 20
0.0
 30
0.0
  9
$PUCSORGLEFT
 10
0.0
 20
0.0
 30
0.0
  9
$PUCSORGRIGHT
 10
0.0
 20
0.0
 30
0.0
  9
$PUCSORGFRONT
 10
0.0
 20
0.0
 30
0.0
  9
$PUCSORGBACK
 10
0.0
 20
0.0
 30
0.0
  9
$USERI1
 70
     0
  9
$USERI2
 70
     0
  9
$USERI3
 70
     0
  9
$USERI4
 70
     0
  9
$USERI5
 70
     0
  9
$USERR1
 40
0.0
  9
$USERR2
 40
0.0
  9
$USERR3
 40
0.0
  9
$USERR4
 40
0.0
  9
$USERR5
 40
0.0
  9
$WORLDVIEW
 70
     1
  9
$SHADEDGE
 70
     3
  9
$SHADEDIF
 70
    70
  9
$TILEMODE
 70
     1
  9
$MAXACTVP
 70
    64
  9
$PINSBASE
 10
0.0
 20
0.0
 30
0.0
  9
$PLIMCHECK
 70
     0
  9
$PEXTMIN
 10
1.000000E+20
 20
1.000000E+20
 30
1.000000E+20
  9
$PEXTMAX
 10
-1.000000E+20
 20
-1.000000E+20
 30
-1.000000E+20
  9
$PLIMMIN
 10
0.0
 20
0.0
  9
$PLIMMAX
 10
420.0
 20
297.0
  9
$UNITMODE
 70
     0
  9
$VISRETAIN
 70
     1
  9
$PLINEGEN
 70
     0
  9
$PSLTSCALE
 70
     1
  9
$TREEDEPTH
 70
  3020
  9
$CMLSTYLE
  2
Standard
  9
$CMLJUST
 70
     0
  9
$CMLSCALE
 40
20.0
  9
$PROXYGRAPHICS
 70
     1
  9
$MEASUREMENT
 70
     1
  9
$CELWEIGHT
370
    -1
  9
$ENDCAPS
280
     0
  9
$JOINSTYLE
280
     0
  9
$LWDISPLAY
290
     0
  9
$INSUNITS
 70
     4
  9
$HYPERLINKBASE
  1

  9
$STYLESHEET
  1

  9
$XEDIT
290
     1
  9
$CEPSNTYPE
380
     0
  9
$PSTYLEMODE
290
     1
  9
$FINGERPRINTGUID
  2
{B18AB7F9-4297-4993-98BE-5B44BBA543EF}
  9
$VERSIONGUID
  2
{FAEB1C32-E019-11D5-929B-00C0DF256EC4}
  9
$EXTNAMES
290
     1
  9
$PSVPSCALE
 40
0.0
  9
$OLESTARTUP
290
     0
  0
ENDSEC
  0
SECTION
  2
CLASSES
  0
CLASS
  1
ACDBDICTIONARYWDFLT
  2
AcDbDictionaryWithDefault
  3
ObjectDBX Classes
 90
        0
280
     0
281
     0
  0
CLASS
  1
VISUALSTYLE
  2
AcDbVisualStyle
  3
ObjectDBX Classes
 90
     4095
280
     0
281
     0
  0
CLASS
  1
DICTIONARYVAR
  2
AcDbDictionaryVar
  3
ObjectDBX Classes
 90
        0
280
     0
281
     0
  0
CLASS
  1
ACDBPLACEHOLDER
  2
AcDbPlaceHolder
  3
ObjectDBX Classes
 90
        0
280
     0
281
     0
  0
CLASS
  1
LAYOUT
  2
AcDbLayout
  3
ObjectDBX Classes
 90
        0
280
     0
281
     0
  0
ENDSEC
  0
SECTION
  2
TABLES
  0
TABLE
  2
VPORT
  5
8
330
0
100
AcDbSymbolTable
 70
     1
  0
VPORT
  5
29
330
8
100
AcDbSymbolTableRecord
100
AcDbViewportTableRecord
  2
*Active
 70
     0
 10
0.0
 20
0.0
 11
1.0
 21
1.0
 12
344.186916
 22
148.5
 13
0.0
 23
0.0
 14
10.0
 24
10.0
 15
10.0
 25
10.0
 16
0.0
 26
0.0
 36
1.0
 17
0.0
 27
0.0
 37
0.0
 40
297.0
 41
1.972973
 42
50.0
 43
0.0
 44
0.0
 50
0.0
 51
0.0
 71
     0
 72
   100
 73
     1
 74
     3
 75
     0
 76
     0
 77
     0
 78
     0
281
     0
 65
     1
110
0.0
120
0.0
130
0.0
111
1.0
121
0.0
131
0.0
112
0.0
122
1.0
132
0.0
 79
     0
146
0.0
  0
ENDTAB
  0
TABLE
  2
LTYPE
  5
5
330
0
100
AcDbSymbolTable
 70
     1
  0
LTYPE
  5
14
330
5
100
AcDbSymbolTableRecord
100
AcDbLinetypeTableRecord
  2
ByBlock
 70
     0
  3

 72
    65
 73
     0
 40
0.0
  0
LTYPE
  5
15
330
5
100
AcDbSymbolTableRecord
100
AcDbLinetypeTableRecord
  2
ByLayer
 70
     0
  3

 72
    65
 73
     0
 40
0.0
  0
LTYPE
  5
16
330
5
100
AcDbSymbolTableRecord
100
AcDbLinetypeTableRecord
  2
Continuous
 70
     0
  3
Solid line
 72
    65
 73
     0
 40
0.0
  0
ENDTAB
  0
TABLE
  2
LAYER
  5
2
330
0
100
AcDbSymbolTable
 70
     1
  0
LAYER
  5
10
330
2
100
AcDbSymbolTableRecord
100
AcDbLayerTableRecord
  2
0
 70
     0
 62
   106
  6
Continuous
370
     0
390
F
  0
ENDTAB
  0
TABLE
  2
STYLE
  5
3
330
0
100
AcDbSymbolTable
 70
     4
  0
STYLE
  5
11
330
3
100
AcDbSymbolTableRecord
100
AcDbTextStyleTableRecord
  2
Standard
 70
     0
 40
0.0
 41
1.0
 50
0.0
 71
     0
 42
2.5
  3
txt
  4

  0
STYLE
  5
3B
330
3
100
AcDbSymbolTableRecord
100
AcDbTextStyleTableRecord
  2
Default
 70
     0
 40
0.0
 41
1.0
 50
0.0
 71
     0
 42
0.2
  3

  4

1001
ACAD
1000
txt
1071
        0
  0
STYLE
  5
3C
330
3
100
AcDbSymbolTableRecord
100
AcDbTextStyleTableRecord
  2
ISO
 70
     0
 40
0.0
 41
1.0
 50
0.0
 71
     0
 42
0.2
  3

  4

1001
ACAD
1000
txt
1071
        0
  0
STYLE
  5
3D
330
3
100
AcDbSymbolTableRecord
100
AcDbTextStyleTableRecord
  2
GIANLU
 70
     0
 40
0.0
 41
1.0
 50
0.0
 71
     0
 42
0.2
  3

  4

1001
ACAD
1000
Arial
1071
        0
  0
ENDTAB
  0
TABLE
  2
VIEW
  5
6
330
0
100
AcDbSymbolTable
 70
     0
  0
ENDTAB
  0
TABLE
  2
UCS
  5
7
330
0
100
AcDbSymbolTable
 70
     0
  0
ENDTAB
  0
TABLE
  2
APPID
  5
9
330
0
100
AcDbSymbolTable
 70
     1
  0
APPID
  5
12
330
9
100
AcDbSymbolTableRecord
100
AcDbRegAppTableRecord
  2
ACAD
 70
     0
  0
ENDTAB
  0
TABLE
  2
DIMSTYLE
  5
A
330
0
100
AcDbSymbolTable
 70
     4
100
AcDbDimStyleTable
  0
DIMSTYLE
105
27
330
A
100
AcDbSymbolTableRecord
100
AcDbDimStyleTableRecord
  2
ISO-25
 70
     0
 41
2.5
 42
0.625
 43
3.75
 44
1.25
 73
     0
 74
     0
 77
     1
 78
     8
140
2.5
141
2.5
143
0.03937
147
0.625
171
     3
172
     1
271
     2
272
     2
274
     3
278
    44
283
     0
284
     8
340
11
  0
DIMSTYLE
105
3E
330
A
100
AcDbSymbolTableRecord
100
AcDbDimStyleTableRecord
  2
Default
 70
     0
  3
<>
 41
4.375
 42
1.05
 44
2.1
 73
     0
 74
     0
 77
     1
 78
     8
140
3.5
146
0.4
147
1.75
178
     3
271
     2
272
     3
284
     8
340
3B
341
3F
342
3F
  0
DIMSTYLE
105
46
330
A
100
AcDbSymbolTableRecord
100
AcDbDimStyleTableRecord
  2
ISO
 70
     0
  3
<>
 41
4.375
 42
1.05
 44
2.1
 73
     0
 74
     0
 77
     1
 78
     8
140
3.5
146
0.4
147
1.75
178
     3
271
     2
272
     3
284
     8
340
3C
341
3F
342
3F
  0
DIMSTYLE
105
47
330
A
100
AcDbSymbolTableRecord
100
AcDbDimStyleTableRecord
  2
zucchetti_unico
 70
     0
  3
<>
 41
3.0
 42
0.9
 44
1.8
 73
     0
 74
     0
 77
     1
 78
     8
140
3.0
146
0.6
147
1.5
176
   104
177
     3
178
     3
271
     2
272
     2
284
     8
340
3D
  0
ENDTAB
  0
TABLE
  2
BLOCK_RECORD
  5
1
330
0
100
AcDbSymbolTable
 70
     7
  0
BLOCK_RECORD
  5
1F
330
1
100
AcDbSymbolTableRecord
100
AcDbBlockTableRecord
  2
*Model_Space
340
22
  0
BLOCK_RECORD
  5
1B
330
1
100
AcDbSymbolTableRecord
100
AcDbBlockTableRecord
  2
*Paper_Space
340
1E
  0
BLOCK_RECORD
  5
23
330
1
100
AcDbSymbolTableRecord
100
AcDbBlockTableRecord
  2
*Paper_Space0
340
26
  0
BLOCK_RECORD
  5
3F
330
1
100
AcDbSymbolTableRecord
100
AcDbBlockTableRecord
  2
_CLOSED
340
0
  0
BLOCK_RECORD
  5
48
330
1
100
AcDbSymbolTableRecord
100
AcDbBlockTableRecord
  2
a
340
0
102
{BLKREFS
331
9B
102
}
  0
BLOCK_RECORD
  5
9C
330
1
100
AcDbSymbolTableRecord
100
AcDbBlockTableRecord
  2
b
340
0
102
{BLKREFS
331
131
102
}
  0
BLOCK_RECORD
  5
132
330
1
100
AcDbSymbolTableRecord
100
AcDbBlockTableRecord
  2
c
340
0
102
{BLKREFS
331
1A8
102
}
  0
BLOCK_RECORD
  5
1A9
330
1
100
AcDbSymbolTableRecord
100
AcDbBlockTableRecord
  2
e
340
0
102
{BLKREFS
331
221
102
}
  0
BLOCK_RECORD
  5
222
330
1
100
AcDbSymbolTableRecord
100
AcDbBlockTableRecord
  2
d
340
0
102
{BLKREFS
331
2C9
102
}
  0
ENDTAB
  0
ENDSEC
  0
SECTION
  2
BLOCKS
  0
BLOCK
  5
20
330
1F
100
AcDbEntity
  8
0
100
AcDbBlockBegin
  2
*Model_Space
 70
     0
 10
0.0
 20
0.0
 30
0.0
  3
*Model_Space
  1

  0
ENDBLK
  5
21
330
1F
100
AcDbEntity
  8
0
100
AcDbBlockEnd
  0
BLOCK
  5
1C
330
1B
100
AcDbEntity
 67
     1
  8
0
100
AcDbBlockBegin
  2
*Paper_Space
 70
     0
 10
0.0
 20
0.0
 30
0.0
  3
*Paper_Space
  1

  0
ENDBLK
  5
1D
330
1B
100
AcDbEntity
 67
     1
  8
0
100
AcDbBlockEnd
  0
BLOCK
  5
24
330
23
100
AcDbEntity
  8
0
100
AcDbBlockBegin
  2
*Paper_Space0
 70
     0
 10
0.0
 20
0.0
 30
0.0
  3
*Paper_Space0
  1

  0
ENDBLK
  5
25
330
23
100
AcDbEntity
  8
0
100
AcDbBlockEnd
  0
BLOCK
  5
40
330
3F
100
AcDbEntity
  8
0
100
AcDbBlockBegin
  2
_CLOSED
 70
     0
 10
0.0
 20
0.0
 30
0.0
  3
_CLOSED
  1

  0
LINE
  5
42
330
3F
100
AcDbEntity
  8
0
  6
ByBlock
 62
     0
370
    -2
100
AcDbLine
 10
-1.0
 20
0.166667
 30
0.0
 11
0.0
 21
0.0
 31
0.0
  0
LINE
  5
43
330
3F
100
AcDbEntity
  8
0
  6
ByBlock
 62
     0
370
    -2
100
AcDbLine
 10
0.0
 20
0.0
 30
0.0
 11
-1.0
 21
-0.166667
 31
0.0
  0
LINE
  5
44
330
3F
100
AcDbEntity
  8
0
  6
ByBlock
 62
     0
370
    -2
100
AcDbLine
 10
-1.0
 20
0.166667
 30
0.0
 11
-1.0
 21
-0.166667
 31
0.0
  0
LINE
  5
45
330
3F
100
AcDbEntity
  8
0
  6
ByBlock
 62
     0
370
    -2
100
AcDbLine
 10
0.0
 20
0.0
 30
0.0
 11
-1.0
 21
0.0
 31
0.0
  0
ENDBLK
  5
41
330
3F
100
AcDbEntity
  8
0
100
AcDbBlockEnd
  0
BLOCK
  5
99
330
48
100
AcDbEntity
  8
0
100
AcDbBlockBegin
  2
a
 70
     0
 10
68.864807
 20
77.184128
 30
0.0
  3
a
  1

  0
ARC
  5
49
330
48
100
AcDbEntity
  8
0
  6
Continuous
 62
     0
370
     0
100
AcDbCircle
 10
115.643972
 20
246.309919
 30
0.0
 40
19.49999999992001
100
AcDbArc
 50
0.0
 51
180.0
  0
ARC
  5
4A
330
48
100
AcDbEntity
  8
0
  6
Continuous
 62
     0
370
     0
100
AcDbCircle
 10
115.643972
 20
246.309919
 30
0.0
 40
19.49999999992001
100
AcDbArc
 50
180.0
 51
360.0
  0
ARC
  5
4B
330
48
100
AcDbEntity
  8
0
  6
Continuous
 62
     0
370
     0
100
AcDbCircle
 10
115.643972
 20
246.309919
 30
0.0
 40
15.49999999993596
100
AcDbArc
 50
180.0
 51
360.0
  0
ARC
  5
4C
330
48
100
AcDbEntity
  8
0
  6
Continuous
 62
     0
370
     0
100
AcDbCircle
 10
115.643972
 20
246.309919
 30
0.0
 40
15.49999999993596
100
AcDbArc
 50
0.0
 51
180.0
  0
ARC
  5
4D
330
48
100
AcDbEntity
  8
0
  6
Continuous
 62
     0
370
    30
100
AcDbCircle
 10
115.643972
 20
246.309919
 30
0.0
 40
15.99999999993596
100
AcDbArc
 50
0.0
 51
180.0
  0
ARC
  5
4E
330
48
100
AcDbEntity
  8
0
  6
Continuous
 62
     0
370
    30
100
AcDbCircle
 10
115.643972
 20
246.309919
 30
0.0
 40
15.99999999993596
100
AcDbArc
 50
180.0
 51
360.0
  0
ARC
  5
4F
330
48
100
AcDbEntity
  8
0
  6
Continuous
 62
     0
370
    30
100
AcDbCircle
 10
115.643972
 20
246.309919
 30
0.0
 40
19.99999999992001
100
AcDbArc
 50
0.0
 51
180.0
  0
ARC
  5
50
330
48
100
AcDbEntity
  8
0
  6
Continuous
 62
     0
370
    30
100
AcDbCircle
 10
115.643972
 20
246.309919
 30
0.0
 40
19.99999999992001
100
AcDbArc
 50
180.0
 51
360.0
  0
ARC
  5
51
330
48
100
AcDbEntity
  8
0
  6
Continuous
 62
     0
370
     0
100
AcDbCircle
 10
115.643972
 20
257.309919
 30
0.0
 40
1.019670305445644
100
AcDbArc
 50
90.0
 51
270.0
  0
ARC
  5
52
330
48
100
AcDbEntity
  8
0
  6
Continuous
 62
     0
370
     0
100
AcDbCircle
 10
115.643972
 20
257.309919
 30
0.0
 40
1.019670305445644
100
AcDbArc
 50
270.0
 51
90.0
  0
ARC
  5
53
330
48
100
AcDbEntity
  8
0
  6
Continuous
 62
     0
370
     0
100
AcDbCircle
 10
115.643972
 20
257.309919
 30
0.0
 40
1.318026885911751
100
AcDbArc
 50
90.0
 51
270.0
  0
ARC
  5
54
330
48
100
AcDbEntity
  8
0
  6
Continuous
 62
     0
370
     0
100
AcDbCircle
 10
115.643972
 20
257.309919
 30
0.0
 40
1.318026885911751
100
AcDbArc
 50
270.0
 51
90.0
  0
ARC
  5
55
330
48
100
AcDbEntity
  8
0
  6
Continuous
 62
     0
370
     0
100
AcDbCircle
 10
115.643972
 20
257.309919
 30
0.0
 40
1.770121224023004
100
AcDbArc
 50
270.0
 51
90.0
  0
ARC
  5
56
330
48
100
AcDbEntity
  8
0
  6
Continuous
 62
     0
370
     0
100
AcDbCircle
 10
115.643972
 20
257.309919
 30
0.0
 40
1.770121224023004
100
AcDbArc
 50
90.0
 51
270.0
  0
ARC
  5
57
330
48
100
AcDbEntity
  8
0
  6
Continuous
 62
     0
370
     0
100
AcDbCircle
 10
108.573309
 20
254.736408
 30
0.0
 40
1.770121224023005
100
AcDbArc
 50
310.0
 51
130.0
  0
ARC
  5
58
330
48
100
AcDbEntity
  8
0
  6
Continuous
 62
     0
370
     0
100
AcDbCircle
 10
108.573309
 20
254.736408
 30
0.0
 40
1.770121224023005
100
AcDbArc
 50
130.0
 51
310.0
  0
ARC
  5
59
330
48
100
AcDbEntity
  8
0
  6
Continuous
 62
     0
370
     0
100
AcDbCircle
 10
104.811087
 20
248.220049
 30
0.0
 40
1.770121224023005
100
AcDbArc
 50
350.0
 51
170.0
  0
ARC
  5
5A
330
48
100
AcDbEntity
  8
0
  6
Continuous
 62
     0
370
     0
100
AcDbCircle
 10
104.811087
 20
248.220049
 30
0.0
 40
1.770121224023005
100
AcDbArc
 50
170.0
 51
350.0
  0
ARC
  5
5B
330
48
100
AcDbEntity
  8
0
  6
Continuous
 62
     0
370
     0
100
AcDbCircle
 10
106.117693
 20
240.809919
 30
0.0
 40
1.770121224023003
100
AcDbArc
 50
30.0
 51
210.0
  0
ARC
  5
5C
330
48
100
AcDbEntity
  8
0
  6
Continuous
 62
     0
370
     0
100
AcDbCircle
 10
106.117693
 20
240.809919
 30
0.0
 40
1.770121224023003
100
AcDbArc
 50
210.0
 51
30.0
  0
ARC
  5
5D
330
48
100
AcDbEntity
  8
0
  6
Continuous
 62
     0
370
     0
100
AcDbCircle
 10
111.881751
 20
235.973301
 30
0.0
 40
1.770121224023004
100
AcDbArc
 50
70.0
 51
250.0
  0
ARC
  5
5E
330
48
100
AcDbEntity
  8
0
  6
Continuous
 62
     0
370
     0
100
AcDbCircle
 10
111.881751
 20
235.973301
 30
0.0
 40
1.770121224023004
100
AcDbArc
 50
250.0
 51
70.0
  0
ARC
  5
5F
330
48
100
AcDbEntity
  8
0
  6
Continuous
 62
     0
370
     0
100
AcDbCircle
 10
119.406194
 20
235.973301
 30
0.0
 40
1.770121224023004
100
AcDbArc
 50
110.0
 51
290.0
  0
ARC
  5
60
330
48
100
AcDbEntity
  8
0
  6
Continuous
 62
     0
370
     0
100
AcDbCircle
 10
119.406194
 20
235.973301
 30
0.0
 40
1.770121224023004
100
AcDbArc
 50
290.0
 51
110.0
  0
ARC
  5
61
330
48
100
AcDbEntity
  8
0
  6
Continuous
 62
     0
370
     0
100
AcDbCircle
 10
125.170252
 20
240.809919
 30
0.0
 40
1.770121224023002
100
AcDbArc
 50
150.0
 51
330.0
  0
ARC
  5
62
330
48
100
AcDbEntity
  8
0
  6
Continuous
 62
     0
370
     0
100
AcDbCircle
 10
125.170252
 20
240.809919
 30
0.0
 40
1.770121224023002
100
AcDbArc
 50
330.0
 51
150.0
  0
ARC
  5
63
330
48
100
AcDbEntity
  8
0
  6
Continuous
 62
     0
370
     0
100
AcDbCircle
 10
126.476858
 20
248.220049
 30
0.0
 40
1.770121224023004
100
AcDbArc
 50
190.0
 51
10.0
  0
ARC
  5
64
330
48
100
AcDbEntity
  8
0
  6
Continuous
 62
     0
370
     0
100
AcDbCircle
 10
126.476858
 20
248.220049
 30
0.0
 40
1.770121224023004
100
AcDbArc
 50
10.0
 51
190.0
  0
ARC
  5
65
330
48
100
AcDbEntity
  8
0
  6
Continuous
 62
     0
370
     0
100
AcDbCircle
 10
122.714636
 20
254.736408
 30
0.0
 40
1.770121224023003
100
AcDbArc
 50
230.0
 51
50.0
  0
ARC
  5
66
330
48
100
AcDbEntity
  8
0
  6
Continuous
 62
     0
370
     0
100
AcDbCircle
 10
122.714636
 20
254.736408
 30
0.0
 40
1.770121224023003
100
AcDbArc
 50
50.0
 51
230.0
  0
ARC
  5
67
330
48
100
AcDbEntity
  8
0
  6
Continuous
 62
     0
370
     0
100
AcDbCircle
 10
122.714636
 20
254.736408
 30
0.0
 40
1.318026885911749
100
AcDbArc
 50
230.0
 51
50.0
  0
ARC
  5
68
330
48
100
AcDbEntity
  8
0
  6
Continuous
 62
     0
370
     0
100
AcDbCircle
 10
122.714636
 20
254.736408
 30
0.0
 40
1.318026885911749
100
AcDbArc
 50
50.0
 51
230.0
  0
ARC
  5
69
330
48
100
AcDbEntity
  8
0
  6
Continuous
 62
     0
370
     0
100
AcDbCircle
 10
122.714636
 20
254.736408
 30
0.0
 40
1.471764643556897
100
AcDbArc
 50
50.0
 51
230.0
  0
ARC
  5
6A
330
48
100
AcDbEntity
  8
0
  6
Continuous
 62
     0
370
     0
100
AcDbCircle
 10
122.714636
 20
254.736408
 30
0.0
 40
1.471764643556897
100
AcDbArc
 50
230.0
 51
50.0
  0
ARC
  5
6B
330
48
100
AcDbEntity
  8
0
  6
Continuous
 62
     0
370
     0
100
AcDbCircle
 10
126.476858
 20
248.220049
 30
0.0
 40
1.318026885911752
100
AcDbArc
 50
190.0
 51
10.0
  0
ARC
  5
6C
330
48
100
AcDbEntity
  8
0
  6
Continuous
 62
     0
370
     0
100
AcDbCircle
 10
126.476858
 20
248.220049
 30
0.0
 40
1.318026885911752
100
AcDbArc
 50
10.0
 51
190.0
  0
ARC
  5
6D
330
48
100
AcDbEntity
  8
0
  6
Continuous
 62
     0
370
     0
100
AcDbCircle
 10
126.476858
 20
248.220049
 30
0.0
 40
1.471764643556898
100
AcDbArc
 50
10.0
 51
190.0
  0
ARC
  5
6E
330
48
100
AcDbEntity
  8
0
  6
Continuous
 62
     0
370
     0
100
AcDbCircle
 10
126.476858
 20
248.220049
 30
0.0
 40
1.471764643556898
100
AcDbArc
 50
190.0
 51
10.0
  0
ARC
  5
6F
330
48
100
AcDbEntity
  8
0
  6
Continuous
 62
     0
370
     0
100
AcDbCircle
 10
125.170252
 20
240.809919
 30
0.0
 40
1.318026885911748
100
AcDbArc
 50
150.0
 51
330.0
  0
ARC
  5
70
330
48
100
AcDbEntity
  8
0
  6
Continuous
 62
     0
370
     0
100
AcDbCircle
 10
125.170252
 20
240.809919
 30
0.0
 40
1.318026885911748
100
AcDbArc
 50
330.0
 51
150.0
  0
ARC
  5
71
330
48
100
AcDbEntity
  8
0
  6
Continuous
 62
     0
370
     0
100
AcDbCircle
 10
125.170252
 20
240.809919
 30
0.0
 40
1.471764643556896
100
AcDbArc
 50
330.0
 51
150.0
  0
ARC
  5
72
330
48
100
AcDbEntity
  8
0
  6
Continuous
 62
     0
370
     0
100
AcDbCircle
 10
125.170252
 20
240.809919
 30
0.0
 40
1.471764643556896
100
AcDbArc
 50
150.0
 51
330.0
  0
ARC
  5
73
330
48
100
AcDbEntity
  8
0
  6
Continuous
 62
     0
370
     0
100
AcDbCircle
 10
119.406194
 20
235.973301
 30
0.0
 40
1.318026885911751
100
AcDbArc
 50
110.0
 51
290.0
  0
ARC
  5
74
330
48
100
AcDbEntity
  8
0
  6
Continuous
 62
     0
370
     0
100
AcDbCircle
 10
119.406194
 20
235.973301
 30
0.0
 40
1.318026885911751
100
AcDbArc
 50
290.0
 51
110.0
  0
ARC
  5
75
330
48
100
AcDbEntity
  8
0
  6
Continuous
 62
     0
370
     0
100
AcDbCircle
 10
119.406194
 20
235.973301
 30
0.0
 40
1.471764643556899
100
AcDbArc
 50
290.0
 51
110.0
  0
ARC
  5
76
330
48
100
AcDbEntity
  8
0
  6
Continuous
 62
     0
370
     0
100
AcDbCircle
 10
119.406194
 20
235.973301
 30
0.0
 40
1.471764643556899
100
AcDbArc
 50
110.0
 51
290.0
  0
ARC
  5
77
330
48
100
AcDbEntity
  8
0
  6
Continuous
 62
     0
370
     0
100
AcDbCircle
 10
111.881751
 20
235.973301
 30
0.0
 40
1.31802688591175
100
AcDbArc
 50
70.0
 51
250.0
  0
ARC
  5
78
330
48
100
AcDbEntity
  8
0
  6
Continuous
 62
     0
370
     0
100
AcDbCircle
 10
111.881751
 20
235.973301
 30
0.0
 40
1.31802688591175
100
AcDbArc
 50
250.0
 51
70.0
  0
ARC
  5
79
330
48
100
AcDbEntity
  8
0
  6
Continuous
 62
     0
370
     0
100
AcDbCircle
 10
111.881751
 20
235.973301
 30
0.0
 40
1.471764643556897
100
AcDbArc
 50
250.0
 51
70.0
  0
ARC
  5
7A
330
48
100
AcDbEntity
  8
0
  6
Continuous
 62
     0
370
     0
100
AcDbCircle
 10
111.881751
 20
235.973301
 30
0.0
 40
1.471764643556897
100
AcDbArc
 50
70.0
 51
250.0
  0
ARC
  5
7B
330
48
100
AcDbEntity
  8
0
  6
Continuous
 62
     0
370
     0
100
AcDbCircle
 10
106.117693
 20
240.809919
 30
0.0
 40
1.31802688591175
100
AcDbArc
 50
30.0
 51
210.0
  0
ARC
  5
7C
330
48
100
AcDbEntity
  8
0
  6
Continuous
 62
     0
370
     0
100
AcDbCircle
 10
106.117693
 20
240.809919
 30
0.0
 40
1.31802688591175
100
AcDbArc
 50
210.0
 51
30.0
  0
ARC
  5
7D
330
48
100
AcDbEntity
  8
0
  6
Continuous
 62
     0
370
     0
100
AcDbCircle
 10
106.117693
 20
240.809919
 30
0.0
 40
1.471764643556897
100
AcDbArc
 50
210.0
 51
30.0
  0
ARC
  5
7E
330
48
100
AcDbEntity
  8
0
  6
Continuous
 62
     0
370
     0
100
AcDbCircle
 10
106.117693
 20
240.809919
 30
0.0
 40
1.471764643556897
100
AcDbArc
 50
30.0
 51
210.0
  0
ARC
  5
7F
330
48
100
AcDbEntity
  8
0
  6
Continuous
 62
     0
370
     0
100
AcDbCircle
 10
104.811087
 20
248.220049
 30
0.0
 40
1.318026885911752
100
AcDbArc
 50
350.0
 51
170.0
  0
ARC
  5
80
330
48
100
AcDbEntity
  8
0
  6
Continuous
 62
     0
370
     0
100
AcDbCircle
 10
104.811087
 20
248.220049
 30
0.0
 40
1.318026885911752
100
AcDbArc
 50
170.0
 51
350.0
  0
ARC
  5
81
330
48
100
AcDbEntity
  8
0
  6
Continuous
 62
     0
370
     0
100
AcDbCircle
 10
104.811087
 20
248.220049
 30
0.0
 40
1.471764643556898
100
AcDbArc
 50
170.0
 51
350.0
  0
ARC
  5
82
330
48
100
AcDbEntity
  8
0
  6
Continuous
 62
     0
370
     0
100
AcDbCircle
 10
104.811087
 20
248.220049
 30
0.0
 40
1.471764643556898
100
AcDbArc
 50
350.0
 51
170.0
  0
ARC
  5
83
330
48
100
AcDbEntity
  8
0
  6
Continuous
 62
     0
370
     0
100
AcDbCircle
 10
108.573309
 20
254.736408
 30
0.0
 40
1.31802688591175
100
AcDbArc
 50
310.0
 51
130.0
  0
ARC
  5
84
330
48
100
AcDbEntity
  8
0
  6
Continuous
 62
     0
370
     0
100
AcDbCircle
 10
108.573309
 20
254.736408
 30
0.0
 40
1.31802688591175
100
AcDbArc
 50
130.0
 51
310.0
  0
ARC
  5
85
330
48
100
AcDbEntity
  8
0
  6
Continuous
 62
     0
370
     0
100
AcDbCircle
 10
108.573309
 20
254.736408
 30
0.0
 40
1.471764643556898
100
AcDbArc
 50
130.0
 51
310.0
  0
ARC
  5
86
330
48
100
AcDbEntity
  8
0
  6
Continuous
 62
     0
370
     0
100
AcDbCircle
 10
108.573309
 20
254.736408
 30
0.0
 40
1.471764643556898
100
AcDbArc
 50
310.0
 51
130.0
  0
ARC
  5
87
330
48
100
AcDbEntity
  8
0
  6
Continuous
 62
     0
370
     0
100
AcDbCircle
 10
115.643972
 20
257.309919
 30
0.0
 40
1.471764643556897
100
AcDbArc
 50
90.0
 51
270.0
  0
ARC
  5
88
330
48
100
AcDbEntity
  8
0
  6
Continuous
 62
     0
370
     0
100
AcDbCircle
 10
115.643972
 20
257.309919
 30
0.0
 40
1.471764643556897
100
AcDbArc
 50
270.0
 51
90.0
  0
ARC
  5
89
330
48
100
AcDbEntity
  8
0
  6
Continuous
 62
     0
370
     0
100
AcDbCircle
 10
108.573309
 20
254.736408
 30
0.0
 40
1.019670305445644
100
AcDbArc
 50
130.0
 51
310.0
  0
ARC
  5
8A
330
48
100
AcDbEntity
  8
0
  6
Continuous
 62
     0
370
     0
100
AcDbCircle
 10
108.573309
 20
254.736408
 30
0.0
 40
1.019670305445644
100
AcDbArc
 50
310.0
 51
130.0
  0
ARC
  5
8B
330
48
100
AcDbEntity
  8
0
  6
Continuous
 62
     0
370
     0
100
AcDbCircle
 10
104.811087
 20
248.220049
 30
0.0
 40
1.019670305445646
100
AcDbArc
 50
170.0
 51
350.0
  0
ARC
  5
8C
330
48
100
AcDbEntity
  8
0
  6
Continuous
 62
     0
370
     0
100
AcDbCircle
 10
104.811087
 20
248.220049
 30
0.0
 40
1.019670305445646
100
AcDbArc
 50
350.0
 51
170.0
  0
ARC
  5
8D
330
48
100
AcDbEntity
  8
0
  6
Continuous
 62
     0
370
     0
100
AcDbCircle
 10
106.117693
 20
240.809919
 30
0.0
 40
1.019670305445644
100
AcDbArc
 50
210.0
 51
30.0
  0
ARC
  5
8E
330
48
100
AcDbEntity
  8
0
  6
Continuous
 62
     0
370
     0
100
AcDbCircle
 10
106.117693
 20
240.809919
 30
0.0
 40
1.019670305445644
100
AcDbArc
 50
30.0
 51
210.0
  0
ARC
  5
8F
330
48
100
AcDbEntity
  8
0
  6
Continuous
 62
     0
370
     0
100
AcDbCircle
 10
111.881751
 20
235.973301
 30
0.0
 40
1.019670305445644
100
AcDbArc
 50
250.0
 51
70.0
  0
ARC
  5
90
330
48
100
AcDbEntity
  8
0
  6
Continuous
 62
     0
370
     0
100
AcDbCircle
 10
111.881751
 20
235.973301
 30
0.0
 40
1.019670305445644
100
AcDbArc
 50
70.0
 51
250.0
  0
ARC
  5
91
330
48
100
AcDbEntity
  8
0
  6
Continuous
 62
     0
370
     0
100
AcDbCircle
 10
119.406194
 20
235.973301
 30
0.0
 40
1.019670305445645
100
AcDbArc
 50
290.0
 51
110.0
  0
ARC
  5
92
330
48
100
AcDbEntity
  8
0
  6
Continuous
 62
     0
370
     0
100
AcDbCircle
 10
119.406194
 20
235.973301
 30
0.0
 40
1.019670305445645
100
AcDbArc
 50
110.0
 51
290.0
  0
ARC
  5
93
330
48
100
AcDbEntity
  8
0
  6
Continuous
 62
     0
370
     0
100
AcDbCircle
 10
125.170252
 20
240.809919
 30
0.0
 40
1.019670305445642
100
AcDbArc
 50
330.0
 51
150.0
  0
ARC
  5
94
330
48
100
AcDbEntity
  8
0
  6
Continuous
 62
     0
370
     0
100
AcDbCircle
 10
125.170252
 20
240.809919
 30
0.0
 40
1.019670305445642
100
AcDbArc
 50
150.0
 51
330.0
  0
ARC
  5
95
330
48
100
AcDbEntity
  8
0
  6
Continuous
 62
     0
370
     0
100
AcDbCircle
 10
126.476858
 20
248.220049
 30
0.0
 40
1.019670305445646
100
AcDbArc
 50
10.0
 51
190.0
  0
ARC
  5
96
330
48
100
AcDbEntity
  8
0
  6
Continuous
 62
     0
370
     0
100
AcDbCircle
 10
126.476858
 20
248.220049
 30
0.0
 40
1.019670305445646
100
AcDbArc
 50
190.0
 51
10.0
  0
ARC
  5
97
330
48
100
AcDbEntity
  8
0
  6
Continuous
 62
     0
370
     0
100
AcDbCircle
 10
122.714636
 20
254.736408
 30
0.0
 40
1.019670305445642
100
AcDbArc
 50
50.0
 51
230.0
  0
ARC
  5
98
330
48
100
AcDbEntity
  8
0
  6
Continuous
 62
     0
370
     0
100
AcDbCircle
 10
122.714636
 20
254.736408
 30
0.0
 40
1.019670305445642
100
AcDbArc
 50
230.0
 51
50.0
  0
ENDBLK
  5
9A
330
48
100
AcDbEntity
  8
0
100
AcDbBlockEnd
  0
BLOCK
  5
12F
330
9C
100
AcDbEntity
  8
0
100
AcDbBlockBegin
  2
b
 70
     0
 10
59.503765
 20
77.184128
 30
0.0
  3
b
  1

  0
LINE
  5
9D
330
9C
100
AcDbEntity
  8
0
  6
Continuous
 62
     0
370
    30
100
AcDbLine
 10
128.643969
 20
97.190078
 30
0.0
 11
128.643969
 21
98.190078
 31
0.0
  0
ARC
  5
9E
330
9C
100
AcDbEntity
  8
0
  6
Continuous
 62
     0
370
    30
100
AcDbCircle
 10
119.424081
 20
113.70039
 30
0.0
 40
7.78306750674588
100
AcDbArc
 50
7.305459
 51
50.316129
  0
LINE
  5
9F
330
9C
100
AcDbEntity
  8
0
  6
Continuous
 62
     0
370
    30
100
AcDbLine
 10
124.393969
 20
119.690078
 30
0.0
 11
106.893969
 21
119.690078
 31
0.0
  0
LINE
  5
A0
330
9C
100
AcDbEntity
  8
0
  6
Continuous
 62
     0
370
    30
100
AcDbLine
 10
124.393969
 20
119.690078
 30
0.0
 11
125.643969
 21
120.826441
 31
0.0
  0
LINE
  5
A1
330
9C
100
AcDbEntity
  8
0
  6
Continuous
 62
     0
370
    30
100
AcDbLine
 10
125.643969
 20
121.899477
 30
0.0
 11
125.643969
 21
120.826441
 31
0.0
  0
LINE
  5
A2
330
9C
100
AcDbEntity
  8
0
  6
Continuous
 62
     0
370
    30
100
AcDbLine
 10
125.643969
 20
121.899477
 30
0.0
 11
126.000126
 21
122.190078
 31
0.0
  0
LINE
  5
A3
330
9C
100
AcDbEntity
  8
0
  6
Continuous
 62
     0
370
    30
100
AcDbLine
 10
126.000126
 20
122.190078
 30
0.0
 11
105.287811
 21
122.190078
 31
0.0
  0
LINE
  5
A4
330
9C
100
AcDbEntity
  8
0
  6
Continuous
 62
     0
370
    30
100
AcDbLine
 10
105.287811
 20
122.190078
 30
0.0
 11
105.643969
 21
121.899477
 31
0.0
  0
LINE
  5
A5
330
9C
100
AcDbEntity
  8
0
  6
Continuous
 62
     0
370
    30
100
AcDbLine
 10
105.643969
 20
120.826458
 30
0.0
 11
105.643969
 21
121.899477
 31
0.0
  0
LINE
  5
A6
330
9C
100
AcDbEntity
  8
0
  6
Continuous
 62
     0
370
    30
100
AcDbLine
 10
127.143969
 20
124.190078
 30
0.0
 11
127.143969
 21
134.690078
 31
0.0
  0
LINE
  5
A7
330
9C
100
AcDbEntity
  8
0
  6
Continuous
 62
     0
370
    30
100
AcDbLine
 10
104.143969
 20
124.190078
 30
0.0
 11
105.287811
 21
124.190078
 31
0.0
  0
LINE
  5
A8
330
9C
100
AcDbEntity
  8
0
  6
Continuous
 62
     0
370
    30
100
AcDbLine
 10
105.287811
 20
124.190078
 30
0.0
 11
105.287811
 21
122.190078
 31
0.0
  0
LINE
  5
A9
330
9C
100
AcDbEntity
  8
0
  6
Continuous
 62
     0
370
    30
100
AcDbLine
 10
126.000126
 20
122.190078
 30
0.0
 11
126.000126
 21
124.190078
 31
0.0
  0
LINE
  5
AA
330
9C
100
AcDbEntity
  8
0
  6
Continuous
 62
     0
370
    30
100
AcDbLine
 10
126.000126
 20
124.190078
 30
0.0
 11
127.143969
 21
124.190078
 31
0.0
  0
LINE
  5
AB
330
9C
100
AcDbEntity
  8
0
  6
Continuous
 62
     0
370
    30
100
AcDbLine
 10
135.143969
 20
134.690078
 30
0.0
 11
96.143969
 21
134.690078
 31
0.0
  0
ARC
  5
AC
330
9C
100
AcDbEntity
  8
0
  6
Continuous
 62
     0
370
    30
100
AcDbCircle
 10
131.143969
 20
86.190078
 30
0.0
 40
0.5
100
AcDbArc
 50
270.0
 51
0.0
  0
LINE
  5
AD
330
9C
100
AcDbEntity
  8
0
  6
Continuous
 62
     0
370
    30
100
AcDbLine
 10
131.143969
 20
85.690078
 30
0.0
 11
100.143969
 21
85.690078
 31
0.0
  0
LINE
  5
AE
330
9C
100
AcDbEntity
  8
0
  6
Continuous
 62
     0
370
     0
100
AcDbLine
 10
131.643969
 20
86.190078
 30
0.0
 11
99.643969
 21
86.190078
 31
0.0
  0
ARC
  5
AF
330
9C
100
AcDbEntity
  8
0
  6
Continuous
 62
     0
370
    30
100
AcDbCircle
 10
135.143969
 20
135.190078
 30
0.0
 40
0.5
100
AcDbArc
 50
270.0
 51
0.0
  0
LINE
  5
B0
330
9C
100
AcDbEntity
  8
0
  6
Continuous
 62
     0
370
     0
100
AcDbLine
 10
135.643969
 20
135.190078
 30
0.0
 11
95.643969
 21
135.190078
 31
0.0
  0
LINE
  5
B1
330
9C
100
AcDbEntity
  8
0
  6
Continuous
 62
     0
370
    30
100
AcDbLine
 10
115.643969
 20
83.690077
 30
0.0
 11
114.624298
 21
83.690077
 31
0.0
  0
LINE
  5
B2
330
9C
100
AcDbEntity
  8
0
  6
Continuous
 62
     0
370
    30
100
AcDbLine
 10
116.663639
 20
83.690077
 30
0.0
 11
115.643969
 21
83.690077
 31
0.0
  0
LINE
  5
B3
330
9C
100
AcDbEntity
  8
0
  6
Continuous
 62
     0
370
     0
100
AcDbLine
 10
115.643969
 20
83.958719
 30
0.0
 11
114.325942
 21
83.958719
 31
0.0
  0
LINE
  5
B4
330
9C
100
AcDbEntity
  8
0
  6
Continuous
 62
     0
370
     0
100
AcDbLine
 10
116.961995
 20
83.958719
 30
0.0
 11
115.643969
 21
83.958719
 31
0.0
  0
LINE
  5
B5
330
9C
100
AcDbEntity
  8
0
  6
Continuous
 62
     0
370
     0
100
AcDbLine
 10
124.032659
 20
83.958719
 30
0.0
 11
123.561844
 21
83.958719
 31
0.0
  0
LINE
  5
B6
330
9C
100
AcDbEntity
  8
0
  6
Continuous
 62
     0
370
     0
100
AcDbLine
 10
123.561844
 20
83.958719
 30
0.0
 11
121.396605
 21
83.958719
 31
0.0
  0
LINE
  5
B7
330
9C
100
AcDbEntity
  8
0
  6
Continuous
 62
     0
370
     0
100
AcDbLine
 10
123.660664
 20
85.421436
 30
0.0
 11
121.242868
 21
85.421436
 31
0.0
  0
LINE
  5
B8
330
9C
100
AcDbEntity
  8
0
  6
Continuous
 62
     0
370
     0
100
AcDbLine
 10
124.186397
 20
85.421436
 30
0.0
 11
123.660664
 21
85.421436
 31
0.0
  0
LINE
  5
B9
330
9C
100
AcDbEntity
  8
0
  6
Continuous
 62
     0
370
     0
100
AcDbLine
 10
127.794881
 20
83.958719
 30
0.0
 11
127.774857
 21
83.958719
 31
0.0
  0
LINE
  5
BA
330
9C
100
AcDbEntity
  8
0
  6
Continuous
 62
     0
370
     0
100
AcDbLine
 10
127.774857
 20
83.958719
 30
0.0
 11
125.158827
 21
83.958719
 31
0.0
  0
LINE
  5
BB
330
9C
100
AcDbEntity
  8
0
  6
Continuous
 62
     0
370
     0
100
AcDbLine
 10
127.926259
 20
85.421436
 30
0.0
 11
125.005089
 21
85.421436
 31
0.0
  0
LINE
  5
BC
330
9C
100
AcDbEntity
  8
0
  6
Continuous
 62
     0
370
     0
100
AcDbLine
 10
127.948619
 20
85.421436
 30
0.0
 11
127.926259
 21
85.421436
 31
0.0
  0
LINE
  5
BD
330
9C
100
AcDbEntity
  8
0
  6
Continuous
 62
     0
370
     0
100
AcDbLine
 10
125.158827
 20
83.958719
 30
0.0
 11
124.032659
 21
83.958719
 31
0.0
  0
LINE
  5
BE
330
9C
100
AcDbEntity
  8
0
  6
Continuous
 62
     0
370
     0
100
AcDbLine
 10
125.005089
 20
85.421437
 30
0.0
 11
124.186397
 21
85.421437
 31
0.0
  0
LINE
  5
BF
330
9C
100
AcDbEntity
  8
0
  6
Continuous
 62
     0
370
     0
100
AcDbLine
 10
118.955398
 20
83.95872
 30
0.0
 11
118.088163
 21
83.95872
 31
0.0
  0
LINE
  5
C0
330
9C
100
AcDbEntity
  8
0
  6
Continuous
 62
     0
370
     0
100
AcDbLine
 10
120.724217
 20
83.95872
 30
0.0
 11
118.955398
 21
83.95872
 31
0.0
  0
LINE
  5
C1
330
9C
100
AcDbEntity
  8
0
  6
Continuous
 62
     0
370
     0
100
AcDbLine
 10
120.877955
 20
85.421437
 30
0.0
 11
118.902817
 21
85.421437
 31
0.0
  0
LINE
  5
C2
330
9C
100
AcDbEntity
  8
0
  6
Continuous
 62
     0
370
     0
100
AcDbLine
 10
118.902817
 20
85.421437
 30
0.0
 11
117.934426
 21
85.421437
 31
0.0
  0
LINE
  5
C3
330
9C
100
AcDbEntity
  8
0
  6
Continuous
 62
     0
370
     0
100
AcDbLine
 10
112.332539
 20
83.95872
 30
0.0
 11
110.56372
 21
83.95872
 31
0.0
  0
LINE
  5
C4
330
9C
100
AcDbEntity
  8
0
  6
Continuous
 62
     0
370
     0
100
AcDbLine
 10
113.199774
 20
83.95872
 30
0.0
 11
112.332539
 21
83.95872
 31
0.0
  0
LINE
  5
C5
330
9C
100
AcDbEntity
  8
0
  6
Continuous
 62
     0
370
     0
100
AcDbLine
 10
113.353512
 20
85.421437
 30
0.0
 11
112.38512
 21
85.421437
 31
0.0
  0
LINE
  5
C6
330
9C
100
AcDbEntity
  8
0
  6
Continuous
 62
     0
370
     0
100
AcDbLine
 10
112.38512
 20
85.421437
 30
0.0
 11
110.409982
 21
85.421437
 31
0.0
  0
LINE
  5
C7
330
9C
100
AcDbEntity
  8
0
  6
Continuous
 62
     0
370
     0
100
AcDbLine
 10
107.255278
 20
83.958719
 30
0.0
 11
106.12911
 21
83.958719
 31
0.0
  0
LINE
  5
C8
330
9C
100
AcDbEntity
  8
0
  6
Continuous
 62
     0
370
     0
100
AcDbLine
 10
107.10154
 20
85.421437
 30
0.0
 11
106.282848
 21
85.421437
 31
0.0
  0
LINE
  5
C9
330
9C
100
AcDbEntity
  8
0
  6
Continuous
 62
     0
370
     0
100
AcDbLine
 10
106.12911
 20
83.958719
 30
0.0
 11
103.51308
 21
83.958719
 31
0.0
  0
LINE
  5
CA
330
9C
100
AcDbEntity
  8
0
  6
Continuous
 62
     0
370
     0
100
AcDbLine
 10
103.51308
 20
83.958719
 30
0.0
 11
103.493056
 21
83.958719
 31
0.0
  0
LINE
  5
CB
330
9C
100
AcDbEntity
  8
0
  6
Continuous
 62
     0
370
     0
100
AcDbLine
 10
103.361678
 20
85.421436
 30
0.0
 11
103.339319
 21
85.421436
 31
0.0
  0
LINE
  5
CC
330
9C
100
AcDbEntity
  8
0
  6
Continuous
 62
     0
370
     0
100
AcDbLine
 10
106.282848
 20
85.421436
 30
0.0
 11
103.361678
 21
85.421436
 31
0.0
  0
LINE
  5
CD
330
9C
100
AcDbEntity
  8
0
  6
Continuous
 62
     0
370
     0
100
AcDbLine
 10
109.891332
 20
83.958719
 30
0.0
 11
107.726094
 21
83.958719
 31
0.0
  0
LINE
  5
CE
330
9C
100
AcDbEntity
  8
0
  6
Continuous
 62
     0
370
     0
100
AcDbLine
 10
107.726094
 20
83.958719
 30
0.0
 11
107.255278
 21
83.958719
 31
0.0
  0
LINE
  5
CF
330
9C
100
AcDbEntity
  8
0
  6
Continuous
 62
     0
370
     0
100
AcDbLine
 10
107.627273
 20
85.421436
 30
0.0
 11
107.10154
 21
85.421436
 31
0.0
  0
LINE
  5
D0
330
9C
100
AcDbEntity
  8
0
  6
Continuous
 62
     0
370
     0
100
AcDbLine
 10
110.04507
 20
85.421436
 30
0.0
 11
107.627273
 21
85.421436
 31
0.0
  0
LINE
  5
D1
330
9C
100
AcDbEntity
  8
0
  6
Continuous
 62
     0
370
     0
100
AcDbLine
 10
115.643969
 20
85.421436
 30
0.0
 11
114.172204
 21
85.421436
 31
0.0
  0
LINE
  5
D2
330
9C
100
AcDbEntity
  8
0
  6
Continuous
 62
     0
370
     0
100
AcDbLine
 10
117.115733
 20
85.421436
 30
0.0
 11
115.643969
 21
85.421436
 31
0.0
  0
LINE
  5
D3
330
9C
100
AcDbEntity
  8
0
  6
Continuous
 62
     0
370
    30
100
AcDbLine
 10
107.917873
 20
83.690077
 30
0.0
 11
107.553635
 21
83.690077
 31
0.0
  0
LINE
  5
D4
330
9C
100
AcDbEntity
  8
0
  6
Continuous
 62
     0
370
    30
100
AcDbLine
 10
109.592975
 20
83.690077
 30
0.0
 11
107.917873
 21
83.690077
 31
0.0
  0
LINE
  5
D5
330
9C
100
AcDbEntity
  8
0
  6
Continuous
 62
     0
370
    30
100
AcDbLine
 10
103.806904
 20
83.690078
 30
0.0
 11
103.791413
 21
83.690078
 31
0.0
  0
LINE
  5
D6
330
9C
100
AcDbEntity
  8
0
  6
Continuous
 62
     0
370
    30
100
AcDbLine
 10
105.830754
 20
83.690078
 30
0.0
 11
103.806904
 21
83.690078
 31
0.0
  0
LINE
  5
D7
330
9C
100
AcDbEntity
  8
0
  6
Continuous
 62
     0
370
    30
100
AcDbLine
 10
107.137359
 20
83.690078
 30
0.0
 11
107.00075
 21
83.690078
 31
0.0
  0
LINE
  5
D8
330
9C
100
AcDbEntity
  8
0
  6
Continuous
 62
     0
370
    30
100
AcDbLine
 10
107.00075
 20
83.690078
 30
0.0
 11
105.830754
 21
83.690078
 31
0.0
  0
LINE
  5
D9
330
9C
100
AcDbEntity
  8
0
  6
Continuous
 62
     0
370
    30
100
AcDbLine
 10
112.901417
 20
83.690078
 30
0.0
 11
112.230495
 21
83.690078
 31
0.0
  0
LINE
  5
DA
330
9C
100
AcDbEntity
  8
0
  6
Continuous
 62
     0
370
    30
100
AcDbLine
 10
112.230495
 20
83.690078
 30
0.0
 11
110.862077
 21
83.690078
 31
0.0
  0
LINE
  5
DB
330
9C
100
AcDbEntity
  8
0
  6
Continuous
 62
     0
370
    30
100
AcDbLine
 10
120.42586
 20
83.690078
 30
0.0
 11
119.057442
 21
83.690078
 31
0.0
  0
LINE
  5
DC
330
9C
100
AcDbEntity
  8
0
  6
Continuous
 62
     0
370
    30
100
AcDbLine
 10
119.057442
 20
83.690078
 30
0.0
 11
118.38652
 21
83.690078
 31
0.0
  0
LINE
  5
DD
330
9C
100
AcDbEntity
  8
0
  6
Continuous
 62
     0
370
    30
100
AcDbLine
 10
125.457184
 20
83.690078
 30
0.0
 11
124.287188
 21
83.690078
 31
0.0
  0
LINE
  5
DE
330
9C
100
AcDbEntity
  8
0
  6
Continuous
 62
     0
370
    30
100
AcDbLine
 10
124.287188
 20
83.690078
 30
0.0
 11
124.150578
 21
83.690078
 31
0.0
  0
LINE
  5
DF
330
9C
100
AcDbEntity
  8
0
  6
Continuous
 62
     0
370
    30
100
AcDbLine
 10
127.481033
 20
83.690078
 30
0.0
 11
125.457184
 21
83.690078
 31
0.0
  0
LINE
  5
E0
330
9C
100
AcDbEntity
  8
0
  6
Continuous
 62
     0
370
    30
100
AcDbLine
 10
127.496524
 20
83.690078
 30
0.0
 11
127.481033
 21
83.690078
 31
0.0
  0
LINE
  5
E1
330
9C
100
AcDbEntity
  8
0
  6
Continuous
 62
     0
370
    30
100
AcDbLine
 10
123.370064
 20
83.690077
 30
0.0
 11
121.694962
 21
83.690077
 31
0.0
  0
LINE
  5
E2
330
9C
100
AcDbEntity
  8
0
  6
Continuous
 62
     0
370
    30
100
AcDbLine
 10
123.734303
 20
83.690077
 30
0.0
 11
123.370064
 21
83.690077
 31
0.0
  0
LINE
  5
E3
330
9C
100
AcDbEntity
  8
0
  6
Continuous
 62
     0
370
    30
100
AcDbLine
 10
135.643969
 20
135.190078
 30
0.0
 11
135.643969
 21
141.390078
 31
0.0
  0
LINE
  5
E4
330
9C
100
AcDbEntity
  8
0
  6
Continuous
 62
     0
370
     0
100
AcDbLine
 10
135.643969
 20
141.390078
 30
0.0
 11
95.643969
 21
141.390078
 31
0.0
  0
LINE
  5
E5
330
9C
100
AcDbEntity
  8
0
  6
Continuous
 62
     0
370
    30
100
AcDbLine
 10
135.343969
 20
141.690078
 30
0.0
 11
95.943969
 21
141.690078
 31
0.0
  0
LINE
  5
E6
330
9C
100
AcDbEntity
  8
0
  6
Continuous
 62
     0
370
    30
100
AcDbLine
 10
131.343969
 20
114.690078
 30
0.0
 11
99.943969
 21
114.690078
 31
0.0
  0
ARC
  5
E7
330
9C
100
AcDbEntity
  8
0
  6
Continuous
 62
     0
370
    30
100
AcDbCircle
 10
131.343969
 20
114.390078
 30
0.0
 40
0.3000000119209359
100
AcDbArc
 50
0.0
 51
90.0
  0
LINE
  5
E8
330
9C
100
AcDbEntity
  8
0
  6
Continuous
 62
     0
370
     0
100
AcDbLine
 10
131.643969
 20
114.390078
 30
0.0
 11
99.643969
 21
114.390078
 31
0.0
  0
ARC
  5
E9
330
9C
100
AcDbEntity
  8
0
  6
Continuous
 62
     0
370
    30
100
AcDbCircle
 10
135.343969
 20
141.390078
 30
0.0
 40
0.3000000119209291
100
AcDbArc
 50
0.0
 51
90.0
  0
LINE
  5
EA
330
9C
100
AcDbEntity
  8
0
  6
Continuous
 62
     0
370
    30
100
AcDbLine
 10
131.643969
 20
86.190078
 30
0.0
 11
131.643969
 21
96.890078
 31
0.0
  0
LINE
  5
EB
330
9C
100
AcDbEntity
  8
0
  6
Continuous
 62
     0
370
     0
100
AcDbLine
 10
131.643969
 20
96.890078
 30
0.0
 11
99.643969
 21
96.890078
 31
0.0
  0
LINE
  5
EC
330
9C
100
AcDbEntity
  8
0
  6
Continuous
 62
     0
370
    30
100
AcDbLine
 10
131.343969
 20
97.190078
 30
0.0
 11
99.943969
 21
97.190078
 31
0.0
  0
LINE
  5
ED
330
9C
100
AcDbEntity
  8
0
  6
Continuous
 62
     0
370
    30
100
AcDbLine
 10
131.643969
 20
98.490078
 30
0.0
 11
131.643969
 21
114.390078
 31
0.0
  0
LINE
  5
EE
330
9C
100
AcDbEntity
  8
0
  6
Continuous
 62
     0
370
     0
100
AcDbLine
 10
131.643969
 20
98.490078
 30
0.0
 11
99.643969
 21
98.490078
 31
0.0
  0
LINE
  5
EF
330
9C
100
AcDbEntity
  8
0
  6
Continuous
 62
     0
370
    30
100
AcDbLine
 10
131.343969
 20
98.190078
 30
0.0
 11
99.943969
 21
98.190078
 31
0.0
  0
ARC
  5
F0
330
9C
100
AcDbEntity
  8
0
  6
Continuous
 62
     0
370
    30
100
AcDbCircle
 10
131.343969
 20
98.490078
 30
0.0
 40
0.3000000119209291
100
AcDbArc
 50
270.0
 51
360.0
  0
ARC
  5
F1
330
9C
100
AcDbEntity
  8
0
  6
Continuous
 62
     0
370
    30
100
AcDbCircle
 10
131.343969
 20
96.890078
 30
0.0
 40
0.3000000119209291
100
AcDbArc
 50
0.0
 51
90.0
  0
ARC
  5
F2
330
9C
100
AcDbEntity
  8
0
  6
Continuous
 62
     0
370
    30
100
AcDbCircle
 10
99.943984
 20
96.890063
 30
0.0
 40
0.3000151027639947
100
AcDbArc
 50
90.002882
 51
179.997118
  0
LINE
  5
F3
330
9C
100
AcDbEntity
  8
0
  6
Continuous
 62
     0
370
    30
100
AcDbLine
 10
131.380004
 20
97.187878
 30
0.0
 11
131.343969
 21
97.190078
 31
0.0
  0
ARC
  5
F4
330
9C
100
AcDbEntity
  8
0
  6
Continuous
 62
     0
370
    30
100
AcDbCircle
 10
99.943984
 20
98.490093
 30
0.0
 40
0.3000151027635133
100
AcDbArc
 50
180.002882
 51
269.997118
  0
LINE
  5
F5
330
9C
100
AcDbEntity
  8
0
  6
Continuous
 62
     0
370
    30
100
AcDbLine
 10
131.380004
 20
98.192278
 30
0.0
 11
131.343969
 21
98.190078
 31
0.0
  0
LINE
  5
F6
330
9C
100
AcDbEntity
  8
0
  6
Continuous
 62
     0
370
    30
100
AcDbLine
 10
99.643969
 20
114.390078
 30
0.0
 11
99.643969
 21
98.490078
 31
0.0
  0
LINE
  5
F7
330
9C
100
AcDbEntity
  8
0
  6
Continuous
 62
     0
370
    30
100
AcDbLine
 10
99.643969
 20
96.890078
 30
0.0
 11
99.643969
 21
86.190078
 31
0.0
  0
ARC
  5
F8
330
9C
100
AcDbEntity
  8
0
  6
Continuous
 62
     0
370
    30
100
AcDbCircle
 10
95.943984
 20
141.390063
 30
0.0
 40
0.3000150732331617
100
AcDbArc
 50
90.002876
 51
179.997124
  0
LINE
  5
F9
330
9C
100
AcDbEntity
  8
0
  6
Continuous
 62
     0
370
    30
100
AcDbLine
 10
135.380004
 20
141.687878
 30
0.0
 11
135.343969
 21
141.690078
 31
0.0
  0
ARC
  5
FA
330
9C
100
AcDbEntity
  8
0
  6
Continuous
 62
     0
370
    30
100
AcDbCircle
 10
99.943984
 20
114.390063
 30
0.0
 40
0.3000151027641848
100
AcDbArc
 50
90.002882
 51
179.997118
  0
LINE
  5
FB
330
9C
100
AcDbEntity
  8
0
  6
Continuous
 62
     0
370
    30
100
AcDbLine
 10
131.380004
 20
114.687878
 30
0.0
 11
131.343969
 21
114.690078
 31
0.0
  0
LINE
  5
FC
330
9C
100
AcDbEntity
  8
0
  6
Continuous
 62
     0
370
    30
100
AcDbLine
 10
95.643969
 20
141.390078
 30
0.0
 11
95.643969
 21
135.190078
 31
0.0
  0
ARC
  5
FD
330
9C
100
AcDbEntity
  8
0
  6
Continuous
 62
     0
370
    30
100
AcDbCircle
 10
124.484685
 20
85.390072
 30
0.0
 40
0.3000057943537938
100
AcDbArc
 50
90.003848
 51
173.999006
  0
ARC
  5
FE
330
9C
100
AcDbEntity
  8
0
  6
Continuous
 62
     0
370
    30
100
AcDbCircle
 10
120.944547
 20
85.390068
 30
0.0
 40
0.3000095330658641
100
AcDbArc
 50
6.001637
 51
89.996635
  0
ARC
  5
FF
330
9C
100
AcDbEntity
  8
0
  6
Continuous
 62
     0
370
    30
100
AcDbCircle
 10
128.246769
 20
85.390088
 30
0.0
 40
0.2999898962280754
100
AcDbArc
 50
90.005901
 51
174.00174
  0
ARC
  5
100
330
9C
100
AcDbEntity
  8
0
  6
Continuous
 62
     0
370
    30
100
AcDbCircle
 10
124.706822
 20
85.390074
 30
0.0
 40
0.3000033968537901
100
AcDbArc
 50
6.000582
 51
89.995843
  0
ARC
  5
101
330
9C
100
AcDbEntity
  8
0
  6
Continuous
 62
     0
370
    30
100
AcDbCircle
 10
117.636072
 20
85.390065
 30
0.0
 40
0.3000133231752006
100
AcDbArc
 50
6.002289
 51
89.997124
  0
ARC
  5
102
330
9C
100
AcDbEntity
  8
0
  6
Continuous
 62
     0
370
    30
100
AcDbCircle
 10
121.176176
 20
85.390089
 30
0.0
 40
0.2998731931136664
100
AcDbArc
 50
112.704561
 51
173.999495
  0
ARC
  5
103
330
9C
100
AcDbEntity
  8
0
  6
Continuous
 62
     0
370
    30
100
AcDbCircle
 10
110.111761
 20
85.390089
 30
0.0
 40
0.2998731931209446
100
AcDbArc
 50
6.000505
 51
67.295439
  0
ARC
  5
104
330
9C
100
AcDbEntity
  8
0
  6
Continuous
 62
     0
370
    30
100
AcDbCircle
 10
113.651865
 20
85.390065
 30
0.0
 40
0.3000133231764084
100
AcDbArc
 50
90.002876
 51
173.997711
  0
ARC
  5
105
330
9C
100
AcDbEntity
  8
0
  6
Continuous
 62
     0
370
    30
100
AcDbCircle
 10
106.581115
 20
85.390074
 30
0.0
 40
0.3000033968554934
100
AcDbArc
 50
90.004157
 51
173.999418
  0
ARC
  5
106
330
9C
100
AcDbEntity
  8
0
  6
Continuous
 62
     0
370
    30
100
AcDbCircle
 10
103.041169
 20
85.390088
 30
0.0
 40
0.2999898962287852
100
AcDbArc
 50
5.99826
 51
89.994099
  0
ARC
  5
107
330
9C
100
AcDbEntity
  8
0
  6
Continuous
 62
     0
370
    30
100
AcDbCircle
 10
110.34339
 20
85.390068
 30
0.0
 40
0.3000095330684902
100
AcDbArc
 50
90.003365
 51
173.998363
  0
ARC
  5
108
330
9C
100
AcDbEntity
  8
0
  6
Continuous
 62
     0
370
    30
100
AcDbCircle
 10
106.803252
 20
85.390072
 30
0.0
 40
0.3000057943514787
100
AcDbArc
 50
6.000994
 51
89.996152
  0
ARC
  5
109
330
9C
100
AcDbEntity
  8
0
  6
Continuous
 62
     0
370
    30
100
AcDbCircle
 10
117.414104
 20
85.390062
 30
0.0
 40
0.3000152722909686
100
AcDbArc
 50
90.002624
 51
173.997376
  0
ARC
  5
10A
330
9C
100
AcDbEntity
  8
0
  6
Continuous
 62
     0
370
    30
100
AcDbCircle
 10
113.873834
 20
85.390062
 30
0.0
 40
0.3000152722875163
100
AcDbArc
 50
6.002624
 51
89.997376
  0
ARC
  5
10B
330
9C
100
AcDbEntity
  8
0
  6
Continuous
 62
     0
370
    30
100
AcDbCircle
 10
109.592929
 20
83.990085
 30
0.0
 40
0.3000072714971166
100
AcDbArc
 50
270.009741
 51
353.998752
  0
ARC
  5
10C
330
9C
100
AcDbEntity
  8
0
  6
Continuous
 62
     0
370
    30
100
AcDbCircle
 10
107.553704
 20
83.990081
 30
0.0
 40
0.3000035564906892
100
AcDbArc
 50
186.000609
 51
269.98573
  0
ARC
  5
10D
330
9C
100
AcDbEntity
  8
0
  6
Continuous
 62
     0
370
    30
100
AcDbCircle
 10
105.83067
 20
83.990079
 30
0.0
 40
0.3000011677451956
100
AcDbArc
 50
270.01363
 51
353.999802
  0
ARC
  5
10E
330
9C
100
AcDbEntity
  8
0
  6
Continuous
 62
     0
370
    30
100
AcDbCircle
 10
103.791579
 20
83.990065
 30
0.0
 40
0.2999877570772692
100
AcDbArc
 50
185.99789
 51
269.971898
  0
ARC
  5
10F
330
9C
100
AcDbEntity
  8
0
  6
Continuous
 62
     0
370
    30
100
AcDbCircle
 10
107.137305
 20
83.990051
 30
0.0
 40
0.2999730354890304
100
AcDbArc
 50
270.0065
 51
313.950206
  0
ARC
  5
110
330
9C
100
AcDbEntity
  8
0
  6
Continuous
 62
     0
370
    30
100
AcDbCircle
 10
110.862095
 20
83.99009
 30
0.0
 40
0.3000118779600551
100
AcDbArc
 50
186.00204
 51
269.991918
  0
ARC
  5
111
330
9C
100
AcDbEntity
  8
0
  6
Continuous
 62
     0
370
    30
100
AcDbCircle
 10
112.901394
 20
83.990089
 30
0.0
 40
0.300011045237875
100
AcDbArc
 50
270.009083
 51
353.998103
  0
ARC
  5
112
330
9C
100
AcDbEntity
  8
0
  6
Continuous
 62
     0
370
    30
100
AcDbCircle
 10
118.386543
 20
83.990089
 30
0.0
 40
0.3000110452602902
100
AcDbArc
 50
186.001897
 51
269.990917
  0
ARC
  5
113
330
9C
100
AcDbEntity
  8
0
  6
Continuous
 62
     0
370
    30
100
AcDbCircle
 10
120.425842
 20
83.99009
 30
0.0
 40
0.3000118779645597
100
AcDbArc
 50
270.008082
 51
353.99796
  0
ARC
  5
114
330
9C
100
AcDbEntity
  8
0
  6
Continuous
 62
     0
370
    30
100
AcDbCircle
 10
124.150632
 20
83.990051
 30
0.0
 40
0.2999730354752323
100
AcDbArc
 50
226.049794
 51
269.9935
  0
ARC
  5
115
330
9C
100
AcDbEntity
  8
0
  6
Continuous
 62
     0
370
    30
100
AcDbCircle
 10
127.496358
 20
83.990065
 30
0.0
 40
0.2999877570757551
100
AcDbArc
 50
270.028102
 51
354.00211
  0
ARC
  5
116
330
9C
100
AcDbEntity
  8
0
  6
Continuous
 62
     0
370
    30
100
AcDbCircle
 10
125.457267
 20
83.990079
 30
0.0
 40
0.3000011677442103
100
AcDbArc
 50
186.000198
 51
269.98637
  0
ARC
  5
117
330
9C
100
AcDbEntity
  8
0
  6
Continuous
 62
     0
370
    30
100
AcDbCircle
 10
123.734233
 20
83.990081
 30
0.0
 40
0.3000035565077698
100
AcDbArc
 50
270.01427
 51
353.999391
  0
ARC
  5
118
330
9C
100
AcDbEntity
  8
0
  6
Continuous
 62
     0
370
    30
100
AcDbCircle
 10
121.695008
 20
83.990085
 30
0.0
 40
0.3000072714920435
100
AcDbArc
 50
186.001248
 51
269.990259
  0
LINE
  5
119
330
9C
100
AcDbEntity
  8
0
  6
Continuous
 62
     0
370
    30
100
AcDbLine
 10
116.961995
 20
83.958719
 30
0.0
 11
117.115733
 21
85.421436
 31
0.0
  0
LINE
  5
11A
330
9C
100
AcDbEntity
  8
0
  6
Continuous
 62
     0
370
    30
100
AcDbLine
 10
114.325942
 20
83.958719
 30
0.0
 11
114.172204
 21
85.421436
 31
0.0
  0
LINE
  5
11B
330
9C
100
AcDbEntity
  8
0
  6
Continuous
 62
     0
370
    30
100
AcDbLine
 10
109.891332
 20
83.958719
 30
0.0
 11
110.04507
 21
85.421436
 31
0.0
  0
LINE
  5
11C
330
9C
100
AcDbEntity
  8
0
  6
Continuous
 62
     0
370
    30
100
AcDbLine
 10
107.255278
 20
83.958719
 30
0.0
 11
107.10154
 21
85.421436
 31
0.0
  0
LINE
  5
11D
330
9C
100
AcDbEntity
  8
0
  6
Continuous
 62
     0
370
    30
100
AcDbLine
 10
106.12911
 20
83.958719
 30
0.0
 11
106.282848
 21
85.421436
 31
0.0
  0
LINE
  5
11E
330
9C
100
AcDbEntity
  8
0
  6
Continuous
 62
     0
370
    30
100
AcDbLine
 10
103.493056
 20
83.958719
 30
0.0
 11
103.339319
 21
85.421436
 31
0.0
  0
LINE
  5
11F
330
9C
100
AcDbEntity
  8
0
  6
Continuous
 62
     0
370
    30
100
AcDbLine
 10
110.56372
 20
83.95872
 30
0.0
 11
110.409982
 21
85.421437
 31
0.0
  0
LINE
  5
120
330
9C
100
AcDbEntity
  8
0
  6
Continuous
 62
     0
370
    30
100
AcDbLine
 10
113.199774
 20
83.95872
 30
0.0
 11
113.353512
 21
85.421437
 31
0.0
  0
LINE
  5
121
330
9C
100
AcDbEntity
  8
0
  6
Continuous
 62
     0
370
    30
100
AcDbLine
 10
118.088163
 20
83.95872
 30
0.0
 11
117.934426
 21
85.421437
 31
0.0
  0
LINE
  5
122
330
9C
100
AcDbEntity
  8
0
  6
Continuous
 62
     0
370
    30
100
AcDbLine
 10
120.724217
 20
83.95872
 30
0.0
 11
120.877955
 21
85.421437
 31
0.0
  0
LINE
  5
123
330
9C
100
AcDbEntity
  8
0
  6
Continuous
 62
     0
370
    30
100
AcDbLine
 10
127.794881
 20
83.958719
 30
0.0
 11
127.948619
 21
85.421436
 31
0.0
  0
LINE
  5
124
330
9C
100
AcDbEntity
  8
0
  6
Continuous
 62
     0
370
    30
100
AcDbLine
 10
125.158827
 20
83.958719
 30
0.0
 11
125.005089
 21
85.421436
 31
0.0
  0
LINE
  5
125
330
9C
100
AcDbEntity
  8
0
  6
Continuous
 62
     0
370
    30
100
AcDbLine
 10
124.032659
 20
83.958719
 30
0.0
 11
124.186397
 21
85.421436
 31
0.0
  0
LINE
  5
126
330
9C
100
AcDbEntity
  8
0
  6
Continuous
 62
     0
370
    30
100
AcDbLine
 10
121.396605
 20
83.958719
 30
0.0
 11
121.242868
 21
85.421436
 31
0.0
  0
ARC
  5
127
330
9C
100
AcDbEntity
  8
0
  6
Continuous
 62
     0
370
    30
100
AcDbCircle
 10
116.663627
 20
83.99009
 30
0.0
 40
0.3000129867680473
100
AcDbArc
 50
270.009215
 51
353.997769
  0
ARC
  5
128
330
9C
100
AcDbEntity
  8
0
  6
Continuous
 62
     0
370
    30
100
AcDbCircle
 10
114.62431
 20
83.99009
 30
0.0
 40
0.3000129867689
100
AcDbArc
 50
186.002231
 51
269.990785
  0
ARC
  5
129
330
9C
100
AcDbEntity
  8
0
  6
Continuous
 62
     0
370
    30
100
AcDbCircle
 10
96.143971
 20
135.19008
 30
0.0
 40
0.5000027020498712
100
AcDbArc
 50
180.00031
 51
269.99969
  0
ARC
  5
12A
330
9C
100
AcDbEntity
  8
0
  6
Continuous
 62
     0
370
    30
100
AcDbCircle
 10
100.143971
 20
86.19008
 30
0.0
 40
0.5000027100370443
100
AcDbArc
 50
180.000311
 51
269.999689
  0
LINE
  5
12B
330
9C
100
AcDbEntity
  8
0
  6
Continuous
 62
     0
370
    30
100
AcDbLine
 10
104.143969
 20
134.690078
 30
0.0
 11
104.143969
 21
124.190078
 31
0.0
  0
LINE
  5
12C
330
9C
100
AcDbEntity
  8
0
  6
Continuous
 62
     0
370
    30
100
AcDbLine
 10
106.893969
 20
119.690078
 30
0.0
 11
105.643913
 21
120.826492
 31
0.0
  0
ARC
  5
12D
330
9C
100
AcDbEntity
  8
0
  6
Continuous
 62
     0
370
    30
100
AcDbCircle
 10
111.863936
 20
113.700346
 30
0.0
 40
7.783152710124247
100
AcDbArc
 50
129.684118
 51
172.694294
  0
LINE
  5
12E
330
9C
100
AcDbEntity
  8
0
  6
Continuous
 62
     0
370
    30
100
AcDbLine
 10
102.643969
 20
98.190078
 30
0.0
 11
102.643969
 21
97.190078
 31
0.0
  0
ENDBLK
  5
130
330
9C
100
AcDbEntity
  8
0
100
AcDbBlockEnd
  0
BLOCK
  5
1A6
330
132
100
AcDbEntity
  8
0
100
AcDbBlockBegin
  2
c
 70
     0
 10
68.864807
 20
77.184128
 30
0.0
  3
c
  1

  0
LINE
  5
133
330
132
100
AcDbEntity
  8
0
  6
Continuous
 62
     0
370
    30
100
AcDbLine
 10
288.35602
 20
255.059919
 30
0.0
 11
288.35602
 21
246.309919
 31
0.0
  0
LINE
  5
134
330
132
100
AcDbEntity
  8
0
  6
Continuous
 62
     0
370
    30
100
AcDbLine
 10
288.35602
 20
246.309919
 30
0.0
 11
288.35602
 21
237.559919
 31
0.0
  0
LINE
  5
135
330
132
100
AcDbEntity
  8
0
  6
Continuous
 62
     0
370
    30
100
AcDbLine
 10
285.85602
 20
257.809919
 30
0.0
 11
285.85602
 21
251.309919
 31
0.0
  0
LINE
  5
136
330
132
100
AcDbEntity
  8
0
  6
Continuous
 62
     0
370
    30
100
AcDbLine
 10
285.856021
 20
251.309919
 30
0.0
 11
286.146621
 21
251.309919
 31
0.0
  0
LWPOLYLINE
  5
137
330
132
100
AcDbEntity
  8
0
  6
Continuous
 62
     0
370
    30
100
AcDbPolyline
 90
        9
 70
     0
 43
0.0
 10
286.146606
 20
241.309921
 10
286.586487
 20
242.513306
 10
286.926178
 20
243.748413
 10
287.143097
 20
245.01059
 10
287.219635
 20
246.288986
 10
287.14801
 20
247.567734
 10
286.935242
 20
248.830505
 10
286.599243
 20
250.066605
 10
286.146606
 20
251.309921
  0
LINE
  5
138
330
132
100
AcDbEntity
  8
0
  6
Continuous
 62
     0
370
    30
100
AcDbLine
 10
286.146621
 20
241.309919
 30
0.0
 11
285.856021
 21
241.309919
 31
0.0
  0
LINE
  5
139
330
132
100
AcDbEntity
  8
0
  6
Continuous
 62
     0
370
    30
100
AcDbLine
 10
285.85602
 20
241.309919
 30
0.0
 11
285.85602
 21
234.809919
 31
0.0
  0
LINE
  5
13A
330
132
100
AcDbEntity
  8
0
  6
Continuous
 62
     0
370
    30
100
AcDbLine
 10
285.856021
 20
241.309919
 30
0.0
 11
283.856021
 21
241.309919
 31
0.0
  0
LINE
  5
13B
330
132
100
AcDbEntity
  8
0
  6
Continuous
 62
     0
370
    30
100
AcDbLine
 10
283.85602
 20
241.309919
 30
0.0
 11
283.85602
 21
251.309919
 31
0.0
  0
LINE
  5
13C
330
132
100
AcDbEntity
  8
0
  6
Continuous
 62
     0
370
    30
100
AcDbLine
 10
283.856021
 20
251.309919
 30
0.0
 11
285.856021
 21
251.309919
 31
0.0
  0
LINE
  5
13D
330
132
100
AcDbEntity
  8
0
  6
Continuous
 62
     0
370
    30
100
AcDbLine
 10
273.35602
 20
265.809919
 30
0.0
 11
273.35602
 21
246.309919
 31
0.0
  0
LINE
  5
13E
330
132
100
AcDbEntity
  8
0
  6
Continuous
 62
     0
370
    30
100
AcDbLine
 10
273.35602
 20
246.309919
 30
0.0
 11
273.35602
 21
226.809919
 31
0.0
  0
LINE
  5
13F
330
132
100
AcDbEntity
  8
0
  6
Continuous
 62
     0
370
    30
100
AcDbLine
 10
322.35602
 20
246.309919
 30
0.0
 11
322.35602
 21
230.809919
 31
0.0
  0
LINE
  5
140
330
132
100
AcDbEntity
  8
0
  6
Continuous
 62
     0
370
    30
100
AcDbLine
 10
322.35602
 20
261.809919
 30
0.0
 11
322.35602
 21
246.309919
 31
0.0
  0
LINE
  5
141
330
132
100
AcDbEntity
  8
0
  6
Continuous
 62
     0
370
     0
100
AcDbLine
 10
321.85602
 20
262.309919
 30
0.0
 11
321.85602
 21
246.309919
 31
0.0
  0
LINE
  5
142
330
132
100
AcDbEntity
  8
0
  6
Continuous
 62
     0
370
     0
100
AcDbLine
 10
321.85602
 20
246.309919
 30
0.0
 11
321.85602
 21
230.309919
 31
0.0
  0
LINE
  5
143
330
132
100
AcDbEntity
  8
0
  6
Continuous
 62
     0
370
     0
100
AcDbLine
 10
272.85602
 20
266.309919
 30
0.0
 11
272.85602
 21
246.309919
 31
0.0
  0
LINE
  5
144
330
132
100
AcDbEntity
  8
0
  6
Continuous
 62
     0
370
     0
100
AcDbLine
 10
272.85602
 20
246.309919
 30
0.0
 11
272.85602
 21
226.309919
 31
0.0
  0
LINE
  5
145
330
132
100
AcDbEntity
  8
0
  6
Continuous
 62
     0
370
    30
100
AcDbLine
 10
324.35602
 20
258.32959
 30
0.0
 11
324.35602
 21
256.290249
 31
0.0
  0
ARC
  5
146
330
132
100
AcDbEntity
  8
0
  6
Continuous
 62
     0
370
    30
100
AcDbCircle
 10
324.05602
 20
258.32959
 30
0.0
 40
0.3000000119209291
100
AcDbArc
 50
0.0
 51
84.0
  0
LINE
  5
147
330
132
100
AcDbEntity
  8
0
  6
Continuous
 62
     0
370
     0
100
AcDbLine
 10
324.087379
 20
258.627946
 30
0.0
 11
324.087379
 21
256.054435
 31
0.0
  0
LINE
  5
148
330
132
100
AcDbEntity
  8
0
  6
Continuous
 62
     0
370
     0
100
AcDbLine
 10
324.087379
 20
237.291327
 30
0.0
 11
324.087379
 21
234.73476
 31
0.0
  0
LINE
  5
149
330
132
100
AcDbEntity
  8
0
  6
Continuous
 62
     0
370
     0
100
AcDbLine
 10
324.087379
 20
234.73476
 30
0.0
 11
324.087379
 21
234.655274
 31
0.0
  0
LINE
  5
14A
330
132
100
AcDbEntity
  8
0
  6
Continuous
 62
     0
370
     0
100
AcDbLine
 10
322.624662
 20
234.590294
 30
0.0
 11
322.624662
 21
234.501536
 31
0.0
  0
LINE
  5
14B
330
132
100
AcDbEntity
  8
0
  6
Continuous
 62
     0
370
     0
100
AcDbLine
 10
322.624662
 20
237.445065
 30
0.0
 11
322.624662
 21
234.590294
 31
0.0
  0
LINE
  5
14C
330
132
100
AcDbEntity
  8
0
  6
Continuous
 62
     0
370
     0
100
AcDbLine
 10
324.087379
 20
242.127946
 30
0.0
 11
324.087379
 21
240.150906
 31
0.0
  0
LINE
  5
14D
330
132
100
AcDbEntity
  8
0
  6
Continuous
 62
     0
370
     0
100
AcDbLine
 10
324.087379
 20
240.150906
 30
0.0
 11
324.087379
 21
239.491892
 31
0.0
  0
LINE
  5
14E
330
132
100
AcDbEntity
  8
0
  6
Continuous
 62
     0
370
     0
100
AcDbLine
 10
322.624662
 20
240.074037
 30
0.0
 11
322.624662
 21
239.338155
 31
0.0
  0
LINE
  5
14F
330
132
100
AcDbEntity
  8
0
  6
Continuous
 62
     0
370
     0
100
AcDbLine
 10
322.624662
 20
242.281684
 30
0.0
 11
322.624662
 21
240.074037
 31
0.0
  0
LINE
  5
150
330
132
100
AcDbEntity
  8
0
  6
Continuous
 62
     0
370
     0
100
AcDbLine
 10
324.087379
 20
249.538076
 30
0.0
 11
324.087379
 21
248.448922
 31
0.0
  0
LINE
  5
151
330
132
100
AcDbEntity
  8
0
  6
Continuous
 62
     0
370
     0
100
AcDbLine
 10
324.087379
 20
248.448922
 30
0.0
 11
324.087379
 21
246.902022
 31
0.0
  0
LINE
  5
152
330
132
100
AcDbEntity
  8
0
  6
Continuous
 62
     0
370
     0
100
AcDbLine
 10
322.624662
 20
248.475619
 30
0.0
 11
322.624662
 21
246.748285
 31
0.0
  0
LINE
  5
153
330
132
100
AcDbEntity
  8
0
  6
Continuous
 62
     0
370
     0
100
AcDbLine
 10
322.624662
 20
249.691814
 30
0.0
 11
322.624662
 21
248.475619
 31
0.0
  0
LINE
  5
154
330
132
100
AcDbEntity
  8
0
  6
Continuous
 62
     0
370
     0
100
AcDbLine
 10
324.087379
 20
256.054435
 30
0.0
 11
324.087379
 21
255.746075
 31
0.0
  0
LINE
  5
155
330
132
100
AcDbEntity
  8
0
  6
Continuous
 62
     0
370
     0
100
AcDbLine
 10
324.087379
 20
255.746075
 30
0.0
 11
324.087379
 21
253.418381
 31
0.0
  0
LINE
  5
156
330
132
100
AcDbEntity
  8
0
  6
Continuous
 62
     0
370
     0
100
AcDbLine
 10
322.624662
 20
255.863845
 30
0.0
 11
322.624662
 21
253.264644
 31
0.0
  0
LINE
  5
157
330
132
100
AcDbEntity
  8
0
  6
Continuous
 62
     0
370
     0
100
AcDbLine
 10
322.624662
 20
256.208173
 30
0.0
 11
322.624662
 21
255.863845
 31
0.0
  0
LINE
  5
158
330
132
100
AcDbEntity
  8
0
  6
Continuous
 62
     0
370
    30
100
AcDbLine
 10
322.624662
 20
258.781684
 30
0.0
 11
324.087379
 21
258.627946
 31
0.0
  0
LINE
  5
159
330
132
100
AcDbEntity
  8
0
  6
Continuous
 62
     0
370
     0
100
AcDbLine
 10
322.624662
 20
258.781684
 30
0.0
 11
322.624662
 21
256.208173
 31
0.0
  0
LINE
  5
15A
330
132
100
AcDbEntity
  8
0
  6
Continuous
 62
     0
370
    30
100
AcDbLine
 10
324.35602
 20
255.517521
 30
0.0
 11
324.35602
 21
253.716738
 31
0.0
  0
LINE
  5
15B
330
132
100
AcDbEntity
  8
0
  6
Continuous
 62
     0
370
    30
100
AcDbLine
 10
324.35602
 20
255.756079
 30
0.0
 11
324.35602
 21
255.517521
 31
0.0
  0
LINE
  5
15C
330
132
100
AcDbEntity
  8
0
  6
Continuous
 62
     0
370
    30
100
AcDbLine
 10
324.356021
 20
248.397113
 30
0.0
 11
324.356021
 21
247.200379
 31
0.0
  0
LINE
  5
15D
330
132
100
AcDbEntity
  8
0
  6
Continuous
 62
     0
370
    30
100
AcDbLine
 10
324.356021
 20
249.23972
 30
0.0
 11
324.356021
 21
248.397113
 31
0.0
  0
LINE
  5
15E
330
132
100
AcDbEntity
  8
0
  6
Continuous
 62
     0
370
    30
100
AcDbLine
 10
324.356021
 20
240.300084
 30
0.0
 11
324.356021
 21
239.790249
 31
0.0
  0
LINE
  5
15F
330
132
100
AcDbEntity
  8
0
  6
Continuous
 62
     0
370
    30
100
AcDbLine
 10
324.356021
 20
241.82959
 30
0.0
 11
324.356021
 21
240.300084
 31
0.0
  0
LINE
  5
160
330
132
100
AcDbEntity
  8
0
  6
Continuous
 62
     0
370
    30
100
AcDbLine
 10
324.35602
 20
235.015124
 30
0.0
 11
324.35602
 21
234.95363
 31
0.0
  0
LINE
  5
161
330
132
100
AcDbEntity
  8
0
  6
Continuous
 62
     0
370
    30
100
AcDbLine
 10
324.35602
 20
236.992971
 30
0.0
 11
324.35602
 21
235.015124
 31
0.0
  0
ARC
  5
162
330
132
100
AcDbEntity
  8
0
  6
Continuous
 62
     0
370
    30
100
AcDbCircle
 10
322.65602
 20
259.080041
 30
0.0
 40
0.3000000119209291
100
AcDbArc
 50
180.0
 51
264.0
  0
LINE
  5
163
330
132
100
AcDbEntity
  8
0
  6
Continuous
 62
     0
370
     0
100
AcDbLine
 10
266.65602
 20
266.309919
 30
0.0
 11
266.65602
 21
246.309919
 31
0.0
  0
LINE
  5
164
330
132
100
AcDbEntity
  8
0
  6
Continuous
 62
     0
370
     0
100
AcDbLine
 10
266.65602
 20
246.309919
 30
0.0
 11
266.65602
 21
226.309919
 31
0.0
  0
LINE
  5
165
330
132
100
AcDbEntity
  8
0
  6
Continuous
 62
     0
370
    30
100
AcDbLine
 10
266.35602
 20
246.309919
 30
0.0
 11
266.35602
 21
226.609919
 31
0.0
  0
LINE
  5
166
330
132
100
AcDbEntity
  8
0
  6
Continuous
 62
     0
370
    30
100
AcDbLine
 10
266.35602
 20
266.009919
 30
0.0
 11
266.35602
 21
246.309919
 31
0.0
  0
LINE
  5
167
330
132
100
AcDbEntity
  8
0
  6
Continuous
 62
     0
370
    30
100
AcDbLine
 10
293.35602
 20
246.309919
 30
0.0
 11
293.35602
 21
230.609919
 31
0.0
  0
LINE
  5
168
330
132
100
AcDbEntity
  8
0
  6
Continuous
 62
     0
370
    30
100
AcDbLine
 10
293.35602
 20
262.009919
 30
0.0
 11
293.35602
 21
246.309919
 31
0.0
  0
LINE
  5
169
330
132
100
AcDbEntity
  8
0
  6
Continuous
 62
     0
370
     0
100
AcDbLine
 10
293.65602
 20
246.309919
 30
0.0
 11
293.65602
 21
230.309919
 31
0.0
  0
LINE
  5
16A
330
132
100
AcDbEntity
  8
0
  6
Continuous
 62
     0
370
     0
100
AcDbLine
 10
293.65602
 20
262.309919
 30
0.0
 11
293.65602
 21
246.309919
 31
0.0
  0
LINE
  5
16B
330
132
100
AcDbEntity
  8
0
  6
Continuous
 62
     0
370
     0
100
AcDbLine
 10
311.15602
 20
262.309919
 30
0.0
 11
311.15602
 21
246.309919
 31
0.0
  0
LINE
  5
16C
330
132
100
AcDbEntity
  8
0
  6
Continuous
 62
     0
370
     0
100
AcDbLine
 10
311.15602
 20
246.309919
 30
0.0
 11
311.15602
 21
230.309919
 31
0.0
  0
LINE
  5
16D
330
132
100
AcDbEntity
  8
0
  6
Continuous
 62
     0
370
    30
100
AcDbLine
 10
310.85602
 20
246.309919
 30
0.0
 11
310.85602
 21
230.609919
 31
0.0
  0
LINE
  5
16E
330
132
100
AcDbEntity
  8
0
  6
Continuous
 62
     0
370
    30
100
AcDbLine
 10
310.85602
 20
262.009919
 30
0.0
 11
310.85602
 21
246.309919
 31
0.0
  0
LINE
  5
16F
330
132
100
AcDbEntity
  8
0
  6
Continuous
 62
     0
370
     0
100
AcDbLine
 10
309.55602
 20
246.309919
 30
0.0
 11
309.55602
 21
230.309919
 31
0.0
  0
LINE
  5
170
330
132
100
AcDbEntity
  8
0
  6
Continuous
 62
     0
370
     0
100
AcDbLine
 10
309.55602
 20
262.309919
 30
0.0
 11
309.55602
 21
246.309919
 31
0.0
  0
LINE
  5
171
330
132
100
AcDbEntity
  8
0
  6
Continuous
 62
     0
370
    30
100
AcDbLine
 10
309.85602
 20
262.009919
 30
0.0
 11
309.85602
 21
246.309919
 31
0.0
  0
LINE
  5
172
330
132
100
AcDbEntity
  8
0
  6
Continuous
 62
     0
370
    30
100
AcDbLine
 10
309.85602
 20
246.309919
 30
0.0
 11
309.85602
 21
230.609919
 31
0.0
  0
ARC
  5
173
330
132
100
AcDbEntity
  8
0
  6
Continuous
 62
     0
370
    30
100
AcDbCircle
 10
311.156035
 20
230.609935
 30
0.0
 40
0.3000152399150586
100
AcDbArc
 50
180.008688
 51
269.997092
  0
ARC
  5
174
330
132
100
AcDbEntity
  8
0
  6
Continuous
 62
     0
370
    30
100
AcDbCircle
 10
311.156035
 20
262.009904
 30
0.0
 40
0.3000152399140646
100
AcDbArc
 50
90.002908
 51
179.991312
  0
ARC
  5
175
330
132
100
AcDbEntity
  8
0
  6
Continuous
 62
     0
370
    30
100
AcDbCircle
 10
309.556005
 20
230.609935
 30
0.0
 40
0.3000152399155489
100
AcDbArc
 50
270.002908
 51
359.991312
  0
ARC
  5
176
330
132
100
AcDbEntity
  8
0
  6
Continuous
 62
     0
370
    30
100
AcDbCircle
 10
309.556005
 20
262.009904
 30
0.0
 40
0.300015239915724
100
AcDbArc
 50
0.008688
 51
89.997092
  0
LINE
  5
177
330
132
100
AcDbEntity
  8
0
  6
Continuous
 62
     0
370
    30
100
AcDbLine
 10
293.65602
 20
262.309919
 30
0.0
 11
309.55602
 21
262.309919
 31
0.0
  0
LINE
  5
178
330
132
100
AcDbEntity
  8
0
  6
Continuous
 62
     0
370
    30
100
AcDbLine
 10
293.65602
 20
230.309919
 30
0.0
 11
309.55602
 21
230.309919
 31
0.0
  0
LINE
  5
179
330
132
100
AcDbEntity
  8
0
  6
Continuous
 62
     0
370
    30
100
AcDbLine
 10
311.15602
 20
262.309919
 30
0.0
 11
321.85602
 21
262.309919
 31
0.0
  0
LINE
  5
17A
330
132
100
AcDbEntity
  8
0
  6
Continuous
 62
     0
370
    30
100
AcDbLine
 10
311.15602
 20
230.309919
 30
0.0
 11
321.85602
 21
230.309919
 31
0.0
  0
ARC
  5
17B
330
132
100
AcDbEntity
  8
0
  6
Continuous
 62
     0
370
    30
100
AcDbCircle
 10
266.656035
 20
226.609935
 30
0.0
 40
0.300015245316565
100
AcDbArc
 50
180.010162
 51
269.997091
  0
ARC
  5
17C
330
132
100
AcDbEntity
  8
0
  6
Continuous
 62
     0
370
    30
100
AcDbCircle
 10
266.656035
 20
266.009904
 30
0.0
 40
0.3000152453166329
100
AcDbArc
 50
90.002909
 51
179.989838
  0
ARC
  5
17D
330
132
100
AcDbEntity
  8
0
  6
Continuous
 62
     0
370
    30
100
AcDbCircle
 10
293.656035
 20
230.609935
 30
0.0
 40
0.3000152399147744
100
AcDbArc
 50
180.008688
 51
269.997092
  0
ARC
  5
17E
330
132
100
AcDbEntity
  8
0
  6
Continuous
 62
     0
370
    30
100
AcDbCircle
 10
293.656035
 20
262.009904
 30
0.0
 40
0.3000152399152087
100
AcDbArc
 50
90.002908
 51
179.991312
  0
LINE
  5
17F
330
132
100
AcDbEntity
  8
0
  6
Continuous
 62
     0
370
    30
100
AcDbLine
 10
266.65602
 20
266.309919
 30
0.0
 11
272.85602
 21
266.309919
 31
0.0
  0
LINE
  5
180
330
132
100
AcDbEntity
  8
0
  6
Continuous
 62
     0
370
    30
100
AcDbLine
 10
266.65602
 20
226.309919
 30
0.0
 11
272.85602
 21
226.309919
 31
0.0
  0
ARC
  5
181
330
132
100
AcDbEntity
  8
0
  6
Continuous
 62
     0
370
    30
100
AcDbCircle
 10
322.656034
 20
237.743419
 30
0.0
 40
0.3000134019630395
100
AcDbArc
 50
180.002865
 51
263.997698
  0
ARC
  5
182
330
132
100
AcDbEntity
  8
0
  6
Continuous
 62
     0
370
    30
100
AcDbCircle
 10
322.656028
 20
234.203229
 30
0.0
 40
0.3000080003888355
100
AcDbArc
 50
96.001374
 51
179.996437
  0
ARC
  5
183
330
132
100
AcDbEntity
  8
0
  6
Continuous
 62
     0
370
    30
100
AcDbCircle
 10
322.656026
 20
242.579972
 30
0.0
 40
0.3000057700241547
100
AcDbArc
 50
180.003851
 51
263.99901
  0
ARC
  5
184
330
132
100
AcDbEntity
  8
0
  6
Continuous
 62
     0
370
    30
100
AcDbCircle
 10
322.656023
 20
239.039896
 30
0.0
 40
0.3000023863161246
100
AcDbArc
 50
96.000408
 51
179.995712
  0
ARC
  5
185
330
132
100
AcDbEntity
  8
0
  6
Continuous
 62
     0
370
    30
100
AcDbCircle
 10
322.656025
 20
249.990092
 30
0.0
 40
0.3000046897561792
100
AcDbArc
 50
180.00399
 51
263.999196
  0
ARC
  5
186
330
132
100
AcDbEntity
  8
0
  6
Continuous
 62
     0
370
    30
100
AcDbCircle
 10
322.656024
 20
246.450021
 30
0.0
 40
0.3000030005855131
100
AcDbArc
 50
96.000514
 51
179.995792
  0
ARC
  5
187
330
132
100
AcDbEntity
  8
0
  6
Continuous
 62
     0
370
    30
100
AcDbCircle
 10
322.656036
 20
256.506545
 30
0.0
 40
0.3000154565954093
100
AcDbArc
 50
180.0026
 51
263.997344
  0
ARC
  5
188
330
132
100
AcDbEntity
  8
0
  6
Continuous
 62
     0
370
    30
100
AcDbCircle
 10
322.65603
 20
252.966324
 30
0.0
 40
0.3000094802532542
100
AcDbArc
 50
96.001628
 51
179.996628
  0
ARC
  5
189
330
132
100
AcDbEntity
  8
0
  6
Continuous
 62
     0
370
    30
100
AcDbCircle
 10
324.056007
 20
255.756068
 30
0.0
 40
0.3000131624532352
100
AcDbArc
 50
0.004441
 51
83.997739
  0
ARC
  5
18A
330
132
100
AcDbEntity
  8
0
  6
Continuous
 62
     0
370
    30
100
AcDbCircle
 10
324.056013
 20
253.716785
 30
0.0
 40
0.3000072203651377
100
AcDbArc
 50
276.001239
 51
359.989456
  0
ARC
  5
18B
330
132
100
AcDbEntity
  8
0
  6
Continuous
 62
     0
370
    30
100
AcDbCircle
 10
324.056018
 20
249.239644
 30
0.0
 40
0.3000024443799926
100
AcDbArc
 50
0.008113
 51
83.999582
  0
ARC
  5
18C
330
132
100
AcDbEntity
  8
0
  6
Continuous
 62
     0
370
    30
100
AcDbCircle
 10
324.05602
 20
247.200465
 30
0.0
 40
0.3000007683332088
100
AcDbArc
 50
276.000129
 51
359.988705
  0
ARC
  5
18D
330
132
100
AcDbEntity
  8
0
  6
Continuous
 62
     0
370
    30
100
AcDbCircle
 10
324.056017
 20
241.82952
 30
0.0
 40
0.3000035232887803
100
AcDbArc
 50
0.009598
 51
83.999397
  0
ARC
  5
18E
330
132
100
AcDbEntity
  8
0
  6
Continuous
 62
     0
370
    30
100
AcDbCircle
 10
324.05602
 20
239.790339
 30
0.0
 40
0.3000001654226439
100
AcDbArc
 50
276.000025
 51
359.984339
  0
ARC
  5
18F
330
132
100
AcDbEntity
  8
0
  6
Continuous
 62
     0
370
    30
100
AcDbCircle
 10
324.056009
 20
236.992948
 30
0.0
 40
0.3000111216483832
100
AcDbArc
 50
0.007875
 51
83.99809
  0
ARC
  5
190
330
132
100
AcDbEntity
  8
0
  6
Continuous
 62
     0
370
    30
100
AcDbCircle
 10
324.056015
 20
234.953686
 30
0.0
 40
0.3000057542566391
100
AcDbArc
 50
276.000987
 51
359.985134
  0
LINE
  5
191
330
132
100
AcDbEntity
  8
0
  6
Continuous
 62
     0
370
    30
100
AcDbLine
 10
324.087379
 20
256.054435
 30
0.0
 11
322.624662
 21
256.208173
 31
0.0
  0
LINE
  5
192
330
132
100
AcDbEntity
  8
0
  6
Continuous
 62
     0
370
    30
100
AcDbLine
 10
324.087379
 20
253.418381
 30
0.0
 11
322.624662
 21
253.264644
 31
0.0
  0
LINE
  5
193
330
132
100
AcDbEntity
  8
0
  6
Continuous
 62
     0
370
    30
100
AcDbLine
 10
324.087379
 20
249.538076
 30
0.0
 11
322.624662
 21
249.691814
 31
0.0
  0
LINE
  5
194
330
132
100
AcDbEntity
  8
0
  6
Continuous
 62
     0
370
    30
100
AcDbLine
 10
324.087379
 20
246.902022
 30
0.0
 11
322.624662
 21
246.748285
 31
0.0
  0
LINE
  5
195
330
132
100
AcDbEntity
  8
0
  6
Continuous
 62
     0
370
    30
100
AcDbLine
 10
324.087379
 20
242.127946
 30
0.0
 11
322.624662
 21
242.281684
 31
0.0
  0
LINE
  5
196
330
132
100
AcDbEntity
  8
0
  6
Continuous
 62
     0
370
    30
100
AcDbLine
 10
324.087379
 20
239.491892
 30
0.0
 11
322.624662
 21
239.338155
 31
0.0
  0
LINE
  5
197
330
132
100
AcDbEntity
  8
0
  6
Continuous
 62
     0
370
    30
100
AcDbLine
 10
324.087379
 20
237.291327
 30
0.0
 11
322.624662
 21
237.445065
 31
0.0
  0
LINE
  5
198
330
132
100
AcDbEntity
  8
0
  6
Continuous
 62
     0
370
    30
100
AcDbLine
 10
324.087379
 20
234.655274
 30
0.0
 11
322.624662
 21
234.501536
 31
0.0
  0
ARC
  5
199
330
132
100
AcDbEntity
  8
0
  6
Continuous
 62
     0
370
    30
100
AcDbCircle
 10
324.055809
 20
256.290379
 30
0.0
 40
0.3002115208383294
100
AcDbArc
 50
297.098846
 51
359.975154
  0
ARC
  5
19A
330
132
100
AcDbEntity
  8
0
  6
Continuous
 62
     0
370
    30
100
AcDbCircle
 10
272.856017
 20
226.809922
 30
0.0
 40
0.5000026123638913
100
AcDbArc
 50
270.000299
 51
359.995393
  0
ARC
  5
19B
330
132
100
AcDbEntity
  8
0
  6
Continuous
 62
     0
370
    30
100
AcDbCircle
 10
272.856017
 20
265.809917
 30
0.0
 40
0.5000026123639242
100
AcDbArc
 50
0.004607
 51
89.999701
  0
ARC
  5
19C
330
132
100
AcDbEntity
  8
0
  6
Continuous
 62
     0
370
    30
100
AcDbCircle
 10
321.856017
 20
230.809922
 30
0.0
 40
0.5000026388141581
100
AcDbArc
 50
270.000302
 51
359.996274
  0
ARC
  5
19D
330
132
100
AcDbEntity
  8
0
  6
Continuous
 62
     0
370
    30
100
AcDbCircle
 10
321.856017
 20
261.809917
 30
0.0
 40
0.5000026388132282
100
AcDbArc
 50
0.003726
 51
89.999698
  0
LINE
  5
19E
330
132
100
AcDbEntity
  8
0
  6
Continuous
 62
     0
370
    30
100
AcDbLine
 10
273.35602
 20
257.809919
 30
0.0
 11
285.85602
 21
257.809919
 31
0.0
  0
LINE
  5
19F
330
132
100
AcDbEntity
  8
0
  6
Continuous
 62
     0
370
    30
100
AcDbLine
 10
273.35602
 20
234.809919
 30
0.0
 11
285.85602
 21
234.809919
 31
0.0
  0
LINE
  5
1A0
330
132
100
AcDbEntity
  8
0
  6
Continuous
 62
     0
370
    30
100
AcDbLine
 10
288.35602
 20
255.059919
 30
0.0
 11
285.85602
 21
257.809919
 31
0.0
  0
LINE
  5
1A1
330
132
100
AcDbEntity
  8
0
  6
Continuous
 62
     0
370
    30
100
AcDbLine
 10
288.35602
 20
237.559919
 30
0.0
 11
285.85602
 21
234.809919
 31
0.0
  0
ARC
  5
1A2
330
132
100
AcDbEntity
  8
0
  6
Continuous
 62
     0
370
    30
100
AcDbCircle
 10
294.345752
 20
250.089952
 30
0.0
 40
7.78315271012427
100
AcDbArc
 50
97.305706
 51
140.315882
  0
ARC
  5
1A3
330
132
100
AcDbEntity
  8
0
  6
Continuous
 62
     0
370
    30
100
AcDbCircle
 10
294.345752
 20
242.529887
 30
0.0
 40
7.783152710124208
100
AcDbArc
 50
219.684118
 51
262.694294
  0
LINE
  5
1A4
330
132
100
AcDbEntity
  8
0
  6
Continuous
 62
     0
370
    30
100
AcDbLine
 10
309.85602
 20
259.309919
 30
0.0
 11
310.85602
 21
259.309919
 31
0.0
  0
LINE
  5
1A5
330
132
100
AcDbEntity
  8
0
  6
Continuous
 62
     0
370
    30
100
AcDbLine
 10
309.85602
 20
233.309919
 30
0.0
 11
310.85602
 21
233.309919
 31
0.0
  0
ENDBLK
  5
1A7
330
132
100
AcDbEntity
  8
0
100
AcDbBlockEnd
  0
BLOCK
  5
21F
330
1A9
100
AcDbEntity
  8
0
100
AcDbBlockBegin
  2
e
 70
     0
 10
16.959431
 20
0.0
 30
0.0
  3
e
  1

  0
LINE
  5
1AA
330
1A9
100
AcDbEntity
  8
0
  6
Continuous
 62
     0
370
    30
100
AcDbLine
 10
-21.634701
 20
246.309919
 30
0.0
 11
-21.634701
 21
255.059919
 31
0.0
  0
LINE
  5
1AB
330
1A9
100
AcDbEntity
  8
0
  6
Continuous
 62
     0
370
    30
100
AcDbLine
 10
-21.634701
 20
237.559919
 30
0.0
 11
-21.634701
 21
246.309919
 31
0.0
  0
LWPOLYLINE
  5
1AC
330
1A9
100
AcDbEntity
  8
0
  6
Continuous
 62
     0
370
    30
100
AcDbPolyline
 90
        5
 70
     0
 43
0.0
 10
-19.425301
 20
251.309921
 10
-19.862604
 20
250.114441
 10
-20.201283
 20
248.887131
 10
-20.419092
 20
247.633072
 10
-20.498337
 20
246.309921
  0
LINE
  5
1AD
330
1A9
100
AcDbEntity
  8
0
  6
Continuous
 62
     0
370
    30
100
AcDbLine
 10
-19.425301
 20
251.309919
 30
0.0
 11
-19.134701
 21
251.309919
 31
0.0
  0
LINE
  5
1AE
330
1A9
100
AcDbEntity
  8
0
  6
Continuous
 62
     0
370
    30
100
AcDbLine
 10
-19.134701
 20
251.309919
 30
0.0
 11
-19.134701
 21
257.809919
 31
0.0
  0
LINE
  5
1AF
330
1A9
100
AcDbEntity
  8
0
  6
Continuous
 62
     0
370
    30
100
AcDbLine
 10
-19.134701
 20
234.809919
 30
0.0
 11
-19.134701
 21
241.309919
 31
0.0
  0
LINE
  5
1B0
330
1A9
100
AcDbEntity
  8
0
  6
Continuous
 62
     0
370
    30
100
AcDbLine
 10
-19.134701
 20
241.309919
 30
0.0
 11
-19.425301
 21
241.309919
 31
0.0
  0
LWPOLYLINE
  5
1B1
330
1A9
100
AcDbEntity
  8
0
  6
Continuous
 62
     0
370
    30
100
AcDbPolyline
 90
        5
 70
     0
 43
0.0
 10
-20.498337
 20
246.309921
 10
-20.42523
 20
245.039185
 10
-20.212831
 20
243.784103
 10
-19.878683
 20
242.555466
 10
-19.425301
 20
241.309921
  0
LINE
  5
1B2
330
1A9
100
AcDbEntity
  8
0
  6
Continuous
 62
     0
370
    30
100
AcDbLine
 10
-17.134701
 20
246.309919
 30
0.0
 11
-17.134701
 21
241.309919
 31
0.0
  0
LINE
  5
1B3
330
1A9
100
AcDbEntity
  8
0
  6
Continuous
 62
     0
370
    30
100
AcDbLine
 10
-17.134701
 20
241.309919
 30
0.0
 11
-19.134701
 21
241.309919
 31
0.0
  0
LINE
  5
1B4
330
1A9
100
AcDbEntity
  8
0
  6
Continuous
 62
     0
370
    30
100
AcDbLine
 10
-19.134701
 20
251.309919
 30
0.0
 11
-17.134701
 21
251.309919
 31
0.0
  0
LINE
  5
1B5
330
1A9
100
AcDbEntity
  8
0
  6
Continuous
 62
     0
370
    30
100
AcDbLine
 10
-17.134701
 20
251.309919
 30
0.0
 11
-17.134701
 21
246.309919
 31
0.0
  0
LINE
  5
1B6
330
1A9
100
AcDbEntity
  8
0
  6
Continuous
 62
     0
370
    30
100
AcDbLine
 10
-6.634701
 20
246.309919
 30
0.0
 11
-6.634701
 21
265.809919
 31
0.0
  0
LINE
  5
1B7
330
1A9
100
AcDbEntity
  8
0
  6
Continuous
 62
     0
370
    30
100
AcDbLine
 10
-6.634701
 20
226.809919
 30
0.0
 11
-6.634701
 21
246.309919
 31
0.0
  0
LINE
  5
1B8
330
1A9
100
AcDbEntity
  8
0
  6
Continuous
 62
     0
370
    30
100
AcDbLine
 10
-55.634701
 20
230.809919
 30
0.0
 11
-55.634701
 21
246.309919
 31
0.0
  0
LINE
  5
1B9
330
1A9
100
AcDbEntity
  8
0
  6
Continuous
 62
     0
370
    30
100
AcDbLine
 10
-55.634701
 20
246.309919
 30
0.0
 11
-55.634701
 21
261.809919
 31
0.0
  0
LINE
  5
1BA
330
1A9
100
AcDbEntity
  8
0
  6
Continuous
 62
     0
370
     0
100
AcDbLine
 10
-55.134701
 20
246.309919
 30
0.0
 11
-55.134701
 21
262.309919
 31
0.0
  0
LINE
  5
1BB
330
1A9
100
AcDbEntity
  8
0
  6
Continuous
 62
     0
370
     0
100
AcDbLine
 10
-55.134701
 20
230.309919
 30
0.0
 11
-55.134701
 21
246.309919
 31
0.0
  0
LINE
  5
1BC
330
1A9
100
AcDbEntity
  8
0
  6
Continuous
 62
     0
370
     0
100
AcDbLine
 10
-6.134701
 20
246.309919
 30
0.0
 11
-6.134701
 21
266.309919
 31
0.0
  0
LINE
  5
1BD
330
1A9
100
AcDbEntity
  8
0
  6
Continuous
 62
     0
370
     0
100
AcDbLine
 10
-6.134701
 20
226.309919
 30
0.0
 11
-6.134701
 21
246.309919
 31
0.0
  0
LINE
  5
1BE
330
1A9
100
AcDbEntity
  8
0
  6
Continuous
 62
     0
370
    30
100
AcDbLine
 10
-57.634701
 20
256.290249
 30
0.0
 11
-57.634701
 21
258.32959
 31
0.0
  0
ARC
  5
1BF
330
1A9
100
AcDbEntity
  8
0
  6
Continuous
 62
     0
370
    30
100
AcDbCircle
 10
-57.334701
 20
258.32959
 30
0.0
 40
0.3000000119209291
100
AcDbArc
 50
96.0
 51
180.0
  0
LINE
  5
1C0
330
1A9
100
AcDbEntity
  8
0
  6
Continuous
 62
     0
370
     0
100
AcDbLine
 10
-57.366059
 20
256.054435
 30
0.0
 11
-57.366059
 21
258.627946
 31
0.0
  0
LINE
  5
1C1
330
1A9
100
AcDbEntity
  8
0
  6
Continuous
 62
     0
370
     0
100
AcDbLine
 10
-57.36606
 20
253.418381
 30
0.0
 11
-57.36606
 21
255.746075
 31
0.0
  0
LINE
  5
1C2
330
1A9
100
AcDbEntity
  8
0
  6
Continuous
 62
     0
370
     0
100
AcDbLine
 10
-57.36606
 20
255.746075
 30
0.0
 11
-57.36606
 21
256.054435
 31
0.0
  0
LINE
  5
1C3
330
1A9
100
AcDbEntity
  8
0
  6
Continuous
 62
     0
370
     0
100
AcDbLine
 10
-55.903343
 20
255.863845
 30
0.0
 11
-55.903343
 21
256.208173
 31
0.0
  0
LINE
  5
1C4
330
1A9
100
AcDbEntity
  8
0
  6
Continuous
 62
     0
370
     0
100
AcDbLine
 10
-55.903343
 20
253.264644
 30
0.0
 11
-55.903343
 21
255.863845
 31
0.0
  0
LINE
  5
1C5
330
1A9
100
AcDbEntity
  8
0
  6
Continuous
 62
     0
370
     0
100
AcDbLine
 10
-57.36606
 20
246.902022
 30
0.0
 11
-57.36606
 21
248.448922
 31
0.0
  0
LINE
  5
1C6
330
1A9
100
AcDbEntity
  8
0
  6
Continuous
 62
     0
370
     0
100
AcDbLine
 10
-57.36606
 20
248.448922
 30
0.0
 11
-57.36606
 21
249.538076
 31
0.0
  0
LINE
  5
1C7
330
1A9
100
AcDbEntity
  8
0
  6
Continuous
 62
     0
370
     0
100
AcDbLine
 10
-55.903343
 20
248.475619
 30
0.0
 11
-55.903343
 21
249.691814
 31
0.0
  0
LINE
  5
1C8
330
1A9
100
AcDbEntity
  8
0
  6
Continuous
 62
     0
370
     0
100
AcDbLine
 10
-55.903343
 20
246.748285
 30
0.0
 11
-55.903343
 21
248.475619
 31
0.0
  0
LINE
  5
1C9
330
1A9
100
AcDbEntity
  8
0
  6
Continuous
 62
     0
370
     0
100
AcDbLine
 10
-57.36606
 20
239.491892
 30
0.0
 11
-57.36606
 21
240.150906
 31
0.0
  0
LINE
  5
1CA
330
1A9
100
AcDbEntity
  8
0
  6
Continuous
 62
     0
370
     0
100
AcDbLine
 10
-57.36606
 20
240.150906
 30
0.0
 11
-57.36606
 21
242.127946
 31
0.0
  0
LINE
  5
1CB
330
1A9
100
AcDbEntity
  8
0
  6
Continuous
 62
     0
370
     0
100
AcDbLine
 10
-55.903343
 20
240.074037
 30
0.0
 11
-55.903343
 21
242.281684
 31
0.0
  0
LINE
  5
1CC
330
1A9
100
AcDbEntity
  8
0
  6
Continuous
 62
     0
370
     0
100
AcDbLine
 10
-55.903343
 20
239.338155
 30
0.0
 11
-55.903343
 21
240.074037
 31
0.0
  0
LINE
  5
1CD
330
1A9
100
AcDbEntity
  8
0
  6
Continuous
 62
     0
370
     0
100
AcDbLine
 10
-57.366059
 20
234.655274
 30
0.0
 11
-57.366059
 21
234.73476
 31
0.0
  0
LINE
  5
1CE
330
1A9
100
AcDbEntity
  8
0
  6
Continuous
 62
     0
370
     0
100
AcDbLine
 10
-57.366059
 20
234.73476
 30
0.0
 11
-57.366059
 21
237.291327
 31
0.0
  0
LINE
  5
1CF
330
1A9
100
AcDbEntity
  8
0
  6
Continuous
 62
     0
370
     0
100
AcDbLine
 10
-55.903342
 20
234.590294
 30
0.0
 11
-55.903342
 21
237.445065
 31
0.0
  0
LINE
  5
1D0
330
1A9
100
AcDbEntity
  8
0
  6
Continuous
 62
     0
370
     0
100
AcDbLine
 10
-55.903342
 20
234.501536
 30
0.0
 11
-55.903342
 21
234.590294
 31
0.0
  0
LINE
  5
1D1
330
1A9
100
AcDbEntity
  8
0
  6
Continuous
 62
     0
370
    30
100
AcDbLine
 10
-55.903342
 20
258.781684
 30
0.0
 11
-57.366059
 21
258.627946
 31
0.0
  0
LINE
  5
1D2
330
1A9
100
AcDbEntity
  8
0
  6
Continuous
 62
     0
370
     0
100
AcDbLine
 10
-55.903342
 20
256.208173
 30
0.0
 11
-55.903342
 21
258.781684
 31
0.0
  0
LINE
  5
1D3
330
1A9
100
AcDbEntity
  8
0
  6
Continuous
 62
     0
370
    30
100
AcDbLine
 10
-57.634701
 20
235.015124
 30
0.0
 11
-57.634701
 21
236.992971
 31
0.0
  0
LINE
  5
1D4
330
1A9
100
AcDbEntity
  8
0
  6
Continuous
 62
     0
370
    30
100
AcDbLine
 10
-57.634701
 20
234.95363
 30
0.0
 11
-57.634701
 21
235.015124
 31
0.0
  0
LINE
  5
1D5
330
1A9
100
AcDbEntity
  8
0
  6
Continuous
 62
     0
370
    30
100
AcDbLine
 10
-57.634701
 20
240.300084
 30
0.0
 11
-57.634701
 21
241.82959
 31
0.0
  0
LINE
  5
1D6
330
1A9
100
AcDbEntity
  8
0
  6
Continuous
 62
     0
370
    30
100
AcDbLine
 10
-57.634701
 20
239.790249
 30
0.0
 11
-57.634701
 21
240.300084
 31
0.0
  0
LINE
  5
1D7
330
1A9
100
AcDbEntity
  8
0
  6
Continuous
 62
     0
370
    30
100
AcDbLine
 10
-57.634701
 20
248.397113
 30
0.0
 11
-57.634701
 21
249.23972
 31
0.0
  0
LINE
  5
1D8
330
1A9
100
AcDbEntity
  8
0
  6
Continuous
 62
     0
370
    30
100
AcDbLine
 10
-57.634701
 20
247.200379
 30
0.0
 11
-57.634701
 21
248.397113
 31
0.0
  0
LINE
  5
1D9
330
1A9
100
AcDbEntity
  8
0
  6
Continuous
 62
     0
370
    30
100
AcDbLine
 10
-57.634701
 20
255.517521
 30
0.0
 11
-57.634701
 21
255.756079
 31
0.0
  0
LINE
  5
1DA
330
1A9
100
AcDbEntity
  8
0
  6
Continuous
 62
     0
370
    30
100
AcDbLine
 10
-57.634701
 20
253.716738
 30
0.0
 11
-57.634701
 21
255.517521
 31
0.0
  0
ARC
  5
1DB
330
1A9
100
AcDbEntity
  8
0
  6
Continuous
 62
     0
370
    30
100
AcDbCircle
 10
-55.934701
 20
259.080041
 30
0.0
 40
0.3000000119209291
100
AcDbArc
 50
276.0
 51
360.0
  0
LINE
  5
1DC
330
1A9
100
AcDbEntity
  8
0
  6
Continuous
 62
     0
370
     0
100
AcDbLine
 10
0.065299
 20
246.309919
 30
0.0
 11
0.065299
 21
266.309919
 31
0.0
  0
LINE
  5
1DD
330
1A9
100
AcDbEntity
  8
0
  6
Continuous
 62
     0
370
     0
100
AcDbLine
 10
0.065299
 20
226.309919
 30
0.0
 11
0.065299
 21
246.309919
 31
0.0
  0
LINE
  5
1DE
330
1A9
100
AcDbEntity
  8
0
  6
Continuous
 62
     0
370
    30
100
AcDbLine
 10
0.365299
 20
226.609919
 30
0.0
 11
0.365299
 21
246.309919
 31
0.0
  0
LINE
  5
1DF
330
1A9
100
AcDbEntity
  8
0
  6
Continuous
 62
     0
370
    30
100
AcDbLine
 10
0.365299
 20
246.309919
 30
0.0
 11
0.365299
 21
266.009919
 31
0.0
  0
LINE
  5
1E0
330
1A9
100
AcDbEntity
  8
0
  6
Continuous
 62
     0
370
    30
100
AcDbLine
 10
-26.634701
 20
230.609919
 30
0.0
 11
-26.634701
 21
246.309919
 31
0.0
  0
LINE
  5
1E1
330
1A9
100
AcDbEntity
  8
0
  6
Continuous
 62
     0
370
    30
100
AcDbLine
 10
-26.634701
 20
246.309919
 30
0.0
 11
-26.634701
 21
262.009919
 31
0.0
  0
LINE
  5
1E2
330
1A9
100
AcDbEntity
  8
0
  6
Continuous
 62
     0
370
     0
100
AcDbLine
 10
-26.934701
 20
230.309919
 30
0.0
 11
-26.934701
 21
246.309919
 31
0.0
  0
LINE
  5
1E3
330
1A9
100
AcDbEntity
  8
0
  6
Continuous
 62
     0
370
     0
100
AcDbLine
 10
-26.934701
 20
246.309919
 30
0.0
 11
-26.934701
 21
262.309919
 31
0.0
  0
LINE
  5
1E4
330
1A9
100
AcDbEntity
  8
0
  6
Continuous
 62
     0
370
     0
100
AcDbLine
 10
-44.434701
 20
246.309919
 30
0.0
 11
-44.434701
 21
262.309919
 31
0.0
  0
LINE
  5
1E5
330
1A9
100
AcDbEntity
  8
0
  6
Continuous
 62
     0
370
     0
100
AcDbLine
 10
-44.434701
 20
230.309919
 30
0.0
 11
-44.434701
 21
246.309919
 31
0.0
  0
LINE
  5
1E6
330
1A9
100
AcDbEntity
  8
0
  6
Continuous
 62
     0
370
    30
100
AcDbLine
 10
-44.134701
 20
230.609919
 30
0.0
 11
-44.134701
 21
246.309919
 31
0.0
  0
LINE
  5
1E7
330
1A9
100
AcDbEntity
  8
0
  6
Continuous
 62
     0
370
    30
100
AcDbLine
 10
-44.134701
 20
246.309919
 30
0.0
 11
-44.134701
 21
262.009919
 31
0.0
  0
LINE
  5
1E8
330
1A9
100
AcDbEntity
  8
0
  6
Continuous
 62
     0
370
     0
100
AcDbLine
 10
-42.834701
 20
230.309919
 30
0.0
 11
-42.834701
 21
246.309919
 31
0.0
  0
LINE
  5
1E9
330
1A9
100
AcDbEntity
  8
0
  6
Continuous
 62
     0
370
     0
100
AcDbLine
 10
-42.834701
 20
246.309919
 30
0.0
 11
-42.834701
 21
262.309919
 31
0.0
  0
LINE
  5
1EA
330
1A9
100
AcDbEntity
  8
0
  6
Continuous
 62
     0
370
    30
100
AcDbLine
 10
-43.134701
 20
246.309919
 30
0.0
 11
-43.134701
 21
262.009919
 31
0.0
  0
LINE
  5
1EB
330
1A9
100
AcDbEntity
  8
0
  6
Continuous
 62
     0
370
    30
100
AcDbLine
 10
-43.134701
 20
230.609919
 30
0.0
 11
-43.134701
 21
246.309919
 31
0.0
  0
ARC
  5
1EC
330
1A9
100
AcDbEntity
  8
0
  6
Continuous
 62
     0
370
    30
100
AcDbCircle
 10
-44.434716
 20
230.609935
 30
0.0
 40
0.3000152399150302
100
AcDbArc
 50
270.002908
 51
359.991312
  0
ARC
  5
1ED
330
1A9
100
AcDbEntity
  8
0
  6
Continuous
 62
     0
370
    30
100
AcDbCircle
 10
-44.434716
 20
262.009904
 30
0.0
 40
0.3000152399145834
100
AcDbArc
 50
0.008688
 51
89.997092
  0
ARC
  5
1EE
330
1A9
100
AcDbEntity
  8
0
  6
Continuous
 62
     0
370
    30
100
AcDbCircle
 10
-42.834686
 20
230.609935
 30
0.0
 40
0.30001523991558
100
AcDbArc
 50
180.008688
 51
269.997092
  0
ARC
  5
1EF
330
1A9
100
AcDbEntity
  8
0
  6
Continuous
 62
     0
370
    30
100
AcDbCircle
 10
-42.834686
 20
262.009904
 30
0.0
 40
0.3000152399160296
100
AcDbArc
 50
90.002908
 51
179.991312
  0
LINE
  5
1F0
330
1A9
100
AcDbEntity
  8
0
  6
Continuous
 62
     0
370
    30
100
AcDbLine
 10
-26.934701
 20
262.309919
 30
0.0
 11
-42.834701
 21
262.309919
 31
0.0
  0
LINE
  5
1F1
330
1A9
100
AcDbEntity
  8
0
  6
Continuous
 62
     0
370
    30
100
AcDbLine
 10
-26.934701
 20
230.309919
 30
0.0
 11
-42.834701
 21
230.309919
 31
0.0
  0
LINE
  5
1F2
330
1A9
100
AcDbEntity
  8
0
  6
Continuous
 62
     0
370
    30
100
AcDbLine
 10
-44.434701
 20
262.309919
 30
0.0
 11
-55.134701
 21
262.309919
 31
0.0
  0
LINE
  5
1F3
330
1A9
100
AcDbEntity
  8
0
  6
Continuous
 62
     0
370
    30
100
AcDbLine
 10
-44.434701
 20
230.309919
 30
0.0
 11
-55.134701
 21
230.309919
 31
0.0
  0
ARC
  5
1F4
330
1A9
100
AcDbEntity
  8
0
  6
Continuous
 62
     0
370
    30
100
AcDbCircle
 10
0.065284
 20
226.609935
 30
0.0
 40
0.3000152453164202
100
AcDbArc
 50
270.002909
 51
359.989838
  0
ARC
  5
1F5
330
1A9
100
AcDbEntity
  8
0
  6
Continuous
 62
     0
370
    30
100
AcDbCircle
 10
0.065284
 20
266.009904
 30
0.0
 40
0.3000152453164792
100
AcDbArc
 50
0.010162
 51
89.997091
  0
ARC
  5
1F6
330
1A9
100
AcDbEntity
  8
0
  6
Continuous
 62
     0
370
    30
100
AcDbCircle
 10
-26.934716
 20
230.609935
 30
0.0
 40
0.3000152399146704
100
AcDbArc
 50
270.002908
 51
359.991312
  0
ARC
  5
1F7
330
1A9
100
AcDbEntity
  8
0
  6
Continuous
 62
     0
370
    30
100
AcDbCircle
 10
-26.934716
 20
262.009904
 30
0.0
 40
0.3000152399144945
100
AcDbArc
 50
0.008688
 51
89.997092
  0
LINE
  5
1F8
330
1A9
100
AcDbEntity
  8
0
  6
Continuous
 62
     0
370
    30
100
AcDbLine
 10
0.065299
 20
266.309919
 30
0.0
 11
-6.134701
 21
266.309919
 31
0.0
  0
LINE
  5
1F9
330
1A9
100
AcDbEntity
  8
0
  6
Continuous
 62
     0
370
    30
100
AcDbLine
 10
0.065299
 20
226.309919
 30
0.0
 11
-6.134701
 21
226.309919
 31
0.0
  0
ARC
  5
1FA
330
1A9
100
AcDbEntity
  8
0
  6
Continuous
 62
     0
370
    30
100
AcDbCircle
 10
-55.934711
 20
252.966324
 30
0.0
 40
0.3000094802541767
100
AcDbArc
 50
0.003372
 51
83.998372
  0
ARC
  5
1FB
330
1A9
100
AcDbEntity
  8
0
  6
Continuous
 62
     0
370
    30
100
AcDbCircle
 10
-55.934717
 20
256.506545
 30
0.0
 40
0.3000154565967862
100
AcDbArc
 50
276.002656
 51
359.9974
  0
ARC
  5
1FC
330
1A9
100
AcDbEntity
  8
0
  6
Continuous
 62
     0
370
    30
100
AcDbCircle
 10
-55.934704
 20
246.450021
 30
0.0
 40
0.3000030005836706
100
AcDbArc
 50
0.004208
 51
83.999486
  0
ARC
  5
1FD
330
1A9
100
AcDbEntity
  8
0
  6
Continuous
 62
     0
370
    30
100
AcDbCircle
 10
-55.934706
 20
249.990092
 30
0.0
 40
0.3000046897557385
100
AcDbArc
 50
276.000804
 51
359.99601
  0
ARC
  5
1FE
330
1A9
100
AcDbEntity
  8
0
  6
Continuous
 62
     0
370
    30
100
AcDbCircle
 10
-55.934704
 20
239.039896
 30
0.0
 40
0.300002386315793
100
AcDbArc
 50
0.004288
 51
83.999592
  0
ARC
  5
1FF
330
1A9
100
AcDbEntity
  8
0
  6
Continuous
 62
     0
370
    30
100
AcDbCircle
 10
-55.934707
 20
242.579972
 30
0.0
 40
0.3000057700248384
100
AcDbArc
 50
276.00099
 51
359.996149
  0
ARC
  5
200
330
1A9
100
AcDbEntity
  8
0
  6
Continuous
 62
     0
370
    30
100
AcDbCircle
 10
-55.934709
 20
234.203229
 30
0.0
 40
0.3000080003883249
100
AcDbArc
 50
0.003563
 51
83.998626
  0
ARC
  5
201
330
1A9
100
AcDbEntity
  8
0
  6
Continuous
 62
     0
370
    30
100
AcDbCircle
 10
-55.934714
 20
237.743419
 30
0.0
 40
0.3000134019617397
100
AcDbArc
 50
276.002302
 51
359.997135
  0
ARC
  5
202
330
1A9
100
AcDbEntity
  8
0
  6
Continuous
 62
     0
370
    30
100
AcDbCircle
 10
-57.334695
 20
234.953686
 30
0.0
 40
0.3000057542545869
100
AcDbArc
 50
180.014866
 51
263.999013
  0
ARC
  5
203
330
1A9
100
AcDbEntity
  8
0
  6
Continuous
 62
     0
370
    30
100
AcDbCircle
 10
-57.33469
 20
236.992948
 30
0.0
 40
0.3000111216591632
100
AcDbArc
 50
96.00191
 51
179.992125
  0
ARC
  5
204
330
1A9
100
AcDbEntity
  8
0
  6
Continuous
 62
     0
370
    30
100
AcDbCircle
 10
-57.334701
 20
239.790339
 30
0.0
 40
0.3000001654286455
100
AcDbArc
 50
180.015661
 51
263.999975
  0
ARC
  5
205
330
1A9
100
AcDbEntity
  8
0
  6
Continuous
 62
     0
370
    30
100
AcDbCircle
 10
-57.334698
 20
241.82952
 30
0.0
 40
0.3000035232462797
100
AcDbArc
 50
96.000603
 51
179.990402
  0
ARC
  5
206
330
1A9
100
AcDbEntity
  8
0
  6
Continuous
 62
     0
370
    30
100
AcDbCircle
 10
-57.3347
 20
247.200465
 30
0.0
 40
0.3000007683318342
100
AcDbArc
 50
180.011295
 51
263.999871
  0
ARC
  5
207
330
1A9
100
AcDbEntity
  8
0
  6
Continuous
 62
     0
370
    30
100
AcDbCircle
 10
-57.334699
 20
249.239644
 30
0.0
 40
0.3000024443838429
100
AcDbArc
 50
96.000418
 51
179.991887
  0
ARC
  5
208
330
1A9
100
AcDbEntity
  8
0
  6
Continuous
 62
     0
370
    30
100
AcDbCircle
 10
-57.334694
 20
253.716785
 30
0.0
 40
0.3000072203728012
100
AcDbArc
 50
180.010544
 51
263.998761
  0
ARC
  5
209
330
1A9
100
AcDbEntity
  8
0
  6
Continuous
 62
     0
370
    30
100
AcDbCircle
 10
-57.334688
 20
255.756068
 30
0.0
 40
0.300013162572678
100
AcDbArc
 50
96.002261
 51
179.995559
  0
LINE
  5
20A
330
1A9
100
AcDbEntity
  8
0
  6
Continuous
 62
     0
370
    30
100
AcDbLine
 10
-57.366059
 20
234.655274
 30
0.0
 11
-55.903342
 21
234.501536
 31
0.0
  0
LINE
  5
20B
330
1A9
100
AcDbEntity
  8
0
  6
Continuous
 62
     0
370
    30
100
AcDbLine
 10
-57.366059
 20
237.291327
 30
0.0
 11
-55.903342
 21
237.445065
 31
0.0
  0
LINE
  5
20C
330
1A9
100
AcDbEntity
  8
0
  6
Continuous
 62
     0
370
    30
100
AcDbLine
 10
-57.36606
 20
239.491892
 30
0.0
 11
-55.903343
 21
239.338155
 31
0.0
  0
LINE
  5
20D
330
1A9
100
AcDbEntity
  8
0
  6
Continuous
 62
     0
370
    30
100
AcDbLine
 10
-57.36606
 20
242.127946
 30
0.0
 11
-55.903343
 21
242.281684
 31
0.0
  0
LINE
  5
20E
330
1A9
100
AcDbEntity
  8
0
  6
Continuous
 62
     0
370
    30
100
AcDbLine
 10
-57.36606
 20
246.902022
 30
0.0
 11
-55.903343
 21
246.748285
 31
0.0
  0
LINE
  5
20F
330
1A9
100
AcDbEntity
  8
0
  6
Continuous
 62
     0
370
    30
100
AcDbLine
 10
-57.36606
 20
249.538076
 30
0.0
 11
-55.903343
 21
249.691814
 31
0.0
  0
LINE
  5
210
330
1A9
100
AcDbEntity
  8
0
  6
Continuous
 62
     0
370
    30
100
AcDbLine
 10
-57.36606
 20
253.418381
 30
0.0
 11
-55.903343
 21
253.264644
 31
0.0
  0
LINE
  5
211
330
1A9
100
AcDbEntity
  8
0
  6
Continuous
 62
     0
370
    30
100
AcDbLine
 10
-57.36606
 20
256.054435
 30
0.0
 11
-55.903343
 21
256.208173
 31
0.0
  0
ARC
  5
212
330
1A9
100
AcDbEntity
  8
0
  6
Continuous
 62
     0
370
    30
100
AcDbCircle
 10
-57.334489
 20
256.290379
 30
0.0
 40
0.3002115208417869
100
AcDbArc
 50
180.024846
 51
242.901154
  0
ARC
  5
213
330
1A9
100
AcDbEntity
  8
0
  6
Continuous
 62
     0
370
    30
100
AcDbCircle
 10
-6.134698
 20
226.809922
 30
0.0
 40
0.5000026123638567
100
AcDbArc
 50
180.004607
 51
269.999701
  0
ARC
  5
214
330
1A9
100
AcDbEntity
  8
0
  6
Continuous
 62
     0
370
    30
100
AcDbCircle
 10
-6.134698
 20
265.809917
 30
0.0
 40
0.5000026123638731
100
AcDbArc
 50
90.000299
 51
179.995393
  0
ARC
  5
215
330
1A9
100
AcDbEntity
  8
0
  6
Continuous
 62
     0
370
    30
100
AcDbCircle
 10
-55.134698
 20
230.809922
 30
0.0
 40
0.5000026388138943
100
AcDbArc
 50
180.003726
 51
269.999698
  0
ARC
  5
216
330
1A9
100
AcDbEntity
  8
0
  6
Continuous
 62
     0
370
    30
100
AcDbCircle
 10
-55.134698
 20
261.809917
 30
0.0
 40
0.5000026388132566
100
AcDbArc
 50
90.000302
 51
179.996274
  0
LINE
  5
217
330
1A9
100
AcDbEntity
  8
0
  6
Continuous
 62
     0
370
    30
100
AcDbLine
 10
-6.634701
 20
257.809919
 30
0.0
 11
-19.134701
 21
257.809919
 31
0.0
  0
LINE
  5
218
330
1A9
100
AcDbEntity
  8
0
  6
Continuous
 62
     0
370
    30
100
AcDbLine
 10
-6.634701
 20
234.809919
 30
0.0
 11
-19.134701
 21
234.809919
 31
0.0
  0
LINE
  5
219
330
1A9
100
AcDbEntity
  8
0
  6
Continuous
 62
     0
370
    30
100
AcDbLine
 10
-21.634701
 20
255.059919
 30
0.0
 11
-19.134701
 21
257.809919
 31
0.0
  0
LINE
  5
21A
330
1A9
100
AcDbEntity
  8
0
  6
Continuous
 62
     0
370
    30
100
AcDbLine
 10
-21.634701
 20
237.559919
 30
0.0
 11
-19.134701
 21
234.809919
 31
0.0
  0
ARC
  5
21B
330
1A9
100
AcDbEntity
  8
0
  6
Continuous
 62
     0
370
    30
100
AcDbCircle
 10
-27.624433
 20
250.089952
 30
0.0
 40
7.78315271012427
100
AcDbArc
 50
39.684118
 51
82.694294
  0
ARC
  5
21C
330
1A9
100
AcDbEntity
  8
0
  6
Continuous
 62
     0
370
    30
100
AcDbCircle
 10
-27.624433
 20
242.529887
 30
0.0
 40
7.783152710124208
100
AcDbArc
 50
277.305706
 51
320.315882
  0
LINE
  5
21D
330
1A9
100
AcDbEntity
  8
0
  6
Continuous
 62
     0
370
    30
100
AcDbLine
 10
-43.134701
 20
259.309919
 30
0.0
 11
-44.134701
 21
259.309919
 31
0.0
  0
LINE
  5
21E
330
1A9
100
AcDbEntity
  8
0
  6
Continuous
 62
     0
370
    30
100
AcDbLine
 10
-43.134701
 20
233.309919
 30
0.0
 11
-44.134701
 21
233.309919
 31
0.0
  0
ENDBLK
  5
220
330
1A9
100
AcDbEntity
  8
0
100
AcDbBlockEnd
  0
BLOCK
  5
2C7
330
222
100
AcDbEntity
  8
0
100
AcDbBlockBegin
  2
d
 70
     0
 10
105.977905
 20
71.852612
 30
0.0
  3
d
  1

  0
ELLIPSE
  5
223
330
222
100
AcDbEntity
  8
0
  6
Continuous
 62
     0
370
    30
100
AcDbEllipse
 10
297.545245
 20
108.341708
 30
0.0
 11
5.051814826569656
 21
-7.144345103467421
 31
0.0
210
0.0
220
0.0
230
1.0
 40
0.5
 41
0.7003606026993738
 42
2.44124379610571
  0
LWPOLYLINE
  5
224
330
222
100
AcDbEntity
  8
0
  6
Continuous
 62
     0
370
    30
100
AcDbPolyline
 90
        5
 70
     0
 43
0.0
 10
306.178589
 20
107.981941
 10
305.876648
 20
106.945511
 10
305.640442
 20
105.934158
 10
305.484558
 20
104.961403
 10
305.41983
 20
103.909889
  0
LINE
  5
225
330
222
100
AcDbEntity
  8
0
  6
Continuous
 62
     0
370
    30
100
AcDbLine
 10
306.178594
 20
107.981942
 30
0.0
 11
306.635921
 21
107.949163
 31
0.0
  0
ELLIPSE
  5
226
330
222
100
AcDbEntity
  8
0
  6
Continuous
 62
     0
370
    30
100
AcDbEllipse
 10
299.313012
 20
109.591708
 30
0.0
 11
6.639528057777244
 21
-9.3897107074143
 31
0.0
210
0.0
220
0.0
230
0.9999999999999999
 40
0.5
 41
1.065276577164422
 42
3.307275509901637
  0
LINE
  5
227
330
222
100
AcDbEntity
  8
0
  6
Continuous
 62
     0
370
    30
100
AcDbLine
 10
291.990102
 20
118.305321
 30
0.0
 11
291.996626
 21
118.25981
 31
0.0
  0
ELLIPSE
  5
228
330
222
100
AcDbEntity
  8
0
  6
Continuous
 62
     0
370
    30
100
AcDbEllipse
 10
299.313012
 20
109.591708
 30
0.0
 11
6.639528057777244
 21
-9.3897107074143
 31
0.0
210
0.0
220
0.0
230
0.9999999999999999
 40
0.5
 41
6.111263751102555
 42
6.44886816349143
  0
LINE
  5
229
330
222
100
AcDbEntity
  8
0
  6
Continuous
 62
     0
370
    30
100
AcDbLine
 10
306.635921
 20
100.878096
 30
0.0
 11
306.178594
 21
100.910874
 31
0.0
  0
LWPOLYLINE
  5
22A
330
222
100
AcDbEntity
  8
0
  6
Continuous
 62
     0
370
    30
100
AcDbPolyline
 90
        5
 70
     0
 43
0.0
 10
305.41983
 20
103.909889
 10
305.469238
 20
103.066597
 10
305.612915
 20
102.300354
 10
305.839478
 20
101.610359
 10
306.178589
 20
100.910873
  0
ELLIPSE
  5
22B
330
222
100
AcDbEntity
  8
0
  6
Continuous
 62
     0
370
    30
100
AcDbEllipse
 10
300.727225
 20
110.591708
 30
0.0
 11
-6.639528057777244
 21
9.3897107074143
 31
0.0
210
0.0
220
0.0
230
-0.9999999999999999
 40
0.5
 41
2.52611293685166
 42
2.97590979727795
  0
LINE
  5
22C
330
222
100
AcDbEntity
  8
0
  6
Continuous
 62
     0
370
    30
100
AcDbLine
 10
308.050134
 20
101.878096
 30
0.0
 11
306.635921
 21
100.878096
 31
0.0
  0
LINE
  5
22D
330
222
100
AcDbEntity
  8
0
  6
Continuous
 62
     0
370
    30
100
AcDbLine
 10
306.635921
 20
107.949163
 30
0.0
 11
308.050134
 21
108.949163
 31
0.0
  0
ELLIPSE
  5
22E
330
222
100
AcDbEntity
  8
0
  6
Continuous
 62
     0
370
    30
100
AcDbEllipse
 10
300.727225
 20
110.591708
 30
0.0
 11
-6.639528057777244
 21
9.3897107074143
 31
0.0
210
0.0
220
0.0
230
-0.9999999999999999
 40
0.5
 41
2.076316076425372
 42
2.52611293685166
  0
ELLIPSE
  5
22F
330
222
100
AcDbEntity
  8
0
  6
Continuous
 62
     0
370
    30
100
AcDbEllipse
 10
308.151846
 20
115.841708
 30
0.0
 11
6.63952805777725
 21
-9.389710707414308
 31
0.0
210
0.0
220
0.0
230
1.0
 40
0.5
 41
0.6154797167381325
 42
3.141592665691411
  0
ELLIPSE
  5
230
330
222
100
AcDbEntity
  8
0
  6
Continuous
 62
     0
370
    30
100
AcDbEllipse
 10
308.151846
 20
115.841708
 30
0.0
 11
6.63952805777725
 21
-9.389710707414308
 31
0.0
210
0.0
220
0.0
230
1.0
 40
0.5
 41
0.0000000121016175
 42
0.6154797167381325
  0
ELLIPSE
  5
231
330
222
100
AcDbEntity
  8
0
  6
Continuous
 62
     0
370
     0
100
AcDbEllipse
 10
308.151846
 20
115.841708
 30
0.0
 11
11.25833018492549
 21
-15.92168337344002
 31
0.0
210
0.0
220
0.0
230
0.9999999999999999
 40
0.5
 41
0.6154797167381325
 42
3.757072370327926
  0
ELLIPSE
  5
232
330
222
100
AcDbEntity
  8
0
  6
Continuous
 62
     0
370
     0
100
AcDbEllipse
 10
308.151846
 20
115.841708
 30
0.0
 11
11.25833018492549
 21
-15.92168337344002
 31
0.0
210
0.0
220
0.0
230
0.9999999999999999
 40
0.5
 41
5.343130296126036
 42
6.898665023917719
  0
ELLIPSE
  5
233
330
222
100
AcDbEntity
  8
0
  6
Continuous
 62
     0
370
     0
100
AcDbEllipse
 10
308.151846
 20
115.841708
 30
0.0
 11
11.25833018492549
 21
-15.92168337344002
 31
0.0
210
0.0
220
0.0
230
0.9999999999999999
 40
0.5
 41
3.757072370327926
 42
4.081647688846578
  0
ELLIPSE
  5
234
330
222
100
AcDbEntity
  8
0
  6
Continuous
 62
     0
370
     0
100
AcDbEllipse
 10
273.503614
 20
91.341708
 30
0.0
 11
8.948929121350762
 21
-12.65569704042631
 31
0.0
210
0.0
220
0.0
230
1.0
 40
0.5
 41
3.757072370327926
 42
6.898665023917717
  0
ELLIPSE
  5
235
330
222
100
AcDbEntity
  8
0
  6
Continuous
 62
     0
370
     0
100
AcDbEllipse
 10
273.503614
 20
91.341708
 30
0.0
 11
8.948929121350762
 21
-12.65569704042631
 31
0.0
210
0.0
220
0.0
230
1.0
 40
0.5
 41
0.6154797167381316
 42
3.757072370327926
  0
ELLIPSE
  5
236
330
222
100
AcDbEntity
  8
0
  6
Continuous
 62
     0
370
     0
100
AcDbEllipse
 10
273.857167
 20
91.591708
 30
0.0
 11
9.237604254298754
 21
-13.06394533205465
 31
0.0
210
0.0
220
0.0
230
1.0
 40
0.5
 41
0.6154797167381316
 42
3.14563968664425
  0
ELLIPSE
  5
237
330
222
100
AcDbEntity
  8
0
  6
Continuous
 62
     0
370
     0
100
AcDbEllipse
 10
273.857167
 20
91.591708
 30
0.0
 11
9.237604254298754
 21
-13.06394533205465
 31
0.0
210
0.0
220
0.0
230
1.0
 40
0.5
 41
6.279238632767559
 42
6.898665023917717
  0
ELLIPSE
  5
238
330
222
100
AcDbEntity
  8
0
  6
Continuous
 62
     0
370
     0
100
AcDbEllipse
 10
308.5054
 20
116.091708
 30
0.0
 11
11.54700531787348
 21
-16.32993166506836
 31
0.0
210
0.0
220
0.0
230
1.0
 40
0.5
 41
0.6154797167381325
 42
3.14599693343707
  0
ELLIPSE
  5
239
330
222
100
AcDbEntity
  8
0
  6
Continuous
 62
     0
370
     0
100
AcDbEllipse
 10
308.5054
 20
116.091708
 30
0.0
 11
11.54700531787348
 21
-16.32993166506836
 31
0.0
210
0.0
220
0.0
230
1.0
 40
0.5
 41
6.278732023845875
 42
6.898665023917719
  0
ELLIPSE
  5
23A
330
222
100
AcDbEntity
  8
0
  6
Continuous
 62
     0
370
     0
100
AcDbEllipse
 10
272.0894
 20
98.119883
 30
0.0
 11
0.5887069219752806
 21
-0.8325573204446671
 31
0.0
210
0.0
220
0.0
230
0.9999999999999999
 40
0.5
 41
2.186276043533036
 42
5.327868697122822
  0
ELLIPSE
  5
23B
330
222
100
AcDbEntity
  8
0
  6
Continuous
 62
     0
370
     0
100
AcDbEllipse
 10
272.0894
 20
98.119883
 30
0.0
 11
0.5887069219752806
 21
-0.8325573204446671
 31
0.0
210
0.0
220
0.0
230
0.9999999999999999
 40
0.5
 41
5.327868697122822
 42
8.469461350712622
  0
ELLIPSE
  5
23C
330
222
100
AcDbEntity
  8
0
  6
Continuous
 62
     0
370
     0
100
AcDbEllipse
 10
272.279359
 20
98.254204
 30
0.0
 11
0.7609631730392036
 21
-1.076164448987391
 31
0.0
210
0.0
220
0.0
230
0.9999999999999999
 40
0.5
 41
2.186276043533024
 42
3.222744360730752
  0
ELLIPSE
  5
23D
330
222
100
AcDbEntity
  8
0
  6
Continuous
 62
     0
370
     0
100
AcDbEllipse
 10
272.279359
 20
98.254204
 30
0.0
 11
0.7609631730392036
 21
-1.076164448987391
 31
0.0
210
0.0
220
0.0
230
0.9999999999999999
 40
0.5
 41
6.208609402845734
 42
8.46946135071261
  0
ELLIPSE
  5
23E
330
222
100
AcDbEntity
  8
0
  6
Continuous
 62
     0
370
     0
100
AcDbEllipse
 10
273.503614
 20
99.119883
 30
0.0
 11
1.021979959357804
 21
-1.445297931364921
 31
0.0
210
0.0
220
0.0
230
1.0
 40
0.5
 41
5.662738109373338
 42
8.469461350712615
  0
ELLIPSE
  5
23F
330
222
100
AcDbEntity
  8
0
  6
Continuous
 62
     0
370
     0
100
AcDbEllipse
 10
273.503614
 20
99.119883
 30
0.0
 11
1.021979959357804
 21
-1.445297931364921
 31
0.0
210
0.0
220
0.0
230
1.0
 40
0.5
 41
2.186276043533029
 42
3.762039875599285
  0
ELLIPSE
  5
240
330
222
100
AcDbEntity
  8
0
  6
Continuous
 62
     0
370
     0
100
AcDbEllipse
 10
268.5039
 20
100.835468
 30
0.0
 11
1.021979959357805
 21
-1.445297931364922
 31
0.0
210
0.0
220
0.0
230
1.0
 40
0.5
 41
6.026000397920549
 42
9.167593051510337
  0
ELLIPSE
  5
241
330
222
100
AcDbEntity
  8
0
  6
Continuous
 62
     0
370
     0
100
AcDbEllipse
 10
268.5039
 20
100.835468
 30
0.0
 11
1.021979959357805
 21
-1.445297931364922
 31
0.0
210
0.0
220
0.0
230
1.0
 40
0.5
 41
5.662738109373346
 42
6.026000397920549
  0
ELLIPSE
  5
242
330
222
100
AcDbEntity
  8
0
  6
Continuous
 62
     0
370
     0
100
AcDbEllipse
 10
268.5039
 20
100.835468
 30
0.0
 11
1.021979959357805
 21
-1.445297931364922
 31
0.0
210
0.0
220
0.0
230
1.0
 40
0.5
 41
2.884407744330751
 42
3.762039875599277
  0
ELLIPSE
  5
243
330
222
100
AcDbEntity
  8
0
  6
Continuous
 62
     0
370
     0
100
AcDbEllipse
 10
265.843607
 20
98.108817
 30
0.0
 11
1.021979959357805
 21
-1.445297931364922
 31
0.0
210
0.0
220
0.0
230
1.0
 40
0.5
 41
0.4409467915386855
 42
3.582539445128495
  0
ELLIPSE
  5
244
330
222
100
AcDbEntity
  8
0
  6
Continuous
 62
     0
370
     0
100
AcDbEllipse
 10
265.843607
 20
98.108817
 30
0.0
 11
1.021979959357805
 21
-1.445297931364922
 31
0.0
210
0.0
220
0.0
230
1.0
 40
0.5
 41
5.662738109373341
 42
6.724132098718272
  0
ELLIPSE
  5
245
330
222
100
AcDbEntity
  8
0
  6
Continuous
 62
     0
370
     0
100
AcDbEllipse
 10
265.843607
 20
98.108817
 30
0.0
 11
1.021979959357805
 21
-1.445297931364922
 31
0.0
210
0.0
220
0.0
230
1.0
 40
0.5
 41
3.582539445128495
 42
3.762039875599277
  0
ELLIPSE
  5
246
330
222
100
AcDbEntity
  8
0
  6
Continuous
 62
     0
370
     0
100
AcDbEllipse
 10
266.767517
 20
92.215761
 30
0.0
 11
1.021979959357803
 21
-1.44529793136492
 31
0.0
210
0.0
220
0.0
230
0.9999999999999999
 40
0.5
 41
1.139078492336438
 42
3.762039875599277
  0
ELLIPSE
  5
247
330
222
100
AcDbEntity
  8
0
  6
Continuous
 62
     0
370
     0
100
AcDbEllipse
 10
266.767517
 20
92.215761
 30
0.0
 11
1.021979959357803
 21
-1.44529793136492
 31
0.0
210
0.0
220
0.0
230
0.9999999999999999
 40
0.5
 41
5.662738109373341
 42
7.422263799516024
  0
ELLIPSE
  5
248
330
222
100
AcDbEntity
  8
0
  6
Continuous
 62
     0
370
     0
100
AcDbEllipse
 10
270.843322
 20
85.913726
 30
0.0
 11
1.021979959357804
 21
-1.445297931364921
 31
0.0
210
0.0
220
0.0
230
1.0
 40
0.5
 41
1.837210193134164
 42
3.762039875599274
  0
ELLIPSE
  5
249
330
222
100
AcDbEntity
  8
0
  6
Continuous
 62
     0
370
     0
100
AcDbEllipse
 10
270.843322
 20
85.913726
 30
0.0
 11
1.021979959357804
 21
-1.445297931364921
 31
0.0
210
0.0
220
0.0
230
1.0
 40
0.5
 41
5.662738109373336
 42
8.12039550031375
  0
ELLIPSE
  5
24A
330
222
100
AcDbEntity
  8
0
  6
Continuous
 62
     0
370
     0
100
AcDbEllipse
 10
276.163906
 20
82.151504
 30
0.0
 11
1.021979959357804
 21
-1.445297931364921
 31
0.0
210
0.0
220
0.0
230
1.0
 40
0.5
 41
5.662738109373346
 42
5.676934547521691
  0
ELLIPSE
  5
24B
330
222
100
AcDbEntity
  8
0
  6
Continuous
 62
     0
370
     0
100
AcDbEllipse
 10
276.163906
 20
82.151504
 30
0.0
 11
1.021979959357804
 21
-1.445297931364921
 31
0.0
210
0.0
220
0.0
230
1.0
 40
0.5
 41
2.535341893931895
 42
3.762039875599288
  0
ELLIPSE
  5
24C
330
222
100
AcDbEntity
  8
0
  6
Continuous
 62
     0
370
     0
100
AcDbEllipse
 10
276.163906
 20
82.151504
 30
0.0
 11
1.021979959357804
 21
-1.445297931364921
 31
0.0
210
0.0
220
0.0
230
1.0
 40
0.5
 41
5.676934547521686
 42
8.81852720111148
  0
ELLIPSE
  5
24D
330
222
100
AcDbEntity
  8
0
  6
Continuous
 62
     0
370
     0
100
AcDbEllipse
 10
280.239711
 20
82.689481
 30
0.0
 11
1.021979959357803
 21
-1.44529793136492
 31
0.0
210
0.0
220
0.0
230
0.9999999999999999
 40
0.5
 41
5.66273810937334
 42
6.375066248319415
  0
ELLIPSE
  5
24E
330
222
100
AcDbEntity
  8
0
  6
Continuous
 62
     0
370
     0
100
AcDbEllipse
 10
280.239711
 20
82.689481
 30
0.0
 11
1.021979959357803
 21
-1.44529793136492
 31
0.0
210
0.0
220
0.0
230
0.9999999999999999
 40
0.5
 41
3.233473594729628
 42
3.762039875599273
  0
ELLIPSE
  5
24F
330
222
100
AcDbEntity
  8
0
  6
Continuous
 62
     0
370
     0
100
AcDbEllipse
 10
280.239711
 20
82.689481
 30
0.0
 11
1.021979959357803
 21
-1.44529793136492
 31
0.0
210
0.0
220
0.0
230
0.9999999999999999
 40
0.5
 41
0.0918809411398289
 42
3.233473594729628
  0
ELLIPSE
  5
250
330
222
100
AcDbEntity
  8
0
  6
Continuous
 62
     0
370
     0
100
AcDbEllipse
 10
281.163621
 20
87.275932
 30
0.0
 11
1.021979959357804
 21
-1.445297931364921
 31
0.0
210
0.0
220
0.0
230
1.0
 40
0.5
 41
5.662738109373344
 42
7.073197949117159
  0
ELLIPSE
  5
251
330
222
100
AcDbEntity
  8
0
  6
Continuous
 62
     0
370
     0
100
AcDbEllipse
 10
281.163621
 20
87.275932
 30
0.0
 11
1.021979959357804
 21
-1.445297931364921
 31
0.0
210
0.0
220
0.0
230
1.0
 40
0.5
 41
0.7900126419375724
 42
3.762039875599281
  0
ELLIPSE
  5
252
330
222
100
AcDbEntity
  8
0
  6
Continuous
 62
     0
370
     0
100
AcDbEllipse
 10
278.503328
 20
93.764804
 30
0.0
 11
1.021979959357803
 21
-1.44529793136492
 31
0.0
210
0.0
220
0.0
230
0.9999999999999999
 40
0.5
 41
5.662738109373331
 42
7.771329649914883
  0
ELLIPSE
  5
253
330
222
100
AcDbEntity
  8
0
  6
Continuous
 62
     0
370
     0
100
AcDbEllipse
 10
278.503328
 20
93.764804
 30
0.0
 11
1.021979959357803
 21
-1.44529793136492
 31
0.0
210
0.0
220
0.0
230
0.9999999999999999
 40
0.5
 41
1.488144342735296
 42
3.762039875599281
  0
ELLIPSE
  5
254
330
222
100
AcDbEntity
  8
0
  6
Continuous
 62
     0
370
     0
100
AcDbEllipse
 10
277.279073
 20
92.899125
 30
0.0
 11
0.7609631730392025
 21
-1.07616444898739
 31
0.0
210
0.0
220
0.0
230
1.0
 40
0.5
 41
6.218782480130598
 42
7.771329649914884
  0
ELLIPSE
  5
255
330
222
100
AcDbEntity
  8
0
  6
Continuous
 62
     0
370
     0
100
AcDbEllipse
 10
277.279073
 20
92.899125
 30
0.0
 11
0.7609631730392025
 21
-1.07616444898739
 31
0.0
210
0.0
220
0.0
230
1.0
 40
0.5
 41
1.488144342735298
 42
3.220318663968369
  0
ELLIPSE
  5
256
330
222
100
AcDbEntity
  8
0
  6
Continuous
 62
     0
370
     0
100
AcDbEllipse
 10
278.31337
 20
93.630483
 30
0.0
 11
0.8497237082938809
 21
-1.201690802822197
 31
0.0
210
0.0
220
0.0
230
0.9999999999999999
 40
0.5
 41
1.488144342735295
 42
3.202311928285001
  0
ELLIPSE
  5
257
330
222
100
AcDbEntity
  8
0
  6
Continuous
 62
     0
370
     0
100
AcDbEllipse
 10
278.31337
 20
93.630483
 30
0.0
 11
0.8497237082938809
 21
-1.201690802822197
 31
0.0
210
0.0
220
0.0
230
0.9999999999999999
 40
0.5
 41
6.222261842486437
 42
7.771329649914881
  0
ELLIPSE
  5
258
330
222
100
AcDbEntity
  8
0
  6
Continuous
 62
     0
370
     0
100
AcDbEllipse
 10
279.939365
 20
86.410252
 30
0.0
 11
0.7609631730392042
 21
-1.076164448987392
 31
0.0
210
0.0
220
0.0
230
1.0
 40
0.5
 41
6.207807604438261
 42
7.073197949117146
  0
ELLIPSE
  5
259
330
222
100
AcDbEntity
  8
0
  6
Continuous
 62
     0
370
     0
100
AcDbEllipse
 10
279.939365
 20
86.410252
 30
0.0
 11
0.7609631730392042
 21
-1.076164448987392
 31
0.0
210
0.0
220
0.0
230
1.0
 40
0.5
 41
0.7900126419375599
 42
3.212120329535655
  0
ELLIPSE
  5
25A
330
222
100
AcDbEntity
  8
0
  6
Continuous
 62
     0
370
     0
100
AcDbEllipse
 10
280.973662
 20
87.141611
 30
0.0
 11
0.8497237082938814
 21
-1.201690802822198
 31
0.0
210
0.0
220
0.0
230
0.9999999999999999
 40
0.5
 41
0.7900126419375697
 42
3.202311928285001
  0
ELLIPSE
  5
25B
330
222
100
AcDbEntity
  8
0
  6
Continuous
 62
     0
370
     0
100
AcDbEllipse
 10
280.973662
 20
87.141611
 30
0.0
 11
0.8497237082938814
 21
-1.201690802822198
 31
0.0
210
0.0
220
0.0
230
0.9999999999999999
 40
0.5
 41
6.222466056687617
 42
7.073197949117151
  0
ELLIPSE
  5
25C
330
222
100
AcDbEntity
  8
0
  6
Continuous
 62
     0
370
     0
100
AcDbEllipse
 10
279.015455
 20
81.823802
 30
0.0
 11
0.7609631730392018
 21
-1.076164448987389
 31
0.0
210
0.0
220
0.0
230
1.0
 40
0.5
 41
6.192856790233355
 42
6.375066248319397
  0
ELLIPSE
  5
25D
330
222
100
AcDbEntity
  8
0
  6
Continuous
 62
     0
370
     0
100
AcDbEllipse
 10
279.015455
 20
81.823802
 30
0.0
 11
0.7609631730392018
 21
-1.076164448987389
 31
0.0
210
0.0
220
0.0
230
1.0
 40
0.5
 41
0.0918809411398112
 42
3.202630230958675
  0
ELLIPSE
  5
25E
330
222
100
AcDbEntity
  8
0
  6
Continuous
 62
     0
370
     0
100
AcDbEllipse
 10
280.049753
 20
82.555161
 30
0.0
 11
0.84972370829388
 21
-1.201690802822196
 31
0.0
210
0.0
220
0.0
230
0.9999999999999999
 40
0.5
 41
0.0918809411398414
 42
3.233473594729621
  0
ELLIPSE
  5
25F
330
222
100
AcDbEntity
  8
0
  6
Continuous
 62
     0
370
     0
100
AcDbEllipse
 10
280.049753
 20
82.555161
 30
0.0
 11
0.84972370829388
 21
-1.201690802822196
 31
0.0
210
0.0
220
0.0
230
0.9999999999999999
 40
0.5
 41
6.222466056687614
 42
6.375066248319428
  0
ELLIPSE
  5
260
330
222
100
AcDbEntity
  8
0
  6
Continuous
 62
     0
370
     0
100
AcDbEllipse
 10
274.939651
 20
81.285825
 30
0.0
 11
0.7609631730392036
 21
-1.076164448987391
 31
0.0
210
0.0
220
0.0
230
0.9999999999999999
 40
0.5
 41
2.535341893931893
 42
3.21736590406508
  0
ELLIPSE
  5
261
330
222
100
AcDbEntity
  8
0
  6
Continuous
 62
     0
370
     0
100
AcDbEllipse
 10
274.939651
 20
81.285825
 30
0.0
 11
0.7609631730392036
 21
-1.076164448987391
 31
0.0
210
0.0
220
0.0
230
0.9999999999999999
 40
0.5
 41
6.22227019480952
 42
8.818527201111479
  0
ELLIPSE
  5
262
330
222
100
AcDbEntity
  8
0
  6
Continuous
 62
     0
370
     0
100
AcDbEllipse
 10
275.973948
 20
82.017184
 30
0.0
 11
0.8497237082938821
 21
-1.201690802822199
 31
0.0
210
0.0
220
0.0
230
1.0
 40
0.5
 41
6.221396033486897
 42
8.818527201111474
  0
ELLIPSE
  5
263
330
222
100
AcDbEntity
  8
0
  6
Continuous
 62
     0
370
     0
100
AcDbEllipse
 10
275.973948
 20
82.017184
 30
0.0
 11
0.8497237082938821
 21
-1.201690802822199
 31
0.0
210
0.0
220
0.0
230
1.0
 40
0.5
 41
2.535341893931887
 42
3.203168276328087
  0
ELLIPSE
  5
264
330
222
100
AcDbEntity
  8
0
  6
Continuous
 62
     0
370
     0
100
AcDbEllipse
 10
269.619066
 20
85.048047
 30
0.0
 11
0.7609631730392031
 21
-1.07616444898739
 31
0.0
210
0.0
220
0.0
230
1.0
 40
0.5
 41
1.837210193134155
 42
3.220984928519675
  0
ELLIPSE
  5
265
330
222
100
AcDbEntity
  8
0
  6
Continuous
 62
     0
370
     0
100
AcDbEllipse
 10
269.619066
 20
85.048047
 30
0.0
 11
0.7609631730392031
 21
-1.07616444898739
 31
0.0
210
0.0
220
0.0
230
1.0
 40
0.5
 41
6.214511261533576
 42
8.120395500313741
  0
ELLIPSE
  5
266
330
222
100
AcDbEntity
  8
0
  6
Continuous
 62
     0
370
     0
100
AcDbEllipse
 10
270.653363
 20
85.779405
 30
0.0
 11
0.8497237082938809
 21
-1.201690802822197
 31
0.0
210
0.0
220
0.0
230
0.9999999999999999
 40
0.5
 41
6.222037945503761
 42
8.120395500313753
  0
ELLIPSE
  5
267
330
222
100
AcDbEntity
  8
0
  6
Continuous
 62
     0
370
     0
100
AcDbEllipse
 10
270.653363
 20
85.779405
 30
0.0
 11
0.8497237082938809
 21
-1.201690802822197
 31
0.0
210
0.0
220
0.0
230
0.9999999999999999
 40
0.5
 41
1.837210193134167
 42
3.202311928284994
  0
ELLIPSE
  5
268
330
222
100
AcDbEntity
  8
0
  6
Continuous
 62
     0
370
     0
100
AcDbEllipse
 10
265.543262
 20
91.350081
 30
0.0
 11
0.7609631730392031
 21
-1.07616444898739
 31
0.0
210
0.0
220
0.0
230
1.0
 40
0.5
 41
1.139078492336432
 42
3.219689837937984
  0
ELLIPSE
  5
269
330
222
100
AcDbEntity
  8
0
  6
Continuous
 62
     0
370
     0
100
AcDbEllipse
 10
265.543262
 20
91.350081
 30
0.0
 11
0.7609631730392031
 21
-1.07616444898739
 31
0.0
210
0.0
220
0.0
230
1.0
 40
0.5
 41
6.217153269291693
 42
7.422263799516018
  0
ELLIPSE
  5
26A
330
222
100
AcDbEntity
  8
0
  6
Continuous
 62
     0
370
     0
100
AcDbEllipse
 10
266.577559
 20
92.08144
 30
0.0
 11
0.8497237082938809
 21
-1.201690802822197
 31
0.0
210
0.0
220
0.0
230
0.9999999999999999
 40
0.5
 41
6.222466056687633
 42
7.422263799516021
  0
ELLIPSE
  5
26B
330
222
100
AcDbEntity
  8
0
  6
Continuous
 62
     0
370
     0
100
AcDbEllipse
 10
266.577559
 20
92.08144
 30
0.0
 11
0.8497237082938809
 21
-1.201690802822197
 31
0.0
210
0.0
220
0.0
230
0.9999999999999999
 40
0.5
 41
1.139078492336435
 42
3.202311928284977
  0
ELLIPSE
  5
26C
330
222
100
AcDbEntity
  8
0
  6
Continuous
 62
     0
370
     0
100
AcDbEllipse
 10
264.619352
 20
97.243138
 30
0.0
 11
0.7609631730392041
 21
-1.076164448987392
 31
0.0
210
0.0
220
0.0
230
0.9999999999999999
 40
0.5
 41
0.4409467915386998
 42
3.210663897500759
  0
ELLIPSE
  5
26D
330
222
100
AcDbEntity
  8
0
  6
Continuous
 62
     0
370
     0
100
AcDbEllipse
 10
264.619352
 20
97.243138
 30
0.0
 11
0.7609631730392041
 21
-1.076164448987392
 31
0.0
210
0.0
220
0.0
230
0.9999999999999999
 40
0.5
 41
6.206889074844343
 42
6.724132098718286
  0
ELLIPSE
  5
26E
330
222
100
AcDbEntity
  8
0
  6
Continuous
 62
     0
370
     0
100
AcDbEllipse
 10
265.653649
 20
97.974496
 30
0.0
 11
0.8497237082938814
 21
-1.201690802822198
 31
0.0
210
0.0
220
0.0
230
0.9999999999999999
 40
0.5
 41
6.222466056687635
 42
6.724132098718302
  0
ELLIPSE
  5
26F
330
222
100
AcDbEntity
  8
0
  6
Continuous
 62
     0
370
     0
100
AcDbEllipse
 10
265.653649
 20
97.974496
 30
0.0
 11
0.8497237082938814
 21
-1.201690802822198
 31
0.0
210
0.0
220
0.0
230
0.9999999999999999
 40
0.5
 41
0.4409467915387157
 42
3.20231192828497
  0
ELLIPSE
  5
270
330
222
100
AcDbEntity
  8
0
  6
Continuous
 62
     0
370
     0
100
AcDbEllipse
 10
267.279644
 20
99.969788
 30
0.0
 11
0.7609631730392031
 21
-1.07616444898739
 31
0.0
210
0.0
220
0.0
230
1.0
 40
0.5
 41
6.204388251155661
 42
9.167593051510346
  0
ELLIPSE
  5
271
330
222
100
AcDbEntity
  8
0
  6
Continuous
 62
     0
370
     0
100
AcDbEllipse
 10
267.279644
 20
99.969788
 30
0.0
 11
0.7609631730392031
 21
-1.07616444898739
 31
0.0
210
0.0
220
0.0
230
1.0
 40
0.5
 41
2.884407744330761
 42
3.220101457787792
  0
ELLIPSE
  5
272
330
222
100
AcDbEntity
  8
0
  6
Continuous
 62
     0
370
     0
100
AcDbEllipse
 10
268.313942
 20
100.701147
 30
0.0
 11
0.8497237082938814
 21
-1.201690802822198
 31
0.0
210
0.0
220
0.0
230
0.9999999999999999
 40
0.5
 41
2.884407744330774
 42
3.203390797480123
  0
ELLIPSE
  5
273
330
222
100
AcDbEntity
  8
0
  6
Continuous
 62
     0
370
     0
100
AcDbEllipse
 10
268.313942
 20
100.701147
 30
0.0
 11
0.8497237082938814
 21
-1.201690802822198
 31
0.0
210
0.0
220
0.0
230
0.9999999999999999
 40
0.5
 41
6.222459278950836
 42
9.16759305151036
  0
ELLIPSE
  5
274
330
222
100
AcDbEntity
  8
0
  6
Continuous
 62
     0
370
     0
100
AcDbEllipse
 10
273.313656
 20
98.985562
 30
0.0
 11
0.8497237082938809
 21
-1.201690802822197
 31
0.0
210
0.0
220
0.0
230
0.9999999999999999
 40
0.5
 41
2.186276043533019
 42
3.202641589990809
  0
ELLIPSE
  5
275
330
222
100
AcDbEntity
  8
0
  6
Continuous
 62
     0
370
     0
100
AcDbEllipse
 10
273.313656
 20
98.985562
 30
0.0
 11
0.8497237082938809
 21
-1.201690802822197
 31
0.0
210
0.0
220
0.0
230
0.9999999999999999
 40
0.5
 41
6.221994098877137
 42
8.469461350712606
  0
ELLIPSE
  5
276
330
222
100
AcDbEntity
  8
0
  6
Continuous
 62
     0
370
     0
100
AcDbEllipse
 10
267.089686
 20
99.835468
 30
0.0
 11
0.5887069219752806
 21
-0.8325573204446671
 31
0.0
210
0.0
220
0.0
230
0.9999999999999999
 40
0.5
 41
2.884407744330756
 42
6.026000397920567
  0
ELLIPSE
  5
277
330
222
100
AcDbEntity
  8
0
  6
Continuous
 62
     0
370
     0
100
AcDbEllipse
 10
267.089686
 20
99.835468
 30
0.0
 11
0.5887069219752806
 21
-0.8325573204446671
 31
0.0
210
0.0
220
0.0
230
0.9999999999999999
 40
0.5
 41
6.026000397920567
 42
9.167593051510327
  0
ELLIPSE
  5
278
330
222
100
AcDbEntity
  8
0
  6
Continuous
 62
     0
370
     0
100
AcDbEllipse
 10
264.429394
 20
97.108817
 30
0.0
 11
0.5887069219752817
 21
-0.8325573204446687
 31
0.0
210
0.0
220
0.0
230
0.9999999999999999
 40
0.5
 41
3.582539445128489
 42
6.724132098718306
  0
ELLIPSE
  5
279
330
222
100
AcDbEntity
  8
0
  6
Continuous
 62
     0
370
     0
100
AcDbEllipse
 10
264.429394
 20
97.108817
 30
0.0
 11
0.5887069219752817
 21
-0.8325573204446687
 31
0.0
210
0.0
220
0.0
230
0.9999999999999999
 40
0.5
 41
0.4409467915387193
 42
3.58253944512849
  0
ELLIPSE
  5
27A
330
222
100
AcDbEntity
  8
0
  6
Continuous
 62
     0
370
     0
100
AcDbEllipse
 10
265.353304
 20
91.215761
 30
0.0
 11
0.5887069219752806
 21
-0.8325573204446671
 31
0.0
210
0.0
220
0.0
230
0.9999999999999999
 40
0.5
 41
4.28067114592622
 42
7.422263799516011
  0
ELLIPSE
  5
27B
330
222
100
AcDbEntity
  8
0
  6
Continuous
 62
     0
370
     0
100
AcDbEllipse
 10
265.353304
 20
91.215761
 30
0.0
 11
0.5887069219752806
 21
-0.8325573204446671
 31
0.0
210
0.0
220
0.0
230
0.9999999999999999
 40
0.5
 41
1.139078492336425
 42
4.28067114592622
  0
ELLIPSE
  5
27C
330
222
100
AcDbEntity
  8
0
  6
Continuous
 62
     0
370
     0
100
AcDbEllipse
 10
269.429108
 20
84.913726
 30
0.0
 11
0.5887069219752806
 21
-0.8325573204446671
 31
0.0
210
0.0
220
0.0
230
0.9999999999999999
 40
0.5
 41
4.978802846723957
 42
8.120395500313744
  0
ELLIPSE
  5
27D
330
222
100
AcDbEntity
  8
0
  6
Continuous
 62
     0
370
     0
100
AcDbEllipse
 10
269.429108
 20
84.913726
 30
0.0
 11
0.5887069219752806
 21
-0.8325573204446671
 31
0.0
210
0.0
220
0.0
230
0.9999999999999999
 40
0.5
 41
1.837210193134159
 42
4.978802846723957
  0
ELLIPSE
  5
27E
330
222
100
AcDbEntity
  8
0
  6
Continuous
 62
     0
370
     0
100
AcDbEllipse
 10
274.749693
 20
81.151504
 30
0.0
 11
0.5887069219752811
 21
-0.8325573204446677
 31
0.0
210
0.0
220
0.0
230
0.9999999999999998
 40
0.5
 41
5.676934547521678
 42
8.818527201111504
  0
ELLIPSE
  5
27F
330
222
100
AcDbEntity
  8
0
  6
Continuous
 62
     0
370
     0
100
AcDbEllipse
 10
274.749693
 20
81.151504
 30
0.0
 11
0.5887069219752811
 21
-0.8325573204446677
 31
0.0
210
0.0
220
0.0
230
0.9999999999999998
 40
0.5
 41
2.535341893931918
 42
5.676934547521678
  0
ELLIPSE
  5
280
330
222
100
AcDbEntity
  8
0
  6
Continuous
 62
     0
370
     0
100
AcDbEllipse
 10
278.825497
 20
81.689481
 30
0.0
 11
0.5887069219752796
 21
-0.8325573204446657
 31
0.0
210
0.0
220
0.0
230
1.0
 40
0.5
 41
0.0918809411398342
 42
3.233473594729627
  0
ELLIPSE
  5
281
330
222
100
AcDbEntity
  8
0
  6
Continuous
 62
     0
370
     0
100
AcDbEllipse
 10
278.825497
 20
81.689481
 30
0.0
 11
0.5887069219752796
 21
-0.8325573204446657
 31
0.0
210
0.0
220
0.0
230
1.0
 40
0.5
 41
3.233473594729627
 42
6.37506624831942
  0
ELLIPSE
  5
282
330
222
100
AcDbEntity
  8
0
  6
Continuous
 62
     0
370
     0
100
AcDbEllipse
 10
279.749407
 20
86.275932
 30
0.0
 11
0.5887069219752817
 21
-0.8325573204446687
 31
0.0
210
0.0
220
0.0
230
0.9999999999999999
 40
0.5
 41
0.7900126419375475
 42
3.93160529552737
  0
ELLIPSE
  5
283
330
222
100
AcDbEntity
  8
0
  6
Continuous
 62
     0
370
     0
100
AcDbEllipse
 10
279.749407
 20
86.275932
 30
0.0
 11
0.5887069219752817
 21
-0.8325573204446687
 31
0.0
210
0.0
220
0.0
230
0.9999999999999999
 40
0.5
 41
3.931605295527371
 42
7.073197949117141
  0
ELLIPSE
  5
284
330
222
100
AcDbEntity
  8
0
  6
Continuous
 62
     0
370
     0
100
AcDbEllipse
 10
277.089115
 20
92.764804
 30
0.0
 11
0.5887069219752796
 21
-0.8325573204446657
 31
0.0
210
0.0
220
0.0
230
1.0
 40
0.5
 41
1.488144342735297
 42
4.629736996325089
  0
ELLIPSE
  5
285
330
222
100
AcDbEntity
  8
0
  6
Continuous
 62
     0
370
     0
100
AcDbEllipse
 10
277.089115
 20
92.764804
 30
0.0
 11
0.5887069219752796
 21
-0.8325573204446657
 31
0.0
210
0.0
220
0.0
230
1.0
 40
0.5
 41
4.629736996325089
 42
7.771329649914883
  0
ELLIPSE
  5
286
330
222
100
AcDbEntity
  8
0
  6
Continuous
 62
     0
370
     0
100
AcDbEllipse
 10
312.889462
 20
119.191708
 30
0.0
 11
11.54700531787348
 21
-16.32993166506836
 31
0.0
210
0.0
220
0.0
230
1.0
 40
0.5
 41
0.6154797167381316
 42
3.141592665691411
  0
ELLIPSE
  5
287
330
222
100
AcDbEntity
  8
0
  6
Continuous
 62
     0
370
     0
100
AcDbEllipse
 10
312.889462
 20
119.191708
 30
0.0
 11
11.54700531787348
 21
-16.32993166506836
 31
0.0
210
0.0
220
0.0
230
1.0
 40
0.5
 41
0.0000000121016175
 42
0.6154797167381316
  0
ELLIPSE
  5
288
330
222
100
AcDbEntity
  8
0
  6
Continuous
 62
     0
370
     0
100
AcDbEllipse
 10
293.797579
 20
105.691708
 30
0.0
 11
9.237604254298756
 21
-13.06394533205465
 31
0.0
210
0.0
220
0.0
230
1.0
 40
0.5
 41
0.0000000121016193
 42
0.6154797167381334
  0
ELLIPSE
  5
289
330
222
100
AcDbEntity
  8
0
  6
Continuous
 62
     0
370
     0
100
AcDbEllipse
 10
293.797579
 20
105.691708
 30
0.0
 11
9.237604254298756
 21
-13.06394533205465
 31
0.0
210
0.0
220
0.0
230
1.0
 40
0.5
 41
0.6154797167381334
 42
3.141592665691409
  0
ELLIPSE
  5
28A
330
222
100
AcDbEntity
  8
0
  6
Continuous
 62
     0
370
     0
100
AcDbEllipse
 10
281.42321
 20
96.941708
 30
0.0
 11
9.237604254298754
 21
-13.06394533205465
 31
0.0
210
0.0
220
0.0
230
1.0
 40
0.5
 41
0.6154797167381307
 42
3.141592665691411
  0
ELLIPSE
  5
28B
330
222
100
AcDbEntity
  8
0
  6
Continuous
 62
     0
370
     0
100
AcDbEllipse
 10
281.42321
 20
96.941708
 30
0.0
 11
9.237604254298754
 21
-13.06394533205465
 31
0.0
210
0.0
220
0.0
230
1.0
 40
0.5
 41
0.0000000121016184
 42
0.6154797167381307
  0
ELLIPSE
  5
28C
330
222
100
AcDbEntity
  8
0
  6
Continuous
 62
     0
370
     0
100
AcDbEllipse
 10
282.554581
 20
97.741708
 30
0.0
 11
9.237604254298756
 21
-13.06394533205465
 31
0.0
210
0.0
220
0.0
230
1.0
 40
0.5
 41
6.197606579210973
 42
6.898665023917719
  0
ELLIPSE
  5
28D
330
222
100
AcDbEntity
  8
0
  6
Continuous
 62
     0
370
     0
100
AcDbEllipse
 10
282.554581
 20
97.741708
 30
0.0
 11
9.237604254298756
 21
-13.06394533205465
 31
0.0
210
0.0
220
0.0
230
1.0
 40
0.5
 41
0.6154797167381334
 42
3.227155237935389
  0
ELLIPSE
  5
28E
330
222
100
AcDbEntity
  8
0
  6
Continuous
 62
     0
370
     0
100
AcDbEllipse
 10
282.342449
 20
97.591708
 30
0.0
 11
9.064399167647409
 21
-12.81899634734425
 31
0.0
210
0.0
220
0.0
230
0.9999999999999999
 40
0.5
 41
0.6154797167381334
 42
3.070427398544178
  0
ELLIPSE
  5
28F
330
222
100
AcDbEntity
  8
0
  6
Continuous
 62
     0
370
     0
100
AcDbEllipse
 10
282.342449
 20
97.591708
 30
0.0
 11
9.064399167647409
 21
-12.81899634734425
 31
0.0
210
0.0
220
0.0
230
0.9999999999999999
 40
0.5
 41
0.0711269359521225
 42
0.6154797167381325
  0
LINE
  5
290
330
222
100
AcDbEntity
  8
0
  6
Continuous
 62
     0
370
    30
100
AcDbLine
 10
307.798293
 20
102.056174
 30
0.0
 11
308.050134
 21
101.878096
 31
0.0
  0
LINE
  5
291
330
222
100
AcDbEntity
  8
0
  6
Continuous
 62
     0
370
    30
100
AcDbLine
 10
307.798293
 20
102.056174
 30
0.0
 11
307.798293
 21
108.771085
 31
0.0
  0
LINE
  5
292
330
222
100
AcDbEntity
  8
0
  6
Continuous
 62
     0
370
    30
100
AcDbLine
 10
306.178594
 20
100.910874
 30
0.0
 11
307.798293
 21
102.056174
 31
0.0
  0
LWPOLYLINE
  5
293
330
222
100
AcDbEntity
  8
0
  6
Continuous
 62
     0
370
    30
100
AcDbPolyline
 90
       27
 70
     0
 43
0.0
 10
292.824799
 20
89.091705
 10
292.771515
 20
90.228256
 10
292.612976
 20
91.425392
 10
292.350769
 20
92.672859
 10
291.987579
 20
93.959534
 10
291.526947
 20
95.273811
 10
290.973145
 20
96.603813
 10
290.331573
 20
97.937317
 10
289.608032
 20
99.262039
 10
288.809174
 20
100.565788
 10
287.942657
 20
101.836525
 10
287.016327
 20
103.062263
 10
286.038818
 20
104.231758
 10
285.019318
 20
105.334229
 10
283.967072
 20
106.359184
 10
282.891785
 20
107.297394
 10
281.803284
 20
108.139999
 10
280.711304
 20
108.87899
 10
279.625427
 20
109.508125
 10
278.555237
 20
110.021378
 10
277.509979
 20
110.413277
 10
276.498077
 20
110.67997
 10
275.527893
 20
110.818115
 10
274.608124
 20
110.824951
 10
273.747314
 20
110.698326
 10
272.954285
 20
110.437271
 10
272.230927
 20
110.037231
  0
LWPOLYLINE
  5
294
330
222
100
AcDbEntity
  8
0
  6
Continuous
 62
     0
370
    30
100
AcDbPolyline
 90
        8
 70
     0
 43
0.0
 10
290.685822
 20
83.895599
 10
291.235748
 20
84.366554
 10
291.708618
 20
84.932571
 10
292.100067
 20
85.586647
 10
292.40799
 20
86.322502
 10
292.631439
 20
87.133949
 10
292.770111
 20
88.014793
 10
292.824799
 20
89.091705
  0
LWPOLYLINE
  5
295
330
222
100
AcDbEntity
  8
0
  6
Continuous
 62
     0
370
    30
100
AcDbPolyline
 90
        2
 70
     0
 43
0.0
 10
291.193451
 20
84.324257
 10
291.79245
 20
84.677971
  0
LWPOLYLINE
  5
296
330
222
100
AcDbEntity
  8
0
  6
Continuous
 62
     0
370
    30
100
AcDbPolyline
 90
        2
 70
     0
 43
0.0
 10
273.31662
 20
110.805389
 10
272.784149
 20
110.35907
  0
LINE
  5
297
330
222
100
AcDbEntity
  8
0
  6
Continuous
 62
     0
370
    30
100
AcDbLine
 10
284.559974
 20
118.755654
 30
0.0
 11
273.316977
 21
110.805654
 31
0.0
  0
LINE
  5
298
330
222
100
AcDbEntity
  8
0
  6
Continuous
 62
     0
370
    30
100
AcDbLine
 10
303.035183
 20
92.627763
 30
0.0
 11
291.792185
 21
84.677763
 31
0.0
  0
LINE
  5
299
330
222
100
AcDbEntity
  8
0
  6
Continuous
 62
     0
370
    30
100
AcDbLine
 10
272.185606
 20
110.005654
 30
0.0
 11
264.619563
 21
104.655654
 31
0.0
  0
LINE
  5
29A
330
222
100
AcDbEntity
  8
0
  6
Continuous
 62
     0
370
    30
100
AcDbLine
 10
290.660814
 20
83.877763
 30
0.0
 11
283.094772
 21
78.527763
 31
0.0
  0
LWPOLYLINE
  5
29B
330
222
100
AcDbEntity
  8
0
  6
Continuous
 62
     0
370
    30
100
AcDbPolyline
 90
       30
 70
     0
 43
0.0
 10
327.119476
 20
109.341705
 10
327.065979
 20
110.610023
 10
326.906647
 20
111.940971
 10
326.642731
 20
113.325264
 10
326.276367
 20
114.75296
 10
325.810425
 20
116.213661
 10
325.248474
 20
117.696678
 10
324.594757
 20
119.191109
 10
323.854309
 20
120.685852
 10
323.032379
 20
122.1698
 10
322.135284
 20
123.631981
 10
321.169952
 20
125.061531
 10
320.143311
 20
126.447586
 10
319.062988
 20
127.779823
 10
317.937256
 20
129.048462
 10
316.774384
 20
130.243774
 10
315.582977
 20
131.356873
 10
314.371887
 20
132.379791
 10
313.149963
 20
133.304642
 10
311.926086
 20
134.124405
 10
310.709045
 20
134.833145
 10
309.507568
 20
135.425491
 10
308.330109
 20
135.89679
 10
307.184601
 20
136.243423
 10
306.078735
 20
136.462158
 10
305.020386
 20
136.550491
 10
304.017303
 20
136.50647
 10
303.077057
 20
136.328842
 10
302.207672
 20
136.017487
 10
301.406982
 20
135.566513
  0
LWPOLYLINE
  5
29C
330
222
100
AcDbEntity
  8
0
  6
Continuous
 62
     0
370
    30
100
AcDbPolyline
 90
        8
 70
     0
 43
0.0
 10
324.470764
 20
102.886246
 10
325.162537
 20
103.481544
 10
325.755615
 20
104.199265
 10
326.244598
 20
105.030884
 10
326.626556
 20
105.968628
 10
326.900055
 20
107.00457
 10
327.064453
 20
108.13063
 10
327.119476
 20
109.341705
  0
LWPOLYLINE
  5
29D
330
222
100
AcDbEntity
  8
0
  6
Continuous
 62
     0
370
    30
100
AcDbPolyline
 90
       27
 70
     0
 43
0.0
 10
305.199158
 20
97.841705
 10
305.145905
 20
98.978256
 10
304.987335
 20
100.175392
 10
304.725128
 20
101.422859
 10
304.361969
 20
102.709534
 10
303.901337
 20
104.023811
 10
303.347504
 20
105.353813
 10
302.705933
 20
106.687317
 10
301.982422
 20
108.012039
 10
301.183533
 20
109.315788
 10
300.317017
 20
110.586525
 10
299.390686
 20
111.812263
 10
298.413208
 20
112.981758
 10
297.393707
 20
114.084229
 10
296.341461
 20
115.109184
 10
295.266144
 20
116.047394
 10
294.177643
 20
116.889999
 10
293.085663
 20
117.62899
 10
291.999817
 20
118.258125
 10
290.929596
 20
118.771378
 10
289.884338
 20
119.163277
 10
288.872437
 20
119.42997
 10
287.902252
 20
119.568115
 10
286.982483
 20
119.574951
 10
286.121704
 20
119.448326
 10
285.328674
 20
119.187271
 10
284.605286
 20
118.787231
  0
LWPOLYLINE
  5
29E
330
222
100
AcDbEntity
  8
0
  6
Continuous
 62
     0
370
    30
100
AcDbPolyline
 90
        8
 70
     0
 43
0.0
 10
303.060211
 20
92.645599
 10
303.610107
 20
93.116554
 10
304.083008
 20
93.682571
 10
304.474457
 20
94.336647
 10
304.782379
 20
95.072502
 10
305.005798
 20
95.883949
 10
305.14447
 20
96.764793
 10
305.199158
 20
97.841705
  0
LINE
  5
29F
330
222
100
AcDbEntity
  8
0
  6
Continuous
 62
     0
370
    30
100
AcDbLine
 10
301.342456
 20
135.52164
 30
0.0
 11
296.958394
 21
132.42164
 31
0.0
  0
LINE
  5
2A0
330
222
100
AcDbEntity
  8
0
  6
Continuous
 62
     0
370
    30
100
AcDbLine
 10
324.436467
 20
102.861777
 30
0.0
 11
320.052405
 21
99.761777
 31
0.0
  0
LWPOLYLINE
  5
2A1
330
222
100
AcDbEntity
  8
0
  6
Continuous
 62
     0
370
    30
100
AcDbPolyline
 90
       11
 70
     0
 43
0.0
 10
266.486969
 20
101.020332
 10
266.327545
 20
100.778816
 10
266.280609
 20
100.486816
 10
266.326202
 20
100.170235
 10
266.449036
 20
99.842308
 10
266.63681
 20
99.523338
 10
266.873566
 20
99.238365
 10
267.140717
 20
99.010834
 10
267.42392
 20
98.859528
 10
267.714691
 20
98.802383
 10
268.0065
 20
98.872589
  0
LWPOLYLINE
  5
2A2
330
222
100
AcDbEntity
  8
0
  6
Continuous
 62
     0
370
    30
100
AcDbPolyline
 90
       10
 70
     0
 43
0.0
 10
263.63739
 20
97.945389
 10
263.626373
 20
97.657608
 10
263.693237
 20
97.351425
 10
263.827423
 20
97.03933
 10
264.017273
 20
96.740509
 10
264.248474
 20
96.4767
 10
264.505371
 20
96.267502
 10
264.775208
 20
96.128601
 10
265.052185
 20
96.075722
 10
265.346497
 20
96.146065
  0
ARC
  5
2A3
330
222
100
AcDbEntity
  8
0
  6
Continuous
 62
     0
370
    30
100
AcDbCircle
 10
264.260885
 20
97.832225
 30
0.0
 40
0.633686761793754
100
AcDbArc
 50
133.144814
 51
169.712575
  0
LWPOLYLINE
  5
2A4
330
222
100
AcDbEntity
  8
0
  6
Continuous
 62
     0
370
    30
100
AcDbPolyline
 90
        8
 70
     0
 43
0.0
 10
264.663452
 20
91.332977
 10
264.80957
 20
91.043327
 10
265.000336
 20
90.771629
 10
265.223633
 20
90.5355
 10
265.466614
 20
90.350357
 10
265.719971
 20
90.22831
 10
265.978912
 20
90.182709
 10
266.270325
 20
90.252892
  0
LWPOLYLINE
  5
2A5
330
222
100
AcDbEntity
  8
0
  6
Continuous
 62
     0
370
    30
100
AcDbPolyline
 90
        5
 70
     0
 43
0.0
 10
264.751404
 20
92.401405
 10
264.604614
 20
92.193115
 10
264.546631
 20
91.941254
 10
264.563812
 20
91.667816
 10
264.663452
 20
91.332977
  0
LWPOLYLINE
  5
2A6
330
222
100
AcDbEntity
  8
0
  6
Continuous
 62
     0
370
    30
100
AcDbPolyline
 90
        6
 70
     0
 43
0.0
 10
269.175354
 20
84.35585
 10
269.382111
 20
84.162865
 10
269.601196
 20
84.013428
 10
269.827332
 20
83.916176
 10
270.057648
 20
83.880753
 10
270.345703
 20
83.950661
  0
LWPOLYLINE
  5
2A7
330
222
100
AcDbEntity
  8
0
  6
Continuous
 62
     0
370
    30
100
AcDbPolyline
 90
        7
 70
     0
 43
0.0
 10
268.826935
 20
86.099106
 10
268.671112
 20
85.868141
 10
268.620361
 20
85.588539
 10
268.656494
 20
85.285072
 10
268.765594
 20
84.969559
 10
268.937012
 20
84.659348
 10
269.175354
 20
84.35585
  0
LWPOLYLINE
  5
2A8
330
222
100
AcDbEntity
  8
0
  6
Continuous
 62
     0
370
    30
100
AcDbPolyline
 90
        3
 70
     0
 43
0.0
 10
275.111023
 20
80.165855
 10
275.381042
 20
80.118576
 10
275.666443
 20
80.188492
  0
LWPOLYLINE
  5
2A9
330
222
100
AcDbEntity
  8
0
  6
Continuous
 62
     0
370
    30
100
AcDbPolyline
 90
        9
 70
     0
 43
0.0
 10
274.147247
 20
82.336678
 10
273.986847
 20
82.09314
 10
273.940948
 20
81.798805
 10
273.988129
 20
81.479164
 10
274.113708
 20
81.148834
 10
274.304779
 20
80.828117
 10
274.544952
 20
80.542824
 10
274.815552
 20
80.317055
 10
275.111023
 20
80.165855
  0
LWPOLYLINE
  5
2AA
330
222
100
AcDbEntity
  8
0
  6
Continuous
 62
     0
370
    30
100
AcDbPolyline
 90
       11
 70
     0
 43
0.0
 10
278.223083
 20
82.874748
 10
278.063629
 20
82.633499
 10
278.016663
 20
82.341293
 10
278.06192
 20
82.024849
 10
278.184601
 20
81.696815
 10
278.372314
 20
81.377785
 10
278.609039
 20
81.092712
 10
278.876465
 20
80.865067
 10
279.159454
 20
80.713676
 10
279.45047
 20
80.656273
 10
279.742676
 20
80.726883
  0
LWPOLYLINE
  5
2AB
330
222
100
AcDbEntity
  8
0
  6
Continuous
 62
     0
370
    30
100
AcDbPolyline
 90
       11
 70
     0
 43
0.0
 10
279.1474
 20
87.461533
 10
278.987762
 20
87.220718
 10
278.940369
 20
86.928772
 10
278.985504
 20
86.612434
 10
279.108124
 20
86.284424
 10
279.295288
 20
85.965561
 10
279.531769
 20
85.680359
 10
279.799072
 20
85.452431
 10
280.081909
 20
85.30069
 10
280.372864
 20
85.242905
 10
280.666626
 20
85.313232
  0
LWPOLYLINE
  5
2AC
330
222
100
AcDbEntity
  8
0
  6
Continuous
 62
     0
370
    30
100
AcDbPolyline
 90
       11
 70
     0
 43
0.0
 10
276.487061
 20
93.95031
 10
276.327362
 20
93.709442
 10
276.280151
 20
93.417511
 10
276.325256
 20
93.101089
 10
276.447968
 20
92.772995
 10
276.635162
 20
92.45414
 10
276.871765
 20
92.168915
 10
277.13916
 20
91.941101
 10
277.421906
 20
91.789421
 10
277.712891
 20
91.731819
 10
278.005859
 20
91.801796
  0
LINE
  5
2AD
330
222
100
AcDbEntity
  8
0
  6
Continuous
 62
     0
370
    30
100
AcDbLine
 10
273.006268
 20
97.156934
 30
0.0
 11
274.125353
 21
97.760305
 31
0.0
  0
LINE
  5
2AE
330
222
100
AcDbEntity
  8
0
  6
Continuous
 62
     0
370
    30
100
AcDbLine
 10
271.487146
 20
99.305297
 30
0.0
 11
272.429038
 21
100.159257
 31
0.0
  0
LINE
  5
2AF
330
222
100
AcDbEntity
  8
0
  6
Continuous
 62
     0
370
    30
100
AcDbLine
 10
268.006553
 20
98.872519
 30
0.0
 11
269.125639
 21
99.475889
 31
0.0
  0
LINE
  5
2B0
330
222
100
AcDbEntity
  8
0
  6
Continuous
 62
     0
370
    30
100
AcDbLine
 10
266.487432
 20
101.020881
 30
0.0
 11
267.429323
 21
101.874842
 31
0.0
  0
LINE
  5
2B1
330
222
100
AcDbEntity
  8
0
  6
Continuous
 62
     0
370
    30
100
AcDbLine
 10
263.827139
 20
98.29423
 30
0.0
 11
264.769031
 21
99.148191
 31
0.0
  0
LINE
  5
2B2
330
222
100
AcDbEntity
  8
0
  6
Continuous
 62
     0
370
    30
100
AcDbLine
 10
265.346261
 20
96.145868
 30
0.0
 11
266.465347
 21
96.749238
 31
0.0
  0
LINE
  5
2B3
330
222
100
AcDbEntity
  8
0
  6
Continuous
 62
     0
370
    30
100
AcDbLine
 10
264.751049
 20
92.401174
 30
0.0
 11
265.692941
 21
93.255135
 31
0.0
  0
LINE
  5
2B4
330
222
100
AcDbEntity
  8
0
  6
Continuous
 62
     0
370
    30
100
AcDbLine
 10
266.270171
 20
90.252812
 30
0.0
 11
267.389256
 21
90.856182
 31
0.0
  0
LINE
  5
2B5
330
222
100
AcDbEntity
  8
0
  6
Continuous
 62
     0
370
    30
100
AcDbLine
 10
268.826854
 20
86.099139
 30
0.0
 11
269.768745
 21
86.9531
 31
0.0
  0
LINE
  5
2B6
330
222
100
AcDbEntity
  8
0
  6
Continuous
 62
     0
370
    30
100
AcDbLine
 10
270.345975
 20
83.950777
 30
0.0
 11
271.465061
 21
84.554147
 31
0.0
  0
LINE
  5
2B7
330
222
100
AcDbEntity
  8
0
  6
Continuous
 62
     0
370
    30
100
AcDbLine
 10
274.147438
 20
82.336918
 30
0.0
 11
275.08933
 21
83.190878
 31
0.0
  0
LINE
  5
2B8
330
222
100
AcDbEntity
  8
0
  6
Continuous
 62
     0
370
    30
100
AcDbLine
 10
275.66656
 20
80.188555
 30
0.0
 11
276.785646
 21
80.791926
 31
0.0
  0
LINE
  5
2B9
330
222
100
AcDbEntity
  8
0
  6
Continuous
 62
     0
370
    30
100
AcDbLine
 10
279.742364
 20
80.726532
 30
0.0
 11
280.86145
 21
81.329903
 31
0.0
  0
LINE
  5
2BA
330
222
100
AcDbEntity
  8
0
  6
Continuous
 62
     0
370
    30
100
AcDbLine
 10
278.223243
 20
82.874895
 30
0.0
 11
279.165134
 21
83.728855
 31
0.0
  0
LINE
  5
2BB
330
222
100
AcDbEntity
  8
0
  6
Continuous
 62
     0
370
    30
100
AcDbLine
 10
280.666274
 20
85.312983
 30
0.0
 11
281.78536
 21
85.916353
 31
0.0
  0
LINE
  5
2BC
330
222
100
AcDbEntity
  8
0
  6
Continuous
 62
     0
370
    30
100
AcDbLine
 10
279.147153
 20
87.461345
 30
0.0
 11
280.089044
 21
88.315306
 31
0.0
  0
LINE
  5
2BD
330
222
100
AcDbEntity
  8
0
  6
Continuous
 62
     0
370
    30
100
AcDbLine
 10
278.005982
 20
91.801855
 30
0.0
 11
279.125067
 21
92.405226
 31
0.0
  0
LINE
  5
2BE
330
222
100
AcDbEntity
  8
0
  6
Continuous
 62
     0
370
    30
100
AcDbLine
 10
276.48686
 20
93.950218
 30
0.0
 11
277.428752
 21
94.804178
 31
0.0
  0
LWPOLYLINE
  5
2BF
330
222
100
AcDbEntity
  8
0
  6
Continuous
 62
     0
370
    30
100
AcDbPolyline
 90
       11
 70
     0
 43
0.0
 10
271.487061
 20
99.305069
 10
271.327362
 20
99.063759
 10
271.280457
 20
98.772049
 10
271.325745
 20
98.455399
 10
271.448639
 20
98.127213
 10
271.636047
 20
97.808403
 10
271.872742
 20
97.523247
 10
272.140228
 20
97.295647
 10
272.423126
 20
97.144135
 10
272.713959
 20
97.086876
 10
273.005981
 20
97.15683
  0
LWPOLYLINE
  5
2C0
330
222
100
AcDbEntity
  8
0
  6
Continuous
 62
     0
370
    30
100
AcDbPolyline
 90
       12
 70
     0
 43
0.0
 10
295.002808
 20
120.628494
 10
294.651123
 20
122.048141
 10
294.401733
 20
123.424431
 10
294.256744
 20
124.747818
 10
294.217896
 20
126.009178
 10
294.286224
 20
127.200394
 10
294.462616
 20
128.313492
 10
294.747589
 20
129.340454
 10
295.141174
 20
130.273132
 10
295.642181
 20
131.103134
 10
296.248779
 20
131.821884
 10
296.957977
 20
132.42131
  0
LWPOLYLINE
  5
2C1
330
222
100
AcDbEntity
  8
0
  6
Continuous
 62
     0
370
    30
100
AcDbPolyline
 90
       12
 70
     0
 43
0.0
 10
320.052765
 20
99.762032
 10
319.255035
 20
99.294899
 10
318.375549
 20
98.9617
 10
317.426331
 20
98.765228
 10
316.416138
 20
98.704391
 10
315.353119
 20
98.777359
 10
314.245056
 20
98.981453
 10
313.099304
 20
99.313461
 10
311.923187
 20
99.769829
 10
310.723969
 20
100.346939
 10
309.509552
 20
101.040268
 10
308.28183
 20
101.849052
  0
LWPOLYLINE
  5
2C2
330
222
100
AcDbEntity
  8
0
  6
Continuous
 62
     0
370
    30
100
AcDbPolyline
 90
       34
 70
     0
 43
0.0
 10
283.095062
 20
78.527969
 10
282.380249
 20
78.117188
 10
281.587555
 20
77.837837
 10
280.730743
 20
77.692322
 10
279.819305
 20
77.678482
 10
278.861786
 20
77.79332
 10
277.865967
 20
78.033478
 10
276.839172
 20
78.395241
 10
275.789154
 20
78.87426
 10
274.723907
 20
79.465874
 10
273.651642
 20
80.164948
 10
272.581268
 20
80.964966
 10
271.521851
 20
81.859016
 10
270.482452
 20
82.83902
 10
269.472168
 20
83.896194
 10
268.499878
 20
85.021378
 10
267.574127
 20
86.204292
 10
266.703247
 20
87.434441
 10
265.894989
 20
88.700859
 10
265.156555
 20
89.992142
 10
264.494781
 20
91.296852
 10
263.915283
 20
92.603546
 10
263.423309
 20
93.900772
 10
263.02359
 20
95.177246
 10
262.719666
 20
96.422066
 10
262.514679
 20
97.62468
 10
262.410675
 20
98.775658
 10
262.409393
 20
99.865898
 10
262.512421
 20
100.886574
 10
262.720856
 20
101.829529
 10
263.035309
 20
102.686363
 10
263.455597
 20
103.447983
 10
263.980713
 20
104.104774
 10
264.619232
 20
104.655396
  0
LINE
  5
2C3
330
222
100
AcDbEntity
  8
0
  6
Continuous
 62
     0
370
    30
100
AcDbLine
 10
301.512318
 20
125.231419
 30
0.0
 11
292.673483
 21
118.981419
 31
0.0
  0
LINE
  5
2C4
330
222
100
AcDbEntity
  8
0
  6
Continuous
 62
     0
370
    30
100
AcDbLine
 10
314.791374
 20
106.451997
 30
0.0
 11
305.95254
 21
100.201998
 31
0.0
  0
ARC
  5
2C5
330
222
100
AcDbEntity
  8
0
  6
Continuous
 62
     0
370
    30
100
AcDbCircle
 10
291.224105
 20
105.258493
 30
0.0
 40
11.23639118696124
100
AcDbArc
 50
62.557268
 51
64.989406
  0
ARC
  5
2C6
330
222
100
AcDbEntity
  8
0
  6
Continuous
 62
     0
370
    30
100
AcDbCircle
 10
292.521981
 20
103.408378
 30
0.0
 40
11.24583486992366
100
AcDbArc
 50
5.542284
 51
7.972256
  0
ENDBLK
  5
2C8
330
222
100
AcDbEntity
  8
0
100
AcDbBlockEnd
  0
ENDSEC
  0
SECTION
  2
ENTITIES
  0
INSERT
  5
9B
330
1F
100
AcDbEntity
  8
0
  6
Continuous
 62
   250
370
     0
100
AcDbBlockReference
  2
a
 10
68.864807
 20
77.184128
 30
0.0
  0
INSERT
  5
131
330
1F
100
AcDbEntity
  8
0
  6
Continuous
 62
   250
370
     0
100
AcDbBlockReference
  2
b
 10
59.503765
 20
77.184128
 30
0.0
  0
INSERT
  5
1A8
330
1F
100
AcDbEntity
  8
0
  6
Continuous
 62
   250
370
     0
100
AcDbBlockReference
  2
c
 10
68.864807
 20
77.184128
 30
0.0
  0
INSERT
  5
221
330
1F
100
AcDbEntity
  8
0
  6
Continuous
 62
   250
370
     0
100
AcDbBlockReference
  2
e
 10
16.959431
 20
0.0
 30
0.0
  0
INSERT
  5
2C9
330
1F
100
AcDbEntity
  8
0
  6
Continuous
 62
   250
370
     0
100
AcDbBlockReference
  2
d
 10
105.977905
 20
71.852612
 30
0.0
  0
ENDSEC
  0
SECTION
  2
OBJECTS
  0
DICTIONARY
  5
C
330
0
100
AcDbDictionary
281
     1
  3
ACAD_GROUP
350
D
  3
ACAD_LAYOUT
350
1A
  3
ACAD_MLEADERSTYLE
350
2CC
  3
ACAD_MLINESTYLE
350
17
  3
ACAD_PLOTSETTINGS
350
19
  3
ACAD_PLOTSTYLENAME
350
E
  3
ACAD_VISUALSTYLE
350
2A
  3
AcDbVariableDictionary
350
2CA
  0
DICTIONARY
  5
D
102
{ACAD_REACTORS
330
C
102
}
330
C
100
AcDbDictionary
281
     1
  0
DICTIONARY
  5
1A
102
{ACAD_REACTORS
330
C
102
}
330
C
100
AcDbDictionary
281
     1
  3
Layout1
350
1E
  3
Layout2
350
26
  3
Model
350
22
  0
DICTIONARY
  5
2CC
102
{ACAD_REACTORS
330
C
102
}
330
C
100
AcDbDictionary
281
     1
  0
DICTIONARY
  5
17
102
{ACAD_REACTORS
330
C
102
}
330
C
100
AcDbDictionary
281
     1
  3
Standard
350
18
  0
DICTIONARY
  5
19
102
{ACAD_REACTORS
330
C
102
}
330
C
100
AcDbDictionary
281
     1
  0
ACDBDICTIONARYWDFLT
  5
E
102
{ACAD_REACTORS
330
C
102
}
330
C
100
AcDbDictionary
281
     1
  3
Normal
350
F
100
AcDbDictionaryWithDefault
340
F
  0
DICTIONARY
  5
2A
102
{ACAD_REACTORS
330
C
102
}
330
C
100
AcDbDictionary
281
     1
  3
2dWireframe
350
2F
  3
3D Hidden
350
31
  3
3dWireframe
350
30
  3
Basic
350
32
  3
Brighten
350
36
  3
ColorChange
350
3A
  3
Conceptual
350
34
  3
Dim
350
35
  3
Facepattern
350
39
  3
Flat
350
2B
  3
FlatWithEdges
350
2C
  3
Gouraud
350
2D
  3
GouraudWithEdges
350
2E
  3
Linepattern
350
38
  3
Realistic
350
33
  3
Thicken
350
37
  0
DICTIONARY
  5
2CA
102
{ACAD_REACTORS
330
C
102
}
330
C
100
AcDbDictionary
281
     1
  3
PSOLHEIGHT
350
2CE
  3
PSOLWIDTH
350
2CD
  0
LAYOUT
  5
1E
102
{ACAD_REACTORS
330
1A
102
}
330
1A
100
AcDbPlotSettings
  1

  2
none_device
  4

  6

 40
0.0
 41
0.0
 42
0.0
 43
0.0
 44
0.0
 45
0.0
 46
0.0
 47
0.0
 48
0.0
 49
0.0
140
0.0
141
0.0
142
1.0
143
1.0
 70
   688
 72
     0
 73
     0
 74
     5
  7

 75
    16
147
1.0
148
0.0
149
0.0
100
AcDbLayout
  1
Layout1
 70
     1
 71
     1
 10
0.0
 20
0.0
 11
420.0
 21
297.0
 12
0.0
 22
0.0
 32
0.0
 14
1.000000E+20
 24
1.000000E+20
 34
1.000000E+20
 15
-1.000000E+20
 25
-1.000000E+20
 35
-1.000000E+20
146
0.0
 13
0.0
 23
0.0
 33
0.0
 16
1.0
 26
0.0
 36
0.0
 17
0.0
 27
1.0
 37
0.0
 76
     0
330
1B
  0
LAYOUT
  5
26
102
{ACAD_REACTORS
330
1A
102
}
330
1A
100
AcDbPlotSettings
  1

  2
none_device
  4

  6

 40
0.0
 41
0.0
 42
0.0
 43
0.0
 44
0.0
 45
0.0
 46
0.0
 47
0.0
 48
0.0
 49
0.0
140
0.0
141
0.0
142
1.0
143
1.0
 70
   688
 72
     0
 73
     0
 74
     5
  7

 75
    16
147
1.0
148
0.0
149
0.0
100
AcDbLayout
  1
Layout2
 70
     1
 71
     2
 10
0.0
 20
0.0
 11
0.0
 21
0.0
 12
0.0
 22
0.0
 32
0.0
 14
0.0
 24
0.0
 34
0.0
 15
0.0
 25
0.0
 35
0.0
146
0.0
 13
0.0
 23
0.0
 33
0.0
 16
1.0
 26
0.0
 36
0.0
 17
0.0
 27
1.0
 37
0.0
 76
     0
330
23
  0
LAYOUT
  5
22
102
{ACAD_REACTORS
330
1A
102
}
330
1A
100
AcDbPlotSettings
  1

  2
none_device
  4

  6

 40
0.0
 41
0.0
 42
0.0
 43
0.0
 44
0.0
 45
0.0
 46
0.0
 47
0.0
 48
0.0
 49
0.0
140
0.0
141
0.0
142
1.0
143
1.0
 70
  1712
 72
     0
 73
     0
 74
     0
  7

 75
     0
147
1.0
148
0.0
149
0.0
100
AcDbLayout
  1
Model
 70
     1
 71
     0
 10
-57.634701
 20
63.667107
 11
327.119476
 21
266.309937
 12
0.0
 22
0.0
 32
0.0
 14
-57.634701
 24
63.667107
 34
0.0
 15
327.119476
 25
266.309937
 35
0.0
146
0.0
 13
0.0
 23
0.0
 33
0.0
 16
1.0
 26
0.0
 36
0.0
 17
0.0
 27
1.0
 37
0.0
 76
     0
330
1F
331
29
  0
MLINESTYLE
  5
18
102
{ACAD_REACTORS
330
17
102
}
330
17
100
AcDbMlineStyle
  2
Standard
 70
     0
  3

 62
   256
 51
90.0
 52
90.0
 71
     2
 49
0.5
 62
   256
  6
BYLAYER
 49
-0.5
 62
   256
  6
BYLAYER
  0
ACDBPLACEHOLDER
  5
F
102
{ACAD_REACTORS
330
E
102
}
330
E
  0
VISUALSTYLE
  5
2F
102
{ACAD_REACTORS
330
2A
102
}
330
2A
100
AcDbVisualStyle
  2
2dWireframe
 70
     4
 71
     0
 72
     2
 73
     0
 90
        0
 40
-0.6
 41
-30.0
 62
     5
 63
     7
 74
     1
 91
        4
 64
     7
 65
   257
 75
     1
175
     1
 42
1.0
 92
        0
 66
   257
 43
1.0
 76
     1
 77
     6
 78
     2
 67
     7
 79
     5
170
     0
171
     0
290
     0
174
     0
 93
        1
 44
0.0
173
     0
291
     0
 45
0.0
1001
ACAD
1000
AcDbSavedByObjectVersion
1070
     0
  0
VISUALSTYLE
  5
31
102
{ACAD_REACTORS
330
2A
102
}
330
2A
100
AcDbVisualStyle
  2
3D Hidden
 70
     6
 71
     1
 72
     2
 73
     2
 90
        0
 40
-0.6
 41
-30.0
 62
     5
 63
     7
 74
     2
 91
        2
 64
     7
 65
   257
 75
     2
175
     1
 42
40.0
 92
        0
 66
   257
 43
1.0
 76
     1
 77
     6
 78
     2
 67
     7
 79
     3
170
     0
171
     0
290
     0
174
     0
 93
        1
 44
0.0
173
     0
291
     0
 45
0.0
1001
ACAD
1000
AcDbSavedByObjectVersion
1070
     0
  0
VISUALSTYLE
  5
30
102
{ACAD_REACTORS
330
2A
102
}
330
2A
100
AcDbVisualStyle
  2
3dWireframe
 70
     5
 71
     0
 72
     2
 73
     0
 90
        0
 40
-0.6
 41
-30.0
 62
     5
 63
     7
 74
     1
 91
        4
 64
     7
 65
   257
 75
     1
175
     1
 42
1.0
 92
        0
 66
   257
 43
1.0
 76
     1
 77
     6
 78
     2
 67
     7
 79
     5
170
     0
171
     0
290
     0
174
     0
 93
        1
 44
0.0
173
     0
291
     0
 45
0.0
1001
ACAD
1000
AcDbSavedByObjectVersion
1070
     0
  0
VISUALSTYLE
  5
32
102
{ACAD_REACTORS
330
2A
102
}
330
2A
100
AcDbVisualStyle
  2
Basic
 70
     7
 71
     1
 72
     0
 73
     1
 90
        0
 40
-0.6
 41
-30.0
 62
     5
 63
     7
 74
     0
 91
        4
 64
     7
 65
   257
 75
     1
175
     1
 42
1.0
 92
        8
 66
     7
 43
1.0
 76
     1
 77
     6
 78
     2
 67
     7
 79
     5
170
     0
171
     0
290
     0
174
     0
 93
        1
 44
0.0
173
     0
291
     1
 45
0.0
1001
ACAD
1000
AcDbSavedByObjectVersion
1070
     0
  0
VISUALSTYLE
  5
36
102
{ACAD_REACTORS
330
2A
102
}
330
2A
100
AcDbVisualStyle
  2
Brighten
 70
    12
 71
     2
 72
     2
 73
     0
 90
        0
 40
-0.6
 41
-30.0
 62
     5
 63
     7
 74
     1
 91
        4
 64
     7
 65
   257
 75
     1
175
     1
 42
1.0
 92
        8
 66
     7
 43
1.0
 76
     1
 77
     6
 78
     2
 67
     7
 79
     5
170
     0
171
     0
290
     0
174
     0
 93
        1
 44
50.0
173
     0
291
     1
 45
0.0
1001
ACAD
1000
AcDbSavedByObjectVersion
1070
     0
  0
VISUALSTYLE
  5
3A
102
{ACAD_REACTORS
330
2A
102
}
330
2A
100
AcDbVisualStyle
  2
ColorChange
 70
    16
 71
     2
 72
     2
 73
     3
 90
        0
 40
-0.6
 41
-30.0
 62
     5
 63
     8
 74
     1
 91
        4
 64
     7
 65
   257
 75
     1
175
     1
 42
1.0
 92
        8
 66
     8
 43
1.0
 76
     1
 77
     6
 78
     2
 67
     7
 79
     5
170
     0
171
     0
290
     0
174
     0
 93
        1
 44
0.0
173
     0
291
     1
 45
0.0
1001
ACAD
1000
AcDbSavedByObjectVersion
1070
     0
  0
VISUALSTYLE
  5
34
102
{ACAD_REACTORS
330
2A
102
}
330
2A
100
AcDbVisualStyle
  2
Conceptual
 70
     9
 71
     3
 72
     2
 73
     0
 90
        0
 40
-0.6
 41
-30.0
 62
     5
 63
     7
 74
     2
 91
        2
 64
     7
 65
   257
 75
     1
175
     1
 42
40.0
 92
        8
 66
     7
 43
1.0
 76
     1
 77
     6
 78
     2
 67
     7
 79
     3
170
     0
171
     0
290
     0
174
     0
 93
        1
 44
0.0
173
     0
291
     0
 45
0.0
1001
ACAD
1000
AcDbSavedByObjectVersion
1070
     0
  0
VISUALSTYLE
  5
35
102
{ACAD_REACTORS
330
2A
102
}
330
2A
100
AcDbVisualStyle
  2
Dim
 70
    11
 71
     2
 72
     2
 73
     0
 90
        0
 40
-0.6
 41
-30.0
 62
     5
 63
     7
 74
     1
 91
        4
 64
     7
 65
   257
 75
     1
175
     1
 42
1.0
 92
        8
 66
     7
 43
1.0
 76
     1
 77
     6
 78
     2
 67
     7
 79
     5
170
     0
171
     0
290
     0
174
     0
 93
        1
 44
-50.0
173
     0
291
     1
 45
0.0
1001
ACAD
1000
AcDbSavedByObjectVersion
1070
     0
  0
VISUALSTYLE
  5
39
102
{ACAD_REACTORS
330
2A
102
}
330
2A
100
AcDbVisualStyle
  2
Facepattern
 70
    15
 71
     2
 72
     2
 73
     0
 90
        0
 40
-0.6
 41
-30.0
 62
     5
 63
     7
 74
     1
 91
        4
 64
     7
 65
   257
 75
     1
175
     1
 42
1.0
 92
        8
 66
     7
 43
1.0
 76
     1
 77
     6
 78
     2
 67
     7
 79
     5
170
     0
171
     0
290
     0
174
     0
 93
        1
 44
0.0
173
     0
291
     1
 45
0.0
1001
ACAD
1000
AcDbSavedByObjectVersion
1070
     0
  0
VISUALSTYLE
  5
2B
102
{ACAD_REACTORS
330
2A
102
}
330
2A
100
AcDbVisualStyle
  2
Flat
 70
     0
 71
     2
 72
     1
 73
     1
 90
        2
 40
-0.6
 41
30.0
 62
     5
 63
     7
 74
     0
 91
        4
 64
     7
 65
   257
 75
     1
175
     1
 42
1.0
 92
        8
 66
     7
 43
1.0
 76
     1
 77
     6
 78
     2
 67
     7
 79
     5
170
     0
171
     0
290
     0
174
     0
 93
       13
 44
0.0
173
     0
291
     1
 45
0.0
1001
ACAD
1000
AcDbSavedByObjectVersion
1070
     0
  0
VISUALSTYLE
  5
2C
102
{ACAD_REACTORS
330
2A
102
}
330
2A
100
AcDbVisualStyle
  2
FlatWithEdges
 70
     1
 71
     2
 72
     1
 73
     1
 90
        2
 40
-0.6
 41
30.0
 62
     5
 63
     7
 74
     1
 91
        4
 64
     7
 65
   257
 75
     1
175
     1
 42
1.0
 92
        0
 66
   257
 43
1.0
 76
     1
 77
     6
 78
     2
 67
     7
 79
     5
170
     0
171
     0
290
     0
174
     0
 93
       13
 44
0.0
173
     0
291
     1
 45
0.0
1001
ACAD
1000
AcDbSavedByObjectVersion
1070
     0
  0
VISUALSTYLE
  5
2D
102
{ACAD_REACTORS
330
2A
102
}
330
2A
100
AcDbVisualStyle
  2
Gouraud
 70
     2
 71
     2
 72
     2
 73
     1
 90
        2
 40
-0.6
 41
30.0
 62
     5
 63
     7
 74
     0
 91
        4
 64
     7
 65
   257
 75
     1
175
     1
 42
1.0
 92
        0
 66
     7
 43
1.0
 76
     1
 77
     6
 78
     2
 67
     7
 79
     5
170
     0
171
     0
290
     0
174
     0
 93
       13
 44
0.0
173
     0
291
     1
 45
0.0
1001
ACAD
1000
AcDbSavedByObjectVersion
1070
     0
  0
VISUALSTYLE
  5
2E
102
{ACAD_REACTORS
330
2A
102
}
330
2A
100
AcDbVisualStyle
  2
GouraudWithEdges
 70
     3
 71
     2
 72
     2
 73
     1
 90
        2
 40
-0.6
 41
30.0
 62
     5
 63
     7
 74
     1
 91
        4
 64
     7
 65
   257
 75
     1
175
     1
 42
1.0
 92
        0
 66
   257
 43
1.0
 76
     1
 77
     6
 78
     2
 67
     7
 79
     5
170
     0
171
     0
290
     0
174
     0
 93
       13
 44
0.0
173
     0
291
     1
 45
0.0
1001
ACAD
1000
AcDbSavedByObjectVersion
1070
     0
  0
VISUALSTYLE
  5
38
102
{ACAD_REACTORS
330
2A
102
}
330
2A
100
AcDbVisualStyle
  2
Linepattern
 70
    14
 71
     2
 72
     2
 73
     0
 90
        0
 40
-0.6
 41
-30.0
 62
     5
 63
     7
 74
     1
 91
        4
 64
     7
 65
   257
 75
     7
175
     7
 42
1.0
 92
        8
 66
     7
 43
1.0
 76
     1
 77
     6
 78
     2
 67
     7
 79
     5
170
     0
171
     0
290
     0
174
     0
 93
        1
 44
0.0
173
     0
291
     1
 45
0.0
1001
ACAD
1000
AcDbSavedByObjectVersion
1070
     0
  0
VISUALSTYLE
  5
33
102
{ACAD_REACTORS
330
2A
102
}
330
2A
100
AcDbVisualStyle
  2
Realistic
 70
     8
 71
     2
 72
     2
 73
     0
 90
        0
 40
-0.6
 41
-30.0
 62
     5
 63
     7
 74
     1
 91
        0
 64
     7
 65
   257
 75
     1
175
     1
 42
1.0
 92
        8
 66
     8
 43
1.0
 76
     1
 77
     6
 78
     2
 67
     7
 79
     5
170
     0
171
     0
290
     0
174
     0
 93
       13
 44
0.0
173
     0
291
     0
 45
0.0
1001
ACAD
1000
AcDbSavedByObjectVersion
1070
     0
  0
VISUALSTYLE
  5
37
102
{ACAD_REACTORS
330
2A
102
}
330
2A
100
AcDbVisualStyle
  2
Thicken
 70
    13
 71
     2
 72
     2
 73
     0
 90
        0
 40
-0.6
 41
-30.0
 62
     5
 63
     7
 74
     1
 91
        4
 64
     7
 65
   257
 75
     1
175
     1
 42
1.0
 92
       12
 66
     7
 43
1.0
 76
     1
 77
     6
 78
     2
 67
     7
 79
     5
170
     0
171
     0
290
     0
174
     0
 93
        1
 44
0.0
173
     0
291
     1
 45
0.0
1001
ACAD
1000
AcDbSavedByObjectVersion
1070
     0
  0
DICTIONARYVAR
  5
2CE
102
{ACAD_REACTORS
330
2CA
102
}
330
2CA
100
DictionaryVariables
280
     0
  1
80.000000
  0
DICTIONARYVAR
  5
2CD
102
{ACAD_REACTORS
330
2CA
102
}
330
2CA
100
DictionaryVariables
280
     0
  1
5.000000
  0
ENDSEC
  0
EOF
