  0
SECTION
  2
HEADER
  9
$ACADVER
  1
AC1024
  9
$ACADMAINTVER
 70
     6
  9
$DWGCODEPAGE
  3
ANSI_1252
  9
$INSBASE
 10
0.0
 20
0.0
 30
0.0
  9
$EXTMIN
 10
1.000000E+20
 20
1.000000E+20
 30
1.000000E+20
  9
$EXTMAX
 10
-1.000000E+20
 20
-1.000000E+20
 30
-1.000000E+20
  9
$LIMMIN
 10
0.0
 20
0.0
  9
$LIMMAX
 10
420.0
 20
297.0
  9
$ORTHOMODE
 70
     0
  9
$REGENMODE
 70
     1
  9
$FILLMODE
 70
     1
  9
$QTEXTMODE
 70
     0
  9
$MIRRTEXT
 70
     1
  9
$LTSCALE
 40
1.0
  9
$ATTMODE
 70
     1
  9
$TEXTSIZE
 40
2.5
  9
$TRACEWID
 40
1.0
  9
$TEXTSTYLE
  7
Standard
  9
$CLAYER
  8
0
  9
$CELTYPE
  6
ByLayer
  9
$CECOLOR
 62
   256
  9
$CELTSCALE
 40
1.0
  9
$DISPSILH
 70
     0
  9
$DIMSCALE
 40
1.0
  9
$DIMASZ
 40
2.5
  9
$DIMEXO
 40
0.625
  9
$DIMDLI
 40
3.75
  9
$DIMRND
 40
0.0
  9
$DIMDLE
 40
0.0
  9
$DIMEXE
 40
1.25
  9
$DIMTP
 40
0.0
  9
$DIMTM
 40
0.0
  9
$DIMTXT
 40
2.5
  9
$DIMCEN
 40
2.5
  9
$DIMTSZ
 40
0.0
  9
$DIMTOL
 70
     0
  9
$DIMLIM
 70
     0
  9
$DIMTIH
 70
     0
  9
$DIMTOH
 70
     0
  9
$DIMSE1
 70
     0
  9
$DIMSE2
 70
     0
  9
$DIMTAD
 70
     1
  9
$DIMZIN
 70
     8
  9
$DIMBLK
  1

  9
$DIMASO
 70
     1
  9
$DIMSHO
 70
     1
  9
$DIMPOST
  1

  9
$DIMAPOST
  1

  9
$DIMALT
 70
     0
  9
$DIMALTD
 70
     3
  9
$DIMALTF
 40
0.03937
  9
$DIMLFAC
 40
1.0
  9
$DIMTOFL
 70
     1
  9
$DIMTVP
 40
0.0
  9
$DIMTIX
 70
     0
  9
$DIMSOXD
 70
     0
  9
$DIMSAH
 70
     0
  9
$DIMBLK1
  1

  9
$DIMBLK2
  1

  9
$DIMSTYLE
  2
ISO-25
  9
$DIMCLRD
 70
     0
  9
$DIMCLRE
 70
     0
  9
$DIMCLRT
 70
     0
  9
$DIMTFAC
 40
1.0
  9
$DIMGAP
 40
0.625
  9
$DIMJUST
 70
     0
  9
$DIMSD1
 70
     0
  9
$DIMSD2
 70
     0
  9
$DIMTOLJ
 70
     0
  9
$DIMTZIN
 70
     8
  9
$DIMALTZ
 70
     0
  9
$DIMALTTZ
 70
     0
  9
$DIMUPT
 70
     0
  9
$DIMDEC
 70
     2
  9
$DIMTDEC
 70
     2
  9
$DIMALTU
 70
     2
  9
$DIMALTTD
 70
     3
  9
$DIMTXSTY
  7
Standard
  9
$DIMAUNIT
 70
     0
  9
$DIMADEC
 70
     0
  9
$DIMALTRND
 40
0.0
  9
$DIMAZIN
 70
     0
  9
$DIMDSEP
 70
    44
  9
$DIMATFIT
 70
     3
  9
$DIMFRAC
 70
     0
  9
$DIMLDRBLK
  1

  9
$DIMLUNIT
 70
     2
  9
$DIMLWD
 70
    -2
  9
$DIMLWE
 70
    -2
  9
$DIMTMOVE
 70
     0
  9
$DIMFXL
 40
1.0
  9
$DIMFXLON
 70
     0
  9
$DIMJOGANG
 40
0.785398
  9
$DIMTFILL
 70
     0
  9
$DIMTFILLCLR
 70
     0
  9
$DIMARCSYM
 70
     0
  9
$DIMLTYPE
  6

  9
$DIMLTEX1
  6

  9
$DIMLTEX2
  6

  9
$DIMTXTDIRECTION
 70
     0
  9
$LUNITS
 70
     2
  9
$LUPREC
 70
     4
  9
$SKETCHINC
 40
1.0
  9
$FILLETRAD
 40
10.0
  9
$AUNITS
 70
     0
  9
$AUPREC
 70
     0
  9
$MENU
  1
.
  9
$ELEVATION
 40
0.0
  9
$PELEVATION
 40
0.0
  9
$THICKNESS
 40
0.0
  9
$LIMCHECK
 70
     0
  9
$CHAMFERA
 40
0.0
  9
$CHAMFERB
 40
0.0
  9
$CHAMFERC
 40
0.0
  9
$CHAMFERD
 40
0.0
  9
$SKPOLY
 70
     0
  9
$TDCREATE
 40
2458614.66992919
  9
$TDUCREATE
 40
2458614.586595857
  9
$TDUPDATE
 40
2458614.669929988
  9
$TDUUPDATE
 40
2458614.586596655
  9
$TDINDWG
 40
0.0000000116
  9
$TDUSRTIMER
 40
0.0000000116
  9
$USRTIMER
 70
     1
  9
$ANGBASE
 50
0.0
  9
$ANGDIR
 70
     0
  9
$PDMODE
 70
     0
  9
$PDSIZE
 40
0.0
  9
$PLINEWID
 40
0.0
  9
$SPLFRAME
 70
     0
  9
$SPLINETYPE
 70
     6
  9
$SPLINESEGS
 70
     8
  9
$HANDSEED
  5
390
  9
$SURFTAB1
 70
     6
  9
$SURFTAB2
 70
     6
  9
$SURFTYPE
 70
     6
  9
$SURFU
 70
     6
  9
$SURFV
 70
     6
  9
$UCSBASE
  2

  9
$UCSNAME
  2

  9
$UCSORG
 10
0.0
 20
0.0
 30
0.0
  9
$UCSXDIR
 10
1.0
 20
0.0
 30
0.0
  9
$UCSYDIR
 10
0.0
 20
1.0
 30
0.0
  9
$UCSORTHOREF
  2

  9
$UCSORTHOVIEW
 70
     0
  9
$UCSORGTOP
 10
0.0
 20
0.0
 30
0.0
  9
$UCSORGBOTTOM
 10
0.0
 20
0.0
 30
0.0
  9
$UCSORGLEFT
 10
0.0
 20
0.0
 30
0.0
  9
$UCSORGRIGHT
 10
0.0
 20
0.0
 30
0.0
  9
$UCSORGFRONT
 10
0.0
 20
0.0
 30
0.0
  9
$UCSORGBACK
 10
0.0
 20
0.0
 30
0.0
  9
$PUCSBASE
  2

  9
$PUCSNAME
  2

  9
$PUCSORG
 10
0.0
 20
0.0
 30
0.0
  9
$PUCSXDIR
 10
1.0
 20
0.0
 30
0.0
  9
$PUCSYDIR
 10
0.0
 20
1.0
 30
0.0
  9
$PUCSORTHOREF
  2

  9
$PUCSORTHOVIEW
 70
     0
  9
$PUCSORGTOP
 10
0.0
 20
0.0
 30
0.0
  9
$PUCSORGBOTTOM
 10
0.0
 20
0.0
 30
0.0
  9
$PUCSORGLEFT
 10
0.0
 20
0.0
 30
0.0
  9
$PUCSORGRIGHT
 10
0.0
 20
0.0
 30
0.0
  9
$PUCSORGFRONT
 10
0.0
 20
0.0
 30
0.0
  9
$PUCSORGBACK
 10
0.0
 20
0.0
 30
0.0
  9
$USERI1
 70
     0
  9
$USERI2
 70
     0
  9
$USERI3
 70
     0
  9
$USERI4
 70
     0
  9
$USERI5
 70
     0
  9
$USERR1
 40
0.0
  9
$USERR2
 40
0.0
  9
$USERR3
 40
0.0
  9
$USERR4
 40
0.0
  9
$USERR5
 40
0.0
  9
$WORLDVIEW
 70
     1
  9
$SHADEDGE
 70
     3
  9
$SHADEDIF
 70
    70
  9
$TILEMODE
 70
     1
  9
$MAXACTVP
 70
    64
  9
$PINSBASE
 10
0.0
 20
0.0
 30
0.0
  9
$PLIMCHECK
 70
     0
  9
$PEXTMIN
 10
1.000000E+20
 20
1.000000E+20
 30
1.000000E+20
  9
$PEXTMAX
 10
-1.000000E+20
 20
-1.000000E+20
 30
-1.000000E+20
  9
$PLIMMIN
 10
0.0
 20
0.0
  9
$PLIMMAX
 10
420.0
 20
297.0
  9
$UNITMODE
 70
     0
  9
$VISRETAIN
 70
     1
  9
$PLINEGEN
 70
     0
  9
$PSLTSCALE
 70
     1
  9
$TREEDEPTH
 70
  3020
  9
$CMLSTYLE
  2
Standard
  9
$CMLJUST
 70
     0
  9
$CMLSCALE
 40
20.0
  9
$PROXYGRAPHICS
 70
     1
  9
$MEASUREMENT
 70
     1
  9
$CELWEIGHT
370
    -1
  9
$ENDCAPS
280
     0
  9
$JOINSTYLE
280
     0
  9
$LWDISPLAY
290
     0
  9
$INSUNITS
 70
     4
  9
$HYPERLINKBASE
  1

  9
$STYLESHEET
  1

  9
$XEDIT
290
     1
  9
$CEPSNTYPE
380
     0
  9
$PSTYLEMODE
290
     1
  9
$FINGERPRINTGUID
  2
{6996634A-16F9-4C0D-8EBC-DC44A2E155B0}
  9
$VERSIONGUID
  2
{FAEB1C32-E019-11D5-929B-00C0DF256EC4}
  9
$EXTNAMES
290
     1
  9
$PSVPSCALE
 40
0.0
  9
$OLESTARTUP
290
     0
  9
$SORTENTS
280
   127
  9
$INDEXCTL
280
     0
  9
$HIDETEXT
280
     1
  9
$XCLIPFRAME
280
     2
  9
$HALOGAP
280
     0
  9
$OBSCOLOR
 70
   257
  9
$OBSLTYPE
280
     0
  9
$INTERSECTIONDISPLAY
280
     0
  9
$INTERSECTIONCOLOR
 70
   257
  9
$DIMASSOC
280
     2
  9
$PROJECTNAME
  1

  9
$CAMERADISPLAY
290
     0
  9
$LENSLENGTH
 40
50.0
  9
$CAMERAHEIGHT
 40
0.0
  9
$STEPSPERSEC
 40
2.0
  9
$STEPSIZE
 40
6.0
  9
$3DDWFPREC
 40
2.0
  9
$PSOLWIDTH
 40
5.0
  9
$PSOLHEIGHT
 40
80.0
  9
$LOFTANG1
 40
1.570796
  9
$LOFTANG2
 40
1.570796
  9
$LOFTMAG1
 40
0.0
  9
$LOFTMAG2
 40
0.0
  9
$LOFTPARAM
 70
     7
  9
$LOFTNORMALS
280
     1
  9
$LATITUDE
 40
37.795
  9
$LONGITUDE
 40
-122.394
  9
$NORTHDIRECTION
 40
0.0
  9
$TIMEZONE
 70
 -8000
  9
$LIGHTGLYPHDISPLAY
280
     1
  9
$TILEMODELIGHTSYNCH
280
     1
  9
$CMATERIAL
347
44
  9
$SOLIDHIST
280
     0
  9
$SHOWHIST
280
     1
  9
$DWFFRAME
280
     2
  9
$DGNFRAME
280
     2
  9
$REALWORLDSCALE
290
     1
  9
$INTERFERECOLOR
 62
   256
  9
$CSHADOW
280
     0
  9
$SHADOWPLANELOCATION
 40
0.0
  0
ENDSEC
  0
SECTION
  2
CLASSES
  0
CLASS
  1
ACDBDICTIONARYWDFLT
  2
AcDbDictionaryWithDefault
  3
ObjectDBX Classes
 90
        0
 91
        4
280
     0
281
     0
  0
CLASS
  1
VISUALSTYLE
  2
AcDbVisualStyle
  3
ObjectDBX Classes
 90
     4095
 91
        4
280
     0
281
     0
  0
CLASS
  1
MATERIAL
  2
AcDbMaterial
  3
ObjectDBX Classes
 90
     1153
 91
        4
280
     0
281
     0
  0
CLASS
  1
SCALE
  2
AcDbScale
  3
ObjectDBX Classes
 90
     1153
 91
        4
280
     0
281
     0
  0
CLASS
  1
TABLESTYLE
  2
AcDbTableStyle
  3
ObjectDBX Classes
 90
     4095
 91
        4
280
     0
281
     0
  0
CLASS
  1
MLEADERSTYLE
  2
AcDbMLeaderStyle
  3
ACDB_MLEADERSTYLE_CLASS
 90
     4095
 91
        4
280
     0
281
     0
  0
CLASS
  1
SUN
  2
AcDbSun
  3
SCENEOE
 90
     1153
 91
        4
280
     0
281
     0
  0
CLASS
  1
DICTIONARYVAR
  2
AcDbDictionaryVar
  3
ObjectDBX Classes
 90
        0
 91
        4
280
     0
281
     0
  0
CLASS
  1
CELLSTYLEMAP
  2
AcDbCellStyleMap
  3
ObjectDBX Classes
 90
     1152
 91
        4
280
     0
281
     0
  0
ENDSEC
  0
SECTION
  2
TABLES
  0
TABLE
  2
VPORT
  5
8
330
0
100
AcDbSymbolTable
 70
     1
  0
VPORT
  5
29
330
8
100
AcDbSymbolTableRecord
100
AcDbViewportTableRecord
  2
*Active
 70
     0
 10
0.0
 20
0.0
 11
1.0
 21
1.0
 12
344.186916
 22
148.5
 13
0.0
 23
0.0
 14
10.0
 24
10.0
 15
10.0
 25
10.0
 16
0.0
 26
0.0
 36
1.0
 17
0.0
 27
0.0
 37
0.0
 40
297.0
 41
1.972973
 42
50.0
 43
0.0
 44
0.0
 50
0.0
 51
0.0
 71
     0
 72
   100
 73
     1
 74
     3
 75
     0
 76
     0
 77
     0
 78
     0
281
     0
 65
     1
110
0.0
120
0.0
130
0.0
111
1.0
121
0.0
131
0.0
112
0.0
122
1.0
132
0.0
 79
     0
146
0.0
348
2F
 60
     3
 61
     5
292
     1
282
     1
141
0.0
142
0.0
 63
   250
361
6D
  0
ENDTAB
  0
TABLE
  2
LTYPE
  5
5
330
0
100
AcDbSymbolTable
 70
     1
  0
LTYPE
  5
14
330
5
100
AcDbSymbolTableRecord
100
AcDbLinetypeTableRecord
  2
ByBlock
 70
     0
  3

 72
    65
 73
     0
 40
0.0
  0
LTYPE
  5
15
330
5
100
AcDbSymbolTableRecord
100
AcDbLinetypeTableRecord
  2
ByLayer
 70
     0
  3

 72
    65
 73
     0
 40
0.0
  0
LTYPE
  5
16
330
5
100
AcDbSymbolTableRecord
100
AcDbLinetypeTableRecord
  2
Continuous
 70
     0
  3
Solid line
 72
    65
 73
     0
 40
0.0
  0
ENDTAB
  0
TABLE
  2
LAYER
  5
2
330
0
100
AcDbSymbolTable
 70
     1
  0
LAYER
  5
10
330
2
100
AcDbSymbolTableRecord
100
AcDbLayerTableRecord
  2
0
 70
     0
 62
   106
  6
Continuous
370
     0
390
F
347
46
  0
ENDTAB
  0
TABLE
  2
STYLE
  5
3
330
0
100
AcDbSymbolTable
 70
     4
  0
STYLE
  5
11
330
3
100
AcDbSymbolTableRecord
100
AcDbTextStyleTableRecord
  2
Standard
 70
     0
 40
0.0
 41
1.0
 50
0.0
 71
     0
 42
2.5
  3
txt
  4

  0
STYLE
  5
6E
330
3
100
AcDbSymbolTableRecord
100
AcDbTextStyleTableRecord
  2
Default
 70
     0
 40
0.0
 41
1.0
 50
0.0
 71
     0
 42
2.5
  3

  4

1001
ACAD
1000
txt
1071
        0
  0
STYLE
  5
6F
330
3
100
AcDbSymbolTableRecord
100
AcDbTextStyleTableRecord
  2
ISO
 70
     0
 40
0.0
 41
1.0
 50
0.0
 71
     0
 42
2.5
  3

  4

1001
ACAD
1000
txt
1071
        0
  0
STYLE
  5
70
330
3
100
AcDbSymbolTableRecord
100
AcDbTextStyleTableRecord
  2
zucchetti
 70
     0
 40
0.0
 41
1.0
 50
0.0
 71
     0
 42
2.5
  3

  4

1001
ACAD
1000
Arial
1071
        0
  0
ENDTAB
  0
TABLE
  2
VIEW
  5
6
330
0
100
AcDbSymbolTable
 70
     0
  0
ENDTAB
  0
TABLE
  2
UCS
  5
7
330
0
100
AcDbSymbolTable
 70
     0
  0
ENDTAB
  0
TABLE
  2
APPID
  5
9
330
0
100
AcDbSymbolTable
 70
     1
  0
APPID
  5
12
330
9
100
AcDbSymbolTableRecord
100
AcDbRegAppTableRecord
  2
ACAD
 70
     0
  0
ENDTAB
  0
TABLE
  2
DIMSTYLE
  5
A
330
0
100
AcDbSymbolTable
 70
     4
100
AcDbDimStyleTable
  0
DIMSTYLE
105
27
330
A
100
AcDbSymbolTableRecord
100
AcDbDimStyleTableRecord
  2
ISO-25
 70
     0
 41
2.5
 42
0.625
 43
3.75
 44
1.25
 73
     0
 74
     0
 77
     1
 78
     8
140
2.5
141
2.5
143
0.03937
147
0.625
171
     3
172
     1
178
     0
271
     2
272
     2
274
     3
278
    44
283
     0
284
     8
340
11
  0
DIMSTYLE
105
71
330
A
100
AcDbSymbolTableRecord
100
AcDbDimStyleTableRecord
  2
Default
 70
     0
  3
<>
 41
4.375
 42
1.05
 44
2.1
 49
10.01
 73
     0
 74
     0
 77
     1
 78
     8
140
3.5
146
0.4
147
1.75
172
     1
271
     2
178
     3
271
     2
272
     3
284
     8
340
6E
341
72
342
72
  0
DIMSTYLE
105
79
330
A
100
AcDbSymbolTableRecord
100
AcDbDimStyleTableRecord
  2
ISO
 70
     0
  3
<>
 41
4.375
 42
1.05
 44
2.1
 49
10.01
 73
     0
 74
     0
 77
     1
 78
     8
140
3.5
146
0.4
147
1.75
172
     1
271
     2
178
     3
271
     2
272
     3
284
     8
340
6F
341
72
342
72
  0
DIMSTYLE
105
7A
330
A
100
AcDbSymbolTableRecord
100
AcDbDimStyleTableRecord
  2
zucchetti
 70
     0
  3
<>
 41
3.0
 42
0.9
 44
1.8
 49
8.58
 73
     0
 74
     0
 77
     1
 78
     8
140
3.0
146
0.6
147
1.5
172
     1
176
     3
177
     3
271
     2
178
     3
271
     2
272
     2
284
     8
340
70
  0
ENDTAB
  0
TABLE
  2
BLOCK_RECORD
  5
1
330
0
100
AcDbSymbolTable
 70
     6
  0
BLOCK_RECORD
  5
1F
330
1
100
AcDbSymbolTableRecord
100
AcDbBlockTableRecord
  2
*Model_Space
340
22
 70
     0
280
     1
281
     0
  0
BLOCK_RECORD
  5
1B
330
1
100
AcDbSymbolTableRecord
100
AcDbBlockTableRecord
  2
*Paper_Space
340
1E
 70
     0
280
     1
281
     0
  0
BLOCK_RECORD
  5
23
330
1
100
AcDbSymbolTableRecord
100
AcDbBlockTableRecord
  2
*Paper_Space0
340
26
 70
     0
280
     1
281
     0
  0
BLOCK_RECORD
  5
72
330
1
100
AcDbSymbolTableRecord
100
AcDbBlockTableRecord
  2
_CLOSED
340
0
 70
     0
280
     1
281
     0
  0
BLOCK_RECORD
  5
7B
330
1
100
AcDbSymbolTableRecord
100
AcDbBlockTableRecord
  2
a
340
0
102
{BLKREFS
331
27D
102
}
 70
     0
280
     1
281
     0
  0
BLOCK_RECORD
  5
27E
330
1
100
AcDbSymbolTableRecord
100
AcDbBlockTableRecord
  2
b
340
0
102
{BLKREFS
331
2C8
102
}
 70
     0
280
     1
281
     0
  0
BLOCK_RECORD
  5
2C9
330
1
100
AcDbSymbolTableRecord
100
AcDbBlockTableRecord
  2
c
340
0
102
{BLKREFS
331
30F
102
}
 70
     0
280
     1
281
     0
  0
BLOCK_RECORD
  5
310
330
1
100
AcDbSymbolTableRecord
100
AcDbBlockTableRecord
  2
d
340
0
102
{BLKREFS
331
356
102
}
 70
     0
280
     1
281
     0
  0
ENDTAB
  0
ENDSEC
  0
SECTION
  2
BLOCKS
  0
BLOCK
  5
20
330
1F
100
AcDbEntity
  8
0
100
AcDbBlockBegin
  2
*Model_Space
 70
     0
 10
0.0
 20
0.0
 30
0.0
  3
*Model_Space
  1

  0
ENDBLK
  5
21
330
1F
100
AcDbEntity
  8
0
100
AcDbBlockEnd
  0
BLOCK
  5
1C
330
1B
100
AcDbEntity
 67
     1
  8
0
100
AcDbBlockBegin
  2
*Paper_Space
 70
     0
 10
0.0
 20
0.0
 30
0.0
  3
*Paper_Space
  1

  0
ENDBLK
  5
1D
330
1B
100
AcDbEntity
 67
     1
  8
0
100
AcDbBlockEnd
  0
BLOCK
  5
24
330
23
100
AcDbEntity
  8
0
100
AcDbBlockBegin
  2
*Paper_Space0
 70
     0
 10
0.0
 20
0.0
 30
0.0
  3
*Paper_Space0
  1

  0
ENDBLK
  5
25
330
23
100
AcDbEntity
  8
0
100
AcDbBlockEnd
  0
BLOCK
  5
73
330
72
100
AcDbEntity
  8
0
100
AcDbBlockBegin
  2
_CLOSED
 70
     0
 10
0.0
 20
0.0
 30
0.0
  3
_CLOSED
  1

  0
LINE
  5
75
330
72
100
AcDbEntity
  8
0
  6
ByBlock
 62
     0
370
    -2
100
AcDbLine
 10
-1.0
 20
0.166667
 30
0.0
 11
0.0
 21
0.0
 31
0.0
  0
LINE
  5
76
330
72
100
AcDbEntity
  8
0
  6
ByBlock
 62
     0
370
    -2
100
AcDbLine
 10
0.0
 20
0.0
 30
0.0
 11
-1.0
 21
-0.166667
 31
0.0
  0
LINE
  5
77
330
72
100
AcDbEntity
  8
0
  6
ByBlock
 62
     0
370
    -2
100
AcDbLine
 10
-1.0
 20
0.166667
 30
0.0
 11
-1.0
 21
-0.166667
 31
0.0
  0
LINE
  5
78
330
72
100
AcDbEntity
  8
0
  6
ByBlock
 62
     0
370
    -2
100
AcDbLine
 10
0.0
 20
0.0
 30
0.0
 11
-1.0
 21
0.0
 31
0.0
  0
ENDBLK
  5
74
330
72
100
AcDbEntity
  8
0
100
AcDbBlockEnd
  0
BLOCK
  5
27B
330
7B
100
AcDbEntity
  8
0
100
AcDbBlockBegin
  2
a
 70
     0
 10
196.863464
 20
285.464508
 30
0.0
  3
a
  1

  0
LINE
  5
7C
330
7B
100
AcDbEntity
  8
0
  6
Continuous
 62
     0
370
    30
100
AcDbLine
 10
226.077367
 20
307.119627
 30
0.0
 11
226.142612
 21
307.120184
 31
0.0
  0
LINE
  5
7D
330
7B
100
AcDbEntity
  8
0
  6
Continuous
 62
     0
370
    30
100
AcDbLine
 10
226.441187
 20
307.12273
 30
0.0
 11
226.441187
 21
307.139057
 31
0.0
  0
LINE
  5
7E
330
7B
100
AcDbEntity
  8
0
  6
Continuous
 62
     0
370
    30
100
AcDbLine
 10
226.423841
 20
307.138181
 30
0.0
 11
226.441187
 21
307.12273
 31
0.0
  0
LINE
  5
7F
330
7B
100
AcDbEntity
  8
0
  6
Continuous
 62
     0
370
    30
100
AcDbLine
 10
226.441187
 20
307.12273
 30
0.0
 11
227.934058
 21
307.13546
 31
0.0
  0
LINE
  5
80
330
7B
100
AcDbEntity
  8
0
  6
Continuous
 62
     0
370
    30
100
AcDbLine
 10
227.934058
 20
307.13546
 30
0.0
 11
227.866279
 21
307.195835
 31
0.0
  0
LINE
  5
81
330
7B
100
AcDbEntity
  8
0
  6
Continuous
 62
     0
370
    30
100
AcDbLine
 10
228.232632
 20
307.138007
 30
0.0
 11
228.232632
 21
307.206075
 31
0.0
  0
LINE
  5
82
330
7B
100
AcDbEntity
  8
0
  6
Continuous
 62
     0
370
    30
100
AcDbLine
 10
228.158397
 20
307.204133
 30
0.0
 11
228.232632
 21
307.138007
 31
0.0
  0
LINE
  5
83
330
7B
100
AcDbEntity
  8
0
  6
Continuous
 62
     0
370
    30
100
AcDbLine
 10
228.232632
 20
307.138007
 30
0.0
 11
229.725503
 21
307.150737
 31
0.0
  0
LINE
  5
84
330
7B
100
AcDbEntity
  8
0
  6
Continuous
 62
     0
370
    30
100
AcDbLine
 10
229.725503
 20
307.150737
 30
0.0
 11
229.635532
 21
307.230881
 31
0.0
  0
LINE
  5
85
330
7B
100
AcDbEntity
  8
0
  6
Continuous
 62
     0
370
    30
100
AcDbLine
 10
230.024077
 20
307.153283
 30
0.0
 11
230.024077
 21
307.233925
 31
0.0
  0
LINE
  5
86
330
7B
100
AcDbEntity
  8
0
  6
Continuous
 62
     0
370
    30
100
AcDbLine
 10
229.934177
 20
307.233364
 30
0.0
 11
230.024077
 21
307.153283
 31
0.0
  0
LINE
  5
87
330
7B
100
AcDbEntity
  8
0
  6
Continuous
 62
     0
370
    30
100
AcDbLine
 10
230.024077
 20
307.153283
 30
0.0
 11
231.516949
 21
307.166014
 31
0.0
  0
LINE
  5
88
330
7B
100
AcDbEntity
  8
0
  6
Continuous
 62
     0
370
    30
100
AcDbLine
 10
231.516949
 20
307.166014
 30
0.0
 11
231.443509
 21
307.231432
 31
0.0
  0
LINE
  5
89
330
7B
100
AcDbEntity
  8
0
  6
Continuous
 62
     0
370
    30
100
AcDbLine
 10
231.815523
 20
307.16856
 30
0.0
 11
231.815523
 21
307.227224
 31
0.0
  0
LINE
  5
8A
330
7B
100
AcDbEntity
  8
0
  6
Continuous
 62
     0
370
    30
100
AcDbLine
 10
231.748692
 20
307.228091
 30
0.0
 11
231.815523
 21
307.16856
 31
0.0
  0
LINE
  5
8B
330
7B
100
AcDbEntity
  8
0
  6
Continuous
 62
     0
370
    30
100
AcDbLine
 10
231.815523
 20
307.16856
 30
0.0
 11
233.308394
 21
307.181291
 31
0.0
  0
LINE
  5
8C
330
7B
100
AcDbEntity
  8
0
  6
Continuous
 62
     0
370
    30
100
AcDbLine
 10
233.308394
 20
307.181291
 30
0.0
 11
233.292841
 21
307.195145
 31
0.0
  0
LINE
  5
8D
330
7B
100
AcDbEntity
  8
0
  6
Continuous
 62
     0
370
    30
100
AcDbLine
 10
223.9326
 20
306.943708
 30
0.0
 11
224.526448
 21
306.948772
 31
0.0
  0
LINE
  5
8E
330
7B
100
AcDbEntity
  8
0
  6
Continuous
 62
     0
370
    30
100
AcDbLine
 10
224.526448
 20
306.948772
 30
0.0
 11
224.468296
 21
307.000572
 31
0.0
  0
LINE
  5
8F
330
7B
100
AcDbEntity
  8
0
  6
Continuous
 62
     0
370
    30
100
AcDbLine
 10
224.825022
 20
306.951318
 30
0.0
 11
224.825022
 21
307.032653
 31
0.0
  0
LINE
  5
90
330
7B
100
AcDbEntity
  8
0
  6
Continuous
 62
     0
370
    30
100
AcDbLine
 10
224.741729
 20
307.025514
 30
0.0
 11
224.825022
 21
306.951318
 31
0.0
  0
LINE
  5
91
330
7B
100
AcDbEntity
  8
0
  6
Continuous
 62
     0
370
    30
100
AcDbLine
 10
224.825022
 20
306.951318
 30
0.0
 11
226.317893
 21
306.964049
 31
0.0
  0
LINE
  5
92
330
7B
100
AcDbEntity
  8
0
  6
Continuous
 62
     0
370
    30
100
AcDbLine
 10
226.317893
 20
306.964049
 30
0.0
 11
226.171826
 21
307.094161
 31
0.0
  0
LINE
  5
93
330
7B
100
AcDbEntity
  8
0
  6
Continuous
 62
     0
370
    30
100
AcDbLine
 10
226.171826
 20
307.094161
 30
0.0
 11
225.579006
 21
307.089106
 31
0.0
  0
LINE
  5
94
330
7B
100
AcDbEntity
  8
0
  6
Continuous
 62
     0
370
    30
100
AcDbLine
 10
226.616467
 20
306.966595
 30
0.0
 11
226.616467
 21
307.097953
 31
0.0
  0
LINE
  5
95
330
7B
100
AcDbEntity
  8
0
  6
Continuous
 62
     0
370
    30
100
AcDbLine
 10
226.4704
 20
307.096707
 30
0.0
 11
226.616467
 21
306.966595
 31
0.0
  0
LINE
  5
96
330
7B
100
AcDbEntity
  8
0
  6
Continuous
 62
     0
370
    30
100
AcDbLine
 10
226.616467
 20
306.966595
 30
0.0
 11
228.109338
 21
306.979326
 31
0.0
  0
LINE
  5
97
330
7B
100
AcDbEntity
  8
0
  6
Continuous
 62
     0
370
    30
100
AcDbLine
 10
228.109338
 20
306.979326
 30
0.0
 11
227.963271
 21
307.109438
 31
0.0
  0
LINE
  5
98
330
7B
100
AcDbEntity
  8
0
  6
Continuous
 62
     0
370
    30
100
AcDbLine
 10
227.963271
 20
307.109438
 30
0.0
 11
226.4704
 21
307.096707
 31
0.0
  0
LINE
  5
99
330
7B
100
AcDbEntity
  8
0
  6
Continuous
 62
     0
370
    30
100
AcDbLine
 10
228.407913
 20
306.981872
 30
0.0
 11
228.407913
 21
307.11323
 31
0.0
  0
LINE
  5
9A
330
7B
100
AcDbEntity
  8
0
  6
Continuous
 62
     0
370
    30
100
AcDbLine
 10
228.261845
 20
307.111984
 30
0.0
 11
228.407913
 21
306.981872
 31
0.0
  0
LINE
  5
9B
330
7B
100
AcDbEntity
  8
0
  6
Continuous
 62
     0
370
    30
100
AcDbLine
 10
228.407913
 20
306.981872
 30
0.0
 11
229.900784
 21
306.994602
 31
0.0
  0
LINE
  5
9C
330
7B
100
AcDbEntity
  8
0
  6
Continuous
 62
     0
370
    30
100
AcDbLine
 10
229.900784
 20
306.994602
 30
0.0
 11
229.754717
 21
307.124715
 31
0.0
  0
LINE
  5
9D
330
7B
100
AcDbEntity
  8
0
  6
Continuous
 62
     0
370
    30
100
AcDbLine
 10
229.754717
 20
307.124715
 30
0.0
 11
228.261845
 21
307.111984
 31
0.0
  0
LINE
  5
9E
330
7B
100
AcDbEntity
  8
0
  6
Continuous
 62
     0
370
    30
100
AcDbLine
 10
230.199358
 20
306.997149
 30
0.0
 11
230.199358
 21
307.128506
 31
0.0
  0
LINE
  5
9F
330
7B
100
AcDbEntity
  8
0
  6
Continuous
 62
     0
370
    30
100
AcDbLine
 10
230.053291
 20
307.127261
 30
0.0
 11
230.199358
 21
306.997149
 31
0.0
  0
LINE
  5
A0
330
7B
100
AcDbEntity
  8
0
  6
Continuous
 62
     0
370
    30
100
AcDbLine
 10
230.199358
 20
306.997149
 30
0.0
 11
231.692229
 21
307.009879
 31
0.0
  0
LINE
  5
A1
330
7B
100
AcDbEntity
  8
0
  6
Continuous
 62
     0
370
    30
100
AcDbLine
 10
231.692229
 20
307.009879
 30
0.0
 11
231.546162
 21
307.139991
 31
0.0
  0
LINE
  5
A2
330
7B
100
AcDbEntity
  8
0
  6
Continuous
 62
     0
370
    30
100
AcDbLine
 10
231.546162
 20
307.139991
 30
0.0
 11
230.053291
 21
307.127261
 31
0.0
  0
LINE
  5
A3
330
7B
100
AcDbEntity
  8
0
  6
Continuous
 62
     0
370
    30
100
AcDbLine
 10
231.990804
 20
307.012425
 30
0.0
 11
231.990804
 21
307.143783
 31
0.0
  0
LINE
  5
A4
330
7B
100
AcDbEntity
  8
0
  6
Continuous
 62
     0
370
    30
100
AcDbLine
 10
231.844736
 20
307.142538
 30
0.0
 11
231.990804
 21
307.012425
 31
0.0
  0
LINE
  5
A5
330
7B
100
AcDbEntity
  8
0
  6
Continuous
 62
     0
370
    30
100
AcDbLine
 10
231.990804
 20
307.012425
 30
0.0
 11
233.483675
 21
307.025156
 31
0.0
  0
LINE
  5
A6
330
7B
100
AcDbEntity
  8
0
  6
Continuous
 62
     0
370
    30
100
AcDbLine
 10
233.483675
 20
307.025156
 30
0.0
 11
233.337608
 21
307.155268
 31
0.0
  0
LINE
  5
A7
330
7B
100
AcDbEntity
  8
0
  6
Continuous
 62
     0
370
    30
100
AcDbLine
 10
233.337608
 20
307.155268
 30
0.0
 11
231.844736
 21
307.142538
 31
0.0
  0
LINE
  5
A8
330
7B
100
AcDbEntity
  8
0
  6
Continuous
 62
     0
370
    30
100
AcDbLine
 10
233.782249
 20
307.027702
 30
0.0
 11
233.782249
 21
307.15906
 31
0.0
  0
LINE
  5
A9
330
7B
100
AcDbEntity
  8
0
  6
Continuous
 62
     0
370
    30
100
AcDbLine
 10
233.636182
 20
307.157814
 30
0.0
 11
233.782249
 21
307.027702
 31
0.0
  0
LINE
  5
AA
330
7B
100
AcDbEntity
  8
0
  6
Continuous
 62
     0
370
    30
100
AcDbLine
 10
233.782249
 20
307.027702
 30
0.0
 11
235.27512
 21
307.040433
 31
0.0
  0
LINE
  5
AB
330
7B
100
AcDbEntity
  8
0
  6
Continuous
 62
     0
370
    30
100
AcDbLine
 10
235.27512
 20
307.040433
 30
0.0
 11
235.19504
 21
307.111765
 31
0.0
  0
LINE
  5
AC
330
7B
100
AcDbEntity
  8
0
  6
Continuous
 62
     0
370
    30
100
AcDbLine
 10
234.189191
 20
307.16253
 30
0.0
 11
233.636182
 21
307.157814
 31
0.0
  0
LINE
  5
AD
330
7B
100
AcDbEntity
  8
0
  6
Continuous
 62
     0
370
    30
100
AcDbLine
 10
235.573694
 20
307.042979
 30
0.0
 11
235.573694
 21
307.088022
 31
0.0
  0
LINE
  5
AE
330
7B
100
AcDbEntity
  8
0
  6
Continuous
 62
     0
370
    30
100
AcDbLine
 10
235.519085
 20
307.091623
 30
0.0
 11
235.573694
 21
307.042979
 31
0.0
  0
LINE
  5
AF
330
7B
100
AcDbEntity
  8
0
  6
Continuous
 62
     0
370
    30
100
AcDbLine
 10
235.573694
 20
307.042979
 30
0.0
 11
236.127732
 21
307.047703
 31
0.0
  0
LINE
  5
B0
330
7B
100
AcDbEntity
  8
0
  6
Continuous
 62
     0
370
    30
100
AcDbLine
 10
222.8793
 20
306.777097
 30
0.0
 11
222.910283
 21
306.777361
 31
0.0
  0
LINE
  5
B1
330
7B
100
AcDbEntity
  8
0
  6
Continuous
 62
     0
370
    30
100
AcDbLine
 10
223.208857
 20
306.779907
 30
0.0
 11
223.208857
 21
306.841425
 31
0.0
  0
LINE
  5
B2
330
7B
100
AcDbEntity
  8
0
  6
Continuous
 62
     0
370
    30
100
AcDbLine
 10
223.151159
 20
306.831303
 30
0.0
 11
223.208857
 21
306.779907
 31
0.0
  0
LINE
  5
B3
330
7B
100
AcDbEntity
  8
0
  6
Continuous
 62
     0
370
    30
100
AcDbLine
 10
223.208857
 20
306.779907
 30
0.0
 11
224.701728
 21
306.792638
 31
0.0
  0
LINE
  5
B4
330
7B
100
AcDbEntity
  8
0
  6
Continuous
 62
     0
370
    30
100
AcDbLine
 10
224.701728
 20
306.792638
 30
0.0
 11
224.555661
 21
306.92275
 31
0.0
  0
LINE
  5
B5
330
7B
100
AcDbEntity
  8
0
  6
Continuous
 62
     0
370
    30
100
AcDbLine
 10
224.555661
 20
306.92275
 30
0.0
 11
223.705268
 21
306.915498
 31
0.0
  0
LINE
  5
B6
330
7B
100
AcDbEntity
  8
0
  6
Continuous
 62
     0
370
    30
100
AcDbLine
 10
225.000302
 20
306.795184
 30
0.0
 11
225.000302
 21
306.926542
 31
0.0
  0
LINE
  5
B7
330
7B
100
AcDbEntity
  8
0
  6
Continuous
 62
     0
370
    30
100
AcDbLine
 10
224.854235
 20
306.925296
 30
0.0
 11
225.000302
 21
306.795184
 31
0.0
  0
LINE
  5
B8
330
7B
100
AcDbEntity
  8
0
  6
Continuous
 62
     0
370
    30
100
AcDbLine
 10
225.000302
 20
306.795184
 30
0.0
 11
226.493174
 21
306.807914
 31
0.0
  0
LINE
  5
B9
330
7B
100
AcDbEntity
  8
0
  6
Continuous
 62
     0
370
    30
100
AcDbLine
 10
226.493174
 20
306.807914
 30
0.0
 11
226.347106
 21
306.938027
 31
0.0
  0
LINE
  5
BA
330
7B
100
AcDbEntity
  8
0
  6
Continuous
 62
     0
370
    30
100
AcDbLine
 10
226.347106
 20
306.938027
 30
0.0
 11
224.854235
 21
306.925296
 31
0.0
  0
LINE
  5
BB
330
7B
100
AcDbEntity
  8
0
  6
Continuous
 62
     0
370
    30
100
AcDbLine
 10
226.791748
 20
306.81046
 30
0.0
 11
226.791748
 21
306.941818
 31
0.0
  0
LINE
  5
BC
330
7B
100
AcDbEntity
  8
0
  6
Continuous
 62
     0
370
    30
100
AcDbLine
 10
226.645681
 20
306.940573
 30
0.0
 11
226.791748
 21
306.81046
 31
0.0
  0
LINE
  5
BD
330
7B
100
AcDbEntity
  8
0
  6
Continuous
 62
     0
370
    30
100
AcDbLine
 10
226.791748
 20
306.81046
 30
0.0
 11
228.284619
 21
306.823191
 31
0.0
  0
LINE
  5
BE
330
7B
100
AcDbEntity
  8
0
  6
Continuous
 62
     0
370
    30
100
AcDbLine
 10
228.284619
 20
306.823191
 30
0.0
 11
228.138552
 21
306.953303
 31
0.0
  0
LINE
  5
BF
330
7B
100
AcDbEntity
  8
0
  6
Continuous
 62
     0
370
    30
100
AcDbLine
 10
228.138552
 20
306.953303
 30
0.0
 11
226.645681
 21
306.940573
 31
0.0
  0
LINE
  5
C0
330
7B
100
AcDbEntity
  8
0
  6
Continuous
 62
     0
370
    30
100
AcDbLine
 10
228.583193
 20
306.825737
 30
0.0
 11
228.583193
 21
306.957095
 31
0.0
  0
LINE
  5
C1
330
7B
100
AcDbEntity
  8
0
  6
Continuous
 62
     0
370
    30
100
AcDbLine
 10
228.437126
 20
306.955849
 30
0.0
 11
228.583193
 21
306.825737
 31
0.0
  0
LINE
  5
C2
330
7B
100
AcDbEntity
  8
0
  6
Continuous
 62
     0
370
    30
100
AcDbLine
 10
228.583193
 20
306.825737
 30
0.0
 11
230.076064
 21
306.838468
 31
0.0
  0
LINE
  5
C3
330
7B
100
AcDbEntity
  8
0
  6
Continuous
 62
     0
370
    30
100
AcDbLine
 10
230.076064
 20
306.838468
 30
0.0
 11
229.929997
 21
306.96858
 31
0.0
  0
LINE
  5
C4
330
7B
100
AcDbEntity
  8
0
  6
Continuous
 62
     0
370
    30
100
AcDbLine
 10
229.929997
 20
306.96858
 30
0.0
 11
228.437126
 21
306.955849
 31
0.0
  0
LINE
  5
C5
330
7B
100
AcDbEntity
  8
0
  6
Continuous
 62
     0
370
    30
100
AcDbLine
 10
230.374639
 20
306.841014
 30
0.0
 11
230.374639
 21
306.972372
 31
0.0
  0
LINE
  5
C6
330
7B
100
AcDbEntity
  8
0
  6
Continuous
 62
     0
370
    30
100
AcDbLine
 10
230.228572
 20
306.971126
 30
0.0
 11
230.374639
 21
306.841014
 31
0.0
  0
LINE
  5
C7
330
7B
100
AcDbEntity
  8
0
  6
Continuous
 62
     0
370
    30
100
AcDbLine
 10
230.374639
 20
306.841014
 30
0.0
 11
231.86751
 21
306.853744
 31
0.0
  0
LINE
  5
C8
330
7B
100
AcDbEntity
  8
0
  6
Continuous
 62
     0
370
    30
100
AcDbLine
 10
231.86751
 20
306.853744
 30
0.0
 11
231.721443
 21
306.983857
 31
0.0
  0
LINE
  5
C9
330
7B
100
AcDbEntity
  8
0
  6
Continuous
 62
     0
370
    30
100
AcDbLine
 10
231.721443
 20
306.983857
 30
0.0
 11
230.228572
 21
306.971126
 31
0.0
  0
LINE
  5
CA
330
7B
100
AcDbEntity
  8
0
  6
Continuous
 62
     0
370
    30
100
AcDbLine
 10
232.166084
 20
306.856291
 30
0.0
 11
232.166084
 21
306.987648
 31
0.0
  0
LINE
  5
CB
330
7B
100
AcDbEntity
  8
0
  6
Continuous
 62
     0
370
    30
100
AcDbLine
 10
232.020017
 20
306.986403
 30
0.0
 11
232.166084
 21
306.856291
 31
0.0
  0
LINE
  5
CC
330
7B
100
AcDbEntity
  8
0
  6
Continuous
 62
     0
370
    30
100
AcDbLine
 10
232.166084
 20
306.856291
 30
0.0
 11
233.658955
 21
306.869021
 31
0.0
  0
LINE
  5
CD
330
7B
100
AcDbEntity
  8
0
  6
Continuous
 62
     0
370
    30
100
AcDbLine
 10
233.658955
 20
306.869021
 30
0.0
 11
233.512888
 21
306.999133
 31
0.0
  0
LINE
  5
CE
330
7B
100
AcDbEntity
  8
0
  6
Continuous
 62
     0
370
    30
100
AcDbLine
 10
233.512888
 20
306.999133
 30
0.0
 11
232.020017
 21
306.986403
 31
0.0
  0
LINE
  5
CF
330
7B
100
AcDbEntity
  8
0
  6
Continuous
 62
     0
370
    30
100
AcDbLine
 10
233.95753
 20
306.871567
 30
0.0
 11
233.95753
 21
307.002925
 31
0.0
  0
LINE
  5
D0
330
7B
100
AcDbEntity
  8
0
  6
Continuous
 62
     0
370
    30
100
AcDbLine
 10
233.811462
 20
307.00168
 30
0.0
 11
233.95753
 21
306.871567
 31
0.0
  0
LINE
  5
D1
330
7B
100
AcDbEntity
  8
0
  6
Continuous
 62
     0
370
    30
100
AcDbLine
 10
233.95753
 20
306.871567
 30
0.0
 11
235.450401
 21
306.884298
 31
0.0
  0
LINE
  5
D2
330
7B
100
AcDbEntity
  8
0
  6
Continuous
 62
     0
370
    30
100
AcDbLine
 10
235.450401
 20
306.884298
 30
0.0
 11
235.304334
 21
307.01441
 31
0.0
  0
LINE
  5
D3
330
7B
100
AcDbEntity
  8
0
  6
Continuous
 62
     0
370
    30
100
AcDbLine
 10
235.304334
 20
307.01441
 30
0.0
 11
233.811462
 21
307.00168
 31
0.0
  0
LINE
  5
D4
330
7B
100
AcDbEntity
  8
0
  6
Continuous
 62
     0
370
    30
100
AcDbLine
 10
235.748975
 20
306.886844
 30
0.0
 11
235.748975
 21
307.018202
 31
0.0
  0
LINE
  5
D5
330
7B
100
AcDbEntity
  8
0
  6
Continuous
 62
     0
370
    30
100
AcDbLine
 10
235.602908
 20
307.016956
 30
0.0
 11
235.748975
 21
306.886844
 31
0.0
  0
LINE
  5
D6
330
7B
100
AcDbEntity
  8
0
  6
Continuous
 62
     0
370
    30
100
AcDbLine
 10
235.748975
 20
306.886844
 30
0.0
 11
237.241846
 21
306.899575
 31
0.0
  0
LINE
  5
D7
330
7B
100
AcDbEntity
  8
0
  6
Continuous
 62
     0
370
    30
100
AcDbLine
 10
237.241846
 20
306.899575
 30
0.0
 11
237.190557
 21
306.945262
 31
0.0
  0
LINE
  5
D8
330
7B
100
AcDbEntity
  8
0
  6
Continuous
 62
     0
370
    30
100
AcDbLine
 10
236.413491
 20
307.023869
 30
0.0
 11
235.602908
 21
307.016956
 31
0.0
  0
LINE
  5
D9
330
7B
100
AcDbEntity
  8
0
  6
Continuous
 62
     0
370
    30
100
AcDbLine
 10
222.396619
 20
306.615351
 30
0.0
 11
223.085563
 21
306.621226
 31
0.0
  0
LINE
  5
DA
330
7B
100
AcDbEntity
  8
0
  6
Continuous
 62
     0
370
    30
100
AcDbLine
 10
223.085563
 20
306.621226
 30
0.0
 11
222.939496
 21
306.751338
 31
0.0
  0
LINE
  5
DB
330
7B
100
AcDbEntity
  8
0
  6
Continuous
 62
     0
370
    30
100
AcDbLine
 10
222.939496
 20
306.751338
 30
0.0
 11
222.764915
 21
306.74985
 31
0.0
  0
LINE
  5
DC
330
7B
100
AcDbEntity
  8
0
  6
Continuous
 62
     0
370
    30
100
AcDbLine
 10
223.384138
 20
306.623772
 30
0.0
 11
223.384138
 21
306.75513
 31
0.0
  0
LINE
  5
DD
330
7B
100
AcDbEntity
  8
0
  6
Continuous
 62
     0
370
    30
100
AcDbLine
 10
223.23807
 20
306.753884
 30
0.0
 11
223.384138
 21
306.623772
 31
0.0
  0
LINE
  5
DE
330
7B
100
AcDbEntity
  8
0
  6
Continuous
 62
     0
370
    30
100
AcDbLine
 10
223.384138
 20
306.623772
 30
0.0
 11
224.877009
 21
306.636503
 31
0.0
  0
LINE
  5
DF
330
7B
100
AcDbEntity
  8
0
  6
Continuous
 62
     0
370
    30
100
AcDbLine
 10
224.877009
 20
306.636503
 30
0.0
 11
224.730942
 21
306.766615
 31
0.0
  0
LINE
  5
E0
330
7B
100
AcDbEntity
  8
0
  6
Continuous
 62
     0
370
    30
100
AcDbLine
 10
224.730942
 20
306.766615
 30
0.0
 11
223.23807
 21
306.753884
 31
0.0
  0
LINE
  5
E1
330
7B
100
AcDbEntity
  8
0
  6
Continuous
 62
     0
370
    30
100
AcDbLine
 10
225.175583
 20
306.639049
 30
0.0
 11
225.175583
 21
306.770407
 31
0.0
  0
LINE
  5
E2
330
7B
100
AcDbEntity
  8
0
  6
Continuous
 62
     0
370
    30
100
AcDbLine
 10
225.029516
 20
306.769161
 30
0.0
 11
225.175583
 21
306.639049
 31
0.0
  0
LINE
  5
E3
330
7B
100
AcDbEntity
  8
0
  6
Continuous
 62
     0
370
    30
100
AcDbLine
 10
225.175583
 20
306.639049
 30
0.0
 11
226.668454
 21
306.65178
 31
0.0
  0
LINE
  5
E4
330
7B
100
AcDbEntity
  8
0
  6
Continuous
 62
     0
370
    30
100
AcDbLine
 10
226.668454
 20
306.65178
 30
0.0
 11
226.522387
 21
306.781892
 31
0.0
  0
LINE
  5
E5
330
7B
100
AcDbEntity
  8
0
  6
Continuous
 62
     0
370
    30
100
AcDbLine
 10
226.522387
 20
306.781892
 30
0.0
 11
225.029516
 21
306.769161
 31
0.0
  0
LINE
  5
E6
330
7B
100
AcDbEntity
  8
0
  6
Continuous
 62
     0
370
    30
100
AcDbLine
 10
226.967028
 20
306.654326
 30
0.0
 11
226.967028
 21
306.785684
 31
0.0
  0
LINE
  5
E7
330
7B
100
AcDbEntity
  8
0
  6
Continuous
 62
     0
370
    30
100
AcDbLine
 10
226.820961
 20
306.784438
 30
0.0
 11
226.967028
 21
306.654326
 31
0.0
  0
LINE
  5
E8
330
7B
100
AcDbEntity
  8
0
  6
Continuous
 62
     0
370
    30
100
AcDbLine
 10
226.967028
 20
306.654326
 30
0.0
 11
228.4599
 21
306.667056
 31
0.0
  0
LINE
  5
E9
330
7B
100
AcDbEntity
  8
0
  6
Continuous
 62
     0
370
    30
100
AcDbLine
 10
228.4599
 20
306.667056
 30
0.0
 11
228.313832
 21
306.797169
 31
0.0
  0
LINE
  5
EA
330
7B
100
AcDbEntity
  8
0
  6
Continuous
 62
     0
370
    30
100
AcDbLine
 10
228.313832
 20
306.797169
 30
0.0
 11
226.820961
 21
306.784438
 31
0.0
  0
LINE
  5
EB
330
7B
100
AcDbEntity
  8
0
  6
Continuous
 62
     0
370
    30
100
AcDbLine
 10
228.758474
 20
306.669602
 30
0.0
 11
228.758474
 21
306.80096
 31
0.0
  0
LINE
  5
EC
330
7B
100
AcDbEntity
  8
0
  6
Continuous
 62
     0
370
    30
100
AcDbLine
 10
228.612407
 20
306.799715
 30
0.0
 11
228.758474
 21
306.669602
 31
0.0
  0
LINE
  5
ED
330
7B
100
AcDbEntity
  8
0
  6
Continuous
 62
     0
370
    30
100
AcDbLine
 10
228.758474
 20
306.669602
 30
0.0
 11
230.251345
 21
306.682333
 31
0.0
  0
LINE
  5
EE
330
7B
100
AcDbEntity
  8
0
  6
Continuous
 62
     0
370
    30
100
AcDbLine
 10
230.251345
 20
306.682333
 30
0.0
 11
230.105278
 21
306.812445
 31
0.0
  0
LINE
  5
EF
330
7B
100
AcDbEntity
  8
0
  6
Continuous
 62
     0
370
    30
100
AcDbLine
 10
230.105278
 20
306.812445
 30
0.0
 11
228.612407
 21
306.799715
 31
0.0
  0
LINE
  5
F0
330
7B
100
AcDbEntity
  8
0
  6
Continuous
 62
     0
370
    30
100
AcDbLine
 10
230.549919
 20
306.684879
 30
0.0
 11
230.549919
 21
306.816237
 31
0.0
  0
LINE
  5
F1
330
7B
100
AcDbEntity
  8
0
  6
Continuous
 62
     0
370
    30
100
AcDbLine
 10
230.403852
 20
306.814991
 30
0.0
 11
230.549919
 21
306.684879
 31
0.0
  0
LINE
  5
F2
330
7B
100
AcDbEntity
  8
0
  6
Continuous
 62
     0
370
    30
100
AcDbLine
 10
230.549919
 20
306.684879
 30
0.0
 11
232.04279
 21
306.69761
 31
0.0
  0
LINE
  5
F3
330
7B
100
AcDbEntity
  8
0
  6
Continuous
 62
     0
370
    30
100
AcDbLine
 10
232.04279
 20
306.69761
 30
0.0
 11
231.896723
 21
306.827722
 31
0.0
  0
LINE
  5
F4
330
7B
100
AcDbEntity
  8
0
  6
Continuous
 62
     0
370
    30
100
AcDbLine
 10
231.896723
 20
306.827722
 30
0.0
 11
230.403852
 21
306.814991
 31
0.0
  0
LINE
  5
F5
330
7B
100
AcDbEntity
  8
0
  6
Continuous
 62
     0
370
    30
100
AcDbLine
 10
232.341365
 20
306.700156
 30
0.0
 11
232.341365
 21
306.831514
 31
0.0
  0
LINE
  5
F6
330
7B
100
AcDbEntity
  8
0
  6
Continuous
 62
     0
370
    30
100
AcDbLine
 10
232.195298
 20
306.830268
 30
0.0
 11
232.341365
 21
306.700156
 31
0.0
  0
LINE
  5
F7
330
7B
100
AcDbEntity
  8
0
  6
Continuous
 62
     0
370
    30
100
AcDbLine
 10
232.341365
 20
306.700156
 30
0.0
 11
233.834236
 21
306.712886
 31
0.0
  0
LINE
  5
F8
330
7B
100
AcDbEntity
  8
0
  6
Continuous
 62
     0
370
    30
100
AcDbLine
 10
233.834236
 20
306.712886
 30
0.0
 11
233.688169
 21
306.842999
 31
0.0
  0
LINE
  5
F9
330
7B
100
AcDbEntity
  8
0
  6
Continuous
 62
     0
370
    30
100
AcDbLine
 10
233.688169
 20
306.842999
 30
0.0
 11
232.195298
 21
306.830268
 31
0.0
  0
LINE
  5
FA
330
7B
100
AcDbEntity
  8
0
  6
Continuous
 62
     0
370
    30
100
AcDbLine
 10
234.13281
 20
306.715432
 30
0.0
 11
234.13281
 21
306.84679
 31
0.0
  0
LINE
  5
FB
330
7B
100
AcDbEntity
  8
0
  6
Continuous
 62
     0
370
    30
100
AcDbLine
 10
233.986743
 20
306.845545
 30
0.0
 11
234.13281
 21
306.715432
 31
0.0
  0
LINE
  5
FC
330
7B
100
AcDbEntity
  8
0
  6
Continuous
 62
     0
370
    30
100
AcDbLine
 10
234.13281
 20
306.715432
 30
0.0
 11
235.625681
 21
306.728163
 31
0.0
  0
LINE
  5
FD
330
7B
100
AcDbEntity
  8
0
  6
Continuous
 62
     0
370
    30
100
AcDbLine
 10
235.625681
 20
306.728163
 30
0.0
 11
235.479614
 21
306.858275
 31
0.0
  0
LINE
  5
FE
330
7B
100
AcDbEntity
  8
0
  6
Continuous
 62
     0
370
    30
100
AcDbLine
 10
235.479614
 20
306.858275
 30
0.0
 11
233.986743
 21
306.845545
 31
0.0
  0
LINE
  5
FF
330
7B
100
AcDbEntity
  8
0
  6
Continuous
 62
     0
370
    30
100
AcDbLine
 10
235.924256
 20
306.730709
 30
0.0
 11
235.924256
 21
306.862067
 31
0.0
  0
LINE
  5
100
330
7B
100
AcDbEntity
  8
0
  6
Continuous
 62
     0
370
    30
100
AcDbLine
 10
235.778188
 20
306.860821
 30
0.0
 11
235.924256
 21
306.730709
 31
0.0
  0
LINE
  5
101
330
7B
100
AcDbEntity
  8
0
  6
Continuous
 62
     0
370
    30
100
AcDbLine
 10
235.924256
 20
306.730709
 30
0.0
 11
237.417127
 21
306.74344
 31
0.0
  0
LINE
  5
102
330
7B
100
AcDbEntity
  8
0
  6
Continuous
 62
     0
370
    30
100
AcDbLine
 10
237.417127
 20
306.74344
 30
0.0
 11
237.27106
 21
306.873552
 31
0.0
  0
LINE
  5
103
330
7B
100
AcDbEntity
  8
0
  6
Continuous
 62
     0
370
    30
100
AcDbLine
 10
237.27106
 20
306.873552
 30
0.0
 11
235.778188
 21
306.860821
 31
0.0
  0
LINE
  5
104
330
7B
100
AcDbEntity
  8
0
  6
Continuous
 62
     0
370
    30
100
AcDbLine
 10
237.715701
 20
306.745986
 30
0.0
 11
237.715701
 21
306.875545
 31
0.0
  0
LINE
  5
105
330
7B
100
AcDbEntity
  8
0
  6
Continuous
 62
     0
370
    30
100
AcDbLine
 10
237.569634
 20
306.876098
 30
0.0
 11
237.715701
 21
306.745986
 31
0.0
  0
LINE
  5
106
330
7B
100
AcDbEntity
  8
0
  6
Continuous
 62
     0
370
    30
100
AcDbLine
 10
237.715701
 20
306.745986
 30
0.0
 11
238.364836
 21
306.751521
 31
0.0
  0
LINE
  5
107
330
7B
100
AcDbEntity
  8
0
  6
Continuous
 62
     0
370
    30
100
AcDbLine
 10
237.704405
 20
306.877247
 30
0.0
 11
237.569634
 21
306.876098
 31
0.0
  0
LINE
  5
108
330
7B
100
AcDbEntity
  8
0
  6
Continuous
 62
     0
370
    30
100
AcDbLine
 10
222.346197
 20
306.575626
 30
0.0
 11
222.346197
 21
306.457292
 31
0.0
  0
LINE
  5
109
330
7B
100
AcDbEntity
  8
0
  6
Continuous
 62
     0
370
    30
100
AcDbLine
 10
222.346197
 20
306.457292
 30
0.0
 11
223.260844
 21
306.465091
 31
0.0
  0
LINE
  5
10A
330
7B
100
AcDbEntity
  8
0
  6
Continuous
 62
     0
370
    30
100
AcDbLine
 10
223.260844
 20
306.465091
 30
0.0
 11
223.114777
 21
306.595204
 31
0.0
  0
LINE
  5
10B
330
7B
100
AcDbEntity
  8
0
  6
Continuous
 62
     0
370
    30
100
AcDbLine
 10
223.114777
 20
306.595204
 30
0.0
 11
222.36004
 21
306.588768
 31
0.0
  0
LINE
  5
10C
330
7B
100
AcDbEntity
  8
0
  6
Continuous
 62
     0
370
    30
100
AcDbLine
 10
223.559418
 20
306.467637
 30
0.0
 11
223.559418
 21
306.598995
 31
0.0
  0
LINE
  5
10D
330
7B
100
AcDbEntity
  8
0
  6
Continuous
 62
     0
370
    30
100
AcDbLine
 10
223.413351
 20
306.59775
 30
0.0
 11
223.559418
 21
306.467637
 31
0.0
  0
LINE
  5
10E
330
7B
100
AcDbEntity
  8
0
  6
Continuous
 62
     0
370
    30
100
AcDbLine
 10
223.559418
 20
306.467637
 30
0.0
 11
225.052289
 21
306.480368
 31
0.0
  0
LINE
  5
10F
330
7B
100
AcDbEntity
  8
0
  6
Continuous
 62
     0
370
    30
100
AcDbLine
 10
225.052289
 20
306.480368
 30
0.0
 11
224.906222
 21
306.61048
 31
0.0
  0
LINE
  5
110
330
7B
100
AcDbEntity
  8
0
  6
Continuous
 62
     0
370
    30
100
AcDbLine
 10
224.906222
 20
306.61048
 30
0.0
 11
223.413351
 21
306.59775
 31
0.0
  0
LINE
  5
111
330
7B
100
AcDbEntity
  8
0
  6
Continuous
 62
     0
370
    30
100
AcDbLine
 10
225.350864
 20
306.482914
 30
0.0
 11
225.350864
 21
306.614272
 31
0.0
  0
LINE
  5
112
330
7B
100
AcDbEntity
  8
0
  6
Continuous
 62
     0
370
    30
100
AcDbLine
 10
225.204796
 20
306.613026
 30
0.0
 11
225.350864
 21
306.482914
 31
0.0
  0
LINE
  5
113
330
7B
100
AcDbEntity
  8
0
  6
Continuous
 62
     0
370
    30
100
AcDbLine
 10
225.350864
 20
306.482914
 30
0.0
 11
226.843735
 21
306.495645
 31
0.0
  0
LINE
  5
114
330
7B
100
AcDbEntity
  8
0
  6
Continuous
 62
     0
370
    30
100
AcDbLine
 10
226.843735
 20
306.495645
 30
0.0
 11
226.697668
 21
306.625757
 31
0.0
  0
LINE
  5
115
330
7B
100
AcDbEntity
  8
0
  6
Continuous
 62
     0
370
    30
100
AcDbLine
 10
226.697668
 20
306.625757
 30
0.0
 11
225.204796
 21
306.613026
 31
0.0
  0
LINE
  5
116
330
7B
100
AcDbEntity
  8
0
  6
Continuous
 62
     0
370
    30
100
AcDbLine
 10
227.142309
 20
306.498191
 30
0.0
 11
227.142309
 21
306.629549
 31
0.0
  0
LINE
  5
117
330
7B
100
AcDbEntity
  8
0
  6
Continuous
 62
     0
370
    30
100
AcDbLine
 10
226.996242
 20
306.628303
 30
0.0
 11
227.142309
 21
306.498191
 31
0.0
  0
LINE
  5
118
330
7B
100
AcDbEntity
  8
0
  6
Continuous
 62
     0
370
    30
100
AcDbLine
 10
227.142309
 20
306.498191
 30
0.0
 11
228.63518
 21
306.510921
 31
0.0
  0
LINE
  5
119
330
7B
100
AcDbEntity
  8
0
  6
Continuous
 62
     0
370
    30
100
AcDbLine
 10
228.63518
 20
306.510921
 30
0.0
 11
228.489113
 21
306.641034
 31
0.0
  0
LINE
  5
11A
330
7B
100
AcDbEntity
  8
0
  6
Continuous
 62
     0
370
    30
100
AcDbLine
 10
228.489113
 20
306.641034
 30
0.0
 11
226.996242
 21
306.628303
 31
0.0
  0
LINE
  5
11B
330
7B
100
AcDbEntity
  8
0
  6
Continuous
 62
     0
370
    30
100
AcDbLine
 10
228.933754
 20
306.513468
 30
0.0
 11
228.933754
 21
306.644825
 31
0.0
  0
LINE
  5
11C
330
7B
100
AcDbEntity
  8
0
  6
Continuous
 62
     0
370
    30
100
AcDbLine
 10
228.787687
 20
306.64358
 30
0.0
 11
228.933754
 21
306.513468
 31
0.0
  0
LINE
  5
11D
330
7B
100
AcDbEntity
  8
0
  6
Continuous
 62
     0
370
    30
100
AcDbLine
 10
228.933754
 20
306.513468
 30
0.0
 11
230.426626
 21
306.526198
 31
0.0
  0
LINE
  5
11E
330
7B
100
AcDbEntity
  8
0
  6
Continuous
 62
     0
370
    30
100
AcDbLine
 10
230.426626
 20
306.526198
 30
0.0
 11
230.280559
 21
306.65631
 31
0.0
  0
LINE
  5
11F
330
7B
100
AcDbEntity
  8
0
  6
Continuous
 62
     0
370
    30
100
AcDbLine
 10
230.280559
 20
306.65631
 30
0.0
 11
228.787687
 21
306.64358
 31
0.0
  0
LINE
  5
120
330
7B
100
AcDbEntity
  8
0
  6
Continuous
 62
     0
370
    30
100
AcDbLine
 10
230.7252
 20
306.528744
 30
0.0
 11
230.7252
 21
306.660102
 31
0.0
  0
LINE
  5
121
330
7B
100
AcDbEntity
  8
0
  6
Continuous
 62
     0
370
    30
100
AcDbLine
 10
230.579133
 20
306.658857
 30
0.0
 11
230.7252
 21
306.528744
 31
0.0
  0
LINE
  5
122
330
7B
100
AcDbEntity
  8
0
  6
Continuous
 62
     0
370
    30
100
AcDbLine
 10
230.7252
 20
306.528744
 30
0.0
 11
232.218071
 21
306.541475
 31
0.0
  0
LINE
  5
123
330
7B
100
AcDbEntity
  8
0
  6
Continuous
 62
     0
370
    30
100
AcDbLine
 10
232.218071
 20
306.541475
 30
0.0
 11
232.072004
 21
306.671587
 31
0.0
  0
LINE
  5
124
330
7B
100
AcDbEntity
  8
0
  6
Continuous
 62
     0
370
    30
100
AcDbLine
 10
232.072004
 20
306.671587
 30
0.0
 11
230.579133
 21
306.658857
 31
0.0
  0
LINE
  5
125
330
7B
100
AcDbEntity
  8
0
  6
Continuous
 62
     0
370
    30
100
AcDbLine
 10
232.516645
 20
306.544021
 30
0.0
 11
232.516645
 21
306.675379
 31
0.0
  0
LINE
  5
126
330
7B
100
AcDbEntity
  8
0
  6
Continuous
 62
     0
370
    30
100
AcDbLine
 10
232.370578
 20
306.674133
 30
0.0
 11
232.516645
 21
306.544021
 31
0.0
  0
LINE
  5
127
330
7B
100
AcDbEntity
  8
0
  6
Continuous
 62
     0
370
    30
100
AcDbLine
 10
232.516645
 20
306.544021
 30
0.0
 11
234.009517
 21
306.556752
 31
0.0
  0
LINE
  5
128
330
7B
100
AcDbEntity
  8
0
  6
Continuous
 62
     0
370
    30
100
AcDbLine
 10
234.009517
 20
306.556752
 30
0.0
 11
233.863449
 21
306.686864
 31
0.0
  0
LINE
  5
129
330
7B
100
AcDbEntity
  8
0
  6
Continuous
 62
     0
370
    30
100
AcDbLine
 10
233.863449
 20
306.686864
 30
0.0
 11
232.370578
 21
306.674133
 31
0.0
  0
LINE
  5
12A
330
7B
100
AcDbEntity
  8
0
  6
Continuous
 62
     0
370
    30
100
AcDbLine
 10
234.308091
 20
306.559298
 30
0.0
 11
234.308091
 21
306.690656
 31
0.0
  0
LINE
  5
12B
330
7B
100
AcDbEntity
  8
0
  6
Continuous
 62
     0
370
    30
100
AcDbLine
 10
234.162024
 20
306.68941
 30
0.0
 11
234.308091
 21
306.559298
 31
0.0
  0
LINE
  5
12C
330
7B
100
AcDbEntity
  8
0
  6
Continuous
 62
     0
370
    30
100
AcDbLine
 10
234.308091
 20
306.559298
 30
0.0
 11
235.800962
 21
306.572028
 31
0.0
  0
LINE
  5
12D
330
7B
100
AcDbEntity
  8
0
  6
Continuous
 62
     0
370
    30
100
AcDbLine
 10
235.800962
 20
306.572028
 30
0.0
 11
235.654895
 21
306.702141
 31
0.0
  0
LINE
  5
12E
330
7B
100
AcDbEntity
  8
0
  6
Continuous
 62
     0
370
    30
100
AcDbLine
 10
235.654895
 20
306.702141
 30
0.0
 11
234.162024
 21
306.68941
 31
0.0
  0
LINE
  5
12F
330
7B
100
AcDbEntity
  8
0
  6
Continuous
 62
     0
370
    30
100
AcDbLine
 10
236.099536
 20
306.574574
 30
0.0
 11
236.099536
 21
306.705932
 31
0.0
  0
LINE
  5
130
330
7B
100
AcDbEntity
  8
0
  6
Continuous
 62
     0
370
    30
100
AcDbLine
 10
235.953469
 20
306.704687
 30
0.0
 11
236.099536
 21
306.574574
 31
0.0
  0
LINE
  5
131
330
7B
100
AcDbEntity
  8
0
  6
Continuous
 62
     0
370
    30
100
AcDbLine
 10
236.099536
 20
306.574574
 30
0.0
 11
237.592407
 21
306.587305
 31
0.0
  0
LINE
  5
132
330
7B
100
AcDbEntity
  8
0
  6
Continuous
 62
     0
370
    30
100
AcDbLine
 10
237.592407
 20
306.587305
 30
0.0
 11
237.44634
 21
306.717417
 31
0.0
  0
LINE
  5
133
330
7B
100
AcDbEntity
  8
0
  6
Continuous
 62
     0
370
    30
100
AcDbLine
 10
237.44634
 20
306.717417
 30
0.0
 11
235.953469
 21
306.704687
 31
0.0
  0
LINE
  5
134
330
7B
100
AcDbEntity
  8
0
  6
Continuous
 62
     0
370
    30
100
AcDbLine
 10
237.890982
 20
306.589851
 30
0.0
 11
237.890982
 21
306.721209
 31
0.0
  0
LINE
  5
135
330
7B
100
AcDbEntity
  8
0
  6
Continuous
 62
     0
370
    30
100
AcDbLine
 10
237.744914
 20
306.719963
 30
0.0
 11
237.890982
 21
306.589851
 31
0.0
  0
LINE
  5
136
330
7B
100
AcDbEntity
  8
0
  6
Continuous
 62
     0
370
    30
100
AcDbLine
 10
237.890982
 20
306.589851
 30
0.0
 11
238.765819
 21
306.597311
 31
0.0
  0
LINE
  5
137
330
7B
100
AcDbEntity
  8
0
  6
Continuous
 62
     0
370
    30
100
AcDbLine
 10
238.459841
 20
306.72606
 30
0.0
 11
237.744914
 21
306.719963
 31
0.0
  0
LINE
  5
138
330
7B
100
AcDbEntity
  8
0
  6
Continuous
 62
     0
370
    30
100
AcDbLine
 10
222.691546
 20
306.433965
 30
0.0
 11
222.691546
 21
306.302607
 31
0.0
  0
LINE
  5
139
330
7B
100
AcDbEntity
  8
0
  6
Continuous
 62
     0
370
    30
100
AcDbLine
 10
222.691546
 20
306.302607
 30
0.0
 11
223.436125
 21
306.308957
 31
0.0
  0
LINE
  5
13A
330
7B
100
AcDbEntity
  8
0
  6
Continuous
 62
     0
370
    30
100
AcDbLine
 10
223.436125
 20
306.308957
 30
0.0
 11
223.290057
 21
306.439069
 31
0.0
  0
LINE
  5
13B
330
7B
100
AcDbEntity
  8
0
  6
Continuous
 62
     0
370
    30
100
AcDbLine
 10
223.290057
 20
306.439069
 30
0.0
 11
222.376315
 21
306.431277
 31
0.0
  0
LINE
  5
13C
330
7B
100
AcDbEntity
  8
0
  6
Continuous
 62
     0
370
    30
100
AcDbLine
 10
223.734699
 20
306.311503
 30
0.0
 11
223.734699
 21
306.442861
 31
0.0
  0
LINE
  5
13D
330
7B
100
AcDbEntity
  8
0
  6
Continuous
 62
     0
370
    30
100
AcDbLine
 10
223.588632
 20
306.441615
 30
0.0
 11
223.734699
 21
306.311503
 31
0.0
  0
LINE
  5
13E
330
7B
100
AcDbEntity
  8
0
  6
Continuous
 62
     0
370
    30
100
AcDbLine
 10
223.734699
 20
306.311503
 30
0.0
 11
225.22757
 21
306.324233
 31
0.0
  0
LINE
  5
13F
330
7B
100
AcDbEntity
  8
0
  6
Continuous
 62
     0
370
    30
100
AcDbLine
 10
225.22757
 20
306.324233
 30
0.0
 11
225.081503
 21
306.454346
 31
0.0
  0
LINE
  5
140
330
7B
100
AcDbEntity
  8
0
  6
Continuous
 62
     0
370
    30
100
AcDbLine
 10
225.081503
 20
306.454346
 30
0.0
 11
223.588632
 21
306.441615
 31
0.0
  0
LINE
  5
141
330
7B
100
AcDbEntity
  8
0
  6
Continuous
 62
     0
370
    30
100
AcDbLine
 10
225.526144
 20
306.326779
 30
0.0
 11
225.526144
 21
306.458137
 31
0.0
  0
LINE
  5
142
330
7B
100
AcDbEntity
  8
0
  6
Continuous
 62
     0
370
    30
100
AcDbLine
 10
225.380077
 20
306.456892
 30
0.0
 11
225.526144
 21
306.326779
 31
0.0
  0
LINE
  5
143
330
7B
100
AcDbEntity
  8
0
  6
Continuous
 62
     0
370
    30
100
AcDbLine
 10
225.526144
 20
306.326779
 30
0.0
 11
227.019015
 21
306.33951
 31
0.0
  0
LINE
  5
144
330
7B
100
AcDbEntity
  8
0
  6
Continuous
 62
     0
370
    30
100
AcDbLine
 10
227.019015
 20
306.33951
 30
0.0
 11
226.872948
 21
306.469622
 31
0.0
  0
LINE
  5
145
330
7B
100
AcDbEntity
  8
0
  6
Continuous
 62
     0
370
    30
100
AcDbLine
 10
226.872948
 20
306.469622
 30
0.0
 11
225.380077
 21
306.456892
 31
0.0
  0
LINE
  5
146
330
7B
100
AcDbEntity
  8
0
  6
Continuous
 62
     0
370
    30
100
AcDbLine
 10
227.31759
 20
306.342056
 30
0.0
 11
227.31759
 21
306.473414
 31
0.0
  0
LINE
  5
147
330
7B
100
AcDbEntity
  8
0
  6
Continuous
 62
     0
370
    30
100
AcDbLine
 10
227.171523
 20
306.472168
 30
0.0
 11
227.31759
 21
306.342056
 31
0.0
  0
LINE
  5
148
330
7B
100
AcDbEntity
  8
0
  6
Continuous
 62
     0
370
    30
100
AcDbLine
 10
227.31759
 20
306.342056
 30
0.0
 11
228.810461
 21
306.354787
 31
0.0
  0
LINE
  5
149
330
7B
100
AcDbEntity
  8
0
  6
Continuous
 62
     0
370
    30
100
AcDbLine
 10
228.810461
 20
306.354787
 30
0.0
 11
228.664394
 21
306.484899
 31
0.0
  0
LINE
  5
14A
330
7B
100
AcDbEntity
  8
0
  6
Continuous
 62
     0
370
    30
100
AcDbLine
 10
228.664394
 20
306.484899
 30
0.0
 11
227.171523
 21
306.472168
 31
0.0
  0
LINE
  5
14B
330
7B
100
AcDbEntity
  8
0
  6
Continuous
 62
     0
370
    30
100
AcDbLine
 10
229.109035
 20
306.357333
 30
0.0
 11
229.109035
 21
306.488691
 31
0.0
  0
LINE
  5
14C
330
7B
100
AcDbEntity
  8
0
  6
Continuous
 62
     0
370
    30
100
AcDbLine
 10
228.962968
 20
306.487445
 30
0.0
 11
229.109035
 21
306.357333
 31
0.0
  0
LINE
  5
14D
330
7B
100
AcDbEntity
  8
0
  6
Continuous
 62
     0
370
    30
100
AcDbLine
 10
229.109035
 20
306.357333
 30
0.0
 11
230.601906
 21
306.370063
 31
0.0
  0
LINE
  5
14E
330
7B
100
AcDbEntity
  8
0
  6
Continuous
 62
     0
370
    30
100
AcDbLine
 10
230.601906
 20
306.370063
 30
0.0
 11
230.455839
 21
306.500176
 31
0.0
  0
LINE
  5
14F
330
7B
100
AcDbEntity
  8
0
  6
Continuous
 62
     0
370
    30
100
AcDbLine
 10
230.455839
 20
306.500176
 30
0.0
 11
228.962968
 21
306.487445
 31
0.0
  0
LINE
  5
150
330
7B
100
AcDbEntity
  8
0
  6
Continuous
 62
     0
370
    30
100
AcDbLine
 10
230.900481
 20
306.37261
 30
0.0
 11
230.900481
 21
306.503967
 31
0.0
  0
LINE
  5
151
330
7B
100
AcDbEntity
  8
0
  6
Continuous
 62
     0
370
    30
100
AcDbLine
 10
230.754413
 20
306.502722
 30
0.0
 11
230.900481
 21
306.37261
 31
0.0
  0
LINE
  5
152
330
7B
100
AcDbEntity
  8
0
  6
Continuous
 62
     0
370
    30
100
AcDbLine
 10
230.900481
 20
306.37261
 30
0.0
 11
232.393352
 21
306.38534
 31
0.0
  0
LINE
  5
153
330
7B
100
AcDbEntity
  8
0
  6
Continuous
 62
     0
370
    30
100
AcDbLine
 10
232.393352
 20
306.38534
 30
0.0
 11
232.247285
 21
306.515452
 31
0.0
  0
LINE
  5
154
330
7B
100
AcDbEntity
  8
0
  6
Continuous
 62
     0
370
    30
100
AcDbLine
 10
232.247285
 20
306.515452
 30
0.0
 11
230.754413
 21
306.502722
 31
0.0
  0
LINE
  5
155
330
7B
100
AcDbEntity
  8
0
  6
Continuous
 62
     0
370
    30
100
AcDbLine
 10
232.691926
 20
306.387886
 30
0.0
 11
232.691926
 21
306.519244
 31
0.0
  0
LINE
  5
156
330
7B
100
AcDbEntity
  8
0
  6
Continuous
 62
     0
370
    30
100
AcDbLine
 10
232.545859
 20
306.517999
 30
0.0
 11
232.691926
 21
306.387886
 31
0.0
  0
LINE
  5
157
330
7B
100
AcDbEntity
  8
0
  6
Continuous
 62
     0
370
    30
100
AcDbLine
 10
232.691926
 20
306.387886
 30
0.0
 11
234.184797
 21
306.400617
 31
0.0
  0
LINE
  5
158
330
7B
100
AcDbEntity
  8
0
  6
Continuous
 62
     0
370
    30
100
AcDbLine
 10
234.184797
 20
306.400617
 30
0.0
 11
234.03873
 21
306.530729
 31
0.0
  0
LINE
  5
159
330
7B
100
AcDbEntity
  8
0
  6
Continuous
 62
     0
370
    30
100
AcDbLine
 10
234.03873
 20
306.530729
 30
0.0
 11
232.545859
 21
306.517999
 31
0.0
  0
LINE
  5
15A
330
7B
100
AcDbEntity
  8
0
  6
Continuous
 62
     0
370
    30
100
AcDbLine
 10
234.483371
 20
306.403163
 30
0.0
 11
234.483371
 21
306.534521
 31
0.0
  0
LINE
  5
15B
330
7B
100
AcDbEntity
  8
0
  6
Continuous
 62
     0
370
    30
100
AcDbLine
 10
234.337304
 20
306.533275
 30
0.0
 11
234.483371
 21
306.403163
 31
0.0
  0
LINE
  5
15C
330
7B
100
AcDbEntity
  8
0
  6
Continuous
 62
     0
370
    30
100
AcDbLine
 10
234.483371
 20
306.403163
 30
0.0
 11
235.976243
 21
306.415894
 31
0.0
  0
LINE
  5
15D
330
7B
100
AcDbEntity
  8
0
  6
Continuous
 62
     0
370
    30
100
AcDbLine
 10
235.976243
 20
306.415894
 30
0.0
 11
235.830175
 21
306.546006
 31
0.0
  0
LINE
  5
15E
330
7B
100
AcDbEntity
  8
0
  6
Continuous
 62
     0
370
    30
100
AcDbLine
 10
235.830175
 20
306.546006
 30
0.0
 11
234.337304
 21
306.533275
 31
0.0
  0
LINE
  5
15F
330
7B
100
AcDbEntity
  8
0
  6
Continuous
 62
     0
370
    30
100
AcDbLine
 10
236.274817
 20
306.41844
 30
0.0
 11
236.274817
 21
306.549798
 31
0.0
  0
LINE
  5
160
330
7B
100
AcDbEntity
  8
0
  6
Continuous
 62
     0
370
    30
100
AcDbLine
 10
236.12875
 20
306.548552
 30
0.0
 11
236.274817
 21
306.41844
 31
0.0
  0
LINE
  5
161
330
7B
100
AcDbEntity
  8
0
  6
Continuous
 62
     0
370
    30
100
AcDbLine
 10
236.274817
 20
306.41844
 30
0.0
 11
237.767688
 21
306.43117
 31
0.0
  0
LINE
  5
162
330
7B
100
AcDbEntity
  8
0
  6
Continuous
 62
     0
370
    30
100
AcDbLine
 10
237.767688
 20
306.43117
 30
0.0
 11
237.621621
 21
306.561283
 31
0.0
  0
LINE
  5
163
330
7B
100
AcDbEntity
  8
0
  6
Continuous
 62
     0
370
    30
100
AcDbLine
 10
237.621621
 20
306.561283
 30
0.0
 11
236.12875
 21
306.548552
 31
0.0
  0
LINE
  5
164
330
7B
100
AcDbEntity
  8
0
  6
Continuous
 62
     0
370
    30
100
AcDbLine
 10
238.066262
 20
306.433716
 30
0.0
 11
238.066262
 21
306.565074
 31
0.0
  0
LINE
  5
165
330
7B
100
AcDbEntity
  8
0
  6
Continuous
 62
     0
370
    30
100
AcDbLine
 10
237.920195
 20
306.563829
 30
0.0
 11
238.066262
 21
306.433716
 31
0.0
  0
LINE
  5
166
330
7B
100
AcDbEntity
  8
0
  6
Continuous
 62
     0
370
    30
100
AcDbLine
 10
238.066262
 20
306.433716
 30
0.0
 11
238.771031
 21
306.439726
 31
0.0
  0
LINE
  5
167
330
7B
100
AcDbEntity
  8
0
  6
Continuous
 62
     0
370
    30
100
AcDbLine
 10
238.771031
 20
306.439726
 30
0.0
 11
238.771031
 21
306.571084
 31
0.0
  0
LINE
  5
168
330
7B
100
AcDbEntity
  8
0
  6
Continuous
 62
     0
370
    30
100
AcDbLine
 10
238.794128
 20
306.571281
 30
0.0
 11
237.920195
 21
306.563829
 31
0.0
  0
LINE
  5
169
330
7B
100
AcDbEntity
  8
0
  6
Continuous
 62
     0
370
    30
100
AcDbLine
 10
223.459733
 20
306.282886
 30
0.0
 11
223.459733
 21
306.151528
 31
0.0
  0
LINE
  5
16A
330
7B
100
AcDbEntity
  8
0
  6
Continuous
 62
     0
370
    30
100
AcDbLine
 10
223.459733
 20
306.151528
 30
0.0
 11
223.611405
 21
306.152822
 31
0.0
  0
LINE
  5
16B
330
7B
100
AcDbEntity
  8
0
  6
Continuous
 62
     0
370
    30
100
AcDbLine
 10
223.611405
 20
306.152822
 30
0.0
 11
223.465338
 21
306.282934
 31
0.0
  0
LINE
  5
16C
330
7B
100
AcDbEntity
  8
0
  6
Continuous
 62
     0
370
    30
100
AcDbLine
 10
223.465338
 20
306.282934
 30
0.0
 11
222.788498
 21
306.277162
 31
0.0
  0
LINE
  5
16D
330
7B
100
AcDbEntity
  8
0
  6
Continuous
 62
     0
370
    30
100
AcDbLine
 10
223.909979
 20
306.155368
 30
0.0
 11
223.909979
 21
306.286726
 31
0.0
  0
LINE
  5
16E
330
7B
100
AcDbEntity
  8
0
  6
Continuous
 62
     0
370
    30
100
AcDbLine
 10
223.763912
 20
306.28548
 30
0.0
 11
223.909979
 21
306.155368
 31
0.0
  0
LINE
  5
16F
330
7B
100
AcDbEntity
  8
0
  6
Continuous
 62
     0
370
    30
100
AcDbLine
 10
223.909979
 20
306.155368
 30
0.0
 11
225.402851
 21
306.168099
 31
0.0
  0
LINE
  5
170
330
7B
100
AcDbEntity
  8
0
  6
Continuous
 62
     0
370
    30
100
AcDbLine
 10
225.402851
 20
306.168099
 30
0.0
 11
225.256783
 21
306.298211
 31
0.0
  0
LINE
  5
171
330
7B
100
AcDbEntity
  8
0
  6
Continuous
 62
     0
370
    30
100
AcDbLine
 10
225.256783
 20
306.298211
 30
0.0
 11
223.763912
 21
306.28548
 31
0.0
  0
LINE
  5
172
330
7B
100
AcDbEntity
  8
0
  6
Continuous
 62
     0
370
    30
100
AcDbLine
 10
225.701425
 20
306.170645
 30
0.0
 11
225.701425
 21
306.302003
 31
0.0
  0
LINE
  5
173
330
7B
100
AcDbEntity
  8
0
  6
Continuous
 62
     0
370
    30
100
AcDbLine
 10
225.555358
 20
306.300757
 30
0.0
 11
225.701425
 21
306.170645
 31
0.0
  0
LINE
  5
174
330
7B
100
AcDbEntity
  8
0
  6
Continuous
 62
     0
370
    30
100
AcDbLine
 10
225.701425
 20
306.170645
 30
0.0
 11
227.194296
 21
306.183375
 31
0.0
  0
LINE
  5
175
330
7B
100
AcDbEntity
  8
0
  6
Continuous
 62
     0
370
    30
100
AcDbLine
 10
227.194296
 20
306.183375
 30
0.0
 11
227.048229
 21
306.313488
 31
0.0
  0
LINE
  5
176
330
7B
100
AcDbEntity
  8
0
  6
Continuous
 62
     0
370
    30
100
AcDbLine
 10
227.048229
 20
306.313488
 30
0.0
 11
225.555358
 21
306.300757
 31
0.0
  0
LINE
  5
177
330
7B
100
AcDbEntity
  8
0
  6
Continuous
 62
     0
370
    30
100
AcDbLine
 10
227.49287
 20
306.185921
 30
0.0
 11
227.49287
 21
306.317279
 31
0.0
  0
LINE
  5
178
330
7B
100
AcDbEntity
  8
0
  6
Continuous
 62
     0
370
    30
100
AcDbLine
 10
227.346803
 20
306.316034
 30
0.0
 11
227.49287
 21
306.185921
 31
0.0
  0
LINE
  5
179
330
7B
100
AcDbEntity
  8
0
  6
Continuous
 62
     0
370
    30
100
AcDbLine
 10
227.49287
 20
306.185921
 30
0.0
 11
228.985741
 21
306.198652
 31
0.0
  0
LINE
  5
17A
330
7B
100
AcDbEntity
  8
0
  6
Continuous
 62
     0
370
    30
100
AcDbLine
 10
228.985741
 20
306.198652
 30
0.0
 11
228.839674
 21
306.328764
 31
0.0
  0
LINE
  5
17B
330
7B
100
AcDbEntity
  8
0
  6
Continuous
 62
     0
370
    30
100
AcDbLine
 10
228.839674
 20
306.328764
 30
0.0
 11
227.346803
 21
306.316034
 31
0.0
  0
LINE
  5
17C
330
7B
100
AcDbEntity
  8
0
  6
Continuous
 62
     0
370
    30
100
AcDbLine
 10
229.284316
 20
306.201198
 30
0.0
 11
229.284316
 21
306.332556
 31
0.0
  0
LINE
  5
17D
330
7B
100
AcDbEntity
  8
0
  6
Continuous
 62
     0
370
    30
100
AcDbLine
 10
229.138249
 20
306.33131
 30
0.0
 11
229.284316
 21
306.201198
 31
0.0
  0
LINE
  5
17E
330
7B
100
AcDbEntity
  8
0
  6
Continuous
 62
     0
370
    30
100
AcDbLine
 10
229.284316
 20
306.201198
 30
0.0
 11
230.777187
 21
306.213929
 31
0.0
  0
LINE
  5
17F
330
7B
100
AcDbEntity
  8
0
  6
Continuous
 62
     0
370
    30
100
AcDbLine
 10
230.777187
 20
306.213929
 30
0.0
 11
230.63112
 21
306.344041
 31
0.0
  0
LINE
  5
180
330
7B
100
AcDbEntity
  8
0
  6
Continuous
 62
     0
370
    30
100
AcDbLine
 10
230.63112
 20
306.344041
 30
0.0
 11
229.138249
 21
306.33131
 31
0.0
  0
LINE
  5
181
330
7B
100
AcDbEntity
  8
0
  6
Continuous
 62
     0
370
    30
100
AcDbLine
 10
231.075761
 20
306.216475
 30
0.0
 11
231.075761
 21
306.347833
 31
0.0
  0
LINE
  5
182
330
7B
100
AcDbEntity
  8
0
  6
Continuous
 62
     0
370
    30
100
AcDbLine
 10
230.929694
 20
306.346587
 30
0.0
 11
231.075761
 21
306.216475
 31
0.0
  0
LINE
  5
183
330
7B
100
AcDbEntity
  8
0
  6
Continuous
 62
     0
370
    30
100
AcDbLine
 10
231.075761
 20
306.216475
 30
0.0
 11
232.568632
 21
306.229205
 31
0.0
  0
LINE
  5
184
330
7B
100
AcDbEntity
  8
0
  6
Continuous
 62
     0
370
    30
100
AcDbLine
 10
232.568632
 20
306.229205
 30
0.0
 11
232.422565
 21
306.359318
 31
0.0
  0
LINE
  5
185
330
7B
100
AcDbEntity
  8
0
  6
Continuous
 62
     0
370
    30
100
AcDbLine
 10
232.422565
 20
306.359318
 30
0.0
 11
230.929694
 21
306.346587
 31
0.0
  0
LINE
  5
186
330
7B
100
AcDbEntity
  8
0
  6
Continuous
 62
     0
370
    30
100
AcDbLine
 10
232.867207
 20
306.231751
 30
0.0
 11
232.867207
 21
306.363109
 31
0.0
  0
LINE
  5
187
330
7B
100
AcDbEntity
  8
0
  6
Continuous
 62
     0
370
    30
100
AcDbLine
 10
232.721139
 20
306.361864
 30
0.0
 11
232.867207
 21
306.231751
 31
0.0
  0
LINE
  5
188
330
7B
100
AcDbEntity
  8
0
  6
Continuous
 62
     0
370
    30
100
AcDbLine
 10
232.867207
 20
306.231751
 30
0.0
 11
234.360078
 21
306.244482
 31
0.0
  0
LINE
  5
189
330
7B
100
AcDbEntity
  8
0
  6
Continuous
 62
     0
370
    30
100
AcDbLine
 10
234.360078
 20
306.244482
 30
0.0
 11
234.214011
 21
306.374594
 31
0.0
  0
LINE
  5
18A
330
7B
100
AcDbEntity
  8
0
  6
Continuous
 62
     0
370
    30
100
AcDbLine
 10
234.214011
 20
306.374594
 30
0.0
 11
232.721139
 21
306.361864
 31
0.0
  0
LINE
  5
18B
330
7B
100
AcDbEntity
  8
0
  6
Continuous
 62
     0
370
    30
100
AcDbLine
 10
234.658652
 20
306.247028
 30
0.0
 11
234.658652
 21
306.378386
 31
0.0
  0
LINE
  5
18C
330
7B
100
AcDbEntity
  8
0
  6
Continuous
 62
     0
370
    30
100
AcDbLine
 10
234.512585
 20
306.37714
 30
0.0
 11
234.658652
 21
306.247028
 31
0.0
  0
LINE
  5
18D
330
7B
100
AcDbEntity
  8
0
  6
Continuous
 62
     0
370
    30
100
AcDbLine
 10
234.658652
 20
306.247028
 30
0.0
 11
236.151523
 21
306.259759
 31
0.0
  0
LINE
  5
18E
330
7B
100
AcDbEntity
  8
0
  6
Continuous
 62
     0
370
    30
100
AcDbLine
 10
236.151523
 20
306.259759
 30
0.0
 11
236.005456
 21
306.389871
 31
0.0
  0
LINE
  5
18F
330
7B
100
AcDbEntity
  8
0
  6
Continuous
 62
     0
370
    30
100
AcDbLine
 10
236.005456
 20
306.389871
 30
0.0
 11
234.512585
 21
306.37714
 31
0.0
  0
LINE
  5
190
330
7B
100
AcDbEntity
  8
0
  6
Continuous
 62
     0
370
    30
100
AcDbLine
 10
236.450097
 20
306.262305
 30
0.0
 11
236.450097
 21
306.393663
 31
0.0
  0
LINE
  5
191
330
7B
100
AcDbEntity
  8
0
  6
Continuous
 62
     0
370
    30
100
AcDbLine
 10
236.30403
 20
306.392417
 30
0.0
 11
236.450097
 21
306.262305
 31
0.0
  0
LINE
  5
192
330
7B
100
AcDbEntity
  8
0
  6
Continuous
 62
     0
370
    30
100
AcDbLine
 10
236.450097
 20
306.262305
 30
0.0
 11
237.942969
 21
306.275036
 31
0.0
  0
LINE
  5
193
330
7B
100
AcDbEntity
  8
0
  6
Continuous
 62
     0
370
    30
100
AcDbLine
 10
237.942969
 20
306.275036
 30
0.0
 11
237.796901
 21
306.405148
 31
0.0
  0
LINE
  5
194
330
7B
100
AcDbEntity
  8
0
  6
Continuous
 62
     0
370
    30
100
AcDbLine
 10
237.796901
 20
306.405148
 30
0.0
 11
236.30403
 21
306.392417
 31
0.0
  0
LINE
  5
195
330
7B
100
AcDbEntity
  8
0
  6
Continuous
 62
     0
370
    30
100
AcDbLine
 10
238.241543
 20
306.277582
 30
0.0
 11
238.241543
 21
306.40894
 31
0.0
  0
LINE
  5
196
330
7B
100
AcDbEntity
  8
0
  6
Continuous
 62
     0
370
    30
100
AcDbLine
 10
238.095476
 20
306.407694
 30
0.0
 11
238.241543
 21
306.277582
 31
0.0
  0
LINE
  5
197
330
7B
100
AcDbEntity
  8
0
  6
Continuous
 62
     0
370
    30
100
AcDbLine
 10
238.241543
 20
306.277582
 30
0.0
 11
238.353405
 21
306.278536
 31
0.0
  0
LINE
  5
198
330
7B
100
AcDbEntity
  8
0
  6
Continuous
 62
     0
370
    30
100
AcDbLine
 10
238.353405
 20
306.278536
 30
0.0
 11
238.353405
 21
306.409893
 31
0.0
  0
LINE
  5
199
330
7B
100
AcDbEntity
  8
0
  6
Continuous
 62
     0
370
    30
100
AcDbLine
 10
238.732505
 20
306.413126
 30
0.0
 11
238.095476
 21
306.407694
 31
0.0
  0
LINE
  5
19A
330
7B
100
AcDbEntity
  8
0
  6
Continuous
 62
     0
370
    30
100
AcDbLine
 10
223.939193
 20
306.129345
 30
0.0
 11
223.992022
 21
306.082286
 31
0.0
  0
LINE
  5
19B
330
7B
100
AcDbEntity
  8
0
  6
Continuous
 62
     0
370
    30
100
AcDbLine
 10
223.992022
 20
306.082286
 30
0.0
 11
223.992022
 21
306.129796
 31
0.0
  0
LINE
  5
19C
330
7B
100
AcDbEntity
  8
0
  6
Continuous
 62
     0
370
    30
100
AcDbLine
 10
224.768791
 20
306.13642
 30
0.0
 11
224.768791
 21
306.005062
 31
0.0
  0
LINE
  5
19D
330
7B
100
AcDbEntity
  8
0
  6
Continuous
 62
     0
370
    30
100
AcDbLine
 10
224.768791
 20
306.005062
 30
0.0
 11
225.578131
 21
306.011964
 31
0.0
  0
LINE
  5
19E
330
7B
100
AcDbEntity
  8
0
  6
Continuous
 62
     0
370
    30
100
AcDbLine
 10
225.578131
 20
306.011964
 30
0.0
 11
225.432064
 21
306.142076
 31
0.0
  0
LINE
  5
19F
330
7B
100
AcDbEntity
  8
0
  6
Continuous
 62
     0
370
    30
100
AcDbLine
 10
225.432064
 20
306.142076
 30
0.0
 11
223.939193
 21
306.129345
 31
0.0
  0
LINE
  5
1A0
330
7B
100
AcDbEntity
  8
0
  6
Continuous
 62
     0
370
    30
100
AcDbLine
 10
225.876705
 20
306.01451
 30
0.0
 11
225.876705
 21
306.145868
 31
0.0
  0
LINE
  5
1A1
330
7B
100
AcDbEntity
  8
0
  6
Continuous
 62
     0
370
    30
100
AcDbLine
 10
225.730638
 20
306.144622
 30
0.0
 11
225.876705
 21
306.01451
 31
0.0
  0
LINE
  5
1A2
330
7B
100
AcDbEntity
  8
0
  6
Continuous
 62
     0
370
    30
100
AcDbLine
 10
225.876705
 20
306.01451
 30
0.0
 11
227.369577
 21
306.02724
 31
0.0
  0
LINE
  5
1A3
330
7B
100
AcDbEntity
  8
0
  6
Continuous
 62
     0
370
    30
100
AcDbLine
 10
227.369577
 20
306.02724
 30
0.0
 11
227.223509
 21
306.157353
 31
0.0
  0
LINE
  5
1A4
330
7B
100
AcDbEntity
  8
0
  6
Continuous
 62
     0
370
    30
100
AcDbLine
 10
227.223509
 20
306.157353
 30
0.0
 11
225.730638
 21
306.144622
 31
0.0
  0
LINE
  5
1A5
330
7B
100
AcDbEntity
  8
0
  6
Continuous
 62
     0
370
    30
100
AcDbLine
 10
227.668151
 20
306.029787
 30
0.0
 11
227.668151
 21
306.161144
 31
0.0
  0
LINE
  5
1A6
330
7B
100
AcDbEntity
  8
0
  6
Continuous
 62
     0
370
    30
100
AcDbLine
 10
227.522084
 20
306.159899
 30
0.0
 11
227.668151
 21
306.029787
 31
0.0
  0
LINE
  5
1A7
330
7B
100
AcDbEntity
  8
0
  6
Continuous
 62
     0
370
    30
100
AcDbLine
 10
227.668151
 20
306.029787
 30
0.0
 11
229.161022
 21
306.042517
 31
0.0
  0
LINE
  5
1A8
330
7B
100
AcDbEntity
  8
0
  6
Continuous
 62
     0
370
    30
100
AcDbLine
 10
229.161022
 20
306.042517
 30
0.0
 11
229.014955
 21
306.172629
 31
0.0
  0
LINE
  5
1A9
330
7B
100
AcDbEntity
  8
0
  6
Continuous
 62
     0
370
    30
100
AcDbLine
 10
229.014955
 20
306.172629
 30
0.0
 11
227.522084
 21
306.159899
 31
0.0
  0
LINE
  5
1AA
330
7B
100
AcDbEntity
  8
0
  6
Continuous
 62
     0
370
    30
100
AcDbLine
 10
229.459596
 20
306.045063
 30
0.0
 11
229.459596
 21
306.176421
 31
0.0
  0
LINE
  5
1AB
330
7B
100
AcDbEntity
  8
0
  6
Continuous
 62
     0
370
    30
100
AcDbLine
 10
229.313529
 20
306.175176
 30
0.0
 11
229.459596
 21
306.045063
 31
0.0
  0
LINE
  5
1AC
330
7B
100
AcDbEntity
  8
0
  6
Continuous
 62
     0
370
    30
100
AcDbLine
 10
229.459596
 20
306.045063
 30
0.0
 11
230.952468
 21
306.057794
 31
0.0
  0
LINE
  5
1AD
330
7B
100
AcDbEntity
  8
0
  6
Continuous
 62
     0
370
    30
100
AcDbLine
 10
230.952468
 20
306.057794
 30
0.0
 11
230.8064
 21
306.187906
 31
0.0
  0
LINE
  5
1AE
330
7B
100
AcDbEntity
  8
0
  6
Continuous
 62
     0
370
    30
100
AcDbLine
 10
230.8064
 20
306.187906
 30
0.0
 11
229.313529
 21
306.175176
 31
0.0
  0
LINE
  5
1AF
330
7B
100
AcDbEntity
  8
0
  6
Continuous
 62
     0
370
    30
100
AcDbLine
 10
231.251042
 20
306.06034
 30
0.0
 11
231.251042
 21
306.191698
 31
0.0
  0
LINE
  5
1B0
330
7B
100
AcDbEntity
  8
0
  6
Continuous
 62
     0
370
    30
100
AcDbLine
 10
231.104975
 20
306.190452
 30
0.0
 11
231.251042
 21
306.06034
 31
0.0
  0
LINE
  5
1B1
330
7B
100
AcDbEntity
  8
0
  6
Continuous
 62
     0
370
    30
100
AcDbLine
 10
231.251042
 20
306.06034
 30
0.0
 11
232.743913
 21
306.073071
 31
0.0
  0
LINE
  5
1B2
330
7B
100
AcDbEntity
  8
0
  6
Continuous
 62
     0
370
    30
100
AcDbLine
 10
232.743913
 20
306.073071
 30
0.0
 11
232.597846
 21
306.203183
 31
0.0
  0
LINE
  5
1B3
330
7B
100
AcDbEntity
  8
0
  6
Continuous
 62
     0
370
    30
100
AcDbLine
 10
232.597846
 20
306.203183
 30
0.0
 11
231.104975
 21
306.190452
 31
0.0
  0
LINE
  5
1B4
330
7B
100
AcDbEntity
  8
0
  6
Continuous
 62
     0
370
    30
100
AcDbLine
 10
233.042487
 20
306.075617
 30
0.0
 11
233.042487
 21
306.206975
 31
0.0
  0
LINE
  5
1B5
330
7B
100
AcDbEntity
  8
0
  6
Continuous
 62
     0
370
    30
100
AcDbLine
 10
232.89642
 20
306.205729
 30
0.0
 11
233.042487
 21
306.075617
 31
0.0
  0
LINE
  5
1B6
330
7B
100
AcDbEntity
  8
0
  6
Continuous
 62
     0
370
    30
100
AcDbLine
 10
233.042487
 20
306.075617
 30
0.0
 11
234.535358
 21
306.088347
 31
0.0
  0
LINE
  5
1B7
330
7B
100
AcDbEntity
  8
0
  6
Continuous
 62
     0
370
    30
100
AcDbLine
 10
234.535358
 20
306.088347
 30
0.0
 11
234.389291
 21
306.21846
 31
0.0
  0
LINE
  5
1B8
330
7B
100
AcDbEntity
  8
0
  6
Continuous
 62
     0
370
    30
100
AcDbLine
 10
234.389291
 20
306.21846
 30
0.0
 11
232.89642
 21
306.205729
 31
0.0
  0
LINE
  5
1B9
330
7B
100
AcDbEntity
  8
0
  6
Continuous
 62
     0
370
    30
100
AcDbLine
 10
234.833933
 20
306.090893
 30
0.0
 11
234.833933
 21
306.222251
 31
0.0
  0
LINE
  5
1BA
330
7B
100
AcDbEntity
  8
0
  6
Continuous
 62
     0
370
    30
100
AcDbLine
 10
234.687865
 20
306.221006
 30
0.0
 11
234.833933
 21
306.090893
 31
0.0
  0
LINE
  5
1BB
330
7B
100
AcDbEntity
  8
0
  6
Continuous
 62
     0
370
    30
100
AcDbLine
 10
234.833933
 20
306.090893
 30
0.0
 11
236.326804
 21
306.103624
 31
0.0
  0
LINE
  5
1BC
330
7B
100
AcDbEntity
  8
0
  6
Continuous
 62
     0
370
    30
100
AcDbLine
 10
236.326804
 20
306.103624
 30
0.0
 11
236.180737
 21
306.233736
 31
0.0
  0
LINE
  5
1BD
330
7B
100
AcDbEntity
  8
0
  6
Continuous
 62
     0
370
    30
100
AcDbLine
 10
236.180737
 20
306.233736
 30
0.0
 11
234.687865
 21
306.221006
 31
0.0
  0
LINE
  5
1BE
330
7B
100
AcDbEntity
  8
0
  6
Continuous
 62
     0
370
    30
100
AcDbLine
 10
236.625378
 20
306.10617
 30
0.0
 11
236.625378
 21
306.237528
 31
0.0
  0
LINE
  5
1BF
330
7B
100
AcDbEntity
  8
0
  6
Continuous
 62
     0
370
    30
100
AcDbLine
 10
236.479311
 20
306.236282
 30
0.0
 11
236.625378
 21
306.10617
 31
0.0
  0
LINE
  5
1C0
330
7B
100
AcDbEntity
  8
0
  6
Continuous
 62
     0
370
    30
100
AcDbLine
 10
236.625378
 20
306.10617
 30
0.0
 11
237.394908
 21
306.112732
 31
0.0
  0
LINE
  5
1C1
330
7B
100
AcDbEntity
  8
0
  6
Continuous
 62
     0
370
    30
100
AcDbLine
 10
237.394908
 20
306.112732
 30
0.0
 11
237.394908
 21
306.24409
 31
0.0
  0
LINE
  5
1C2
330
7B
100
AcDbEntity
  8
0
  6
Continuous
 62
     0
370
    30
100
AcDbLine
 10
238.018602
 20
306.207663
 30
0.0
 11
237.972182
 21
306.249013
 31
0.0
  0
LINE
  5
1C3
330
7B
100
AcDbEntity
  8
0
  6
Continuous
 62
     0
370
    30
100
AcDbLine
 10
237.972182
 20
306.249013
 30
0.0
 11
236.479311
 21
306.236282
 31
0.0
  0
LINE
  5
1C4
330
7B
100
AcDbEntity
  8
0
  6
Continuous
 62
     0
370
    30
100
AcDbLine
 10
225.660627
 20
305.938479
 30
0.0
 11
225.607345
 21
305.985941
 31
0.0
  0
LINE
  5
1C5
330
7B
100
AcDbEntity
  8
0
  6
Continuous
 62
     0
370
    30
100
AcDbLine
 10
225.607345
 20
305.985941
 30
0.0
 11
225.058743
 21
305.981263
 31
0.0
  0
LINE
  5
1C6
330
7B
100
AcDbEntity
  8
0
  6
Continuous
 62
     0
370
    30
100
AcDbLine
 10
225.905919
 20
305.988487
 30
0.0
 11
225.984343
 21
305.918629
 31
0.0
  0
LINE
  5
1C7
330
7B
100
AcDbEntity
  8
0
  6
Continuous
 62
     0
370
    30
100
AcDbLine
 10
225.984343
 20
305.918629
 30
0.0
 11
225.984343
 21
305.989156
 31
0.0
  0
LINE
  5
1C8
330
7B
100
AcDbEntity
  8
0
  6
Continuous
 62
     0
370
    30
100
AcDbLine
 10
227.03392
 20
305.998107
 30
0.0
 11
227.03392
 21
305.866749
 31
0.0
  0
LINE
  5
1C9
330
7B
100
AcDbEntity
  8
0
  6
Continuous
 62
     0
370
    30
100
AcDbLine
 10
227.03392
 20
305.866749
 30
0.0
 11
227.544857
 21
305.871106
 31
0.0
  0
LINE
  5
1CA
330
7B
100
AcDbEntity
  8
0
  6
Continuous
 62
     0
370
    30
100
AcDbLine
 10
227.544857
 20
305.871106
 30
0.0
 11
227.39879
 21
306.001218
 31
0.0
  0
LINE
  5
1CB
330
7B
100
AcDbEntity
  8
0
  6
Continuous
 62
     0
370
    30
100
AcDbLine
 10
227.39879
 20
306.001218
 30
0.0
 11
225.905919
 21
305.988487
 31
0.0
  0
LINE
  5
1CC
330
7B
100
AcDbEntity
  8
0
  6
Continuous
 62
     0
370
    30
100
AcDbLine
 10
227.843432
 20
305.873652
 30
0.0
 11
227.843432
 21
306.00501
 31
0.0
  0
LINE
  5
1CD
330
7B
100
AcDbEntity
  8
0
  6
Continuous
 62
     0
370
    30
100
AcDbLine
 10
227.697364
 20
306.003764
 30
0.0
 11
227.843432
 21
305.873652
 31
0.0
  0
LINE
  5
1CE
330
7B
100
AcDbEntity
  8
0
  6
Continuous
 62
     0
370
    30
100
AcDbLine
 10
227.843432
 20
305.873652
 30
0.0
 11
229.336303
 21
305.886382
 31
0.0
  0
LINE
  5
1CF
330
7B
100
AcDbEntity
  8
0
  6
Continuous
 62
     0
370
    30
100
AcDbLine
 10
229.336303
 20
305.886382
 30
0.0
 11
229.190236
 21
306.016495
 31
0.0
  0
LINE
  5
1D0
330
7B
100
AcDbEntity
  8
0
  6
Continuous
 62
     0
370
    30
100
AcDbLine
 10
229.190236
 20
306.016495
 30
0.0
 11
227.697364
 21
306.003764
 31
0.0
  0
LINE
  5
1D1
330
7B
100
AcDbEntity
  8
0
  6
Continuous
 62
     0
370
    30
100
AcDbLine
 10
229.634877
 20
305.888929
 30
0.0
 11
229.634877
 21
306.020286
 31
0.0
  0
LINE
  5
1D2
330
7B
100
AcDbEntity
  8
0
  6
Continuous
 62
     0
370
    30
100
AcDbLine
 10
229.48881
 20
306.019041
 30
0.0
 11
229.634877
 21
305.888929
 31
0.0
  0
LINE
  5
1D3
330
7B
100
AcDbEntity
  8
0
  6
Continuous
 62
     0
370
    30
100
AcDbLine
 10
229.634877
 20
305.888929
 30
0.0
 11
231.127748
 21
305.901659
 31
0.0
  0
LINE
  5
1D4
330
7B
100
AcDbEntity
  8
0
  6
Continuous
 62
     0
370
    30
100
AcDbLine
 10
231.127748
 20
305.901659
 30
0.0
 11
230.981681
 21
306.031771
 31
0.0
  0
LINE
  5
1D5
330
7B
100
AcDbEntity
  8
0
  6
Continuous
 62
     0
370
    30
100
AcDbLine
 10
230.981681
 20
306.031771
 30
0.0
 11
229.48881
 21
306.019041
 31
0.0
  0
LINE
  5
1D6
330
7B
100
AcDbEntity
  8
0
  6
Continuous
 62
     0
370
    30
100
AcDbLine
 10
231.426322
 20
305.904205
 30
0.0
 11
231.426322
 21
306.035563
 31
0.0
  0
LINE
  5
1D7
330
7B
100
AcDbEntity
  8
0
  6
Continuous
 62
     0
370
    30
100
AcDbLine
 10
231.280255
 20
306.034318
 30
0.0
 11
231.426322
 21
305.904205
 31
0.0
  0
LINE
  5
1D8
330
7B
100
AcDbEntity
  8
0
  6
Continuous
 62
     0
370
    30
100
AcDbLine
 10
231.426322
 20
305.904205
 30
0.0
 11
232.919194
 21
305.916936
 31
0.0
  0
LINE
  5
1D9
330
7B
100
AcDbEntity
  8
0
  6
Continuous
 62
     0
370
    30
100
AcDbLine
 10
232.919194
 20
305.916936
 30
0.0
 11
232.773126
 21
306.047048
 31
0.0
  0
LINE
  5
1DA
330
7B
100
AcDbEntity
  8
0
  6
Continuous
 62
     0
370
    30
100
AcDbLine
 10
232.773126
 20
306.047048
 30
0.0
 11
231.280255
 21
306.034318
 31
0.0
  0
LINE
  5
1DB
330
7B
100
AcDbEntity
  8
0
  6
Continuous
 62
     0
370
    30
100
AcDbLine
 10
233.217768
 20
305.919482
 30
0.0
 11
233.217768
 21
306.05084
 31
0.0
  0
LINE
  5
1DC
330
7B
100
AcDbEntity
  8
0
  6
Continuous
 62
     0
370
    30
100
AcDbLine
 10
233.071701
 20
306.049594
 30
0.0
 11
233.217768
 21
305.919482
 31
0.0
  0
LINE
  5
1DD
330
7B
100
AcDbEntity
  8
0
  6
Continuous
 62
     0
370
    30
100
AcDbLine
 10
233.217768
 20
305.919482
 30
0.0
 11
234.710639
 21
305.932213
 31
0.0
  0
LINE
  5
1DE
330
7B
100
AcDbEntity
  8
0
  6
Continuous
 62
     0
370
    30
100
AcDbLine
 10
234.710639
 20
305.932213
 30
0.0
 11
234.564572
 21
306.062325
 31
0.0
  0
LINE
  5
1DF
330
7B
100
AcDbEntity
  8
0
  6
Continuous
 62
     0
370
    30
100
AcDbLine
 10
234.564572
 20
306.062325
 30
0.0
 11
233.071701
 21
306.049594
 31
0.0
  0
LINE
  5
1E0
330
7B
100
AcDbEntity
  8
0
  6
Continuous
 62
     0
370
    30
100
AcDbLine
 10
235.009213
 20
305.934759
 30
0.0
 11
235.009213
 21
306.066117
 31
0.0
  0
LINE
  5
1E1
330
7B
100
AcDbEntity
  8
0
  6
Continuous
 62
     0
370
    30
100
AcDbLine
 10
234.863146
 20
306.064871
 30
0.0
 11
235.009213
 21
305.934759
 31
0.0
  0
LINE
  5
1E2
330
7B
100
AcDbEntity
  8
0
  6
Continuous
 62
     0
370
    30
100
AcDbLine
 10
235.009213
 20
305.934759
 30
0.0
 11
235.480341
 21
305.938776
 31
0.0
  0
LINE
  5
1E3
330
7B
100
AcDbEntity
  8
0
  6
Continuous
 62
     0
370
    30
100
AcDbLine
 10
235.480341
 20
305.938776
 30
0.0
 11
235.480341
 21
306.070134
 31
0.0
  0
LINE
  5
1E4
330
7B
100
AcDbEntity
  8
0
  6
Continuous
 62
     0
370
    30
100
AcDbLine
 10
236.431228
 20
306.010606
 30
0.0
 11
236.356017
 21
306.077602
 31
0.0
  0
LINE
  5
1E5
330
7B
100
AcDbEntity
  8
0
  6
Continuous
 62
     0
370
    30
100
AcDbLine
 10
236.356017
 20
306.077602
 30
0.0
 11
234.863146
 21
306.064871
 31
0.0
  0
LINE
  5
1E6
330
7B
100
AcDbEntity
  8
0
  6
Continuous
 62
     0
370
    30
100
AcDbLine
 10
236.654591
 20
306.080148
 30
0.0
 11
236.704332
 21
306.03584
 31
0.0
  0
LINE
  5
1E7
330
7B
100
AcDbEntity
  8
0
  6
Continuous
 62
     0
370
    30
100
AcDbLine
 10
236.704332
 20
306.03584
 30
0.0
 11
236.704332
 21
306.080572
 31
0.0
  0
LINE
  5
1E8
330
7B
100
AcDbEntity
  8
0
  6
Continuous
 62
     0
370
    30
100
AcDbLine
 10
237.163383
 20
306.084486
 30
0.0
 11
236.654591
 21
306.080148
 31
0.0
  0
LINE
  5
1E9
330
7B
100
AcDbEntity
  8
0
  6
Continuous
 62
     0
370
    30
100
AcDbLine
 10
227.872645
 20
305.847629
 30
0.0
 11
227.885122
 21
305.836515
 31
0.0
  0
LINE
  5
1EA
330
7B
100
AcDbEntity
  8
0
  6
Continuous
 62
     0
370
    30
100
AcDbLine
 10
227.885122
 20
305.836515
 30
0.0
 11
227.885122
 21
305.847736
 31
0.0
  0
LINE
  5
1EB
330
7B
100
AcDbEntity
  8
0
  6
Continuous
 62
     0
370
    30
100
AcDbLine
 10
229.428426
 20
305.804322
 30
0.0
 11
229.365516
 21
305.86036
 31
0.0
  0
LINE
  5
1EC
330
7B
100
AcDbEntity
  8
0
  6
Continuous
 62
     0
370
    30
100
AcDbLine
 10
229.365516
 20
305.86036
 30
0.0
 11
227.872645
 21
305.847629
 31
0.0
  0
LINE
  5
1ED
330
7B
100
AcDbEntity
  8
0
  6
Continuous
 62
     0
370
    30
100
AcDbLine
 10
229.66409
 20
305.862906
 30
0.0
 11
229.733456
 21
305.801117
 31
0.0
  0
LINE
  5
1EE
330
7B
100
AcDbEntity
  8
0
  6
Continuous
 62
     0
370
    30
100
AcDbLine
 10
229.733456
 20
305.801117
 30
0.0
 11
229.733456
 21
305.863498
 31
0.0
  0
LINE
  5
1EF
330
7B
100
AcDbEntity
  8
0
  6
Continuous
 62
     0
370
    30
100
AcDbLine
 10
231.242064
 20
305.79983
 30
0.0
 11
231.156962
 21
305.875637
 31
0.0
  0
LINE
  5
1F0
330
7B
100
AcDbEntity
  8
0
  6
Continuous
 62
     0
370
    30
100
AcDbLine
 10
231.156962
 20
305.875637
 30
0.0
 11
229.66409
 21
305.862906
 31
0.0
  0
LINE
  5
1F1
330
7B
100
AcDbEntity
  8
0
  6
Continuous
 62
     0
370
    30
100
AcDbLine
 10
231.455536
 20
305.878183
 30
0.0
 11
231.540567
 21
305.802439
 31
0.0
  0
LINE
  5
1F2
330
7B
100
AcDbEntity
  8
0
  6
Continuous
 62
     0
370
    30
100
AcDbLine
 10
231.540567
 20
305.802439
 30
0.0
 11
231.540567
 21
305.878908
 31
0.0
  0
LINE
  5
1F3
330
7B
100
AcDbEntity
  8
0
  6
Continuous
 62
     0
370
    30
100
AcDbLine
 10
233.016978
 20
305.829833
 30
0.0
 11
232.948407
 21
305.890913
 31
0.0
  0
LINE
  5
1F4
330
7B
100
AcDbEntity
  8
0
  6
Continuous
 62
     0
370
    30
100
AcDbLine
 10
232.948407
 20
305.890913
 30
0.0
 11
231.455536
 21
305.878183
 31
0.0
  0
LINE
  5
1F5
330
7B
100
AcDbEntity
  8
0
  6
Continuous
 62
     0
370
    30
100
AcDbLine
 10
233.246981
 20
305.89346
 30
0.0
 11
233.308943
 21
305.838266
 31
0.0
  0
LINE
  5
1F6
330
7B
100
AcDbEntity
  8
0
  6
Continuous
 62
     0
370
    30
100
AcDbLine
 10
233.308943
 20
305.838266
 30
0.0
 11
233.308943
 21
305.893988
 31
0.0
  0
LINE
  5
1F7
330
7B
100
AcDbEntity
  8
0
  6
Continuous
 62
     0
370
    30
100
AcDbLine
 10
234.750536
 20
305.896673
 30
0.0
 11
234.739852
 21
305.90619
 31
0.0
  0
LINE
  5
1F8
330
7B
100
AcDbEntity
  8
0
  6
Continuous
 62
     0
370
    30
100
AcDbLine
 10
234.739852
 20
305.90619
 30
0.0
 11
233.246981
 21
305.89346
 31
0.0
  0
ELLIPSE
  5
1F9
330
7B
100
AcDbEntity
  8
0
  6
Continuous
 62
     0
370
    30
100
AcDbEllipse
 10
230.56818
 20
306.516459
 30
0.0
 11
8.249962108598936
 21
3.462222913297356E-15
 31
0.0
210
0.0
220
0.0
230
1.0
 40
0.087156
 41
0.1126848405251417
 42
0.2957997001716555
  0
ELLIPSE
  5
1FA
330
7B
100
AcDbEntity
  8
0
  6
Continuous
 62
     0
370
    30
100
AcDbEllipse
 10
230.56818
 20
306.516459
 30
0.0
 11
8.249962108598936
 21
3.462222913297356E-15
 31
0.0
210
0.0
220
0.0
230
1.0
 40
0.087156
 41
0.3330380148212591
 42
0.5256441140553179
  0
ELLIPSE
  5
1FB
330
7B
100
AcDbEntity
  8
0
  6
Continuous
 62
     0
370
    30
100
AcDbEllipse
 10
230.56818
 20
306.516459
 30
0.0
 11
8.249962108598936
 21
3.462222913297356E-15
 31
0.0
210
0.0
220
0.0
230
1.0
 40
0.087156
 41
0.6389606526027638
 42
0.7833893994111962
  0
ELLIPSE
  5
1FC
330
7B
100
AcDbEntity
  8
0
  6
Continuous
 62
     0
370
    30
100
AcDbEllipse
 10
230.56818
 20
306.516459
 30
0.0
 11
8.249962108598936
 21
3.462222913297356E-15
 31
0.0
210
0.0
220
0.0
230
1.0
 40
0.087156
 41
0.8313374824555355
 42
0.9271547218733263
  0
ELLIPSE
  5
1FD
330
7B
100
AcDbEntity
  8
0
  6
Continuous
 62
     0
370
    30
100
AcDbEllipse
 10
230.56818
 20
306.516459
 30
0.0
 11
8.249962108598936
 21
3.462222913297356E-15
 31
0.0
210
0.0
220
0.0
230
1.0
 40
0.087156
 41
0.9754034022135185
 42
1.116408374613171
  0
ELLIPSE
  5
1FE
330
7B
100
AcDbEntity
  8
0
  6
Continuous
 62
     0
370
    30
100
AcDbEllipse
 10
230.56818
 20
306.516459
 30
0.0
 11
8.249962108598936
 21
3.462222913297356E-15
 31
0.0
210
0.0
220
0.0
230
1.0
 40
0.087156
 41
1.190255441975255
 42
1.193741254600972
  0
ELLIPSE
  5
1FF
330
7B
100
AcDbEntity
  8
0
  6
Continuous
 62
     0
370
    30
100
AcDbEllipse
 10
230.56818
 20
306.516459
 30
0.0
 11
8.249962108598936
 21
3.462222913297356E-15
 31
0.0
210
0.0
220
0.0
230
1.0
 40
0.087156
 41
1.234213632482887
 42
1.427210444626507
  0
ELLIPSE
  5
200
330
7B
100
AcDbEntity
  8
0
  6
Continuous
 62
     0
370
    30
100
AcDbEllipse
 10
230.56818
 20
306.516459
 30
0.0
 11
8.249962108598936
 21
3.462222913297356E-15
 31
0.0
210
0.0
220
0.0
230
1.0
 40
0.087156
 41
1.464495272917785
 42
1.647721388990298
  0
ELLIPSE
  5
201
330
7B
100
AcDbEntity
  8
0
  6
Continuous
 62
     0
370
    30
100
AcDbEllipse
 10
230.56818
 20
306.516459
 30
0.0
 11
8.249962108598936
 21
3.462222913297356E-15
 31
0.0
210
0.0
220
0.0
230
1.0
 40
0.087156
 41
1.684087303109604
 42
1.867214239185856
  0
ELLIPSE
  5
202
330
7B
100
AcDbEntity
  8
0
  6
Continuous
 62
     0
370
    30
100
AcDbEllipse
 10
230.56818
 20
306.516459
 30
0.0
 11
8.249962108598936
 21
3.462222913297356E-15
 31
0.0
210
0.0
220
0.0
230
1.0
 40
0.087156
 41
1.904457655998488
 42
2.097106727899716
  0
ELLIPSE
  5
203
330
7B
100
AcDbEntity
  8
0
  6
Continuous
 62
     0
370
    30
100
AcDbEllipse
 10
230.56818
 20
306.516459
 30
0.0
 11
8.249962108598936
 21
3.462222913297356E-15
 31
0.0
210
0.0
220
0.0
230
1.0
 40
0.087156
 41
2.1374733969631
 42
2.146402563610275
  0
ELLIPSE
  5
204
330
7B
100
AcDbEntity
  8
0
  6
Continuous
 62
     0
370
    30
100
AcDbEllipse
 10
230.56818
 20
306.516459
 30
0.0
 11
8.249962108598936
 21
3.462222913297356E-15
 31
0.0
210
0.0
220
0.0
230
1.0
 40
0.087156
 41
2.220249630972364
 42
2.354969129774719
  0
ELLIPSE
  5
205
330
7B
100
AcDbEntity
  8
0
  6
Continuous
 62
     0
370
    30
100
AcDbEllipse
 10
230.56818
 20
306.516459
 30
0.0
 11
8.249962108598936
 21
3.462222913297356E-15
 31
0.0
210
0.0
220
0.0
230
1.0
 40
0.087156
 41
2.402950212098804
 42
2.505320523129984
  0
ELLIPSE
  5
206
330
7B
100
AcDbEntity
  8
0
  6
Continuous
 62
     0
370
    30
100
AcDbEllipse
 10
230.56818
 20
306.516459
 30
0.0
 11
8.249962108598936
 21
3.462222913297356E-15
 31
0.0
210
0.0
220
0.0
230
1.0
 40
0.087156
 41
2.553268606174337
 42
2.688361684227024
  0
ELLIPSE
  5
207
330
7B
100
AcDbEntity
  8
0
  6
Continuous
 62
     0
370
    30
100
AcDbEllipse
 10
230.56818
 20
306.516459
 30
0.0
 11
8.249962108598936
 21
3.462222913297356E-15
 31
0.0
210
0.0
220
0.0
230
1.0
 40
0.087156
 41
2.762370777800836
 42
2.770660295691731
  0
ELLIPSE
  5
208
330
7B
100
AcDbEntity
  8
0
  6
Continuous
 62
     0
370
    30
100
AcDbEllipse
 10
230.56818
 20
306.516459
 30
0.0
 11
8.249962108598936
 21
3.462222913297356E-15
 31
0.0
210
0.0
220
0.0
230
1.0
 40
0.087156
 41
2.811013891530212
 42
3.003619990764262
  0
ELLIPSE
  5
209
330
7B
100
AcDbEntity
  8
0
  6
Continuous
 62
     0
370
    30
100
AcDbEllipse
 10
230.56818
 20
306.516459
 30
0.0
 11
8.249962108598936
 21
3.462222913297356E-15
 31
0.0
210
0.0
220
0.0
230
1.0
 40
0.087156
 41
3.040858305413877
 42
3.223973165060383
  0
ELLIPSE
  5
20A
330
7B
100
AcDbEntity
  8
0
  6
Continuous
 62
     0
370
    30
100
AcDbEllipse
 10
230.56818
 20
306.516459
 30
0.0
 11
8.249962108598936
 21
3.462222913297356E-15
 31
0.0
210
0.0
220
0.0
230
1.0
 40
0.087156
 41
3.260339139316203
 42
3.443577974607703
  0
ELLIPSE
  5
20B
330
7B
100
AcDbEntity
  8
0
  6
Continuous
 62
     0
370
    30
100
AcDbEllipse
 10
230.56818
 20
306.516459
 30
0.0
 11
8.249962108598936
 21
3.462222913297356E-15
 31
0.0
210
0.0
220
0.0
230
1.0
 40
0.087156
 41
3.480868053897912
 42
3.673908831436853
  0
ELLIPSE
  5
20C
330
7B
100
AcDbEntity
  8
0
  6
Continuous
 62
     0
370
    30
100
AcDbEllipse
 10
230.56818
 20
306.516459
 30
0.0
 11
8.249962108598936
 21
3.462222913297356E-15
 31
0.0
210
0.0
220
0.0
230
1.0
 40
0.087156
 41
3.789888974948308
 42
3.932838917126848
  0
ELLIPSE
  5
20D
330
7B
100
AcDbEntity
  8
0
  6
Continuous
 62
     0
370
    30
100
AcDbEllipse
 10
230.56818
 20
306.516459
 30
0.0
 11
8.249962108598936
 21
3.462222913297356E-15
 31
0.0
210
0.0
220
0.0
230
1.0
 40
0.087156
 41
3.98112150425457
 42
4.075300447076524
  0
ELLIPSE
  5
20E
330
7B
100
AcDbEntity
  8
0
  6
Continuous
 62
     0
370
    30
100
AcDbEllipse
 10
230.56818
 20
306.516459
 30
0.0
 11
8.249962108598936
 21
3.462222913297356E-15
 31
0.0
210
0.0
220
0.0
230
1.0
 40
0.087156
 41
4.123281529400613
 42
4.269670831628652
  0
ELLIPSE
  5
20F
330
7B
100
AcDbEntity
  8
0
  6
Continuous
 62
     0
370
    30
100
AcDbEllipse
 10
230.56818
 20
306.516459
 30
0.0
 11
8.249962108598936
 21
3.462222913297356E-15
 31
0.0
210
0.0
220
0.0
230
1.0
 40
0.087156
 41
4.381143931275611
 42
4.573793003176839
  0
ELLIPSE
  5
210
330
7B
100
AcDbEntity
  8
0
  6
Continuous
 62
     0
370
    30
100
AcDbEllipse
 10
230.56818
 20
306.516459
 30
0.0
 11
8.249962108598936
 21
3.462222913297356E-15
 31
0.0
210
0.0
220
0.0
230
1.0
 40
0.087156
 41
4.61103641998947
 42
4.794163356065718
  0
ELLIPSE
  5
211
330
7B
100
AcDbEntity
  8
0
  6
Continuous
 62
     0
370
    30
100
AcDbEllipse
 10
230.56818
 20
306.516459
 30
0.0
 11
8.249962108598936
 21
3.462222913297356E-15
 31
0.0
210
0.0
220
0.0
230
1.0
 40
0.087156
 41
4.830529270185024
 42
5.013755386257534
  0
ELLIPSE
  5
212
330
7B
100
AcDbEntity
  8
0
  6
Continuous
 62
     0
370
    30
100
AcDbEllipse
 10
230.56818
 20
306.516459
 30
0.0
 11
8.249962108598936
 21
3.462222913297356E-15
 31
0.0
210
0.0
220
0.0
230
1.0
 40
0.087156
 41
5.051040214548813
 42
5.244037026692427
  0
ELLIPSE
  5
213
330
7B
100
AcDbEntity
  8
0
  6
Continuous
 62
     0
370
    30
100
AcDbEllipse
 10
230.56818
 20
306.516459
 30
0.0
 11
8.249962108598936
 21
3.462222913297356E-15
 31
0.0
210
0.0
220
0.0
230
1.0
 40
0.087156
 41
5.350172481136464
 42
5.502847256961794
  0
ELLIPSE
  5
214
330
7B
100
AcDbEntity
  8
0
  6
Continuous
 62
     0
370
    30
100
AcDbEllipse
 10
230.56818
 20
306.516459
 30
0.0
 11
8.249962108598936
 21
3.462222913297356E-15
 31
0.0
210
0.0
220
0.0
230
1.0
 40
0.087156
 41
5.551095937301984
 42
5.638721808510544
  0
ELLIPSE
  5
215
330
7B
100
AcDbEntity
  8
0
  6
Continuous
 62
     0
370
    30
100
AcDbEllipse
 10
230.56818
 20
306.516459
 30
0.0
 11
8.249962108598936
 21
3.462222913297356E-15
 31
0.0
210
0.0
220
0.0
230
1.0
 40
0.087156
 41
5.687004395638267
 42
5.839290006572547
  0
ELLIPSE
  5
216
330
7B
100
AcDbEntity
  8
0
  6
Continuous
 62
     0
370
    30
100
AcDbEllipse
 10
230.56818
 20
306.516459
 30
0.0
 11
8.249962108598936
 21
3.462222913297356E-15
 31
0.0
210
0.0
220
0.0
230
1.0
 40
0.087156
 41
5.945934481328258
 42
6.138975258867197
  0
ELLIPSE
  5
217
330
7B
100
AcDbEntity
  8
0
  6
Continuous
 62
     0
370
    30
100
AcDbEllipse
 10
230.56818
 20
306.516459
 30
0.0
 11
8.249962108598936
 21
3.462222913297356E-15
 31
0.0
210
0.0
220
0.0
230
1.0
 40
0.087156
 41
6.176265338157402
 42
6.359504173448913
  0
ELLIPSE
  5
218
330
7B
100
AcDbEntity
  8
0
  6
Continuous
 62
     0
370
    30
100
AcDbEllipse
 10
230.56818
 20
306.516459
 30
0.0
 11
-9.25
 21
-3.881904125913537E-15
 31
0.0
210
0.0
220
0.0
230
-1.0
 40
0.087156
 41
6.185652631181713
 42
9.32724528477151
  0
ELLIPSE
  5
219
330
7B
100
AcDbEntity
  8
0
  6
Continuous
 62
     0
370
    30
100
AcDbEllipse
 10
230.56818
 20
306.516459
 30
0.0
 11
-9.25
 21
-3.881904125913537E-15
 31
0.0
210
0.0
220
0.0
230
-1.0
 40
0.087156
 41
3.044059977591929
 42
6.185652631181713
  0
LINE
  5
21A
330
7B
100
AcDbEntity
  8
0
  6
Continuous
 62
     0
370
    30
100
AcDbLine
 10
221.31818
 20
308.329273
 30
0.0
 11
221.31818
 21
306.516459
 31
0.0
  0
LINE
  5
21B
330
7B
100
AcDbEntity
  8
0
  6
Continuous
 62
     0
370
    30
100
AcDbLine
 10
239.81818
 20
308.329241
 30
0.0
 11
239.81818
 21
306.516459
 31
0.0
  0
LWPOLYLINE
  5
21C
330
7B
100
AcDbEntity
  8
0
  6
Continuous
 62
     0
370
    30
100
AcDbPolyline
 90
        5
 70
     0
 43
0.0
 10
210.824463
 20
313.12204
 10
210.663315
 20
313.082886
 10
210.518951
 20
313.051636
 10
210.422882
 20
313.028717
 10
210.38443
 20
313.013519
  0
LINE
  5
21D
330
7B
100
AcDbEntity
  8
0
  6
Continuous
 62
     0
370
    30
100
AcDbLine
 10
209.45389
 20
317.025373
 30
0.0
 11
209.453002
 21
317.213624
 31
0.0
  0
ARC
  5
21E
330
7B
100
AcDbEntity
  8
0
  6
Continuous
 62
     0
370
    30
100
AcDbCircle
 10
216.042569
 20
316.306214
 30
0.0
 40
6.560661318879643
100
AcDbArc
 50
202.260074
 51
210.311939
  0
LWPOLYLINE
  5
21F
330
7B
100
AcDbEntity
  8
0
  6
Continuous
 62
     0
370
    30
100
AcDbPolyline
 90
       10
 70
     0
 43
0.0
 10
209.452759
 20
317.50296
 10
209.453293
 20
317.482239
 10
209.459808
 20
317.456268
 10
209.480453
 20
317.42395
 10
209.523407
 20
317.384186
 10
209.596817
 20
317.335938
 10
209.708893
 20
317.278076
 10
209.867783
 20
317.209534
 10
210.081665
 20
317.129211
 10
210.378296
 20
317.029755
  0
LWPOLYLINE
  5
220
330
7B
100
AcDbEntity
  8
0
  6
Continuous
 62
     0
370
     0
100
AcDbPolyline
 90
       10
 70
     0
 43
0.0
 10
210.378296
 20
317.029755
 10
210.379196
 20
316.498657
 10
210.385117
 20
315.980835
 10
210.401047
 20
315.479736
 10
210.431992
 20
314.99881
 10
210.482788
 20
314.541595
 10
210.552795
 20
314.116241
 10
210.634384
 20
313.738281
 10
210.720306
 20
313.420013
 10
210.824463
 20
313.12204
  0
LWPOLYLINE
  5
221
330
7B
100
AcDbEntity
  8
0
  6
Continuous
 62
     0
370
     0
100
AcDbPolyline
 90
       25
 70
     0
 43
0.0
 10
210.824463
 20
313.12204
 10
210.98877
 20
312.951141
 10
211.195587
 20
312.761322
 10
211.455429
 20
312.546143
 10
211.774399
 20
312.307007
 10
212.155701
 20
312.053314
 10
212.599503
 20
311.792847
 10
213.106857
 20
311.532166
 10
213.678848
 20
311.275665
 10
214.316483
 20
311.027283
 10
215.020721
 20
310.790924
 10
215.792526
 20
310.570465
 10
216.632874
 20
310.369812
 10
217.541855
 20
310.192169
 10
218.51506
 20
310.037262
 10
219.546753
 20
309.903625
 10
220.631134
 20
309.789886
 10
221.762482
 20
309.694672
 10
222.934998
 20
309.616547
 10
224.142929
 20
309.554108
 10
225.380524
 20
309.505981
 10
226.641998
 20
309.470764
 10
227.921585
 20
309.447021
 10
229.213547
 20
309.433411
 10
230.568344
 20
309.428467
  0
LINE
  5
222
330
7B
100
AcDbEntity
  8
0
  6
Continuous
 62
     0
370
     0
100
AcDbLine
 10
230.568346
 20
309.428456
 30
0.0
 11
230.568346
 21
308.31956
 31
0.0
  0
LWPOLYLINE
  5
223
330
7B
100
AcDbEntity
  8
0
  6
Continuous
 62
     0
370
    30
100
AcDbPolyline
 90
       30
 70
     0
 43
0.0
 10
230.568344
 20
308.31955
 10
229.602982
 20
308.317474
 10
228.642776
 20
308.311096
 10
227.694748
 20
308.30188
 10
226.764969
 20
308.291809
 10
225.858978
 20
308.282928
 10
224.982422
 20
308.277161
 10
224.14093
 20
308.276062
 10
223.33989
 20
308.280884
 10
222.584152
 20
308.291992
 10
221.878403
 20
308.309631
 10
221.226837
 20
308.333008
 10
220.633469
 20
308.361115
 10
220.101791
 20
308.392365
 10
219.634735
 20
308.4245
 10
219.235123
 20
308.455231
 10
218.905243
 20
308.4823
 10
218.646896
 20
308.503357
 10
218.461838
 20
308.516174
 10
218.351852
 20
308.518494
 10
218.318375
 20
308.508881
 10
218.361069
 20
308.487
 10
218.477646
 20
308.453369
 10
218.670105
 20
308.408508
 10
218.937561
 20
308.353943
 10
219.276306
 20
308.292053
 10
219.68515
 20
308.225006
 10
220.162369
 20
308.15506
 10
220.704849
 20
308.084656
 10
221.318176
 20
308.014862
  0
LWPOLYLINE
  5
224
330
7B
100
AcDbEntity
  8
0
  6
Continuous
 62
     0
370
     0
100
AcDbPolyline
 90
       18
 70
     0
 43
0.0
 10
221.318176
 20
307.962463
 10
220.588211
 20
308.037903
 10
219.859665
 20
308.126007
 10
219.133026
 20
308.22876
 10
218.408981
 20
308.348724
 10
217.68837
 20
308.488617
 10
216.972977
 20
308.652649
 10
216.264969
 20
308.84549
 10
215.566513
 20
309.071045
 10
214.879837
 20
309.332397
 10
214.208496
 20
309.632324
 10
213.557251
 20
309.973389
 10
212.930923
 20
310.358124
 10
212.334793
 20
310.788666
 10
211.775558
 20
311.2659
 10
211.260147
 20
311.790466
 10
210.795944
 20
312.361206
 10
210.378815
 20
312.994995
  0
LINE
  5
225
330
7B
100
AcDbEntity
  8
0
  6
Continuous
 62
     0
370
    30
100
AcDbLine
 10
209.452515
 20
321.991691
 30
0.0
 11
209.452706
 21
322.095722
 31
0.0
  0
LINE
  5
226
330
7B
100
AcDbEntity
  8
0
  6
Continuous
 62
     0
370
    30
100
AcDbLine
 10
209.452702
 20
317.884033
 30
0.0
 11
209.45262
 21
320.869354
 31
0.0
  0
LWPOLYLINE
  5
227
330
7B
100
AcDbEntity
  8
0
  6
Continuous
 62
     0
370
    30
100
AcDbPolyline
 90
       24
 70
     0
 43
0.0
 10
209.749344
 20
324.53125
 10
209.749374
 20
324.53125
 10
209.749603
 20
324.531281
 10
209.750061
 20
324.531342
 10
209.750824
 20
324.531372
 10
209.752014
 20
324.531433
 10
209.753738
 20
324.531525
 10
209.756104
 20
324.531647
 10
209.759247
 20
324.531799
 10
209.763245
 20
324.531982
 10
209.76828
 20
324.532196
 10
209.774734
 20
324.532501
 10
209.783112
 20
324.532867
 10
209.7939
 20
324.533325
 10
209.807617
 20
324.533936
 10
209.824921
 20
324.534668
 10
209.84761
 20
324.535614
 10
209.877884
 20
324.536926
 10
209.91803
 20
324.538635
 10
209.973404
 20
324.541016
 10
210.053986
 20
324.544525
 10
210.172745
 20
324.549835
 10
210.354248
 20
324.558167
 10
210.613571
 20
324.570374
  0
LWPOLYLINE
  5
228
330
7B
100
AcDbEntity
  8
0
  6
Continuous
 62
     0
370
     0
100
AcDbPolyline
 90
       16
 70
     0
 43
0.0
 10
210.613571
 20
324.570374
 10
210.537628
 20
324.289856
 10
210.480911
 20
324.004456
 10
210.43959
 20
323.714905
 10
210.411148
 20
323.410583
 10
210.393188
 20
323.080017
 10
210.383301
 20
322.71167
 10
210.379074
 20
322.294006
 10
210.378098
 20
321.815552
 10
210.378082
 20
321.265961
 10
210.378098
 20
320.649323
 10
210.378098
 20
319.979675
 10
210.378128
 20
319.271179
 10
210.378159
 20
318.537994
 10
210.37822
 20
317.794312
 10
210.378296
 20
317.029755
  0
LWPOLYLINE
  5
229
330
7B
100
AcDbEntity
  8
0
  6
Continuous
 62
     0
370
     0
100
AcDbPolyline
 90
        6
 70
     0
 43
0.0
 10
211.294464
 20
325.607239
 10
211.156113
 20
325.48642
 10
211.011612
 20
325.325592
 10
210.866287
 20
325.124939
 10
210.739502
 20
324.895691
 10
210.613571
 20
324.570374
  0
LWPOLYLINE
  5
22A
330
7B
100
AcDbEntity
  8
0
  6
Continuous
 62
     0
370
    30
100
AcDbPolyline
 90
       24
 70
     0
 43
0.0
 10
210.975525
 20
325.726654
 10
210.974487
 20
325.726257
 10
210.973541
 20
325.72583
 10
210.972717
 20
325.725372
 10
210.972046
 20
325.724854
 10
210.971558
 20
325.724274
 10
210.971283
 20
325.723633
 10
210.971237
 20
325.7229
 10
210.971466
 20
325.722076
 10
210.972076
 20
325.72113
 10
210.97319
 20
325.720062
 10
210.974915
 20
325.718781
 10
210.977386
 20
325.717285
 10
210.980713
 20
325.715576
 10
210.985214
 20
325.713501
 10
210.991409
 20
325.710876
 10
210.999802
 20
325.707489
 10
211.010956
 20
325.703125
 10
211.025909
 20
325.69751
 10
211.046463
 20
325.690247
 10
211.074585
 20
325.680817
 10
211.115463
 20
325.667175
 10
211.177307
 20
325.646271
 10
211.294464
 20
325.607239
  0
LWPOLYLINE
  5
22B
330
7B
100
AcDbEntity
  8
0
  6
Continuous
 62
     0
370
     0
100
AcDbPolyline
 90
       25
 70
     0
 43
0.0
 10
211.294464
 20
325.607239
 10
211.810608
 20
325.730743
 10
212.392059
 20
325.831696
 10
213.023972
 20
325.916138
 10
213.70018
 20
325.986938
 10
214.419601
 20
326.047882
 10
215.183914
 20
326.101471
 10
215.993042
 20
326.149139
 10
216.842545
 20
326.191559
 10
217.724152
 20
326.229126
 10
218.626022
 20
326.26236
 10
219.536224
 20
326.291595
 10
220.443832
 20
326.317139
 10
221.340378
 20
326.339355
 10
222.220734
 20
326.358551
 10
223.08316
 20
326.375092
 10
223.928528
 20
326.389282
 10
224.75972
 20
326.401428
 10
225.580917
 20
326.411713
 10
226.396927
 20
326.42038
 10
227.212555
 20
326.42749
 10
228.031937
 20
326.433105
 10
228.857895
 20
326.437256
 10
229.69133
 20
326.439911
 10
230.568344
 20
326.44101
  0
LINE
  5
22C
330
7B
100
AcDbEntity
  8
0
  6
Continuous
 62
     0
370
     0
100
AcDbLine
 10
230.568346
 20
326.441012
 30
0.0
 11
230.568346
 21
326.748659
 31
0.0
  0
LINE
  5
22D
330
7B
100
AcDbEntity
  8
0
  6
Continuous
 62
     0
370
     0
100
AcDbLine
 10
218.7294
 20
326.524238
 30
0.0
 11
217.934812
 21
326.492879
 31
0.0
  0
LWPOLYLINE
  5
22E
330
7B
100
AcDbEntity
  8
0
  6
Continuous
 62
     0
370
     0
100
AcDbPolyline
 90
       18
 70
     0
 43
0.0
 10
210.37883
 20
312.984741
 10
210.779297
 20
312.36618
 10
211.236954
 20
311.792114
 10
211.747101
 20
311.260193
 10
212.302078
 20
310.773468
 10
212.894394
 20
310.334442
 10
213.517944
 20
309.942932
 10
214.16774
 20
309.59613
 10
214.839081
 20
309.290375
 10
215.527069
 20
309.022797
 10
216.226913
 20
308.791779
 10
216.936172
 20
308.595367
 10
217.654236
 20
308.428589
 10
218.377472
 20
308.286682
 10
219.104218
 20
308.165619
 10
219.833557
 20
308.062195
 10
220.564438
 20
307.973846
 10
221.318176
 20
307.896484
  0
LINE
  5
22F
330
7B
100
AcDbEntity
  8
0
  6
Continuous
 62
     0
370
    30
100
AcDbLine
 10
210.378813
 20
312.994999
 30
0.0
 11
210.378829
 21
312.984753
 31
0.0
  0
ARC
  5
230
330
7B
100
AcDbEntity
  8
0
  6
Continuous
 62
     0
370
    30
100
AcDbCircle
 10
216.168013
 20
316.33613
 30
0.0
 40
6.689273900533703
100
AcDbArc
 50
202.410527
 51
210.066689
  0
LINE
  5
231
330
7B
100
AcDbEntity
  8
0
  6
Continuous
 62
     0
370
     0
100
AcDbLine
 10
230.568346
 20
326.441011
 30
0.0
 11
230.568346
 21
309.428456
 31
0.0
  0
LWPOLYLINE
  5
232
330
7B
100
AcDbEntity
  8
0
  6
Continuous
 62
     0
370
    30
100
AcDbPolyline
 90
        2
 70
     0
 43
0.0
 10
219.028198
 20
326.538361
 10
217.522507
 20
326.477112
  0
LWPOLYLINE
  5
233
330
7B
100
AcDbEntity
  8
0
  6
Continuous
 62
     0
370
     0
100
AcDbPolyline
 90
       18
 70
     0
 43
0.0
 10
210.382446
 20
312.949615
 10
210.777344
 20
312.324219
 10
211.229294
 20
311.738708
 10
211.732162
 20
311.196289
 10
212.279724
 20
310.698944
 10
212.865814
 20
310.247589
 10
213.484482
 20
309.841949
 10
214.130219
 20
309.480957
 10
214.798126
 20
309.162811
 10
215.48381
 20
308.885223
 10
216.183685
 20
308.645996
 10
216.894928
 20
308.442352
 10
217.61467
 20
308.270233
 10
218.340302
 20
308.124817
 10
219.069885
 20
308.001556
 10
219.802368
 20
307.896973
 10
220.536957
 20
307.80835
 10
221.318176
 20
307.729248
  0
ARC
  5
234
330
7B
100
AcDbEntity
  8
0
  6
Continuous
 62
     0
370
    30
100
AcDbCircle
 10
216.338441
 20
316.339774
 30
0.0
 40
6.853242436008878
100
AcDbArc
 50
198.830766
 51
209.648513
  0
ARC
  5
235
330
7B
100
AcDbEntity
  8
0
  6
Continuous
 62
     0
370
     0
100
AcDbCircle
 10
222.168865
 20
219.796959
 30
0.0
 40
106.8003552414076
100
AcDbArc
 50
92.602557
 51
93.170482
  0
LWPOLYLINE
  5
236
330
7B
100
AcDbEntity
  8
0
  6
Continuous
 62
     0
370
    30
100
AcDbPolyline
 90
        5
 70
     0
 43
0.0
 10
250.312225
 20
313.12204
 10
250.473389
 20
313.082886
 10
250.617737
 20
313.051636
 10
250.713806
 20
313.028717
 10
250.752258
 20
313.013519
  0
LINE
  5
237
330
7B
100
AcDbEntity
  8
0
  6
Continuous
 62
     0
370
    30
100
AcDbLine
 10
251.682802
 20
317.025373
 30
0.0
 11
251.68369
 21
317.213624
 31
0.0
  0
ARC
  5
238
330
7B
100
AcDbEntity
  8
0
  6
Continuous
 62
     0
370
    30
100
AcDbCircle
 10
245.094123
 20
316.306214
 30
0.0
 40
6.560661318872904
100
AcDbArc
 50
329.688061
 51
337.739926
  0
LWPOLYLINE
  5
239
330
7B
100
AcDbEntity
  8
0
  6
Continuous
 62
     0
370
    30
100
AcDbPolyline
 90
       10
 70
     0
 43
0.0
 10
251.683945
 20
317.50296
 10
251.683395
 20
317.482239
 10
251.67688
 20
317.456268
 10
251.656235
 20
317.42395
 10
251.613297
 20
317.384186
 10
251.539871
 20
317.335938
 10
251.427795
 20
317.278076
 10
251.268906
 20
317.209534
 10
251.055023
 20
317.129211
 10
250.758392
 20
317.029755
  0
LWPOLYLINE
  5
23A
330
7B
100
AcDbEntity
  8
0
  6
Continuous
 62
     0
370
     0
100
AcDbPolyline
 90
       10
 70
     0
 43
0.0
 10
250.758392
 20
317.029755
 10
250.757492
 20
316.498657
 10
250.751587
 20
315.980835
 10
250.735641
 20
315.479736
 10
250.704697
 20
314.99881
 10
250.6539
 20
314.541595
 10
250.583893
 20
314.116241
 10
250.502304
 20
313.738281
 10
250.416397
 20
313.420013
 10
250.312225
 20
313.12204
  0
LWPOLYLINE
  5
23B
330
7B
100
AcDbEntity
  8
0
  6
Continuous
 62
     0
370
     0
100
AcDbPolyline
 90
       25
 70
     0
 43
0.0
 10
250.312225
 20
313.12204
 10
250.147919
 20
312.951141
 10
249.941101
 20
312.761322
 10
249.681259
 20
312.546143
 10
249.362289
 20
312.307007
 10
248.980988
 20
312.053314
 10
248.537186
 20
311.792847
 10
248.029846
 20
311.532166
 10
247.45784
 20
311.275665
 10
246.820206
 20
311.027283
 10
246.115967
 20
310.790924
 10
245.344162
 20
310.570465
 10
244.503815
 20
310.369812
 10
243.594849
 20
310.192169
 10
242.621628
 20
310.037262
 10
241.589951
 20
309.903625
 10
240.505554
 20
309.789886
 10
239.374207
 20
309.694672
 10
238.201691
 20
309.616547
 10
236.993759
 20
309.554108
 10
235.756165
 20
309.505981
 10
234.49469
 20
309.470764
 10
233.215103
 20
309.447021
 10
231.923141
 20
309.433411
 10
230.568344
 20
309.428467
  0
LWPOLYLINE
  5
23C
330
7B
100
AcDbEntity
  8
0
  6
Continuous
 62
     0
370
    30
100
AcDbPolyline
 90
       30
 70
     0
 43
0.0
 10
230.568344
 20
308.31955
 10
231.533691
 20
308.317474
 10
232.493881
 20
308.311096
 10
233.441895
 20
308.30188
 10
234.371674
 20
308.291779
 10
235.277634
 20
308.282928
 10
236.154175
 20
308.277161
 10
236.995636
 20
308.276062
 10
237.796661
 20
308.280853
 10
238.552368
 20
308.291962
 10
239.258102
 20
308.309601
 10
239.909653
 20
308.332977
 10
240.503006
 20
308.361084
 10
241.034653
 20
308.392334
 10
241.501694
 20
308.424469
 10
241.901291
 20
308.4552
 10
242.231155
 20
308.482239
 10
242.489502
 20
308.503296
 10
242.674545
 20
308.516113
 10
242.784515
 20
308.518433
 10
242.817993
 20
308.50882
 10
242.775284
 20
308.486938
 10
242.658707
 20
308.453308
 10
242.466232
 20
308.408447
 10
242.198776
 20
308.353882
 10
241.860031
 20
308.291992
 10
241.451202
 20
308.224945
 10
240.973999
 20
308.155029
 10
240.431519
 20
308.084625
 10
239.818176
 20
308.014832
  0
LWPOLYLINE
  5
23D
330
7B
100
AcDbEntity
  8
0
  6
Continuous
 62
     0
370
     0
100
AcDbPolyline
 90
       18
 70
     0
 43
0.0
 10
239.818176
 20
307.962433
 10
240.548172
 20
308.037872
 10
241.276733
 20
308.125977
 10
242.003403
 20
308.228729
 10
242.727463
 20
308.348663
 10
243.44809
 20
308.488556
 10
244.163513
 20
308.652588
 10
244.871536
 20
308.845428
 10
245.570023
 20
309.071014
 10
246.256714
 20
309.332336
 10
246.928085
 20
309.632263
 10
247.579346
 20
309.973328
 10
248.205704
 20
310.358093
 10
248.801849
 20
310.788635
 10
249.361115
 20
311.265869
 10
249.876541
 20
311.790436
 10
250.340744
 20
312.361206
 10
250.757874
 20
312.994995
  0
LINE
  5
23E
330
7B
100
AcDbEntity
  8
0
  6
Continuous
 62
     0
370
    30
100
AcDbLine
 10
251.684177
 20
321.991691
 30
0.0
 11
251.683986
 21
322.095722
 31
0.0
  0
LINE
  5
23F
330
7B
100
AcDbEntity
  8
0
  6
Continuous
 62
     0
370
    30
100
AcDbLine
 10
251.68399
 20
317.884033
 30
0.0
 11
251.684073
 21
320.869354
 31
0.0
  0
LWPOLYLINE
  5
240
330
7B
100
AcDbEntity
  8
0
  6
Continuous
 62
     0
370
    30
100
AcDbPolyline
 90
       24
 70
     0
 43
0.0
 10
251.387344
 20
324.53125
 10
251.387314
 20
324.53125
 10
251.387085
 20
324.531281
 10
251.386627
 20
324.531342
 10
251.385864
 20
324.531372
 10
251.384674
 20
324.531433
 10
251.38295
 20
324.531525
 10
251.380585
 20
324.531647
 10
251.377457
 20
324.531799
 10
251.373444
 20
324.531982
 10
251.368423
 20
324.532196
 10
251.361969
 20
324.532501
 10
251.353592
 20
324.532867
 10
251.342789
 20
324.533325
 10
251.329071
 20
324.533936
 10
251.311768
 20
324.534668
 10
251.289093
 20
324.535614
 10
251.258804
 20
324.536926
 10
251.218658
 20
324.538635
 10
251.163284
 20
324.541016
 10
251.082703
 20
324.544525
 10
250.963943
 20
324.549835
 10
250.782455
 20
324.558167
 10
250.523117
 20
324.570374
  0
LWPOLYLINE
  5
241
330
7B
100
AcDbEntity
  8
0
  6
Continuous
 62
     0
370
     0
100
AcDbPolyline
 90
       16
 70
     0
 43
0.0
 10
250.523117
 20
324.570374
 10
250.59906
 20
324.289856
 10
250.655792
 20
324.004456
 10
250.697113
 20
323.714905
 10
250.72554
 20
323.410583
 10
250.7435
 20
323.080017
 10
250.753387
 20
322.71167
 10
250.757614
 20
322.294006
 10
250.758591
 20
321.815552
 10
250.758606
 20
321.265961
 10
250.758606
 20
320.649323
 10
250.758591
 20
319.979675
 10
250.75856
 20
319.271179
 10
250.75853
 20
318.537994
 10
250.758469
 20
317.794312
 10
250.758392
 20
317.029755
  0
LWPOLYLINE
  5
242
330
7B
100
AcDbEntity
  8
0
  6
Continuous
 62
     0
370
     0
100
AcDbPolyline
 90
        6
 70
     0
 43
0.0
 10
249.842224
 20
325.607239
 10
249.980576
 20
325.48642
 10
250.125076
 20
325.325592
 10
250.270416
 20
325.124939
 10
250.397202
 20
324.895691
 10
250.523117
 20
324.570374
  0
LWPOLYLINE
  5
243
330
7B
100
AcDbEntity
  8
0
  6
Continuous
 62
     0
370
    30
100
AcDbPolyline
 90
       24
 70
     0
 43
0.0
 10
250.161163
 20
325.726654
 10
250.162216
 20
325.726257
 10
250.163162
 20
325.72583
 10
250.163971
 20
325.725372
 10
250.164642
 20
325.724854
 10
250.165131
 20
325.724274
 10
250.165405
 20
325.723633
 10
250.165466
 20
325.7229
 10
250.165237
 20
325.722076
 10
250.164627
 20
325.72113
 10
250.163513
 20
325.720062
 10
250.161774
 20
325.718781
 10
250.159317
 20
325.717285
 10
250.155975
 20
325.715576
 10
250.151474
 20
325.713501
 10
250.145294
 20
325.710876
 10
250.136887
 20
325.707489
 10
250.125732
 20
325.703125
 10
250.110779
 20
325.69751
 10
250.09024
 20
325.690247
 10
250.062119
 20
325.680817
 10
250.02124
 20
325.667175
 10
249.959381
 20
325.646271
 10
249.842224
 20
325.607239
  0
LWPOLYLINE
  5
244
330
7B
100
AcDbEntity
  8
0
  6
Continuous
 62
     0
370
     0
100
AcDbPolyline
 90
       25
 70
     0
 43
0.0
 10
249.842224
 20
325.607239
 10
249.32608
 20
325.730743
 10
248.744629
 20
325.831696
 10
248.112717
 20
325.916138
 10
247.436508
 20
325.986938
 10
246.717087
 20
326.047882
 10
245.952774
 20
326.101471
 10
245.143646
 20
326.149139
 10
244.294159
 20
326.191559
 10
243.412537
 20
326.229126
 10
242.510666
 20
326.26236
 10
241.600464
 20
326.291595
 10
240.692856
 20
326.317139
 10
239.79631
 20
326.339355
 10
238.915955
 20
326.358551
 10
238.053543
 20
326.375092
 10
237.20816
 20
326.389282
 10
236.376968
 20
326.401428
 10
235.555771
 20
326.411713
 10
234.739761
 20
326.42038
 10
233.924133
 20
326.42749
 10
233.104752
 20
326.433105
 10
232.278793
 20
326.437256
 10
231.445358
 20
326.439911
 10
230.568344
 20
326.44101
  0
LINE
  5
245
330
7B
100
AcDbEntity
  8
0
  6
Continuous
 62
     0
370
     0
100
AcDbLine
 10
242.407292
 20
326.524238
 30
0.0
 11
243.20188
 21
326.492879
 31
0.0
  0
LWPOLYLINE
  5
246
330
7B
100
AcDbEntity
  8
0
  6
Continuous
 62
     0
370
     0
100
AcDbPolyline
 90
       18
 70
     0
 43
0.0
 10
250.757858
 20
312.984741
 10
250.357391
 20
312.36615
 10
249.899719
 20
311.792084
 10
249.389542
 20
311.260132
 10
248.834549
 20
310.773407
 10
248.242218
 20
310.334381
 10
247.618637
 20
309.942871
 10
246.968826
 20
309.596069
 10
246.297455
 20
309.290314
 10
245.609451
 20
309.022736
 10
244.909576
 20
308.791718
 10
244.200302
 20
308.595306
 10
243.482208
 20
308.428528
 10
242.758957
 20
308.286652
 10
242.032196
 20
308.165588
 10
241.302826
 20
308.062134
 10
240.57193
 20
307.973816
 10
239.818176
 20
307.896454
  0
LINE
  5
247
330
7B
100
AcDbEntity
  8
0
  6
Continuous
 62
     0
370
    30
100
AcDbLine
 10
250.757879
 20
312.994999
 30
0.0
 11
250.757863
 21
312.984753
 31
0.0
  0
ARC
  5
248
330
7B
100
AcDbEntity
  8
0
  6
Continuous
 62
     0
370
    30
100
AcDbCircle
 10
244.968679
 20
316.33613
 30
0.0
 40
6.689273900535391
100
AcDbArc
 50
329.933311
 51
337.589473
  0
LWPOLYLINE
  5
249
330
7B
100
AcDbEntity
  8
0
  6
Continuous
 62
     0
370
    30
100
AcDbPolyline
 90
        2
 70
     0
 43
0.0
 10
242.10849
 20
326.538361
 10
243.614182
 20
326.477112
  0
LWPOLYLINE
  5
24A
330
7B
100
AcDbEntity
  8
0
  6
Continuous
 62
     0
370
     0
100
AcDbPolyline
 90
       18
 70
     0
 43
0.0
 10
250.754242
 20
312.949615
 10
250.359344
 20
312.324219
 10
249.907364
 20
311.738678
 10
249.404495
 20
311.196259
 10
248.856903
 20
310.698914
 10
248.270798
 20
310.247528
 10
247.6521
 20
309.841888
 10
247.006348
 20
309.480896
 10
246.338409
 20
309.16275
 10
245.65271
 20
308.885162
 10
244.952805
 20
308.645935
 10
244.241547
 20
308.442291
 10
243.521774
 20
308.270172
 10
242.796127
 20
308.124756
 10
242.066513
 20
308.001526
 10
241.334015
 20
307.896942
 10
240.599396
 20
307.808319
 10
239.818176
 20
307.729218
  0
ARC
  5
24B
330
7B
100
AcDbEntity
  8
0
  6
Continuous
 62
     0
370
    30
100
AcDbCircle
 10
244.798251
 20
316.339774
 30
0.0
 40
6.853242436017046
100
AcDbArc
 50
330.351487
 51
341.169234
  0
ARC
  5
24C
330
7B
100
AcDbEntity
  8
0
  6
Continuous
 62
     0
370
     0
100
AcDbCircle
 10
238.967827
 20
219.796959
 30
0.0
 40
106.8003552415098
100
AcDbArc
 50
86.829518
 51
87.397443
  0
LWPOLYLINE
  5
24D
330
7B
100
AcDbEntity
  8
0
  6
Continuous
 62
     0
370
    30
100
AcDbPolyline
 90
        3
 70
     0
 43
0.0
 10
251.315948
 20
314.218658
 10
251.0746
 20
313.581451
 10
250.753387
 20
312.938751
  0
LWPOLYLINE
  5
24E
330
7B
100
AcDbEntity
  8
0
  6
Continuous
 62
     0
370
    30
100
AcDbPolyline
 90
       17
 70
     0
 43
0.0
 10
250.75235
 20
312.93689
 10
250.330322
 20
312.269165
 10
249.844193
 20
311.645905
 10
249.301697
 20
311.071411
 10
248.7099
 20
310.54776
 10
248.07579
 20
310.076416
 10
247.406113
 20
309.656738
 10
246.707397
 20
309.287079
 10
245.985489
 20
308.965454
 10
245.24501
 20
308.68924
 10
244.490021
 20
308.4552
 10
243.724258
 20
308.259644
 10
242.950745
 20
308.096741
 10
242.172134
 20
307.960419
 10
241.389984
 20
307.846313
 10
240.605331
 20
307.750824
 10
239.818176
 20
307.671204
  0
LINE
  5
24F
330
7B
100
AcDbEntity
  8
0
  6
Continuous
 62
     0
370
    30
100
AcDbLine
 10
243.817372
 20
326.487155
 30
0.0
 11
242.976221
 21
326.524481
 31
0.0
  0
LWPOLYLINE
  5
250
330
7B
100
AcDbEntity
  8
0
  6
Continuous
 62
     0
370
    30
100
AcDbPolyline
 90
       38
 70
     0
 43
0.0
 10
241.225983
 20
326.585419
 10
241.284683
 20
326.58371
 10
241.345795
 20
326.581909
 10
241.407639
 20
326.580109
 10
241.468521
 20
326.578308
 10
241.526749
 20
326.576599
 10
241.581146
 20
326.574951
 10
241.63208
 20
326.573425
 10
241.680222
 20
326.57196
 10
241.726257
 20
326.570526
 10
241.770889
 20
326.569122
 10
241.814804
 20
326.567688
 10
241.858673
 20
326.566254
 10
241.903214
 20
326.564789
 10
241.949081
 20
326.563232
 10
241.996979
 20
326.561584
 10
242.047379
 20
326.559845
 10
242.09967
 20
326.557983
 10
242.152893
 20
326.556122
 10
242.2061
 20
326.55423
 10
242.258362
 20
326.552368
 10
242.308731
 20
326.550537
 10
242.356262
 20
326.548828
 10
242.400009
 20
326.547272
 10
242.439011
 20
326.545868
 10
242.472351
 20
326.544647
 10
242.499634
 20
326.543671
 10
242.524658
 20
326.542755
 10
242.553192
 20
326.541687
 10
242.590973
 20
326.540192
 10
242.643753
 20
326.538086
 10
242.717285
 20
326.535095
 10
242.814148
 20
326.531158
 10
242.918839
 20
326.526886
 10
243.009506
 20
326.523132
 10
243.064331
 20
326.520844
 10
243.061447
 20
326.520874
 10
242.976212
 20
326.524231
  0
LINE
  5
251
330
7B
100
AcDbEntity
  8
0
  6
Continuous
 62
     0
370
    30
100
AcDbLine
 10
249.07687
 20
326.093706
 30
0.0
 11
249.027271
 21
326.11088
 31
0.0
  0
LINE
  5
252
330
7B
100
AcDbEntity
  8
0
  6
Continuous
 62
     0
370
    30
100
AcDbLine
 10
249.027271
 20
326.11088
 30
0.0
 11
249.081222
 21
326.092795
 31
0.0
  0
LWPOLYLINE
  5
253
330
7B
100
AcDbEntity
  8
0
  6
Continuous
 62
     0
370
    30
100
AcDbPolyline
 90
        4
 70
     0
 43
0.0
 10
251.055786
 20
313.559814
 10
251.083389
 20
313.619537
 10
251.097992
 20
313.652649
 10
251.107803
 20
313.677826
  0
LWPOLYLINE
  5
254
330
7B
100
AcDbEntity
  8
0
  6
Continuous
 62
     0
370
    30
100
AcDbPolyline
 90
       49
 70
     0
 43
0.0
 10
239.818176
 20
307.842133
 10
240.128967
 20
307.87204
 10
240.439575
 20
307.904114
 10
240.74971
 20
307.938446
 10
241.06041
 20
307.975311
 10
241.367554
 20
308.014343
 10
241.669922
 20
308.055511
 10
241.972855
 20
308.09964
 10
242.275085
 20
308.14679
 10
242.576843
 20
308.197205
 10
242.877991
 20
308.251007
 10
243.178513
 20
308.308502
 10
243.477905
 20
308.369904
 10
243.778015
 20
308.436035
 10
244.066788
 20
308.504364
 10
244.349335
 20
308.576294
 10
244.632294
 20
308.653625
 10
244.913239
 20
308.736145
 10
245.192657
 20
308.824219
 10
245.470169
 20
308.917908
 10
245.745544
 20
309.017334
 10
246.019272
 20
309.122803
 10
246.287903
 20
309.232971
 10
246.566605
 20
309.354889
 10
246.850906
 20
309.487549
 10
247.129578
 20
309.626648
 10
247.404617
 20
309.77356
 10
247.673737
 20
309.927582
 10
247.933044
 20
310.086548
 10
248.185699
 20
310.252472
 10
248.396973
 20
310.40036
 10
248.606384
 20
310.555695
 10
248.807281
 20
310.713684
 10
248.99733
 20
310.871918
 10
249.186234
 20
311.038544
 10
249.362534
 20
311.202515
 10
249.561188
 20
311.399567
 10
249.783127
 20
311.635498
 10
249.997894
 20
311.883118
 10
250.116684
 20
312.028107
 10
250.191589
 20
312.125519
 10
250.286514
 20
312.250946
 10
250.373428
 20
312.37149
 10
250.460754
 20
312.498352
 10
250.53511
 20
312.609589
 10
250.591309
 20
312.697083
 10
250.647202
 20
312.78833
 10
250.709305
 20
312.892365
 10
250.758621
 20
312.976868
  0
LWPOLYLINE
  5
255
330
7B
100
AcDbEntity
  8
0
  6
Continuous
 62
     0
370
    30
100
AcDbPolyline
 90
       53
 70
     0
 43
0.0
 10
230.568344
 20
326.752747
 10
230.97197
 20
326.752838
 10
231.373459
 20
326.753082
 10
231.77182
 20
326.753387
 10
232.165329
 20
326.753754
 10
232.557541
 20
326.754089
 10
232.945465
 20
326.754364
 10
233.333847
 20
326.754517
 10
233.720932
 20
326.754425
 10
234.107895
 20
326.754089
 10
234.499435
 20
326.753326
 10
234.892426
 20
326.752106
 10
235.290344
 20
326.750244
 10
235.690414
 20
326.747681
 10
236.093307
 20
326.744263
 10
236.497452
 20
326.739868
 10
236.901154
 20
326.734436
 10
237.302765
 20
326.727844
 10
237.699982
 20
326.720123
 10
238.091125
 20
326.711212
 10
238.476257
 20
326.701111
 10
238.853455
 20
326.68988
 10
239.220474
 20
326.677612
 10
239.575485
 20
326.664398
 10
239.917847
 20
326.650391
 10
240.247925
 20
326.635651
 10
240.563904
 20
326.620361
 10
240.84671
 20
326.605804
 10
241.098846
 20
326.592316
 10
241.313065
 20
326.580688
 10
241.491776
 20
326.570923
 10
241.641251
 20
326.562836
 10
241.7659
 20
326.556122
 10
241.871155
 20
326.550568
 10
241.958878
 20
326.54599
 10
242.034836
 20
326.542084
 10
242.102188
 20
326.538696
 10
242.159821
 20
326.535828
 10
242.206345
 20
326.533569
 10
242.250854
 20
326.531433
 10
242.288895
 20
326.529633
 10
242.319
 20
326.528229
 10
242.343536
 20
326.5271
 10
242.368927
 20
326.52594
 10
242.385696
 20
326.525177
 10
242.402512
 20
326.524445
 10
242.414536
 20
326.523926
 10
242.422531
 20
326.52359
 10
242.430481
 20
326.523224
 10
242.432724
 20
326.523132
 10
242.43634
 20
326.52298
 10
242.435593
 20
326.52301
 10
242.433823
 20
326.523102
  0
LWPOLYLINE
  5
256
330
7B
100
AcDbEntity
  8
0
  6
Continuous
 62
     0
370
    30
100
AcDbPolyline
 90
       60
 70
     0
 43
0.0
 10
243.217896
 20
326.492218
 10
243.185104
 20
326.493561
 10
243.157532
 20
326.494659
 10
243.164261
 20
326.494385
 10
243.174576
 20
326.493988
 10
243.199554
 20
326.492981
 10
243.230362
 20
326.491791
 10
243.269821
 20
326.490234
 10
243.314804
 20
326.488464
 10
243.368027
 20
326.48642
 10
243.419937
 20
326.484436
 10
243.475815
 20
326.4823
 10
243.543259
 20
326.479767
 10
243.613297
 20
326.477142
 10
243.69577
 20
326.474121
 10
243.781723
 20
326.471008
 10
243.877457
 20
326.46756
 10
243.979584
 20
326.463959
 10
244.09079
 20
326.460083
 10
244.209503
 20
326.456024
 10
244.333694
 20
326.451813
 10
244.46637
 20
326.447357
 10
244.602356
 20
326.442841
 10
244.745026
 20
326.438141
 10
244.89061
 20
326.433319
 10
245.040939
 20
326.428314
 10
245.193771
 20
326.423187
 10
245.350693
 20
326.417847
 10
245.510559
 20
326.412292
 10
245.672745
 20
326.406464
 10
245.837097
 20
326.400391
 10
246.004196
 20
326.393982
 10
246.175507
 20
326.387054
 10
246.353973
 20
326.379425
 10
246.543716
 20
326.370758
 10
246.75386
 20
326.360291
 10
246.996307
 20
326.346863
 10
247.305695
 20
326.326935
 10
247.761749
 20
326.289581
 10
248.171616
 20
326.244598
 10
248.415222
 20
326.211426
 10
248.581696
 20
326.185699
 10
248.70726
 20
326.164551
 10
248.805344
 20
326.147034
 10
248.888016
 20
326.131531
 10
248.957184
 20
326.118073
 10
249.019257
 20
326.105591
 10
249.075668
 20
326.093964
 10
249.128387
 20
326.082794
 10
249.180328
 20
326.071503
 10
249.232193
 20
326.059967
 10
249.284454
 20
326.048096
 10
249.337524
 20
326.035675
 10
249.391769
 20
326.022491
 10
249.447586
 20
326.00824
 10
249.505417
 20
325.992828
 10
249.565872
 20
325.976624
 10
249.627304
 20
325.958679
 10
249.686218
 20
325.937103
 10
249.748444
 20
325.917755
  0
LWPOLYLINE
  5
257
330
7B
100
AcDbEntity
  8
0
  6
Continuous
 62
     0
370
    30
100
AcDbPolyline
 90
       40
 70
     0
 43
0.0
 10
250.026611
 20
325.791992
 10
250.026505
 20
325.792145
 10
250.025955
 20
325.79248
 10
250.025024
 20
325.79303
 10
250.023773
 20
325.793732
 10
250.022324
 20
325.794525
 10
250.020767
 20
325.795349
 10
250.01918
 20
325.796204
 10
250.017639
 20
325.797028
 10
250.016144
 20
325.797852
 10
250.014725
 20
325.798615
 10
250.013397
 20
325.799347
 10
250.012146
 20
325.800049
 10
250.011032
 20
325.80069
 10
250.01004
 20
325.8013
 10
250.009201
 20
325.801819
 10
250.008514
 20
325.802307
 10
250.008011
 20
325.802704
 10
250.00769
 20
325.803009
 10
250.007538
 20
325.803284
 10
250.007416
 20
325.803558
 10
250.007233
 20
325.803864
 10
250.006866
 20
325.80426
 10
250.006195
 20
325.80481
 10
250.005096
 20
325.805542
 10
250.003464
 20
325.80658
 10
250.001175
 20
325.807892
 10
249.998123
 20
325.80957
 10
249.994186
 20
325.811646
 10
249.989258
 20
325.814209
 10
249.984802
 20
325.816589
 10
249.985611
 20
325.81665
 10
249.991409
 20
325.814575
 10
249.982254
 20
325.819244
 10
249.939423
 20
325.838989
 10
249.878662
 20
325.866821
 10
249.82869
 20
325.889893
 10
249.818298
 20
325.895294
 10
249.87529
 20
325.870605
 10
249.940552
 20
325.842224
  0
LINE
  5
258
330
7B
100
AcDbEntity
  8
0
  6
Continuous
 62
     0
370
    30
100
AcDbLine
 10
250.162744
 20
325.725904
 30
0.0
 11
250.026617
 21
325.791991
 31
0.0
  0
LWPOLYLINE
  5
259
330
7B
100
AcDbEntity
  8
0
  6
Continuous
 62
     0
370
    30
100
AcDbPolyline
 90
       44
 70
     0
 43
0.0
 10
251.387344
 20
324.53125
 10
251.374771
 20
324.560303
 10
251.361755
 20
324.589325
 10
251.34848
 20
324.617889
 10
251.33493
 20
324.646057
 10
251.320526
 20
324.674805
 10
251.304626
 20
324.705261
 10
251.287155
 20
324.737457
 10
251.26886
 20
324.769958
 10
251.250351
 20
324.801575
 10
251.231003
 20
324.83313
 10
251.209808
 20
324.86615
 10
251.186737
 20
324.900696
 10
251.163101
 20
324.934753
 10
251.139359
 20
324.967499
 10
251.113373
 20
325.001587
 10
251.083435
 20
325.039154
 10
251.052551
 20
325.076172
 10
251.016434
 20
325.117218
 10
250.978577
 20
325.158081
 10
250.932907
 20
325.204651
 10
250.881912
 20
325.253357
 10
250.823425
 20
325.305725
 10
250.756195
 20
325.361664
 10
250.688019
 20
325.414368
 10
250.633163
 20
325.454163
 10
250.577286
 20
325.492584
 10
250.535995
 20
325.519714
 10
250.499527
 20
325.542816
 10
250.465134
 20
325.563904
 10
250.431549
 20
325.583984
 10
250.40477
 20
325.599518
 10
250.377258
 20
325.615082
 10
250.349503
 20
325.630554
 10
250.326767
 20
325.642944
 10
250.306641
 20
325.653687
 10
250.285095
 20
325.664948
 10
250.26297
 20
325.676422
 10
250.243515
 20
325.686371
 10
250.22728
 20
325.694519
 10
250.21199
 20
325.702087
 10
250.195602
 20
325.710083
 10
250.178619
 20
325.718323
 10
250.16275
 20
325.725922
  0
LINE
  5
25A
330
7B
100
AcDbEntity
  8
0
  6
Continuous
 62
     0
370
    30
100
AcDbLine
 10
251.683413
 20
322.235256
 30
0.0
 11
251.683874
 21
322.095721
 31
0.0
  0
LWPOLYLINE
  5
25B
330
7B
100
AcDbEntity
  8
0
  6
Continuous
 62
     0
370
    30
100
AcDbPolyline
 90
       28
 70
     0
 43
0.0
 10
251.387344
 20
324.53125
 10
251.422974
 20
324.442474
 10
251.454361
 20
324.354736
 10
251.482712
 20
324.266327
 10
251.508118
 20
324.178406
 10
251.530716
 20
324.091614
 10
251.551498
 20
324.003052
 10
251.57074
 20
323.912231
 10
251.587769
 20
323.821899
 10
251.602844
 20
323.731354
 10
251.616135
 20
323.640594
 10
251.627777
 20
323.549072
 10
251.638168
 20
323.453827
 10
251.647232
 20
323.356262
 10
251.654877
 20
323.257721
 10
251.661346
 20
323.157288
 10
251.666687
 20
323.056061
 10
251.671112
 20
322.951508
 10
251.674866
 20
322.83902
 10
251.677811
 20
322.722046
 10
251.680008
 20
322.605072
 10
251.68161
 20
322.485992
 10
251.682739
 20
322.351685
 10
251.683426
 20
322.239868
 10
251.683655
 20
322.197754
 10
251.683609
 20
322.204041
 10
251.683472
 20
322.226105
 10
251.683411
 20
322.23526
  0
LWPOLYLINE
  5
25C
330
7B
100
AcDbEntity
  8
0
  6
Continuous
 62
     0
370
    30
100
AcDbPolyline
 90
       58
 70
     0
 43
0.0
 10
251.102158
 20
313.66922
 10
251.105865
 20
313.677582
 10
251.108826
 20
313.684235
 10
251.111725
 20
313.690796
 10
251.116287
 20
313.701233
 10
251.123581
 20
313.718048
 10
251.132431
 20
313.738525
 10
251.141251
 20
313.758972
 10
251.148819
 20
313.776611
 10
251.156143
 20
313.794006
 10
251.165039
 20
313.81546
 10
251.176926
 20
313.844452
 10
251.189972
 20
313.876556
 10
251.201508
 20
313.905212
 10
251.21434
 20
313.937958
 10
251.232071
 20
313.984131
 10
251.249664
 20
314.03067
 10
251.268295
 20
314.081757
 10
251.291183
 20
314.146179
 10
251.314285
 20
314.213928
 10
251.343613
 20
314.30365
 10
251.377014
 20
314.412292
 10
251.413834
 20
314.541382
 10
251.451492
 20
314.685883
 10
251.485352
 20
314.829498
 10
251.513367
 20
314.96106
 10
251.537369
 20
315.085388
 10
251.556305
 20
315.194031
 10
251.573868
 20
315.303955
 10
251.587784
 20
315.399139
 10
251.599396
 20
315.487671
 10
251.610443
 20
315.579956
 10
251.620728
 20
315.672974
 10
251.629517
 20
315.759521
 10
251.636765
 20
315.838898
 10
251.642929
 20
315.914581
 10
251.648438
 20
315.990265
 10
251.653595
 20
316.067932
 10
251.65834
 20
316.146423
 10
251.662567
 20
316.22403
 10
251.666214
 20
316.299347
 10
251.669296
 20
316.372467
 10
251.671921
 20
316.444397
 10
251.674179
 20
316.516083
 10
251.676147
 20
316.588196
 10
251.677841
 20
316.660492
 10
251.679291
 20
316.732452
 10
251.680466
 20
316.803589
 10
251.681412
 20
316.873627
 10
251.682144
 20
316.942596
 10
251.682709
 20
317.010529
 10
251.683136
 20
317.077576
 10
251.683456
 20
317.144135
 10
251.68367
 20
317.211243
 10
251.683807
 20
317.279999
 10
251.683884
 20
317.35144
 10
251.683929
 20
317.424744
 10
251.683945
 20
317.497589
  0
LINE
  5
25D
330
7B
100
AcDbEntity
  8
0
  6
Continuous
 62
     0
370
    30
100
AcDbLine
 10
251.091976
 20
313.646461
 30
0.0
 11
251.096631
 21
313.656817
 31
0.0
  0
LINE
  5
25E
330
7B
100
AcDbEntity
  8
0
  6
Continuous
 62
     0
370
    30
100
AcDbLine
 10
251.107968
 20
313.682298
 30
0.0
 11
251.098966
 21
313.66207
 31
0.0
  0
LWPOLYLINE
  5
25F
330
7B
100
AcDbEntity
  8
0
  6
Continuous
 62
     0
370
    30
100
AcDbPolyline
 90
       41
 70
     0
 43
0.0
 10
251.684952
 20
317.884033
 10
251.684937
 20
317.873383
 10
251.68486
 20
317.839417
 10
251.684738
 20
317.779144
 10
251.684555
 20
317.689575
 10
251.684311
 20
317.567719
 10
251.68399
 20
317.410553
 10
251.683578
 20
317.222046
 10
251.683105
 20
317.064484
 10
251.68248
 20
316.977295
 10
251.681625
 20
316.895355
 10
251.680405
 20
316.799591
 10
251.678741
 20
316.702545
 10
251.67662
 20
316.606232
 10
251.674026
 20
316.510254
 10
251.670715
 20
316.411255
 10
251.666412
 20
316.306213
 10
251.661194
 20
316.197784
 10
251.655136
 20
316.090271
 10
251.648087
 20
315.983917
 10
251.639511
 20
315.873505
 10
251.629089
 20
315.756348
 10
251.61734
 20
315.640228
 10
251.602539
 20
315.513153
 10
251.585632
 20
315.384338
 10
251.56366
 20
315.239014
 10
251.537872
 20
315.088104
 10
251.502563
 20
314.90863
 10
251.459808
 20
314.719788
 10
251.405945
 20
314.512817
 10
251.356781
 20
314.345581
 10
251.31514
 20
314.216278
 10
251.282333
 20
314.121155
 10
251.253616
 20
314.041443
 10
251.227982
 20
313.973297
 10
251.208145
 20
313.92218
 10
251.187607
 20
313.870605
 10
251.172852
 20
313.834381
 10
251.158096
 20
313.798889
 10
251.14502
 20
313.767761
 10
251.136047
 20
313.746704
  0
LWPOLYLINE
  5
260
330
7B
100
AcDbEntity
  8
0
  6
Continuous
 62
     0
370
    30
100
AcDbPolyline
 90
        7
 70
     0
 43
0.0
 10
251.094208
 20
313.651428
 10
251.093811
 20
313.650543
 10
251.086624
 20
313.634552
 10
251.073212
 20
313.605042
 10
251.066406
 20
313.59021
 10
251.076309
 20
313.611816
 10
251.091995
 20
313.646454
  0
LWPOLYLINE
  5
261
330
7B
100
AcDbEntity
  8
0
  6
Continuous
 62
     0
370
    30
100
AcDbPolyline
 90
       77
 70
     0
 43
0.0
 10
251.683868
 20
317.326019
 10
251.683868
 20
317.329407
 10
251.683884
 20
317.345459
 10
251.683899
 20
317.377441
 10
251.683914
 20
317.392822
 10
251.683884
 20
317.34671
 10
251.683762
 20
317.258484
 10
251.683609
 20
317.190094
 10
251.683395
 20
317.131042
 10
251.68309
 20
317.069519
 10
251.682709
 20
317.010498
 10
251.68222
 20
316.951538
 10
251.68161
 20
316.891815
 10
251.680878
 20
316.832275
 10
251.679993
 20
316.773041
 10
251.678955
 20
316.714081
 10
251.677765
 20
316.654968
 10
251.676346
 20
316.594879
 10
251.674652
 20
316.53302
 10
251.672684
 20
316.469635
 10
251.670471
 20
316.40564
 10
251.667999
 20
316.341858
 10
251.665283
 20
316.278809
 10
251.662247
 20
316.215698
 10
251.658752
 20
316.151306
 10
251.654709
 20
316.084473
 10
251.650085
 20
316.014954
 10
251.644958
 20
315.944183
 10
251.639465
 20
315.873688
 10
251.633667
 20
315.804993
 10
251.627457
 20
315.737457
 10
251.620468
 20
315.668365
 10
251.612305
 20
315.594788
 10
251.602676
 20
315.514435
 10
251.592102
 20
315.431885
 10
251.580963
 20
315.351654
 10
251.567474
 20
315.263031
 10
251.551697
 20
315.166565
 10
251.535278
 20
315.073853
 10
251.514191
 20
314.965271
 10
251.489883
 20
314.849731
 10
251.462006
 20
314.728943
 10
251.428986
 20
314.597931
 10
251.397354
 20
314.4823
 10
251.366547
 20
314.37738
 10
251.338852
 20
314.28894
 10
251.315094
 20
314.216095
 10
251.293594
 20
314.15329
 10
251.273224
 20
314.095337
 10
251.256638
 20
314.049744
 10
251.239807
 20
314.004425
 10
251.226486
 20
313.96936
 10
251.212341
 20
313.932922
 10
251.199661
 20
313.900696
 10
251.189316
 20
313.874847
 10
251.178406
 20
313.847961
 10
251.169327
 20
313.825806
 10
251.160873
 20
313.805511
 10
251.151932
 20
313.78418
 10
251.144516
 20
313.766602
 10
251.138367
 20
313.752197
 10
251.131744
 20
313.736786
 10
251.125458
 20
313.72226
 10
251.120667
 20
313.711212
 10
251.116211
 20
313.70105
 10
251.111404
 20
313.690125
 10
251.1073
 20
313.680786
 10
251.104309
 20
313.674042
 10
251.10199
 20
313.668854
 10
251.099808
 20
313.66394
 10
251.097275
 20
313.658264
 10
251.094452
 20
313.651978
 10
251.091705
 20
313.645874
 10
251.089386
 20
313.640656
 10
251.087738
 20
313.636993
 10
251.086792
 20
313.634888
 10
251.086487
 20
313.634216
  0
LWPOLYLINE
  5
262
330
7B
100
AcDbEntity
  8
0
  6
Continuous
 62
     0
370
    30
100
AcDbPolyline
 90
        3
 70
     0
 43
0.0
 10
209.82074
 20
314.218658
 10
210.062088
 20
313.581451
 10
210.383301
 20
312.938751
  0
LWPOLYLINE
  5
263
330
7B
100
AcDbEntity
  8
0
  6
Continuous
 62
     0
370
    30
100
AcDbPolyline
 90
       17
 70
     0
 43
0.0
 10
210.384338
 20
312.93689
 10
210.806351
 20
312.269196
 10
211.292465
 20
311.645935
 10
211.834961
 20
311.071472
 10
212.426727
 20
310.547791
 10
213.060806
 20
310.076477
 10
213.730469
 20
309.656799
 10
214.429153
 20
309.28714
 10
215.151047
 20
308.965546
 10
215.891479
 20
308.689301
 10
216.646454
 20
308.455261
 10
217.412201
 20
308.259705
 10
218.185684
 20
308.096771
 10
218.964279
 20
307.96048
 10
219.746399
 20
307.846344
 10
220.531036
 20
307.750854
 10
221.318176
 20
307.671234
  0
LINE
  5
264
330
7B
100
AcDbEntity
  8
0
  6
Continuous
 62
     0
370
    30
100
AcDbLine
 10
217.31932
 20
326.487155
 30
0.0
 11
218.160472
 21
326.524481
 31
0.0
  0
LWPOLYLINE
  5
265
330
7B
100
AcDbEntity
  8
0
  6
Continuous
 62
     0
370
    30
100
AcDbPolyline
 90
       38
 70
     0
 43
0.0
 10
219.910721
 20
326.585419
 10
219.852005
 20
326.58371
 10
219.790894
 20
326.581909
 10
219.72905
 20
326.580109
 10
219.668182
 20
326.578308
 10
219.60994
 20
326.576599
 10
219.555542
 20
326.574951
 10
219.504623
 20
326.573425
 10
219.456482
 20
326.57196
 10
219.410431
 20
326.570526
 10
219.365799
 20
326.569122
 10
219.321884
 20
326.567688
 10
219.278015
 20
326.566254
 10
219.233475
 20
326.564789
 10
219.187607
 20
326.563232
 10
219.139709
 20
326.561584
 10
219.08931
 20
326.559845
 10
219.037033
 20
326.557983
 10
218.98381
 20
326.556122
 10
218.930588
 20
326.55423
 10
218.878326
 20
326.552368
 10
218.827957
 20
326.550537
 10
218.780426
 20
326.548828
 10
218.736694
 20
326.547272
 10
218.697678
 20
326.545868
 10
218.664337
 20
326.544647
 10
218.63707
 20
326.543671
 10
218.61203
 20
326.542755
 10
218.583511
 20
326.541687
 10
218.545731
 20
326.540192
 10
218.492935
 20
326.538086
 10
218.419403
 20
326.535095
 10
218.32254
 20
326.531158
 10
218.21785
 20
326.526886
 10
218.127182
 20
326.523132
 10
218.072372
 20
326.520844
 10
218.075241
 20
326.520874
 10
218.160477
 20
326.524231
  0
LINE
  5
266
330
7B
100
AcDbEntity
  8
0
  6
Continuous
 62
     0
370
    30
100
AcDbLine
 10
212.05982
 20
326.093706
 30
0.0
 11
212.109423
 21
326.110881
 31
0.0
  0
LINE
  5
267
330
7B
100
AcDbEntity
  8
0
  6
Continuous
 62
     0
370
    30
100
AcDbLine
 10
212.109423
 20
326.110881
 30
0.0
 11
212.055468
 21
326.092794
 31
0.0
  0
LWPOLYLINE
  5
268
330
7B
100
AcDbEntity
  8
0
  6
Continuous
 62
     0
370
    30
100
AcDbPolyline
 90
        4
 70
     0
 43
0.0
 10
210.080902
 20
313.559814
 10
210.053299
 20
313.619537
 10
210.038712
 20
313.652649
 10
210.028885
 20
313.677826
  0
LWPOLYLINE
  5
269
330
7B
100
AcDbEntity
  8
0
  6
Continuous
 62
     0
370
    30
100
AcDbPolyline
 90
       48
 70
     0
 43
0.0
 10
221.318176
 20
307.842163
 10
221.000656
 20
307.872742
 10
220.683319
 20
307.905579
 10
220.36647
 20
307.940796
 10
220.049011
 20
307.978668
 10
219.735962
 20
308.018738
 10
219.427017
 20
308.061127
 10
219.117569
 20
308.106659
 10
218.808868
 20
308.155365
 10
218.500687
 20
308.207489
 10
218.1931
 20
308.263245
 10
217.886368
 20
308.322845
 10
217.580261
 20
308.386749
 10
217.275238
 20
308.455261
 10
216.983963
 20
308.525726
 10
216.694794
 20
308.600983
 10
216.406387
 20
308.681763
 10
216.119904
 20
308.768066
 10
215.835098
 20
308.860229
 10
215.552521
 20
308.958282
 10
215.271698
 20
309.062531
 10
214.99437
 20
309.172394
 10
214.71785
 20
309.289276
 10
214.426987
 20
309.420563
 10
214.140076
 20
309.559113
 10
213.857056
 20
309.705536
 10
213.578171
 20
309.860321
 10
213.310059
 20
310.02002
 10
213.046234
 20
310.18866
 10
212.81813
 20
310.344452
 10
212.602676
 20
310.500946
 10
212.393112
 20
310.662598
 10
212.196976
 20
310.823029
 10
212.003708
 20
310.99057
 10
211.818344
 20
311.160614
 10
211.629684
 20
311.344604
 10
211.400024
 20
311.584595
 10
211.179276
 20
311.834991
 10
211.032806
 20
312.011902
 10
210.958694
 20
312.107758
 10
210.862259
 20
312.234711
 10
210.772644
 20
312.358154
 10
210.683441
 20
312.487305
 10
210.605774
 20
312.603241
 10
210.547729
 20
312.693329
 10
210.490875
 20
312.786011
 10
210.427444
 20
312.892273
 10
210.378067
 20
312.976868
  0
LWPOLYLINE
  5
26A
330
7B
100
AcDbEntity
  8
0
  6
Continuous
 62
     0
370
    30
100
AcDbPolyline
 90
       53
 70
     0
 43
0.0
 10
230.568344
 20
326.752747
 10
230.164719
 20
326.752838
 10
229.763229
 20
326.753082
 10
229.364868
 20
326.753387
 10
228.971375
 20
326.753754
 10
228.579147
 20
326.754089
 10
228.191223
 20
326.754364
 10
227.802841
 20
326.754517
 10
227.415756
 20
326.754425
 10
227.028793
 20
326.754089
 10
226.637268
 20
326.753326
 10
226.244263
 20
326.752106
 10
225.846344
 20
326.750244
 10
225.446274
 20
326.747681
 10
225.043381
 20
326.744263
 10
224.639236
 20
326.739868
 10
224.23555
 20
326.734436
 10
223.833939
 20
326.727844
 10
223.436707
 20
326.720123
 10
223.045563
 20
326.711212
 10
222.660431
 20
326.701111
 10
222.283234
 20
326.68988
 10
221.916229
 20
326.677612
 10
221.561203
 20
326.664398
 10
221.218857
 20
326.650391
 10
220.888763
 20
326.635651
 10
220.572784
 20
326.620361
 10
220.289993
 20
326.605804
 10
220.037842
 20
326.592316
 10
219.823624
 20
326.580688
 10
219.644928
 20
326.570923
 10
219.495438
 20
326.562836
 10
219.370789
 20
326.556122
 10
219.265549
 20
326.550568
 10
219.177811
 20
326.54599
 10
219.101852
 20
326.542084
 10
219.0345
 20
326.538696
 10
218.976868
 20
326.535828
 10
218.930359
 20
326.533569
 10
218.885834
 20
326.531433
 10
218.847794
 20
326.529633
 10
218.817703
 20
326.528229
 10
218.793152
 20
326.5271
 10
218.767761
 20
326.52594
 10
218.751007
 20
326.525177
 10
218.734177
 20
326.524445
 10
218.722153
 20
326.523926
 10
218.714157
 20
326.52359
 10
218.706207
 20
326.523224
 10
218.703964
 20
326.523132
 10
218.700363
 20
326.52298
 10
218.701096
 20
326.52301
 10
218.702881
 20
326.523102
  0
LWPOLYLINE
  5
26B
330
7B
100
AcDbEntity
  8
0
  6
Continuous
 62
     0
370
    30
100
AcDbPolyline
 90
       60
 70
     0
 43
0.0
 10
217.918793
 20
326.492218
 10
217.951599
 20
326.493561
 10
217.979156
 20
326.494659
 10
217.972427
 20
326.494385
 10
217.962112
 20
326.493988
 10
217.937134
 20
326.492981
 10
217.906326
 20
326.491791
 10
217.866867
 20
326.490234
 10
217.821884
 20
326.488464
 10
217.768661
 20
326.48642
 10
217.716751
 20
326.484436
 10
217.660873
 20
326.4823
 10
217.59343
 20
326.479767
 10
217.523392
 20
326.477142
 10
217.440933
 20
326.474121
 10
217.354965
 20
326.471008
 10
217.259232
 20
326.46756
 10
217.157104
 20
326.463959
 10
217.045898
 20
326.460083
 10
216.9272
 20
326.456024
 10
216.802994
 20
326.451813
 10
216.670319
 20
326.447357
 10
216.534332
 20
326.442841
 10
216.391663
 20
326.438141
 10
216.246078
 20
326.433319
 10
216.095749
 20
326.428314
 10
215.942932
 20
326.423187
 10
215.785995
 20
326.417847
 10
215.626129
 20
326.412292
 10
215.463959
 20
326.406464
 10
215.299606
 20
326.400391
 10
215.132492
 20
326.393982
 10
214.961182
 20
326.387054
 10
214.782715
 20
326.379425
 10
214.592972
 20
326.370758
 10
214.382828
 20
326.360291
 10
214.140396
 20
326.346863
 10
213.830994
 20
326.326935
 10
213.374939
 20
326.289581
 10
212.965073
 20
326.244598
 10
212.721481
 20
326.211426
 10
212.555008
 20
326.185699
 10
212.429428
 20
326.164551
 10
212.33136
 20
326.147034
 10
212.248672
 20
326.131531
 10
212.17952
 20
326.118073
 10
212.117432
 20
326.105591
 10
212.06102
 20
326.093964
 10
212.008301
 20
326.082794
 10
211.95636
 20
326.071503
 10
211.904495
 20
326.059967
 10
211.852234
 20
326.048096
 10
211.799164
 20
326.035675
 10
211.744919
 20
326.022491
 10
211.689102
 20
326.00824
 10
211.631271
 20
325.992828
 10
211.570816
 20
325.976624
 10
211.509384
 20
325.958679
 10
211.450485
 20
325.937103
 10
211.38826
 20
325.917755
  0
LWPOLYLINE
  5
26C
330
7B
100
AcDbEntity
  8
0
  6
Continuous
 62
     0
370
    30
100
AcDbPolyline
 90
       40
 70
     0
 43
0.0
 10
211.110077
 20
325.791992
 10
211.110184
 20
325.792145
 10
211.110733
 20
325.79248
 10
211.111679
 20
325.79303
 10
211.112915
 20
325.793732
 10
211.114365
 20
325.794525
 10
211.115936
 20
325.795349
 10
211.117508
 20
325.796204
 10
211.119049
 20
325.797028
 10
211.120544
 20
325.797852
 10
211.121964
 20
325.798615
 10
211.123306
 20
325.799347
 10
211.124542
 20
325.800049
 10
211.125656
 20
325.80069
 10
211.126648
 20
325.8013
 10
211.127502
 20
325.801819
 10
211.128174
 20
325.802307
 10
211.128693
 20
325.802704
 10
211.128998
 20
325.803009
 10
211.12915
 20
325.803284
 10
211.129272
 20
325.803558
 10
211.129456
 20
325.803864
 10
211.129822
 20
325.80426
 10
211.130508
 20
325.80481
 10
211.131592
 20
325.805542
 10
211.133224
 20
325.80658
 10
211.135513
 20
325.807892
 10
211.138565
 20
325.80957
 10
211.142502
 20
325.811646
 10
211.14743
 20
325.814209
 10
211.151886
 20
325.816589
 10
211.151077
 20
325.81665
 10
211.145294
 20
325.814575
 10
211.154434
 20
325.819244
 10
211.197266
 20
325.838989
 10
211.258026
 20
325.866821
 10
211.307999
 20
325.889893
 10
211.318405
 20
325.895294
 10
211.261414
 20
325.870605
 10
211.196136
 20
325.842224
  0
LINE
  5
26D
330
7B
100
AcDbEntity
  8
0
  6
Continuous
 62
     0
370
    30
100
AcDbLine
 10
210.973948
 20
325.725904
 30
0.0
 11
211.110075
 21
325.791991
 31
0.0
  0
LWPOLYLINE
  5
26E
330
7B
100
AcDbEntity
  8
0
  6
Continuous
 62
     0
370
    30
100
AcDbPolyline
 90
       44
 70
     0
 43
0.0
 10
209.749344
 20
324.53125
 10
209.761917
 20
324.560303
 10
209.774933
 20
324.589325
 10
209.788208
 20
324.617889
 10
209.801758
 20
324.646057
 10
209.816162
 20
324.674805
 10
209.832077
 20
324.705261
 10
209.849533
 20
324.737457
 10
209.867828
 20
324.769958
 10
209.886337
 20
324.801575
 10
209.905685
 20
324.83313
 10
209.92688
 20
324.86615
 10
209.949951
 20
324.900696
 10
209.973587
 20
324.934753
 10
209.99733
 20
324.967499
 10
210.023315
 20
325.001587
 10
210.053253
 20
325.039154
 10
210.084137
 20
325.076172
 10
210.120255
 20
325.117218
 10
210.158112
 20
325.158081
 10
210.203796
 20
325.204651
 10
210.254791
 20
325.253357
 10
210.313263
 20
325.305725
 10
210.380508
 20
325.361664
 10
210.448685
 20
325.414368
 10
210.503525
 20
325.454163
 10
210.559402
 20
325.492584
 10
210.600708
 20
325.519714
 10
210.637177
 20
325.542816
 10
210.671555
 20
325.563904
 10
210.705154
 20
325.583984
 10
210.731918
 20
325.599518
 10
210.75943
 20
325.615082
 10
210.787201
 20
325.630554
 10
210.809921
 20
325.642944
 10
210.830048
 20
325.653687
 10
210.851593
 20
325.664948
 10
210.873718
 20
325.676422
 10
210.893173
 20
325.686371
 10
210.909409
 20
325.694519
 10
210.924698
 20
325.702087
 10
210.941086
 20
325.710083
 10
210.958069
 20
325.718323
 10
210.973938
 20
325.725922
  0
LINE
  5
26F
330
7B
100
AcDbEntity
  8
0
  6
Continuous
 62
     0
370
    30
100
AcDbLine
 10
209.45328
 20
322.235256
 30
0.0
 11
209.452819
 21
322.095721
 31
0.0
  0
LWPOLYLINE
  5
270
330
7B
100
AcDbEntity
  8
0
  6
Continuous
 62
     0
370
    30
100
AcDbPolyline
 90
       28
 70
     0
 43
0.0
 10
209.749344
 20
324.53125
 10
209.71373
 20
324.442474
 10
209.682343
 20
324.354736
 10
209.653976
 20
324.266327
 10
209.628571
 20
324.178406
 10
209.605972
 20
324.091614
 10
209.58519
 20
324.003052
 10
209.565948
 20
323.912231
 10
209.54892
 20
323.821899
 10
209.533844
 20
323.731354
 10
209.520554
 20
323.640594
 10
209.508926
 20
323.549072
 10
209.49852
 20
323.453827
 10
209.489456
 20
323.356262
 10
209.481812
 20
323.257721
 10
209.475342
 20
323.157288
 10
209.470001
 20
323.056061
 10
209.465576
 20
322.951508
 10
209.461838
 20
322.83902
 10
209.458878
 20
322.722046
 10
209.45668
 20
322.605072
 10
209.455078
 20
322.485992
 10
209.453949
 20
322.351685
 10
209.453262
 20
322.239868
 10
209.453033
 20
322.197754
 10
209.453079
 20
322.204041
 10
209.453217
 20
322.226105
 10
209.453278
 20
322.23526
  0
LWPOLYLINE
  5
271
330
7B
100
AcDbEntity
  8
0
  6
Continuous
 62
     0
370
    30
100
AcDbPolyline
 90
       58
 70
     0
 43
0.0
 10
210.034546
 20
313.66922
 10
210.030823
 20
313.677582
 10
210.027863
 20
313.684235
 10
210.024963
 20
313.690796
 10
210.020401
 20
313.701233
 10
210.013123
 20
313.718048
 10
210.004257
 20
313.738525
 10
209.995438
 20
313.758972
 10
209.987885
 20
313.776611
 10
209.980545
 20
313.794006
 10
209.971649
 20
313.81546
 10
209.959763
 20
313.844452
 10
209.946716
 20
313.876556
 10
209.935181
 20
313.905212
 10
209.922348
 20
313.937958
 10
209.904617
 20
313.984131
 10
209.887039
 20
314.03067
 10
209.868393
 20
314.081757
 10
209.845505
 20
314.146179
 10
209.822403
 20
314.213928
 10
209.793076
 20
314.30365
 10
209.759689
 20
314.412292
 10
209.722855
 20
314.541382
 10
209.685196
 20
314.685883
 10
209.651337
 20
314.829498
 10
209.623322
 20
314.96106
 10
209.599319
 20
315.085388
 10
209.580383
 20
315.194031
 10
209.562836
 20
315.303955
 10
209.548904
 20
315.399139
 10
209.537292
 20
315.487671
 10
209.52626
 20
315.579956
 10
209.515961
 20
315.672974
 10
209.507172
 20
315.759521
 10
209.499924
 20
315.838898
 10
209.493774
 20
315.914581
 10
209.488266
 20
315.990265
 10
209.483109
 20
316.067932
 10
209.478363
 20
316.146423
 10
209.474121
 20
316.22403
 10
209.470474
 20
316.299347
 10
209.467392
 20
316.372467
 10
209.464767
 20
316.444397
 10
209.462524
 20
316.516083
 10
209.460556
 20
316.588196
 10
209.458847
 20
316.660492
 10
209.457413
 20
316.732452
 10
209.456223
 20
316.803589
 10
209.455276
 20
316.873627
 10
209.454544
 20
316.942596
 10
209.453979
 20
317.010529
 10
209.453552
 20
317.077576
 10
209.453247
 20
317.144135
 10
209.453018
 20
317.211243
 10
209.452881
 20
317.279999
 10
209.452805
 20
317.35144
 10
209.452774
 20
317.424744
 10
209.452759
 20
317.497589
  0
LINE
  5
272
330
7B
100
AcDbEntity
  8
0
  6
Continuous
 62
     0
370
    30
100
AcDbLine
 10
210.044716
 20
313.646461
 30
0.0
 11
210.040061
 21
313.656817
 31
0.0
  0
LWPOLYLINE
  5
273
330
7B
100
AcDbEntity
  8
0
  6
Continuous
 62
     0
370
    30
100
AcDbPolyline
 90
        8
 70
     0
 43
0.0
 10
210.04007
 20
313.65683
 10
210.042191
 20
313.652069
 10
210.042358
 20
313.651703
 10
210.045929
 20
313.643738
 10
210.058243
 20
313.616516
 10
210.070007
 20
313.59079
 10
210.064133
 20
313.603607
 10
210.048019
 20
313.639069
  0
LWPOLYLINE
  5
274
330
7B
100
AcDbEntity
  8
0
  6
Continuous
 62
     0
370
    30
100
AcDbPolyline
 90
       50
 70
     0
 43
0.0
 10
209.451736
 20
317.884033
 10
209.451752
 20
317.877197
 10
209.451797
 20
317.855682
 10
209.451874
 20
317.817871
 10
209.451996
 20
317.762268
 10
209.452148
 20
317.687286
 10
209.452332
 20
317.591339
 10
209.452576
 20
317.4729
 10
209.452866
 20
317.330505
 10
209.453217
 20
317.178101
 10
209.453613
 20
317.059509
 10
209.454102
 20
316.988464
 10
209.454727
 20
316.926178
 10
209.455566
 20
316.852325
 10
209.45668
 20
316.7742
 10
209.458084
 20
316.696198
 10
209.459778
 20
316.618713
 10
209.461761
 20
316.541656
 10
209.464142
 20
316.46347
 10
209.467102
 20
316.382111
 10
209.470703
 20
316.296814
 10
209.474899
 20
316.209534
 10
209.47963
 20
316.12262
 10
209.484924
 20
316.03717
 10
209.491028
 20
315.950897
 10
209.49823
 20
315.860962
 10
209.506653
 20
315.766479
 10
209.515839
 20
315.673157
 10
209.526627
 20
315.575806
 10
209.539566
 20
315.470154
 10
209.553513
 20
315.367096
 10
209.571442
 20
315.249023
 10
209.59166
 20
315.127808
 10
209.616943
 20
314.993286
 10
209.647598
 20
314.8461
 10
209.684814
 20
314.687439
 10
209.728607
 20
314.520569
 10
209.769547
 20
314.379517
 10
209.804199
 20
314.269226
 10
209.833206
 20
314.181763
 10
209.860474
 20
314.103882
 10
209.882584
 20
314.042786
 10
209.903473
 20
313.987091
 10
209.920609
 20
313.942383
 10
209.936813
 20
313.901337
 10
209.952454
 20
313.862274
 10
209.963852
 20
313.83432
 10
209.975616
 20
313.80603
 10
209.987228
 20
313.77829
 10
209.995728
 20
313.758179
  0
LINE
  5
275
330
7B
100
AcDbEntity
  8
0
  6
Continuous
 62
     0
370
    30
100
AcDbLine
 10
210.034523
 20
313.669227
 30
0.0
 11
210.05021
 21
313.634224
 31
0.0
  0
LWPOLYLINE
  5
276
330
7B
100
AcDbEntity
  8
0
  6
Continuous
 62
     0
370
    30
100
AcDbPolyline
 90
       53
 70
     0
 43
0.0
 10
209.45282
 20
317.326019
 10
209.45282
 20
317.331116
 10
209.452805
 20
317.356171
 10
209.452774
 20
317.3909
 10
209.452789
 20
317.366974
 10
209.452911
 20
317.265625
 10
209.453094
 20
317.184479
 10
209.453369
 20
317.11377
 10
209.453766
 20
317.042084
 10
209.454285
 20
316.972626
 10
209.454956
 20
316.902161
 10
209.455826
 20
316.831696
 10
209.456894
 20
316.761688
 10
209.45816
 20
316.691986
 10
209.459686
 20
316.621643
 10
209.461563
 20
316.549255
 10
209.463837
 20
316.474579
 10
209.466476
 20
316.398865
 10
209.469452
 20
316.323608
 10
209.472794
 20
316.249176
 10
209.476669
 20
316.173828
 10
209.481277
 20
316.095612
 10
209.48671
 20
316.013611
 10
209.492813
 20
315.929901
 10
209.499435
 20
315.847015
 10
209.50647
 20
315.766724
 10
209.514389
 20
315.685974
 10
209.523788
 20
315.599945
 10
209.535202
 20
315.504883
 10
209.547806
 20
315.408051
 10
209.561798
 20
315.310913
 10
209.579605
 20
315.198761
 10
209.598709
 20
315.088562
 10
209.623184
 20
314.961914
 10
209.652176
 20
314.825623
 10
209.687332
 20
314.677307
 10
209.726227
 20
314.529114
 10
209.76358
 20
314.399231
 10
209.796158
 20
314.294189
 10
209.824081
 20
314.20874
 10
209.850067
 20
314.13327
 10
209.871384
 20
314.073395
 10
209.891815
 20
314.017975
 10
209.908325
 20
313.974274
 10
209.924896
 20
313.931519
 10
209.939346
 20
313.894867
 10
209.951828
 20
313.863861
 10
209.963852
 20
313.834351
 10
209.97377
 20
313.810394
 10
209.984344
 20
313.785156
 10
209.993027
 20
313.764587
 10
210.000351
 20
313.747467
 10
210.008347
 20
313.728912
  0
ARC
  5
277
330
7B
100
AcDbEntity
  8
0
  6
Continuous
 62
     0
370
    30
100
AcDbCircle
 10
230.568251
 20
317.105183
 30
0.0
 40
30.0
100
AcDbArc
 50
268.426681
 51
88.426681
  0
ARC
  5
278
330
7B
100
AcDbEntity
  8
0
  6
Continuous
 62
     0
370
    30
100
AcDbCircle
 10
230.568251
 20
317.105183
 30
0.0
 40
30.0
100
AcDbArc
 50
88.426681
 51
268.426681
  0
ARC
  5
279
330
7B
100
AcDbEntity
  8
0
  6
Continuous
 62
     0
370
     0
100
AcDbCircle
 10
230.568251
 20
317.105183
 30
0.0
 40
29.50000000000001
100
AcDbArc
 50
88.426681
 51
268.426681
  0
ARC
  5
27A
330
7B
100
AcDbEntity
  8
0
  6
Continuous
 62
     0
370
     0
100
AcDbCircle
 10
230.568251
 20
317.105183
 30
0.0
 40
29.50000000000001
100
AcDbArc
 50
268.426681
 51
88.426681
  0
ENDBLK
  5
27C
330
7B
100
AcDbEntity
  8
0
100
AcDbBlockEnd
  0
BLOCK
  5
2C6
330
27E
100
AcDbEntity
  8
0
100
AcDbBlockBegin
  2
b
 70
     0
 10
0.0
 20
210.020721
 30
0.0
  3
b
  1

  0
LINE
  5
27F
330
27E
100
AcDbEntity
  8
0
  6
Continuous
 62
     0
370
     0
100
AcDbLine
 10
209.452456
 20
18.2428
 30
0.0
 11
209.758882
 21
18.242794
 31
0.0
  0
LWPOLYLINE
  5
280
330
27E
100
AcDbEntity
  8
0
  6
Continuous
 62
     0
370
     0
100
AcDbPolyline
 90
       44
 70
     0
 43
0.0
 10
209.758881
 20
18.242794
 10
209.758331
 20
17.578283
 10
209.757767
 20
16.913773
 10
209.757217
 20
16.249264
 10
209.756653
 20
15.584753
 10
209.756104
 20
14.920243
 10
209.755539
 20
14.255733
 10
209.75499
 20
13.591223
 10
209.75444
 20
12.926713
 10
209.753891
 20
12.262202
 10
209.753342
 20
11.597692
 10
209.752792
 20
10.933183
 10
209.752243
 20
10.268672
 10
209.751694
 20
9.604162
 10
209.751144
 20
8.939652
 10
209.750626
 20
8.275143
 10
209.750153
 20
7.610633
 10
209.749771
 20
6.946124
 10
209.749496
 20
6.281613
 10
209.749359
 20
5.617103
 10
209.749359
 20
4.952592
 10
209.749542
 20
4.28808
 10
209.749924
 20
3.623568
 10
209.75058
 20
2.959056
 10
209.751602
 20
2.294544
 10
209.753082
 20
1.630033
 10
209.755142
 20
0.965525
 10
209.757858
 20
0.301021
 10
209.761337
 20
-0.36348
 10
209.765686
 20
-1.027976
 10
209.771149
 20
-1.692463
 10
209.778152
 20
-2.356936
 10
209.787155
 20
-3.021387
 10
209.798584
 20
-3.685811
 10
209.812881
 20
-4.3502
 10
209.830933
 20
-5.014514
 10
209.854584
 20
-5.678634
 10
209.885803
 20
-6.34243
 10
209.926788
 20
-7.005743
 10
209.983429
 20
-7.667888
 10
210.064865
 20
-8.327724
 10
210.18364
 20
-8.982179
 10
210.362442
 20
-9.622124
 10
210.613571
 20
-10.242279
  0
LWPOLYLINE
  5
281
330
27E
100
AcDbEntity
  8
0
  6
Continuous
 62
     0
370
     0
100
AcDbPolyline
 90
        5
 70
     0
 43
0.0
 10
210.613571
 20
-10.242279
 10
210.522018
 20
-10.300344
 10
210.45874
 20
-10.333877
 10
210.417419
 20
-10.343273
 10
210.38768
 20
-10.322577
  0
LWPOLYLINE
  5
282
330
27E
100
AcDbEntity
  8
0
  6
Continuous
 62
     0
370
     0
100
AcDbPolyline
 90
        5
 70
     0
 43
0.0
 10
211.294464
 20
-9.871624
 10
211.126266
 20
-9.961432
 10
210.948685
 20
-10.05202
 10
210.782318
 20
-10.140816
 10
210.613571
 20
-10.242279
  0
LINE
  5
283
330
27E
100
AcDbEntity
  8
0
  6
Continuous
 62
     0
370
     0
100
AcDbLine
 10
209.758882
 20
18.242794
 30
0.0
 11
210.996298
 21
18.242796
 31
0.0
  0
LWPOLYLINE
  5
284
330
27E
100
AcDbEntity
  8
0
  6
Continuous
 62
     0
370
     0
100
AcDbPolyline
 90
       26
 70
     0
 43
0.0
 10
210.996292
 20
18.242796
 10
210.994308
 20
17.118681
 10
210.992325
 20
15.994568
 10
210.990341
 20
14.870454
 10
210.988373
 20
13.74634
 10
210.986404
 20
12.622226
 10
210.984436
 20
11.498112
 10
210.982483
 20
10.373998
 10
210.980545
 20
9.249884
 10
210.978638
 20
8.12577
 10
210.976746
 20
7.001655
 10
210.974976
 20
5.877539
 10
210.973419
 20
4.753424
 10
210.972214
 20
3.629308
 10
210.971451
 20
2.505194
 10
210.971222
 20
1.38108
 10
210.971741
 20
0.256967
 10
210.973404
 20
-0.867144
 10
210.9767
 20
-1.991256
 10
210.982147
 20
-3.115367
 10
210.991119
 20
-4.239451
 10
211.005722
 20
-5.363454
 10
211.028931
 20
-6.487293
 10
211.067322
 20
-7.610739
 10
211.135727
 20
-8.732521
 10
211.294464
 20
-9.871624
  0
LWPOLYLINE
  5
285
330
27E
100
AcDbEntity
  8
0
  6
Continuous
 62
     0
370
     0
100
AcDbPolyline
 90
       27
 70
     0
 43
0.0
 10
211.294464
 20
-9.871624
 10
211.768951
 20
-10.423042
 10
212.300888
 20
-10.917351
 10
212.87706
 20
-11.355771
 10
213.49176
 20
-11.744063
 10
214.143265
 20
-12.088969
 10
214.832535
 20
-12.396049
 10
215.560654
 20
-12.668137
 10
216.325745
 20
-12.905942
 10
217.123016
 20
-13.109045
 10
217.944717
 20
-13.279665
 10
218.781158
 20
-13.422508
 10
219.623016
 20
-13.541614
 10
220.461853
 20
-13.640412
 10
221.291061
 20
-13.72197
 10
222.106583
 20
-13.789031
 10
222.906769
 20
-13.843999
 10
223.692062
 20
-13.888914
 10
224.464386
 20
-13.925477
 10
225.226776
 20
-13.955067
 10
225.982925
 20
-13.978781
 10
226.73671
 20
-13.997477
 10
227.491745
 20
-14.01182
 10
228.250977
 20
-14.022328
 10
229.016251
 20
-14.029425
 10
229.787857
 20
-14.033479
 10
230.568344
 20
-14.034844
  0
LINE
  5
286
330
27E
100
AcDbEntity
  8
0
  6
Continuous
 62
     0
370
     0
100
AcDbLine
 10
230.568346
 20
-14.034845
 30
0.0
 11
230.568346
 21
18.242796
 31
0.0
  0
LWPOLYLINE
  5
287
330
27E
100
AcDbEntity
  8
0
  6
Continuous
 62
     0
370
     0
100
AcDbPolyline
 90
       20
 70
     0
 43
0.0
 10
230.568344
 20
18.242796
 10
229.535385
 20
18.242754
 10
228.502441
 20
18.242756
 10
227.469498
 20
18.242785
 10
226.436569
 20
18.242825
 10
225.403656
 20
18.242853
 10
224.370773
 20
18.242857
 10
223.337952
 20
18.24284
 10
222.305206
 20
18.242849
 10
221.272552
 20
18.242908
 10
220.240067
 20
18.242708
 10
219.207718
 20
18.24272
 10
218.175522
 20
18.243067
 10
217.143494
 20
18.242592
 10
216.111786
 20
18.243002
 10
215.080704
 20
18.24328
 10
214.050659
 20
18.242279
 10
213.022552
 20
18.242598
 10
211.999725
 20
18.243397
 10
210.996292
 20
18.242796
  0
LWPOLYLINE
  5
288
330
27E
100
AcDbEntity
  8
0
  6
Continuous
 62
     0
370
     0
100
AcDbPolyline
 90
       16
 70
     0
 43
0.0
 10
209.452713
 20
30.042795
 10
209.452682
 20
30.042953
 10
209.452637
 20
30.043076
 10
209.452621
 20
30.043175
 10
209.452576
 20
30.043222
 10
209.452377
 20
30.043243
 10
209.452316
 20
30.043242
 10
209.452591
 20
30.043205
 10
209.45282
 20
30.043137
 10
209.452621
 20
30.043064
 10
209.452988
 20
30.043009
 10
209.457809
 20
30.042971
 10
209.475403
 20
30.042921
 10
209.519516
 20
30.042849
 10
209.607864
 20
30.042822
 10
209.767273
 20
30.042805
  0
LINE
  5
289
330
27E
100
AcDbEntity
  8
0
  6
Continuous
 62
     0
370
     0
100
AcDbLine
 10
209.76728
 20
30.042796
 30
0.0
 11
209.758882
 21
18.242794
 31
0.0
  0
LINE
  5
28A
330
27E
100
AcDbEntity
  8
0
  6
Continuous
 62
     0
370
     0
100
AcDbLine
 10
230.568346
 20
-14.034844
 30
0.0
 11
230.568346
 21
-16.236688
 31
0.0
  0
LINE
  5
28B
330
27E
100
AcDbEntity
  8
0
  6
Continuous
 62
     0
370
     0
100
AcDbLine
 10
211.014963
 20
30.042796
 30
0.0
 11
210.996298
 21
18.242796
 31
0.0
  0
LINE
  5
28C
330
27E
100
AcDbEntity
  8
0
  6
Continuous
 62
     0
370
     0
100
AcDbLine
 10
230.568346
 20
18.242796
 30
0.0
 11
230.568346
 21
30.042796
 31
0.0
  0
LINE
  5
28D
330
27E
100
AcDbEntity
  8
0
  6
Continuous
 62
     0
370
     0
100
AcDbLine
 10
230.568346
 20
30.042796
 30
0.0
 11
211.014963
 21
30.042796
 31
0.0
  0
LINE
  5
28E
330
27E
100
AcDbEntity
  8
0
  6
Continuous
 62
     0
370
     0
100
AcDbLine
 10
209.76728
 20
30.042796
 30
0.0
 11
211.014963
 21
30.042793
 31
0.0
  0
LWPOLYLINE
  5
28F
330
27E
100
AcDbEntity
  8
0
  6
Continuous
 62
     0
370
     0
100
AcDbPolyline
 90
       16
 70
     0
 43
0.0
 10
209.452667
 20
142.142792
 10
209.452652
 20
142.142776
 10
209.452621
 20
142.142761
 10
209.452606
 20
142.142776
 10
209.452484
 20
142.142776
 10
209.452347
 20
142.142776
 10
209.452362
 20
142.142776
 10
209.452576
 20
142.142792
 10
209.45282
 20
142.142792
 10
209.452591
 20
142.142807
 10
209.453079
 20
142.142807
 10
209.458084
 20
142.142792
 10
209.477448
 20
142.142792
 10
209.525284
 20
142.142792
 10
209.619965
 20
142.142792
 10
209.788788
 20
142.142792
  0
LWPOLYLINE
  5
290
330
27E
100
AcDbEntity
  8
0
  6
Continuous
 62
     0
370
     0
100
AcDbPolyline
 90
        4
 70
     0
 43
0.0
 10
209.788788
 20
142.142792
 10
209.775177
 20
112.509216
 10
209.775101
 20
82.875633
 10
209.767273
 20
30.042795
  0
LINE
  5
291
330
27E
100
AcDbEntity
  8
0
  6
Continuous
 62
     0
370
     0
100
AcDbLine
 10
211.057643
 20
142.142796
 30
0.0
 11
230.568346
 21
142.142796
 31
0.0
  0
LINE
  5
292
330
27E
100
AcDbEntity
  8
0
  6
Continuous
 62
     0
370
     0
100
AcDbLine
 10
230.568346
 20
142.142796
 30
0.0
 11
230.568346
 21
30.042796
 31
0.0
  0
LWPOLYLINE
  5
293
330
27E
100
AcDbEntity
  8
0
  6
Continuous
 62
     0
370
     0
100
AcDbPolyline
 90
        4
 70
     0
 43
0.0
 10
211.014969
 20
30.042795
 10
211.039368
 20
65.803635
 10
211.0383
 20
101.564491
 10
211.057648
 20
142.142792
  0
LINE
  5
294
330
27E
100
AcDbEntity
  8
0
  6
Continuous
 62
     0
370
     0
100
AcDbLine
 10
209.788787
 20
142.142796
 30
0.0
 11
211.057643
 21
142.142796
 31
0.0
  0
ARC
  5
295
330
27E
100
AcDbEntity
  8
0
  6
Continuous
 62
     0
370
     0
100
AcDbCircle
 10
-32691.260927
 20
162.281709
 30
0.0
 40
32901.05587764013
100
AcDbArc
 50
359.964929
 51
0.028197
  0
LWPOLYLINE
  5
296
330
27E
100
AcDbEntity
  8
0
  6
Continuous
 62
     0
370
     0
100
AcDbPolyline
 90
        3
 70
     0
 43
0.0
 10
211.057648
 20
142.142792
 10
211.063934
 20
149.264938
 10
211.060776
 20
178.473297
  0
LINE
  5
297
330
27E
100
AcDbEntity
  8
0
  6
Continuous
 62
     0
370
     0
100
AcDbLine
 10
230.568346
 20
142.142796
 30
0.0
 11
230.568346
 21
178.473296
 31
0.0
  0
LINE
  5
298
330
27E
100
AcDbEntity
  8
0
  6
Continuous
 62
     0
370
     0
100
AcDbLine
 10
251.684237
 20
18.2428
 30
0.0
 11
251.37781
 21
18.242794
 31
0.0
  0
LWPOLYLINE
  5
299
330
27E
100
AcDbEntity
  8
0
  6
Continuous
 62
     0
370
     0
100
AcDbPolyline
 90
       44
 70
     0
 43
0.0
 10
251.377808
 20
18.242794
 10
251.378372
 20
17.578283
 10
251.378922
 20
16.913773
 10
251.379486
 20
16.249264
 10
251.380035
 20
15.584753
 10
251.3806
 20
14.920243
 10
251.381149
 20
14.255733
 10
251.381699
 20
13.591223
 10
251.382248
 20
12.926713
 10
251.382812
 20
12.262202
 10
251.383362
 20
11.597692
 10
251.383896
 20
10.933183
 10
251.384445
 20
10.268672
 10
251.38501
 20
9.604162
 10
251.385559
 20
8.939652
 10
251.386078
 20
8.275143
 10
251.386536
 20
7.610633
 10
251.386917
 20
6.946124
 10
251.387192
 20
6.281613
 10
251.387344
 20
5.617103
 10
251.387329
 20
4.952592
 10
251.387146
 20
4.28808
 10
251.386765
 20
3.623568
 10
251.386108
 20
2.959056
 10
251.385086
 20
2.294544
 10
251.383606
 20
1.630033
 10
251.381561
 20
0.965525
 10
251.378845
 20
0.301021
 10
251.375366
 20
-0.36348
 10
251.371002
 20
-1.027976
 10
251.36554
 20
-1.692463
 10
251.358536
 20
-2.356936
 10
251.349533
 20
-3.021387
 10
251.33812
 20
-3.685811
 10
251.323807
 20
-4.3502
 10
251.305756
 20
-5.014514
 10
251.282104
 20
-5.678634
 10
251.250885
 20
-6.34243
 10
251.2099
 20
-7.005743
 10
251.153259
 20
-7.667888
 10
251.071823
 20
-8.327724
 10
250.953049
 20
-8.982179
 10
250.774261
 20
-9.622124
 10
250.523117
 20
-10.242279
  0
LWPOLYLINE
  5
29A
330
27E
100
AcDbEntity
  8
0
  6
Continuous
 62
     0
370
     0
100
AcDbPolyline
 90
        5
 70
     0
 43
0.0
 10
250.523117
 20
-10.242279
 10
250.61467
 20
-10.300344
 10
250.677948
 20
-10.333877
 10
250.719269
 20
-10.343273
 10
250.749008
 20
-10.322577
  0
LWPOLYLINE
  5
29B
330
27E
100
AcDbEntity
  8
0
  6
Continuous
 62
     0
370
     0
100
AcDbPolyline
 90
        5
 70
     0
 43
0.0
 10
249.842224
 20
-9.871624
 10
250.010437
 20
-9.961432
 10
250.188019
 20
-10.05202
 10
250.35437
 20
-10.140816
 10
250.523117
 20
-10.242279
  0
LINE
  5
29C
330
27E
100
AcDbEntity
  8
0
  6
Continuous
 62
     0
370
     0
100
AcDbLine
 10
251.37781
 20
18.242794
 30
0.0
 11
250.140394
 21
18.242796
 31
0.0
  0
LWPOLYLINE
  5
29D
330
27E
100
AcDbEntity
  8
0
  6
Continuous
 62
     0
370
     0
100
AcDbPolyline
 90
       26
 70
     0
 43
0.0
 10
250.140396
 20
18.242796
 10
250.14238
 20
17.118681
 10
250.144363
 20
15.994568
 10
250.146347
 20
14.870454
 10
250.148315
 20
13.74634
 10
250.150284
 20
12.622226
 10
250.152252
 20
11.498112
 10
250.154205
 20
10.373998
 10
250.156143
 20
9.249884
 10
250.158066
 20
8.12577
 10
250.159958
 20
7.001655
 10
250.161728
 20
5.877539
 10
250.163269
 20
4.753424
 10
250.164474
 20
3.629308
 10
250.165253
 20
2.505194
 10
250.165466
 20
1.38108
 10
250.164948
 20
0.256967
 10
250.1633
 20
-0.867144
 10
250.160004
 20
-1.991256
 10
250.154541
 20
-3.115367
 10
250.145569
 20
-4.239451
 10
250.130981
 20
-5.363454
 10
250.107758
 20
-6.487293
 10
250.069366
 20
-7.610739
 10
250.000961
 20
-8.732521
 10
249.842224
 20
-9.871624
  0
LWPOLYLINE
  5
29E
330
27E
100
AcDbEntity
  8
0
  6
Continuous
 62
     0
370
     0
100
AcDbPolyline
 90
       27
 70
     0
 43
0.0
 10
249.842224
 20
-9.871624
 10
249.367737
 20
-10.423042
 10
248.8358
 20
-10.917351
 10
248.259628
 20
-11.355771
 10
247.644943
 20
-11.744063
 10
246.993423
 20
-12.088969
 10
246.304169
 20
-12.396049
 10
245.57605
 20
-12.668137
 10
244.810959
 20
-12.905942
 10
244.013672
 20
-13.109045
 10
243.191986
 20
-13.279665
 10
242.355545
 20
-13.422508
 10
241.513672
 20
-13.541614
 10
240.674835
 20
-13.640412
 10
239.845627
 20
-13.72197
 10
239.030121
 20
-13.789031
 10
238.229919
 20
-13.843999
 10
237.444641
 20
-13.888914
 10
236.672318
 20
-13.925477
 10
235.909912
 20
-13.955067
 10
235.153763
 20
-13.978781
 10
234.399994
 20
-13.997477
 10
233.644958
 20
-14.01182
 10
232.885712
 20
-14.022328
 10
232.120438
 20
-14.029425
 10
231.348831
 20
-14.033479
 10
230.568344
 20
-14.034844
  0
LWPOLYLINE
  5
29F
330
27E
100
AcDbEntity
  8
0
  6
Continuous
 62
     0
370
     0
100
AcDbPolyline
 90
       20
 70
     0
 43
0.0
 10
230.568344
 20
18.242796
 10
231.601303
 20
18.242754
 10
232.634262
 20
18.242756
 10
233.667206
 20
18.242785
 10
234.700134
 20
18.242825
 10
235.733032
 20
18.242853
 10
236.765915
 20
18.242857
 10
237.798737
 20
18.24284
 10
238.831482
 20
18.242849
 10
239.864136
 20
18.242908
 10
240.896637
 20
18.242708
 10
241.92897
 20
18.24272
 10
242.961182
 20
18.243067
 10
243.99321
 20
18.242592
 10
245.024902
 20
18.243002
 10
246.055984
 20
18.24328
 10
247.086029
 20
18.242279
 10
248.114136
 20
18.242598
 10
249.136963
 20
18.243397
 10
250.140396
 20
18.242796
  0
LWPOLYLINE
  5
2A0
330
27E
100
AcDbEntity
  8
0
  6
Continuous
 62
     0
370
     0
100
AcDbPolyline
 90
       16
 70
     0
 43
0.0
 10
251.683975
 20
30.042795
 10
251.684021
 20
30.042953
 10
251.684052
 20
30.043076
 10
251.684067
 20
30.043175
 10
251.684113
 20
30.043222
 10
251.684311
 20
30.043243
 10
251.684372
 20
30.043242
 10
251.684097
 20
30.043205
 10
251.683884
 20
30.043137
 10
251.684067
 20
30.043064
 10
251.683716
 20
30.043009
 10
251.678894
 20
30.042971
 10
251.661285
 20
30.042921
 10
251.617172
 20
30.042849
 10
251.528824
 20
30.042822
 10
251.369415
 20
30.042805
  0
LINE
  5
2A1
330
27E
100
AcDbEntity
  8
0
  6
Continuous
 62
     0
370
     0
100
AcDbLine
 10
251.369412
 20
30.042796
 30
0.0
 11
251.37781
 21
18.242794
 31
0.0
  0
LINE
  5
2A2
330
27E
100
AcDbEntity
  8
0
  6
Continuous
 62
     0
370
     0
100
AcDbLine
 10
250.121729
 20
30.042796
 30
0.0
 11
250.140394
 21
18.242796
 31
0.0
  0
LINE
  5
2A3
330
27E
100
AcDbEntity
  8
0
  6
Continuous
 62
     0
370
     0
100
AcDbLine
 10
230.568346
 20
30.042796
 30
0.0
 11
250.121729
 21
30.042796
 31
0.0
  0
LINE
  5
2A4
330
27E
100
AcDbEntity
  8
0
  6
Continuous
 62
     0
370
     0
100
AcDbLine
 10
251.369412
 20
30.042796
 30
0.0
 11
250.121729
 21
30.042793
 31
0.0
  0
LWPOLYLINE
  5
2A5
330
27E
100
AcDbEntity
  8
0
  6
Continuous
 62
     0
370
     0
100
AcDbPolyline
 90
       16
 70
     0
 43
0.0
 10
251.684021
 20
142.142792
 10
251.684052
 20
142.142776
 10
251.684067
 20
142.142761
 10
251.684082
 20
142.142776
 10
251.684219
 20
142.142776
 10
251.684341
 20
142.142776
 10
251.684326
 20
142.142776
 10
251.684113
 20
142.142792
 10
251.683868
 20
142.142792
 10
251.684097
 20
142.142807
 10
251.683624
 20
142.142807
 10
251.678619
 20
142.142792
 10
251.659241
 20
142.142792
 10
251.611404
 20
142.142792
 10
251.516724
 20
142.142792
 10
251.3479
 20
142.142792
  0
LWPOLYLINE
  5
2A6
330
27E
100
AcDbEntity
  8
0
  6
Continuous
 62
     0
370
     0
100
AcDbPolyline
 90
        4
 70
     0
 43
0.0
 10
251.3479
 20
142.142792
 10
251.361526
 20
112.509216
 10
251.361603
 20
82.875633
 10
251.369415
 20
30.042795
  0
LINE
  5
2A7
330
27E
100
AcDbEntity
  8
0
  6
Continuous
 62
     0
370
     0
100
AcDbLine
 10
250.079049
 20
142.142796
 30
0.0
 11
230.568346
 21
142.142796
 31
0.0
  0
LWPOLYLINE
  5
2A8
330
27E
100
AcDbEntity
  8
0
  6
Continuous
 62
     0
370
     0
100
AcDbPolyline
 90
        4
 70
     0
 43
0.0
 10
250.121735
 20
30.042795
 10
250.097321
 20
65.803635
 10
250.098389
 20
101.564491
 10
250.079056
 20
142.142792
  0
LINE
  5
2A9
330
27E
100
AcDbEntity
  8
0
  6
Continuous
 62
     0
370
     0
100
AcDbLine
 10
251.347905
 20
142.142796
 30
0.0
 11
250.079049
 21
142.142796
 31
0.0
  0
ARC
  5
2AA
330
27E
100
AcDbEntity
  8
0
  6
Continuous
 62
     0
370
     0
100
AcDbCircle
 10
33152.39762
 20
162.281709
 30
0.0
 40
32901.05587772416
100
AcDbArc
 50
179.971803
 51
180.035071
  0
LWPOLYLINE
  5
2AB
330
27E
100
AcDbEntity
  8
0
  6
Continuous
 62
     0
370
     0
100
AcDbPolyline
 90
        3
 70
     0
 43
0.0
 10
250.079056
 20
142.142792
 10
250.072754
 20
149.264938
 10
250.075912
 20
178.473297
  0
LINE
  5
2AC
330
27E
100
AcDbEntity
  8
0
  6
Continuous
 62
     0
370
    30
100
AcDbLine
 10
251.684095
 20
178.473241
 30
0.0
 11
251.684111
 21
142.142805
 31
0.0
  0
LINE
  5
2AD
330
27E
100
AcDbEntity
  8
0
  6
Continuous
 62
     0
370
    30
100
AcDbLine
 10
251.683855
 20
143.353812
 30
0.0
 11
251.683859
 21
142.142797
 31
0.0
  0
LINE
  5
2AE
330
27E
100
AcDbEntity
  8
0
  6
Continuous
 62
     0
370
    30
100
AcDbLine
 10
251.684153
 20
30.043038
 30
0.0
 11
251.684113
 21
142.142805
 31
0.0
  0
LWPOLYLINE
  5
2AF
330
27E
100
AcDbEntity
  8
0
  6
Continuous
 62
     0
370
    30
100
AcDbPolyline
 90
       30
 70
     0
 43
0.0
 10
230.568344
 20
-16.236673
 10
231.332932
 20
-16.235302
 10
232.097519
 20
-16.231146
 10
232.861755
 20
-16.223711
 10
233.625671
 20
-16.212469
 10
234.389099
 20
-16.196859
 10
235.152176
 20
-16.17627
 10
235.914825
 20
-16.150045
 10
236.677048
 20
-16.117409
 10
237.438736
 20
-16.077532
 10
238.199768
 20
-16.029463
 10
238.960022
 20
-15.972114
 10
239.719376
 20
-15.904355
 10
240.477463
 20
-15.824532
 10
241.23378
 20
-15.730564
 10
241.987823
 20
-15.62036
 10
242.738968
 20
-15.491567
 10
243.485916
 20
-15.340345
 10
244.226974
 20
-15.162228
 10
244.959747
 20
-14.952229
 10
245.681381
 20
-14.70532
 10
246.38768
 20
-14.417284
 10
247.073715
 20
-14.084288
 10
247.734375
 20
-13.702583
 10
248.362656
 20
-13.269122
 10
248.950485
 20
-12.78178
 10
249.489563
 20
-12.240558
 10
249.972092
 20
-11.648055
 10
250.391876
 20
-11.009114
 10
250.749008
 20
-10.322577
  0
LINE
  5
2B0
330
27E
100
AcDbEntity
  8
0
  6
Continuous
 62
     0
370
    30
100
AcDbLine
 10
251.684131
 20
30.043036
 30
0.0
 11
251.684153
 21
18.242762
 31
0.0
  0
LWPOLYLINE
  5
2B1
330
27E
100
AcDbEntity
  8
0
  6
Continuous
 62
     0
370
    30
100
AcDbPolyline
 90
       41
 70
     0
 43
0.0
 10
251.684128
 20
18.24279
 10
251.684128
 20
17.525133
 10
251.684128
 20
16.807478
 10
251.684128
 20
16.089821
 10
251.684128
 20
15.372162
 10
251.684128
 20
14.654493
 10
251.684128
 20
13.936812
 10
251.684128
 20
13.219123
 10
251.684128
 20
12.501437
 10
251.684128
 20
11.783768
 10
251.684128
 20
11.06613
 10
251.684128
 20
10.348536
 10
251.684113
 20
9.630984
 10
251.684067
 20
8.913447
 10
251.683975
 20
8.195902
 10
251.683792
 20
7.47837
 10
251.683502
 20
6.760882
 10
251.68306
 20
6.04343
 10
251.682434
 20
5.325982
 10
251.681549
 20
4.608545
 10
251.680374
 20
3.891155
 10
251.678833
 20
3.173814
 10
251.676819
 20
2.456513
 10
251.67424
 20
1.739266
 10
251.670959
 20
1.022093
 10
251.666824
 20
0.305015
 10
251.661621
 20
-0.41197
 10
251.655106
 20
-1.128856
 10
251.647034
 20
-1.845582
 10
251.636856
 20
-2.56208
 10
251.623962
 20
-3.278279
 10
251.607712
 20
-3.994106
 10
251.587097
 20
-4.709419
 10
251.560593
 20
-5.423975
 10
251.525986
 20
-6.137426
 10
251.480026
 20
-6.84924
 10
251.417465
 20
-7.558446
 10
251.329758
 20
-8.263475
 10
251.202805
 20
-8.961716
 10
251.015717
 20
-9.648344
 10
250.749008
 20
-10.322577
  0
LINE
  5
2B2
330
27E
100
AcDbEntity
  8
0
  6
Continuous
 62
     0
370
    30
100
AcDbLine
 10
209.452597
 20
178.473241
 30
0.0
 11
209.452581
 21
142.142805
 31
0.0
  0
LINE
  5
2B3
330
27E
100
AcDbEntity
  8
0
  6
Continuous
 62
     0
370
    30
100
AcDbLine
 10
209.452838
 20
143.353812
 30
0.0
 11
209.452833
 21
142.142797
 31
0.0
  0
LINE
  5
2B4
330
27E
100
AcDbEntity
  8
0
  6
Continuous
 62
     0
370
    30
100
AcDbLine
 10
209.452539
 20
30.043038
 30
0.0
 11
209.452579
 21
142.142805
 31
0.0
  0
LWPOLYLINE
  5
2B5
330
27E
100
AcDbEntity
  8
0
  6
Continuous
 62
     0
370
    30
100
AcDbPolyline
 90
       30
 70
     0
 43
0.0
 10
230.568344
 20
-16.236673
 10
229.803757
 20
-16.235302
 10
229.039169
 20
-16.231146
 10
228.274933
 20
-16.223711
 10
227.511032
 20
-16.212469
 10
226.747589
 20
-16.196859
 10
225.984512
 20
-16.17627
 10
225.221863
 20
-16.150045
 10
224.459641
 20
-16.117409
 10
223.697968
 20
-16.077532
 10
222.93692
 20
-16.029463
 10
222.176666
 20
-15.972114
 10
221.417313
 20
-15.904355
 10
220.659225
 20
-15.824532
 10
219.902908
 20
-15.730564
 10
219.148865
 20
-15.62036
 10
218.39772
 20
-15.491567
 10
217.650787
 20
-15.340345
 10
216.909714
 20
-15.162228
 10
216.176941
 20
-14.952229
 10
215.455307
 20
-14.70532
 10
214.749008
 20
-14.417284
 10
214.062973
 20
-14.084288
 10
213.402313
 20
-13.702583
 10
212.774033
 20
-13.269122
 10
212.186203
 20
-12.78178
 10
211.647141
 20
-12.240558
 10
211.164612
 20
-11.648055
 10
210.744812
 20
-11.009114
 10
210.38768
 20
-10.322577
  0
LINE
  5
2B6
330
27E
100
AcDbEntity
  8
0
  6
Continuous
 62
     0
370
    30
100
AcDbLine
 10
209.452561
 20
30.043036
 30
0.0
 11
209.45254
 21
18.242762
 31
0.0
  0
LWPOLYLINE
  5
2B7
330
27E
100
AcDbEntity
  8
0
  6
Continuous
 62
     0
370
    30
100
AcDbPolyline
 90
       41
 70
     0
 43
0.0
 10
209.45256
 20
18.24279
 10
209.45256
 20
17.525133
 10
209.45256
 20
16.807478
 10
209.45256
 20
16.089821
 10
209.45256
 20
15.372162
 10
209.45256
 20
14.654493
 10
209.45256
 20
13.936812
 10
209.45256
 20
13.219123
 10
209.45256
 20
12.501437
 10
209.45256
 20
11.783768
 10
209.45256
 20
11.06613
 10
209.45256
 20
10.348536
 10
209.452576
 20
9.630984
 10
209.452621
 20
8.913447
 10
209.452728
 20
8.195902
 10
209.452896
 20
7.47837
 10
209.453201
 20
6.760882
 10
209.453629
 20
6.04343
 10
209.454269
 20
5.325982
 10
209.455139
 20
4.608545
 10
209.456314
 20
3.891155
 10
209.45787
 20
3.173814
 10
209.459869
 20
2.456513
 10
209.462448
 20
1.739266
 10
209.465729
 20
1.022093
 10
209.469864
 20
0.305015
 10
209.475067
 20
-0.41197
 10
209.481583
 20
-1.128856
 10
209.48967
 20
-1.845582
 10
209.499832
 20
-2.56208
 10
209.512726
 20
-3.278279
 10
209.528976
 20
-3.994106
 10
209.549591
 20
-4.709419
 10
209.576096
 20
-5.423975
 10
209.610703
 20
-6.137426
 10
209.656662
 20
-6.84924
 10
209.719223
 20
-7.558446
 10
209.806946
 20
-8.263475
 10
209.933899
 20
-8.961716
 10
210.120972
 20
-9.648344
 10
210.38768
 20
-10.322577
  0
LINE
  5
2B8
330
27E
100
AcDbEntity
  8
0
  6
Continuous
 62
     0
370
    30
100
AcDbLine
 10
231.378207
 20
183.473296
 30
0.0
 11
201.068251
 21
183.473297
 31
0.0
  0
LWPOLYLINE
  5
2B9
330
27E
100
AcDbEntity
  8
0
  6
Continuous
 62
     0
370
    30
100
AcDbPolyline
 90
       32
 70
     0
 43
0.0
 10
260.068237
 20
183.473297
 10
260.03006
 20
183.473297
 10
259.915863
 20
183.473297
 10
259.726715
 20
183.473297
 10
259.464203
 20
183.473297
 10
259.130493
 20
183.473297
 10
258.728149
 20
183.473297
 10
258.260284
 20
183.473297
 10
257.730347
 20
183.473297
 10
257.14209
 20
183.473297
 10
256.499603
 20
183.473297
 10
255.797531
 20
183.473297
 10
255.028519
 20
183.473297
 10
254.193222
 20
183.473297
 10
253.292755
 20
183.473297
 10
252.328842
 20
183.473297
 10
251.303711
 20
183.473297
 10
250.220139
 20
183.473297
 10
249.081406
 20
183.473297
 10
247.891312
 20
183.473297
 10
246.654068
 20
183.473297
 10
245.374329
 20
183.473297
 10
244.057037
 20
183.473297
 10
242.707458
 20
183.473297
 10
241.331055
 20
183.473297
 10
239.933426
 20
183.473297
 10
238.520203
 20
183.473297
 10
237.097061
 20
183.473297
 10
235.669556
 20
183.473297
 10
234.243118
 20
183.473297
 10
232.822937
 20
183.473297
 10
231.378204
 20
183.473297
  0
LINE
  5
2BA
330
27E
100
AcDbEntity
  8
0
  6
Continuous
 62
     0
370
     0
100
AcDbLine
 10
231.391935
 20
182.973297
 30
0.0
 11
200.568251
 21
182.973297
 31
0.0
  0
LINE
  5
2BB
330
27E
100
AcDbEntity
  8
0
  6
Continuous
 62
     0
370
     0
100
AcDbLine
 10
260.568251
 20
182.973297
 30
0.0
 11
231.391935
 21
182.973297
 31
0.0
  0
LINE
  5
2BC
330
27E
100
AcDbEntity
  8
0
  6
Continuous
 62
     0
370
     0
100
AcDbLine
 10
231.391935
 20
178.973297
 30
0.0
 11
260.568251
 21
178.973297
 31
0.0
  0
LINE
  5
2BD
330
27E
100
AcDbEntity
  8
0
  6
Continuous
 62
     0
370
     0
100
AcDbLine
 10
200.568251
 20
178.973297
 30
0.0
 11
231.391935
 21
178.973297
 31
0.0
  0
LINE
  5
2BE
330
27E
100
AcDbEntity
  8
0
  6
Continuous
 62
     0
370
    30
100
AcDbLine
 10
231.378207
 20
178.473296
 30
0.0
 11
201.068251
 21
178.473297
 31
0.0
  0
LWPOLYLINE
  5
2BF
330
27E
100
AcDbEntity
  8
0
  6
Continuous
 62
     0
370
    30
100
AcDbPolyline
 90
       32
 70
     0
 43
0.0
 10
260.068237
 20
178.473297
 10
260.03006
 20
178.473297
 10
259.915863
 20
178.473297
 10
259.726715
 20
178.473297
 10
259.464203
 20
178.473297
 10
259.130493
 20
178.473297
 10
258.728149
 20
178.473297
 10
258.260284
 20
178.473297
 10
257.730347
 20
178.473297
 10
257.14209
 20
178.473297
 10
256.499603
 20
178.473297
 10
255.797531
 20
178.473297
 10
255.028519
 20
178.473297
 10
254.193222
 20
178.473297
 10
253.292755
 20
178.473297
 10
252.328842
 20
178.473297
 10
251.303711
 20
178.473297
 10
250.220139
 20
178.473297
 10
249.081406
 20
178.473297
 10
247.891312
 20
178.473297
 10
246.654068
 20
178.473297
 10
245.374329
 20
178.473297
 10
244.057037
 20
178.473297
 10
242.707458
 20
178.473297
 10
241.331055
 20
178.473297
 10
239.933426
 20
178.473297
 10
238.520203
 20
178.473297
 10
237.097061
 20
178.473297
 10
235.669556
 20
178.473297
 10
234.243118
 20
178.473297
 10
232.822937
 20
178.473297
 10
231.378204
 20
178.473297
  0
ARC
  5
2C0
330
27E
100
AcDbEntity
  8
0
  6
Continuous
 62
     0
370
    30
100
AcDbCircle
 10
201.068232
 20
182.973294
 30
0.0
 40
0.500002737396368
100
AcDbArc
 50
90.007109
 51
179.999686
  0
ARC
  5
2C1
330
27E
100
AcDbEntity
  8
0
  6
Continuous
 62
     0
370
    30
100
AcDbCircle
 10
260.068179
 20
182.973295
 30
0.0
 40
0.5000021867897171
100
AcDbArc
 50
0.000251
 51
89.992857
  0
ARC
  5
2C2
330
27E
100
AcDbEntity
  8
0
  6
Continuous
 62
     0
370
    30
100
AcDbCircle
 10
260.068179
 20
178.973299
 30
0.0
 40
0.5000019827116752
100
AcDbArc
 50
270.007119
 51
359.999773
  0
ARC
  5
2C3
330
27E
100
AcDbEntity
  8
0
  6
Continuous
 62
     0
370
    30
100
AcDbCircle
 10
201.068232
 20
178.9733
 30
0.0
 40
0.5000027373996656
100
AcDbArc
 50
180.000314
 51
269.992891
  0
LINE
  5
2C4
330
27E
100
AcDbEntity
  8
0
  6
Continuous
 62
     0
370
    30
100
AcDbLine
 10
200.568251
 20
182.973297
 30
0.0
 11
200.568251
 21
178.973297
 31
0.0
  0
LINE
  5
2C5
330
27E
100
AcDbEntity
  8
0
  6
Continuous
 62
     0
370
    30
100
AcDbLine
 10
260.568251
 20
182.973297
 30
0.0
 11
260.568251
 21
178.973297
 31
0.0
  0
ENDBLK
  5
2C7
330
27E
100
AcDbEntity
  8
0
100
AcDbBlockEnd
  0
BLOCK
  5
30D
330
2C9
100
AcDbEntity
  8
0
100
AcDbBlockBegin
  2
c
 70
     0
 10
72.899017
 20
0.0
 30
0.0
  3
c
  1

  0
LINE
  5
2CA
330
2C9
100
AcDbEntity
  8
0
  6
Continuous
 62
     0
370
    30
100
AcDbLine
 10
524.140745
 20
306.437954
 30
0.0
 11
534.252865
 21
307.322649
 31
0.0
  0
LINE
  5
2CB
330
2C9
100
AcDbEntity
  8
0
  6
Continuous
 62
     0
370
    30
100
AcDbLine
 10
515.823263
 20
305.710268
 30
0.0
 11
524.140745
 21
306.437954
 31
0.0
  0
LINE
  5
2CC
330
2C9
100
AcDbEntity
  8
0
  6
Continuous
 62
     0
370
    30
100
AcDbLine
 10
534.167977
 20
308.292931
 30
0.0
 11
534.252865
 21
307.322649
 31
0.0
  0
LINE
  5
2CD
330
2C9
100
AcDbEntity
  8
0
  6
Continuous
 62
     0
370
    30
100
AcDbLine
 10
515.631535
 20
307.901734
 30
0.0
 11
515.823263
 21
305.710268
 31
0.0
  0
LWPOLYLINE
  5
2CE
330
2C9
100
AcDbEntity
  8
0
  6
Continuous
 62
     0
370
     0
100
AcDbPolyline
 90
       38
 70
     0
 43
0.0
 10
536.963318
 20
313.12204
 10
536.857239
 20
313.115143
 10
536.743591
 20
313.108673
 10
536.61908
 20
313.102509
 10
536.47998
 20
313.096619
 10
536.322876
 20
313.090973
 10
536.146729
 20
313.08548
 10
535.951111
 20
313.08017
 10
535.735718
 20
313.075012
 10
535.497742
 20
313.070038
 10
535.23053
 20
313.065155
 10
534.93219
 20
313.060425
 10
534.601257
 20
313.055878
 10
534.236084
 20
313.051514
 10
533.835083
 20
313.047333
 10
533.396667
 20
313.043396
 10
532.919067
 20
313.039673
 10
532.400513
 20
313.036224
 10
531.839111
 20
313.03299
 10
531.232605
 20
313.029999
 10
530.578857
 20
313.027222
 10
529.875732
 20
313.024628
 10
529.120972
 20
313.022217
 10
528.312439
 20
313.019958
 10
527.447998
 20
313.017822
 10
526.525391
 20
313.015839
 10
525.542542
 20
313.013947
 10
524.497192
 20
313.012146
 10
523.387268
 20
313.010406
 10
522.21051
 20
313.008698
 10
520.964722
 20
313.00705
 10
519.647827
 20
313.005402
 10
518.257568
 20
313.003784
 10
516.791809
 20
313.002106
 10
515.249451
 20
313.000427
 10
513.633911
 20
312.998688
 10
511.949677
 20
312.996887
 10
510.159546
 20
312.994995
  0
LINE
  5
2CF
330
2C9
100
AcDbEntity
  8
0
  6
Continuous
 62
     0
370
     0
100
AcDbLine
 10
510.159549
 20
312.994999
 30
0.0
 11
510.159549
 21
317.516641
 31
0.0
  0
LWPOLYLINE
  5
2D0
330
2C9
100
AcDbEntity
  8
0
  6
Continuous
 62
     0
370
     0
100
AcDbPolyline
 90
       38
 70
     0
 43
0.0
 10
510.159546
 20
317.516632
 10
511.924164
 20
317.512512
 10
513.624573
 20
317.508087
 10
515.256104
 20
317.503357
 10
516.81427
 20
317.498322
 10
518.295166
 20
317.49295
 10
519.699646
 20
317.487244
 10
521.030029
 20
317.481171
 10
522.288696
 20
317.474731
 10
523.477966
 20
317.467865
 10
524.600098
 20
317.460632
 10
525.657593
 20
317.452911
 10
526.652649
 20
317.444763
 10
527.587646
 20
317.436096
 10
528.464966
 20
317.426971
 10
529.286926
 20
317.417297
 10
530.055847
 20
317.407074
 10
530.774048
 20
317.396301
 10
531.44397
 20
317.384918
 10
532.06781
 20
317.372955
 10
532.64801
 20
317.360352
 10
533.18689
 20
317.347107
 10
533.686829
 20
317.333191
 10
534.150024
 20
317.318604
 10
534.578979
 20
317.303284
 10
534.975952
 20
317.287231
 10
535.343262
 20
317.270447
 10
535.683289
 20
317.252869
 10
535.998413
 20
317.234528
 10
536.290833
 20
317.215363
 10
536.563049
 20
317.195343
 10
536.817322
 20
317.174469
 10
537.05603
 20
317.15274
 10
537.281433
 20
317.130127
 10
537.495972
 20
317.106567
 10
537.701904
 20
317.082092
 10
537.901611
 20
317.056641
 10
538.10083
 20
317.029755
  0
LWPOLYLINE
  5
2D1
330
2C9
100
AcDbEntity
  8
0
  6
Continuous
 62
     0
370
     0
100
AcDbPolyline
 90
       10
 70
     0
 43
0.0
 10
538.10083
 20
317.029755
 10
538.00116
 20
316.498199
 10
537.891296
 20
315.97995
 10
537.771912
 20
315.478424
 10
537.643433
 20
314.997131
 10
537.506531
 20
314.539642
 10
537.364929
 20
314.114075
 10
537.226624
 20
313.736115
 10
537.098389
 20
313.417938
 10
536.963318
 20
313.12204
  0
LWPOLYLINE
  5
2D2
330
2C9
100
AcDbEntity
  8
0
  6
Continuous
 62
     0
370
     0
100
AcDbPolyline
 90
       19
 70
     0
 43
0.0
 10
536.963318
 20
313.12204
 10
537.233215
 20
312.890594
 10
537.541077
 20
312.621368
 10
537.894043
 20
312.3078
 10
538.272278
 20
311.967987
 10
538.654419
 20
311.620148
 10
539.02594
 20
311.277283
 10
539.377625
 20
310.94873
 10
539.700562
 20
310.643768
 10
539.985779
 20
310.371613
 10
540.225952
 20
310.139771
 10
540.422729
 20
309.947388
 10
540.580139
 20
309.791199
 10
540.702209
 20
309.667908
 10
540.793091
 20
309.574158
 10
540.856812
 20
309.506653
 10
540.897461
 20
309.462067
 10
540.919189
 20
309.437134
 10
540.926025
 20
309.428467
  0
LWPOLYLINE
  5
2D3
330
2C9
100
AcDbEntity
  8
0
  6
Continuous
 62
     0
370
    30
100
AcDbPolyline
 90
        7
 70
     0
 43
0.0
 10
540.926025
 20
309.428467
 10
540.350098
 20
309.120453
 10
539.744568
 20
308.875031
 10
539.119812
 20
308.684631
 10
538.483704
 20
308.535645
 10
537.841553
 20
308.417297
 10
537.177124
 20
308.31955
  0
LWPOLYLINE
  5
2D4
330
2C9
100
AcDbEntity
  8
0
  6
Continuous
 62
     0
370
    30
100
AcDbPolyline
 90
       40
 70
     0
 43
0.0
 10
537.177124
 20
308.31955
 10
537.137268
 20
308.317383
 10
537.01825
 20
308.31073
 10
536.820557
 20
308.301239
 10
536.54541
 20
308.290955
 10
536.194336
 20
308.282135
 10
535.769592
 20
308.276733
 10
535.273926
 20
308.276428
 10
534.71051
 20
308.282349
 10
534.083374
 20
308.294952
 10
533.396729
 20
308.31427
 10
532.655334
 20
308.339355
 10
531.864075
 20
308.36908
 10
531.027893
 20
308.401489
 10
530.151489
 20
308.434143
 10
529.23999
 20
308.4646
 10
528.299866
 20
308.490448
 10
527.338318
 20
308.509186
 10
526.362427
 20
308.518433
 10
525.378845
 20
308.516022
 10
524.392395
 20
308.500824
 10
523.408752
 20
308.473022
 10
522.435059
 20
308.433228
 10
521.478149
 20
308.382202
 10
520.542908
 20
308.322327
 10
519.635803
 20
308.256012
 10
518.763794
 20
308.185547
 10
517.931702
 20
308.113525
 10
517.143921
 20
308.042358
 10
516.405823
 20
307.973969
 10
515.722717
 20
307.910217
 10
515.099548
 20
307.852539
 10
514.539795
 20
307.801697
 10
514.046936
 20
307.758392
 10
513.624084
 20
307.722809
 10
513.274109
 20
307.694855
 10
512.99939
 20
307.674194
 10
512.801636
 20
307.660278
 10
512.682373
 20
307.652405
 10
512.642151
 20
307.649658
  0
LINE
  5
2D5
330
2C9
100
AcDbEntity
  8
0
  6
Continuous
 62
     0
370
    30
100
AcDbLine
 10
512.642149
 20
307.64965
 30
0.0
 11
510.159548
 21
307.633778
 31
0.0
  0
LINE
  5
2D6
330
2C9
100
AcDbEntity
  8
0
  6
Continuous
 62
     0
370
     0
100
AcDbLine
 10
510.159548
 20
307.633778
 30
0.0
 11
510.159549
 21
312.994999
 31
0.0
  0
LINE
  5
2D7
330
2C9
100
AcDbEntity
  8
0
  6
Continuous
 62
     0
370
     0
100
AcDbLine
 10
510.159549
 20
317.516641
 30
0.0
 11
510.159551
 21
324.531306
 31
0.0
  0
LWPOLYLINE
  5
2D8
330
2C9
100
AcDbEntity
  8
0
  6
Continuous
 62
     0
370
     0
100
AcDbPolyline
 90
       24
 70
     0
 43
0.0
 10
510.159546
 20
324.531311
 10
511.400482
 20
324.531311
 10
512.641418
 20
324.531281
 10
513.882385
 20
324.531281
 10
515.123352
 20
324.531281
 10
516.364258
 20
324.53125
 10
517.605225
 20
324.53125
 10
518.846191
 20
324.53125
 10
520.087097
 20
324.531219
 10
521.328064
 20
324.531219
 10
522.569031
 20
324.53125
 10
523.809937
 20
324.531281
 10
525.050903
 20
324.531342
 10
526.29187
 20
324.531433
 10
527.532776
 20
324.531616
 10
528.773743
 20
324.531891
 10
530.014648
 20
324.532318
 10
531.255493
 20
324.532928
 10
532.496277
 20
324.533905
 10
533.736816
 20
324.53537
 10
534.97644
 20
324.537811
 10
536.21344
 20
324.542114
 10
537.439026
 20
324.550873
 10
538.644653
 20
324.570374
  0
LWPOLYLINE
  5
2D9
330
2C9
100
AcDbEntity
  8
0
  6
Continuous
 62
     0
370
     0
100
AcDbPolyline
 90
       16
 70
     0
 43
0.0
 10
538.644653
 20
324.570374
 10
538.693054
 20
324.289825
 10
538.726013
 20
324.004425
 10
538.742737
 20
323.714813
 10
538.744873
 20
323.410461
 10
538.734009
 20
323.079834
 10
538.711914
 20
322.711426
 10
538.68042
 20
322.293701
 10
538.641174
 20
321.815155
 10
538.595825
 20
321.265411
 10
538.54364
 20
320.648682
 10
538.482483
 20
319.978912
 10
538.410278
 20
319.270294
 10
538.324707
 20
318.537018
 10
538.223633
 20
317.793243
 10
538.10083
 20
317.029755
  0
LWPOLYLINE
  5
2DA
330
2C9
100
AcDbEntity
  8
0
  6
Continuous
 62
     0
370
     0
100
AcDbPolyline
 90
        6
 70
     0
 43
0.0
 10
538.273987
 20
325.607239
 10
538.347717
 20
325.487244
 10
538.421387
 20
325.327728
 10
538.496094
 20
325.128693
 10
538.566101
 20
324.901276
 10
538.644653
 20
324.570374
  0
LINE
  5
2DB
330
2C9
100
AcDbEntity
  8
0
  6
Continuous
 62
     0
370
     0
100
AcDbLine
 10
510.159551
 20
324.531306
 30
0.0
 11
510.159548
 21
325.732679
 31
0.0
  0
LWPOLYLINE
  5
2DC
330
2C9
100
AcDbEntity
  8
0
  6
Continuous
 62
     0
370
     0
100
AcDbPolyline
 90
       15
 70
     0
 43
0.0
 10
510.159546
 20
325.732666
 10
512.159729
 20
325.731689
 10
514.159973
 20
325.730682
 10
516.160156
 20
325.729675
 10
518.1604
 20
325.728699
 10
520.160583
 20
325.727692
 10
522.160828
 20
325.726654
 10
524.161011
 20
325.725433
 10
526.161194
 20
325.723816
 10
528.161438
 20
325.721558
 10
530.161621
 20
325.71817
 10
532.161804
 20
325.71283
 10
534.161865
 20
325.702484
 10
536.161011
 20
325.681
 10
538.273987
 20
325.607239
  0
LWPOLYLINE
  5
2DD
330
2C9
100
AcDbEntity
  8
0
  6
Continuous
 62
     0
370
     0
100
AcDbPolyline
 90
       24
 70
     0
 43
0.0
 10
538.273987
 20
325.607239
 10
538.892761
 20
325.735657
 10
539.438721
 20
325.839905
 10
539.915039
 20
325.926331
 10
540.330566
 20
325.998474
 10
540.694824
 20
326.060425
 10
541.013367
 20
326.114807
 10
541.288086
 20
326.162964
 10
541.518616
 20
326.205505
 10
541.707947
 20
326.243011
 10
541.862793
 20
326.275909
 10
541.988586
 20
326.304596
 10
542.090271
 20
326.329468
 10
542.171875
 20
326.350861
 10
542.237183
 20
326.369202
 10
542.289124
 20
326.384857
 10
542.330383
 20
326.398163
 10
542.362793
 20
326.409393
 10
542.387939
 20
326.418793
 10
542.407043
 20
326.426514
 10
542.420898
 20
326.432587
 10
542.430176
 20
326.437042
 10
542.435425
 20
326.43988
 10
542.437195
 20
326.44101
  0
LINE
  5
2DE
330
2C9
100
AcDbEntity
  8
0
  6
Continuous
 62
     0
370
    30
100
AcDbLine
 10
520.498059
 20
326.742464
 30
0.0
 11
510.159547
 21
326.711316
 31
0.0
  0
LWPOLYLINE
  5
2DF
330
2C9
100
AcDbEntity
  8
0
  6
Continuous
 62
     0
370
    30
100
AcDbPolyline
 90
       11
 70
     0
 43
0.0
 10
542.437195
 20
326.44101
 10
542.085388
 20
326.500397
 10
541.730469
 20
326.535797
 10
541.374573
 20
326.561676
 10
541.018311
 20
326.582489
 10
540.661987
 20
326.600067
 10
540.305481
 20
326.615143
 10
539.948975
 20
326.628326
 10
539.592346
 20
326.640015
 10
539.235718
 20
326.650452
 10
538.858337
 20
326.66037
  0
LWPOLYLINE
  5
2E0
330
2C9
100
AcDbEntity
  8
0
  6
Continuous
 62
     0
370
     0
100
AcDbPolyline
 90
       35
 70
     0
 43
0.0
 10
510.159607
 20
326.708771
 10
510.159576
 20
326.706909
 10
510.159576
 20
326.704468
 10
510.159546
 20
326.701416
 10
510.159546
 20
326.697754
 10
510.159515
 20
326.69342
 10
510.159485
 20
326.688324
 10
510.159485
 20
326.682495
 10
510.159485
 20
326.675842
 10
510.159485
 20
326.668304
 10
510.159485
 20
326.659851
 10
510.159515
 20
326.65036
 10
510.159515
 20
326.639771
 10
510.159485
 20
326.628021
 10
510.159454
 20
326.615021
 10
510.159454
 20
326.600647
 10
510.159546
 20
326.584839
 10
510.159729
 20
326.567627
 10
510.159698
 20
326.549255
 10
510.159454
 20
326.529877
 10
510.159271
 20
326.509521
 10
510.159424
 20
326.488159
 10
510.159698
 20
326.465454
 10
510.15976
 20
326.440979
 10
510.159424
 20
326.414185
 10
510.159088
 20
326.384644
 10
510.159027
 20
326.351807
 10
510.159454
 20
326.315155
 10
510.160004
 20
326.273987
 10
510.160248
 20
326.227173
 10
510.159821
 20
326.173004
 10
510.158997
 20
326.108551
 10
510.158905
 20
326.028473
 10
510.160675
 20
325.918304
 10
510.159546
 20
325.732666
  0
LWPOLYLINE
  5
2E1
330
2C9
100
AcDbEntity
  8
0
  6
Continuous
 62
     0
370
     0
100
AcDbPolyline
 90
       24
 70
     0
 43
0.0
 10
498.359558
 20
312.984741
 10
498.359833
 20
312.197021
 10
498.359772
 20
311.481262
 10
498.359497
 20
310.837982
 10
498.359436
 20
310.273224
 10
498.35965
 20
309.786438
 10
498.359802
 20
309.371094
 10
498.359772
 20
309.020203
 10
498.35968
 20
308.729889
 10
498.35965
 20
308.494568
 10
498.359619
 20
308.303619
 10
498.359619
 20
308.148041
 10
498.359619
 20
308.020996
 10
498.359528
 20
307.917419
 10
498.359375
 20
307.833282
 10
498.359192
 20
307.765411
 10
498.35907
 20
307.711334
 10
498.35907
 20
307.668945
 10
498.359161
 20
307.636536
 10
498.359314
 20
307.61261
 10
498.359436
 20
307.595825
 10
498.359528
 20
307.585052
 10
498.359558
 20
307.579163
 10
498.359558
 20
307.577179
  0
ARC
  5
2E2
330
2C9
100
AcDbEntity
  8
0
  6
Continuous
 62
     0
370
    30
100
AcDbCircle
 10
480.922782
 20
5172.349579
 30
0.0
 40
4864.803656074875
100
AcDbArc
 50
270.205364
 51
270.344341
  0
LINE
  5
2E3
330
2C9
100
AcDbEntity
  8
0
  6
Continuous
 62
     0
370
     0
100
AcDbLine
 10
510.159549
 20
312.994999
 30
0.0
 11
498.359549
 21
312.984753
 31
0.0
  0
ARC
  5
2E4
330
2C9
100
AcDbEntity
  8
0
  6
Continuous
 62
     0
370
     0
100
AcDbCircle
 10
485.93817
 20
-10767.733327
 30
0.0
 40
11085.27642982012
100
AcDbArc
 50
89.874808
 51
89.935798
  0
LWPOLYLINE
  5
2E5
330
2C9
100
AcDbEntity
  8
0
  6
Continuous
 62
     0
370
     0
100
AcDbPolyline
 90
        6
 70
     0
 43
0.0
 10
498.359558
 20
317.536133
 10
498.359619
 20
316.609558
 10
498.359802
 20
315.68512
 10
498.359924
 20
314.773346
 10
498.359802
 20
313.889435
 10
498.359528
 20
312.984741
  0
LINE
  5
2E6
330
2C9
100
AcDbEntity
  8
0
  6
Continuous
 62
     0
370
     0
100
AcDbLine
 10
498.359549
 20
317.536143
 30
0.0
 11
498.359539
 21
324.531383
 31
0.0
  0
LINE
  5
2E7
330
2C9
100
AcDbEntity
  8
0
  6
Continuous
 62
     0
370
     0
100
AcDbLine
 10
498.359549
 20
324.531383
 30
0.0
 11
510.159551
 21
324.531306
 31
0.0
  0
LWPOLYLINE
  5
2E8
330
2C9
100
AcDbEntity
  8
0
  6
Continuous
 62
     0
370
    30
100
AcDbPolyline
 90
       50
 70
     0
 43
0.0
 10
542.437195
 20
326.44101
 10
542.810913
 20
326.324738
 10
543.172974
 20
326.175873
 10
543.515686
 20
325.986664
 10
543.82666
 20
325.748871
 10
544.08905
 20
325.458618
 10
544.287964
 20
325.121826
 10
544.421082
 20
324.754059
 10
544.502747
 20
324.371552
 10
544.557739
 20
323.984253
 10
544.596008
 20
323.594971
 10
544.619385
 20
323.204437
 10
544.63147
 20
322.813446
 10
544.636719
 20
322.422302
 10
544.638794
 20
322.031128
 10
544.63916
 20
321.639984
 10
544.638794
 20
321.24881
 10
544.637756
 20
320.857666
 10
544.635193
 20
320.466492
 10
544.630127
 20
320.075378
 10
544.621826
 20
319.684296
 10
544.609863
 20
319.293274
 10
544.593994
 20
318.902405
 10
544.573975
 20
318.511719
 10
544.549622
 20
318.121277
 10
544.520569
 20
317.73111
 10
544.486633
 20
317.34137
 10
544.447632
 20
316.952087
 10
544.40332
 20
316.563416
 10
544.353394
 20
316.175415
 10
544.297668
 20
315.788239
 10
544.23584
 20
315.401978
 10
544.167297
 20
315.016876
 10
544.090881
 20
314.633179
 10
544.005615
 20
314.251129
 10
543.910278
 20
313.871429
 10
543.803406
 20
313.494781
 10
543.683838
 20
313.121887
 10
543.550232
 20
312.753479
 10
543.401245
 20
312.39032
 10
543.236023
 20
312.033905
 10
543.053772
 20
311.686035
 10
542.853638
 20
311.348633
 10
542.634949
 20
311.023529
 10
542.396912
 20
310.712646
 10
542.139282
 20
310.417725
 10
541.862671
 20
310.140503
 10
541.567688
 20
309.88266
 10
541.255798
 20
309.645538
 10
540.926025
 20
309.428467
  0
LINE
  5
2E9
330
2C9
100
AcDbEntity
  8
0
  6
Continuous
 62
     0
370
     0
100
AcDbLine
 10
498.359548
 20
325.73788
 30
0.0
 11
510.159548
 21
325.73268
 31
0.0
  0
ARC
  5
2EA
330
2C9
100
AcDbEntity
  8
0
  6
Continuous
 62
     0
370
    30
100
AcDbCircle
 10
497.032483
 20
6060.465225
 30
0.0
 40
5733.768935358872
100
AcDbArc
 50
270.013261
 51
270.131175
  0
LINE
  5
2EB
330
2C9
100
AcDbEntity
  8
0
  6
Continuous
 62
     0
370
     0
100
AcDbLine
 10
498.359548
 20
326.696443
 30
0.0
 11
498.359548
 21
325.73788
 31
0.0
  0
LINE
  5
2EC
330
2C9
100
AcDbEntity
  8
0
  6
Continuous
 62
     0
370
     0
100
AcDbLine
 10
498.359549
 20
324.531383
 30
0.0
 11
498.359551
 21
325.73788
 31
0.0
  0
LINE
  5
2ED
330
2C9
100
AcDbEntity
  8
0
  6
Continuous
 62
     0
370
     0
100
AcDbLine
 10
386.259549
 20
312.949626
 30
0.0
 11
386.259547
 21
307.430382
 31
0.0
  0
LWPOLYLINE
  5
2EE
330
2C9
100
AcDbEntity
  8
0
  6
Continuous
 62
     0
370
    30
100
AcDbPolyline
 90
        8
 70
     0
 43
0.0
 10
386.259552
 20
307.430389
 10
401.909546
 20
307.515259
 10
417.559723
 20
307.552856
 10
433.210022
 20
307.558502
 10
448.860413
 20
307.547546
 10
464.510803
 20
307.535309
 10
480.161163
 20
307.537109
 10
498.359558
 20
307.577179
  0
LWPOLYLINE
  5
2EF
330
2C9
100
AcDbEntity
  8
0
  6
Continuous
 62
     0
370
     0
100
AcDbPolyline
 90
        4
 70
     0
 43
0.0
 10
498.359558
 20
312.984741
 10
461.364044
 20
312.977722
 10
424.36853
 20
312.981476
 10
386.259552
 20
312.949615
  0
LINE
  5
2F0
330
2C9
100
AcDbEntity
  8
0
  6
Continuous
 62
     0
370
     0
100
AcDbLine
 10
386.259549
 20
312.949626
 30
0.0
 11
386.259549
 21
317.54294
 31
0.0
  0
LWPOLYLINE
  5
2F1
330
2C9
100
AcDbEntity
  8
0
  6
Continuous
 62
     0
370
     0
100
AcDbPolyline
 90
        4
 70
     0
 43
0.0
 10
386.259552
 20
317.542938
 10
416.714325
 20
317.553955
 10
447.169098
 20
317.560608
 10
498.359558
 20
317.536133
  0
LINE
  5
2F2
330
2C9
100
AcDbEntity
  8
0
  6
Continuous
 62
     0
370
     0
100
AcDbLine
 10
386.259549
 20
317.54294
 30
0.0
 11
386.259549
 21
324.531578
 31
0.0
  0
LINE
  5
2F3
330
2C9
100
AcDbEntity
  8
0
  6
Continuous
 62
     0
370
     0
100
AcDbLine
 10
386.259549
 20
324.531578
 30
0.0
 11
498.359549
 21
324.531383
 31
0.0
  0
LINE
  5
2F4
330
2C9
100
AcDbEntity
  8
0
  6
Continuous
 62
     0
370
     0
100
AcDbLine
 10
386.259548
 20
325.749779
 30
0.0
 11
386.259509
 21
326.702988
 31
0.0
  0
LWPOLYLINE
  5
2F5
330
2C9
100
AcDbEntity
  8
0
  6
Continuous
 62
     0
370
    30
100
AcDbPolyline
 90
        4
 70
     0
 43
0.0
 10
386.259552
 20
326.70517
 10
419.476532
 20
326.71521
 10
452.693512
 20
326.703857
 10
498.359558
 20
326.696442
  0
LWPOLYLINE
  5
2F6
330
2C9
100
AcDbEntity
  8
0
  6
Continuous
 62
     0
370
     0
100
AcDbPolyline
 90
        3
 70
     0
 43
0.0
 10
498.359558
 20
325.737885
 10
462.836365
 20
325.744507
 10
386.259552
 20
325.749786
  0
LINE
  5
2F7
330
2C9
100
AcDbEntity
  8
0
  6
Continuous
 62
     0
370
     0
100
AcDbLine
 10
386.259549
 20
324.531578
 30
0.0
 11
386.259548
 21
325.749779
 31
0.0
  0
LWPOLYLINE
  5
2F8
330
2C9
100
AcDbEntity
  8
0
  6
Continuous
 62
     0
370
     0
100
AcDbPolyline
 90
        3
 70
     0
 43
0.0
 10
349.929047
 20
312.945129
 10
361.895416
 20
312.93869
 10
386.259552
 20
312.949615
  0
LWPOLYLINE
  5
2F9
330
2C9
100
AcDbEntity
  8
0
  6
Continuous
 62
     0
370
    30
100
AcDbPolyline
 90
        5
 70
     0
 43
0.0
 10
386.259552
 20
307.430389
 10
378.11554
 20
307.389069
 10
369.971466
 20
307.377014
 10
361.827362
 20
307.384674
 10
349.929047
 20
307.411469
  0
ARC
  5
2FA
330
2C9
100
AcDbEntity
  8
0
  6
Continuous
 62
     0
370
     0
100
AcDbCircle
 10
366.120635
 20
83480.02876
 30
0.0
 40
83162.48825823177
100
AcDbArc
 50
269.988845
 51
270.013875
  0
LINE
  5
2FB
330
2C9
100
AcDbEntity
  8
0
  6
Continuous
 62
     0
370
     0
100
AcDbLine
 10
386.259549
 20
324.531578
 30
0.0
 11
349.929049
 21
324.531597
 31
0.0
  0
ARC
  5
2FC
330
2C9
100
AcDbEntity
  8
0
  6
Continuous
 62
     0
370
     0
100
AcDbCircle
 10
366.120636
 20
-78144.318467
 30
0.0
 40
78470.07083071947
100
AcDbArc
 50
89.985295
 51
90.011822
  0
ARC
  5
2FD
330
2C9
100
AcDbEntity
  8
0
  6
Continuous
 62
     0
370
    30
100
AcDbCircle
 10
366.120634
 20
32370.319374
 30
0.0
 40
32043.62052026993
100
AcDbArc
 50
269.971049
 51
270.03601
  0
LWPOLYLINE
  5
2FE
330
2C9
100
AcDbEntity
  8
0
  6
Continuous
 62
     0
370
     0
100
AcDbPolyline
 90
       18
 70
     0
 43
0.0
 10
364.929077
 20
307.443878
 10
364.516418
 20
307.443207
 10
364.116455
 20
307.440338
 10
363.744843
 20
307.435638
 10
363.415161
 20
307.429535
 10
363.136475
 20
307.422607
 10
362.917145
 20
307.415527
 10
362.766541
 20
307.408661
 10
362.689545
 20
307.402466
 10
362.688721
 20
307.397186
 10
362.763794
 20
307.392853
 10
362.912476
 20
307.389435
 10
363.130402
 20
307.386841
 10
363.407928
 20
307.384888
 10
363.736389
 20
307.383453
 10
364.107239
 20
307.382355
 10
364.506714
 20
307.381531
 10
364.929047
 20
307.38092
  0
LWPOLYLINE
  5
2FF
330
2C9
100
AcDbEntity
  8
0
  6
Continuous
 62
     0
370
     0
100
AcDbPolyline
 90
       18
 70
     0
 43
0.0
 10
364.929047
 20
307.38092
 10
365.341675
 20
307.380524
 10
365.741638
 20
307.380402
 10
366.113312
 20
307.380585
 10
366.442963
 20
307.381226
 10
366.721741
 20
307.382477
 10
366.941162
 20
307.384552
 10
367.091644
 20
307.387573
 10
367.168518
 20
307.391663
 10
367.169464
 20
307.396912
 10
367.094421
 20
307.403259
 10
366.945679
 20
307.410431
 10
366.727966
 20
307.41803
 10
366.450531
 20
307.425598
 10
366.12207
 20
307.432556
 10
365.751343
 20
307.438202
 10
365.351898
 20
307.442078
 10
364.929077
 20
307.443878
  0
LWPOLYLINE
  5
300
330
2C9
100
AcDbEntity
  8
0
  6
Continuous
 62
     0
370
    30
100
AcDbPolyline
 90
       69
 70
     0
 43
0.0
 10
538.858337
 20
326.66037
 10
538.754395
 20
326.662903
 10
538.652039
 20
326.665375
 10
538.516785
 20
326.668518
 10
538.359436
 20
326.672058
 10
538.181396
 20
326.675903
 10
537.985352
 20
326.679962
 10
537.769348
 20
326.684265
 10
537.531372
 20
326.688751
 10
537.279968
 20
326.693237
 10
537.016418
 20
326.697693
 10
536.744751
 20
326.701996
 10
536.462402
 20
326.706238
 10
536.17572
 20
326.710236
 10
535.88446
 20
326.714081
 10
535.590271
 20
326.717682
 10
535.293091
 20
326.721069
 10
534.993408
 20
326.724274
 10
534.693359
 20
326.727264
 10
534.391235
 20
326.730042
 10
534.088806
 20
326.732635
 10
533.785583
 20
326.735016
 10
533.481812
 20
326.737244
 10
533.177856
 20
326.739288
 10
532.873535
 20
326.74118
 10
532.569214
 20
326.742889
 10
532.264648
 20
326.744476
 10
531.960083
 20
326.745911
 10
531.655579
 20
326.747223
 10
531.351135
 20
326.748383
 10
531.046753
 20
326.749451
 10
530.742432
 20
326.750366
 10
530.438293
 20
326.75119
 10
530.134277
 20
326.751923
 10
529.830444
 20
326.752533
 10
529.526917
 20
326.753082
 10
529.223572
 20
326.75351
 10
528.920471
 20
326.753876
 10
528.617859
 20
326.75412
 10
528.315491
 20
326.754333
 10
528.013
 20
326.754456
 10
527.711182
 20
326.754517
 10
527.410278
 20
326.754486
 10
527.109314
 20
326.754425
 10
526.808472
 20
326.754303
 10
526.508606
 20
326.75412
 10
526.209351
 20
326.753876
 10
525.910645
 20
326.753571
 10
525.612793
 20
326.753235
 10
525.315613
 20
326.752869
 10
525.019348
 20
326.752441
 10
524.724609
 20
326.752014
 10
524.430237
 20
326.751526
 10
524.137573
 20
326.751007
 10
523.846313
 20
326.750458
 10
523.556091
 20
326.749878
 10
523.268494
 20
326.749268
 10
522.982361
 20
326.748657
 10
522.701416
 20
326.748016
 10
522.418396
 20
326.747375
 10
522.138367
 20
326.746704
 10
521.86853
 20
326.746033
 10
521.597229
 20
326.745361
 10
521.335205
 20
326.74469
 10
521.076294
 20
326.744019
 10
520.828308
 20
326.743347
 10
520.602173
 20
326.742737
 10
520.370056
 20
326.742126
 10
520.139954
 20
326.741486
  0
LWPOLYLINE
  5
301
330
2C9
100
AcDbEntity
  8
0
  6
Continuous
 62
     0
370
    30
100
AcDbPolyline
 90
       63
 70
     0
 43
0.0
 10
344.929047
 20
346.594055
 10
344.929047
 20
346.600098
 10
344.929047
 20
346.542023
 10
344.929047
 20
346.416595
 10
344.929047
 20
346.220886
 10
344.929047
 20
345.952332
 10
344.929047
 20
345.608795
 10
344.929047
 20
345.188599
 10
344.929047
 20
344.690643
 10
344.929047
 20
344.11438
 10
344.929047
 20
343.459991
 10
344.929047
 20
342.72818
 10
344.929047
 20
341.920471
 10
344.929047
 20
341.039001
 10
344.929047
 20
340.086578
 10
344.929047
 20
339.066681
 10
344.929047
 20
337.983398
 10
344.929047
 20
336.841309
 10
344.929047
 20
335.645599
 10
344.929047
 20
334.401794
 10
344.929047
 20
333.115723
 10
344.929047
 20
331.793488
 10
344.929047
 20
330.441345
 10
344.929047
 20
329.065613
 10
344.929047
 20
327.672546
 10
344.929047
 20
326.268341
 10
344.929047
 20
324.858948
 10
344.929047
 20
323.450104
 10
344.929047
 20
322.04718
 10
344.929047
 20
320.655243
 10
344.929047
 20
319.278961
 10
344.929047
 20
317.922577
 10
344.929047
 20
316.564697
 10
344.929047
 20
315.18338
 10
344.929047
 20
313.782623
 10
344.929047
 20
312.366943
 10
344.929047
 20
310.941254
 10
344.929047
 20
309.510834
 10
344.929047
 20
308.081329
 10
344.929047
 20
306.658691
 10
344.929047
 20
305.248993
 10
344.929047
 20
303.858551
 10
344.929047
 20
302.493774
 10
344.929047
 20
301.160919
 10
344.929047
 20
299.866272
 10
344.929047
 20
298.615875
 10
344.929047
 20
297.415405
 10
344.929047
 20
296.270264
 10
344.929047
 20
295.185333
 10
344.929047
 20
294.164978
 10
344.929047
 20
293.213013
 10
344.929047
 20
292.332581
 10
344.929047
 20
291.526154
 10
344.929047
 20
290.795563
 10
344.929047
 20
290.141968
 10
344.929047
 20
289.565796
 10
344.929047
 20
289.066925
 10
344.929047
 20
288.644531
 10
344.929047
 20
288.297302
 10
344.929047
 20
288.023407
 10
344.929047
 20
287.820496
 10
344.929047
 20
287.685944
 10
344.929047
 20
287.616302
  0
LINE
  5
302
330
2C9
100
AcDbEntity
  8
0
  6
Continuous
 62
     0
370
     0
100
AcDbLine
 10
345.429047
 20
347.105183
 30
0.0
 11
345.429047
 21
287.116492
 31
0.0
  0
LINE
  5
303
330
2C9
100
AcDbEntity
  8
0
  6
Continuous
 62
     0
370
     0
100
AcDbLine
 10
345.429047
 20
287.116492
 30
0.0
 11
345.429047
 21
287.105183
 31
0.0
  0
LINE
  5
304
330
2C9
100
AcDbEntity
  8
0
  6
Continuous
 62
     0
370
     0
100
AcDbLine
 10
349.429047
 20
287.105183
 30
0.0
 11
349.429047
 21
287.116492
 31
0.0
  0
LINE
  5
305
330
2C9
100
AcDbEntity
  8
0
  6
Continuous
 62
     0
370
     0
100
AcDbLine
 10
349.429047
 20
287.116492
 30
0.0
 11
349.429047
 21
347.105183
 31
0.0
  0
LWPOLYLINE
  5
306
330
2C9
100
AcDbEntity
  8
0
  6
Continuous
 62
     0
370
    30
100
AcDbPolyline
 90
       63
 70
     0
 43
0.0
 10
349.929047
 20
346.594055
 10
349.929047
 20
346.600098
 10
349.929047
 20
346.542023
 10
349.929047
 20
346.416595
 10
349.929047
 20
346.220886
 10
349.929047
 20
345.952332
 10
349.929047
 20
345.608795
 10
349.929047
 20
345.188599
 10
349.929047
 20
344.690643
 10
349.929047
 20
344.11438
 10
349.929047
 20
343.459991
 10
349.929047
 20
342.72818
 10
349.929047
 20
341.920471
 10
349.929047
 20
341.039001
 10
349.929047
 20
340.086578
 10
349.929047
 20
339.066681
 10
349.929047
 20
337.983398
 10
349.929047
 20
336.841309
 10
349.929047
 20
335.645599
 10
349.929047
 20
334.401794
 10
349.929047
 20
333.115723
 10
349.929047
 20
331.793488
 10
349.929047
 20
330.441345
 10
349.929047
 20
329.065613
 10
349.929047
 20
327.672546
 10
349.929047
 20
326.268341
 10
349.929047
 20
324.858948
 10
349.929047
 20
323.450104
 10
349.929047
 20
322.04718
 10
349.929047
 20
320.655243
 10
349.929047
 20
319.278961
 10
349.929047
 20
317.922577
 10
349.929047
 20
316.564697
 10
349.929047
 20
315.18338
 10
349.929047
 20
313.782623
 10
349.929047
 20
312.366943
 10
349.929047
 20
310.941254
 10
349.929047
 20
309.510834
 10
349.929047
 20
308.081329
 10
349.929047
 20
306.658691
 10
349.929047
 20
305.248993
 10
349.929047
 20
303.858551
 10
349.929047
 20
302.493774
 10
349.929047
 20
301.160919
 10
349.929047
 20
299.866272
 10
349.929047
 20
298.615875
 10
349.929047
 20
297.415405
 10
349.929047
 20
296.270264
 10
349.929047
 20
295.185333
 10
349.929047
 20
294.164978
 10
349.929047
 20
293.213013
 10
349.929047
 20
292.332581
 10
349.929047
 20
291.526154
 10
349.929047
 20
290.795563
 10
349.929047
 20
290.141968
 10
349.929047
 20
289.565796
 10
349.929047
 20
289.066925
 10
349.929047
 20
288.644531
 10
349.929047
 20
288.297302
 10
349.929047
 20
288.023407
 10
349.929047
 20
287.820496
 10
349.929047
 20
287.685944
 10
349.929047
 20
287.616302
  0
ARC
  5
307
330
2C9
100
AcDbEntity
  8
0
  6
Continuous
 62
     0
370
    30
100
AcDbCircle
 10
345.429049
 20
346.605125
 30
0.0
 40
0.5000020943846293
100
AcDbArc
 50
90.00024
 51
179.992657
  0
ARC
  5
308
330
2C9
100
AcDbEntity
  8
0
  6
Continuous
 62
     0
370
    30
100
AcDbCircle
 10
345.429049
 20
287.605212
 30
0.0
 40
0.500002408913572
100
AcDbArc
 50
180.0035
 51
269.999724
  0
ARC
  5
309
330
2C9
100
AcDbEntity
  8
0
  6
Continuous
 62
     0
370
    30
100
AcDbCircle
 10
349.429044
 20
287.605212
 30
0.0
 40
0.500002408934752
100
AcDbArc
 50
270.000276
 51
359.9965
  0
ARC
  5
30A
330
2C9
100
AcDbEntity
  8
0
  6
Continuous
 62
     0
370
    30
100
AcDbCircle
 10
349.429045
 20
346.605125
 30
0.0
 40
0.5000020943914545
100
AcDbArc
 50
0.007343
 51
89.99976
  0
LINE
  5
30B
330
2C9
100
AcDbEntity
  8
0
  6
Continuous
 62
     0
370
    30
100
AcDbLine
 10
345.429047
 20
347.105183
 30
0.0
 11
349.429047
 21
347.105183
 31
0.0
  0
LINE
  5
30C
330
2C9
100
AcDbEntity
  8
0
  6
Continuous
 62
     0
370
    30
100
AcDbLine
 10
345.429047
 20
287.105183
 30
0.0
 11
349.429047
 21
287.105183
 31
0.0
  0
ENDBLK
  5
30E
330
2C9
100
AcDbEntity
  8
0
100
AcDbBlockEnd
  0
BLOCK
  5
354
330
310
100
AcDbEntity
  8
0
100
AcDbBlockBegin
  2
d
 70
     0
 10
147.847031
 20
0.0
 30
0.0
  3
d
  1

  0
LINE
  5
311
330
310
100
AcDbEntity
  8
0
  6
Continuous
 62
     0
370
    30
100
AcDbLine
 10
-68.024212
 20
307.322649
 30
0.0
 11
-59.706732
 21
306.594964
 31
0.0
  0
LINE
  5
312
330
310
100
AcDbEntity
  8
0
  6
Continuous
 62
     0
370
    30
100
AcDbLine
 10
-59.706732
 20
306.594964
 30
0.0
 11
-49.59461
 21
305.710268
 31
0.0
  0
LINE
  5
313
330
310
100
AcDbEntity
  8
0
  6
Continuous
 62
     0
370
    30
100
AcDbLine
 10
-67.939326
 20
308.292906
 30
0.0
 11
-68.024212
 21
307.322649
 31
0.0
  0
LINE
  5
314
330
310
100
AcDbEntity
  8
0
  6
Continuous
 62
     0
370
    30
100
AcDbLine
 10
-49.402884
 20
307.901709
 30
0.0
 11
-49.59461
 21
305.710268
 31
0.0
  0
LWPOLYLINE
  5
315
330
310
100
AcDbEntity
  8
0
  6
Continuous
 62
     0
370
    30
100
AcDbPolyline
 90
        7
 70
     0
 43
0.0
 10
-74.697372
 20
309.428467
 10
-74.121445
 20
309.120453
 10
-73.515945
 20
308.875031
 10
-72.891136
 20
308.684631
 10
-72.255058
 20
308.535645
 10
-71.612877
 20
308.417297
 10
-70.948456
 20
308.31955
  0
LINE
  5
316
330
310
100
AcDbEntity
  8
0
  6
Continuous
 62
     0
370
    30
100
AcDbLine
 10
-46.413496
 20
307.64965
 30
0.0
 11
-43.930895
 21
307.633778
 31
0.0
  0
LINE
  5
317
330
310
100
AcDbEntity
  8
0
  6
Continuous
 62
     0
370
    30
100
AcDbLine
 10
-54.269406
 20
326.742464
 30
0.0
 11
-43.930894
 21
326.711316
 31
0.0
  0
LWPOLYLINE
  5
318
330
310
100
AcDbEntity
  8
0
  6
Continuous
 62
     0
370
    30
100
AcDbPolyline
 90
       11
 70
     0
 43
0.0
 10
-76.208534
 20
326.44101
 10
-75.856735
 20
326.500397
 10
-75.501816
 20
326.535797
 10
-75.145912
 20
326.561676
 10
-74.78968
 20
326.582489
 10
-74.433334
 20
326.600067
 10
-74.076851
 20
326.615143
 10
-73.720291
 20
326.628326
 10
-73.363686
 20
326.640015
 10
-73.007034
 20
326.650452
 10
-72.629707
 20
326.66037
  0
ARC
  5
319
330
310
100
AcDbEntity
  8
0
  6
Continuous
 62
     0
370
    30
100
AcDbCircle
 10
-14.694129
 20
5172.349579
 30
0.0
 40
4864.803656058686
100
AcDbArc
 50
269.655659
 51
269.794636
  0
LWPOLYLINE
  5
31A
330
310
100
AcDbEntity
  8
0
  6
Continuous
 62
     0
370
    30
100
AcDbPolyline
 90
       50
 70
     0
 43
0.0
 10
-76.208534
 20
326.44101
 10
-76.582237
 20
326.324738
 10
-76.944344
 20
326.175873
 10
-77.287041
 20
325.986664
 10
-77.598
 20
325.748871
 10
-77.860374
 20
325.458618
 10
-78.059303
 20
325.121826
 10
-78.192429
 20
324.754059
 10
-78.274124
 20
324.371552
 10
-78.329094
 20
323.984253
 10
-78.367332
 20
323.594971
 10
-78.390709
 20
323.204437
 10
-78.402824
 20
322.813446
 10
-78.408066
 20
322.422302
 10
-78.410141
 20
322.031128
 10
-78.4105
 20
321.639984
 10
-78.410141
 20
321.24881
 10
-78.409126
 20
320.857666
 10
-78.406555
 20
320.466492
 10
-78.401505
 20
320.075378
 10
-78.393173
 20
319.684296
 10
-78.381203
 20
319.293274
 10
-78.365349
 20
318.902405
 10
-78.345345
 20
318.511719
 10
-78.320946
 20
318.121277
 10
-78.291908
 20
317.73111
 10
-78.258003
 20
317.34137
 10
-78.218994
 20
316.952087
 10
-78.174652
 20
316.563416
 10
-78.124733
 20
316.175415
 10
-78.069008
 20
315.788239
 10
-78.007187
 20
315.401978
 10
-77.938614
 20
315.016876
 10
-77.862244
 20
314.633179
 10
-77.776993
 20
314.251129
 10
-77.681595
 20
313.871429
 10
-77.57476
 20
313.494781
 10
-77.455185
 20
313.121887
 10
-77.321564
 20
312.753479
 10
-77.172623
 20
312.39032
 10
-77.007401
 20
312.033905
 10
-76.825111
 20
311.686035
 10
-76.625
 20
311.348633
 10
-76.406296
 20
311.023529
 10
-76.168236
 20
310.712646
 10
-75.91066
 20
310.417725
 10
-75.634048
 20
310.140503
 10
-75.339058
 20
309.88266
 10
-75.027168
 20
309.645538
 10
-74.697372
 20
309.428467
  0
ARC
  5
31B
330
310
100
AcDbEntity
  8
0
  6
Continuous
 62
     0
370
    30
100
AcDbCircle
 10
-30.80383
 20
6060.465225
 30
0.0
 40
5733.768935359749
100
AcDbArc
 50
269.868825
 51
269.986739
  0
LWPOLYLINE
  5
31C
330
310
100
AcDbEntity
  8
0
  6
Continuous
 62
     0
370
    30
100
AcDbPolyline
 90
        8
 70
     0
 43
0.0
 10
79.969109
 20
307.430389
 10
64.319122
 20
307.515259
 10
48.668945
 20
307.552856
 10
33.018635
 20
307.558502
 10
17.368246
 20
307.547546
 10
1.717842
 20
307.535309
 10
-13.932523
 20
307.537109
 10
-32.130894
 20
307.577179
  0
LWPOLYLINE
  5
31D
330
310
100
AcDbEntity
  8
0
  6
Continuous
 62
     0
370
    30
100
AcDbPolyline
 90
        4
 70
     0
 43
0.0
 10
79.969109
 20
326.70517
 10
46.752129
 20
326.71521
 10
13.535146
 20
326.703857
 10
-32.130894
 20
326.696442
  0
LWPOLYLINE
  5
31E
330
310
100
AcDbEntity
  8
0
  6
Continuous
 62
     0
370
    30
100
AcDbPolyline
 90
        5
 70
     0
 43
0.0
 10
79.969109
 20
307.430389
 10
88.113098
 20
307.389069
 10
96.257195
 20
307.377014
 10
104.401299
 20
307.384674
 10
116.299606
 20
307.411469
  0
ARC
  5
31F
330
310
100
AcDbEntity
  8
0
  6
Continuous
 62
     0
370
    30
100
AcDbCircle
 10
100.108019
 20
32370.319374
 30
0.0
 40
32043.62052026711
100
AcDbArc
 50
269.96399
 51
270.028951
  0
LWPOLYLINE
  5
320
330
310
100
AcDbEntity
  8
0
  6
Continuous
 62
     0
370
     0
100
AcDbPolyline
 90
       38
 70
     0
 43
0.0
 10
-70.734642
 20
313.12204
 10
-70.628571
 20
313.115143
 10
-70.514961
 20
313.108673
 10
-70.390411
 20
313.102509
 10
-70.251297
 20
313.096619
 10
-70.094231
 20
313.090973
 10
-69.91806
 20
313.08548
 10
-69.722473
 20
313.08017
 10
-69.507065
 20
313.075012
 10
-69.269089
 20
313.070038
 10
-69.001854
 20
313.065155
 10
-68.703552
 20
313.060425
 10
-68.372604
 20
313.055878
 10
-68.007439
 20
313.051514
 10
-67.606453
 20
313.047333
 10
-67.168007
 20
313.043396
 10
-66.690399
 20
313.039673
 10
-66.171875
 20
313.036224
 10
-65.610451
 20
313.03299
 10
-65.003952
 20
313.029999
 10
-64.350212
 20
313.027222
 10
-63.647053
 20
313.024628
 10
-62.8923
 20
313.022217
 10
-62.083782
 20
313.019958
 10
-61.219326
 20
313.017822
 10
-60.296753
 20
313.015839
 10
-59.313892
 20
313.013947
 10
-58.268566
 20
313.012146
 10
-57.158607
 20
313.010406
 10
-55.981838
 20
313.008698
 10
-54.736084
 20
313.00705
 10
-53.41917
 20
313.005402
 10
-52.028923
 20
313.003784
 10
-50.563171
 20
313.002106
 10
-49.020813
 20
313.000427
 10
-47.405243
 20
312.998688
 10
-45.721031
 20
312.996887
 10
-43.930897
 20
312.994995
  0
LINE
  5
321
330
310
100
AcDbEntity
  8
0
  6
Continuous
 62
     0
370
     0
100
AcDbLine
 10
-43.930896
 20
312.994999
 30
0.0
 11
-43.930896
 21
317.516641
 31
0.0
  0
LWPOLYLINE
  5
322
330
310
100
AcDbEntity
  8
0
  6
Continuous
 62
     0
370
     0
100
AcDbPolyline
 90
       38
 70
     0
 43
0.0
 10
-43.930897
 20
317.516632
 10
-45.695507
 20
317.512512
 10
-47.395905
 20
317.508087
 10
-49.027477
 20
317.503357
 10
-50.585606
 20
317.498322
 10
-52.066513
 20
317.49295
 10
-53.470997
 20
317.487244
 10
-54.801395
 20
317.481171
 10
-56.060047
 20
317.474731
 10
-57.24929
 20
317.467865
 10
-58.371471
 20
317.460632
 10
-59.428925
 20
317.452911
 10
-60.423992
 20
317.444763
 10
-61.359013
 20
317.436096
 10
-62.236328
 20
317.426971
 10
-63.058273
 20
317.417297
 10
-63.82719
 20
317.407074
 10
-64.545418
 20
317.396301
 10
-65.215302
 20
317.384918
 10
-65.83918
 20
317.372955
 10
-66.41938
 20
317.360352
 10
-66.95826
 20
317.347107
 10
-67.458145
 20
317.333191
 10
-67.921387
 20
317.318604
 10
-68.350319
 20
317.303284
 10
-68.747276
 20
317.287231
 10
-69.114601
 20
317.270447
 10
-69.454643
 20
317.252869
 10
-69.76973
 20
317.234528
 10
-70.06221
 20
317.215363
 10
-70.334412
 20
317.195343
 10
-70.588692
 20
317.174469
 10
-70.82737
 20
317.15274
 10
-71.052803
 20
317.130127
 10
-71.267326
 20
317.106567
 10
-71.473274
 20
317.082092
 10
-71.672989
 20
317.056641
 10
-71.872177
 20
317.029755
  0
LWPOLYLINE
  5
323
330
310
100
AcDbEntity
  8
0
  6
Continuous
 62
     0
370
     0
100
AcDbPolyline
 90
       10
 70
     0
 43
0.0
 10
-71.872177
 20
317.029755
 10
-71.772484
 20
316.498199
 10
-71.662651
 20
315.97995
 10
-71.543228
 20
315.478424
 10
-71.414772
 20
314.997131
 10
-71.277908
 20
314.539642
 10
-71.136299
 20
314.114075
 10
-70.997948
 20
313.736115
 10
-70.869736
 20
313.417938
 10
-70.734642
 20
313.12204
  0
LWPOLYLINE
  5
324
330
310
100
AcDbEntity
  8
0
  6
Continuous
 62
     0
370
     0
100
AcDbPolyline
 90
       19
 70
     0
 43
0.0
 10
-70.734642
 20
313.12204
 10
-71.004562
 20
312.890594
 10
-71.312447
 20
312.621368
 10
-71.665367
 20
312.3078
 10
-72.04361
 20
311.967987
 10
-72.425735
 20
311.620148
 10
-72.797272
 20
311.277283
 10
-73.148994
 20
310.94873
 10
-73.471931
 20
310.643768
 10
-73.757095
 20
310.371613
 10
-73.997322
 20
310.139771
 10
-74.194092
 20
309.947388
 10
-74.351471
 20
309.791199
 10
-74.473557
 20
309.667908
 10
-74.56443
 20
309.574158
 10
-74.628159
 20
309.506653
 10
-74.668839
 20
309.462067
 10
-74.690544
 20
309.437134
 10
-74.697372
 20
309.428467
  0
LWPOLYLINE
  5
325
330
310
100
AcDbEntity
  8
0
  6
Continuous
 62
     0
370
    30
100
AcDbPolyline
 90
       40
 70
     0
 43
0.0
 10
-70.948456
 20
308.31955
 10
-70.9086
 20
308.317383
 10
-70.789574
 20
308.31073
 10
-70.591858
 20
308.301239
 10
-70.316681
 20
308.290955
 10
-69.965599
 20
308.282104
 10
-69.54084
 20
308.276703
 10
-69.045135
 20
308.276398
 10
-68.481743
 20
308.282318
 10
-67.854599
 20
308.294922
 10
-67.167915
 20
308.31424
 10
-66.426506
 20
308.339325
 10
-65.635292
 20
308.369049
 10
-64.799103
 20
308.401459
 10
-63.922722
 20
308.434113
 10
-63.011204
 20
308.464569
 10
-62.07111
 20
308.490387
 10
-61.10957
 20
308.509125
 10
-60.133709
 20
308.518402
 10
-59.150143
 20
308.515961
 10
-58.163647
 20
308.500763
 10
-57.180069
 20
308.472961
 10
-56.206394
 20
308.433167
 10
-55.249458
 20
308.382141
 10
-54.314247
 20
308.322266
 10
-53.407173
 20
308.255951
 10
-52.535164
 20
308.185516
 10
-51.703087
 20
308.113495
 10
-50.915321
 20
308.042328
 10
-50.177181
 20
307.973969
 10
-49.494129
 20
307.910187
 10
-48.870918
 20
307.852509
 10
-48.311165
 20
307.801697
 10
-47.818329
 20
307.758392
 10
-47.395477
 20
307.722809
 10
-47.045502
 20
307.694855
 10
-46.77076
 20
307.674194
 10
-46.573025
 20
307.660278
 10
-46.453709
 20
307.652405
 10
-46.413498
 20
307.649658
  0
LINE
  5
326
330
310
100
AcDbEntity
  8
0
  6
Continuous
 62
     0
370
     0
100
AcDbLine
 10
-43.930895
 20
307.633778
 30
0.0
 11
-43.930896
 21
312.994999
 31
0.0
  0
LINE
  5
327
330
310
100
AcDbEntity
  8
0
  6
Continuous
 62
     0
370
     0
100
AcDbLine
 10
-43.930896
 20
317.516641
 30
0.0
 11
-43.930898
 21
324.531306
 31
0.0
  0
LWPOLYLINE
  5
328
330
310
100
AcDbEntity
  8
0
  6
Continuous
 62
     0
370
     0
100
AcDbPolyline
 90
       24
 70
     0
 43
0.0
 10
-43.930897
 20
324.531311
 10
-45.171844
 20
324.531311
 10
-46.412788
 20
324.531281
 10
-47.653736
 20
324.531281
 10
-48.89468
 20
324.531281
 10
-50.135628
 20
324.53125
 10
-51.376572
 20
324.53125
 10
-52.617519
 20
324.53125
 10
-53.858463
 20
324.531219
 10
-55.099407
 20
324.531219
 10
-56.340355
 20
324.53125
 10
-57.581303
 20
324.531281
 10
-58.82225
 20
324.531342
 10
-60.063202
 20
324.531433
 10
-61.304142
 20
324.531616
 10
-62.545074
 20
324.531891
 10
-63.785988
 20
324.532318
 10
-65.026848
 20
324.532928
 10
-66.267624
 20
324.533905
 10
-67.508163
 20
324.53537
 10
-68.74781
 20
324.537811
 10
-69.984772
 20
324.542114
 10
-71.210396
 20
324.550873
 10
-72.41597
 20
324.570374
  0
LWPOLYLINE
  5
329
330
310
100
AcDbEntity
  8
0
  6
Continuous
 62
     0
370
     0
100
AcDbPolyline
 90
       16
 70
     0
 43
0.0
 10
-72.41597
 20
324.570374
 10
-72.464378
 20
324.289825
 10
-72.497353
 20
324.004425
 10
-72.514107
 20
323.714813
 10
-72.51619
 20
323.410461
 10
-72.505333
 20
323.079834
 10
-72.483284
 20
322.711426
 10
-72.451775
 20
322.293701
 10
-72.412552
 20
321.815155
 10
-72.367172
 20
321.265411
 10
-72.314995
 20
320.648682
 10
-72.25386
 20
319.978912
 10
-72.181602
 20
319.270294
 10
-72.096039
 20
318.537018
 10
-71.994987
 20
317.793243
 10
-71.872177
 20
317.029755
  0
LWPOLYLINE
  5
32A
330
310
100
AcDbEntity
  8
0
  6
Continuous
 62
     0
370
     0
100
AcDbPolyline
 90
        6
 70
     0
 43
0.0
 10
-72.045319
 20
325.607239
 10
-72.119064
 20
325.487244
 10
-72.192711
 20
325.327728
 10
-72.267448
 20
325.128693
 10
-72.337479
 20
324.901276
 10
-72.41597
 20
324.570374
  0
LINE
  5
32B
330
310
100
AcDbEntity
  8
0
  6
Continuous
 62
     0
370
     0
100
AcDbLine
 10
-43.930898
 20
324.531306
 30
0.0
 11
-43.930896
 21
325.732679
 31
0.0
  0
LWPOLYLINE
  5
32C
330
310
100
AcDbEntity
  8
0
  6
Continuous
 62
     0
370
     0
100
AcDbPolyline
 90
       15
 70
     0
 43
0.0
 10
-43.930897
 20
325.732666
 10
-45.931103
 20
325.731689
 10
-47.931313
 20
325.730682
 10
-49.931522
 20
325.729675
 10
-51.931728
 20
325.728699
 10
-53.931938
 20
325.727692
 10
-55.932148
 20
325.726654
 10
-57.932358
 20
325.725433
 10
-59.932568
 20
325.723816
 10
-61.932774
 20
325.721558
 10
-63.93298
 20
325.71817
 10
-65.933174
 20
325.71283
 10
-67.933182
 20
325.702484
 10
-69.932373
 20
325.681
 10
-72.045319
 20
325.607239
  0
LWPOLYLINE
  5
32D
330
310
100
AcDbEntity
  8
0
  6
Continuous
 62
     0
370
     0
100
AcDbPolyline
 90
       24
 70
     0
 43
0.0
 10
-72.045319
 20
325.607239
 10
-72.664085
 20
325.735657
 10
-73.210083
 20
325.839905
 10
-73.686371
 20
325.926331
 10
-74.101936
 20
325.998474
 10
-74.466164
 20
326.060425
 10
-74.784721
 20
326.114807
 10
-75.059464
 20
326.162964
 10
-75.289978
 20
326.205505
 10
-75.479317
 20
326.243011
 10
-75.634109
 20
326.275909
 10
-75.759964
 20
326.304596
 10
-75.861603
 20
326.329468
 10
-75.94323
 20
326.350861
 10
-76.008507
 20
326.369202
 10
-76.060501
 20
326.384857
 10
-76.101715
 20
326.398163
 10
-76.13414
 20
326.409393
 10
-76.159309
 20
326.418793
 10
-76.178383
 20
326.426514
 10
-76.192223
 20
326.432587
 10
-76.2015
 20
326.437042
 10
-76.206764
 20
326.43988
 10
-76.208534
 20
326.44101
  0
LWPOLYLINE
  5
32E
330
310
100
AcDbEntity
  8
0
  6
Continuous
 62
     0
370
     0
100
AcDbPolyline
 90
       35
 70
     0
 43
0.0
 10
-43.930939
 20
326.708771
 10
-43.930935
 20
326.706909
 10
-43.93092
 20
326.704468
 10
-43.930901
 20
326.701416
 10
-43.930882
 20
326.697754
 10
-43.930862
 20
326.69342
 10
-43.930843
 20
326.688324
 10
-43.930832
 20
326.682495
 10
-43.930832
 20
326.675842
 10
-43.930836
 20
326.668304
 10
-43.930847
 20
326.659851
 10
-43.930855
 20
326.65036
 10
-43.930851
 20
326.639771
 10
-43.930828
 20
326.628021
 10
-43.930794
 20
326.615021
 10
-43.930794
 20
326.600647
 10
-43.930904
 20
326.584839
 10
-43.931068
 20
326.567627
 10
-43.931053
 20
326.549255
 10
-43.930798
 20
326.529877
 10
-43.930611
 20
326.509521
 10
-43.930763
 20
326.488159
 10
-43.931046
 20
326.465454
 10
-43.931095
 20
326.440979
 10
-43.930782
 20
326.414185
 10
-43.93042
 20
326.384644
 10
-43.930363
 20
326.351807
 10
-43.930798
 20
326.315155
 10
-43.931355
 20
326.273987
 10
-43.931587
 20
326.227173
 10
-43.93116
 20
326.173004
 10
-43.930355
 20
326.108551
 10
-43.930256
 20
326.028473
 10
-43.932022
 20
325.918304
 10
-43.930897
 20
325.732666
  0
LWPOLYLINE
  5
32F
330
310
100
AcDbEntity
  8
0
  6
Continuous
 62
     0
370
     0
100
AcDbPolyline
 90
       24
 70
     0
 43
0.0
 10
-32.130894
 20
312.984741
 10
-32.131168
 20
312.197021
 10
-32.131115
 20
311.481262
 10
-32.130836
 20
310.837982
 10
-32.130783
 20
310.273224
 10
-32.130985
 20
309.786438
 10
-32.131153
 20
309.371094
 10
-32.131107
 20
309.020203
 10
-32.131016
 20
308.729889
 10
-32.130989
 20
308.494568
 10
-32.13097
 20
308.303619
 10
-32.130966
 20
308.148041
 10
-32.130966
 20
308.020996
 10
-32.130886
 20
307.917419
 10
-32.130718
 20
307.833282
 10
-32.130539
 20
307.765411
 10
-32.130428
 20
307.711334
 10
-32.130424
 20
307.668945
 10
-32.130516
 20
307.636536
 10
-32.130657
 20
307.61261
 10
-32.130791
 20
307.595825
 10
-32.130878
 20
307.585052
 10
-32.130913
 20
307.579163
 10
-32.130917
 20
307.577179
  0
LINE
  5
330
330
310
100
AcDbEntity
  8
0
  6
Continuous
 62
     0
370
     0
100
AcDbLine
 10
-43.930896
 20
312.994999
 30
0.0
 11
-32.130896
 21
312.984753
 31
0.0
  0
ARC
  5
331
330
310
100
AcDbEntity
  8
0
  6
Continuous
 62
     0
370
     0
100
AcDbCircle
 10
-19.709517
 20
-10767.733327
 30
0.0
 40
11085.27642982357
100
AcDbArc
 50
90.064202
 51
90.125192
  0
LWPOLYLINE
  5
332
330
310
100
AcDbEntity
  8
0
  6
Continuous
 62
     0
370
     0
100
AcDbPolyline
 90
        6
 70
     0
 43
0.0
 10
-32.130894
 20
317.536133
 10
-32.130955
 20
316.609558
 10
-32.131149
 20
315.68512
 10
-32.131271
 20
314.773346
 10
-32.131142
 20
313.889435
 10
-32.130882
 20
312.984741
  0
LINE
  5
333
330
310
100
AcDbEntity
  8
0
  6
Continuous
 62
     0
370
     0
100
AcDbLine
 10
-32.130896
 20
317.536143
 30
0.0
 11
-32.130886
 21
324.531383
 31
0.0
  0
LINE
  5
334
330
310
100
AcDbEntity
  8
0
  6
Continuous
 62
     0
370
     0
100
AcDbLine
 10
-32.130896
 20
324.531383
 30
0.0
 11
-43.930898
 21
324.531306
 31
0.0
  0
LINE
  5
335
330
310
100
AcDbEntity
  8
0
  6
Continuous
 62
     0
370
     0
100
AcDbLine
 10
-32.130896
 20
325.73788
 30
0.0
 11
-43.930896
 21
325.73268
 31
0.0
  0
LINE
  5
336
330
310
100
AcDbEntity
  8
0
  6
Continuous
 62
     0
370
     0
100
AcDbLine
 10
-32.130895
 20
326.696443
 30
0.0
 11
-32.130896
 21
325.73788
 31
0.0
  0
LINE
  5
337
330
310
100
AcDbEntity
  8
0
  6
Continuous
 62
     0
370
     0
100
AcDbLine
 10
-32.130896
 20
324.531383
 30
0.0
 11
-32.130898
 21
325.73788
 31
0.0
  0
LINE
  5
338
330
310
100
AcDbEntity
  8
0
  6
Continuous
 62
     0
370
     0
100
AcDbLine
 10
79.969104
 20
312.949626
 30
0.0
 11
79.969106
 21
307.430382
 31
0.0
  0
LWPOLYLINE
  5
339
330
310
100
AcDbEntity
  8
0
  6
Continuous
 62
     0
370
     0
100
AcDbPolyline
 90
        4
 70
     0
 43
0.0
 10
-32.130894
 20
312.984741
 10
4.864609
 20
312.977722
 10
41.860115
 20
312.981476
 10
79.969101
 20
312.949615
  0
LINE
  5
33A
330
310
100
AcDbEntity
  8
0
  6
Continuous
 62
     0
370
     0
100
AcDbLine
 10
79.969104
 20
312.949626
 30
0.0
 11
79.969104
 21
317.54294
 31
0.0
  0
LWPOLYLINE
  5
33B
330
310
100
AcDbEntity
  8
0
  6
Continuous
 62
     0
370
     0
100
AcDbPolyline
 90
        4
 70
     0
 43
0.0
 10
79.969101
 20
317.542938
 10
49.514336
 20
317.553955
 10
19.059566
 20
317.560608
 10
-32.130894
 20
317.536133
  0
LINE
  5
33C
330
310
100
AcDbEntity
  8
0
  6
Continuous
 62
     0
370
     0
100
AcDbLine
 10
79.969104
 20
317.54294
 30
0.0
 11
79.969104
 21
324.531578
 31
0.0
  0
LINE
  5
33D
330
310
100
AcDbEntity
  8
0
  6
Continuous
 62
     0
370
     0
100
AcDbLine
 10
79.969104
 20
324.531578
 30
0.0
 11
-32.130896
 21
324.531383
 31
0.0
  0
LINE
  5
33E
330
310
100
AcDbEntity
  8
0
  6
Continuous
 62
     0
370
     0
100
AcDbLine
 10
79.969104
 20
325.749779
 30
0.0
 11
79.969144
 21
326.702988
 31
0.0
  0
LWPOLYLINE
  5
33F
330
310
100
AcDbEntity
  8
0
  6
Continuous
 62
     0
370
     0
100
AcDbPolyline
 90
        3
 70
     0
 43
0.0
 10
-32.130894
 20
325.737885
 10
3.392285
 20
325.744507
 10
79.969101
 20
325.749786
  0
LINE
  5
340
330
310
100
AcDbEntity
  8
0
  6
Continuous
 62
     0
370
     0
100
AcDbLine
 10
79.969104
 20
324.531578
 30
0.0
 11
79.969104
 21
325.749779
 31
0.0
  0
LWPOLYLINE
  5
341
330
310
100
AcDbEntity
  8
0
  6
Continuous
 62
     0
370
     0
100
AcDbPolyline
 90
        3
 70
     0
 43
0.0
 10
116.299606
 20
312.945129
 10
104.333237
 20
312.93869
 10
79.969101
 20
312.949615
  0
ARC
  5
342
330
310
100
AcDbEntity
  8
0
  6
Continuous
 62
     0
370
     0
100
AcDbCircle
 10
100.108017
 20
83480.02876
 30
0.0
 40
83162.48825822731
100
AcDbArc
 50
269.986125
 51
270.011155
  0
LINE
  5
343
330
310
100
AcDbEntity
  8
0
  6
Continuous
 62
     0
370
     0
100
AcDbLine
 10
79.969104
 20
324.531578
 30
0.0
 11
116.299604
 21
324.531597
 31
0.0
  0
ARC
  5
344
330
310
100
AcDbEntity
  8
0
  6
Continuous
 62
     0
370
     0
100
AcDbCircle
 10
100.108017
 20
-78144.318467
 30
0.0
 40
78470.0708307173
100
AcDbArc
 50
89.988178
 51
90.014705
  0
LWPOLYLINE
  5
345
330
310
100
AcDbEntity
  8
0
  6
Continuous
 62
     0
370
     0
100
AcDbPolyline
 90
       18
 70
     0
 43
0.0
 10
101.299591
 20
307.443848
 10
101.712242
 20
307.443176
 10
102.112198
 20
307.440338
 10
102.483818
 20
307.435638
 10
102.813477
 20
307.429535
 10
103.092186
 20
307.422607
 10
103.311501
 20
307.415527
 10
103.46212
 20
307.408661
 10
103.539108
 20
307.402466
 10
103.53994
 20
307.397186
 10
103.464851
 20
307.392822
 10
103.31617
 20
307.389435
 10
103.098244
 20
307.386841
 10
102.820724
 20
307.384888
 10
102.492256
 20
307.383453
 10
102.121407
 20
307.382355
 10
101.721924
 20
307.381531
 10
101.299599
 20
307.38092
  0
LWPOLYLINE
  5
346
330
310
100
AcDbEntity
  8
0
  6
Continuous
 62
     0
370
     0
100
AcDbPolyline
 90
       18
 70
     0
 43
0.0
 10
101.299599
 20
307.38092
 10
100.886978
 20
307.380524
 10
100.487022
 20
307.380371
 10
100.115341
 20
307.380585
 10
99.785698
 20
307.381226
 10
99.506912
 20
307.382477
 10
99.287476
 20
307.384552
 10
99.137016
 20
307.387573
 10
99.06012
 20
307.391663
 10
99.059181
 20
307.396912
 10
99.134247
 20
307.403259
 10
99.282959
 20
307.410431
 10
99.500702
 20
307.41803
 10
99.778122
 20
307.425598
 10
100.10659
 20
307.432556
 10
100.477325
 20
307.438202
 10
100.876755
 20
307.442078
 10
101.299591
 20
307.443848
  0
LWPOLYLINE
  5
347
330
310
100
AcDbEntity
  8
0
  6
Continuous
 62
     0
370
    30
100
AcDbPolyline
 90
       69
 70
     0
 43
0.0
 10
-72.629707
 20
326.66037
 10
-72.525772
 20
326.662903
 10
-72.423378
 20
326.665375
 10
-72.288139
 20
326.668518
 10
-72.130806
 20
326.672058
 10
-71.952728
 20
326.675903
 10
-71.756691
 20
326.679962
 10
-71.540718
 20
326.684265
 10
-71.302711
 20
326.688751
 10
-71.051323
 20
326.693237
 10
-70.787781
 20
326.697693
 10
-70.516075
 20
326.701996
 10
-70.233765
 20
326.706238
 10
-69.947083
 20
326.710236
 10
-69.65583
 20
326.714081
 10
-69.361626
 20
326.717682
 10
-69.064423
 20
326.721069
 10
-68.764755
 20
326.724274
 10
-68.464714
 20
326.727264
 10
-68.162598
 20
326.730042
 10
-67.860138
 20
326.732635
 10
-67.556923
 20
326.735016
 10
-67.253166
 20
326.737244
 10
-66.949219
 20
326.739288
 10
-66.64489
 20
326.74118
 10
-66.340538
 20
326.742889
 10
-66.035995
 20
326.744476
 10
-65.73143
 20
326.745911
 10
-65.42691
 20
326.747223
 10
-65.122459
 20
326.748383
 10
-64.818069
 20
326.749451
 10
-64.513779
 20
326.750366
 10
-64.209641
 20
326.75119
 10
-63.905636
 20
326.751923
 10
-63.601814
 20
326.752533
 10
-63.298267
 20
326.753082
 10
-62.994919
 20
326.75351
 10
-62.691792
 20
326.753876
 10
-62.389206
 20
326.75412
 10
-62.086864
 20
326.754333
 10
-61.784317
 20
326.754456
 10
-61.482506
 20
326.754517
 10
-61.181641
 20
326.754486
 10
-60.880642
 20
326.754425
 10
-60.579838
 20
326.754303
 10
-60.279953
 20
326.75412
 10
-59.980698
 20
326.753876
 10
-59.682014
 20
326.753571
 10
-59.384163
 20
326.753235
 10
-59.086979
 20
326.752869
 10
-58.790684
 20
326.752441
 10
-58.49593
 20
326.752014
 10
-58.20158
 20
326.751526
 10
-57.908894
 20
326.751007
 10
-57.617676
 20
326.750458
 10
-57.327423
 20
326.749878
 10
-57.039833
 20
326.749268
 10
-56.753693
 20
326.748657
 10
-56.472782
 20
326.748016
 10
-56.189747
 20
326.747375
 10
-55.909718
 20
326.746704
 10
-55.639893
 20
326.746033
 10
-55.368549
 20
326.745361
 10
-55.10656
 20
326.74469
 10
-54.847652
 20
326.744019
 10
-54.599674
 20
326.743347
 10
-54.373531
 20
326.742737
 10
-54.141407
 20
326.742126
 10
-53.911324
 20
326.741486
  0
LWPOLYLINE
  5
348
330
310
100
AcDbEntity
  8
0
  6
Continuous
 62
     0
370
    30
100
AcDbPolyline
 90
       62
 70
     0
 43
0.0
 10
121.299606
 20
287.616302
 10
121.299606
 20
287.612335
 10
121.299606
 20
287.681885
 10
121.299606
 20
287.827209
 10
121.299606
 20
288.050079
 10
121.299606
 20
288.351715
 10
121.299606
 20
288.732697
 10
121.299606
 20
289.192963
 10
121.299606
 20
289.731842
 10
121.299606
 20
290.347961
 10
121.299606
 20
291.039307
 10
121.299606
 20
291.803162
 10
121.299606
 20
292.636261
 10
121.299606
 20
293.53479
 10
121.299606
 20
294.494415
 10
121.299606
 20
295.510315
 10
121.299606
 20
296.577423
 10
121.299606
 20
297.690338
 10
121.299606
 20
298.843384
 10
121.299606
 20
300.030884
 10
121.299606
 20
301.24707
 10
121.299606
 20
302.493591
 10
121.299606
 20
303.789978
 10
121.299606
 20
305.134735
 10
121.299606
 20
306.523926
 10
121.299606
 20
307.953217
 10
121.299606
 20
309.417725
 10
121.299606
 20
310.912048
 10
121.299606
 20
312.430573
 10
121.299606
 20
313.967224
 10
121.299606
 20
315.515747
 10
121.299606
 20
317.069794
 10
121.299606
 20
318.622864
 10
121.299606
 20
320.168488
 10
121.299606
 20
321.700409
 10
121.299606
 20
323.212433
 10
121.299606
 20
324.698761
 10
121.299606
 20
326.15387
 10
121.299606
 20
327.572693
 10
121.299606
 20
328.950562
 10
121.299606
 20
330.283447
 10
121.299606
 20
331.569489
 10
121.299606
 20
332.828857
 10
121.299606
 20
334.063446
 10
121.299606
 20
335.267426
 10
121.299606
 20
336.434998
 10
121.299606
 20
337.560425
 10
121.299606
 20
338.638123
 10
121.299606
 20
339.662781
 10
121.299606
 20
340.629425
 10
121.299606
 20
341.533417
 10
121.299606
 20
342.370697
 10
121.299606
 20
343.137634
 10
121.299606
 20
343.831238
 10
121.299606
 20
344.449188
 10
121.299606
 20
344.989746
 10
121.299606
 20
345.451843
 10
121.299606
 20
345.835114
 10
121.299606
 20
346.139801
 10
121.299606
 20
346.36676
 10
121.299606
 20
346.517487
 10
121.299606
 20
346.594055
  0
LINE
  5
349
330
310
100
AcDbEntity
  8
0
  6
Continuous
 62
     0
370
     0
100
AcDbLine
 10
120.799606
 20
347.093873
 30
0.0
 11
120.799606
 21
347.105183
 31
0.0
  0
LINE
  5
34A
330
310
100
AcDbEntity
  8
0
  6
Continuous
 62
     0
370
     0
100
AcDbLine
 10
120.799606
 20
287.105183
 30
0.0
 11
120.799606
 21
347.093873
 31
0.0
  0
LINE
  5
34B
330
310
100
AcDbEntity
  8
0
  6
Continuous
 62
     0
370
     0
100
AcDbLine
 10
116.799606
 20
347.093873
 30
0.0
 11
116.799606
 21
287.105183
 31
0.0
  0
LINE
  5
34C
330
310
100
AcDbEntity
  8
0
  6
Continuous
 62
     0
370
     0
100
AcDbLine
 10
116.799606
 20
347.105183
 30
0.0
 11
116.799606
 21
347.093873
 31
0.0
  0
LWPOLYLINE
  5
34D
330
310
100
AcDbEntity
  8
0
  6
Continuous
 62
     0
370
    30
100
AcDbPolyline
 90
       62
 70
     0
 43
0.0
 10
116.299606
 20
287.616302
 10
116.299606
 20
287.612335
 10
116.299606
 20
287.681885
 10
116.299606
 20
287.827209
 10
116.299606
 20
288.050079
 10
116.299606
 20
288.351715
 10
116.299606
 20
288.732697
 10
116.299606
 20
289.192963
 10
116.299606
 20
289.731842
 10
116.299606
 20
290.347961
 10
116.299606
 20
291.039307
 10
116.299606
 20
291.803162
 10
116.299606
 20
292.636261
 10
116.299606
 20
293.53479
 10
116.299606
 20
294.494415
 10
116.299606
 20
295.510315
 10
116.299606
 20
296.577423
 10
116.299606
 20
297.690338
 10
116.299606
 20
298.843384
 10
116.299606
 20
300.030884
 10
116.299606
 20
301.24707
 10
116.299606
 20
302.493591
 10
116.299606
 20
303.789978
 10
116.299606
 20
305.134735
 10
116.299606
 20
306.523926
 10
116.299606
 20
307.953217
 10
116.299606
 20
309.417725
 10
116.299606
 20
310.912048
 10
116.299606
 20
312.430573
 10
116.299606
 20
313.967224
 10
116.299606
 20
315.515747
 10
116.299606
 20
317.069794
 10
116.299606
 20
318.622864
 10
116.299606
 20
320.168488
 10
116.299606
 20
321.700409
 10
116.299606
 20
323.212433
 10
116.299606
 20
324.698761
 10
116.299606
 20
326.15387
 10
116.299606
 20
327.572693
 10
116.299606
 20
328.950562
 10
116.299606
 20
330.283447
 10
116.299606
 20
331.569489
 10
116.299606
 20
332.828857
 10
116.299606
 20
334.063446
 10
116.299606
 20
335.267426
 10
116.299606
 20
336.434998
 10
116.299606
 20
337.560425
 10
116.299606
 20
338.638123
 10
116.299606
 20
339.662781
 10
116.299606
 20
340.629425
 10
116.299606
 20
341.533417
 10
116.299606
 20
342.370697
 10
116.299606
 20
343.137634
 10
116.299606
 20
343.831238
 10
116.299606
 20
344.449188
 10
116.299606
 20
344.989746
 10
116.299606
 20
345.451843
 10
116.299606
 20
345.835114
 10
116.299606
 20
346.139801
 10
116.299606
 20
346.36676
 10
116.299606
 20
346.517487
 10
116.299606
 20
346.594055
  0
ARC
  5
34E
330
310
100
AcDbEntity
  8
0
  6
Continuous
 62
     0
370
    30
100
AcDbCircle
 10
120.799604
 20
346.605125
 30
0.0
 40
0.5000020944104788
100
AcDbArc
 50
0.007343
 51
89.99976
  0
ARC
  5
34F
330
310
100
AcDbEntity
  8
0
  6
Continuous
 62
     0
370
    30
100
AcDbCircle
 10
120.799604
 20
287.605212
 30
0.0
 40
0.500002408951937
100
AcDbArc
 50
270.000276
 51
359.9965
  0
ARC
  5
350
330
310
100
AcDbEntity
  8
0
  6
Continuous
 62
     0
370
    30
100
AcDbCircle
 10
116.799609
 20
287.605212
 30
0.0
 40
0.5000024089796806
100
AcDbArc
 50
180.0035
 51
269.999724
  0
ARC
  5
351
330
310
100
AcDbEntity
  8
0
  6
Continuous
 62
     0
370
    30
100
AcDbCircle
 10
116.799608
 20
346.605125
 30
0.0
 40
0.5000020944071608
100
AcDbArc
 50
90.00024
 51
179.992657
  0
LINE
  5
352
330
310
100
AcDbEntity
  8
0
  6
Continuous
 62
     0
370
    30
100
AcDbLine
 10
120.799606
 20
347.105183
 30
0.0
 11
116.799606
 21
347.105183
 31
0.0
  0
LINE
  5
353
330
310
100
AcDbEntity
  8
0
  6
Continuous
 62
     0
370
    30
100
AcDbLine
 10
120.799606
 20
287.105183
 30
0.0
 11
116.799606
 21
287.105183
 31
0.0
  0
ENDBLK
  5
355
330
310
100
AcDbEntity
  8
0
100
AcDbBlockEnd
  0
ENDSEC
  0
SECTION
  2
ENTITIES
  0
INSERT
  5
27D
330
1F
100
AcDbEntity
  8
0
  6
Continuous
 62
     7
420
 16250871
370
     0
100
AcDbBlockReference
  2
a
 10
196.863464
 20
285.464508
 30
0.0
  0
INSERT
  5
2C8
330
1F
100
AcDbEntity
  8
0
  6
Continuous
 62
     7
420
 16250871
370
     0
100
AcDbBlockReference
  2
b
 10
0.0
 20
210.020721
 30
0.0
  0
INSERT
  5
30F
330
1F
100
AcDbEntity
  8
0
  6
Continuous
 62
     7
420
 16250871
370
     0
100
AcDbBlockReference
  2
c
 10
72.899017
 20
0.0
 30
0.0
  0
INSERT
  5
356
330
1F
100
AcDbEntity
  8
0
  6
Continuous
 62
     7
420
 16250871
370
     0
100
AcDbBlockReference
  2
d
 10
147.847031
 20
0.0
 30
0.0
  0
ENDSEC
  0
SECTION
  2
OBJECTS
  0
DICTIONARY
  5
C
330
0
100
AcDbDictionary
281
     1
  3
ACAD_DETAILVIEWSTYLE
350
38E
  3
ACAD_GROUP
350
D
  3
ACAD_LAYOUT
350
1A
  3
ACAD_MATERIAL
350
43
  3
ACAD_MLEADERSTYLE
350
6B
  3
ACAD_MLINESTYLE
350
17
  3
ACAD_PLOTSETTINGS
350
19
  3
ACAD_PLOTSTYLENAME
350
E
  3
ACAD_SCALELIST
350
47
  3
ACAD_SECTIONVIEWSTYLE
350
38F
  3
ACAD_TABLESTYLE
350
69
  3
ACAD_VISUALSTYLE
350
2A
  3
ACDB_RECOMPOSE_DATA
350
38B
  3
AcDbVariableDictionary
350
357
  0
SUN
  5
6D
330
29
100
AcDbSun
 90
        1
290
     0
 63
     7
421
 16777215
 40
1.0
291
     1
 91
  2455826
 92
 54000000
292
     0
 70
     2
 71
   256
280
     1
  0
DICTIONARY
  5
38E
102
{ACAD_REACTORS
330
C
102
}
330
C
100
AcDbDictionary
281
     1
  0
DICTIONARY
  5
D
102
{ACAD_REACTORS
330
C
102
}
330
C
100
AcDbDictionary
281
     1
  0
DICTIONARY
  5
1A
102
{ACAD_REACTORS
330
C
102
}
330
C
100
AcDbDictionary
281
     1
  3
Layout1
350
1E
  3
Layout2
350
26
  3
Model
350
22
  0
DICTIONARY
  5
43
102
{ACAD_REACTORS
330
C
102
}
330
C
100
AcDbDictionary
281
     1
  3
ByBlock
350
45
  3
ByLayer
350
44
  3
Global
350
46
  0
DICTIONARY
  5
6B
102
{ACAD_REACTORS
330
C
102
}
330
C
100
AcDbDictionary
281
     1
  3
Standard
350
6C
  0
DICTIONARY
  5
17
102
{ACAD_REACTORS
330
C
102
}
330
C
100
AcDbDictionary
281
     1
  3
Standard
350
18
  0
DICTIONARY
  5
19
102
{ACAD_REACTORS
330
C
102
}
330
C
100
AcDbDictionary
281
     1
  0
ACDBDICTIONARYWDFLT
  5
E
102
{ACAD_REACTORS
330
C
102
}
330
C
100
AcDbDictionary
281
     1
  3
Normal
350
F
100
AcDbDictionaryWithDefault
340
F
  0
DICTIONARY
  5
47
102
{ACAD_REACTORS
330
C
102
}
330
C
100
AcDbDictionary
281
     1
  3
A0
350
48
  3
A1
350
49
  3
A2
350
4A
  3
A3
350
4B
  3
A4
350
4C
  3
A5
350
4D
  3
A6
350
4E
  3
A7
350
4F
  3
A8
350
50
  3
A9
350
51
  3
B0
350
52
  3
B1
350
53
  3
B2
350
54
  3
B3
350
55
  3
B4
350
56
  3
B5
350
57
  3
B6
350
58
  3
B7
350
59
  3
B8
350
5A
  3
B9
350
5B
  3
C0
350
5C
  3
C1
350
5D
  3
C2
350
5E
  3
C3
350
5F
  3
C4
350
60
  3
C5
350
61
  3
C6
350
62
  3
C7
350
63
  3
C8
350
64
  3
C9
350
65
  3
D0
350
66
  3
D1
350
67
  3
D2
350
68
  0
DICTIONARY
  5
38F
102
{ACAD_REACTORS
330
C
102
}
330
C
100
AcDbDictionary
281
     1
  0
DICTIONARY
  5
69
102
{ACAD_REACTORS
330
C
102
}
330
C
100
AcDbDictionary
281
     1
  3
Standard
350
6A
  0
DICTIONARY
  5
2A
102
{ACAD_REACTORS
330
C
102
}
330
C
100
AcDbDictionary
281
     1
  3
2dWireframe
350
2F
  3
Basic
350
32
  3
Brighten
350
36
  3
ColorChange
350
3A
  3
Conceptual
350
34
  3
Dim
350
35
  3
EdgeColorOff
350
3D
  3
Facepattern
350
39
  3
Flat
350
2B
  3
FlatWithEdges
350
2C
  3
Gouraud
350
2D
  3
GouraudWithEdges
350
2E
  3
Hidden
350
31
  3
JitterOff
350
3B
  3
Linepattern
350
38
  3
OverhangOff
350
3C
  3
Realistic
350
33
  3
Shaded
350
42
  3
Shaded with edges
350
41
  3
Shades of Gray
350
3E
  3
Sketchy
350
3F
  3
Thicken
350
37
  3
Wireframe
350
30
  3
X-Ray
350
40
  0
XRECORD
  5
38B
102
{ACAD_REACTORS
330
C
102
}
330
C
100
AcDbXrecord
280
     1
 90
        1
330
6A
  0
DICTIONARY
  5
357
102
{ACAD_REACTORS
330
C
102
}
330
C
100
AcDbDictionary
281
     1
  3
CANNOSCALE
350
358
  3
CMLEADERSTYLE
350
38D
  3
CTABLESTYLE
350
38C
  0
LAYOUT
  5
1E
102
{ACAD_REACTORS
330
1A
102
}
330
1A
100
AcDbPlotSettings
  1

  2
none_device
  4

  6

 40
0.0
 41
0.0
 42
0.0
 43
0.0
 44
0.0
 45
0.0
 46
0.0
 47
0.0
 48
0.0
 49
0.0
140
0.0
141
0.0
142
1.0
143
1.0
 70
   688
 72
     1
 73
     0
 74
     5
  7

 75
    16
 76
     0
 77
     2
 78
   300
147
1.0
148
0.0
149
0.0
100
AcDbLayout
  1
Layout1
 70
     1
 71
     1
 10
0.0
 20
0.0
 11
420.0
 21
297.0
 12
0.0
 22
0.0
 32
0.0
 14
1.000000E+20
 24
1.000000E+20
 34
1.000000E+20
 15
-1.000000E+20
 25
-1.000000E+20
 35
-1.000000E+20
146
0.0
 13
0.0
 23
0.0
 33
0.0
 16
1.0
 26
0.0
 36
0.0
 17
0.0
 27
1.0
 37
0.0
 76
     0
330
1B
  0
LAYOUT
  5
26
102
{ACAD_REACTORS
330
1A
102
}
330
1A
100
AcDbPlotSettings
  1

  2
none_device
  4

  6

 40
0.0
 41
0.0
 42
0.0
 43
0.0
 44
0.0
 45
0.0
 46
0.0
 47
0.0
 48
0.0
 49
0.0
140
0.0
141
0.0
142
1.0
143
1.0
 70
   688
 72
     1
 73
     0
 74
     5
  7

 75
    16
 76
     0
 77
     2
 78
   300
147
1.0
148
0.0
149
0.0
100
AcDbLayout
  1
Layout2
 70
     1
 71
     2
 10
0.0
 20
0.0
 11
0.0
 21
0.0
 12
0.0
 22
0.0
 32
0.0
 14
0.0
 24
0.0
 34
0.0
 15
0.0
 25
0.0
 35
0.0
146
0.0
 13
0.0
 23
0.0
 33
0.0
 16
1.0
 26
0.0
 36
0.0
 17
0.0
 27
1.0
 37
0.0
 76
     0
330
23
  0
LAYOUT
  5
22
102
{ACAD_REACTORS
330
1A
102
}
330
1A
100
AcDbPlotSettings
  1

  2
none_device
  4
Letter_(8.50_x_11.00_Inches)
  6

 40
6.35
 41
6.35
 42
6.350005
 43
6.350005
 44
215.9
 45
279.4
 46
0.0
 47
0.0
 48
0.0
 49
0.0
140
0.0
141
0.0
142
1.0
143
1.0
 70
  1712
 72
     1
 73
     0
 74
     0
  7

 75
     0
 76
     0
 77
     2
 78
   300
147
1.0
148
0.0
149
0.0
100
AcDbLayout
  1
Model
 70
     1
 71
     0
 10
0.0
 20
0.0
 11
420.0
 21
297.0
 12
0.0
 22
0.0
 32
0.0
 14
1.000000E+20
 24
1.000000E+20
 34
1.000000E+20
 15
-1.000000E+20
 25
-1.000000E+20
 35
-1.000000E+20
146
0.0
 13
0.0
 23
0.0
 33
0.0
 16
1.0
 26
0.0
 36
0.0
 17
0.0
 27
1.0
 37
0.0
 76
     0
330
1F
331
29
  0
MATERIAL
  5
45
102
{ACAD_REACTORS
330
43
102
}
330
43
100
AcDbMaterial
  1
ByBlock
 72
     1
 94
      127
  0
MATERIAL
  5
44
102
{ACAD_REACTORS
330
43
102
}
330
43
100
AcDbMaterial
  1
ByLayer
 72
     1
 94
      127
  0
MATERIAL
  5
46
102
{ACAD_REACTORS
330
43
102
}
330
43
100
AcDbMaterial
  1
Global
 72
     1
 94
      127
  0
MLEADERSTYLE
  5
6C
102
{ACAD_REACTORS
330
6B
102
}
330
6B
100
AcDbMLeaderStyle
179
     2
170
     2
171
     1
172
     0
 90
        2
 40
0.0
 41
0.0
173
     1
 91
-1056964608
340
14
 92
       -2
290
     1
 42
2.0
291
     1
 43
8.0
  3
Standard
341
0
 44
4.0
300

342
11
174
     1
178
     6
175
     1
176
     0
 93
-1056964608
 45
4.0
292
     0
297
     0
 46
4.0
343
0
 94
-1056964608
 47
1.0
 49
1.0
140
1.0
293
     1
141
0.0
294
     1
177
     0
142
1.0
295
     0
296
     0
143
3.75
271
     0
272
     9
273
     9
  0
MLINESTYLE
  5
18
102
{ACAD_REACTORS
330
17
102
}
330
17
100
AcDbMlineStyle
  2
Standard
 70
     0
  3

 62
   256
 51
90.0
 52
90.0
 71
     2
 49
0.5
 62
   256
  6
BYLAYER
 49
-0.5
 62
   256
  6
BYLAYER
  0
ACDBPLACEHOLDER
  5
F
102
{ACAD_REACTORS
330
E
102
}
330
E
  0
SCALE
  5
48
102
{ACAD_REACTORS
330
47
102
}
330
47
100
AcDbScale
 70
     0
300
1:1
140
1.0
141
1.0
290
     1
  0
SCALE
  5
49
102
{ACAD_REACTORS
330
47
102
}
330
47
100
AcDbScale
 70
     0
300
1:2
140
1.0
141
2.0
290
     0
  0
SCALE
  5
4A
102
{ACAD_REACTORS
330
47
102
}
330
47
100
AcDbScale
 70
     0
300
1:4
140
1.0
141
4.0
290
     0
  0
SCALE
  5
4B
102
{ACAD_REACTORS
330
47
102
}
330
47
100
AcDbScale
 70
     0
300
1:5
140
1.0
141
5.0
290
     0
  0
SCALE
  5
4C
102
{ACAD_REACTORS
330
47
102
}
330
47
100
AcDbScale
 70
     0
300
1:8
140
1.0
141
8.0
290
     0
  0
SCALE
  5
4D
102
{ACAD_REACTORS
330
47
102
}
330
47
100
AcDbScale
 70
     0
300
1:10
140
1.0
141
10.0
290
     0
  0
SCALE
  5
4E
102
{ACAD_REACTORS
330
47
102
}
330
47
100
AcDbScale
 70
     0
300
1:16
140
1.0
141
16.0
290
     0
  0
SCALE
  5
4F
102
{ACAD_REACTORS
330
47
102
}
330
47
100
AcDbScale
 70
     0
300
1:20
140
1.0
141
20.0
290
     0
  0
SCALE
  5
50
102
{ACAD_REACTORS
330
47
102
}
330
47
100
AcDbScale
 70
     0
300
1:30
140
1.0
141
30.0
290
     0
  0
SCALE
  5
51
102
{ACAD_REACTORS
330
47
102
}
330
47
100
AcDbScale
 70
     0
300
1:40
140
1.0
141
40.0
290
     0
  0
SCALE
  5
52
102
{ACAD_REACTORS
330
47
102
}
330
47
100
AcDbScale
 70
     0
300
1:50
140
1.0
141
50.0
290
     0
  0
SCALE
  5
53
102
{ACAD_REACTORS
330
47
102
}
330
47
100
AcDbScale
 70
     0
300
1:100
140
1.0
141
100.0
290
     0
  0
SCALE
  5
54
102
{ACAD_REACTORS
330
47
102
}
330
47
100
AcDbScale
 70
     0
300
2:1
140
2.0
141
1.0
290
     0
  0
SCALE
  5
55
102
{ACAD_REACTORS
330
47
102
}
330
47
100
AcDbScale
 70
     0
300
4:1
140
4.0
141
1.0
290
     0
  0
SCALE
  5
56
102
{ACAD_REACTORS
330
47
102
}
330
47
100
AcDbScale
 70
     0
300
8:1
140
8.0
141
1.0
290
     0
  0
SCALE
  5
57
102
{ACAD_REACTORS
330
47
102
}
330
47
100
AcDbScale
 70
     0
300
10:1
140
10.0
141
1.0
290
     0
  0
SCALE
  5
58
102
{ACAD_REACTORS
330
47
102
}
330
47
100
AcDbScale
 70
     0
300
100:1
140
100.0
141
1.0
290
     0
  0
SCALE
  5
59
102
{ACAD_REACTORS
330
47
102
}
330
47
100
AcDbScale
 70
     0
300
1/128" = 1'-0"
140
0.007812
141
12.0
290
     0
  0
SCALE
  5
5A
102
{ACAD_REACTORS
330
47
102
}
330
47
100
AcDbScale
 70
     0
300
1/64" = 1'-0"
140
0.015625
141
12.0
290
     0
  0
SCALE
  5
5B
102
{ACAD_REACTORS
330
47
102
}
330
47
100
AcDbScale
 70
     0
300
1/32" = 1'-0"
140
0.03125
141
12.0
290
     0
  0
SCALE
  5
5C
102
{ACAD_REACTORS
330
47
102
}
330
47
100
AcDbScale
 70
     0
300
1/16" = 1'-0"
140
0.0625
141
12.0
290
     0
  0
SCALE
  5
5D
102
{ACAD_REACTORS
330
47
102
}
330
47
100
AcDbScale
 70
     0
300
3/32" = 1'-0"
140
0.09375
141
12.0
290
     0
  0
SCALE
  5
5E
102
{ACAD_REACTORS
330
47
102
}
330
47
100
AcDbScale
 70
     0
300
1/8" = 1'-0"
140
0.125
141
12.0
290
     0
  0
SCALE
  5
5F
102
{ACAD_REACTORS
330
47
102
}
330
47
100
AcDbScale
 70
     0
300
3/16" = 1'-0"
140
0.1875
141
12.0
290
     0
  0
SCALE
  5
60
102
{ACAD_REACTORS
330
47
102
}
330
47
100
AcDbScale
 70
     0
300
1/4" = 1'-0"
140
0.25
141
12.0
290
     0
  0
SCALE
  5
61
102
{ACAD_REACTORS
330
47
102
}
330
47
100
AcDbScale
 70
     0
300
3/8" = 1'-0"
140
0.375
141
12.0
290
     0
  0
SCALE
  5
62
102
{ACAD_REACTORS
330
47
102
}
330
47
100
AcDbScale
 70
     0
300
1/2" = 1'-0"
140
0.5
141
12.0
290
     0
  0
SCALE
  5
63
102
{ACAD_REACTORS
330
47
102
}
330
47
100
AcDbScale
 70
     0
300
3/4" = 1'-0"
140
0.75
141
12.0
290
     0
  0
SCALE
  5
64
102
{ACAD_REACTORS
330
47
102
}
330
47
100
AcDbScale
 70
     0
300
1" = 1'-0"
140
1.0
141
12.0
290
     0
  0
SCALE
  5
65
102
{ACAD_REACTORS
330
47
102
}
330
47
100
AcDbScale
 70
     0
300
1-1/2" = 1'-0"
140
1.5
141
12.0
290
     0
  0
SCALE
  5
66
102
{ACAD_REACTORS
330
47
102
}
330
47
100
AcDbScale
 70
     0
300
3" = 1'-0"
140
3.0
141
12.0
290
     0
  0
SCALE
  5
67
102
{ACAD_REACTORS
330
47
102
}
330
47
100
AcDbScale
 70
     0
300
6" = 1'-0"
140
6.0
141
12.0
290
     0
  0
SCALE
  5
68
102
{ACAD_REACTORS
330
47
102
}
330
47
100
AcDbScale
 70
     0
300
1'-0" = 1'-0"
140
12.0
141
12.0
290
     0
  0
TABLESTYLE
  5
6A
102
{ACAD_REACTORS
330
69
102
}
102
{ACAD_XDICTIONARY
360
389
102
}
330
69
100
AcDbTableStyle
  3
Standard
 70
     0
 71
     0
 40
0.06
 41
0.06
280
     0
281
     0
  7
Standard
140
4.5
170
     2
 62
     0
 63
   257
283
     0
 90
        4
 91
        0
  1

274
    -2
284
     1
 64
     0
275
    -2
285
     1
 65
     0
276
    -2
286
     1
 66
     0
277
    -2
287
     1
 67
     0
278
    -2
288
     1
 68
     0
279
    -2
289
     1
 69
     0
  7
Standard
140
6.0
170
     5
 62
     0
 63
   257
283
     0
 90
        4
 91
        0
  1

274
    -2
284
     1
 64
     0
275
    -2
285
     1
 65
     0
276
    -2
286
     1
 66
     0
277
    -2
287
     1
 67
     0
278
    -2
288
     1
 68
     0
279
    -2
289
     1
 69
     0
  7
Standard
140
4.5
170
     5
 62
     0
 63
   257
283
     0
 90
        4
 91
        0
  1

274
    -2
284
     1
 64
     0
275
    -2
285
     1
 65
     0
276
    -2
286
     1
 66
     0
277
    -2
287
     1
 67
     0
278
    -2
288
     1
 68
     0
279
    -2
289
     1
 69
     0
  0
VISUALSTYLE
  5
2F
102
{ACAD_REACTORS
330
2A
102
}
102
{ACAD_XDICTIONARY
360
361
102
}
330
2A
100
AcDbVisualStyle
  2
2dWireframe
 70
     4
177
     2
291
     0
 71
     0
176
     1
 72
     2
176
     1
 73
     0
176
     1
 90
        0
176
     1
 40
0.6
176
     1
 41
30.0
176
     1
 62
     5
 63
     7
421
 16777215
176
     1
 74
     1
176
     1
 91
        4
176
     1
 64
     7
176
     1
 65
   257
176
     1
 75
     1
176
     1
175
     1
176
     1
 42
1.0
176
     1
 92
        0
176
     1
 66
   257
176
     1
 43
1.0
176
     1
 76
     1
176
     1
 77
     6
176
     1
 78
     2
176
     1
 67
     7
176
     1
 79
     5
176
     1
170
     0
176
     1
171
     0
176
     1
290
     0
176
     1
 93
        1
176
     1
 44
0.0
176
     1
173
     0
176
     1
  0
VISUALSTYLE
  5
32
102
{ACAD_REACTORS
330
2A
102
}
102
{ACAD_XDICTIONARY
360
367
102
}
330
2A
100
AcDbVisualStyle
  2
Basic
 70
     7
177
     2
291
     1
 71
     1
176
     1
 72
     0
176
     1
 73
     1
176
     1
 90
        0
176
     1
 40
0.6
176
     1
 41
30.0
176
     1
 62
     5
 63
     7
421
 16777215
176
     1
 74
     0
176
     1
 91
        4
176
     1
 64
     7
176
     1
 65
   257
176
     1
 75
     1
176
     1
175
     1
176
     1
 42
1.0
176
     1
 92
        8
176
     1
 66
     7
176
     1
 43
1.0
176
     1
 76
     1
176
     1
 77
     6
176
     1
 78
     2
176
     1
 67
     7
176
     1
 79
     5
176
     1
170
     0
176
     1
171
     0
176
     1
290
     0
176
     1
 93
        1
176
     1
 44
0.0
176
     1
173
     0
176
     1
  0
VISUALSTYLE
  5
36
102
{ACAD_REACTORS
330
2A
102
}
102
{ACAD_XDICTIONARY
360
36F
102
}
330
2A
100
AcDbVisualStyle
  2
Brighten
 70
    12
177
     2
291
     1
 71
     2
176
     1
 72
     2
176
     1
 73
     0
176
     1
 90
        0
176
     1
 40
0.6
176
     1
 41
30.0
176
     1
 62
     5
 63
     7
421
 16777215
176
     1
 74
     1
176
     1
 91
        4
176
     1
 64
     7
176
     1
 65
   257
176
     1
 75
     1
176
     1
175
     1
176
     1
 42
1.0
176
     1
 92
        8
176
     1
 66
     7
176
     1
 43
1.0
176
     1
 76
     1
176
     1
 77
     6
176
     1
 78
     2
176
     1
 67
     7
176
     1
 79
     5
176
     1
170
     0
176
     1
171
     0
176
     1
290
     0
176
     1
 93
        1
176
     1
 44
50.0
176
     1
173
     0
176
     1
  0
VISUALSTYLE
  5
3A
102
{ACAD_REACTORS
330
2A
102
}
102
{ACAD_XDICTIONARY
360
377
102
}
330
2A
100
AcDbVisualStyle
  2
ColorChange
 70
    16
177
     2
291
     1
 71
     2
176
     1
 72
     2
176
     1
 73
     3
176
     1
 90
        0
176
     1
 40
0.6
176
     1
 41
30.0
176
     1
 62
     5
 63
     8
421
  8421504
176
     1
 74
     1
176
     1
 91
        4
176
     1
 64
     7
176
     1
 65
   257
176
     1
 75
     1
176
     1
175
     1
176
     1
 42
1.0
176
     1
 92
        8
176
     1
 66
     8
424
  8421504
176
     1
 43
1.0
176
     1
 76
     1
176
     1
 77
     6
176
     1
 78
     2
176
     1
 67
     7
176
     1
 79
     5
176
     1
170
     0
176
     1
171
     0
176
     1
290
     0
176
     1
 93
        1
176
     1
 44
0.0
176
     1
173
     0
176
     1
  0
VISUALSTYLE
  5
34
102
{ACAD_REACTORS
330
2A
102
}
102
{ACAD_XDICTIONARY
360
36B
102
}
330
2A
100
AcDbVisualStyle
  2
Conceptual
 70
     9
177
     2
291
     0
 71
     3
176
     1
 72
     2
176
     1
 73
     0
176
     1
 90
        0
176
     1
 40
0.6
176
     1
 41
30.0
176
     1
 62
     5
 63
     7
421
 16777215
176
     1
 74
     2
176
     1
 91
        2
176
     1
 64
     7
176
     1
 65
   257
176
     1
 75
     1
176
     1
175
     1
176
     1
 42
179.0
176
     1
 92
        8
176
     1
 66
     7
176
     1
 43
1.0
176
     1
 76
     1
176
     1
 77
     6
176
     1
 78
     2
176
     1
 67
     7
176
     1
 79
     3
176
     1
170
     0
176
     1
171
     0
176
     1
290
     0
176
     1
 93
        1
176
     1
 44
0.0
176
     1
173
     0
176
     1
  0
VISUALSTYLE
  5
35
102
{ACAD_REACTORS
330
2A
102
}
102
{ACAD_XDICTIONARY
360
36D
102
}
330
2A
100
AcDbVisualStyle
  2
Dim
 70
    11
177
     2
291
     1
 71
     2
176
     1
 72
     2
176
     1
 73
     0
176
     1
 90
        0
176
     1
 40
0.6
176
     1
 41
30.0
176
     1
 62
     5
 63
     7
421
 16777215
176
     1
 74
     1
176
     1
 91
        4
176
     1
 64
     7
176
     1
 65
   257
176
     1
 75
     1
176
     1
175
     1
176
     1
 42
1.0
176
     1
 92
        8
176
     1
 66
     7
176
     1
 43
1.0
176
     1
 76
     1
176
     1
 77
     6
176
     1
 78
     2
176
     1
 67
     7
176
     1
 79
     5
176
     1
170
     0
176
     1
171
     0
176
     1
290
     0
176
     1
 93
        1
176
     1
 44
-50.0
176
     1
173
     0
176
     1
  0
VISUALSTYLE
  5
3D
102
{ACAD_REACTORS
330
2A
102
}
102
{ACAD_XDICTIONARY
360
37D
102
}
330
2A
100
AcDbVisualStyle
  2
EdgeColorOff
 70
    22
177
     2
291
     1
 71
     2
176
     0
 72
     2
176
     0
 73
     0
176
     0
 90
        0
176
     0
 40
0.6
176
     0
 41
30.0
176
     0
 62
     5
 63
     7
421
 16777215
176
     0
 74
     1
176
     0
 91
        4
176
     0
 64
     7
176
     0
 65
   257
176
     0
 75
     1
176
     0
175
     1
176
     0
 42
1.0
176
     0
 92
        8
176
     2
 66
     7
176
     0
 43
1.0
176
     0
 76
     1
176
     0
 77
     6
176
     0
 78
     2
176
     0
 67
     7
176
     0
 79
     5
176
     0
170
     0
176
     0
171
     0
176
     0
290
     0
176
     0
 93
        1
176
     0
 44
0.0
176
     0
173
     0
176
     0
  0
VISUALSTYLE
  5
39
102
{ACAD_REACTORS
330
2A
102
}
102
{ACAD_XDICTIONARY
360
375
102
}
330
2A
100
AcDbVisualStyle
  2
Facepattern
 70
    15
177
     2
291
     1
 71
     2
176
     1
 72
     2
176
     1
 73
     0
176
     1
 90
        0
176
     1
 40
0.6
176
     1
 41
30.0
176
     1
 62
     5
 63
     7
421
 16777215
176
     1
 74
     1
176
     1
 91
        4
176
     1
 64
     7
176
     1
 65
   257
176
     1
 75
     1
176
     1
175
     1
176
     1
 42
1.0
176
     1
 92
        8
176
     1
 66
     7
176
     1
 43
1.0
176
     1
 76
     1
176
     1
 77
     6
176
     1
 78
     2
176
     1
 67
     7
176
     1
 79
     5
176
     1
170
     0
176
     1
171
     0
176
     1
290
     0
176
     1
 93
        1
176
     1
 44
0.0
176
     1
173
     0
176
     1
  0
VISUALSTYLE
  5
2B
102
{ACAD_REACTORS
330
2A
102
}
102
{ACAD_XDICTIONARY
360
359
102
}
330
2A
100
AcDbVisualStyle
  2
Flat
 70
     0
177
     2
291
     1
 71
     2
176
     1
 72
     1
176
     1
 73
     1
176
     1
 90
        2
176
     1
 40
0.6
176
     1
 41
30.0
176
     1
 62
     5
 63
     7
421
 16777215
176
     1
 74
     0
176
     1
 91
        0
176
     1
 64
     7
176
     1
 65
   257
176
     1
 75
     1
176
     1
175
     1
176
     1
 42
1.0
176
     1
 92
        8
176
     1
 66
     7
176
     1
 43
1.0
176
     1
 76
     1
176
     1
 77
     6
176
     1
 78
     2
176
     1
 67
     7
176
     1
 79
     5
176
     1
170
     0
176
     1
171
     0
176
     1
290
     0
176
     1
 93
       13
176
     1
 44
0.0
176
     1
173
     0
176
     1
  0
VISUALSTYLE
  5
2C
102
{ACAD_REACTORS
330
2A
102
}
102
{ACAD_XDICTIONARY
360
35B
102
}
330
2A
100
AcDbVisualStyle
  2
FlatWithEdges
 70
     1
177
     2
291
     1
 71
     2
176
     1
 72
     1
176
     1
 73
     1
176
     1
 90
        2
176
     1
 40
0.6
176
     1
 41
30.0
176
     1
 62
     5
 63
     7
421
 16777215
176
     1
 74
     1
176
     1
 91
        0
176
     1
 64
     7
176
     1
 65
   257
176
     1
 75
     1
176
     1
175
     1
176
     1
 42
1.0
176
     1
 92
        0
176
     1
 66
   257
176
     1
 43
1.0
176
     1
 76
     1
176
     1
 77
     6
176
     1
 78
     2
176
     1
 67
     7
176
     1
 79
     5
176
     1
170
     0
176
     1
171
     0
176
     1
290
     0
176
     1
 93
       13
176
     1
 44
0.0
176
     1
173
     0
176
     1
  0
VISUALSTYLE
  5
2D
102
{ACAD_REACTORS
330
2A
102
}
102
{ACAD_XDICTIONARY
360
35D
102
}
330
2A
100
AcDbVisualStyle
  2
Gouraud
 70
     2
177
     2
291
     1
 71
     2
176
     1
 72
     2
176
     1
 73
     1
176
     1
 90
        2
176
     1
 40
0.6
176
     1
 41
30.0
176
     1
 62
     5
 63
     7
421
 16777215
176
     1
 74
     0
176
     1
 91
        0
176
     1
 64
     7
176
     1
 65
   257
176
     1
 75
     1
176
     1
175
     1
176
     1
 42
1.0
176
     1
 92
        0
176
     1
 66
     7
176
     1
 43
1.0
176
     1
 76
     1
176
     1
 77
     6
176
     1
 78
     2
176
     1
 67
     7
176
     1
 79
     5
176
     1
170
     0
176
     1
171
     0
176
     1
290
     0
176
     1
 93
       13
176
     1
 44
0.0
176
     1
173
     0
176
     1
  0
VISUALSTYLE
  5
2E
102
{ACAD_REACTORS
330
2A
102
}
102
{ACAD_XDICTIONARY
360
35F
102
}
330
2A
100
AcDbVisualStyle
  2
GouraudWithEdges
 70
     3
177
     2
291
     1
 71
     2
176
     1
 72
     2
176
     1
 73
     1
176
     1
 90
        2
176
     1
 40
0.6
176
     1
 41
30.0
176
     1
 62
     5
 63
     7
421
 16777215
176
     1
 74
     1
176
     1
 91
        0
176
     1
 64
     7
176
     1
 65
   257
176
     1
 75
     1
176
     1
175
     1
176
     1
 42
1.0
176
     1
 92
        0
176
     1
 66
   257
176
     1
 43
1.0
176
     1
 76
     1
176
     1
 77
     6
176
     1
 78
     2
176
     1
 67
     7
176
     1
 79
     5
176
     1
170
     0
176
     1
171
     0
176
     1
290
     0
176
     1
 93
       13
176
     1
 44
0.0
176
     1
173
     0
176
     1
  0
VISUALSTYLE
  5
31
102
{ACAD_REACTORS
330
2A
102
}
102
{ACAD_XDICTIONARY
360
365
102
}
330
2A
100
AcDbVisualStyle
  2
Hidden
 70
     6
177
     2
291
     0
 71
     1
176
     1
 72
     2
176
     1
 73
     2
176
     1
 90
        0
176
     1
 40
0.6
176
     1
 41
30.0
176
     1
 62
     5
 63
     7
421
 16777215
176
     1
 74
     2
176
     1
 91
        2
176
     1
 64
     7
176
     1
 65
   257
176
     1
 75
     2
176
     1
175
     1
176
     1
 42
40.0
176
     1
 92
        0
176
     1
 66
   257
176
     1
 43
1.0
176
     1
 76
     1
176
     1
 77
     6
176
     1
 78
     2
176
     1
 67
     7
176
     1
 79
     3
176
     1
170
     0
176
     1
171
     0
176
     1
290
     0
176
     1
 93
        1
176
     1
 44
0.0
176
     1
173
     0
176
     1
  0
VISUALSTYLE
  5
3B
102
{ACAD_REACTORS
330
2A
102
}
102
{ACAD_XDICTIONARY
360
379
102
}
330
2A
100
AcDbVisualStyle
  2
JitterOff
 70
    20
177
     2
291
     1
 71
     2
176
     0
 72
     2
176
     0
 73
     0
176
     0
 90
        0
176
     0
 40
0.6
176
     0
 41
30.0
176
     0
 62
     5
 63
     7
421
 16777215
176
     0
 74
     1
176
     0
 91
        4
176
     0
 64
     7
176
     0
 65
   257
176
     0
 75
     1
176
     0
175
     1
176
     0
 42
1.0
176
     0
 92
       10
176
     2
 66
     7
176
     0
 43
1.0
176
     0
 76
     1
176
     0
 77
     6
176
     0
 78
     2
176
     0
 67
     7
176
     0
 79
     5
176
     0
170
     0
176
     0
171
     0
176
     0
290
     0
176
     0
 93
        1
176
     0
 44
0.0
176
     0
173
     0
176
     0
  0
VISUALSTYLE
  5
38
102
{ACAD_REACTORS
330
2A
102
}
102
{ACAD_XDICTIONARY
360
373
102
}
330
2A
100
AcDbVisualStyle
  2
Linepattern
 70
    14
177
     2
291
     1
 71
     2
176
     1
 72
     2
176
     1
 73
     0
176
     1
 90
        0
176
     1
 40
0.6
176
     1
 41
30.0
176
     1
 62
     5
 63
     7
421
 16777215
176
     1
 74
     1
176
     1
 91
        4
176
     1
 64
     7
176
     1
 65
   257
176
     1
 75
     7
176
     1
175
     7
176
     1
 42
1.0
176
     1
 92
        8
176
     1
 66
     7
176
     1
 43
1.0
176
     1
 76
     1
176
     1
 77
     6
176
     1
 78
     2
176
     1
 67
     7
176
     1
 79
     5
176
     1
170
     0
176
     1
171
     0
176
     1
290
     0
176
     1
 93
        1
176
     1
 44
0.0
176
     1
173
     0
176
     1
  0
VISUALSTYLE
  5
3C
102
{ACAD_REACTORS
330
2A
102
}
102
{ACAD_XDICTIONARY
360
37B
102
}
330
2A
100
AcDbVisualStyle
  2
OverhangOff
 70
    21
177
     2
291
     1
 71
     2
176
     0
 72
     2
176
     0
 73
     0
176
     0
 90
        0
176
     0
 40
0.6
176
     0
 41
30.0
176
     0
 62
     5
 63
     7
421
 16777215
176
     0
 74
     1
176
     0
 91
        4
176
     0
 64
     7
176
     0
 65
   257
176
     0
 75
     1
176
     0
175
     1
176
     0
 42
1.0
176
     0
 92
        9
176
     2
 66
     7
176
     0
 43
1.0
176
     0
 76
     1
176
     0
 77
     6
176
     0
 78
     2
176
     0
 67
     7
176
     0
 79
     5
176
     0
170
     0
176
     0
171
     0
176
     0
290
     0
176
     0
 93
        1
176
     0
 44
0.0
176
     0
173
     0
176
     0
  0
VISUALSTYLE
  5
33
102
{ACAD_REACTORS
330
2A
102
}
102
{ACAD_XDICTIONARY
360
369
102
}
330
2A
100
AcDbVisualStyle
  2
Realistic
 70
     8
177
     2
291
     0
 71
     2
176
     1
 72
     3
176
     1
 73
     0
176
     1
 90
        2
176
     1
 40
0.6
176
     1
 41
30.0
176
     1
 62
     5
 63
     7
421
 16777215
176
     1
 74
     0
176
     1
 91
        0
176
     1
 64
     7
176
     1
 65
   257
176
     1
 75
     1
176
     1
175
     1
176
     1
 42
1.0
176
     1
 92
        8
176
     1
 66
   257
176
     1
 43
1.0
176
     1
 76
     1
176
     1
 77
     6
176
     1
 78
     2
176
     1
 67
     7
176
     1
 79
     3
176
     1
170
     0
176
     1
171
     0
176
     1
290
     0
176
     1
 93
       13
176
     1
 44
0.0
176
     1
173
     0
176
     1
  0
VISUALSTYLE
  5
42
102
{ACAD_REACTORS
330
2A
102
}
102
{ACAD_XDICTIONARY
360
387
102
}
330
2A
100
AcDbVisualStyle
  2
Shaded
 70
    27
177
     2
291
     0
 71
     2
176
     1
 72
     2
176
     1
 73
     1
176
     1
 90
        2
176
     1
 40
0.6
176
     1
 41
30.0
176
     1
 62
     5
 63
     7
421
 16777215
176
     1
 74
     0
176
     1
 91
        4
176
     1
 64
     7
176
     1
 65
   257
176
     1
 75
     1
176
     1
175
     1
176
     1
 42
1.0
176
     1
 92
        8
176
     1
 66
   257
176
     1
 43
1.0
176
     1
 76
     1
176
     1
 77
     6
176
     1
 78
     2
176
     1
 67
     8
425
  7895160
176
     1
 79
     3
176
     1
170
     0
176
     1
171
     0
176
     1
290
     0
176
     1
 93
        5
176
     1
 44
0.0
176
     1
173
     0
176
     1
  0
VISUALSTYLE
  5
41
102
{ACAD_REACTORS
330
2A
102
}
102
{ACAD_XDICTIONARY
360
385
102
}
330
2A
100
AcDbVisualStyle
  2
Shaded with edges
 70
    26
177
     2
291
     0
 71
     2
176
     1
 72
     2
176
     1
 73
     1
176
     1
 90
        2
176
     1
 40
0.6
176
     1
 41
30.0
176
     1
 62
     5
 63
     7
421
 16777215
176
     1
 74
     1
176
     1
 91
       10
176
     1
 64
     7
176
     1
 65
   257
176
     1
 75
     2
176
     1
175
     1
176
     1
 42
1.0
176
     1
 92
        8
176
     1
 66
   257
176
     1
 43
1.0
176
     1
 76
     1
176
     1
 77
     6
176
     1
 78
     2
176
     1
 67
     7
176
     1
 79
     3
176
     1
170
     0
176
     1
171
     0
176
     1
290
     0
176
     1
 93
        5
176
     1
 44
0.0
176
     1
173
     0
176
     1
  0
VISUALSTYLE
  5
3E
102
{ACAD_REACTORS
330
2A
102
}
102
{ACAD_XDICTIONARY
360
37F
102
}
330
2A
100
AcDbVisualStyle
  2
Shades of Gray
 70
    23
177
     2
291
     0
 71
     2
176
     1
 72
     2
176
     1
 73
     3
176
     1
 90
        0
176
     1
 40
0.6
176
     1
 41
30.0
176
     1
 62
     5
 63
     7
421
 16777215
176
     1
 74
     2
176
     1
 91
        2
176
     1
 64
     7
176
     1
 65
     7
176
     1
 75
     1
176
     1
175
     1
176
     1
 42
40.0
176
     1
 92
        8
176
     1
 66
     7
176
     1
 43
1.0
176
     1
 76
     1
176
     1
 77
     6
176
     1
 78
     2
176
     1
 67
     7
176
     1
 79
     3
176
     1
170
     0
176
     1
171
     0
176
     1
290
     0
176
     1
 93
        1
176
     1
 44
0.0
176
     1
173
     0
176
     1
  0
VISUALSTYLE
  5
3F
102
{ACAD_REACTORS
330
2A
102
}
102
{ACAD_XDICTIONARY
360
381
102
}
330
2A
100
AcDbVisualStyle
  2
Sketchy
 70
    24
177
     2
291
     0
 71
     1
176
     1
 72
     2
176
     1
 73
     2
176
     1
 90
        0
176
     1
 40
0.6
176
     1
 41
30.0
176
     1
 62
     5
 63
     7
421
 16777215
176
     1
 74
     2
176
     1
 91
        2
176
     1
 64
     7
176
     1
 65
     7
176
     1
 75
     1
176
     1
175
     1
176
     1
 42
40.0
176
     1
 92
       11
176
     1
 66
     7
176
     1
 43
1.0
176
     1
 76
     1
176
     1
 77
     6
176
     1
 78
     2
176
     1
 67
     7
176
     1
 79
     6
176
     1
170
     0
176
     1
171
     0
176
     1
290
     0
176
     1
 93
        1
176
     1
 44
0.0
176
     1
173
     0
176
     1
  0
VISUALSTYLE
  5
37
102
{ACAD_REACTORS
330
2A
102
}
102
{ACAD_XDICTIONARY
360
371
102
}
330
2A
100
AcDbVisualStyle
  2
Thicken
 70
    13
177
     2
291
     1
 71
     2
176
     1
 72
     2
176
     1
 73
     0
176
     1
 90
        0
176
     1
 40
0.6
176
     1
 41
30.0
176
     1
 62
     5
 63
     7
421
 16777215
176
     1
 74
     1
176
     1
 91
        4
176
     1
 64
     7
176
     1
 65
   257
176
     1
 75
     1
176
     1
175
     1
176
     1
 42
1.0
176
     1
 92
       12
176
     1
 66
     7
176
     1
 43
1.0
176
     1
 76
     1
176
     1
 77
     6
176
     1
 78
     2
176
     1
 67
     7
176
     1
 79
     5
176
     1
170
     0
176
     1
171
     0
176
     1
290
     0
176
     1
 93
        1
176
     1
 44
0.0
176
     1
173
     0
176
     1
  0
VISUALSTYLE
  5
30
102
{ACAD_REACTORS
330
2A
102
}
102
{ACAD_XDICTIONARY
360
363
102
}
330
2A
100
AcDbVisualStyle
  2
Wireframe
 70
     5
177
     2
291
     0
 71
     0
176
     1
 72
     2
176
     1
 73
     0
176
     1
 90
        0
176
     1
 40
0.6
176
     1
 41
30.0
176
     1
 62
     5
 63
     7
421
 16777215
176
     1
 74
     1
176
     1
 91
        4
176
     1
 64
     7
176
     1
 65
   257
176
     1
 75
     1
176
     1
175
     1
176
     1
 42
1.0
176
     1
 92
        0
176
     1
 66
   257
176
     1
 43
1.0
176
     1
 76
     1
176
     1
 77
     6
176
     1
 78
     2
176
     1
 67
     7
176
     1
 79
     3
176
     1
170
     0
176
     1
171
     0
176
     1
290
     0
176
     1
 93
        1
176
     1
 44
0.0
176
     1
173
     0
176
     1
  0
VISUALSTYLE
  5
40
102
{ACAD_REACTORS
330
2A
102
}
102
{ACAD_XDICTIONARY
360
383
102
}
330
2A
100
AcDbVisualStyle
  2
X-Ray
 70
    25
177
     2
291
     0
 71
     2
176
     1
 72
     2
176
     1
 73
     1
176
     1
 90
        1
176
     1
 40
0.5
176
     1
 41
30.0
176
     1
 62
     5
 63
     7
421
 16777215
176
     1
 74
     1
176
     1
 91
        0
176
     1
 64
     7
176
     1
 65
   257
176
     1
 75
     1
176
     1
175
     1
176
     1
 42
1.0
176
     1
 92
        8
176
     1
 66
     7
176
     1
 43
1.0
176
     1
 76
     1
176
     1
 77
     6
176
     1
 78
     2
176
     1
 67
     7
176
     1
 79
     3
176
     1
170
     0
176
     1
171
     0
176
     1
290
     0
176
     1
 93
       13
176
     1
 44
0.0
176
     1
173
     0
176
     1
  0
DICTIONARYVAR
  5
358
102
{ACAD_REACTORS
330
357
102
}
330
357
100
DictionaryVariables
280
     0
  1
1:1
  0
DICTIONARYVAR
  5
38D
102
{ACAD_REACTORS
330
357
102
}
330
357
100
DictionaryVariables
280
     0
  1
Standard
  0
DICTIONARYVAR
  5
38C
102
{ACAD_REACTORS
330
357
102
}
330
357
100
DictionaryVariables
280
     0
  1
Standard
  0
DICTIONARY
  5
389
330
6A
100
AcDbDictionary
280
     1
281
     1
  3
ACAD_ROUNDTRIP_2008_TABLESTYLE_CELLSTYLEMAP
360
38A
  0
DICTIONARY
  5
361
330
2F
100
AcDbDictionary
280
     1
281
     1
  3
ACAD_XREC_ROUNDTRIP
360
362
  0
DICTIONARY
  5
367
330
32
100
AcDbDictionary
280
     1
281
     1
  3
ACAD_XREC_ROUNDTRIP
360
368
  0
DICTIONARY
  5
36F
330
36
100
AcDbDictionary
280
     1
281
     1
  3
ACAD_XREC_ROUNDTRIP
360
370
  0
DICTIONARY
  5
377
330
3A
100
AcDbDictionary
280
     1
281
     1
  3
ACAD_XREC_ROUNDTRIP
360
378
  0
DICTIONARY
  5
36B
330
34
100
AcDbDictionary
280
     1
281
     1
  3
ACAD_XREC_ROUNDTRIP
360
36C
  0
DICTIONARY
  5
36D
330
35
100
AcDbDictionary
280
     1
281
     1
  3
ACAD_XREC_ROUNDTRIP
360
36E
  0
DICTIONARY
  5
37D
330
3D
100
AcDbDictionary
280
     1
281
     1
  3
ACAD_XREC_ROUNDTRIP
360
37E
  0
DICTIONARY
  5
375
330
39
100
AcDbDictionary
280
     1
281
     1
  3
ACAD_XREC_ROUNDTRIP
360
376
  0
DICTIONARY
  5
359
330
2B
100
AcDbDictionary
280
     1
281
     1
  3
ACAD_XREC_ROUNDTRIP
360
35A
  0
DICTIONARY
  5
35B
330
2C
100
AcDbDictionary
280
     1
281
     1
  3
ACAD_XREC_ROUNDTRIP
360
35C
  0
DICTIONARY
  5
35D
330
2D
100
AcDbDictionary
280
     1
281
     1
  3
ACAD_XREC_ROUNDTRIP
360
35E
  0
DICTIONARY
  5
35F
330
2E
100
AcDbDictionary
280
     1
281
     1
  3
ACAD_XREC_ROUNDTRIP
360
360
  0
DICTIONARY
  5
365
330
31
100
AcDbDictionary
280
     1
281
     1
  3
ACAD_XREC_ROUNDTRIP
360
366
  0
DICTIONARY
  5
379
330
3B
100
AcDbDictionary
280
     1
281
     1
  3
ACAD_XREC_ROUNDTRIP
360
37A
  0
DICTIONARY
  5
373
330
38
100
AcDbDictionary
280
     1
281
     1
  3
ACAD_XREC_ROUNDTRIP
360
374
  0
DICTIONARY
  5
37B
330
3C
100
AcDbDictionary
280
     1
281
     1
  3
ACAD_XREC_ROUNDTRIP
360
37C
  0
DICTIONARY
  5
369
330
33
100
AcDbDictionary
280
     1
281
     1
  3
ACAD_XREC_ROUNDTRIP
360
36A
  0
DICTIONARY
  5
387
330
42
100
AcDbDictionary
280
     1
281
     1
  3
ACAD_XREC_ROUNDTRIP
360
388
  0
DICTIONARY
  5
385
330
41
100
AcDbDictionary
280
     1
281
     1
  3
ACAD_XREC_ROUNDTRIP
360
386
  0
DICTIONARY
  5
37F
330
3E
100
AcDbDictionary
280
     1
281
     1
  3
ACAD_XREC_ROUNDTRIP
360
380
  0
DICTIONARY
  5
381
330
3F
100
AcDbDictionary
280
     1
281
     1
  3
ACAD_XREC_ROUNDTRIP
360
382
  0
DICTIONARY
  5
371
330
37
100
AcDbDictionary
280
     1
281
     1
  3
ACAD_XREC_ROUNDTRIP
360
372
  0
DICTIONARY
  5
363
330
30
100
AcDbDictionary
280
     1
281
     1
  3
ACAD_XREC_ROUNDTRIP
360
364
  0
DICTIONARY
  5
383
330
40
100
AcDbDictionary
280
     1
281
     1
  3
ACAD_XREC_ROUNDTRIP
360
384
  0
CELLSTYLEMAP
  5
38A
102
{ACAD_REACTORS
330
389
102
}
330
389
100
AcDbCellStyleMap
 90
        3
300
CELLSTYLE
  1
TABLEFORMAT_BEGIN
 90
        5
170
     1
 91
        0
 92
    32768
 62
   257
 93
        1
300
CONTENTFORMAT
  1
CONTENTFORMAT_BEGIN
 90
        0
 91
        0
 92
        4
 93
        0
300

 40
0.0
140
1.0
 94
        5
 62
     0
340
11
144
6.0
309
CONTENTFORMAT_END
171
     1
301
MARGIN
  1
CELLMARGIN_BEGIN
 40
1.5
 40
1.5
 40
1.5
 40
1.5
 40
1.5
 40
1.5
309
CELLMARGIN_END
 94
        6
 95
        1
302
GRIDFORMAT
  1
GRIDFORMAT_BEGIN
 90
        0
 91
        1
 62
     0
 92
       -2
340
14
 93
        0
 40
0.045
309
GRIDFORMAT_END
 95
        2
302
GRIDFORMAT
  1
GRIDFORMAT_BEGIN
 90
        0
 91
        1
 62
     0
 92
       -2
340
14
 93
        0
 40
0.045
309
GRIDFORMAT_END
 95
        4
302
GRIDFORMAT
  1
GRIDFORMAT_BEGIN
 90
        0
 91
        1
 62
     0
 92
       -2
340
14
 93
        0
 40
0.045
309
GRIDFORMAT_END
 95
        8
302
GRIDFORMAT
  1
GRIDFORMAT_BEGIN
 90
        0
 91
        1
 62
     0
 92
       -2
340
14
 93
        0
 40
0.045
309
GRIDFORMAT_END
 95
       16
302
GRIDFORMAT
  1
GRIDFORMAT_BEGIN
 90
        0
 91
        1
 62
     0
 92
       -2
340
14
 93
        0
 40
0.045
309
GRIDFORMAT_END
 95
       32
302
GRIDFORMAT
  1
GRIDFORMAT_BEGIN
 90
        0
 91
        1
 62
     0
 92
       -2
340
14
 93
        0
 40
0.045
309
GRIDFORMAT_END
309
TABLEFORMAT_END
  1
CELLSTYLE_BEGIN
 90
        1
 91
        1
300
_TITLE
309
CELLSTYLE_END
300
CELLSTYLE
  1
TABLEFORMAT_BEGIN
 90
        5
170
     1
 91
        0
 92
        0
 62
   257
 93
        1
300
CONTENTFORMAT
  1
CONTENTFORMAT_BEGIN
 90
        0
 91
        0
 92
        4
 93
        0
300

 40
0.0
140
1.0
 94
        5
 62
     0
340
11
144
4.5
309
CONTENTFORMAT_END
171
     1
301
MARGIN
  1
CELLMARGIN_BEGIN
 40
1.5
 40
1.5
 40
1.5
 40
1.5
 40
1.5
 40
1.5
309
CELLMARGIN_END
 94
        6
 95
        1
302
GRIDFORMAT
  1
GRIDFORMAT_BEGIN
 90
        0
 91
        1
 62
     0
 92
       -2
340
14
 93
        0
 40
0.045
309
GRIDFORMAT_END
 95
        2
302
GRIDFORMAT
  1
GRIDFORMAT_BEGIN
 90
        0
 91
        1
 62
     0
 92
       -2
340
14
 93
        0
 40
0.045
309
GRIDFORMAT_END
 95
        4
302
GRIDFORMAT
  1
GRIDFORMAT_BEGIN
 90
        0
 91
        1
 62
     0
 92
       -2
340
14
 93
        0
 40
0.045
309
GRIDFORMAT_END
 95
        8
302
GRIDFORMAT
  1
GRIDFORMAT_BEGIN
 90
        0
 91
        1
 62
     0
 92
       -2
340
14
 93
        0
 40
0.045
309
GRIDFORMAT_END
 95
       16
302
GRIDFORMAT
  1
GRIDFORMAT_BEGIN
 90
        0
 91
        1
 62
     0
 92
       -2
340
14
 93
        0
 40
0.045
309
GRIDFORMAT_END
 95
       32
302
GRIDFORMAT
  1
GRIDFORMAT_BEGIN
 90
        0
 91
        1
 62
     0
 92
       -2
340
14
 93
        0
 40
0.045
309
GRIDFORMAT_END
309
TABLEFORMAT_END
  1
CELLSTYLE_BEGIN
 90
        2
 91
        1
300
_HEADER
309
CELLSTYLE_END
300
CELLSTYLE
  1
TABLEFORMAT_BEGIN
 90
        5
170
     1
 91
        0
 92
        0
 62
   257
 93
        1
300
CONTENTFORMAT
  1
CONTENTFORMAT_BEGIN
 90
        0
 91
        0
 92
        4
 93
        0
300

 40
0.0
140
1.0
 94
        2
 62
     0
340
11
144
4.5
309
CONTENTFORMAT_END
171
     1
301
MARGIN
  1
CELLMARGIN_BEGIN
 40
1.5
 40
1.5
 40
1.5
 40
1.5
 40
1.5
 40
1.5
309
CELLMARGIN_END
 94
        6
 95
        1
302
GRIDFORMAT
  1
GRIDFORMAT_BEGIN
 90
        0
 91
        1
 62
     0
 92
       -2
340
14
 93
        0
 40
0.045
309
GRIDFORMAT_END
 95
        2
302
GRIDFORMAT
  1
GRIDFORMAT_BEGIN
 90
        0
 91
        1
 62
     0
 92
       -2
340
14
 93
        0
 40
0.045
309
GRIDFORMAT_END
 95
        4
302
GRIDFORMAT
  1
GRIDFORMAT_BEGIN
 90
        0
 91
        1
 62
     0
 92
       -2
340
14
 93
        0
 40
0.045
309
GRIDFORMAT_END
 95
        8
302
GRIDFORMAT
  1
GRIDFORMAT_BEGIN
 90
        0
 91
        1
 62
     0
 92
       -2
340
14
 93
        0
 40
0.045
309
GRIDFORMAT_END
 95
       16
302
GRIDFORMAT
  1
GRIDFORMAT_BEGIN
 90
        0
 91
        1
 62
     0
 92
       -2
340
14
 93
        0
 40
0.045
309
GRIDFORMAT_END
 95
       32
302
GRIDFORMAT
  1
GRIDFORMAT_BEGIN
 90
        0
 91
        1
 62
     0
 92
       -2
340
14
 93
        0
 40
0.045
309
GRIDFORMAT_END
309
TABLEFORMAT_END
  1
CELLSTYLE_BEGIN
 90
        3
 91
        2
300
_DATA
309
CELLSTYLE_END
  0
XRECORD
  5
362
102
{ACAD_REACTORS
330
361
102
}
330
361
100
AcDbXrecord
280
     1
102
RTVSPost2010Prop28
280
     1
102
RTVSPost2010PropOp28
 70
     1
102
RTVSPost2010Prop29
280
     1
102
RTVSPost2010PropOp29
 70
     1
102
RTVSPost2010Prop30
280
     0
102
RTVSPost2010PropOp30
 70
     1
102
RTVSPost2010Prop31
280
     0
102
RTVSPost2010PropOp31
 70
     1
102
RTVSPost2010Prop32
280
     0
102
RTVSPost2010PropOp32
 70
     1
102
RTVSPost2010Prop33
280
     0
102
RTVSPost2010PropOp33
 70
     1
102
RTVSPost2010Prop34
280
     0
102
RTVSPost2010PropOp34
 70
     1
102
RTVSPost2010Prop35
280
     0
102
RTVSPost2010PropOp35
 70
     1
102
RTVSPost2010Prop36
280
     0
102
RTVSPost2010PropOp36
 70
     1
102
RTVSPost2010Prop37
 90
       50
102
RTVSPost2010PropOp37
 70
     1
102
RTVSPost2010Prop38
140
0.0
102
RTVSPost2010PropOp38
 70
     1
102
RTVSPost2010Prop39
140
1.0
102
RTVSPost2010PropOp39
 70
     1
102
RTVSPost2010Prop40
 90
        0
102
RTVSPost2010PropOp40
 70
     1
102
RTVSPost2010Prop41ColorIndex
 90
       18
102
RTVSPost2010Prop41ColorRGB
 90
        0
102
RTVSPost2010PropOp41
 70
     1
102
RTVSPost2010Prop42
 90
       50
102
RTVSPost2010PropOp42
 70
     1
102
RTVSPost2010Prop43
 90
        3
102
RTVSPost2010PropOp43
 70
     1
102
RTVSPost2010Prop44ColorIndex
 90
        5
102
RTVSPost2010Prop44ColorRGB
 90
      255
102
RTVSPost2010PropOp44
 70
     1
102
RTVSPost2010Prop45
280
     0
102
RTVSPost2010PropOp45
 70
     1
102
RTVSPost2010Prop46
 90
       50
102
RTVSPost2010PropOp46
 70
     1
102
RTVSPost2010Prop47
 90
       50
102
RTVSPost2010PropOp47
 70
     1
102
RTVSPost2010Prop48
 90
       50
102
RTVSPost2010PropOp48
 70
     1
102
RTVSPost2010Prop49
280
     0
102
RTVSPost2010PropOp49
 70
     1
102
RTVSPost2010Prop50
 90
       50
102
RTVSPost2010PropOp50
 70
     1
102
RTVSPost2010Prop51ColorIndex
 90
      256
102
RTVSPost2010Prop51ColorRGB
 90
-16777216
102
RTVSPost2010PropOp51
 70
     0
102
RTVSPost2010Prop52
140
1.0
102
RTVSPost2010PropOp52
 70
     0
102
RTVSPost2010Prop53
 90
        2
102
RTVSPost2010PropOp53
 70
     1
102
RTVSPost2010Prop54
  1
strokes_ogs.tif
102
RTVSPost2010PropOp54
 70
     1
102
RTVSPost2010Prop55
280
     0
102
RTVSPost2010PropOp55
 70
     1
102
RTVSPost2010Prop56
140
1.0
102
RTVSPost2010PropOp56
 70
     1
102
RTVSPost2010Prop57
140
1.0
102
RTVSPost2010PropOp57
 70
     1
  0
XRECORD
  5
368
102
{ACAD_REACTORS
330
367
102
}
330
367
100
AcDbXrecord
280
     1
102
RTVSPost2010Prop28
280
     0
102
RTVSPost2010PropOp28
 70
     1
102
RTVSPost2010Prop29
280
     1
102
RTVSPost2010PropOp29
 70
     1
102
RTVSPost2010Prop30
280
     1
102
RTVSPost2010PropOp30
 70
     1
102
RTVSPost2010Prop31
280
     0
102
RTVSPost2010PropOp31
 70
     1
102
RTVSPost2010Prop32
280
     0
102
RTVSPost2010PropOp32
 70
     1
102
RTVSPost2010Prop33
280
     0
102
RTVSPost2010PropOp33
 70
     1
102
RTVSPost2010Prop34
280
     0
102
RTVSPost2010PropOp34
 70
     1
102
RTVSPost2010Prop35
280
     0
102
RTVSPost2010PropOp35
 70
     1
102
RTVSPost2010Prop36
280
     0
102
RTVSPost2010PropOp36
 70
     1
102
RTVSPost2010Prop37
 90
       50
102
RTVSPost2010PropOp37
 70
     1
102
RTVSPost2010Prop38
140
0.0
102
RTVSPost2010PropOp38
 70
     1
102
RTVSPost2010Prop39
140
1.0
102
RTVSPost2010PropOp39
 70
     1
102
RTVSPost2010Prop40
 90
        0
102
RTVSPost2010PropOp40
 70
     1
102
RTVSPost2010Prop41ColorIndex
 90
       18
102
RTVSPost2010Prop41ColorRGB
 90
        0
102
RTVSPost2010PropOp41
 70
     1
102
RTVSPost2010Prop42
 90
       50
102
RTVSPost2010PropOp42
 70
     1
102
RTVSPost2010Prop43
 90
        3
102
RTVSPost2010PropOp43
 70
     1
102
RTVSPost2010Prop44ColorIndex
 90
        5
102
RTVSPost2010Prop44ColorRGB
 90
      255
102
RTVSPost2010PropOp44
 70
     1
102
RTVSPost2010Prop45
280
     0
102
RTVSPost2010PropOp45
 70
     1
102
RTVSPost2010Prop46
 90
       50
102
RTVSPost2010PropOp46
 70
     1
102
RTVSPost2010Prop47
 90
       50
102
RTVSPost2010PropOp47
 70
     1
102
RTVSPost2010Prop48
 90
       50
102
RTVSPost2010PropOp48
 70
     1
102
RTVSPost2010Prop49
280
     0
102
RTVSPost2010PropOp49
 70
     1
102
RTVSPost2010Prop50
 90
       50
102
RTVSPost2010PropOp50
 70
     1
102
RTVSPost2010Prop51ColorIndex
 90
      256
102
RTVSPost2010Prop51ColorRGB
 90
-16777216
102
RTVSPost2010PropOp51
 70
     0
102
RTVSPost2010Prop52
140
1.0
102
RTVSPost2010PropOp52
 70
     0
102
RTVSPost2010Prop53
 90
        2
102
RTVSPost2010PropOp53
 70
     1
102
RTVSPost2010Prop54
  1
strokes_ogs.tif
102
RTVSPost2010PropOp54
 70
     1
102
RTVSPost2010Prop55
280
     0
102
RTVSPost2010PropOp55
 70
     1
102
RTVSPost2010Prop56
140
1.0
102
RTVSPost2010PropOp56
 70
     1
102
RTVSPost2010Prop57
140
1.0
102
RTVSPost2010PropOp57
 70
     1
  0
XRECORD
  5
370
102
{ACAD_REACTORS
330
36F
102
}
330
36F
100
AcDbXrecord
280
     1
102
RTVSPost2010Prop28
280
     0
102
RTVSPost2010PropOp28
 70
     1
102
RTVSPost2010Prop29
280
     1
102
RTVSPost2010PropOp29
 70
     1
102
RTVSPost2010Prop30
280
     1
102
RTVSPost2010PropOp30
 70
     1
102
RTVSPost2010Prop31
280
     0
102
RTVSPost2010PropOp31
 70
     1
102
RTVSPost2010Prop32
280
     0
102
RTVSPost2010PropOp32
 70
     1
102
RTVSPost2010Prop33
280
     0
102
RTVSPost2010PropOp33
 70
     1
102
RTVSPost2010Prop34
280
     0
102
RTVSPost2010PropOp34
 70
     1
102
RTVSPost2010Prop35
280
     0
102
RTVSPost2010PropOp35
 70
     1
102
RTVSPost2010Prop36
280
     0
102
RTVSPost2010PropOp36
 70
     1
102
RTVSPost2010Prop37
 90
       50
102
RTVSPost2010PropOp37
 70
     1
102
RTVSPost2010Prop38
140
0.0
102
RTVSPost2010PropOp38
 70
     1
102
RTVSPost2010Prop39
140
1.0
102
RTVSPost2010PropOp39
 70
     1
102
RTVSPost2010Prop40
 90
        0
102
RTVSPost2010PropOp40
 70
     1
102
RTVSPost2010Prop41ColorIndex
 90
       18
102
RTVSPost2010Prop41ColorRGB
 90
        0
102
RTVSPost2010PropOp41
 70
     1
102
RTVSPost2010Prop42
 90
       50
102
RTVSPost2010PropOp42
 70
     1
102
RTVSPost2010Prop43
 90
        3
102
RTVSPost2010PropOp43
 70
     1
102
RTVSPost2010Prop44ColorIndex
 90
        5
102
RTVSPost2010Prop44ColorRGB
 90
      255
102
RTVSPost2010PropOp44
 70
     1
102
RTVSPost2010Prop45
280
     0
102
RTVSPost2010PropOp45
 70
     1
102
RTVSPost2010Prop46
 90
       50
102
RTVSPost2010PropOp46
 70
     1
102
RTVSPost2010Prop47
 90
       50
102
RTVSPost2010PropOp47
 70
     1
102
RTVSPost2010Prop48
 90
       50
102
RTVSPost2010PropOp48
 70
     1
102
RTVSPost2010Prop49
280
     0
102
RTVSPost2010PropOp49
 70
     1
102
RTVSPost2010Prop50
 90
       50
102
RTVSPost2010PropOp50
 70
     1
102
RTVSPost2010Prop51ColorIndex
 90
      256
102
RTVSPost2010Prop51ColorRGB
 90
-16777216
102
RTVSPost2010PropOp51
 70
     0
102
RTVSPost2010Prop52
140
1.0
102
RTVSPost2010PropOp52
 70
     0
102
RTVSPost2010Prop53
 90
        2
102
RTVSPost2010PropOp53
 70
     1
102
RTVSPost2010Prop54
  1
strokes_ogs.tif
102
RTVSPost2010PropOp54
 70
     1
102
RTVSPost2010Prop55
280
     0
102
RTVSPost2010PropOp55
 70
     1
102
RTVSPost2010Prop56
140
1.0
102
RTVSPost2010PropOp56
 70
     1
102
RTVSPost2010Prop57
140
1.0
102
RTVSPost2010PropOp57
 70
     1
  0
XRECORD
  5
378
102
{ACAD_REACTORS
330
377
102
}
330
377
100
AcDbXrecord
280
     1
102
RTVSPost2010Prop28
280
     0
102
RTVSPost2010PropOp28
 70
     1
102
RTVSPost2010Prop29
280
     1
102
RTVSPost2010PropOp29
 70
     1
102
RTVSPost2010Prop30
280
     1
102
RTVSPost2010PropOp30
 70
     1
102
RTVSPost2010Prop31
280
     0
102
RTVSPost2010PropOp31
 70
     1
102
RTVSPost2010Prop32
280
     0
102
RTVSPost2010PropOp32
 70
     1
102
RTVSPost2010Prop33
280
     0
102
RTVSPost2010PropOp33
 70
     1
102
RTVSPost2010Prop34
280
     0
102
RTVSPost2010PropOp34
 70
     1
102
RTVSPost2010Prop35
280
     0
102
RTVSPost2010PropOp35
 70
     1
102
RTVSPost2010Prop36
280
     0
102
RTVSPost2010PropOp36
 70
     1
102
RTVSPost2010Prop37
 90
       50
102
RTVSPost2010PropOp37
 70
     1
102
RTVSPost2010Prop38
140
0.0
102
RTVSPost2010PropOp38
 70
     1
102
RTVSPost2010Prop39
140
1.0
102
RTVSPost2010PropOp39
 70
     1
102
RTVSPost2010Prop40
 90
        0
102
RTVSPost2010PropOp40
 70
     1
102
RTVSPost2010Prop41ColorIndex
 90
       18
102
RTVSPost2010Prop41ColorRGB
 90
        0
102
RTVSPost2010PropOp41
 70
     1
102
RTVSPost2010Prop42
 90
       50
102
RTVSPost2010PropOp42
 70
     1
102
RTVSPost2010Prop43
 90
        3
102
RTVSPost2010PropOp43
 70
     1
102
RTVSPost2010Prop44ColorIndex
 90
        5
102
RTVSPost2010Prop44ColorRGB
 90
      255
102
RTVSPost2010PropOp44
 70
     1
102
RTVSPost2010Prop45
280
     0
102
RTVSPost2010PropOp45
 70
     1
102
RTVSPost2010Prop46
 90
       50
102
RTVSPost2010PropOp46
 70
     1
102
RTVSPost2010Prop47
 90
       50
102
RTVSPost2010PropOp47
 70
     1
102
RTVSPost2010Prop48
 90
       50
102
RTVSPost2010PropOp48
 70
     1
102
RTVSPost2010Prop49
280
     0
102
RTVSPost2010PropOp49
 70
     1
102
RTVSPost2010Prop50
 90
       50
102
RTVSPost2010PropOp50
 70
     1
102
RTVSPost2010Prop51ColorIndex
 90
      256
102
RTVSPost2010Prop51ColorRGB
 90
-16777216
102
RTVSPost2010PropOp51
 70
     0
102
RTVSPost2010Prop52
140
1.0
102
RTVSPost2010PropOp52
 70
     0
102
RTVSPost2010Prop53
 90
        2
102
RTVSPost2010PropOp53
 70
     1
102
RTVSPost2010Prop54
  1
strokes_ogs.tif
102
RTVSPost2010PropOp54
 70
     1
102
RTVSPost2010Prop55
280
     0
102
RTVSPost2010PropOp55
 70
     1
102
RTVSPost2010Prop56
140
1.0
102
RTVSPost2010PropOp56
 70
     1
102
RTVSPost2010Prop57
140
1.0
102
RTVSPost2010PropOp57
 70
     1
  0
XRECORD
  5
36C
102
{ACAD_REACTORS
330
36B
102
}
330
36B
100
AcDbXrecord
280
     1
102
RTVSPost2010Prop28
280
     0
102
RTVSPost2010PropOp28
 70
     1
102
RTVSPost2010Prop29
280
     1
102
RTVSPost2010PropOp29
 70
     1
102
RTVSPost2010Prop30
280
     1
102
RTVSPost2010PropOp30
 70
     1
102
RTVSPost2010Prop31
280
     0
102
RTVSPost2010PropOp31
 70
     1
102
RTVSPost2010Prop32
280
     0
102
RTVSPost2010PropOp32
 70
     1
102
RTVSPost2010Prop33
280
     0
102
RTVSPost2010PropOp33
 70
     1
102
RTVSPost2010Prop34
280
     0
102
RTVSPost2010PropOp34
 70
     1
102
RTVSPost2010Prop35
280
     0
102
RTVSPost2010PropOp35
 70
     1
102
RTVSPost2010Prop36
280
     0
102
RTVSPost2010PropOp36
 70
     1
102
RTVSPost2010Prop37
 90
       50
102
RTVSPost2010PropOp37
 70
     1
102
RTVSPost2010Prop38
140
0.0
102
RTVSPost2010PropOp38
 70
     1
102
RTVSPost2010Prop39
140
1.0
102
RTVSPost2010PropOp39
 70
     1
102
RTVSPost2010Prop40
 90
        0
102
RTVSPost2010PropOp40
 70
     1
102
RTVSPost2010Prop41ColorIndex
 90
       18
102
RTVSPost2010Prop41ColorRGB
 90
        0
102
RTVSPost2010PropOp41
 70
     1
102
RTVSPost2010Prop42
 90
       50
102
RTVSPost2010PropOp42
 70
     1
102
RTVSPost2010Prop43
 90
        3
102
RTVSPost2010PropOp43
 70
     1
102
RTVSPost2010Prop44ColorIndex
 90
        5
102
RTVSPost2010Prop44ColorRGB
 90
      255
102
RTVSPost2010PropOp44
 70
     1
102
RTVSPost2010Prop45
280
     0
102
RTVSPost2010PropOp45
 70
     1
102
RTVSPost2010Prop46
 90
       50
102
RTVSPost2010PropOp46
 70
     1
102
RTVSPost2010Prop47
 90
       50
102
RTVSPost2010PropOp47
 70
     1
102
RTVSPost2010Prop48
 90
       50
102
RTVSPost2010PropOp48
 70
     1
102
RTVSPost2010Prop49
280
     0
102
RTVSPost2010PropOp49
 70
     1
102
RTVSPost2010Prop50
 90
       50
102
RTVSPost2010PropOp50
 70
     1
102
RTVSPost2010Prop51ColorIndex
 90
      256
102
RTVSPost2010Prop51ColorRGB
 90
-16777216
102
RTVSPost2010PropOp51
 70
     0
102
RTVSPost2010Prop52
140
1.0
102
RTVSPost2010PropOp52
 70
     0
102
RTVSPost2010Prop53
 90
        2
102
RTVSPost2010PropOp53
 70
     1
102
RTVSPost2010Prop54
  1
strokes_ogs.tif
102
RTVSPost2010PropOp54
 70
     1
102
RTVSPost2010Prop55
280
     0
102
RTVSPost2010PropOp55
 70
     1
102
RTVSPost2010Prop56
140
1.0
102
RTVSPost2010PropOp56
 70
     1
102
RTVSPost2010Prop57
140
1.0
102
RTVSPost2010PropOp57
 70
     1
  0
XRECORD
  5
36E
102
{ACAD_REACTORS
330
36D
102
}
330
36D
100
AcDbXrecord
280
     1
102
RTVSPost2010Prop28
280
     0
102
RTVSPost2010PropOp28
 70
     1
102
RTVSPost2010Prop29
280
     1
102
RTVSPost2010PropOp29
 70
     1
102
RTVSPost2010Prop30
280
     1
102
RTVSPost2010PropOp30
 70
     1
102
RTVSPost2010Prop31
280
     0
102
RTVSPost2010PropOp31
 70
     1
102
RTVSPost2010Prop32
280
     0
102
RTVSPost2010PropOp32
 70
     1
102
RTVSPost2010Prop33
280
     0
102
RTVSPost2010PropOp33
 70
     1
102
RTVSPost2010Prop34
280
     0
102
RTVSPost2010PropOp34
 70
     1
102
RTVSPost2010Prop35
280
     0
102
RTVSPost2010PropOp35
 70
     1
102
RTVSPost2010Prop36
280
     0
102
RTVSPost2010PropOp36
 70
     1
102
RTVSPost2010Prop37
 90
       50
102
RTVSPost2010PropOp37
 70
     1
102
RTVSPost2010Prop38
140
0.0
102
RTVSPost2010PropOp38
 70
     1
102
RTVSPost2010Prop39
140
1.0
102
RTVSPost2010PropOp39
 70
     1
102
RTVSPost2010Prop40
 90
        0
102
RTVSPost2010PropOp40
 70
     1
102
RTVSPost2010Prop41ColorIndex
 90
       18
102
RTVSPost2010Prop41ColorRGB
 90
        0
102
RTVSPost2010PropOp41
 70
     1
102
RTVSPost2010Prop42
 90
       50
102
RTVSPost2010PropOp42
 70
     1
102
RTVSPost2010Prop43
 90
        3
102
RTVSPost2010PropOp43
 70
     1
102
RTVSPost2010Prop44ColorIndex
 90
        5
102
RTVSPost2010Prop44ColorRGB
 90
      255
102
RTVSPost2010PropOp44
 70
     1
102
RTVSPost2010Prop45
280
     0
102
RTVSPost2010PropOp45
 70
     1
102
RTVSPost2010Prop46
 90
       50
102
RTVSPost2010PropOp46
 70
     1
102
RTVSPost2010Prop47
 90
       50
102
RTVSPost2010PropOp47
 70
     1
102
RTVSPost2010Prop48
 90
       50
102
RTVSPost2010PropOp48
 70
     1
102
RTVSPost2010Prop49
280
     0
102
RTVSPost2010PropOp49
 70
     1
102
RTVSPost2010Prop50
 90
       50
102
RTVSPost2010PropOp50
 70
     1
102
RTVSPost2010Prop51ColorIndex
 90
      256
102
RTVSPost2010Prop51ColorRGB
 90
-16777216
102
RTVSPost2010PropOp51
 70
     0
102
RTVSPost2010Prop52
140
1.0
102
RTVSPost2010PropOp52
 70
     0
102
RTVSPost2010Prop53
 90
        2
102
RTVSPost2010PropOp53
 70
     1
102
RTVSPost2010Prop54
  1
strokes_ogs.tif
102
RTVSPost2010PropOp54
 70
     1
102
RTVSPost2010Prop55
280
     0
102
RTVSPost2010PropOp55
 70
     1
102
RTVSPost2010Prop56
140
1.0
102
RTVSPost2010PropOp56
 70
     1
102
RTVSPost2010Prop57
140
1.0
102
RTVSPost2010PropOp57
 70
     1
  0
XRECORD
  5
37E
102
{ACAD_REACTORS
330
37D
102
}
330
37D
100
AcDbXrecord
280
     1
102
RTVSPost2010Prop28
280
     0
102
RTVSPost2010PropOp28
 70
     0
102
RTVSPost2010Prop29
280
     1
102
RTVSPost2010PropOp29
 70
     0
102
RTVSPost2010Prop30
280
     1
102
RTVSPost2010PropOp30
 70
     0
102
RTVSPost2010Prop31
280
     0
102
RTVSPost2010PropOp31
 70
     0
102
RTVSPost2010Prop32
280
     0
102
RTVSPost2010PropOp32
 70
     0
102
RTVSPost2010Prop33
280
     0
102
RTVSPost2010PropOp33
 70
     0
102
RTVSPost2010Prop34
280
     0
102
RTVSPost2010PropOp34
 70
     0
102
RTVSPost2010Prop35
280
     0
102
RTVSPost2010PropOp35
 70
     0
102
RTVSPost2010Prop36
280
     0
102
RTVSPost2010PropOp36
 70
     0
102
RTVSPost2010Prop37
 90
       50
102
RTVSPost2010PropOp37
 70
     0
102
RTVSPost2010Prop38
140
0.0
102
RTVSPost2010PropOp38
 70
     0
102
RTVSPost2010Prop39
140
1.0
102
RTVSPost2010PropOp39
 70
     0
102
RTVSPost2010Prop40
 90
        0
102
RTVSPost2010PropOp40
 70
     0
102
RTVSPost2010Prop41ColorIndex
 90
       18
102
RTVSPost2010Prop41ColorRGB
 90
        0
102
RTVSPost2010PropOp41
 70
     0
102
RTVSPost2010Prop42
 90
       50
102
RTVSPost2010PropOp42
 70
     0
102
RTVSPost2010Prop43
 90
        3
102
RTVSPost2010PropOp43
 70
     0
102
RTVSPost2010Prop44ColorIndex
 90
        5
102
RTVSPost2010Prop44ColorRGB
 90
      255
102
RTVSPost2010PropOp44
 70
     0
102
RTVSPost2010Prop45
280
     0
102
RTVSPost2010PropOp45
 70
     0
102
RTVSPost2010Prop46
 90
       50
102
RTVSPost2010PropOp46
 70
     0
102
RTVSPost2010Prop47
 90
       50
102
RTVSPost2010PropOp47
 70
     0
102
RTVSPost2010Prop48
 90
       50
102
RTVSPost2010PropOp48
 70
     0
102
RTVSPost2010Prop49
280
     0
102
RTVSPost2010PropOp49
 70
     0
102
RTVSPost2010Prop50
 90
       50
102
RTVSPost2010PropOp50
 70
     0
102
RTVSPost2010Prop51ColorIndex
 90
      256
102
RTVSPost2010Prop51ColorRGB
 90
-16777216
102
RTVSPost2010PropOp51
 70
     0
102
RTVSPost2010Prop52
140
1.0
102
RTVSPost2010PropOp52
 70
     0
102
RTVSPost2010Prop53
 90
        2
102
RTVSPost2010PropOp53
 70
     0
102
RTVSPost2010Prop54
  1
strokes_ogs.tif
102
RTVSPost2010PropOp54
 70
     0
102
RTVSPost2010Prop55
280
     0
102
RTVSPost2010PropOp55
 70
     0
102
RTVSPost2010Prop56
140
1.0
102
RTVSPost2010PropOp56
 70
     0
102
RTVSPost2010Prop57
140
1.0
102
RTVSPost2010PropOp57
 70
     0
  0
XRECORD
  5
376
102
{ACAD_REACTORS
330
375
102
}
330
375
100
AcDbXrecord
280
     1
102
RTVSPost2010Prop28
280
     0
102
RTVSPost2010PropOp28
 70
     1
102
RTVSPost2010Prop29
280
     1
102
RTVSPost2010PropOp29
 70
     1
102
RTVSPost2010Prop30
280
     1
102
RTVSPost2010PropOp30
 70
     1
102
RTVSPost2010Prop31
280
     0
102
RTVSPost2010PropOp31
 70
     1
102
RTVSPost2010Prop32
280
     0
102
RTVSPost2010PropOp32
 70
     1
102
RTVSPost2010Prop33
280
     0
102
RTVSPost2010PropOp33
 70
     1
102
RTVSPost2010Prop34
280
     0
102
RTVSPost2010PropOp34
 70
     1
102
RTVSPost2010Prop35
280
     0
102
RTVSPost2010PropOp35
 70
     1
102
RTVSPost2010Prop36
280
     0
102
RTVSPost2010PropOp36
 70
     1
102
RTVSPost2010Prop37
 90
       50
102
RTVSPost2010PropOp37
 70
     1
102
RTVSPost2010Prop38
140
0.0
102
RTVSPost2010PropOp38
 70
     1
102
RTVSPost2010Prop39
140
1.0
102
RTVSPost2010PropOp39
 70
     1
102
RTVSPost2010Prop40
 90
        0
102
RTVSPost2010PropOp40
 70
     1
102
RTVSPost2010Prop41ColorIndex
 90
       18
102
RTVSPost2010Prop41ColorRGB
 90
        0
102
RTVSPost2010PropOp41
 70
     1
102
RTVSPost2010Prop42
 90
       50
102
RTVSPost2010PropOp42
 70
     1
102
RTVSPost2010Prop43
 90
        3
102
RTVSPost2010PropOp43
 70
     1
102
RTVSPost2010Prop44ColorIndex
 90
        5
102
RTVSPost2010Prop44ColorRGB
 90
      255
102
RTVSPost2010PropOp44
 70
     1
102
RTVSPost2010Prop45
280
     0
102
RTVSPost2010PropOp45
 70
     1
102
RTVSPost2010Prop46
 90
       50
102
RTVSPost2010PropOp46
 70
     1
102
RTVSPost2010Prop47
 90
       50
102
RTVSPost2010PropOp47
 70
     1
102
RTVSPost2010Prop48
 90
       50
102
RTVSPost2010PropOp48
 70
     1
102
RTVSPost2010Prop49
280
     0
102
RTVSPost2010PropOp49
 70
     1
102
RTVSPost2010Prop50
 90
       50
102
RTVSPost2010PropOp50
 70
     1
102
RTVSPost2010Prop51ColorIndex
 90
      256
102
RTVSPost2010Prop51ColorRGB
 90
-16777216
102
RTVSPost2010PropOp51
 70
     0
102
RTVSPost2010Prop52
140
1.0
102
RTVSPost2010PropOp52
 70
     0
102
RTVSPost2010Prop53
 90
        2
102
RTVSPost2010PropOp53
 70
     1
102
RTVSPost2010Prop54
  1
strokes_ogs.tif
102
RTVSPost2010PropOp54
 70
     1
102
RTVSPost2010Prop55
280
     0
102
RTVSPost2010PropOp55
 70
     1
102
RTVSPost2010Prop56
140
1.0
102
RTVSPost2010PropOp56
 70
     1
102
RTVSPost2010Prop57
140
1.0
102
RTVSPost2010PropOp57
 70
     1
  0
XRECORD
  5
35A
102
{ACAD_REACTORS
330
359
102
}
330
359
100
AcDbXrecord
280
     1
102
RTVSPost2010Prop28
280
     0
102
RTVSPost2010PropOp28
 70
     1
102
RTVSPost2010Prop29
280
     1
102
RTVSPost2010PropOp29
 70
     1
102
RTVSPost2010Prop30
280
     1
102
RTVSPost2010PropOp30
 70
     1
102
RTVSPost2010Prop31
280
     0
102
RTVSPost2010PropOp31
 70
     1
102
RTVSPost2010Prop32
280
     0
102
RTVSPost2010PropOp32
 70
     1
102
RTVSPost2010Prop33
280
     0
102
RTVSPost2010PropOp33
 70
     1
102
RTVSPost2010Prop34
280
     0
102
RTVSPost2010PropOp34
 70
     1
102
RTVSPost2010Prop35
280
     0
102
RTVSPost2010PropOp35
 70
     1
102
RTVSPost2010Prop36
280
     0
102
RTVSPost2010PropOp36
 70
     1
102
RTVSPost2010Prop37
 90
       50
102
RTVSPost2010PropOp37
 70
     1
102
RTVSPost2010Prop38
140
0.0
102
RTVSPost2010PropOp38
 70
     1
102
RTVSPost2010Prop39
140
1.0
102
RTVSPost2010PropOp39
 70
     1
102
RTVSPost2010Prop40
 90
        0
102
RTVSPost2010PropOp40
 70
     1
102
RTVSPost2010Prop41ColorIndex
 90
       18
102
RTVSPost2010Prop41ColorRGB
 90
        0
102
RTVSPost2010PropOp41
 70
     1
102
RTVSPost2010Prop42
 90
       50
102
RTVSPost2010PropOp42
 70
     1
102
RTVSPost2010Prop43
 90
        3
102
RTVSPost2010PropOp43
 70
     1
102
RTVSPost2010Prop44ColorIndex
 90
        5
102
RTVSPost2010Prop44ColorRGB
 90
      255
102
RTVSPost2010PropOp44
 70
     1
102
RTVSPost2010Prop45
280
     0
102
RTVSPost2010PropOp45
 70
     1
102
RTVSPost2010Prop46
 90
       50
102
RTVSPost2010PropOp46
 70
     1
102
RTVSPost2010Prop47
 90
       50
102
RTVSPost2010PropOp47
 70
     1
102
RTVSPost2010Prop48
 90
       50
102
RTVSPost2010PropOp48
 70
     1
102
RTVSPost2010Prop49
280
     0
102
RTVSPost2010PropOp49
 70
     1
102
RTVSPost2010Prop50
 90
       50
102
RTVSPost2010PropOp50
 70
     1
102
RTVSPost2010Prop51ColorIndex
 90
      256
102
RTVSPost2010Prop51ColorRGB
 90
-16777216
102
RTVSPost2010PropOp51
 70
     0
102
RTVSPost2010Prop52
140
1.0
102
RTVSPost2010PropOp52
 70
     0
102
RTVSPost2010Prop53
 90
        2
102
RTVSPost2010PropOp53
 70
     1
102
RTVSPost2010Prop54
  1
strokes_ogs.tif
102
RTVSPost2010PropOp54
 70
     1
102
RTVSPost2010Prop55
280
     0
102
RTVSPost2010PropOp55
 70
     1
102
RTVSPost2010Prop56
140
1.0
102
RTVSPost2010PropOp56
 70
     1
102
RTVSPost2010Prop57
140
1.0
102
RTVSPost2010PropOp57
 70
     1
  0
XRECORD
  5
35C
102
{ACAD_REACTORS
330
35B
102
}
330
35B
100
AcDbXrecord
280
     1
102
RTVSPost2010Prop28
280
     0
102
RTVSPost2010PropOp28
 70
     1
102
RTVSPost2010Prop29
280
     1
102
RTVSPost2010PropOp29
 70
     1
102
RTVSPost2010Prop30
280
     1
102
RTVSPost2010PropOp30
 70
     1
102
RTVSPost2010Prop31
280
     0
102
RTVSPost2010PropOp31
 70
     1
102
RTVSPost2010Prop32
280
     0
102
RTVSPost2010PropOp32
 70
     1
102
RTVSPost2010Prop33
280
     0
102
RTVSPost2010PropOp33
 70
     1
102
RTVSPost2010Prop34
280
     0
102
RTVSPost2010PropOp34
 70
     1
102
RTVSPost2010Prop35
280
     0
102
RTVSPost2010PropOp35
 70
     1
102
RTVSPost2010Prop36
280
     0
102
RTVSPost2010PropOp36
 70
     1
102
RTVSPost2010Prop37
 90
       50
102
RTVSPost2010PropOp37
 70
     1
102
RTVSPost2010Prop38
140
0.0
102
RTVSPost2010PropOp38
 70
     1
102
RTVSPost2010Prop39
140
1.0
102
RTVSPost2010PropOp39
 70
     1
102
RTVSPost2010Prop40
 90
        0
102
RTVSPost2010PropOp40
 70
     1
102
RTVSPost2010Prop41ColorIndex
 90
       18
102
RTVSPost2010Prop41ColorRGB
 90
        0
102
RTVSPost2010PropOp41
 70
     1
102
RTVSPost2010Prop42
 90
       50
102
RTVSPost2010PropOp42
 70
     1
102
RTVSPost2010Prop43
 90
        3
102
RTVSPost2010PropOp43
 70
     1
102
RTVSPost2010Prop44ColorIndex
 90
        5
102
RTVSPost2010Prop44ColorRGB
 90
      255
102
RTVSPost2010PropOp44
 70
     1
102
RTVSPost2010Prop45
280
     0
102
RTVSPost2010PropOp45
 70
     1
102
RTVSPost2010Prop46
 90
       50
102
RTVSPost2010PropOp46
 70
     1
102
RTVSPost2010Prop47
 90
       50
102
RTVSPost2010PropOp47
 70
     1
102
RTVSPost2010Prop48
 90
       50
102
RTVSPost2010PropOp48
 70
     1
102
RTVSPost2010Prop49
280
     0
102
RTVSPost2010PropOp49
 70
     1
102
RTVSPost2010Prop50
 90
       50
102
RTVSPost2010PropOp50
 70
     1
102
RTVSPost2010Prop51ColorIndex
 90
      256
102
RTVSPost2010Prop51ColorRGB
 90
-16777216
102
RTVSPost2010PropOp51
 70
     0
102
RTVSPost2010Prop52
140
1.0
102
RTVSPost2010PropOp52
 70
     0
102
RTVSPost2010Prop53
 90
        2
102
RTVSPost2010PropOp53
 70
     1
102
RTVSPost2010Prop54
  1
strokes_ogs.tif
102
RTVSPost2010PropOp54
 70
     1
102
RTVSPost2010Prop55
280
     0
102
RTVSPost2010PropOp55
 70
     1
102
RTVSPost2010Prop56
140
1.0
102
RTVSPost2010PropOp56
 70
     1
102
RTVSPost2010Prop57
140
1.0
102
RTVSPost2010PropOp57
 70
     1
  0
XRECORD
  5
35E
102
{ACAD_REACTORS
330
35D
102
}
330
35D
100
AcDbXrecord
280
     1
102
RTVSPost2010Prop28
280
     0
102
RTVSPost2010PropOp28
 70
     1
102
RTVSPost2010Prop29
280
     1
102
RTVSPost2010PropOp29
 70
     1
102
RTVSPost2010Prop30
280
     1
102
RTVSPost2010PropOp30
 70
     1
102
RTVSPost2010Prop31
280
     0
102
RTVSPost2010PropOp31
 70
     1
102
RTVSPost2010Prop32
280
     0
102
RTVSPost2010PropOp32
 70
     1
102
RTVSPost2010Prop33
280
     0
102
RTVSPost2010PropOp33
 70
     1
102
RTVSPost2010Prop34
280
     0
102
RTVSPost2010PropOp34
 70
     1
102
RTVSPost2010Prop35
280
     0
102
RTVSPost2010PropOp35
 70
     1
102
RTVSPost2010Prop36
280
     0
102
RTVSPost2010PropOp36
 70
     1
102
RTVSPost2010Prop37
 90
       50
102
RTVSPost2010PropOp37
 70
     1
102
RTVSPost2010Prop38
140
0.0
102
RTVSPost2010PropOp38
 70
     1
102
RTVSPost2010Prop39
140
1.0
102
RTVSPost2010PropOp39
 70
     1
102
RTVSPost2010Prop40
 90
        0
102
RTVSPost2010PropOp40
 70
     1
102
RTVSPost2010Prop41ColorIndex
 90
       18
102
RTVSPost2010Prop41ColorRGB
 90
        0
102
RTVSPost2010PropOp41
 70
     1
102
RTVSPost2010Prop42
 90
       50
102
RTVSPost2010PropOp42
 70
     1
102
RTVSPost2010Prop43
 90
        3
102
RTVSPost2010PropOp43
 70
     1
102
RTVSPost2010Prop44ColorIndex
 90
        5
102
RTVSPost2010Prop44ColorRGB
 90
      255
102
RTVSPost2010PropOp44
 70
     1
102
RTVSPost2010Prop45
280
     0
102
RTVSPost2010PropOp45
 70
     1
102
RTVSPost2010Prop46
 90
       50
102
RTVSPost2010PropOp46
 70
     1
102
RTVSPost2010Prop47
 90
       50
102
RTVSPost2010PropOp47
 70
     1
102
RTVSPost2010Prop48
 90
       50
102
RTVSPost2010PropOp48
 70
     1
102
RTVSPost2010Prop49
280
     0
102
RTVSPost2010PropOp49
 70
     1
102
RTVSPost2010Prop50
 90
       50
102
RTVSPost2010PropOp50
 70
     1
102
RTVSPost2010Prop51ColorIndex
 90
      256
102
RTVSPost2010Prop51ColorRGB
 90
-16777216
102
RTVSPost2010PropOp51
 70
     0
102
RTVSPost2010Prop52
140
1.0
102
RTVSPost2010PropOp52
 70
     0
102
RTVSPost2010Prop53
 90
        2
102
RTVSPost2010PropOp53
 70
     1
102
RTVSPost2010Prop54
  1
strokes_ogs.tif
102
RTVSPost2010PropOp54
 70
     1
102
RTVSPost2010Prop55
280
     0
102
RTVSPost2010PropOp55
 70
     1
102
RTVSPost2010Prop56
140
1.0
102
RTVSPost2010PropOp56
 70
     1
102
RTVSPost2010Prop57
140
1.0
102
RTVSPost2010PropOp57
 70
     1
  0
XRECORD
  5
360
102
{ACAD_REACTORS
330
35F
102
}
330
35F
100
AcDbXrecord
280
     1
102
RTVSPost2010Prop28
280
     0
102
RTVSPost2010PropOp28
 70
     1
102
RTVSPost2010Prop29
280
     1
102
RTVSPost2010PropOp29
 70
     1
102
RTVSPost2010Prop30
280
     1
102
RTVSPost2010PropOp30
 70
     1
102
RTVSPost2010Prop31
280
     0
102
RTVSPost2010PropOp31
 70
     1
102
RTVSPost2010Prop32
280
     0
102
RTVSPost2010PropOp32
 70
     1
102
RTVSPost2010Prop33
280
     0
102
RTVSPost2010PropOp33
 70
     1
102
RTVSPost2010Prop34
280
     0
102
RTVSPost2010PropOp34
 70
     1
102
RTVSPost2010Prop35
280
     0
102
RTVSPost2010PropOp35
 70
     1
102
RTVSPost2010Prop36
280
     0
102
RTVSPost2010PropOp36
 70
     1
102
RTVSPost2010Prop37
 90
       50
102
RTVSPost2010PropOp37
 70
     1
102
RTVSPost2010Prop38
140
0.0
102
RTVSPost2010PropOp38
 70
     1
102
RTVSPost2010Prop39
140
1.0
102
RTVSPost2010PropOp39
 70
     1
102
RTVSPost2010Prop40
 90
        0
102
RTVSPost2010PropOp40
 70
     1
102
RTVSPost2010Prop41ColorIndex
 90
       18
102
RTVSPost2010Prop41ColorRGB
 90
        0
102
RTVSPost2010PropOp41
 70
     1
102
RTVSPost2010Prop42
 90
       50
102
RTVSPost2010PropOp42
 70
     1
102
RTVSPost2010Prop43
 90
        3
102
RTVSPost2010PropOp43
 70
     1
102
RTVSPost2010Prop44ColorIndex
 90
        5
102
RTVSPost2010Prop44ColorRGB
 90
      255
102
RTVSPost2010PropOp44
 70
     1
102
RTVSPost2010Prop45
280
     0
102
RTVSPost2010PropOp45
 70
     1
102
RTVSPost2010Prop46
 90
       50
102
RTVSPost2010PropOp46
 70
     1
102
RTVSPost2010Prop47
 90
       50
102
RTVSPost2010PropOp47
 70
     1
102
RTVSPost2010Prop48
 90
       50
102
RTVSPost2010PropOp48
 70
     1
102
RTVSPost2010Prop49
280
     0
102
RTVSPost2010PropOp49
 70
     1
102
RTVSPost2010Prop50
 90
       50
102
RTVSPost2010PropOp50
 70
     1
102
RTVSPost2010Prop51ColorIndex
 90
      256
102
RTVSPost2010Prop51ColorRGB
 90
-16777216
102
RTVSPost2010PropOp51
 70
     0
102
RTVSPost2010Prop52
140
1.0
102
RTVSPost2010PropOp52
 70
     0
102
RTVSPost2010Prop53
 90
        2
102
RTVSPost2010PropOp53
 70
     1
102
RTVSPost2010Prop54
  1
strokes_ogs.tif
102
RTVSPost2010PropOp54
 70
     1
102
RTVSPost2010Prop55
280
     0
102
RTVSPost2010PropOp55
 70
     1
102
RTVSPost2010Prop56
140
1.0
102
RTVSPost2010PropOp56
 70
     1
102
RTVSPost2010Prop57
140
1.0
102
RTVSPost2010PropOp57
 70
     1
  0
XRECORD
  5
366
102
{ACAD_REACTORS
330
365
102
}
330
365
100
AcDbXrecord
280
     1
102
RTVSPost2010Prop28
280
     0
102
RTVSPost2010PropOp28
 70
     1
102
RTVSPost2010Prop29
280
     1
102
RTVSPost2010PropOp29
 70
     1
102
RTVSPost2010Prop30
280
     1
102
RTVSPost2010PropOp30
 70
     1
102
RTVSPost2010Prop31
280
     0
102
RTVSPost2010PropOp31
 70
     1
102
RTVSPost2010Prop32
280
     0
102
RTVSPost2010PropOp32
 70
     1
102
RTVSPost2010Prop33
280
     0
102
RTVSPost2010PropOp33
 70
     1
102
RTVSPost2010Prop34
280
     0
102
RTVSPost2010PropOp34
 70
     1
102
RTVSPost2010Prop35
280
     0
102
RTVSPost2010PropOp35
 70
     1
102
RTVSPost2010Prop36
280
     0
102
RTVSPost2010PropOp36
 70
     1
102
RTVSPost2010Prop37
 90
       50
102
RTVSPost2010PropOp37
 70
     1
102
RTVSPost2010Prop38
140
0.0
102
RTVSPost2010PropOp38
 70
     1
102
RTVSPost2010Prop39
140
1.0
102
RTVSPost2010PropOp39
 70
     1
102
RTVSPost2010Prop40
 90
        0
102
RTVSPost2010PropOp40
 70
     1
102
RTVSPost2010Prop41ColorIndex
 90
       18
102
RTVSPost2010Prop41ColorRGB
 90
        0
102
RTVSPost2010PropOp41
 70
     1
102
RTVSPost2010Prop42
 90
       50
102
RTVSPost2010PropOp42
 70
     1
102
RTVSPost2010Prop43
 90
        3
102
RTVSPost2010PropOp43
 70
     1
102
RTVSPost2010Prop44ColorIndex
 90
        5
102
RTVSPost2010Prop44ColorRGB
 90
      255
102
RTVSPost2010PropOp44
 70
     1
102
RTVSPost2010Prop45
280
     0
102
RTVSPost2010PropOp45
 70
     1
102
RTVSPost2010Prop46
 90
       50
102
RTVSPost2010PropOp46
 70
     1
102
RTVSPost2010Prop47
 90
       50
102
RTVSPost2010PropOp47
 70
     1
102
RTVSPost2010Prop48
 90
       50
102
RTVSPost2010PropOp48
 70
     1
102
RTVSPost2010Prop49
280
     0
102
RTVSPost2010PropOp49
 70
     1
102
RTVSPost2010Prop50
 90
       50
102
RTVSPost2010PropOp50
 70
     1
102
RTVSPost2010Prop51ColorIndex
 90
      256
102
RTVSPost2010Prop51ColorRGB
 90
-16777216
102
RTVSPost2010PropOp51
 70
     0
102
RTVSPost2010Prop52
140
1.0
102
RTVSPost2010PropOp52
 70
     0
102
RTVSPost2010Prop53
 90
        2
102
RTVSPost2010PropOp53
 70
     1
102
RTVSPost2010Prop54
  1
strokes_ogs.tif
102
RTVSPost2010PropOp54
 70
     1
102
RTVSPost2010Prop55
280
     0
102
RTVSPost2010PropOp55
 70
     1
102
RTVSPost2010Prop56
140
1.0
102
RTVSPost2010PropOp56
 70
     1
102
RTVSPost2010Prop57
140
1.0
102
RTVSPost2010PropOp57
 70
     1
  0
XRECORD
  5
37A
102
{ACAD_REACTORS
330
379
102
}
330
379
100
AcDbXrecord
280
     1
102
RTVSPost2010Prop28
280
     0
102
RTVSPost2010PropOp28
 70
     0
102
RTVSPost2010Prop29
280
     1
102
RTVSPost2010PropOp29
 70
     0
102
RTVSPost2010Prop30
280
     1
102
RTVSPost2010PropOp30
 70
     0
102
RTVSPost2010Prop31
280
     0
102
RTVSPost2010PropOp31
 70
     0
102
RTVSPost2010Prop32
280
     0
102
RTVSPost2010PropOp32
 70
     0
102
RTVSPost2010Prop33
280
     0
102
RTVSPost2010PropOp33
 70
     0
102
RTVSPost2010Prop34
280
     0
102
RTVSPost2010PropOp34
 70
     0
102
RTVSPost2010Prop35
280
     0
102
RTVSPost2010PropOp35
 70
     0
102
RTVSPost2010Prop36
280
     0
102
RTVSPost2010PropOp36
 70
     0
102
RTVSPost2010Prop37
 90
       50
102
RTVSPost2010PropOp37
 70
     0
102
RTVSPost2010Prop38
140
0.0
102
RTVSPost2010PropOp38
 70
     0
102
RTVSPost2010Prop39
140
1.0
102
RTVSPost2010PropOp39
 70
     0
102
RTVSPost2010Prop40
 90
        0
102
RTVSPost2010PropOp40
 70
     0
102
RTVSPost2010Prop41ColorIndex
 90
       18
102
RTVSPost2010Prop41ColorRGB
 90
        0
102
RTVSPost2010PropOp41
 70
     0
102
RTVSPost2010Prop42
 90
       50
102
RTVSPost2010PropOp42
 70
     0
102
RTVSPost2010Prop43
 90
        3
102
RTVSPost2010PropOp43
 70
     0
102
RTVSPost2010Prop44ColorIndex
 90
        5
102
RTVSPost2010Prop44ColorRGB
 90
      255
102
RTVSPost2010PropOp44
 70
     0
102
RTVSPost2010Prop45
280
     0
102
RTVSPost2010PropOp45
 70
     0
102
RTVSPost2010Prop46
 90
       50
102
RTVSPost2010PropOp46
 70
     0
102
RTVSPost2010Prop47
 90
       50
102
RTVSPost2010PropOp47
 70
     0
102
RTVSPost2010Prop48
 90
       50
102
RTVSPost2010PropOp48
 70
     0
102
RTVSPost2010Prop49
280
     0
102
RTVSPost2010PropOp49
 70
     0
102
RTVSPost2010Prop50
 90
       50
102
RTVSPost2010PropOp50
 70
     0
102
RTVSPost2010Prop51ColorIndex
 90
      256
102
RTVSPost2010Prop51ColorRGB
 90
-16777216
102
RTVSPost2010PropOp51
 70
     0
102
RTVSPost2010Prop52
140
1.0
102
RTVSPost2010PropOp52
 70
     0
102
RTVSPost2010Prop53
 90
        2
102
RTVSPost2010PropOp53
 70
     0
102
RTVSPost2010Prop54
  1
strokes_ogs.tif
102
RTVSPost2010PropOp54
 70
     0
102
RTVSPost2010Prop55
280
     0
102
RTVSPost2010PropOp55
 70
     0
102
RTVSPost2010Prop56
140
1.0
102
RTVSPost2010PropOp56
 70
     0
102
RTVSPost2010Prop57
140
1.0
102
RTVSPost2010PropOp57
 70
     0
  0
XRECORD
  5
374
102
{ACAD_REACTORS
330
373
102
}
330
373
100
AcDbXrecord
280
     1
102
RTVSPost2010Prop28
280
     0
102
RTVSPost2010PropOp28
 70
     1
102
RTVSPost2010Prop29
280
     1
102
RTVSPost2010PropOp29
 70
     1
102
RTVSPost2010Prop30
280
     1
102
RTVSPost2010PropOp30
 70
     1
102
RTVSPost2010Prop31
280
     0
102
RTVSPost2010PropOp31
 70
     1
102
RTVSPost2010Prop32
280
     0
102
RTVSPost2010PropOp32
 70
     1
102
RTVSPost2010Prop33
280
     0
102
RTVSPost2010PropOp33
 70
     1
102
RTVSPost2010Prop34
280
     0
102
RTVSPost2010PropOp34
 70
     1
102
RTVSPost2010Prop35
280
     0
102
RTVSPost2010PropOp35
 70
     1
102
RTVSPost2010Prop36
280
     0
102
RTVSPost2010PropOp36
 70
     1
102
RTVSPost2010Prop37
 90
       50
102
RTVSPost2010PropOp37
 70
     1
102
RTVSPost2010Prop38
140
0.0
102
RTVSPost2010PropOp38
 70
     1
102
RTVSPost2010Prop39
140
1.0
102
RTVSPost2010PropOp39
 70
     1
102
RTVSPost2010Prop40
 90
        0
102
RTVSPost2010PropOp40
 70
     1
102
RTVSPost2010Prop41ColorIndex
 90
       18
102
RTVSPost2010Prop41ColorRGB
 90
        0
102
RTVSPost2010PropOp41
 70
     1
102
RTVSPost2010Prop42
 90
       50
102
RTVSPost2010PropOp42
 70
     1
102
RTVSPost2010Prop43
 90
        3
102
RTVSPost2010PropOp43
 70
     1
102
RTVSPost2010Prop44ColorIndex
 90
        5
102
RTVSPost2010Prop44ColorRGB
 90
      255
102
RTVSPost2010PropOp44
 70
     1
102
RTVSPost2010Prop45
280
     0
102
RTVSPost2010PropOp45
 70
     1
102
RTVSPost2010Prop46
 90
       50
102
RTVSPost2010PropOp46
 70
     1
102
RTVSPost2010Prop47
 90
       50
102
RTVSPost2010PropOp47
 70
     1
102
RTVSPost2010Prop48
 90
       50
102
RTVSPost2010PropOp48
 70
     1
102
RTVSPost2010Prop49
280
     0
102
RTVSPost2010PropOp49
 70
     1
102
RTVSPost2010Prop50
 90
       50
102
RTVSPost2010PropOp50
 70
     1
102
RTVSPost2010Prop51ColorIndex
 90
      256
102
RTVSPost2010Prop51ColorRGB
 90
-16777216
102
RTVSPost2010PropOp51
 70
     0
102
RTVSPost2010Prop52
140
1.0
102
RTVSPost2010PropOp52
 70
     0
102
RTVSPost2010Prop53
 90
        2
102
RTVSPost2010PropOp53
 70
     1
102
RTVSPost2010Prop54
  1
strokes_ogs.tif
102
RTVSPost2010PropOp54
 70
     1
102
RTVSPost2010Prop55
280
     0
102
RTVSPost2010PropOp55
 70
     1
102
RTVSPost2010Prop56
140
1.0
102
RTVSPost2010PropOp56
 70
     1
102
RTVSPost2010Prop57
140
1.0
102
RTVSPost2010PropOp57
 70
     1
  0
XRECORD
  5
37C
102
{ACAD_REACTORS
330
37B
102
}
330
37B
100
AcDbXrecord
280
     1
102
RTVSPost2010Prop28
280
     0
102
RTVSPost2010PropOp28
 70
     0
102
RTVSPost2010Prop29
280
     1
102
RTVSPost2010PropOp29
 70
     0
102
RTVSPost2010Prop30
280
     1
102
RTVSPost2010PropOp30
 70
     0
102
RTVSPost2010Prop31
280
     0
102
RTVSPost2010PropOp31
 70
     0
102
RTVSPost2010Prop32
280
     0
102
RTVSPost2010PropOp32
 70
     0
102
RTVSPost2010Prop33
280
     0
102
RTVSPost2010PropOp33
 70
     0
102
RTVSPost2010Prop34
280
     0
102
RTVSPost2010PropOp34
 70
     0
102
RTVSPost2010Prop35
280
     0
102
RTVSPost2010PropOp35
 70
     0
102
RTVSPost2010Prop36
280
     0
102
RTVSPost2010PropOp36
 70
     0
102
RTVSPost2010Prop37
 90
       50
102
RTVSPost2010PropOp37
 70
     0
102
RTVSPost2010Prop38
140
0.0
102
RTVSPost2010PropOp38
 70
     0
102
RTVSPost2010Prop39
140
1.0
102
RTVSPost2010PropOp39
 70
     0
102
RTVSPost2010Prop40
 90
        0
102
RTVSPost2010PropOp40
 70
     0
102
RTVSPost2010Prop41ColorIndex
 90
       18
102
RTVSPost2010Prop41ColorRGB
 90
        0
102
RTVSPost2010PropOp41
 70
     0
102
RTVSPost2010Prop42
 90
       50
102
RTVSPost2010PropOp42
 70
     0
102
RTVSPost2010Prop43
 90
        3
102
RTVSPost2010PropOp43
 70
     0
102
RTVSPost2010Prop44ColorIndex
 90
        5
102
RTVSPost2010Prop44ColorRGB
 90
      255
102
RTVSPost2010PropOp44
 70
     0
102
RTVSPost2010Prop45
280
     0
102
RTVSPost2010PropOp45
 70
     0
102
RTVSPost2010Prop46
 90
       50
102
RTVSPost2010PropOp46
 70
     0
102
RTVSPost2010Prop47
 90
       50
102
RTVSPost2010PropOp47
 70
     0
102
RTVSPost2010Prop48
 90
       50
102
RTVSPost2010PropOp48
 70
     0
102
RTVSPost2010Prop49
280
     0
102
RTVSPost2010PropOp49
 70
     0
102
RTVSPost2010Prop50
 90
       50
102
RTVSPost2010PropOp50
 70
     0
102
RTVSPost2010Prop51ColorIndex
 90
      256
102
RTVSPost2010Prop51ColorRGB
 90
-16777216
102
RTVSPost2010PropOp51
 70
     0
102
RTVSPost2010Prop52
140
1.0
102
RTVSPost2010PropOp52
 70
     0
102
RTVSPost2010Prop53
 90
        2
102
RTVSPost2010PropOp53
 70
     0
102
RTVSPost2010Prop54
  1
strokes_ogs.tif
102
RTVSPost2010PropOp54
 70
     0
102
RTVSPost2010Prop55
280
     0
102
RTVSPost2010PropOp55
 70
     0
102
RTVSPost2010Prop56
140
1.0
102
RTVSPost2010PropOp56
 70
     0
102
RTVSPost2010Prop57
140
1.0
102
RTVSPost2010PropOp57
 70
     0
  0
XRECORD
  5
36A
102
{ACAD_REACTORS
330
369
102
}
330
369
100
AcDbXrecord
280
     1
102
RTVSPost2010Prop28
280
     0
102
RTVSPost2010PropOp28
 70
     1
102
RTVSPost2010Prop29
280
     1
102
RTVSPost2010PropOp29
 70
     1
102
RTVSPost2010Prop30
280
     1
102
RTVSPost2010PropOp30
 70
     1
102
RTVSPost2010Prop31
280
     0
102
RTVSPost2010PropOp31
 70
     1
102
RTVSPost2010Prop32
280
     0
102
RTVSPost2010PropOp32
 70
     1
102
RTVSPost2010Prop33
280
     0
102
RTVSPost2010PropOp33
 70
     1
102
RTVSPost2010Prop34
280
     0
102
RTVSPost2010PropOp34
 70
     1
102
RTVSPost2010Prop35
280
     0
102
RTVSPost2010PropOp35
 70
     1
102
RTVSPost2010Prop36
280
     0
102
RTVSPost2010PropOp36
 70
     1
102
RTVSPost2010Prop37
 90
       50
102
RTVSPost2010PropOp37
 70
     1
102
RTVSPost2010Prop38
140
0.0
102
RTVSPost2010PropOp38
 70
     1
102
RTVSPost2010Prop39
140
1.0
102
RTVSPost2010PropOp39
 70
     1
102
RTVSPost2010Prop40
 90
        0
102
RTVSPost2010PropOp40
 70
     1
102
RTVSPost2010Prop41ColorIndex
 90
       18
102
RTVSPost2010Prop41ColorRGB
 90
        0
102
RTVSPost2010PropOp41
 70
     1
102
RTVSPost2010Prop42
 90
       50
102
RTVSPost2010PropOp42
 70
     1
102
RTVSPost2010Prop43
 90
        3
102
RTVSPost2010PropOp43
 70
     1
102
RTVSPost2010Prop44ColorIndex
 90
        5
102
RTVSPost2010Prop44ColorRGB
 90
      255
102
RTVSPost2010PropOp44
 70
     1
102
RTVSPost2010Prop45
280
     0
102
RTVSPost2010PropOp45
 70
     1
102
RTVSPost2010Prop46
 90
       50
102
RTVSPost2010PropOp46
 70
     1
102
RTVSPost2010Prop47
 90
       50
102
RTVSPost2010PropOp47
 70
     1
102
RTVSPost2010Prop48
 90
       50
102
RTVSPost2010PropOp48
 70
     1
102
RTVSPost2010Prop49
280
     0
102
RTVSPost2010PropOp49
 70
     1
102
RTVSPost2010Prop50
 90
       50
102
RTVSPost2010PropOp50
 70
     1
102
RTVSPost2010Prop51ColorIndex
 90
      256
102
RTVSPost2010Prop51ColorRGB
 90
-16777216
102
RTVSPost2010PropOp51
 70
     0
102
RTVSPost2010Prop52
140
1.0
102
RTVSPost2010PropOp52
 70
     0
102
RTVSPost2010Prop53
 90
        2
102
RTVSPost2010PropOp53
 70
     1
102
RTVSPost2010Prop54
  1
strokes_ogs.tif
102
RTVSPost2010PropOp54
 70
     1
102
RTVSPost2010Prop55
280
     0
102
RTVSPost2010PropOp55
 70
     1
102
RTVSPost2010Prop56
140
1.0
102
RTVSPost2010PropOp56
 70
     1
102
RTVSPost2010Prop57
140
1.0
102
RTVSPost2010PropOp57
 70
     1
  0
XRECORD
  5
388
102
{ACAD_REACTORS
330
387
102
}
330
387
100
AcDbXrecord
280
     1
102
RTVSPost2010Prop28
280
     0
102
RTVSPost2010PropOp28
 70
     1
102
RTVSPost2010Prop29
280
     1
102
RTVSPost2010PropOp29
 70
     1
102
RTVSPost2010Prop30
280
     1
102
RTVSPost2010PropOp30
 70
     1
102
RTVSPost2010Prop31
280
     0
102
RTVSPost2010PropOp31
 70
     1
102
RTVSPost2010Prop32
280
     0
102
RTVSPost2010PropOp32
 70
     1
102
RTVSPost2010Prop33
280
     0
102
RTVSPost2010PropOp33
 70
     1
102
RTVSPost2010Prop34
280
     0
102
RTVSPost2010PropOp34
 70
     1
102
RTVSPost2010Prop35
280
     0
102
RTVSPost2010PropOp35
 70
     1
102
RTVSPost2010Prop36
280
     0
102
RTVSPost2010PropOp36
 70
     1
102
RTVSPost2010Prop37
 90
       50
102
RTVSPost2010PropOp37
 70
     1
102
RTVSPost2010Prop38
140
0.0
102
RTVSPost2010PropOp38
 70
     1
102
RTVSPost2010Prop39
140
1.0
102
RTVSPost2010PropOp39
 70
     1
102
RTVSPost2010Prop40
 90
        0
102
RTVSPost2010PropOp40
 70
     1
102
RTVSPost2010Prop41ColorIndex
 90
       18
102
RTVSPost2010Prop41ColorRGB
 90
        0
102
RTVSPost2010PropOp41
 70
     1
102
RTVSPost2010Prop42
 90
       50
102
RTVSPost2010PropOp42
 70
     1
102
RTVSPost2010Prop43
 90
        3
102
RTVSPost2010PropOp43
 70
     1
102
RTVSPost2010Prop44ColorIndex
 90
        5
102
RTVSPost2010Prop44ColorRGB
 90
      255
102
RTVSPost2010PropOp44
 70
     1
102
RTVSPost2010Prop45
280
     0
102
RTVSPost2010PropOp45
 70
     1
102
RTVSPost2010Prop46
 90
       50
102
RTVSPost2010PropOp46
 70
     1
102
RTVSPost2010Prop47
 90
       50
102
RTVSPost2010PropOp47
 70
     1
102
RTVSPost2010Prop48
 90
       50
102
RTVSPost2010PropOp48
 70
     1
102
RTVSPost2010Prop49
280
     0
102
RTVSPost2010PropOp49
 70
     1
102
RTVSPost2010Prop50
 90
       50
102
RTVSPost2010PropOp50
 70
     1
102
RTVSPost2010Prop51ColorIndex
 90
      256
102
RTVSPost2010Prop51ColorRGB
 90
-16777216
102
RTVSPost2010PropOp51
 70
     0
102
RTVSPost2010Prop52
140
1.0
102
RTVSPost2010PropOp52
 70
     0
102
RTVSPost2010Prop53
 90
        2
102
RTVSPost2010PropOp53
 70
     1
102
RTVSPost2010Prop54
  1
strokes_ogs.tif
102
RTVSPost2010PropOp54
 70
     1
102
RTVSPost2010Prop55
280
     0
102
RTVSPost2010PropOp55
 70
     1
102
RTVSPost2010Prop56
140
1.0
102
RTVSPost2010PropOp56
 70
     1
102
RTVSPost2010Prop57
140
1.0
102
RTVSPost2010PropOp57
 70
     1
  0
XRECORD
  5
386
102
{ACAD_REACTORS
330
385
102
}
330
385
100
AcDbXrecord
280
     1
102
RTVSPost2010Prop28
280
     0
102
RTVSPost2010PropOp28
 70
     1
102
RTVSPost2010Prop29
280
     1
102
RTVSPost2010PropOp29
 70
     1
102
RTVSPost2010Prop30
280
     1
102
RTVSPost2010PropOp30
 70
     1
102
RTVSPost2010Prop31
280
     0
102
RTVSPost2010PropOp31
 70
     1
102
RTVSPost2010Prop32
280
     0
102
RTVSPost2010PropOp32
 70
     1
102
RTVSPost2010Prop33
280
     0
102
RTVSPost2010PropOp33
 70
     1
102
RTVSPost2010Prop34
280
     0
102
RTVSPost2010PropOp34
 70
     1
102
RTVSPost2010Prop35
280
     0
102
RTVSPost2010PropOp35
 70
     1
102
RTVSPost2010Prop36
280
     0
102
RTVSPost2010PropOp36
 70
     1
102
RTVSPost2010Prop37
 90
       50
102
RTVSPost2010PropOp37
 70
     1
102
RTVSPost2010Prop38
140
0.0
102
RTVSPost2010PropOp38
 70
     1
102
RTVSPost2010Prop39
140
1.0
102
RTVSPost2010PropOp39
 70
     1
102
RTVSPost2010Prop40
 90
        0
102
RTVSPost2010PropOp40
 70
     1
102
RTVSPost2010Prop41ColorIndex
 90
       18
102
RTVSPost2010Prop41ColorRGB
 90
        0
102
RTVSPost2010PropOp41
 70
     1
102
RTVSPost2010Prop42
 90
       50
102
RTVSPost2010PropOp42
 70
     1
102
RTVSPost2010Prop43
 90
        3
102
RTVSPost2010PropOp43
 70
     1
102
RTVSPost2010Prop44ColorIndex
 90
        5
102
RTVSPost2010Prop44ColorRGB
 90
      255
102
RTVSPost2010PropOp44
 70
     1
102
RTVSPost2010Prop45
280
     0
102
RTVSPost2010PropOp45
 70
     1
102
RTVSPost2010Prop46
 90
       50
102
RTVSPost2010PropOp46
 70
     1
102
RTVSPost2010Prop47
 90
       50
102
RTVSPost2010PropOp47
 70
     1
102
RTVSPost2010Prop48
 90
       50
102
RTVSPost2010PropOp48
 70
     1
102
RTVSPost2010Prop49
280
     0
102
RTVSPost2010PropOp49
 70
     1
102
RTVSPost2010Prop50
 90
       50
102
RTVSPost2010PropOp50
 70
     1
102
RTVSPost2010Prop51ColorIndex
 90
      256
102
RTVSPost2010Prop51ColorRGB
 90
-16777216
102
RTVSPost2010PropOp51
 70
     0
102
RTVSPost2010Prop52
140
1.0
102
RTVSPost2010PropOp52
 70
     0
102
RTVSPost2010Prop53
 90
        2
102
RTVSPost2010PropOp53
 70
     1
102
RTVSPost2010Prop54
  1
strokes_ogs.tif
102
RTVSPost2010PropOp54
 70
     1
102
RTVSPost2010Prop55
280
     0
102
RTVSPost2010PropOp55
 70
     1
102
RTVSPost2010Prop56
140
1.0
102
RTVSPost2010PropOp56
 70
     1
102
RTVSPost2010Prop57
140
1.0
102
RTVSPost2010PropOp57
 70
     1
  0
XRECORD
  5
380
102
{ACAD_REACTORS
330
37F
102
}
330
37F
100
AcDbXrecord
280
     1
102
RTVSPost2010Prop28
280
     0
102
RTVSPost2010PropOp28
 70
     1
102
RTVSPost2010Prop29
280
     1
102
RTVSPost2010PropOp29
 70
     1
102
RTVSPost2010Prop30
280
     1
102
RTVSPost2010PropOp30
 70
     1
102
RTVSPost2010Prop31
280
     0
102
RTVSPost2010PropOp31
 70
     1
102
RTVSPost2010Prop32
280
     0
102
RTVSPost2010PropOp32
 70
     1
102
RTVSPost2010Prop33
280
     0
102
RTVSPost2010PropOp33
 70
     1
102
RTVSPost2010Prop34
280
     0
102
RTVSPost2010PropOp34
 70
     1
102
RTVSPost2010Prop35
280
     0
102
RTVSPost2010PropOp35
 70
     1
102
RTVSPost2010Prop36
280
     0
102
RTVSPost2010PropOp36
 70
     1
102
RTVSPost2010Prop37
 90
       50
102
RTVSPost2010PropOp37
 70
     1
102
RTVSPost2010Prop38
140
0.0
102
RTVSPost2010PropOp38
 70
     1
102
RTVSPost2010Prop39
140
1.0
102
RTVSPost2010PropOp39
 70
     1
102
RTVSPost2010Prop40
 90
        0
102
RTVSPost2010PropOp40
 70
     1
102
RTVSPost2010Prop41ColorIndex
 90
       18
102
RTVSPost2010Prop41ColorRGB
 90
        0
102
RTVSPost2010PropOp41
 70
     1
102
RTVSPost2010Prop42
 90
       50
102
RTVSPost2010PropOp42
 70
     1
102
RTVSPost2010Prop43
 90
        3
102
RTVSPost2010PropOp43
 70
     1
102
RTVSPost2010Prop44ColorIndex
 90
        5
102
RTVSPost2010Prop44ColorRGB
 90
      255
102
RTVSPost2010PropOp44
 70
     1
102
RTVSPost2010Prop45
280
     0
102
RTVSPost2010PropOp45
 70
     1
102
RTVSPost2010Prop46
 90
       50
102
RTVSPost2010PropOp46
 70
     1
102
RTVSPost2010Prop47
 90
       50
102
RTVSPost2010PropOp47
 70
     1
102
RTVSPost2010Prop48
 90
       50
102
RTVSPost2010PropOp48
 70
     1
102
RTVSPost2010Prop49
280
     0
102
RTVSPost2010PropOp49
 70
     1
102
RTVSPost2010Prop50
 90
       50
102
RTVSPost2010PropOp50
 70
     1
102
RTVSPost2010Prop51ColorIndex
 90
      256
102
RTVSPost2010Prop51ColorRGB
 90
-16777216
102
RTVSPost2010PropOp51
 70
     0
102
RTVSPost2010Prop52
140
1.0
102
RTVSPost2010PropOp52
 70
     0
102
RTVSPost2010Prop53
 90
        2
102
RTVSPost2010PropOp53
 70
     1
102
RTVSPost2010Prop54
  1
strokes_ogs.tif
102
RTVSPost2010PropOp54
 70
     1
102
RTVSPost2010Prop55
280
     0
102
RTVSPost2010PropOp55
 70
     1
102
RTVSPost2010Prop56
140
1.0
102
RTVSPost2010PropOp56
 70
     1
102
RTVSPost2010Prop57
140
1.0
102
RTVSPost2010PropOp57
 70
     1
  0
XRECORD
  5
382
102
{ACAD_REACTORS
330
381
102
}
330
381
100
AcDbXrecord
280
     1
102
RTVSPost2010Prop28
280
     0
102
RTVSPost2010PropOp28
 70
     1
102
RTVSPost2010Prop29
280
     1
102
RTVSPost2010PropOp29
 70
     1
102
RTVSPost2010Prop30
280
     1
102
RTVSPost2010PropOp30
 70
     1
102
RTVSPost2010Prop31
280
     0
102
RTVSPost2010PropOp31
 70
     1
102
RTVSPost2010Prop32
280
     0
102
RTVSPost2010PropOp32
 70
     1
102
RTVSPost2010Prop33
280
     0
102
RTVSPost2010PropOp33
 70
     1
102
RTVSPost2010Prop34
280
     0
102
RTVSPost2010PropOp34
 70
     1
102
RTVSPost2010Prop35
280
     0
102
RTVSPost2010PropOp35
 70
     1
102
RTVSPost2010Prop36
280
     0
102
RTVSPost2010PropOp36
 70
     1
102
RTVSPost2010Prop37
 90
       50
102
RTVSPost2010PropOp37
 70
     1
102
RTVSPost2010Prop38
140
0.0
102
RTVSPost2010PropOp38
 70
     1
102
RTVSPost2010Prop39
140
1.0
102
RTVSPost2010PropOp39
 70
     1
102
RTVSPost2010Prop40
 90
        0
102
RTVSPost2010PropOp40
 70
     1
102
RTVSPost2010Prop41ColorIndex
 90
       18
102
RTVSPost2010Prop41ColorRGB
 90
        0
102
RTVSPost2010PropOp41
 70
     1
102
RTVSPost2010Prop42
 90
       50
102
RTVSPost2010PropOp42
 70
     1
102
RTVSPost2010Prop43
 90
        3
102
RTVSPost2010PropOp43
 70
     1
102
RTVSPost2010Prop44ColorIndex
 90
        5
102
RTVSPost2010Prop44ColorRGB
 90
      255
102
RTVSPost2010PropOp44
 70
     1
102
RTVSPost2010Prop45
280
     0
102
RTVSPost2010PropOp45
 70
     1
102
RTVSPost2010Prop46
 90
       50
102
RTVSPost2010PropOp46
 70
     1
102
RTVSPost2010Prop47
 90
       50
102
RTVSPost2010PropOp47
 70
     1
102
RTVSPost2010Prop48
 90
       50
102
RTVSPost2010PropOp48
 70
     1
102
RTVSPost2010Prop49
280
     0
102
RTVSPost2010PropOp49
 70
     1
102
RTVSPost2010Prop50
 90
       50
102
RTVSPost2010PropOp50
 70
     1
102
RTVSPost2010Prop51ColorIndex
 90
      256
102
RTVSPost2010Prop51ColorRGB
 90
-16777216
102
RTVSPost2010PropOp51
 70
     0
102
RTVSPost2010Prop52
140
1.0
102
RTVSPost2010PropOp52
 70
     0
102
RTVSPost2010Prop53
 90
        2
102
RTVSPost2010PropOp53
 70
     1
102
RTVSPost2010Prop54
  1
strokes_ogs.tif
102
RTVSPost2010PropOp54
 70
     1
102
RTVSPost2010Prop55
280
     0
102
RTVSPost2010PropOp55
 70
     1
102
RTVSPost2010Prop56
140
1.0
102
RTVSPost2010PropOp56
 70
     1
102
RTVSPost2010Prop57
140
1.0
102
RTVSPost2010PropOp57
 70
     1
  0
XRECORD
  5
372
102
{ACAD_REACTORS
330
371
102
}
330
371
100
AcDbXrecord
280
     1
102
RTVSPost2010Prop28
280
     0
102
RTVSPost2010PropOp28
 70
     1
102
RTVSPost2010Prop29
280
     1
102
RTVSPost2010PropOp29
 70
     1
102
RTVSPost2010Prop30
280
     1
102
RTVSPost2010PropOp30
 70
     1
102
RTVSPost2010Prop31
280
     0
102
RTVSPost2010PropOp31
 70
     1
102
RTVSPost2010Prop32
280
     0
102
RTVSPost2010PropOp32
 70
     1
102
RTVSPost2010Prop33
280
     0
102
RTVSPost2010PropOp33
 70
     1
102
RTVSPost2010Prop34
280
     0
102
RTVSPost2010PropOp34
 70
     1
102
RTVSPost2010Prop35
280
     0
102
RTVSPost2010PropOp35
 70
     1
102
RTVSPost2010Prop36
280
     0
102
RTVSPost2010PropOp36
 70
     1
102
RTVSPost2010Prop37
 90
       50
102
RTVSPost2010PropOp37
 70
     1
102
RTVSPost2010Prop38
140
0.0
102
RTVSPost2010PropOp38
 70
     1
102
RTVSPost2010Prop39
140
1.0
102
RTVSPost2010PropOp39
 70
     1
102
RTVSPost2010Prop40
 90
        0
102
RTVSPost2010PropOp40
 70
     1
102
RTVSPost2010Prop41ColorIndex
 90
       18
102
RTVSPost2010Prop41ColorRGB
 90
        0
102
RTVSPost2010PropOp41
 70
     1
102
RTVSPost2010Prop42
 90
       50
102
RTVSPost2010PropOp42
 70
     1
102
RTVSPost2010Prop43
 90
        3
102
RTVSPost2010PropOp43
 70
     1
102
RTVSPost2010Prop44ColorIndex
 90
        5
102
RTVSPost2010Prop44ColorRGB
 90
      255
102
RTVSPost2010PropOp44
 70
     1
102
RTVSPost2010Prop45
280
     0
102
RTVSPost2010PropOp45
 70
     1
102
RTVSPost2010Prop46
 90
       50
102
RTVSPost2010PropOp46
 70
     1
102
RTVSPost2010Prop47
 90
       50
102
RTVSPost2010PropOp47
 70
     1
102
RTVSPost2010Prop48
 90
       50
102
RTVSPost2010PropOp48
 70
     1
102
RTVSPost2010Prop49
280
     0
102
RTVSPost2010PropOp49
 70
     1
102
RTVSPost2010Prop50
 90
       50
102
RTVSPost2010PropOp50
 70
     1
102
RTVSPost2010Prop51ColorIndex
 90
      256
102
RTVSPost2010Prop51ColorRGB
 90
-16777216
102
RTVSPost2010PropOp51
 70
     0
102
RTVSPost2010Prop52
140
1.0
102
RTVSPost2010PropOp52
 70
     0
102
RTVSPost2010Prop53
 90
        2
102
RTVSPost2010PropOp53
 70
     1
102
RTVSPost2010Prop54
  1
strokes_ogs.tif
102
RTVSPost2010PropOp54
 70
     1
102
RTVSPost2010Prop55
280
     0
102
RTVSPost2010PropOp55
 70
     1
102
RTVSPost2010Prop56
140
1.0
102
RTVSPost2010PropOp56
 70
     1
102
RTVSPost2010Prop57
140
1.0
102
RTVSPost2010PropOp57
 70
     1
  0
XRECORD
  5
364
102
{ACAD_REACTORS
330
363
102
}
330
363
100
AcDbXrecord
280
     1
102
RTVSPost2010Prop28
280
     0
102
RTVSPost2010PropOp28
 70
     1
102
RTVSPost2010Prop29
280
     1
102
RTVSPost2010PropOp29
 70
     1
102
RTVSPost2010Prop30
280
     1
102
RTVSPost2010PropOp30
 70
     1
102
RTVSPost2010Prop31
280
     0
102
RTVSPost2010PropOp31
 70
     1
102
RTVSPost2010Prop32
280
     0
102
RTVSPost2010PropOp32
 70
     1
102
RTVSPost2010Prop33
280
     0
102
RTVSPost2010PropOp33
 70
     1
102
RTVSPost2010Prop34
280
     0
102
RTVSPost2010PropOp34
 70
     1
102
RTVSPost2010Prop35
280
     0
102
RTVSPost2010PropOp35
 70
     1
102
RTVSPost2010Prop36
280
     0
102
RTVSPost2010PropOp36
 70
     1
102
RTVSPost2010Prop37
 90
       50
102
RTVSPost2010PropOp37
 70
     1
102
RTVSPost2010Prop38
140
0.0
102
RTVSPost2010PropOp38
 70
     1
102
RTVSPost2010Prop39
140
1.0
102
RTVSPost2010PropOp39
 70
     1
102
RTVSPost2010Prop40
 90
        0
102
RTVSPost2010PropOp40
 70
     1
102
RTVSPost2010Prop41ColorIndex
 90
       18
102
RTVSPost2010Prop41ColorRGB
 90
        0
102
RTVSPost2010PropOp41
 70
     1
102
RTVSPost2010Prop42
 90
       50
102
RTVSPost2010PropOp42
 70
     1
102
RTVSPost2010Prop43
 90
        3
102
RTVSPost2010PropOp43
 70
     1
102
RTVSPost2010Prop44ColorIndex
 90
        5
102
RTVSPost2010Prop44ColorRGB
 90
      255
102
RTVSPost2010PropOp44
 70
     1
102
RTVSPost2010Prop45
280
     0
102
RTVSPost2010PropOp45
 70
     1
102
RTVSPost2010Prop46
 90
       50
102
RTVSPost2010PropOp46
 70
     1
102
RTVSPost2010Prop47
 90
       50
102
RTVSPost2010PropOp47
 70
     1
102
RTVSPost2010Prop48
 90
       50
102
RTVSPost2010PropOp48
 70
     1
102
RTVSPost2010Prop49
280
     0
102
RTVSPost2010PropOp49
 70
     1
102
RTVSPost2010Prop50
 90
       50
102
RTVSPost2010PropOp50
 70
     1
102
RTVSPost2010Prop51ColorIndex
 90
      256
102
RTVSPost2010Prop51ColorRGB
 90
-16777216
102
RTVSPost2010PropOp51
 70
     0
102
RTVSPost2010Prop52
140
1.0
102
RTVSPost2010PropOp52
 70
     0
102
RTVSPost2010Prop53
 90
        2
102
RTVSPost2010PropOp53
 70
     1
102
RTVSPost2010Prop54
  1
strokes_ogs.tif
102
RTVSPost2010PropOp54
 70
     1
102
RTVSPost2010Prop55
280
     0
102
RTVSPost2010PropOp55
 70
     1
102
RTVSPost2010Prop56
140
1.0
102
RTVSPost2010PropOp56
 70
     1
102
RTVSPost2010Prop57
140
1.0
102
RTVSPost2010PropOp57
 70
     1
  0
XRECORD
  5
384
102
{ACAD_REACTORS
330
383
102
}
330
383
100
AcDbXrecord
280
     1
102
RTVSPost2010Prop28
280
     0
102
RTVSPost2010PropOp28
 70
     1
102
RTVSPost2010Prop29
280
     1
102
RTVSPost2010PropOp29
 70
     1
102
RTVSPost2010Prop30
280
     1
102
RTVSPost2010PropOp30
 70
     1
102
RTVSPost2010Prop31
280
     0
102
RTVSPost2010PropOp31
 70
     1
102
RTVSPost2010Prop32
280
     0
102
RTVSPost2010PropOp32
 70
     1
102
RTVSPost2010Prop33
280
     0
102
RTVSPost2010PropOp33
 70
     1
102
RTVSPost2010Prop34
280
     0
102
RTVSPost2010PropOp34
 70
     1
102
RTVSPost2010Prop35
280
     0
102
RTVSPost2010PropOp35
 70
     1
102
RTVSPost2010Prop36
280
     0
102
RTVSPost2010PropOp36
 70
     1
102
RTVSPost2010Prop37
 90
       50
102
RTVSPost2010PropOp37
 70
     1
102
RTVSPost2010Prop38
140
0.0
102
RTVSPost2010PropOp38
 70
     1
102
RTVSPost2010Prop39
140
1.0
102
RTVSPost2010PropOp39
 70
     1
102
RTVSPost2010Prop40
 90
        0
102
RTVSPost2010PropOp40
 70
     1
102
RTVSPost2010Prop41ColorIndex
 90
       18
102
RTVSPost2010Prop41ColorRGB
 90
        0
102
RTVSPost2010PropOp41
 70
     1
102
RTVSPost2010Prop42
 90
       50
102
RTVSPost2010PropOp42
 70
     1
102
RTVSPost2010Prop43
 90
        3
102
RTVSPost2010PropOp43
 70
     1
102
RTVSPost2010Prop44ColorIndex
 90
        5
102
RTVSPost2010Prop44ColorRGB
 90
      255
102
RTVSPost2010PropOp44
 70
     1
102
RTVSPost2010Prop45
280
     0
102
RTVSPost2010PropOp45
 70
     1
102
RTVSPost2010Prop46
 90
       50
102
RTVSPost2010PropOp46
 70
     1
102
RTVSPost2010Prop47
 90
       50
102
RTVSPost2010PropOp47
 70
     1
102
RTVSPost2010Prop48
 90
       50
102
RTVSPost2010PropOp48
 70
     1
102
RTVSPost2010Prop49
280
     0
102
RTVSPost2010PropOp49
 70
     1
102
RTVSPost2010Prop50
 90
       50
102
RTVSPost2010PropOp50
 70
     1
102
RTVSPost2010Prop51ColorIndex
 90
      256
102
RTVSPost2010Prop51ColorRGB
 90
-16777216
102
RTVSPost2010PropOp51
 70
     0
102
RTVSPost2010Prop52
140
1.0
102
RTVSPost2010PropOp52
 70
     0
102
RTVSPost2010Prop53
 90
        2
102
RTVSPost2010PropOp53
 70
     1
102
RTVSPost2010Prop54
  1
strokes_ogs.tif
102
RTVSPost2010PropOp54
 70
     1
102
RTVSPost2010Prop55
280
     0
102
RTVSPost2010PropOp55
 70
     1
102
RTVSPost2010Prop56
140
1.0
102
RTVSPost2010PropOp56
 70
     1
102
RTVSPost2010Prop57
140
1.0
102
RTVSPost2010PropOp57
 70
     1
  0
ENDSEC
  0
EOF
