  0
SECTION
  2
HEADER
  9
$ACADVER
  1
AC1015
  9
$ACADMAINTVER
 70
     6
  9
$DWGCODEPAGE
  3
ANSI_1252
  9
$INSBASE
 10
0.0
 20
0.0
 30
0.0
  9
$EXTMIN
 10
1.000000E+20
 20
1.000000E+20
 30
1.000000E+20
  9
$EXTMAX
 10
-1.000000E+20
 20
-1.000000E+20
 30
-1.000000E+20
  9
$LIMMIN
 10
0.0
 20
0.0
  9
$LIMMAX
 10
420.0
 20
297.0
  9
$ORTHOMODE
 70
     0
  9
$REGENMODE
 70
     1
  9
$FILLMODE
 70
     1
  9
$QTEXTMODE
 70
     0
  9
$MIRRTEXT
 70
     1
  9
$LTSCALE
 40
1.0
  9
$ATTMODE
 70
     1
  9
$TEXTSIZE
 40
2.5
  9
$TRACEWID
 40
1.0
  9
$TEXTSTYLE
  7
Standard
  9
$CLAYER
  8
0
  9
$CELTYPE
  6
ByLayer
  9
$CECOLOR
 62
   256
  9
$CELTSCALE
 40
1.0
  9
$DISPSILH
 70
     0
  9
$DIMSCALE
 40
1.0
  9
$DIMASZ
 40
2.5
  9
$DIMEXO
 40
0.625
  9
$DIMDLI
 40
3.75
  9
$DIMRND
 40
0.0
  9
$DIMDLE
 40
0.0
  9
$DIMEXE
 40
1.25
  9
$DIMTP
 40
0.0
  9
$DIMTM
 40
0.0
  9
$DIMTXT
 40
2.5
  9
$DIMCEN
 40
2.5
  9
$DIMTSZ
 40
0.0
  9
$DIMTOL
 70
     0
  9
$DIMLIM
 70
     0
  9
$DIMTIH
 70
     0
  9
$DIMTOH
 70
     0
  9
$DIMSE1
 70
     0
  9
$DIMSE2
 70
     0
  9
$DIMTAD
 70
     1
  9
$DIMZIN
 70
     8
  9
$DIMBLK
  1

  9
$DIMASO
 70
     1
  9
$DIMSHO
 70
     1
  9
$DIMPOST
  1

  9
$DIMAPOST
  1

  9
$DIMALT
 70
     0
  9
$DIMALTD
 70
     3
  9
$DIMALTF
 40
0.03937
  9
$DIMLFAC
 40
1.0
  9
$DIMTOFL
 70
     1
  9
$DIMTVP
 40
0.0
  9
$DIMTIX
 70
     0
  9
$DIMSOXD
 70
     0
  9
$DIMSAH
 70
     0
  9
$DIMBLK1
  1

  9
$DIMBLK2
  1

  9
$DIMSTYLE
  2
ISO-25
  9
$DIMCLRD
 70
     0
  9
$DIMCLRE
 70
     0
  9
$DIMCLRT
 70
     0
  9
$DIMTFAC
 40
1.0
  9
$DIMGAP
 40
0.625
  9
$DIMJUST
 70
     0
  9
$DIMSD1
 70
     0
  9
$DIMSD2
 70
     0
  9
$DIMTOLJ
 70
     0
  9
$DIMTZIN
 70
     8
  9
$DIMALTZ
 70
     0
  9
$DIMALTTZ
 70
     0
  9
$DIMUPT
 70
     0
  9
$DIMDEC
 70
     2
  9
$DIMTDEC
 70
     2
  9
$DIMALTU
 70
     2
  9
$DIMALTTD
 70
     3
  9
$DIMTXSTY
  7
Standard
  9
$DIMAUNIT
 70
     0
  9
$DIMADEC
 70
     0
  9
$DIMALTRND
 40
0.0
  9
$DIMAZIN
 70
     0
  9
$DIMDSEP
 70
    44
  9
$DIMATFIT
 70
     3
  9
$DIMFRAC
 70
     0
  9
$DIMLDRBLK
  1

  9
$DIMLUNIT
 70
     2
  9
$DIMLWD
 70
    -2
  9
$DIMLWE
 70
    -2
  9
$DIMTMOVE
 70
     0
  9
$LUNITS
 70
     2
  9
$LUPREC
 70
     4
  9
$SKETCHINC
 40
1.0
  9
$FILLETRAD
 40
10.0
  9
$AUNITS
 70
     0
  9
$AUPREC
 70
     0
  9
$MENU
  1
.
  9
$ELEVATION
 40
0.0
  9
$PELEVATION
 40
0.0
  9
$THICKNESS
 40
0.0
  9
$LIMCHECK
 70
     0
  9
$CHAMFERA
 40
0.0
  9
$CHAMFERB
 40
0.0
  9
$CHAMFERC
 40
0.0
  9
$CHAMFERD
 40
0.0
  9
$SKPOLY
 70
     0
  9
$TDCREATE
 40
2458018.601304884
  9
$TDUCREATE
 40
2458018.517971551
  9
$TDUPDATE
 40
2458018.601305602
  9
$TDUUPDATE
 40
2458018.517972269
  9
$TDINDWG
 40
0.0000000116
  9
$TDUSRTIMER
 40
0.0000000116
  9
$USRTIMER
 70
     1
  9
$ANGBASE
 50
0.0
  9
$ANGDIR
 70
     0
  9
$PDMODE
 70
     0
  9
$PDSIZE
 40
0.0
  9
$PLINEWID
 40
0.0
  9
$SPLFRAME
 70
     0
  9
$SPLINETYPE
 70
     6
  9
$SPLINESEGS
 70
     8
  9
$HANDSEED
  5
32E
  9
$SURFTAB1
 70
     6
  9
$SURFTAB2
 70
     6
  9
$SURFTYPE
 70
     6
  9
$SURFU
 70
     6
  9
$SURFV
 70
     6
  9
$UCSBASE
  2

  9
$UCSNAME
  2

  9
$UCSORG
 10
0.0
 20
0.0
 30
0.0
  9
$UCSXDIR
 10
1.0
 20
0.0
 30
0.0
  9
$UCSYDIR
 10
0.0
 20
1.0
 30
0.0
  9
$UCSORTHOREF
  2

  9
$UCSORTHOVIEW
 70
     0
  9
$UCSORGTOP
 10
0.0
 20
0.0
 30
0.0
  9
$UCSORGBOTTOM
 10
0.0
 20
0.0
 30
0.0
  9
$UCSORGLEFT
 10
0.0
 20
0.0
 30
0.0
  9
$UCSORGRIGHT
 10
0.0
 20
0.0
 30
0.0
  9
$UCSORGFRONT
 10
0.0
 20
0.0
 30
0.0
  9
$UCSORGBACK
 10
0.0
 20
0.0
 30
0.0
  9
$PUCSBASE
  2

  9
$PUCSNAME
  2

  9
$PUCSORG
 10
0.0
 20
0.0
 30
0.0
  9
$PUCSXDIR
 10
1.0
 20
0.0
 30
0.0
  9
$PUCSYDIR
 10
0.0
 20
1.0
 30
0.0
  9
$PUCSORTHOREF
  2

  9
$PUCSORTHOVIEW
 70
     0
  9
$PUCSORGTOP
 10
0.0
 20
0.0
 30
0.0
  9
$PUCSORGBOTTOM
 10
0.0
 20
0.0
 30
0.0
  9
$PUCSORGLEFT
 10
0.0
 20
0.0
 30
0.0
  9
$PUCSORGRIGHT
 10
0.0
 20
0.0
 30
0.0
  9
$PUCSORGFRONT
 10
0.0
 20
0.0
 30
0.0
  9
$PUCSORGBACK
 10
0.0
 20
0.0
 30
0.0
  9
$USERI1
 70
     0
  9
$USERI2
 70
     0
  9
$USERI3
 70
     0
  9
$USERI4
 70
     0
  9
$USERI5
 70
     0
  9
$USERR1
 40
0.0
  9
$USERR2
 40
0.0
  9
$USERR3
 40
0.0
  9
$USERR4
 40
0.0
  9
$USERR5
 40
0.0
  9
$WORLDVIEW
 70
     1
  9
$SHADEDGE
 70
     3
  9
$SHADEDIF
 70
    70
  9
$TILEMODE
 70
     1
  9
$MAXACTVP
 70
    64
  9
$PINSBASE
 10
0.0
 20
0.0
 30
0.0
  9
$PLIMCHECK
 70
     0
  9
$PEXTMIN
 10
1.000000E+20
 20
1.000000E+20
 30
1.000000E+20
  9
$PEXTMAX
 10
-1.000000E+20
 20
-1.000000E+20
 30
-1.000000E+20
  9
$PLIMMIN
 10
0.0
 20
0.0
  9
$PLIMMAX
 10
420.0
 20
297.0
  9
$UNITMODE
 70
     0
  9
$VISRETAIN
 70
     1
  9
$PLINEGEN
 70
     0
  9
$PSLTSCALE
 70
     1
  9
$TREEDEPTH
 70
  3020
  9
$CMLSTYLE
  2
Standard
  9
$CMLJUST
 70
     0
  9
$CMLSCALE
 40
20.0
  9
$PROXYGRAPHICS
 70
     1
  9
$MEASUREMENT
 70
     1
  9
$CELWEIGHT
370
    -1
  9
$ENDCAPS
280
     0
  9
$JOINSTYLE
280
     0
  9
$LWDISPLAY
290
     0
  9
$INSUNITS
 70
     4
  9
$HYPERLINKBASE
  1

  9
$STYLESHEET
  1

  9
$XEDIT
290
     1
  9
$CEPSNTYPE
380
     0
  9
$PSTYLEMODE
290
     1
  9
$FINGERPRINTGUID
  2
{709F0099-28B0-4838-B387-D929E7A261D0}
  9
$VERSIONGUID
  2
{FAEB1C32-E019-11D5-929B-00C0DF256EC4}
  9
$EXTNAMES
290
     1
  9
$PSVPSCALE
 40
0.0
  9
$OLESTARTUP
290
     0
  0
ENDSEC
  0
SECTION
  2
CLASSES
  0
CLASS
  1
ACDBDICTIONARYWDFLT
  2
AcDbDictionaryWithDefault
  3
ObjectDBX Classes
 90
        0
280
     0
281
     0
  0
CLASS
  1
VISUALSTYLE
  2
AcDbVisualStyle
  3
ObjectDBX Classes
 90
     4095
280
     0
281
     0
  0
CLASS
  1
MATERIAL
  2
AcDbMaterial
  3
ObjectDBX Classes
 90
     1153
280
     0
281
     0
  0
CLASS
  1
SCALE
  2
AcDbScale
  3
ObjectDBX Classes
 90
     1153
280
     0
281
     0
  0
CLASS
  1
TABLESTYLE
  2
AcDbTableStyle
  3
ObjectDBX Classes
 90
     4095
280
     0
281
     0
  0
CLASS
  1
MLEADERSTYLE
  2
AcDbMLeaderStyle
  3
ACDB_MLEADERSTYLE_CLASS
 90
     4095
280
     0
281
     0
  0
CLASS
  1
SUN
  2
AcDbSun
  3
SCENEOE
 90
     1153
280
     0
281
     0
  0
CLASS
  1
DICTIONARYVAR
  2
AcDbDictionaryVar
  3
ObjectDBX Classes
 90
        0
280
     0
281
     0
  0
CLASS
  1
ACDBPLACEHOLDER
  2
AcDbPlaceHolder
  3
ObjectDBX Classes
 90
        0
280
     0
281
     0
  0
CLASS
  1
LAYOUT
  2
AcDbLayout
  3
ObjectDBX Classes
 90
        0
280
     0
281
     0
  0
ENDSEC
  0
SECTION
  2
TABLES
  0
TABLE
  2
VPORT
  5
8
102
{ACAD_XDICTIONARY
360
2F1
102
}
330
0
100
AcDbSymbolTable
 70
     1
  0
VPORT
  5
29
330
8
100
AcDbSymbolTableRecord
100
AcDbViewportTableRecord
  2
*Active
 70
     0
 10
0.0
 20
0.0
 11
1.0
 21
1.0
 12
344.186916
 22
148.5
 13
0.0
 23
0.0
 14
10.0
 24
10.0
 15
10.0
 25
10.0
 16
0.0
 26
0.0
 36
1.0
 17
0.0
 27
0.0
 37
0.0
 40
297.0
 41
1.972973
 42
50.0
 43
0.0
 44
0.0
 50
0.0
 51
0.0
 71
     0
 72
   100
 73
     1
 74
     3
 75
     0
 76
     0
 77
     0
 78
     0
281
     0
 65
     1
110
0.0
120
0.0
130
0.0
111
1.0
121
0.0
131
0.0
112
0.0
122
1.0
132
0.0
 79
     0
146
0.0
  0
ENDTAB
  0
TABLE
  2
LTYPE
  5
5
330
0
100
AcDbSymbolTable
 70
     1
  0
LTYPE
  5
14
330
5
100
AcDbSymbolTableRecord
100
AcDbLinetypeTableRecord
  2
ByBlock
 70
     0
  3

 72
    65
 73
     0
 40
0.0
  0
LTYPE
  5
15
330
5
100
AcDbSymbolTableRecord
100
AcDbLinetypeTableRecord
  2
ByLayer
 70
     0
  3

 72
    65
 73
     0
 40
0.0
  0
LTYPE
  5
16
330
5
100
AcDbSymbolTableRecord
100
AcDbLinetypeTableRecord
  2
Continuous
 70
     0
  3
Solid line
 72
    65
 73
     0
 40
0.0
  0
ENDTAB
  0
TABLE
  2
LAYER
  5
2
330
0
100
AcDbSymbolTable
 70
     1
  0
LAYER
  5
10
330
2
100
AcDbSymbolTableRecord
100
AcDbLayerTableRecord
  2
0
 70
     0
 62
   106
  6
Continuous
370
     0
390
F
  0
ENDTAB
  0
TABLE
  2
STYLE
  5
3
330
0
100
AcDbSymbolTable
 70
     4
  0
STYLE
  5
11
330
3
100
AcDbSymbolTableRecord
100
AcDbTextStyleTableRecord
  2
Standard
 70
     0
 40
0.0
 41
1.0
 50
0.0
 71
     0
 42
2.5
  3
txt
  4

  0
STYLE
  5
6E
330
3
100
AcDbSymbolTableRecord
100
AcDbTextStyleTableRecord
  2
Default
 70
     0
 40
0.0
 41
1.0
 50
0.0
 71
     0
 42
2.5
  3

  4

1001
ACAD
1000
txt
1071
        0
  0
STYLE
  5
6F
330
3
100
AcDbSymbolTableRecord
100
AcDbTextStyleTableRecord
  2
ISO
 70
     0
 40
0.0
 41
1.0
 50
0.0
 71
     0
 42
2.5
  3

  4

1001
ACAD
1000
txt
1071
        0
  0
STYLE
  5
70
330
3
100
AcDbSymbolTableRecord
100
AcDbTextStyleTableRecord
  2
GIANLU
 70
     0
 40
0.0
 41
1.0
 50
0.0
 71
     0
 42
2.5
  3

  4

1001
ACAD
1000
Arial
1071
 33554432
  0
ENDTAB
  0
TABLE
  2
VIEW
  5
6
330
0
100
AcDbSymbolTable
 70
     0
  0
ENDTAB
  0
TABLE
  2
UCS
  5
7
330
0
100
AcDbSymbolTable
 70
     0
  0
ENDTAB
  0
TABLE
  2
APPID
  5
9
330
0
100
AcDbSymbolTable
 70
     2
  0
APPID
  5
12
330
9
100
AcDbSymbolTableRecord
100
AcDbRegAppTableRecord
  2
ACAD
 70
     0
  0
APPID
  5
32B
330
9
100
AcDbSymbolTableRecord
100
AcDbRegAppTableRecord
  2
ACAD_MLEADERVER
 70
     0
  0
ENDTAB
  0
TABLE
  2
DIMSTYLE
  5
A
330
0
100
AcDbSymbolTable
 70
     4
100
AcDbDimStyleTable
  0
DIMSTYLE
105
27
330
A
100
AcDbSymbolTableRecord
100
AcDbDimStyleTableRecord
  2
ISO-25
 70
     0
 41
2.5
 42
0.625
 43
3.75
 44
1.25
 73
     0
 74
     0
 77
     1
 78
     8
140
2.5
141
2.5
143
0.03937
147
0.625
171
     3
172
     1
178
     0
271
     2
272
     2
274
     3
278
    44
283
     0
284
     8
340
11
  0
DIMSTYLE
105
71
330
A
100
AcDbSymbolTableRecord
100
AcDbDimStyleTableRecord
  2
Default
 70
     0
  3
<>
 41
4.375
 42
1.05
 44
2.1
 73
     0
 74
     0
 77
     1
 78
     8
140
3.5
146
0.4
147
1.75
172
     1
271
     2
178
     3
271
     2
272
     3
284
     8
340
6E
341
72
342
72
  0
DIMSTYLE
105
79
330
A
100
AcDbSymbolTableRecord
100
AcDbDimStyleTableRecord
  2
ISO
 70
     0
  3
<>
 41
4.375
 42
1.05
 44
2.1
 73
     0
 74
     0
 77
     1
 78
     8
140
3.5
146
0.4
147
1.75
172
     1
271
     2
178
     3
271
     2
272
     3
284
     8
340
6F
341
72
342
72
  0
DIMSTYLE
105
7A
330
A
100
AcDbSymbolTableRecord
100
AcDbDimStyleTableRecord
  2
zucchetti_unico
 70
     0
  3
<>
 41
3.5
 42
1.05
 44
2.1
 73
     0
 74
     0
 77
     1
 78
     8
140
3.5
146
0.6
147
1.75
172
     1
176
     3
177
     3
271
     2
178
     3
271
     2
272
     2
284
     8
340
6E
  0
ENDTAB
  0
TABLE
  2
BLOCK_RECORD
  5
1
330
0
100
AcDbSymbolTable
 70
     6
  0
BLOCK_RECORD
  5
1F
330
1
100
AcDbSymbolTableRecord
100
AcDbBlockTableRecord
  2
*Model_Space
340
22
  0
BLOCK_RECORD
  5
1B
330
1
100
AcDbSymbolTableRecord
100
AcDbBlockTableRecord
  2
*Paper_Space
340
1E
  0
BLOCK_RECORD
  5
23
330
1
100
AcDbSymbolTableRecord
100
AcDbBlockTableRecord
  2
*Paper_Space0
340
26
  0
BLOCK_RECORD
  5
72
330
1
100
AcDbSymbolTableRecord
100
AcDbBlockTableRecord
  2
_CLOSED
340
0
  0
BLOCK_RECORD
  5
7B
330
1
100
AcDbSymbolTableRecord
100
AcDbBlockTableRecord
  2
a
340
0
102
{BLKREFS
331
D5
102
}
  0
BLOCK_RECORD
  5
D6
330
1
100
AcDbSymbolTableRecord
100
AcDbBlockTableRecord
  2
b
340
0
102
{BLKREFS
331
196
102
}
  0
BLOCK_RECORD
  5
197
330
1
100
AcDbSymbolTableRecord
100
AcDbBlockTableRecord
  2
c
340
0
102
{BLKREFS
331
253
102
}
  0
BLOCK_RECORD
  5
254
330
1
100
AcDbSymbolTableRecord
100
AcDbBlockTableRecord
  2
d
340
0
102
{BLKREFS
331
2E7
102
}
  0
ENDTAB
  0
ENDSEC
  0
SECTION
  2
BLOCKS
  0
BLOCK
  5
20
330
1F
100
AcDbEntity
  8
0
100
AcDbBlockBegin
  2
*Model_Space
 70
     0
 10
0.0
 20
0.0
 30
0.0
  3
*Model_Space
  1

  0
ENDBLK
  5
21
330
1F
100
AcDbEntity
  8
0
100
AcDbBlockEnd
  0
BLOCK
  5
1C
330
1B
100
AcDbEntity
 67
     1
  8
0
100
AcDbBlockBegin
  2
*Paper_Space
 70
     0
 10
0.0
 20
0.0
 30
0.0
  3
*Paper_Space
  1

  0
ENDBLK
  5
1D
330
1B
100
AcDbEntity
 67
     1
  8
0
100
AcDbBlockEnd
  0
BLOCK
  5
24
330
23
100
AcDbEntity
  8
0
100
AcDbBlockBegin
  2
*Paper_Space0
 70
     0
 10
0.0
 20
0.0
 30
0.0
  3
*Paper_Space0
  1

  0
ENDBLK
  5
25
330
23
100
AcDbEntity
  8
0
100
AcDbBlockEnd
  0
BLOCK
  5
73
330
72
100
AcDbEntity
  8
0
100
AcDbBlockBegin
  2
_CLOSED
 70
     0
 10
0.0
 20
0.0
 30
0.0
  3
_CLOSED
  1

  0
LINE
  5
75
330
72
100
AcDbEntity
  8
0
  6
ByBlock
 62
     0
370
    -2
100
AcDbLine
 10
-1.0
 20
0.166667
 30
0.0
 11
0.0
 21
0.0
 31
0.0
  0
LINE
  5
76
330
72
100
AcDbEntity
  8
0
  6
ByBlock
 62
     0
370
    -2
100
AcDbLine
 10
0.0
 20
0.0
 30
0.0
 11
-1.0
 21
-0.166667
 31
0.0
  0
LINE
  5
77
330
72
100
AcDbEntity
  8
0
  6
ByBlock
 62
     0
370
    -2
100
AcDbLine
 10
-1.0
 20
0.166667
 30
0.0
 11
-1.0
 21
-0.166667
 31
0.0
  0
LINE
  5
78
330
72
100
AcDbEntity
  8
0
  6
ByBlock
 62
     0
370
    -2
100
AcDbLine
 10
0.0
 20
0.0
 30
0.0
 11
-1.0
 21
0.0
 31
0.0
  0
ENDBLK
  5
74
330
72
100
AcDbEntity
  8
0
100
AcDbBlockEnd
  0
BLOCK
  5
D3
330
7B
100
AcDbEntity
  8
0
100
AcDbBlockBegin
  2
a
 70
     0
 10
193.227478
 20
146.344055
 30
0.0
  3
a
  1

  0
ARC
  5
7C
330
7B
100
AcDbEntity
  8
0
  6
Continuous
 62
     0
370
     0
100
AcDbCircle
 10
248.839361
 20
462.05138
 30
0.0
 40
10.49999999999992
100
AcDbArc
 50
328.997281
 51
2.104131
  0
ARC
  5
7D
330
7B
100
AcDbEntity
  8
0
  6
Continuous
 62
     0
370
     0
100
AcDbCircle
 10
248.839361
 20
462.05138
 30
0.0
 40
10.50000000000005
100
AcDbArc
 50
182.104131
 51
211.002719
  0
ARC
  5
7E
330
7B
100
AcDbEntity
  8
0
  6
Continuous
 62
     0
370
     0
100
AcDbCircle
 10
248.839361
 20
462.05138
 30
0.0
 40
10.49999999999999
100
AcDbArc
 50
148.997281
 51
182.104131
  0
ARC
  5
7F
330
7B
100
AcDbEntity
  8
0
  6
Continuous
 62
     0
370
     0
100
AcDbCircle
 10
248.839361
 20
462.05138
 30
0.0
 40
10.49999999999991
100
AcDbArc
 50
2.104131
 51
31.002719
  0
ARC
  5
80
330
7B
100
AcDbEntity
  8
0
  6
Continuous
 62
     0
370
     0
100
AcDbCircle
 10
248.841122
 20
462.050747
 30
0.0
 40
10.56200123214172
100
AcDbArc
 50
328.423807
 51
2.107917
  0
ARC
  5
81
330
7B
100
AcDbEntity
  8
0
  6
Continuous
 62
     0
370
     0
100
AcDbCircle
 10
248.835855
 20
462.050526
 30
0.0
 40
10.56020182442942
100
AcDbArc
 50
182.100196
 51
211.5784
  0
ARC
  5
82
330
7B
100
AcDbEntity
  8
0
  6
Continuous
 62
     0
370
     0
100
AcDbCircle
 10
248.837601
 20
462.052014
 30
0.0
 40
10.56200123214137
100
AcDbArc
 50
148.423807
 51
182.107917
  0
ARC
  5
83
330
7B
100
AcDbEntity
  8
0
  6
Continuous
 62
     0
370
     0
100
AcDbCircle
 10
248.842867
 20
462.052235
 30
0.0
 40
10.5602018244294
100
AcDbArc
 50
2.100196
 51
31.5784
  0
ARC
  5
84
330
7B
100
AcDbEntity
  8
0
  6
Continuous
 62
     0
370
     0
100
AcDbCircle
 10
248.839361
 20
462.05138
 30
0.0
 40
11.05949080171405
100
AcDbArc
 50
2.104131
 51
35.533023
  0
ARC
  5
85
330
7B
100
AcDbEntity
  8
0
  6
Continuous
 62
     0
370
     0
100
AcDbCircle
 10
248.839361
 20
462.05138
 30
0.0
 40
11.05949080171414
100
AcDbArc
 50
144.466977
 51
182.104131
  0
ARC
  5
86
330
7B
100
AcDbEntity
  8
0
  6
Continuous
 62
     0
370
     0
100
AcDbCircle
 10
248.839361
 20
462.05138
 30
0.0
 40
11.05949080171416
100
AcDbArc
 50
182.104131
 51
215.533023
  0
ARC
  5
87
330
7B
100
AcDbEntity
  8
0
  6
Continuous
 62
     0
370
     0
100
AcDbCircle
 10
248.839361
 20
462.05138
 30
0.0
 40
11.05949080171404
100
AcDbArc
 50
324.466977
 51
2.104131
  0
ARC
  5
88
330
7B
100
AcDbEntity
  8
0
  6
Continuous
 62
     0
370
     0
100
AcDbCircle
 10
248.839361
 20
462.05138
 30
0.0
 40
15.95216856748406
100
AcDbArc
 50
304.345828
 51
2.104131
  0
ARC
  5
89
330
7B
100
AcDbEntity
  8
0
  6
Continuous
 62
     0
370
     0
100
AcDbCircle
 10
248.839361
 20
462.05138
 30
0.0
 40
15.95216856748405
100
AcDbArc
 50
182.104131
 51
235.654172
  0
ARC
  5
8A
330
7B
100
AcDbEntity
  8
0
  6
Continuous
 62
     0
370
     0
100
AcDbCircle
 10
248.839361
 20
462.05138
 30
0.0
 40
15.95216856748407
100
AcDbArc
 50
124.345828
 51
182.104131
  0
ARC
  5
8B
330
7B
100
AcDbEntity
  8
0
  6
Continuous
 62
     0
370
     0
100
AcDbCircle
 10
248.839361
 20
462.05138
 30
0.0
 40
15.95216856748408
100
AcDbArc
 50
2.104131
 51
55.654172
  0
ARC
  5
8C
330
7B
100
AcDbEntity
  8
0
  6
Continuous
 62
     0
370
     0
100
AcDbCircle
 10
248.839361
 20
462.05138
 30
0.0
 40
27.07641015192043
100
AcDbArc
 50
294.631323
 51
2.104131
  0
ARC
  5
8D
330
7B
100
AcDbEntity
  8
0
  6
Continuous
 62
     0
370
     0
100
AcDbCircle
 10
248.839361
 20
462.05138
 30
0.0
 40
27.07641015192042
100
AcDbArc
 50
182.104131
 51
245.495217
  0
ARC
  5
8E
330
7B
100
AcDbEntity
  8
0
  6
Continuous
 62
     0
370
     0
100
AcDbCircle
 10
248.839361
 20
462.05138
 30
0.0
 40
27.0764101519204
100
AcDbArc
 50
109.410434
 51
182.104131
  0
ARC
  5
8F
330
7B
100
AcDbEntity
  8
0
  6
Continuous
 62
     0
370
     0
100
AcDbCircle
 10
248.839361
 20
462.05138
 30
0.0
 40
27.07641015192043
100
AcDbArc
 50
2.104131
 51
70.589598
  0
ARC
  5
90
330
7B
100
AcDbEntity
  8
0
  6
Continuous
 62
     0
370
    30
100
AcDbCircle
 10
248.839361
 20
462.05138
 30
0.0
 40
27.50000060101103
100
AcDbArc
 50
2.104131
 51
70.944815
  0
ARC
  5
91
330
7B
100
AcDbEntity
  8
0
  6
Continuous
 62
     0
370
    30
100
AcDbCircle
 10
248.839361
 20
462.05138
 30
0.0
 40
27.50000060101104
100
AcDbArc
 50
109.055223
 51
182.104131
  0
ARC
  5
92
330
7B
100
AcDbEntity
  8
0
  6
Continuous
 62
     0
370
    30
100
AcDbCircle
 10
248.839361
 20
462.05138
 30
0.0
 40
27.50000060101102
100
AcDbArc
 50
182.104131
 51
245.409629
  0
ARC
  5
93
330
7B
100
AcDbEntity
  8
0
  6
Continuous
 62
     0
370
    30
100
AcDbCircle
 10
248.839361
 20
462.05138
 30
0.0
 40
27.50000060101105
100
AcDbArc
 50
294.714944
 51
2.104131
  0
LWPOLYLINE
  5
94
330
7B
100
AcDbEntity
  8
0
  6
Continuous
 62
     0
370
    30
100
AcDbPolyline
 90
       37
 70
     0
 43
0.0
 10
239.839355
 20
487.418274
 10
239.839355
 20
487.379456
 10
239.839355
 20
487.263062
 10
239.839355
 20
487.069427
 10
239.839355
 20
486.799408
 10
239.839355
 20
486.454193
 10
239.839355
 20
486.035431
 10
239.839355
 20
485.545105
 10
239.839355
 20
484.985596
 10
239.839355
 20
484.359589
 10
239.839355
 20
483.670013
 10
239.839355
 20
482.920166
 10
239.839355
 20
482.113434
 10
239.839355
 20
481.253204
 10
239.839355
 20
480.33078
 10
239.839355
 20
479.341064
 10
239.839355
 20
478.284912
 10
239.839355
 20
477.163605
 10
239.839355
 20
475.97876
 10
239.839355
 20
474.732422
 10
239.839355
 20
473.427032
 10
239.839355
 20
472.065369
 10
239.839355
 20
470.650635
 10
239.839355
 20
469.186249
 10
239.839355
 20
467.676086
 10
239.839355
 20
466.124176
 10
239.839355
 20
464.534851
 10
239.839355
 20
462.912598
 10
239.839355
 20
461.262085
 10
239.839355
 20
459.588104
 10
239.839355
 20
457.895477
 10
239.839355
 20
456.189087
 10
239.839355
 20
454.473755
 10
239.839355
 20
452.754242
 10
239.839355
 20
451.035248
 10
239.839355
 20
449.321289
 10
239.839355
 20
447.590698
  0
LWPOLYLINE
  5
95
330
7B
100
AcDbEntity
  8
0
  6
Continuous
 62
     0
370
     0
100
AcDbPolyline
 90
       35
 70
     0
 43
0.0
 10
239.839355
 20
447.590698
 10
239.871536
 20
447.630005
 10
239.971939
 20
447.670288
 10
240.145599
 20
447.71109
 10
240.396133
 20
447.751892
 10
240.725372
 20
447.792084
 10
241.133133
 20
447.831146
 10
241.616989
 20
447.868439
 10
242.17218
 20
447.903381
 10
242.791855
 20
447.935455
 10
243.467239
 20
447.964172
 10
244.188049
 20
447.989227
 10
244.943054
 20
448.010315
 10
245.720627
 20
448.027344
 10
246.509201
 20
448.040314
 10
247.297867
 20
448.049316
 10
248.076721
 20
448.054535
 10
248.837128
 20
448.056213
 10
249.597382
 20
448.054535
 10
250.376144
 20
448.049377
 10
251.164795
 20
448.040405
 10
251.9534
 20
448.027435
 10
252.731064
 20
448.010437
 10
253.486252
 20
447.989349
 10
254.207291
 20
447.964325
 10
254.88298
 20
447.935638
 10
255.503006
 20
447.903595
 10
256.058624
 20
447.868652
 10
256.542908
 20
447.83139
 10
256.951141
 20
447.792328
 10
257.280853
 20
447.752106
 10
257.53186
 20
447.711334
 10
257.705963
 20
447.670532
 10
257.806793
 20
447.630249
 10
257.839355
 20
447.590698
  0
LWPOLYLINE
  5
96
330
7B
100
AcDbEntity
  8
0
  6
Continuous
 62
     0
370
    30
100
AcDbPolyline
 90
        7
 70
     0
 43
0.0
 10
236.890137
 20
417.809509
 10
236.878189
 20
417.858826
 10
236.942047
 20
417.908081
 10
237.080948
 20
417.956787
 10
237.292709
 20
418.004517
 10
237.573853
 20
418.050842
 10
237.929733
 20
418.096527
  0
LINE
  5
97
330
7B
100
AcDbEntity
  8
0
  6
Continuous
 62
     0
370
    30
100
AcDbLine
 10
237.929734
 20
418.096535
 30
0.0
 11
237.929734
 21
419.894125
 31
0.0
  0
LWPOLYLINE
  5
98
330
7B
100
AcDbEntity
  8
0
  6
Continuous
 62
     0
370
    30
100
AcDbPolyline
 90
       12
 70
     0
 43
0.0
 10
237.929733
 20
419.894135
 10
238.320221
 20
420.12085
 10
238.77124
 20
420.311432
 10
239.280807
 20
420.464935
 10
239.846375
 20
420.579376
 10
240.464554
 20
420.653198
 10
241.130875
 20
420.685608
 10
241.839996
 20
420.6763
 10
242.58638
 20
420.62561
 10
243.36409
 20
420.534607
 10
244.167343
 20
420.404877
 10
245.032257
 20
420.227539
  0
LINE
  5
99
330
7B
100
AcDbEntity
  8
0
  6
Continuous
 62
     0
370
    30
100
AcDbLine
 10
245.032259
 20
420.227551
 30
0.0
 11
245.032259
 21
418.42996
 31
0.0
  0
LWPOLYLINE
  5
9A
330
7B
100
AcDbEntity
  8
0
  6
Continuous
 62
     0
370
    30
100
AcDbPolyline
 90
       26
 70
     0
 43
0.0
 10
245.032257
 20
418.429962
 10
245.945831
 20
418.443878
 10
246.889038
 20
418.454071
 10
247.853409
 20
418.460388
 10
248.829788
 20
418.462616
 10
249.808517
 20
418.460724
 10
250.779861
 20
418.454742
 10
251.734238
 20
418.444733
 10
252.662613
 20
418.430878
 10
253.556686
 20
418.413422
 10
254.40921
 20
418.392639
 10
255.214081
 20
418.368896
 10
255.966476
 20
418.34259
 10
256.662903
 20
418.314087
 10
257.301086
 20
418.283813
 10
257.880737
 20
418.252075
 10
258.421387
 20
418.217926
 10
258.926147
 20
418.180908
 10
259.387604
 20
418.141113
 10
259.79834
 20
418.098755
 10
260.151306
 20
418.054047
 10
260.439941
 20
418.007324
 10
260.65863
 20
417.958923
 10
260.802826
 20
417.909332
 10
260.869232
 20
417.858948
 10
260.856079
 20
417.808258
  0
LWPOLYLINE
  5
9B
330
7B
100
AcDbEntity
  8
0
  6
Continuous
 62
     0
370
    30
100
AcDbPolyline
 90
       34
 70
     0
 43
0.0
 10
257.826813
 20
416.694946
 10
258.359619
 20
416.735016
 10
258.82547
 20
416.777222
 10
259.221252
 20
416.82132
 10
259.543915
 20
416.866943
 10
259.791412
 20
416.913788
 10
259.962372
 20
416.961487
 10
260.055359
 20
417.009766
 10
260.069794
 20
417.058258
 10
260.006012
 20
417.106598
 10
259.864471
 20
417.15448
 10
259.645996
 20
417.201569
 10
259.352478
 20
417.247528
 10
258.986115
 20
417.292053
 10
258.549164
 20
417.334808
 10
258.044891
 20
417.375519
 10
257.476898
 20
417.41394
 10
256.848938
 20
417.449738
 10
256.165314
 20
417.482727
 10
255.430908
 20
417.512665
 10
254.650665
 20
417.539307
 10
253.829788
 20
417.5625
 10
252.974106
 20
417.582092
 10
252.089508
 20
417.597931
 10
251.181961
 20
417.609863
 10
250.257812
 20
417.617859
 10
249.323563
 20
417.621857
 10
248.385696
 20
417.621765
 10
247.45076
 20
417.617615
 10
246.525345
 20
417.609436
 10
245.616058
 20
417.59726
 10
244.72937
 20
417.581207
 10
243.871521
 20
417.56131
 10
243.041306
 20
417.537567
  0
LINE
  5
9C
330
7B
100
AcDbEntity
  8
0
  6
Continuous
 62
     0
370
    30
100
AcDbLine
 10
243.041304
 20
417.537566
 30
0.0
 11
239.920688
 21
417.39107
 31
0.0
  0
LWPOLYLINE
  5
9D
330
7B
100
AcDbEntity
  8
0
  6
Continuous
 62
     0
370
    30
100
AcDbPolyline
 90
       18
 70
     0
 43
0.0
 10
239.920685
 20
417.391083
 10
239.403671
 20
417.352295
 10
238.949356
 20
417.311493
 10
238.560699
 20
417.268951
 10
238.240234
 20
417.224915
 10
237.98999
 20
417.179688
 10
237.811569
 20
417.133606
 10
237.705994
 20
417.086945
 10
237.673889
 20
417.040009
 10
237.715363
 20
416.993103
 10
237.830017
 20
416.946564
 10
238.017014
 20
416.900696
 10
238.275024
 20
416.855743
 10
238.602325
 20
416.812042
 10
238.996704
 20
416.769867
 10
239.455566
 20
416.729492
 10
239.975906
 20
416.691162
 10
240.580261
 20
416.653687
  0
LWPOLYLINE
  5
9E
330
7B
100
AcDbEntity
  8
0
  6
Continuous
 62
     0
370
    30
100
AcDbPolyline
 90
       15
 70
     0
 43
0.0
 10
240.580261
 20
416.653687
 10
241.358948
 20
416.613464
 10
242.210297
 20
416.577393
 10
243.126175
 20
416.545807
 10
244.097916
 20
416.519012
 10
245.116257
 20
416.497284
 10
246.171478
 20
416.480804
 10
247.253464
 20
416.469788
 10
248.351807
 20
416.464325
 10
249.455887
 20
416.464478
 10
250.554932
 20
416.470276
 10
251.638214
 20
416.481628
 10
252.695099
 20
416.498474
 10
253.715134
 20
416.52063
 10
254.706177
 20
416.548462
  0
LINE
  5
9F
330
7B
100
AcDbEntity
  8
0
  6
Continuous
 62
     0
370
    30
100
AcDbLine
 10
254.706184
 20
416.548447
 30
0.0
 11
257.8268
 21
416.694944
 31
0.0
  0
LWPOLYLINE
  5
A0
330
7B
100
AcDbEntity
  8
0
  6
Continuous
 62
     0
370
     0
100
AcDbPolyline
 90
       37
 70
     0
 43
0.0
 10
241.209671
 20
416.683228
 10
240.634384
 20
416.719025
 10
240.121368
 20
416.757263
 10
239.674332
 20
416.797699
 10
239.296906
 20
416.839966
 10
238.992065
 20
416.88382
 10
238.761749
 20
416.928864
 10
238.607895
 20
416.974823
 10
238.532227
 20
417.021301
 10
238.535141
 20
417.067993
 10
238.616455
 20
417.114502
 10
238.775955
 20
417.160492
 10
239.012833
 20
417.205627
 10
239.324921
 20
417.249512
 10
239.709824
 20
417.29187
 10
240.165131
 20
417.332306
 10
240.687302
 20
417.370544
 10
241.271988
 20
417.406311
 10
241.914795
 20
417.439301
 10
242.611115
 20
417.469238
 10
243.35527
 20
417.495911
 10
244.141357
 20
417.519104
 10
244.963425
 20
417.538666
 10
245.815216
 20
417.554443
 10
246.689987
 20
417.566284
 10
247.580948
 20
417.574158
 10
248.481323
 20
417.577972
 10
249.384262
 20
417.577698
 10
250.282867
 20
417.573364
 10
251.170258
 20
417.565002
 10
252.039703
 20
417.552673
 10
252.884827
 20
417.536499
 10
253.69931
 20
417.516602
 10
254.476883
 20
417.493134
 10
255.211807
 20
417.466217
 10
255.898773
 20
417.436157
 10
256.537811
 20
417.402802
  0
LWPOLYLINE
  5
A1
330
7B
100
AcDbEntity
  8
0
  6
Continuous
 62
     0
370
     0
100
AcDbPolyline
 90
       37
 70
     0
 43
0.0
 10
256.537811
 20
417.402802
 10
257.113098
 20
417.367004
 10
257.626099
 20
417.328735
 10
258.073151
 20
417.28833
 10
258.450592
 20
417.246033
 10
258.755432
 20
417.202209
 10
258.985748
 20
417.157135
 10
259.139587
 20
417.111176
 10
259.215271
 20
417.064697
 10
259.212341
 20
417.018036
 10
259.131042
 20
416.971497
 10
258.971527
 20
416.925507
 10
258.73465
 20
416.880402
 10
258.422577
 20
416.836487
 10
258.037659
 20
416.794159
 10
257.582367
 20
416.753693
 10
257.060181
 20
416.715454
 10
256.475494
 20
416.679718
 10
255.832687
 20
416.646729
 10
255.136368
 20
416.616791
 10
254.392212
 20
416.590118
 10
253.606125
 20
416.566895
 10
252.784058
 20
416.547333
 10
251.932266
 20
416.531586
 10
251.05751
 20
416.519714
 10
250.16655
 20
416.511841
 10
249.266159
 20
416.508057
 10
248.363235
 20
416.508331
 10
247.464615
 20
416.512634
 10
246.577225
 20
416.520996
 10
245.707794
 20
416.533325
 10
244.862656
 20
416.5495
 10
244.048172
 20
416.569397
 10
243.270599
 20
416.592896
 10
242.535675
 20
416.619781
 10
241.848709
 20
416.649872
 10
241.209671
 20
416.683228
  0
LWPOLYLINE
  5
A2
330
7B
100
AcDbEntity
  8
0
  6
Continuous
 62
     0
370
    30
100
AcDbPolyline
 90
        4
 70
     0
 43
0.0
 10
245.032242
 20
418.429901
 10
244.402527
 20
418.087128
 10
243.759796
 20
417.793579
 10
243.041306
 20
417.537567
  0
LWPOLYLINE
  5
A3
330
7B
100
AcDbEntity
  8
0
  6
Continuous
 62
     0
370
    30
100
AcDbPolyline
 90
        4
 70
     0
 43
0.0
 10
239.920685
 20
417.391083
 10
239.263809
 20
417.560455
 10
238.618378
 20
417.789459
 10
237.930542
 20
418.096527
  0
LINE
  5
A4
330
7B
100
AcDbEntity
  8
0
  6
Continuous
 62
     0
370
    30
100
AcDbLine
 10
245.032259
 20
420.227551
 30
0.0
 11
237.929734
 21
419.894125
 31
0.0
  0
LWPOLYLINE
  5
A5
330
7B
100
AcDbEntity
  8
0
  6
Continuous
 62
     0
370
     0
100
AcDbPolyline
 90
        5
 70
     0
 43
0.0
 10
235.873749
 20
427.324829
 10
235.893814
 20
427.362183
 10
235.952621
 20
427.398804
 10
236.047867
 20
427.434509
 10
236.238373
 20
427.482971
  0
LWPOLYLINE
  5
A6
330
7B
100
AcDbEntity
  8
0
  6
Continuous
 62
     0
370
     0
100
AcDbPolyline
 90
       40
 70
     0
 43
0.0
 10
236.238373
 20
427.482971
 10
236.473602
 20
427.526733
 10
236.773758
 20
427.570679
 10
237.141251
 20
427.614441
 10
237.577637
 20
427.657623
 10
238.083389
 20
427.69986
 10
238.657761
 20
427.740662
 10
239.298752
 20
427.779663
 10
240.003036
 20
427.816376
 10
240.766006
 20
427.850464
 10
241.581787
 20
427.8815
 10
242.443466
 20
427.909241
 10
243.343246
 20
427.93338
 10
244.272644
 20
427.953735
 10
245.222794
 20
427.970184
 10
246.184738
 20
427.982697
 10
247.149628
 20
427.991302
 10
248.109055
 20
427.996094
 10
249.055161
 20
427.997192
 10
249.980911
 20
427.994812
 10
250.880142
 20
427.989197
 10
251.74762
 20
427.980621
 10
252.593185
 20
427.969147
 10
253.44249
 20
427.954346
 10
254.289932
 20
427.936096
 10
255.128113
 20
427.914307
 10
255.949158
 20
427.888947
 10
256.744873
 20
427.859985
 10
257.506897
 20
427.827576
 10
258.227081
 20
427.79184
 10
258.897552
 20
427.752991
 10
259.511139
 20
427.711365
 10
260.061554
 20
427.667297
 10
260.543579
 20
427.621124
 10
260.953278
 20
427.573364
 10
261.287994
 20
427.524414
 10
261.54657
 20
427.474731
 10
261.729218
 20
427.424835
 10
261.837372
 20
427.375092
 10
261.873749
 20
427.324829
  0
LWPOLYLINE
  5
A7
330
7B
100
AcDbEntity
  8
0
  6
Continuous
 62
     0
370
     0
100
AcDbPolyline
 90
       42
 70
     0
 43
0.0
 10
262.024078
 20
427.610382
 10
262.119293
 20
427.658203
 10
262.149506
 20
427.707336
 10
262.110168
 20
427.757446
 10
261.99762
 20
427.808197
 10
261.809113
 20
427.8591
 10
261.543213
 20
427.909729
 10
261.199768
 20
427.959656
 10
260.779999
 20
428.008331
 10
260.286621
 20
428.055359
 10
259.723663
 20
428.100281
 10
259.096497
 20
428.1427
 10
258.411499
 20
428.18222
 10
257.676056
 20
428.218628
 10
256.898102
 20
428.251617
 10
256.085968
 20
428.281097
 10
255.248169
 20
428.306915
 10
254.393051
 20
428.329102
 10
253.528595
 20
428.347656
 10
252.662323
 20
428.362701
 10
251.799835
 20
428.374359
 10
250.914688
 20
428.383087
 10
249.997253
 20
428.388794
 10
249.052826
 20
428.391205
 10
248.087692
 20
428.390045
 10
247.109055
 20
428.385162
 10
246.124863
 20
428.376373
 10
245.143707
 20
428.363586
 10
244.174576
 20
428.346802
 10
243.226593
 20
428.32605
 10
242.308792
 20
428.301422
 10
241.429764
 20
428.273163
 10
240.597488
 20
428.241486
 10
239.819
 20
428.206757
 10
239.100235
 20
428.169312
 10
238.445938
 20
428.129578
 10
237.859497
 20
428.087952
 10
237.342941
 20
428.044891
 10
236.897049
 20
428.000854
 10
236.521362
 20
427.956207
 10
236.21431
 20
427.911377
 10
235.970245
 20
427.866058
  0
LWPOLYLINE
  5
A8
330
7B
100
AcDbEntity
  8
0
  6
Continuous
 62
     0
370
     0
100
AcDbPolyline
 90
        7
 70
     0
 43
0.0
 10
235.970245
 20
427.866058
 10
235.812637
 20
427.827606
 10
235.695816
 20
427.787842
 10
235.623184
 20
427.746948
 10
235.597885
 20
427.705139
 10
235.622711
 20
427.662598
 10
235.723404
 20
427.610382
  0
LWPOLYLINE
  5
A9
330
7B
100
AcDbEntity
  8
0
  6
Continuous
 62
     0
370
    30
100
AcDbPolyline
 90
       10
 70
     0
 43
0.0
 10
236.873749
 20
423.329742
 10
236.538177
 20
423.376129
 10
236.271515
 20
423.423309
 10
236.073959
 20
423.470795
 10
235.94455
 20
423.51828
 10
235.881363
 20
423.565338
 10
235.881561
 20
423.611664
 10
235.941589
 20
423.656952
 10
236.057251
 20
423.700928
 10
236.238373
 20
423.74649
  0
ARC
  5
AA
330
7B
100
AcDbEntity
  8
0
  6
Continuous
 62
     0
370
    30
100
AcDbCircle
 10
259.990892
 20
430.971295
 30
0.0
 40
7.692385027947418
100
AcDbArc
 50
276.590333
 51
281.383016
  0
LWPOLYLINE
  5
AB
330
7B
100
AcDbEntity
  8
0
  6
Continuous
 62
     0
370
    30
100
AcDbPolyline
 90
       43
 70
     0
 43
0.0
 10
236.238373
 20
423.74649
 10
236.476273
 20
423.79071
 10
236.780426
 20
423.835083
 10
237.153305
 20
423.879272
 10
237.596497
 20
423.922852
 10
238.110428
 20
423.965454
 10
238.69429
 20
424.006592
 10
239.345947
 20
424.045807
 10
240.061859
 20
424.082733
 10
240.837204
 20
424.116882
 10
241.665833
 20
424.147949
 10
242.540527
 20
424.175568
 10
243.45314
 20
424.199524
 10
244.394913
 20
424.219604
 10
245.356674
 20
424.235687
 10
246.329178
 20
424.247772
 10
247.303391
 20
424.255859
 10
248.270691
 20
424.26004
 10
249.223145
 20
424.260529
 10
250.15361
 20
424.257507
 10
251.055954
 20
424.251221
 10
251.924957
 20
424.241974
 10
252.779434
 20
424.229706
 10
253.637421
 20
424.213989
 10
254.491791
 20
424.194733
 10
255.334854
 20
424.171844
 10
256.158386
 20
424.145294
 10
256.953827
 20
424.115112
 10
257.712677
 20
424.081421
 10
258.426544
 20
424.044434
 10
259.087494
 20
424.004333
 10
259.688416
 20
423.961487
 10
260.223114
 20
423.91626
 10
260.686646
 20
423.86908
 10
261.075317
 20
423.820374
 10
261.386963
 20
423.77063
 10
261.62088
 20
423.720337
 10
261.777679
 20
423.669952
 10
261.859436
 20
423.619904
 10
261.869232
 20
423.570648
 10
261.811249
 20
423.522491
 10
261.690369
 20
423.47583
 10
261.509125
 20
423.430206
  0
LWPOLYLINE
  5
AC
330
7B
100
AcDbEntity
  8
0
  6
Continuous
 62
     0
370
     0
100
AcDbPolyline
 90
        7
 70
     0
 43
0.0
 10
236.873749
 20
423.461029
 10
236.727859
 20
423.50592
 10
236.644684
 20
423.551208
 10
236.624802
 20
423.59668
 10
236.667999
 20
423.64212
 10
236.773956
 20
423.687286
 10
236.967331
 20
423.737366
  0
LWPOLYLINE
  5
AD
330
7B
100
AcDbEntity
  8
0
  6
Continuous
 62
     0
370
     0
100
AcDbPolyline
 90
       40
 70
     0
 43
0.0
 10
236.967331
 20
423.737366
 10
237.234207
 20
423.785889
 10
237.574951
 20
423.83316
 10
237.987106
 20
423.878876
 10
238.468246
 20
423.922729
 10
239.015594
 20
423.964478
 10
239.625351
 20
424.003845
 10
240.293503
 20
424.040588
 10
241.016006
 20
424.074463
 10
241.788559
 20
424.105255
 10
242.605988
 20
424.132751
 10
243.462997
 20
424.15683
 10
244.354279
 20
424.177277
 10
245.274323
 20
424.194
 10
246.217178
 20
424.206879
 10
247.176788
 20
424.215881
 10
248.147141
 20
424.220856
 10
249.122116
 20
424.221832
 10
250.095566
 20
424.218811
 10
251.061279
 20
424.211792
 10
252.013077
 20
424.200836
 10
252.944931
 20
424.185944
 10
253.851059
 20
424.167297
 10
254.725739
 20
424.14502
 10
255.563232
 20
424.119171
 10
256.358185
 20
424.089966
 10
257.105865
 20
424.057587
 10
257.801514
 20
424.022217
 10
258.44046
 20
423.984131
 10
259.018585
 20
423.943512
 10
259.532593
 20
423.900635
 10
259.979248
 20
423.855804
 10
260.355316
 20
423.809265
 10
260.658417
 20
423.761322
 10
260.887024
 20
423.71228
 10
261.039764
 20
423.662476
 10
261.115204
 20
423.612183
 10
261.112885
 20
423.561737
 10
261.033142
 20
423.511475
 10
260.873749
 20
423.460999
  0
LWPOLYLINE
  5
AE
330
7B
100
AcDbEntity
  8
0
  6
Continuous
 62
     0
370
     0
100
AcDbPolyline
 90
        4
 70
     0
 43
0.0
 10
236.763138
 20
435.951538
 10
236.813202
 20
435.992706
 10
236.91275
 20
436.032745
 10
237.097549
 20
436.0802
  0
LWPOLYLINE
  5
AF
330
7B
100
AcDbEntity
  8
0
  6
Continuous
 62
     0
370
     0
100
AcDbPolyline
 90
       38
 70
     0
 43
0.0
 10
237.097549
 20
436.0802
 10
237.327576
 20
436.122742
 10
237.62355
 20
436.165466
 10
237.987976
 20
436.207947
 10
238.422394
 20
436.249817
 10
238.927078
 20
436.290649
 10
239.501022
 20
436.329926
 10
240.141769
 20
436.367249
 10
240.845413
 20
436.402161
 10
241.606644
 20
436.434265
 10
242.418823
 20
436.463135
 10
243.274231
 20
436.488556
 10
244.164246
 20
436.510223
 10
245.079681
 20
436.527985
 10
246.011078
 20
436.541748
 10
246.94899
 20
436.551544
 10
247.884323
 20
436.557404
 10
248.808548
 20
436.559479
 10
249.713959
 20
436.557983
 10
250.593811
 20
436.553131
 10
251.442352
 20
436.545258
 10
252.265091
 20
436.534454
 10
253.090607
 20
436.520325
 10
253.914581
 20
436.502686
 10
254.729233
 20
436.481445
 10
255.52623
 20
436.456573
 10
256.296875
 20
436.428101
 10
257.032379
 20
436.396118
 10
257.724091
 20
436.360809
 10
258.363861
 20
436.322418
 10
258.944275
 20
436.28125
 10
259.458954
 20
436.237732
 10
259.902802
 20
436.19223
 10
260.272125
 20
436.145294
 10
260.564758
 20
436.097321
 10
260.780121
 20
436.048889
 10
260.919067
 20
436.000397
 10
260.984344
 20
435.951538
  0
LWPOLYLINE
  5
B0
330
7B
100
AcDbEntity
  8
0
  6
Continuous
 62
     0
370
    30
100
AcDbPolyline
 90
       34
 70
     0
 43
0.0
 10
258.308197
 20
440.578491
 10
258.24884
 20
440.620483
 10
258.116669
 20
440.662811
 10
257.909424
 20
440.705048
 10
257.626648
 20
440.746582
 10
257.269623
 20
440.786957
 10
256.841675
 20
440.825623
 10
256.347839
 20
440.862061
 10
255.7948
 20
440.895844
 10
255.190536
 20
440.926666
 10
254.544006
 20
440.954193
 10
253.864731
 20
440.978271
 10
253.162338
 20
440.99881
 10
252.446243
 20
441.015778
 10
251.725296
 20
441.029297
 10
251.007233
 20
441.039459
 10
250.270721
 20
441.046722
 10
249.503189
 20
441.051025
 10
248.710876
 20
441.052032
 10
247.901291
 20
441.0495
 10
247.083115
 20
441.043243
 10
246.2659
 20
441.033112
 10
245.459839
 20
441.019043
 10
244.675323
 20
441.00116
 10
243.922577
 20
440.979553
 10
243.211136
 20
440.954498
 10
242.549561
 20
440.9263
 10
241.945007
 20
440.895416
 10
241.40303
 20
440.862274
 10
240.927429
 20
440.827362
 10
240.520233
 20
440.791168
 10
240.181747
 20
440.754211
 10
239.910767
 20
440.716949
 10
239.699814
 20
440.678711
  0
LWPOLYLINE
  5
B1
330
7B
100
AcDbEntity
  8
0
  6
Continuous
 62
     0
370
    30
100
AcDbPolyline
 90
        4
 70
     0
 43
0.0
 10
239.699814
 20
440.678711
 10
239.587616
 20
440.651306
 10
239.504501
 20
440.623016
 10
239.439285
 20
440.578491
  0
LWPOLYLINE
  5
B2
330
7B
100
AcDbEntity
  8
0
  6
Continuous
 62
     0
370
     0
100
AcDbPolyline
 90
        5
 70
     0
 43
0.0
 10
236.625748
 20
435.422028
 10
236.635147
 20
435.460815
 10
236.688995
 20
435.498779
 10
236.784454
 20
435.535767
 10
236.967331
 20
435.582489
  0
LWPOLYLINE
  5
B3
330
7B
100
AcDbEntity
  8
0
  6
Continuous
 62
     0
370
     0
100
AcDbPolyline
 90
       39
 70
     0
 43
0.0
 10
236.967331
 20
435.582489
 10
237.197327
 20
435.625092
 10
237.492676
 20
435.667847
 10
237.855881
 20
435.710419
 10
238.288437
 20
435.75238
 10
238.79068
 20
435.793304
 10
239.361694
 20
435.832733
 10
239.999115
 20
435.870239
 10
240.699219
 20
435.905365
 10
241.456863
 20
435.937744
 10
242.265656
 20
435.96701
 10
243.118088
 20
435.992798
 10
244.005798
 20
436.014923
 10
244.9198
 20
436.033173
 10
245.8508
 20
436.047485
 10
246.78952
 20
436.057861
 10
247.726959
 20
436.064301
 10
248.654663
 20
436.066986
 10
249.564926
 20
436.066071
 10
250.450912
 20
436.061829
 10
251.306824
 20
436.054474
 10
252.132843
 20
436.04425
 10
252.958786
 20
436.030823
 10
253.78476
 20
436.013947
 10
254.603287
 20
435.9935
 10
255.406265
 20
435.969482
 10
256.185242
 20
435.941864
 10
256.931549
 20
435.910706
 10
257.636658
 20
435.876221
 10
258.292389
 20
435.838623
 10
258.891266
 20
435.798157
 10
259.426666
 20
435.755249
 10
259.893219
 20
435.710236
 10
260.286865
 20
435.663635
 10
260.60498
 20
435.615906
 10
260.846497
 20
435.567505
 10
261.01181
 20
435.518921
 10
261.102661
 20
435.470612
 10
261.121735
 20
435.421997
  0
LWPOLYLINE
  5
B4
330
7B
100
AcDbEntity
  8
0
  6
Continuous
 62
     0
370
    30
100
AcDbPolyline
 90
        5
 70
     0
 43
0.0
 10
234.873703
 20
435.071259
 10
234.894165
 20
435.110291
 10
234.955154
 20
435.1492
 10
235.056519
 20
435.187897
 10
235.266418
 20
435.241577
  0
LWPOLYLINE
  5
B5
330
7B
100
AcDbEntity
  8
0
  6
Continuous
 62
     0
370
    30
100
AcDbPolyline
 90
       40
 70
     0
 43
0.0
 10
235.266418
 20
435.241577
 10
235.549179
 20
435.293488
 10
235.905975
 20
435.344147
 10
236.334518
 20
435.393311
 10
236.832535
 20
435.440704
 10
237.397598
 20
435.486023
 10
238.026398
 20
435.529053
 10
238.715134
 20
435.56955
 10
239.460068
 20
435.607269
 10
240.257401
 20
435.642029
 10
241.102676
 20
435.673584
 10
241.990967
 20
435.701843
 10
242.917297
 20
435.726593
 10
243.876694
 20
435.747711
 10
244.863937
 20
435.765045
 10
245.873398
 20
435.778564
 10
246.899429
 20
435.788177
 10
247.936386
 20
435.793793
 10
248.978577
 20
435.79538
 10
250.020218
 20
435.792969
 10
251.055527
 20
435.78656
 10
252.078705
 20
435.776184
 10
253.084015
 20
435.761871
 10
254.065994
 20
435.743744
 10
255.019302
 20
435.721893
 10
255.938538
 20
435.696442
 10
256.81842
 20
435.667511
 10
257.654175
 20
435.635254
 10
258.441406
 20
435.599915
 10
259.17569
 20
435.561615
 10
259.852661
 20
435.520599
 10
260.468567
 20
435.477081
 10
261.020325
 20
435.431305
 10
261.504944
 20
435.383575
 10
261.919342
 20
435.334076
 10
262.261078
 20
435.283142
 10
262.528656
 20
435.231018
 10
262.720825
 20
435.178009
 10
262.836182
 20
435.12439
 10
262.873749
 20
435.069763
  0
LWPOLYLINE
  5
B6
330
7B
100
AcDbEntity
  8
0
  6
Continuous
 62
     0
370
     0
100
AcDbPolyline
 90
        5
 70
     0
 43
0.0
 10
234.873749
 20
432.26593
 10
234.896103
 20
432.306824
 10
234.961548
 20
432.346893
 10
235.067505
 20
432.385986
 10
235.266418
 20
432.436218
  0
LWPOLYLINE
  5
B7
330
7B
100
AcDbEntity
  8
0
  6
Continuous
 62
     0
370
     0
100
AcDbPolyline
 90
       41
 70
     0
 43
0.0
 10
235.266418
 20
432.436218
 10
235.512665
 20
432.482178
 10
235.825333
 20
432.52832
 10
236.206909
 20
432.57431
 10
236.658981
 20
432.619751
 10
237.182114
 20
432.664246
 10
237.775696
 20
432.707336
 10
238.437943
 20
432.748627
 10
239.16571
 20
432.787659
 10
239.95462
 20
432.824066
 10
240.799088
 20
432.857483
 10
241.692429
 20
432.887512
 10
242.627029
 20
432.913971
 10
243.594604
 20
432.936584
 10
244.58638
 20
432.955261
 10
245.593414
 20
432.969879
 10
246.606781
 20
432.980499
 10
247.617889
 20
432.987122
 10
248.618652
 20
432.989929
 10
249.601639
 20
432.989075
 10
250.560303
 20
432.984772
 10
251.488953
 20
432.977295
 10
252.384308
 20
432.966919
 10
253.274384
 20
432.953339
 10
254.166534
 20
432.93631
 10
255.053757
 20
432.91568
 10
255.928482
 20
432.891388
 10
256.782654
 20
432.863434
 10
257.608032
 20
432.831848
 10
258.396301
 20
432.796753
 10
259.139343
 20
432.758301
 10
259.829468
 20
432.716736
 10
260.459747
 20
432.672424
 10
261.024078
 20
432.625641
 10
261.517487
 20
432.576843
 10
261.936249
 20
432.526459
 10
262.277985
 20
432.474915
 10
262.541656
 20
432.422699
 10
262.7276
 20
432.37027
 10
262.837402
 20
432.318054
 10
262.873749
 20
432.26593
  0
LWPOLYLINE
  5
B8
330
7B
100
AcDbEntity
  8
0
  6
Continuous
 62
     0
370
     0
100
AcDbPolyline
 90
        4
 70
     0
 43
0.0
 10
234.761047
 20
432.007812
 10
234.825668
 20
432.046448
 10
234.927597
 20
432.084167
 10
235.132355
 20
432.136108
  0
LWPOLYLINE
  5
B9
330
7B
100
AcDbEntity
  8
0
  6
Continuous
 62
     0
370
     0
100
AcDbPolyline
 90
       40
 70
     0
 43
0.0
 10
235.132355
 20
432.136108
 10
235.382248
 20
432.182709
 10
235.699814
 20
432.229523
 10
236.08757
 20
432.276184
 10
236.547165
 20
432.322235
 10
237.079117
 20
432.36734
 10
237.682831
 20
432.411011
 10
238.3564
 20
432.45282
 10
239.096603
 20
432.49234
 10
239.898911
 20
432.529175
 10
240.757553
 20
432.562897
 10
241.665649
 20
432.593231
 10
242.615402
 20
432.619843
 10
243.598282
 20
432.642578
 10
244.605316
 20
432.661285
 10
245.627319
 20
432.675873
 10
246.655212
 20
432.68634
 10
247.680206
 20
432.69278
 10
248.694077
 20
432.695343
 10
249.689316
 20
432.694183
 10
250.659241
 20
432.689545
 10
251.598145
 20
432.681702
 10
252.504074
 20
432.670868
 10
253.407288
 20
432.656769
 10
254.311951
 20
432.63913
 10
255.210815
 20
432.617828
 10
256.096069
 20
432.592773
 10
256.959473
 20
432.563995
 10
257.792542
 20
432.531525
 10
258.586823
 20
432.495483
 10
259.333984
 20
432.456085
 10
260.026337
 20
432.413574
 10
260.656799
 20
432.368225
 10
261.21933
 20
432.320496
 10
261.708984
 20
432.270721
 10
262.122192
 20
432.219421
 10
262.456665
 20
432.167023
 10
262.711578
 20
432.113983
 10
262.887512
 20
432.060822
 10
262.98645
 20
432.007812
  0
LWPOLYLINE
  5
BA
330
7B
100
AcDbEntity
  8
0
  6
Continuous
 62
     0
370
    30
100
AcDbPolyline
 90
       40
 70
     0
 43
0.0
 10
236.873749
 20
423.588318
 10
236.912628
 20
423.638245
 10
237.028915
 20
423.687866
 10
237.222
 20
423.736816
 10
237.49057
 20
423.78479
 10
237.833069
 20
423.831512
 10
238.247177
 20
423.876648
 10
238.729889
 20
423.919952
 10
239.278152
 20
423.96106
 10
239.888779
 20
423.999786
 10
240.557693
 20
424.035828
 10
241.280518
 20
424.06897
 10
242.052597
 20
424.098999
 10
242.868774
 20
424.125732
 10
243.723785
 20
424.148987
 10
244.612274
 20
424.168579
 10
245.528366
 20
424.184448
 10
246.466141
 20
424.196411
 10
247.41951
 20
424.204468
 10
248.382294
 20
424.208527
 10
249.348267
 20
424.208557
 10
250.311172
 20
424.20459
 10
251.264771
 20
424.196594
 10
252.202881
 20
424.184692
 10
253.119385
 20
424.168915
 10
254.008286
 20
424.149353
 10
254.863998
 20
424.12616
 10
255.68103
 20
424.099518
 10
256.453888
 20
424.06955
 10
257.177582
 20
424.036438
 10
257.847473
 20
424.000427
 10
258.459076
 20
423.961761
 10
259.008667
 20
423.920685
 10
259.492737
 20
423.877441
 10
259.907867
 20
423.832336
 10
260.251465
 20
423.785645
 10
260.521423
 20
423.737671
 10
260.71579
 20
423.688721
 10
260.833527
 20
423.63913
 10
260.873718
 20
423.588348
  0
LINE
  5
BB
330
7B
100
AcDbEntity
  8
0
  6
Continuous
 62
     0
370
    30
100
AcDbLine
 10
239.839361
 20
447.590686
 30
0.0
 11
239.839361
 21
440.705257
 31
0.0
  0
LINE
  5
BC
330
7B
100
AcDbEntity
  8
0
  6
Continuous
 62
     0
370
    30
100
AcDbLine
 10
236.889829
 20
417.809811
 30
0.0
 11
237.688757
 21
417.013024
 31
0.0
  0
LINE
  5
BD
330
7B
100
AcDbEntity
  8
0
  6
Continuous
 62
     0
370
    30
100
AcDbLine
 10
260.857277
 20
417.810183
 30
0.0
 11
260.058769
 21
417.013764
 31
0.0
  0
LINE
  5
BE
330
7B
100
AcDbEntity
  8
0
  6
Continuous
 62
     0
370
    30
100
AcDbLine
 10
236.873744
 20
417.841936
 30
0.0
 11
236.873744
 21
423.588359
 31
0.0
  0
LINE
  5
BF
330
7B
100
AcDbEntity
  8
0
  6
Continuous
 62
     0
370
    30
100
AcDbLine
 10
260.873744
 20
417.841936
 30
0.0
 11
260.873744
 21
423.588359
 31
0.0
  0
LWPOLYLINE
  5
C0
330
7B
100
AcDbEntity
  8
0
  6
Continuous
 62
     0
370
    30
100
AcDbPolyline
 90
       15
 70
     0
 43
0.0
 10
234.761047
 20
432.007812
 10
234.479095
 20
431.723236
 10
234.23587
 20
431.383911
 10
234.047882
 20
431.001221
 10
233.925858
 20
430.588074
 10
233.875107
 20
430.158203
 10
233.898331
 20
429.725708
 10
233.994614
 20
429.304749
 10
234.159164
 20
428.90921
 10
234.38356
 20
428.552399
 10
234.6539
 20
428.246521
 10
234.947754
 20
428.000854
 10
235.237747
 20
427.819305
 10
235.498947
 20
427.694153
 10
235.731186
 20
427.607025
  0
LWPOLYLINE
  5
C1
330
7B
100
AcDbEntity
  8
0
  6
Continuous
 62
     0
370
    30
100
AcDbPolyline
 90
       15
 70
     0
 43
0.0
 10
262.016296
 20
427.607025
 10
262.240784
 20
427.690918
 10
262.500824
 20
427.814453
 10
262.790009
 20
427.993988
 10
263.084503
 20
428.237335
 10
263.355682
 20
428.541412
 10
263.581726
 20
428.896667
 10
263.748444
 20
429.290985
 10
263.847076
 20
429.711212
 10
263.872772
 20
430.143463
 10
263.824646
 20
430.573547
 10
263.704895
 20
430.987366
 10
263.519104
 20
431.371246
 10
263.27771
 20
431.712219
 10
262.98645
 20
432.007812
  0
ARC
  5
C2
330
7B
100
AcDbEntity
  8
0
  6
Continuous
 62
     0
370
    30
100
AcDbCircle
 10
263.215086
 20
432.26129
 30
0.0
 40
0.3413740077042407
100
AcDbArc
 50
179.223661
 51
227.949383
  0
ARC
  5
C3
330
7B
100
AcDbEntity
  8
0
  6
Continuous
 62
     0
370
    30
100
AcDbCircle
 10
234.532402
 20
432.26129
 30
0.0
 40
0.3413737962670633
100
AcDbArc
 50
312.050591
 51
0.776354
  0
LINE
  5
C4
330
7B
100
AcDbEntity
  8
0
  6
Continuous
 62
     0
370
    30
100
AcDbLine
 10
234.873745
 20
435.071265
 30
0.0
 11
234.873745
 21
432.265916
 31
0.0
  0
LINE
  5
C5
330
7B
100
AcDbEntity
  8
0
  6
Continuous
 62
     0
370
    30
100
AcDbLine
 10
262.873744
 20
432.265916
 30
0.0
 11
262.873744
 21
435.071265
 31
0.0
  0
LINE
  5
C6
330
7B
100
AcDbEntity
  8
0
  6
Continuous
 62
     0
370
    30
100
AcDbLine
 10
236.623744
 20
435.433473
 30
0.0
 11
236.623744
 21
435.421848
 31
0.0
  0
LINE
  5
C7
330
7B
100
AcDbEntity
  8
0
  6
Continuous
 62
     0
370
    30
100
AcDbLine
 10
261.123744
 20
435.421824
 30
0.0
 11
261.123744
 21
435.433473
 31
0.0
  0
ARC
  5
C8
330
7B
100
AcDbEntity
  8
0
  6
Continuous
 62
     0
370
    30
100
AcDbCircle
 10
260.089347
 20
435.432944
 30
0.0
 40
1.034397194847875
100
AcDbArc
 50
0.029166
 51
30.089606
  0
ARC
  5
C9
330
7B
100
AcDbEntity
  8
0
  6
Continuous
 62
     0
370
    30
100
AcDbCircle
 10
237.65814
 20
435.432944
 30
0.0
 40
1.034396471614549
100
AcDbArc
 50
149.910383
 51
179.970866
  0
LINE
  5
CA
330
7B
100
AcDbEntity
  8
0
  6
Continuous
 62
     0
370
    30
100
AcDbLine
 10
236.763137
 20
435.951543
 30
0.0
 11
239.43929
 21
440.578501
 31
0.0
  0
LINE
  5
CB
330
7B
100
AcDbEntity
  8
0
  6
Continuous
 62
     0
370
    30
100
AcDbLine
 10
260.984351
 20
435.951543
 30
0.0
 11
258.308198
 21
440.578501
 31
0.0
  0
LINE
  5
CC
330
7B
100
AcDbEntity
  8
0
  6
Continuous
 62
     0
370
    30
100
AcDbLine
 10
235.873745
 20
427.324838
 30
0.0
 11
235.873745
 21
423.588359
 31
0.0
  0
LINE
  5
CD
330
7B
100
AcDbEntity
  8
0
  6
Continuous
 62
     0
370
    30
100
AcDbLine
 10
261.873743
 20
423.588359
 30
0.0
 11
261.873743
 21
427.324838
 31
0.0
  0
ARC
  5
CE
330
7B
100
AcDbEntity
  8
0
  6
Continuous
 62
     0
370
    30
100
AcDbCircle
 10
235.55227
 20
427.339017
 30
0.0
 40
0.3217871428879297
100
AcDbArc
 50
357.474495
 51
57.796878
  0
ARC
  5
CF
330
7B
100
AcDbEntity
  8
0
  6
Continuous
 62
     0
370
    30
100
AcDbCircle
 10
262.195216
 20
427.339018
 30
0.0
 40
0.3217855186413942
100
AcDbArc
 50
122.202335
 51
182.525632
  0
LINE
  5
D0
330
7B
100
AcDbEntity
  8
0
  6
Continuous
 62
     0
370
    30
100
AcDbLine
 10
257.839361
 20
447.590686
 30
0.0
 11
257.839361
 21
440.716522
 31
0.0
  0
ARC
  5
D1
330
7B
100
AcDbEntity
  8
0
  6
Continuous
 62
     0
370
    30
100
AcDbCircle
 10
248.839357
 20
487.418283
 30
0.0
 40
8.999995804246142
100
AcDbArc
 50
359.999309
 51
179.967607
  0
LINE
  5
D2
330
7B
100
AcDbEntity
  8
0
  6
Continuous
 62
     0
370
    30
100
AcDbLine
 10
257.839361
 20
447.590686
 30
0.0
 11
257.839361
 21
487.418175
 31
0.0
  0
ENDBLK
  5
D4
330
7B
100
AcDbEntity
  8
0
100
AcDbBlockEnd
  0
BLOCK
  5
194
330
D6
100
AcDbEntity
  8
0
100
AcDbBlockBegin
  2
b
 70
     0
 10
193.227478
 20
124.669403
 30
0.0
  3
b
  1

  0
LINE
  5
D7
330
D6
100
AcDbEntity
  8
0
  6
Continuous
 62
     0
370
    30
100
AcDbLine
 10
256.966913
 20
340.187057
 30
0.0
 11
256.966913
 21
340.870151
 31
0.0
  0
LINE
  5
D8
330
D6
100
AcDbEntity
  8
0
  6
Continuous
 62
     0
370
    30
100
AcDbLine
 10
256.984096
 20
340.187057
 30
0.0
 11
256.984096
 21
340.870151
 31
0.0
  0
LINE
  5
D9
330
D6
100
AcDbEntity
  8
0
  6
Continuous
 62
     0
370
    30
100
AcDbLine
 10
256.638262
 20
340.187057
 30
0.0
 11
256.984096
 21
340.187057
 31
0.0
  0
LINE
  5
DA
330
D6
100
AcDbEntity
  8
0
  6
Continuous
 62
     0
370
     0
100
AcDbLine
 10
257.833289
 20
302.291008
 30
0.0
 11
239.845426
 21
302.291008
 31
0.0
  0
LWPOLYLINE
  5
DB
330
D6
100
AcDbEntity
  8
0
  6
Continuous
 62
     0
370
    30
100
AcDbPolyline
 90
       60
 70
     0
 43
0.0
 10
221.357895
 20
344.791016
 10
221.343002
 20
344.791016
 10
221.406281
 20
344.791016
 10
221.547226
 20
344.791016
 10
221.765259
 20
344.791016
 10
222.05986
 20
344.791016
 10
222.430466
 20
344.791016
 10
222.876297
 20
344.791016
 10
223.395721
 20
344.791016
 10
223.98703
 20
344.791016
 10
224.648468
 20
344.791016
 10
225.378281
 20
344.791016
 10
226.174728
 20
344.791016
 10
227.035767
 20
344.791016
 10
227.958649
 20
344.791016
 10
228.940536
 20
344.791016
 10
229.978577
 20
344.791016
 10
231.069931
 20
344.791016
 10
232.211777
 20
344.791016
 10
233.40097
 20
344.791016
 10
234.633942
 20
344.791016
 10
235.907028
 20
344.791016
 10
237.216614
 20
344.791016
 10
238.559052
 20
344.791016
 10
239.930695
 20
344.791016
 10
241.327728
 20
344.791016
 10
242.746063
 20
344.791016
 10
244.181625
 20
344.791016
 10
245.630325
 20
344.791016
 10
247.088074
 20
344.791016
 10
248.550781
 20
344.791016
 10
250.014328
 20
344.791016
 10
251.474579
 20
344.791016
 10
252.927414
 20
344.791016
 10
254.368683
 20
344.791016
 10
255.794266
 20
344.791016
 10
257.200012
 20
344.791016
 10
258.582031
 20
344.791016
 10
259.936493
 20
344.791016
 10
261.259644
 20
344.791016
 10
262.547729
 20
344.791016
 10
263.796936
 20
344.791016
 10
265.00354
 20
344.791016
 10
266.164246
 20
344.791016
 10
267.27594
 20
344.791016
 10
268.335632
 20
344.791016
 10
269.34021
 20
344.791016
 10
270.286652
 20
344.791016
 10
271.171997
 20
344.791016
 10
271.993896
 20
344.791016
 10
272.750305
 20
344.791016
 10
273.43927
 20
344.791016
 10
274.058777
 20
344.791016
 10
274.60675
 20
344.791016
 10
275.08136
 20
344.791016
 10
275.481445
 20
344.791016
 10
275.806213
 20
344.791016
 10
276.05481
 20
344.791016
 10
276.226349
 20
344.791016
 10
276.320831
 20
344.791016
  0
LINE
  5
DC
330
D6
100
AcDbEntity
  8
0
  6
Continuous
 62
     0
370
    30
100
AcDbLine
 10
259.395972
 20
303.791008
 30
0.0
 11
238.282743
 21
303.791008
 31
0.0
  0
LWPOLYLINE
  5
DD
330
D6
100
AcDbEntity
  8
0
  6
Continuous
 62
     0
370
     0
100
AcDbPolyline
 90
       39
 70
     0
 43
0.0
 10
237.787323
 20
304.225983
 10
237.788193
 20
304.225983
 10
237.854874
 20
304.225983
 10
237.992188
 20
304.225983
 10
238.204025
 20
304.225983
 10
238.492935
 20
304.225983
 10
238.860016
 20
304.225983
 10
239.304657
 20
304.225983
 10
239.824448
 20
304.225983
 10
240.415192
 20
304.225983
 10
241.070953
 20
304.225983
 10
241.784302
 20
304.225983
 10
242.546539
 20
304.225983
 10
243.348099
 20
304.225983
 10
244.178894
 20
304.225983
 10
245.028702
 20
304.225983
 10
245.887543
 20
304.225983
 10
246.746017
 20
304.225983
 10
247.595551
 20
304.225983
 10
248.428558
 20
304.225983
 10
249.263641
 20
304.225983
 10
250.120193
 20
304.225983
 10
250.991013
 20
304.225983
 10
251.867783
 20
304.225983
 10
252.741257
 20
304.225983
 10
253.601547
 20
304.225983
 10
254.43837
 20
304.225983
 10
255.241394
 20
304.225983
 10
256.000732
 20
304.225983
 10
256.707184
 20
304.225983
 10
257.352783
 20
304.225983
 10
257.930878
 20
304.225983
 10
258.436584
 20
304.225983
 10
258.866669
 20
304.225983
 10
259.219788
 20
304.225983
 10
259.496277
 20
304.225983
 10
259.697968
 20
304.225983
 10
259.828125
 20
304.225983
 10
259.891388
 20
304.225983
  0
LINE
  5
DE
330
D6
100
AcDbEntity
  8
0
  6
Continuous
 62
     0
370
     0
100
AcDbLine
 10
264.78077
 20
327.905194
 30
0.0
 11
232.897945
 21
327.905195
 31
0.0
  0
LINE
  5
DF
330
D6
100
AcDbEntity
  8
0
  6
Continuous
 62
     0
370
     0
100
AcDbLine
 10
275.897511
 20
337.732235
 30
0.0
 11
221.781204
 21
337.732235
 31
0.0
  0
LWPOLYLINE
  5
E0
330
D6
100
AcDbEntity
  8
0
  6
Continuous
 62
     0
370
     0
100
AcDbPolyline
 90
       61
 70
     0
 43
0.0
 10
221.357895
 20
338.226349
 10
221.340973
 20
338.226349
 10
221.387756
 20
338.226349
 10
221.501587
 20
338.226349
 10
221.685501
 20
338.226349
 10
221.942154
 20
338.226349
 10
222.273712
 20
338.226349
 10
222.681839
 20
338.226349
 10
223.167618
 20
338.226349
 10
223.731476
 20
338.226349
 10
224.373138
 20
338.226349
 10
225.091675
 20
338.226349
 10
225.885376
 20
338.226349
 10
226.751831
 20
338.226349
 10
227.687897
 20
338.226349
 10
228.689789
 20
338.226349
 10
229.753067
 20
338.226349
 10
230.872757
 20
338.226349
 10
232.043365
 20
338.226349
 10
233.259064
 20
338.226349
 10
234.513672
 20
338.226349
 10
235.800812
 20
338.226349
 10
237.114044
 20
338.226349
 10
238.446884
 20
338.226349
 10
239.792969
 20
338.226349
 10
241.146103
 20
338.226349
 10
242.50032
 20
338.226349
 10
243.850006
 20
338.226349
 10
245.189911
 20
338.226349
 10
246.515182
 20
338.226349
 10
247.821411
 20
338.226349
 10
249.129639
 20
338.226349
 10
250.461685
 20
338.226349
 10
251.8134
 20
338.226349
 10
253.180145
 20
338.226349
 10
254.556854
 20
338.226349
 10
255.938049
 20
338.226349
 10
257.317902
 20
338.226349
 10
258.690247
 20
338.226349
 10
260.048767
 20
338.226349
 10
261.386963
 20
338.226349
 10
262.698242
 20
338.226349
 10
263.976135
 20
338.226349
 10
265.214233
 20
338.226349
 10
266.406494
 20
338.226349
 10
267.547089
 20
338.226349
 10
268.630707
 20
338.226349
 10
269.652527
 20
338.226349
 10
270.608337
 20
338.226349
 10
271.494568
 20
338.226349
 10
272.308319
 20
338.226349
 10
273.047424
 20
338.226349
 10
273.710388
 20
338.226349
 10
274.296539
 20
338.226349
 10
274.805817
 20
338.226349
 10
275.2388
 20
338.226349
 10
275.596741
 20
338.226349
 10
275.881378
 20
338.226349
 10
276.095001
 20
338.226349
 10
276.240265
 20
338.226349
 10
276.320831
 20
338.226349
  0
LINE
  5
E1
330
D6
100
AcDbEntity
  8
0
  6
Continuous
 62
     0
370
    30
100
AcDbLine
 10
238.777659
 20
340.186848
 30
0.0
 11
238.777659
 21
340.54658
 31
0.0
  0
LINE
  5
E2
330
D6
100
AcDbEntity
  8
0
  6
Continuous
 62
     0
370
    30
100
AcDbLine
 10
238.777659
 20
340.54658
 30
0.0
 11
240.187511
 21
342.466478
 31
0.0
  0
LINE
  5
E3
330
D6
100
AcDbEntity
  8
0
  6
Continuous
 62
     0
370
    30
100
AcDbLine
 10
240.187511
 20
342.466478
 30
0.0
 11
238.814466
 21
342.466478
 31
0.0
  0
LINE
  5
E4
330
D6
100
AcDbEntity
  8
0
  6
Continuous
 62
     0
370
    30
100
AcDbLine
 10
238.814466
 20
342.466478
 30
0.0
 11
238.814466
 21
342.782942
 31
0.0
  0
LINE
  5
E5
330
D6
100
AcDbEntity
  8
0
  6
Continuous
 62
     0
370
    30
100
AcDbLine
 10
238.814466
 20
342.782942
 30
0.0
 11
240.594685
 21
342.782942
 31
0.0
  0
LINE
  5
E6
330
D6
100
AcDbEntity
  8
0
  6
Continuous
 62
     0
370
    30
100
AcDbLine
 10
240.594685
 20
342.782942
 30
0.0
 11
240.594685
 21
342.426972
 31
0.0
  0
LINE
  5
E7
330
D6
100
AcDbEntity
  8
0
  6
Continuous
 62
     0
370
    30
100
AcDbLine
 10
240.594685
 20
342.426972
 30
0.0
 11
239.163789
 21
340.503521
 31
0.0
  0
LINE
  5
E8
330
D6
100
AcDbEntity
  8
0
  6
Continuous
 62
     0
370
    30
100
AcDbLine
 10
239.163789
 20
340.503521
 30
0.0
 11
240.618828
 21
340.503521
 31
0.0
  0
LINE
  5
E9
330
D6
100
AcDbEntity
  8
0
  6
Continuous
 62
     0
370
    30
100
AcDbLine
 10
240.618828
 20
340.503521
 30
0.0
 11
240.618828
 21
340.186848
 31
0.0
  0
LINE
  5
EA
330
D6
100
AcDbEntity
  8
0
  6
Continuous
 62
     0
370
    30
100
AcDbLine
 10
240.618828
 20
340.186848
 30
0.0
 11
238.777659
 21
340.186848
 31
0.0
  0
LINE
  5
EB
330
D6
100
AcDbEntity
  8
0
  6
Continuous
 62
     0
370
    30
100
AcDbLine
 10
240.946809
 20
342.782942
 30
0.0
 11
241.292029
 21
342.782942
 31
0.0
  0
LINE
  5
EC
330
D6
100
AcDbEntity
  8
0
  6
Continuous
 62
     0
370
    30
100
AcDbLine
 10
241.292029
 20
342.782942
 30
0.0
 11
241.292029
 21
341.175956
 31
0.0
  0
LWPOLYLINE
  5
ED
330
D6
100
AcDbEntity
  8
0
  6
Continuous
 62
     0
370
    30
100
AcDbPolyline
 90
        4
 70
     0
 43
0.0
 10
241.292023
 20
341.175964
 10
241.297989
 20
341.034271
 10
241.320312
 20
340.894287
 10
241.402893
 20
340.708588
  0
LWPOLYLINE
  5
EE
330
D6
100
AcDbEntity
  8
0
  6
Continuous
 62
     0
370
    30
100
AcDbPolyline
 90
        5
 70
     0
 43
0.0
 10
241.402893
 20
340.708588
 10
241.504013
 20
340.600311
 10
241.628433
 20
340.522095
 10
241.76712
 20
340.475342
 10
241.975784
 20
340.453156
  0
LWPOLYLINE
  5
EF
330
D6
100
AcDbEntity
  8
0
  6
Continuous
 62
     0
370
    30
100
AcDbPolyline
 90
        7
 70
     0
 43
0.0
 10
241.975784
 20
340.453156
 10
242.163483
 20
340.469604
 10
242.3423
 20
340.527802
 10
242.493988
 20
340.641449
 10
242.595764
 20
340.803436
 10
242.645355
 20
340.989563
 10
242.65686
 20
341.190155
  0
LINE
  5
F0
330
D6
100
AcDbEntity
  8
0
  6
Continuous
 62
     0
370
    30
100
AcDbLine
 10
242.656861
 20
341.190169
 30
0.0
 11
242.656861
 21
342.782942
 31
0.0
  0
LINE
  5
F1
330
D6
100
AcDbEntity
  8
0
  6
Continuous
 62
     0
370
    30
100
AcDbLine
 10
242.656861
 20
342.782942
 30
0.0
 11
242.997295
 21
342.782942
 31
0.0
  0
LINE
  5
F2
330
D6
100
AcDbEntity
  8
0
  6
Continuous
 62
     0
370
    30
100
AcDbLine
 10
242.997295
 20
342.782942
 30
0.0
 11
242.997295
 21
341.183062
 31
0.0
  0
LWPOLYLINE
  5
F3
330
D6
100
AcDbEntity
  8
0
  6
Continuous
 62
     0
370
    30
100
AcDbPolyline
 90
        4
 70
     0
 43
0.0
 10
242.997299
 20
341.183075
 10
242.982452
 20
340.950043
 10
242.922684
 20
340.72467
 10
242.789963
 20
340.492432
  0
LWPOLYLINE
  5
F4
330
D6
100
AcDbEntity
  8
0
  6
Continuous
 62
     0
370
    30
100
AcDbPolyline
 90
        5
 70
     0
 43
0.0
 10
242.789963
 20
340.492432
 10
242.632858
 20
340.336792
 10
242.442917
 20
340.22583
 10
242.232941
 20
340.160095
 10
241.975784
 20
340.133118
  0
LWPOLYLINE
  5
F5
330
D6
100
AcDbEntity
  8
0
  6
Continuous
 62
     0
370
    30
100
AcDbPolyline
 90
        5
 70
     0
 43
0.0
 10
241.975784
 20
340.133118
 10
241.724258
 20
340.157532
 10
241.482056
 20
340.230103
 10
241.265091
 20
340.358521
 10
241.091721
 20
340.54657
  0
LWPOLYLINE
  5
F6
330
D6
100
AcDbEntity
  8
0
  6
Continuous
 62
     0
370
    30
100
AcDbPolyline
 90
        4
 70
     0
 43
0.0
 10
241.091721
 20
340.54657
 10
240.999405
 20
340.741852
 10
240.95816
 20
340.955078
 10
240.946808
 20
341.20105
  0
LINE
  5
F7
330
D6
100
AcDbEntity
  8
0
  6
Continuous
 62
     0
370
    30
100
AcDbLine
 10
240.946809
 20
341.201039
 30
0.0
 11
240.946809
 21
342.782942
 31
0.0
  0
LINE
  5
F8
330
D6
100
AcDbEntity
  8
0
  6
Continuous
 62
     0
370
    30
100
AcDbLine
 10
245.33205
 20
342.081871
 30
0.0
 11
244.950827
 21
342.081871
 31
0.0
  0
LWPOLYLINE
  5
F9
330
D6
100
AcDbEntity
  8
0
  6
Continuous
 62
     0
370
    30
100
AcDbPolyline
 90
        6
 70
     0
 43
0.0
 10
244.950821
 20
342.081879
 10
244.913818
 20
342.230194
 10
244.836304
 20
342.361267
 10
244.719376
 20
342.458069
 10
244.577332
 20
342.511475
 10
244.396362
 20
342.531281
  0
LWPOLYLINE
  5
FA
330
D6
100
AcDbEntity
  8
0
  6
Continuous
 62
     0
370
    30
100
AcDbPolyline
 90
        9
 70
     0
 43
0.0
 10
244.396362
 20
342.531281
 10
244.218857
 20
342.509644
 10
244.053635
 20
342.444397
 10
243.917007
 20
342.330627
 10
243.815369
 20
342.183533
 10
243.74675
 20
342.018036
 10
243.703354
 20
341.843964
 10
243.679352
 20
341.666016
 10
243.670593
 20
341.459808
  0
LWPOLYLINE
  5
FB
330
D6
100
AcDbEntity
  8
0
  6
Continuous
 62
     0
370
    30
100
AcDbPolyline
 90
        8
 70
     0
 43
0.0
 10
243.670593
 20
341.459808
 10
243.679108
 20
341.258209
 10
243.708359
 20
341.058685
 10
243.765945
 20
340.865692
 10
243.86261
 20
340.689636
 10
244.006058
 20
340.550293
 10
244.187531
 20
340.468811
 10
244.392868
 20
340.442474
  0
LWPOLYLINE
  5
FC
330
D6
100
AcDbEntity
  8
0
  6
Continuous
 62
     0
370
    30
100
AcDbPolyline
 90
        4
 70
     0
 43
0.0
 10
244.392868
 20
340.442474
 10
244.524094
 20
340.453552
 10
244.650574
 20
340.489044
 10
244.808395
 20
340.596954
  0
LWPOLYLINE
  5
FD
330
D6
100
AcDbEntity
  8
0
  6
Continuous
 62
     0
370
    30
100
AcDbPolyline
 90
        3
 70
     0
 43
0.0
 10
244.808395
 20
340.596954
 10
244.876144
 20
340.692627
 10
244.933029
 20
340.870148
  0
LINE
  5
FE
330
D6
100
AcDbEntity
  8
0
  6
Continuous
 62
     0
370
    30
100
AcDbLine
 10
244.93303
 20
340.870151
 30
0.0
 11
245.324895
 21
340.870151
 31
0.0
  0
LWPOLYLINE
  5
FF
330
D6
100
AcDbEntity
  8
0
  6
Continuous
 62
     0
370
    30
100
AcDbPolyline
 90
        7
 70
     0
 43
0.0
 10
245.32489
 20
340.870148
 10
245.273117
 20
340.657471
 10
245.161377
 20
340.469879
 10
244.99942
 20
340.323975
 10
244.80545
 20
340.224731
 10
244.594467
 20
340.167877
 10
244.364502
 20
340.147552
  0
LWPOLYLINE
  5
100
330
D6
100
AcDbEntity
  8
0
  6
Continuous
 62
     0
370
    30
100
AcDbPolyline
 90
        9
 70
     0
 43
0.0
 10
244.364502
 20
340.147552
 10
244.129929
 20
340.169495
 10
243.90506
 20
340.236481
 10
243.705582
 20
340.359161
 10
243.544785
 20
340.53125
 10
243.428513
 20
340.736786
 10
243.352051
 20
340.960846
 10
243.308716
 20
341.19397
 10
243.292984
 20
341.456055
  0
LWPOLYLINE
  5
101
330
D6
100
AcDbEntity
  8
0
  6
Continuous
 62
     0
370
    30
100
AcDbPolyline
 90
        9
 70
     0
 43
0.0
 10
243.292984
 20
341.456055
 10
243.306992
 20
341.702759
 10
243.350372
 20
341.945892
 10
243.427643
 20
342.180054
 10
243.545166
 20
342.396179
 10
243.708038
 20
342.579681
 10
243.911484
 20
342.714508
 10
244.143341
 20
342.791748
 10
244.410599
 20
342.818909
  0
LWPOLYLINE
  5
102
330
D6
100
AcDbEntity
  8
0
  6
Continuous
 62
     0
370
    30
100
AcDbPolyline
 90
        7
 70
     0
 43
0.0
 10
244.410599
 20
342.818909
 10
244.625977
 20
342.801025
 10
244.835434
 20
342.746216
 10
245.027039
 20
342.646881
 10
245.183029
 20
342.497742
 10
245.285675
 20
342.307373
 10
245.332047
 20
342.081879
  0
LINE
  5
103
330
D6
100
AcDbEntity
  8
0
  6
Continuous
 62
     0
370
    30
100
AcDbLine
 10
247.602228
 20
342.081871
 30
0.0
 11
247.218067
 21
342.081871
 31
0.0
  0
LWPOLYLINE
  5
104
330
D6
100
AcDbEntity
  8
0
  6
Continuous
 62
     0
370
    30
100
AcDbPolyline
 90
        6
 70
     0
 43
0.0
 10
247.218063
 20
342.081879
 10
247.180664
 20
342.230286
 10
247.102402
 20
342.36145
 10
246.984299
 20
342.458221
 10
246.840775
 20
342.511597
 10
246.658493
 20
342.531281
  0
LWPOLYLINE
  5
105
330
D6
100
AcDbEntity
  8
0
  6
Continuous
 62
     0
370
    30
100
AcDbPolyline
 90
        9
 70
     0
 43
0.0
 10
246.658493
 20
342.531281
 10
246.478912
 20
342.509705
 10
246.311798
 20
342.444275
 10
246.173584
 20
342.3302
 10
246.070541
 20
342.183075
 10
246.001282
 20
342.017273
 10
245.957489
 20
341.842987
 10
245.933228
 20
341.664825
 10
245.924469
 20
341.459808
  0
LWPOLYLINE
  5
106
330
D6
100
AcDbEntity
  8
0
  6
Continuous
 62
     0
370
    30
100
AcDbPolyline
 90
        8
 70
     0
 43
0.0
 10
245.924469
 20
341.459808
 10
245.933105
 20
341.258209
 10
245.962723
 20
341.058655
 10
246.021027
 20
340.865631
 10
246.118866
 20
340.689606
 10
246.264008
 20
340.550262
 10
246.447495
 20
340.468781
 10
246.654953
 20
340.442474
  0
LWPOLYLINE
  5
107
330
D6
100
AcDbEntity
  8
0
  6
Continuous
 62
     0
370
    30
100
AcDbPolyline
 90
        4
 70
     0
 43
0.0
 10
246.654953
 20
340.442474
 10
246.787796
 20
340.453583
 10
246.915756
 20
340.489319
 10
247.074417
 20
340.596954
  0
LWPOLYLINE
  5
108
330
D6
100
AcDbEntity
  8
0
  6
Continuous
 62
     0
370
    30
100
AcDbPolyline
 90
        3
 70
     0
 43
0.0
 10
247.074417
 20
340.596954
 10
247.143051
 20
340.693176
 10
247.200119
 20
340.870148
  0
LINE
  5
109
330
D6
100
AcDbEntity
  8
0
  6
Continuous
 62
     0
370
    30
100
AcDbLine
 10
247.200121
 20
340.870151
 30
0.0
 11
247.595126
 21
340.870151
 31
0.0
  0
LWPOLYLINE
  5
10A
330
D6
100
AcDbEntity
  8
0
  6
Continuous
 62
     0
370
    30
100
AcDbPolyline
 90
        7
 70
     0
 43
0.0
 10
247.595123
 20
340.870148
 10
247.542877
 20
340.657349
 10
247.43013
 20
340.469635
 10
247.266693
 20
340.3237
 10
247.070862
 20
340.224518
 10
246.857758
 20
340.167725
 10
246.62619
 20
340.147552
  0
LWPOLYLINE
  5
10B
330
D6
100
AcDbEntity
  8
0
  6
Continuous
 62
     0
370
    30
100
AcDbPolyline
 90
        9
 70
     0
 43
0.0
 10
246.62619
 20
340.147552
 10
246.389069
 20
340.169464
 10
246.161606
 20
340.236511
 10
245.959717
 20
340.359253
 10
245.796875
 20
340.531403
 10
245.679108
 20
340.73703
 10
245.601654
 20
340.961182
 10
245.55777
 20
341.194366
 10
245.541885
 20
341.456055
  0
LWPOLYLINE
  5
10C
330
D6
100
AcDbEntity
  8
0
  6
Continuous
 62
     0
370
    30
100
AcDbPolyline
 90
        9
 70
     0
 43
0.0
 10
245.541885
 20
341.456055
 10
245.556137
 20
341.703186
 10
245.600266
 20
341.946686
 10
245.678848
 20
342.181213
 10
245.798355
 20
342.397552
 10
245.963913
 20
342.580994
 10
246.170471
 20
342.715576
 10
246.405579
 20
342.791687
 10
246.672867
 20
342.818909
  0
LWPOLYLINE
  5
10D
330
D6
100
AcDbEntity
  8
0
  6
Continuous
 62
     0
370
    30
100
AcDbPolyline
 90
        7
 70
     0
 43
0.0
 10
246.672867
 20
342.818909
 10
246.890488
 20
342.801056
 10
247.10199
 20
342.746124
 10
247.295303
 20
342.646606
 10
247.452499
 20
342.497223
 10
247.555786
 20
342.30661
 10
247.602234
 20
342.081879
  0
LINE
  5
10E
330
D6
100
AcDbEntity
  8
0
  6
Continuous
 62
     0
370
    30
100
AcDbLine
 10
248.202689
 20
340.187057
 30
0.0
 11
247.843217
 21
340.187057
 31
0.0
  0
LINE
  5
10F
330
D6
100
AcDbEntity
  8
0
  6
Continuous
 62
     0
370
    30
100
AcDbLine
 10
247.843217
 20
340.187057
 30
0.0
 11
247.843217
 21
342.782942
 31
0.0
  0
LINE
  5
110
330
D6
100
AcDbEntity
  8
0
  6
Continuous
 62
     0
370
    30
100
AcDbLine
 10
247.843217
 20
342.782942
 30
0.0
 11
248.202689
 21
342.782942
 31
0.0
  0
LINE
  5
111
330
D6
100
AcDbEntity
  8
0
  6
Continuous
 62
     0
370
    30
100
AcDbLine
 10
248.202689
 20
342.782942
 30
0.0
 11
248.202689
 21
341.668419
 31
0.0
  0
LINE
  5
112
330
D6
100
AcDbEntity
  8
0
  6
Continuous
 62
     0
370
    30
100
AcDbLine
 10
248.202689
 20
341.668419
 30
0.0
 11
249.435951
 21
341.668419
 31
0.0
  0
LINE
  5
113
330
D6
100
AcDbEntity
  8
0
  6
Continuous
 62
     0
370
    30
100
AcDbLine
 10
249.435951
 20
341.668419
 30
0.0
 11
249.435951
 21
342.782942
 31
0.0
  0
LINE
  5
114
330
D6
100
AcDbEntity
  8
0
  6
Continuous
 62
     0
370
    30
100
AcDbLine
 10
249.435951
 20
342.782942
 30
0.0
 11
249.795429
 21
342.782942
 31
0.0
  0
LINE
  5
115
330
D6
100
AcDbEntity
  8
0
  6
Continuous
 62
     0
370
    30
100
AcDbLine
 10
249.795429
 20
342.782942
 30
0.0
 11
249.795429
 21
340.187057
 31
0.0
  0
LINE
  5
116
330
D6
100
AcDbEntity
  8
0
  6
Continuous
 62
     0
370
    30
100
AcDbLine
 10
249.795429
 20
340.187057
 30
0.0
 11
249.435951
 21
340.187057
 31
0.0
  0
LINE
  5
117
330
D6
100
AcDbEntity
  8
0
  6
Continuous
 62
     0
370
    30
100
AcDbLine
 10
249.435951
 20
340.187057
 30
0.0
 11
249.435951
 21
341.359271
 31
0.0
  0
LINE
  5
118
330
D6
100
AcDbEntity
  8
0
  6
Continuous
 62
     0
370
    30
100
AcDbLine
 10
249.435951
 20
341.359271
 30
0.0
 11
248.202689
 21
341.359271
 31
0.0
  0
LINE
  5
119
330
D6
100
AcDbEntity
  8
0
  6
Continuous
 62
     0
370
    30
100
AcDbLine
 10
248.202689
 20
341.359271
 30
0.0
 11
248.202689
 21
340.187057
 31
0.0
  0
LINE
  5
11A
330
D6
100
AcDbEntity
  8
0
  6
Continuous
 62
     0
370
    30
100
AcDbLine
 10
250.089778
 20
342.782942
 30
0.0
 11
255.576239
 21
342.782942
 31
0.0
  0
LINE
  5
11B
330
D6
100
AcDbEntity
  8
0
  6
Continuous
 62
     0
370
    30
100
AcDbLine
 10
255.576239
 20
342.782942
 30
0.0
 11
255.576239
 21
342.466269
 31
0.0
  0
LINE
  5
11C
330
D6
100
AcDbEntity
  8
0
  6
Continuous
 62
     0
370
    30
100
AcDbLine
 10
255.576239
 20
342.466269
 30
0.0
 11
254.725664
 21
342.466269
 31
0.0
  0
LINE
  5
11D
330
D6
100
AcDbEntity
  8
0
  6
Continuous
 62
     0
370
    30
100
AcDbLine
 10
254.725664
 20
342.466269
 30
0.0
 11
254.725664
 21
340.187057
 31
0.0
  0
LINE
  5
11E
330
D6
100
AcDbEntity
  8
0
  6
Continuous
 62
     0
370
    30
100
AcDbLine
 10
254.725664
 20
340.187057
 30
0.0
 11
254.376669
 21
340.187057
 31
0.0
  0
LINE
  5
11F
330
D6
100
AcDbEntity
  8
0
  6
Continuous
 62
     0
370
    30
100
AcDbLine
 10
254.376669
 20
340.187057
 30
0.0
 11
254.376669
 21
342.466269
 31
0.0
  0
LINE
  5
120
330
D6
100
AcDbEntity
  8
0
  6
Continuous
 62
     0
370
    30
100
AcDbLine
 10
254.376669
 20
342.466269
 30
0.0
 11
253.156843
 21
342.466269
 31
0.0
  0
LINE
  5
121
330
D6
100
AcDbEntity
  8
0
  6
Continuous
 62
     0
370
    30
100
AcDbLine
 10
253.156843
 20
342.466269
 30
0.0
 11
253.156843
 21
340.187057
 31
0.0
  0
LINE
  5
122
330
D6
100
AcDbEntity
  8
0
  6
Continuous
 62
     0
370
    30
100
AcDbLine
 10
253.156843
 20
340.187057
 30
0.0
 11
252.805108
 21
340.187057
 31
0.0
  0
LINE
  5
123
330
D6
100
AcDbEntity
  8
0
  6
Continuous
 62
     0
370
    30
100
AcDbLine
 10
252.805108
 20
340.187057
 30
0.0
 11
252.805108
 21
342.466269
 31
0.0
  0
LINE
  5
124
330
D6
100
AcDbEntity
  8
0
  6
Continuous
 62
     0
370
    30
100
AcDbLine
 10
252.805108
 20
342.466269
 30
0.0
 11
250.450139
 21
342.466269
 31
0.0
  0
LINE
  5
125
330
D6
100
AcDbEntity
  8
0
  6
Continuous
 62
     0
370
    30
100
AcDbLine
 10
250.450139
 20
342.466269
 30
0.0
 11
250.450139
 21
341.668419
 31
0.0
  0
LINE
  5
126
330
D6
100
AcDbEntity
  8
0
  6
Continuous
 62
     0
370
    30
100
AcDbLine
 10
250.450139
 20
341.668419
 30
0.0
 11
251.656251
 21
341.668419
 31
0.0
  0
LINE
  5
127
330
D6
100
AcDbEntity
  8
0
  6
Continuous
 62
     0
370
    30
100
AcDbLine
 10
251.656251
 20
341.668419
 30
0.0
 11
251.656251
 21
341.359271
 31
0.0
  0
LINE
  5
128
330
D6
100
AcDbEntity
  8
0
  6
Continuous
 62
     0
370
    30
100
AcDbLine
 10
251.656251
 20
341.359271
 30
0.0
 11
250.450139
 21
341.359271
 31
0.0
  0
LINE
  5
129
330
D6
100
AcDbEntity
  8
0
  6
Continuous
 62
     0
370
    30
100
AcDbLine
 10
250.450139
 20
341.359271
 30
0.0
 11
250.450139
 21
340.503521
 31
0.0
  0
LINE
  5
12A
330
D6
100
AcDbEntity
  8
0
  6
Continuous
 62
     0
370
    30
100
AcDbLine
 10
250.450139
 20
340.503521
 30
0.0
 11
251.74559
 21
340.503521
 31
0.0
  0
LINE
  5
12B
330
D6
100
AcDbEntity
  8
0
  6
Continuous
 62
     0
370
    30
100
AcDbLine
 10
251.74559
 20
340.503521
 30
0.0
 11
251.74559
 21
340.187057
 31
0.0
  0
LINE
  5
12C
330
D6
100
AcDbEntity
  8
0
  6
Continuous
 62
     0
370
    30
100
AcDbLine
 10
251.74559
 20
340.187057
 30
0.0
 11
250.089778
 21
340.187057
 31
0.0
  0
LINE
  5
12D
330
D6
100
AcDbEntity
  8
0
  6
Continuous
 62
     0
370
    30
100
AcDbLine
 10
250.089778
 20
340.187057
 30
0.0
 11
250.089778
 21
342.782942
 31
0.0
  0
LINE
  5
12E
330
D6
100
AcDbEntity
  8
0
  6
Continuous
 62
     0
370
    30
100
AcDbLine
 10
255.980679
 20
340.187057
 30
0.0
 11
255.980679
 21
342.782942
 31
0.0
  0
LINE
  5
12F
330
D6
100
AcDbEntity
  8
0
  6
Continuous
 62
     0
370
    30
100
AcDbLine
 10
255.980679
 20
342.782942
 30
0.0
 11
256.327475
 21
342.782942
 31
0.0
  0
LINE
  5
130
330
D6
100
AcDbEntity
  8
0
  6
Continuous
 62
     0
370
    30
100
AcDbLine
 10
256.327475
 20
342.782942
 30
0.0
 11
256.327475
 21
340.187057
 31
0.0
  0
LINE
  5
131
330
D6
100
AcDbEntity
  8
0
  6
Continuous
 62
     0
370
    30
100
AcDbLine
 10
256.327475
 20
340.187057
 30
0.0
 11
255.980679
 21
340.187057
 31
0.0
  0
LINE
  5
132
330
D6
100
AcDbEntity
  8
0
  6
Continuous
 62
     0
370
    30
100
AcDbLine
 10
256.638262
 20
340.870151
 30
0.0
 11
256.984096
 21
340.870151
 31
0.0
  0
LINE
  5
133
330
D6
100
AcDbEntity
  8
0
  6
Continuous
 62
     0
370
    30
100
AcDbLine
 10
256.638262
 20
340.187057
 30
0.0
 11
256.638262
 21
340.870151
 31
0.0
  0
LINE
  5
134
330
D6
100
AcDbEntity
  8
0
  6
Continuous
 62
     0
370
    30
100
AcDbLine
 10
238.796651
 20
340.54658
 30
0.0
 11
238.777659
 21
340.54658
 31
0.0
  0
LINE
  5
135
330
D6
100
AcDbEntity
  8
0
  6
Continuous
 62
     0
370
    30
100
AcDbLine
 10
238.796651
 20
340.186848
 30
0.0
 11
238.796651
 21
340.54658
 31
0.0
  0
LINE
  5
136
330
D6
100
AcDbEntity
  8
0
  6
Continuous
 62
     0
370
    30
100
AcDbLine
 10
238.833981
 20
342.466478
 30
0.0
 11
238.833981
 21
342.782942
 31
0.0
  0
LINE
  5
137
330
D6
100
AcDbEntity
  8
0
  6
Continuous
 62
     0
370
    30
100
AcDbLine
 10
240.187511
 20
342.466478
 30
0.0
 11
240.213316
 21
342.466478
 31
0.0
  0
LINE
  5
138
330
D6
100
AcDbEntity
  8
0
  6
Continuous
 62
     0
370
    30
100
AcDbLine
 10
238.796651
 20
340.54658
 30
0.0
 11
240.213316
 21
342.466478
 31
0.0
  0
LINE
  5
139
330
D6
100
AcDbEntity
  8
0
  6
Continuous
 62
     0
370
     0
100
AcDbLine
 10
240.946809
 20
341.201039
 30
0.0
 11
240.96267
 21
341.201039
 31
0.0
  0
LINE
  5
13A
330
D6
100
AcDbEntity
  8
0
  6
Continuous
 62
     0
370
    30
100
AcDbLine
 10
240.96267
 20
341.201039
 30
0.0
 11
240.96267
 21
342.782942
 31
0.0
  0
LINE
  5
13B
330
D6
100
AcDbEntity
  8
0
  6
Continuous
 62
     0
370
     0
100
AcDbLine
 10
241.091724
 20
340.54658
 30
0.0
 11
241.109138
 21
340.54658
 31
0.0
  0
LWPOLYLINE
  5
13C
330
D6
100
AcDbEntity
  8
0
  6
Continuous
 62
     0
370
    30
100
AcDbPolyline
 90
        6
 70
     0
 43
0.0
 10
241.109131
 20
340.54657
 10
241.06633
 20
340.617981
 10
241.027695
 20
340.705658
 10
240.99585
 20
340.818085
 10
240.973434
 20
340.963715
 10
240.962677
 20
341.20105
  0
LWPOLYLINE
  5
13D
330
D6
100
AcDbEntity
  8
0
  6
Continuous
 62
     0
370
    30
100
AcDbPolyline
 90
        6
 70
     0
 43
0.0
 10
241.975784
 20
340.133331
 10
241.817337
 20
340.145538
 10
241.636932
 20
340.182892
 10
241.449951
 20
340.254242
 10
241.271774
 20
340.368378
 10
241.109131
 20
340.54657
  0
LINE
  5
13E
330
D6
100
AcDbEntity
  8
0
  6
Continuous
 62
     0
370
     0
100
AcDbLine
 10
242.656861
 20
341.190169
 30
0.0
 11
242.678223
 21
341.190169
 31
0.0
  0
LINE
  5
13F
330
D6
100
AcDbEntity
  8
0
  6
Continuous
 62
     0
370
    30
100
AcDbLine
 10
242.678223
 20
341.190169
 30
0.0
 11
242.678223
 21
342.782942
 31
0.0
  0
LWPOLYLINE
  5
140
330
D6
100
AcDbEntity
  8
0
  6
Continuous
 62
     0
370
    30
100
AcDbPolyline
 90
        9
 70
     0
 43
0.0
 10
241.998291
 20
340.453156
 10
242.222504
 20
340.477112
 10
242.391052
 20
340.54184
 10
242.511887
 20
340.636719
 10
242.592941
 20
340.751038
 10
242.642166
 20
340.874176
 10
242.667496
 20
340.995392
 10
242.676865
 20
341.104065
 10
242.678223
 20
341.190155
  0
LINE
  5
141
330
D6
100
AcDbEntity
  8
0
  6
Continuous
 62
     0
370
     0
100
AcDbLine
 10
243.292987
 20
341.45605
 30
0.0
 11
243.303975
 21
341.45605
 31
0.0
  0
LWPOLYLINE
  5
142
330
D6
100
AcDbEntity
  8
0
  6
Continuous
 62
     0
370
    30
100
AcDbPolyline
 90
       10
 70
     0
 43
0.0
 10
243.30397
 20
341.456055
 10
243.312195
 20
341.644318
 10
243.339462
 20
341.843445
 10
243.389694
 20
342.04483
 10
243.466797
 20
342.239868
 10
243.574692
 20
342.419952
 10
243.71727
 20
342.576477
 10
243.898468
 20
342.700806
 10
244.122177
 20
342.784363
 10
244.402893
 20
342.818726
  0
LWPOLYLINE
  5
143
330
D6
100
AcDbEntity
  8
0
  6
Continuous
 62
     0
370
    30
100
AcDbPolyline
 90
       10
 70
     0
 43
0.0
 10
244.236969
 20
340.154724
 10
244.003098
 20
340.20401
 10
243.810379
 20
340.293793
 10
243.655136
 20
340.416718
 10
243.533676
 20
340.565369
 10
243.442307
 20
340.732391
 10
243.37735
 20
340.9104
 10
243.335129
 20
341.092041
 10
243.31192
 20
341.269867
 10
243.30397
 20
341.456055
  0
LINE
  5
144
330
D6
100
AcDbEntity
  8
0
  6
Continuous
 62
     0
370
     0
100
AcDbLine
 10
244.808398
 20
340.596955
 30
0.0
 11
244.82333
 21
340.596955
 31
0.0
  0
ARC
  5
145
330
D6
100
AcDbEntity
  8
0
  6
Continuous
 62
     0
370
    30
100
AcDbCircle
 10
244.437236
 20
340.937594
 30
0.0
 40
0.5148822037625251
100
AcDbArc
 50
318.579142
 51
352.473449
  0
LWPOLYLINE
  5
146
330
D6
100
AcDbEntity
  8
0
  6
Continuous
 62
     0
370
    30
100
AcDbPolyline
 90
        4
 70
     0
 43
0.0
 10
244.408066
 20
340.442474
 10
244.545944
 20
340.454132
 10
244.674805
 20
340.493011
 10
244.823334
 20
340.596954
  0
LWPOLYLINE
  5
147
330
D6
100
AcDbEntity
  8
0
  6
Continuous
 62
     0
370
    30
100
AcDbPolyline
 90
        8
 70
     0
 43
0.0
 10
244.965439
 20
342.081879
 10
244.95636
 20
342.134033
 10
244.936554
 20
342.207764
 10
244.899048
 20
342.292511
 10
244.836899
 20
342.377747
 10
244.743164
 20
342.452942
 10
244.61087
 20
342.507568
 10
244.411575
 20
342.531281
  0
LWPOLYLINE
  5
148
330
D6
100
AcDbEntity
  8
0
  6
Continuous
 62
     0
370
    30
100
AcDbPolyline
 90
        9
 70
     0
 43
0.0
 10
245.54567
 20
341.456055
 10
245.553833
 20
341.642761
 10
245.580902
 20
341.84024
 10
245.630737
 20
342.0401
 10
245.707199
 20
342.233887
 10
245.814163
 20
342.413239
 10
245.95546
 20
342.569733
 10
246.134979
 20
342.694946
 10
246.383041
 20
342.786957
  0
LWPOLYLINE
  5
149
330
D6
100
AcDbEntity
  8
0
  6
Continuous
 62
     0
370
    30
100
AcDbPolyline
 90
        9
 70
     0
 43
0.0
 10
246.336563
 20
340.180084
 10
246.117371
 20
340.259949
 10
245.941162
 20
340.378937
 10
245.803619
 20
340.528503
 10
245.700455
 20
340.700165
 10
245.627396
 20
340.885437
 10
245.580109
 20
341.075775
 10
245.554337
 20
341.262695
 10
245.54567
 20
341.456055
  0
ARC
  5
14A
330
D6
100
AcDbEntity
  8
0
  6
Continuous
 62
     0
370
    30
100
AcDbCircle
 10
246.698272
 20
340.938165
 30
0.0
 40
0.5123456593175636
100
AcDbArc
 50
318.242804
 51
352.371515
  0
LWPOLYLINE
  5
14B
330
D6
100
AcDbEntity
  8
0
  6
Continuous
 62
     0
370
    30
100
AcDbPolyline
 90
        4
 70
     0
 43
0.0
 10
246.66098
 20
340.442474
 10
246.800323
 20
340.454163
 10
246.930618
 20
340.493103
 10
247.080475
 20
340.596954
  0
LWPOLYLINE
  5
14C
330
D6
100
AcDbEntity
  8
0
  6
Continuous
 62
     0
370
    30
100
AcDbPolyline
 90
        8
 70
     0
 43
0.0
 10
247.224014
 20
342.081879
 10
247.214813
 20
342.134064
 10
247.194763
 20
342.207855
 10
247.15683
 20
342.292664
 10
247.093964
 20
342.37796
 10
246.99913
 20
342.453156
 10
246.86528
 20
342.50769
 10
246.664536
 20
342.531281
  0
LINE
  5
14D
330
D6
100
AcDbEntity
  8
0
  6
Continuous
 62
     0
370
    30
100
AcDbLine
 10
251.717108
 20
340.503521
 30
0.0
 11
251.717108
 21
340.187057
 31
0.0
  0
LINE
  5
14E
330
D6
100
AcDbEntity
  8
0
  6
Continuous
 62
     0
370
    30
100
AcDbLine
 10
250.450139
 20
340.503521
 30
0.0
 11
250.431574
 21
340.503521
 31
0.0
  0
LINE
  5
14F
330
D6
100
AcDbEntity
  8
0
  6
Continuous
 62
     0
370
    30
100
AcDbLine
 10
250.450139
 20
341.359271
 30
0.0
 11
250.431574
 21
341.359271
 31
0.0
  0
LINE
  5
150
330
D6
100
AcDbEntity
  8
0
  6
Continuous
 62
     0
370
    30
100
AcDbLine
 10
250.431574
 20
341.359271
 30
0.0
 11
250.431574
 21
340.503521
 31
0.0
  0
LINE
  5
151
330
D6
100
AcDbEntity
  8
0
  6
Continuous
 62
     0
370
    30
100
AcDbLine
 10
251.628182
 20
341.668419
 30
0.0
 11
251.628182
 21
341.359271
 31
0.0
  0
LINE
  5
152
330
D6
100
AcDbEntity
  8
0
  6
Continuous
 62
     0
370
    30
100
AcDbLine
 10
250.450139
 20
341.668419
 30
0.0
 11
250.431574
 21
341.668419
 31
0.0
  0
LINE
  5
153
330
D6
100
AcDbEntity
  8
0
  6
Continuous
 62
     0
370
    30
100
AcDbLine
 10
250.450139
 20
342.466269
 30
0.0
 11
250.431574
 21
342.466269
 31
0.0
  0
LINE
  5
154
330
D6
100
AcDbEntity
  8
0
  6
Continuous
 62
     0
370
    30
100
AcDbLine
 10
250.431574
 20
342.466269
 30
0.0
 11
250.431574
 21
341.668419
 31
0.0
  0
LINE
  5
155
330
D6
100
AcDbEntity
  8
0
  6
Continuous
 62
     0
370
    30
100
AcDbLine
 10
253.156843
 20
342.466269
 30
0.0
 11
253.127178
 21
342.466269
 31
0.0
  0
LINE
  5
156
330
D6
100
AcDbEntity
  8
0
  6
Continuous
 62
     0
370
    30
100
AcDbLine
 10
253.127178
 20
342.466269
 30
0.0
 11
253.127178
 21
340.187057
 31
0.0
  0
LINE
  5
157
330
D6
100
AcDbEntity
  8
0
  6
Continuous
 62
     0
370
    30
100
AcDbLine
 10
254.725664
 20
342.466269
 30
0.0
 11
254.706715
 21
342.466269
 31
0.0
  0
LINE
  5
158
330
D6
100
AcDbEntity
  8
0
  6
Continuous
 62
     0
370
    30
100
AcDbLine
 10
254.706715
 20
342.466269
 30
0.0
 11
254.706715
 21
340.187057
 31
0.0
  0
LINE
  5
159
330
D6
100
AcDbEntity
  8
0
  6
Continuous
 62
     0
370
    30
100
AcDbLine
 10
255.568534
 20
342.782942
 30
0.0
 11
255.568534
 21
342.466269
 31
0.0
  0
LINE
  5
15A
330
D6
100
AcDbEntity
  8
0
  6
Continuous
 62
     0
370
    30
100
AcDbLine
 10
256.311036
 20
342.782942
 30
0.0
 11
256.311036
 21
340.187057
 31
0.0
  0
LINE
  5
15B
330
D6
100
AcDbEntity
  8
0
  6
Continuous
 62
     0
370
    30
100
AcDbLine
 10
239.839357
 20
298.791039
 30
0.0
 11
239.839357
 21
257.291039
 31
0.0
  0
LINE
  5
15C
330
D6
100
AcDbEntity
  8
0
  6
Continuous
 62
     0
370
     0
100
AcDbLine
 10
239.839357
 20
257.291039
 30
0.0
 11
257.839357
 21
257.291039
 31
0.0
  0
LINE
  5
15D
330
D6
100
AcDbEntity
  8
0
  6
Continuous
 62
     0
370
    30
100
AcDbLine
 10
239.839357
 20
257.291039
 30
0.0
 11
239.839357
 21
244.189872
 31
0.0
  0
LWPOLYLINE
  5
15E
330
D6
100
AcDbEntity
  8
0
  6
Continuous
 62
     0
370
     0
100
AcDbPolyline
 90
       35
 70
     0
 43
0.0
 10
239.839355
 20
244.189865
 10
239.871536
 20
244.511215
 10
239.971954
 20
244.840363
 10
240.14563
 20
245.173676
 10
240.396179
 20
245.506973
 10
240.725449
 20
245.835617
 10
241.13324
 20
246.154739
 10
241.617126
 20
246.459427
 10
242.172379
 20
246.744919
 10
242.792099
 20
247.006882
 10
243.467514
 20
247.241608
 10
244.18837
 20
247.446182
 10
244.943436
 20
247.618607
 10
245.721039
 20
247.757828
 10
246.509644
 20
247.8638
 10
247.298355
 20
247.937271
 10
248.077225
 20
247.979767
 10
248.837631
 20
247.993439
 10
249.597946
 20
247.979904
 10
250.376755
 20
247.937531
 10
251.165436
 20
247.864212
 10
251.954071
 20
247.758392
 10
252.73175
 20
247.619324
 10
253.486938
 20
247.447052
 10
254.207977
 20
247.24263
 10
254.883636
 20
247.008041
 10
255.503632
 20
246.746185
 10
256.059204
 20
246.460785
 10
256.543427
 20
246.156189
 10
256.951569
 20
245.837112
 10
257.281189
 20
245.508499
 10
257.532104
 20
245.175217
 10
257.706146
 20
244.841888
 10
257.806885
 20
244.512711
 10
257.839355
 20
244.189865
  0
LINE
  5
15F
330
D6
100
AcDbEntity
  8
0
  6
Continuous
 62
     0
370
    30
100
AcDbLine
 10
239.839357
 20
244.189872
 30
0.0
 11
239.839357
 21
204.457802
 31
0.0
  0
LWPOLYLINE
  5
160
330
D6
100
AcDbEntity
  8
0
  6
Continuous
 62
     0
370
     0
100
AcDbPolyline
 90
       35
 70
     0
 43
0.0
 10
239.839355
 20
204.457809
 10
239.871536
 20
204.779144
 10
239.971954
 20
205.108292
 10
240.14563
 20
205.441605
 10
240.396179
 20
205.774902
 10
240.725449
 20
206.103546
 10
241.13324
 20
206.422668
 10
241.617126
 20
206.727356
 10
242.172379
 20
207.012848
 10
242.792099
 20
207.274826
 10
243.467514
 20
207.509537
 10
244.18837
 20
207.714111
 10
244.943436
 20
207.886536
 10
245.721039
 20
208.025757
 10
246.509644
 20
208.131729
 10
247.298355
 20
208.2052
 10
248.077225
 20
208.247711
 10
248.837631
 20
208.261368
 10
249.597946
 20
208.247833
 10
250.376755
 20
208.20546
 10
251.165436
 20
208.132141
 10
251.954071
 20
208.026321
 10
252.73175
 20
207.887253
 10
253.486938
 20
207.714981
 10
254.207977
 20
207.510559
 10
254.883636
 20
207.27597
 10
255.503632
 20
207.014114
 10
256.059204
 20
206.728714
 10
256.543427
 20
206.424118
 10
256.951569
 20
206.105042
 10
257.281189
 20
205.776428
 10
257.532104
 20
205.443146
 10
257.706146
 20
205.109818
 10
257.806885
 20
204.78064
 10
257.839355
 20
204.457809
  0
LINE
  5
161
330
D6
100
AcDbEntity
  8
0
  6
Continuous
 62
     0
370
    30
100
AcDbLine
 10
239.839357
 20
204.457802
 30
0.0
 11
239.839357
 21
144.764057
 31
0.0
  0
LWPOLYLINE
  5
162
330
D6
100
AcDbEntity
  8
0
  6
Continuous
 62
     0
370
     0
100
AcDbPolyline
 90
       37
 70
     0
 43
0.0
 10
239.839355
 20
144.764053
 10
239.867981
 20
144.047867
 10
239.957123
 20
143.314835
 10
240.111099
 20
142.572098
 10
240.333145
 20
141.827866
 10
240.625122
 20
141.091141
 10
240.987335
 20
140.371567
 10
241.41832
 20
139.678909
 10
241.91478
 20
139.022812
 10
242.471695
 20
138.412323
 10
243.082382
 20
137.855423
 10
243.738831
 20
137.358826
 10
244.432007
 20
136.927567
 10
245.152267
 20
136.564972
 10
245.889816
 20
136.272491
 10
246.63501
 20
136.049866
 10
247.378815
 20
135.895248
 10
248.113007
 20
135.80542
 10
248.830414
 20
135.776108
 10
249.547302
 20
135.803955
 10
250.281158
 20
135.892181
 10
251.024811
 20
136.04512
 10
251.770081
 20
136.265991
 10
252.507935
 20
136.556686
 10
253.22876
 20
136.917526
 10
253.922745
 20
137.347076
 10
254.580231
 20
137.842087
 10
255.192184
 20
138.397522
 10
255.750549
 20
139.00676
 10
256.248627
 20
139.661804
 10
256.681305
 20
140.353638
 10
257.045288
 20
141.072662
 10
257.33905
 20
141.809067
 10
257.562836
 20
142.553238
 10
257.718506
 20
143.296112
 10
257.809235
 20
144.02948
 10
257.839355
 20
144.764053
  0
ARC
  5
163
330
D6
100
AcDbEntity
  8
0
  6
Continuous
 62
     0
370
     0
100
AcDbCircle
 10
248.84583
 20
144.192015
 30
0.0
 40
12.0880058225081
100
AcDbArc
 50
138.165555
 51
193.615925
  0
ARC
  5
164
330
D6
100
AcDbEntity
  8
0
  6
Continuous
 62
     0
370
     0
100
AcDbCircle
 10
248.895749
 20
144.188951
 30
0.0
 40
12.09445422248401
100
AcDbArc
 50
13.623287
 51
42.312852
  0
LWPOLYLINE
  5
165
330
D6
100
AcDbEntity
  8
0
  6
Continuous
 62
     0
370
     0
100
AcDbPolyline
 90
       42
 70
     0
 43
0.0
 10
237.097549
 20
141.346344
 10
237.3255
 20
140.531372
 10
237.618317
 20
139.713181
 10
237.9785
 20
138.898911
 10
238.407532
 20
138.096344
 10
238.905746
 20
137.313736
 10
239.472198
 20
136.559647
 10
240.104538
 20
135.842606
 10
240.799042
 20
135.170959
 10
241.550583
 20
134.55249
 10
242.352783
 20
133.994141
 10
243.198166
 20
133.501846
 10
244.078384
 20
133.080231
 10
244.984497
 20
132.732529
 10
245.907272
 20
132.460464
 10
246.837479
 20
132.264297
 10
247.76619
 20
132.142853
 10
248.684998
 20
132.093658
 10
249.586258
 20
132.113129
 10
250.463226
 20
132.196762
 10
251.310181
 20
132.339355
 10
252.128082
 20
132.536835
 10
252.946609
 20
132.796326
 10
253.764877
 20
133.121948
 10
254.575424
 20
133.515701
 10
255.370178
 20
133.978546
 10
256.140717
 20
134.510178
 10
256.878448
 20
135.108963
 10
257.57486
 20
135.771866
 10
258.221863
 20
136.494476
 10
258.812042
 20
137.271042
 10
259.338928
 20
138.094604
 10
259.79718
 20
138.95723
 10
260.182892
 20
139.850266
 10
260.49353
 20
140.764603
 10
260.728119
 20
141.690964
 10
260.887115
 20
142.62027
 10
260.972382
 20
143.543823
 10
260.986938
 20
144.453598
 10
260.934875
 20
145.342361
 10
260.821106
 20
146.203903
 10
260.649933
 20
147.037643
  0
LWPOLYLINE
  5
166
330
D6
100
AcDbEntity
  8
0
  6
Continuous
 62
     0
370
    30
100
AcDbPolyline
 90
       37
 70
     0
 43
0.0
 10
258.047668
 20
146.648682
 10
258.195465
 20
145.911087
 10
258.285645
 20
145.141357
 10
258.312012
 20
144.345749
 10
258.269287
 20
143.531845
 10
258.15329
 20
142.708389
 10
257.961395
 20
141.885132
 10
257.692627
 20
141.072449
 10
257.347961
 20
140.280975
 10
256.930359
 20
139.521194
 10
256.444641
 20
138.802917
 10
255.897369
 20
138.134964
 10
255.296494
 20
137.524704
 10
254.651062
 20
136.977859
 10
253.970749
 20
136.498367
 10
253.265442
 20
136.088318
 10
252.544846
 20
135.748001
 10
251.81813
 20
135.476181
 10
251.093674
 20
135.270233
 10
250.355087
 20
135.122635
 10
249.584335
 20
135.032562
 10
248.787674
 20
135.00621
 10
247.972672
 20
135.048874
 10
247.148117
 20
135.164688
 10
246.323746
 20
135.356323
 10
245.509979
 20
135.624725
 10
244.717438
 20
135.968903
 10
243.956635
 20
136.385925
 10
243.237396
 20
136.870987
 10
242.568527
 20
137.417526
 10
241.957428
 20
138.017578
 10
241.409851
 20
138.66214
 10
240.929703
 20
139.341537
 10
240.519073
 20
140.045898
 10
240.178299
 20
140.765533
 10
239.906113
 20
141.491272
 10
239.699799
 20
142.215027
  0
ARC
  5
167
330
D6
100
AcDbEntity
  8
0
  6
Continuous
 62
     0
370
    30
100
AcDbCircle
 10
248.896192
 20
144.431339
 30
0.0
 40
9.41627617487153
100
AcDbArc
 50
13.619918
 51
18.239586
  0
ARC
  5
168
330
D6
100
AcDbEntity
  8
0
  6
Continuous
 62
     0
370
    30
100
AcDbCircle
 10
248.848955
 20
144.431869
 30
0.0
 40
9.413889290112326
100
AcDbArc
 50
163.147386
 51
193.620273
  0
ARC
  5
169
330
D6
100
AcDbEntity
  8
0
  6
Continuous
 62
     0
370
     0
100
AcDbCircle
 10
248.841778
 20
144.166177
 30
0.0
 40
12.21803772349393
100
AcDbArc
 50
180.00016
 51
193.620166
  0
LWPOLYLINE
  5
16A
330
D6
100
AcDbEntity
  8
0
  6
Continuous
 62
     0
370
     0
100
AcDbPolyline
 90
       39
 70
     0
 43
0.0
 10
236.967331
 20
141.289017
 10
237.19574
 20
140.471497
 10
237.488708
 20
139.650742
 10
237.848679
 20
138.833755
 10
238.277145
 20
138.028244
 10
238.77449
 20
137.242325
 10
239.339813
 20
136.484436
 10
239.970856
 20
135.763062
 10
240.664001
 20
135.086395
 10
241.414291
 20
134.462204
 10
242.215469
 20
133.897385
 10
243.060257
 20
133.397903
 10
243.940445
 20
132.968414
 10
244.847275
 20
132.612259
 10
245.771637
 20
132.331284
 10
246.704376
 20
132.125885
 10
247.636658
 20
131.995071
 10
248.560074
 20
131.936539
 10
249.466995
 20
131.946884
 10
250.350647
 20
132.021774
 10
251.205185
 20
132.156143
 10
252.028412
 20
132.345154
 10
252.848862
 20
132.594543
 10
253.670273
 20
132.909317
 10
254.485382
 20
133.291626
 10
255.286331
 20
133.742615
 10
256.064819
 20
134.262222
 10
256.812408
 20
134.849106
 10
257.52066
 20
135.500565
 10
258.181427
 20
136.21254
 10
258.787262
 20
136.979614
 10
259.331482
 20
137.795181
 10
259.808594
 20
138.651642
 10
260.214355
 20
139.540573
 10
260.545868
 20
140.453079
 10
260.801819
 20
141.380005
 10
260.982269
 20
142.312317
 10
261.088684
 20
143.241272
 10
261.123749
 20
144.166138
  0
ARC
  5
16B
330
D6
100
AcDbEntity
  8
0
  6
Continuous
 62
     0
370
    30
100
AcDbCircle
 10
248.841778
 20
144.147417
 30
0.0
 40
12.21803772647806
100
AcDbArc
 50
180.000195
 51
193.620166
  0
LWPOLYLINE
  5
16C
330
D6
100
AcDbEntity
  8
0
  6
Continuous
 62
     0
370
    30
100
AcDbPolyline
 90
       39
 70
     0
 43
0.0
 10
236.967331
 20
141.270264
 10
237.195755
 20
140.452728
 10
237.488724
 20
139.631943
 10
237.848709
 20
138.814941
 10
238.277191
 20
138.009415
 10
238.774551
 20
137.22348
 10
239.33989
 20
136.465576
 10
239.970963
 20
135.744186
 10
240.664139
 20
135.06752
 10
241.414444
 20
134.443314
 10
242.215652
 20
133.87851
 10
243.060471
 20
133.379028
 10
243.940689
 20
132.949554
 10
244.847549
 20
132.593414
 10
245.771927
 20
132.312454
 10
246.704697
 20
132.107071
 10
247.636993
 20
131.976273
 10
248.560425
 20
131.91777
 10
249.467361
 20
131.928146
 10
250.351013
 20
132.003052
 10
251.205566
 20
132.137451
 10
252.028809
 20
132.326492
 10
252.849274
 20
132.575928
 10
253.6707
 20
132.890747
 10
254.485825
 20
133.273102
 10
255.286774
 20
133.724121
 10
256.065277
 20
134.243774
 10
256.812866
 20
134.830719
 10
257.521088
 20
135.482239
 10
258.181854
 20
136.19426
 10
258.787659
 20
136.961395
 10
259.331848
 20
137.777008
 10
259.808929
 20
138.633514
 10
260.21463
 20
139.522491
 10
260.546112
 20
140.435028
 10
260.802002
 20
141.361984
 10
260.982391
 20
142.294312
 10
261.088745
 20
143.223297
 10
261.123749
 20
144.148132
  0
LWPOLYLINE
  5
16D
330
D6
100
AcDbEntity
  8
0
  6
Continuous
 62
     0
370
    30
100
AcDbPolyline
 90
       16
 70
     0
 43
0.0
 10
239.839355
 20
154.827682
 10
239.076553
 20
154.134659
 10
238.366837
 20
153.387543
 10
237.714386
 20
152.590088
 10
237.122543
 20
151.746735
 10
236.594223
 20
150.862289
 10
236.132385
 20
149.941513
 10
235.739914
 20
148.989227
 10
235.418915
 20
148.010574
 10
235.170731
 20
147.010986
 10
234.996613
 20
145.995926
 10
234.897873
 20
144.970871
 10
234.875259
 20
143.941299
 10
234.928513
 20
142.912811
 10
235.057236
 20
141.891037
 10
235.266418
 20
140.859253
  0
LWPOLYLINE
  5
16E
330
D6
100
AcDbEntity
  8
0
  6
Continuous
 62
     0
370
    30
100
AcDbPolyline
 90
       10
 70
     0
 43
0.0
 10
262.481049
 20
147.435501
 10
262.215851
 20
148.383026
 10
261.88443
 20
149.309555
 10
261.488708
 20
150.210617
 10
261.03067
 20
151.081665
 10
260.512207
 20
151.918259
 10
259.935974
 20
152.716278
 10
259.305084
 20
153.472
 10
258.622742
 20
154.181702
 10
257.839355
 20
154.885818
  0
LWPOLYLINE
  5
16F
330
D6
100
AcDbEntity
  8
0
  6
Continuous
 62
     0
370
    30
100
AcDbPolyline
 90
       43
 70
     0
 43
0.0
 10
235.266418
 20
140.859253
 10
235.55043
 20
139.853119
 10
235.909073
 20
138.871002
 10
236.340012
 20
137.918304
 10
236.840927
 20
137.000412
 10
237.409378
 20
136.12265
 10
238.041992
 20
135.289749
 10
238.73494
 20
134.506195
 10
239.484421
 20
133.776428
 10
240.286575
 20
133.104874
 10
241.136887
 20
132.495178
 10
242.03035
 20
131.950439
 10
242.961929
 20
131.473679
 10
243.92662
 20
131.067963
 10
244.919083
 20
130.735611
 10
245.933624
 20
130.478073
 10
246.964523
 20
130.296677
 10
248.006073
 20
130.19281
 10
249.052521
 20
130.167297
 10
250.097992
 20
130.219849
 10
251.136642
 20
130.34996
 10
252.162613
 20
130.55719
 10
253.170105
 20
130.840759
 10
254.153625
 20
131.1987
 10
255.107742
 20
131.628769
 10
256.027008
 20
132.128708
 10
256.906128
 20
132.696136
 10
257.740295
 20
133.327682
 10
258.525085
 20
134.019516
 10
259.256012
 20
134.767807
 10
259.928711
 20
135.56871
 10
260.539459
 20
136.417725
 10
261.085175
 20
137.30983
 10
261.562836
 20
138.240036
 10
261.96936
 20
139.203308
 10
262.302399
 20
140.194351
 10
262.560547
 20
141.207458
 10
262.742432
 20
142.236938
 10
262.846771
 20
143.277084
 10
262.87265
 20
144.322113
 10
262.820343
 20
145.366211
 10
262.690277
 20
146.403488
 10
262.481049
 20
147.435501
  0
ARC
  5
170
330
D6
100
AcDbEntity
  8
0
  6
Continuous
 62
     0
370
     0
100
AcDbCircle
 10
248.837212
 20
144.002125
 30
0.0
 40
13.96347103413762
100
AcDbArc
 50
179.999304
 51
193.620166
  0
LWPOLYLINE
  5
171
330
D6
100
AcDbEntity
  8
0
  6
Continuous
 62
     0
370
     0
100
AcDbPolyline
 90
       42
 70
     0
 43
0.0
 10
235.266418
 20
140.713943
 10
235.505844
 20
139.848404
 10
235.808395
 20
138.979202
 10
236.176437
 20
138.112656
 10
236.611465
 20
137.25563
 10
237.11412
 20
136.415451
 10
237.68396
 20
135.599747
 10
238.319443
 20
134.816193
 10
239.017883
 20
134.072449
 10
239.775421
 20
133.375793
 10
240.587097
 20
132.733047
 10
241.44693
 20
132.150253
 10
242.348068
 20
131.632553
 10
243.282944
 20
131.184036
 10
244.243561
 20
130.807602
 10
245.221603
 20
130.504913
 10
246.208801
 20
130.276459
 10
247.196991
 20
130.12146
 10
248.178467
 20
130.038071
 10
249.146072
 20
130.023468
 10
250.093323
 20
130.073975
 10
251.014557
 20
130.185242
 10
251.904938
 20
130.352463
 10
252.771454
 20
130.573593
 10
253.641357
 20
130.856491
 10
254.510574
 20
131.204163
 10
255.372375
 20
131.618362
 10
256.219543
 20
132.100006
 10
257.044525
 20
132.649002
 10
257.83963
 20
133.26413
 10
258.597168
 20
133.943069
 10
259.309692
 20
134.682297
 10
259.970215
 20
135.477203
 10
260.572449
 20
136.322098
 10
261.110931
 20
137.210373
 10
261.581268
 20
138.134674
 10
261.980164
 20
139.087128
 10
262.305573
 20
140.059509
 10
262.556702
 20
141.043503
 10
262.733887
 20
142.030899
 10
262.838715
 20
143.01387
 10
262.873749
 20
144.002075
  0
ARC
  5
172
330
D6
100
AcDbEntity
  8
0
  6
Continuous
 62
     0
370
     0
100
AcDbCircle
 10
248.843911
 20
143.986235
 30
0.0
 40
14.10784207850556
100
AcDbArc
 50
129.662631
 51
193.612388
  0
ARC
  5
173
330
D6
100
AcDbEntity
  8
0
  6
Continuous
 62
     0
370
     0
100
AcDbCircle
 10
248.896067
 20
143.981387
 30
0.0
 40
14.11637422955726
100
AcDbArc
 50
13.626016
 51
50.688204
  0
LWPOLYLINE
  5
174
330
D6
100
AcDbEntity
  8
0
  6
Continuous
 62
     0
370
     0
100
AcDbPolyline
 90
       46
 70
     0
 43
0.0
 10
235.132355
 20
140.665924
 10
235.371582
 20
139.800049
 10
235.67337
 20
138.930466
 10
236.040009
 20
138.0634
 10
236.473022
 20
137.205582
 10
236.973053
 20
136.364182
 10
237.539703
 20
135.546677
 10
238.171555
 20
134.76062
 10
238.865997
 20
134.013519
 10
239.619339
 20
133.312576
 10
240.426788
 20
132.664505
 10
241.282562
 20
132.075333
 10
242.179993
 20
131.550201
 10
243.111755
 20
131.093246
 10
244.069992
 20
130.707443
 10
245.0466
 20
130.394592
 10
246.033386
 20
130.155304
 10
247.022369
 20
129.989014
 10
248.00589
 20
129.894073
 10
248.976791
 20
129.867813
 10
249.928604
 20
129.906799
 10
250.855606
 20
130.006851
 10
251.752914
 20
130.163315
 10
252.62178
 20
130.37262
 10
253.491364
 20
130.641754
 10
254.361679
 20
130.974548
 10
255.226257
 20
131.372971
 10
256.078094
 20
131.838104
 10
256.909882
 20
132.370102
 10
257.71405
 20
132.968079
 10
258.483002
 20
133.630035
 10
259.209381
 20
134.352829
 10
259.8862
 20
135.132248
 10
260.506989
 20
135.962997
 10
261.066193
 20
136.838837
 10
261.559082
 20
137.752777
 10
261.982147
 20
138.69722
 10
262.332886
 20
139.664154
 10
262.610138
 20
140.645447
 10
262.813873
 20
141.632965
 10
262.94519
 20
142.618881
 10
263.006256
 20
143.595779
 10
263.000122
 20
144.556824
 10
262.930634
 20
145.495911
 10
262.802216
 20
146.407745
 10
262.615112
 20
147.306976
  0
LWPOLYLINE
  5
175
330
D6
100
AcDbEntity
  8
0
  6
Continuous
 62
     0
370
     0
100
AcDbPolyline
 90
       35
 70
     0
 43
0.0
 10
257.864288
 20
146.60437
 10
258.026642
 20
145.766769
 10
258.110901
 20
144.917725
 10
258.116516
 20
144.064575
 10
258.043091
 20
143.214584
 10
257.891388
 20
142.374954
 10
257.663025
 20
141.552811
 10
257.35968
 20
140.755264
 10
256.983673
 20
139.989166
 10
256.538605
 20
139.260864
 10
256.028351
 20
138.576599
 10
255.456848
 20
137.942459
 10
254.829163
 20
137.363663
 10
254.150848
 20
136.844955
 10
253.427505
 20
136.391083
 10
252.665161
 20
136.005981
 10
251.870575
 20
135.69252
 10
251.050476
 20
135.453522
 10
250.211746
 20
135.291428
 10
249.361572
 20
135.207184
 10
248.507278
 20
135.201401
 10
247.656143
 20
135.274567
 10
246.815369
 20
135.42598
 10
245.992096
 20
135.653931
 10
245.19342
 20
135.956757
 10
244.426254
 20
136.332153
 10
243.696899
 20
136.776505
 10
243.011642
 20
137.28598
 10
242.376587
 20
137.856628
 10
241.796936
 20
138.483398
 10
241.277451
 20
139.160736
 10
240.82283
 20
139.883057
 10
240.437073
 20
140.644287
 10
240.123093
 20
141.437775
 10
239.883194
 20
142.259338
  0
LINE
  5
176
330
D6
100
AcDbEntity
  8
0
  6
Continuous
 62
     0
370
     0
100
AcDbLine
 10
257.839357
 20
146.704916
 30
0.0
 11
257.864292
 21
146.60437
 31
0.0
  0
LWPOLYLINE
  5
177
330
D6
100
AcDbEntity
  8
0
  6
Continuous
 62
     0
370
     0
100
AcDbPolyline
 90
        6
 70
     0
 43
0.0
 10
239.883194
 20
142.259338
 10
239.723694
 20
143.07756
 10
239.638748
 20
143.906845
 10
239.628815
 20
144.740387
 10
239.694351
 20
145.571396
 10
239.839355
 20
146.414154
  0
LINE
  5
178
330
D6
100
AcDbEntity
  8
0
  6
Continuous
 62
     0
370
    30
100
AcDbLine
 10
239.839357
 20
144.764057
 30
0.0
 11
239.839357
 21
144.400202
 31
0.0
  0
LINE
  5
179
330
D6
100
AcDbEntity
  8
0
  6
Continuous
 62
     0
370
    30
100
AcDbLine
 10
239.841202
 20
144.582071
 30
0.0
 11
239.839357
 21
144.400202
 31
0.0
  0
LWPOLYLINE
  5
17A
330
D6
100
AcDbEntity
  8
0
  6
Continuous
 62
     0
370
    30
100
AcDbPolyline
 90
       35
 70
     0
 43
0.0
 10
239.839355
 20
144.400208
 10
239.87822
 20
143.565933
 10
239.994522
 20
142.738678
 10
240.187134
 20
141.925919
 10
240.454437
 20
141.134552
 10
240.79422
 20
140.371338
 10
241.203445
 20
139.642883
 10
241.678604
 20
138.955521
 10
242.215652
 20
138.315262
 10
242.810059
 20
137.727722
 10
243.45636
 20
137.197571
 10
244.148956
 20
136.729416
 10
244.882156
 20
136.327713
 10
245.649643
 20
135.995834
 10
246.444626
 20
135.736313
 10
247.260284
 20
135.551666
 10
248.089615
 20
135.443497
 10
248.9254
 20
135.412689
 10
249.760452
 20
135.459488
 10
250.58754
 20
135.583435
 10
251.399536
 20
135.7836
 10
252.189423
 20
136.058121
 10
252.950363
 20
136.404739
 10
253.675842
 20
136.820343
 10
254.359497
 20
137.301453
 10
254.995529
 20
137.843826
 10
255.5784
 20
138.442841
 10
256.103058
 20
139.093292
 10
256.56485
 20
139.789642
 10
256.960083
 20
140.525742
 10
257.285278
 20
141.295227
 10
257.537415
 20
142.091614
 10
257.714447
 20
142.907928
 10
257.814789
 20
143.737137
 10
257.837524
 20
144.582092
  0
LINE
  5
17B
330
D6
100
AcDbEntity
  8
0
  6
Continuous
 62
     0
370
     0
100
AcDbLine
 10
257.833289
 20
298.791008
 30
0.0
 11
239.839316
 21
298.791008
 31
0.0
  0
LWPOLYLINE
  5
17C
330
D6
100
AcDbEntity
  8
0
  6
Continuous
 62
     0
370
    30
100
AcDbPolyline
 90
       61
 70
     0
 43
0.0
 10
239.839355
 20
155.849533
 10
239.004761
 20
155.172256
 10
238.220856
 20
154.437012
 10
237.491638
 20
153.647598
 10
236.820999
 20
152.807938
 10
236.21225
 20
151.922455
 10
235.668503
 20
150.995728
 10
235.192749
 20
150.032394
 10
234.787231
 20
149.037491
 10
234.454086
 20
148.016144
 10
234.195145
 20
146.973526
 10
234.011581
 20
145.91507
 10
233.904404
 20
144.846207
 10
233.874252
 20
143.772415
 10
233.921112
 20
142.699203
 10
234.044861
 20
141.632126
 10
234.244858
 20
140.57666
 10
234.519989
 20
139.538193
 10
234.868988
 20
138.522141
 10
235.289948
 20
137.533661
 10
235.780609
 20
136.57782
 10
236.338638
 20
135.659607
 10
236.961121
 20
134.783707
 10
237.64473
 20
133.954544
 10
238.386108
 20
133.176529
 10
239.181381
 20
132.453568
 10
240.026382
 20
131.789291
 10
240.916901
 20
131.187302
 10
241.848297
 20
130.650574
 10
242.815735
 20
130.181793
 10
243.814331
 20
129.783569
 10
244.838928
 20
129.457779
 10
245.884201
 20
129.206085
 10
246.94487
 20
129.029938
 10
248.015442
 20
128.930084
 10
249.090408
 20
128.907059
 10
250.164261
 20
128.961105
 10
251.231506
 20
129.091766
 10
252.286621
 20
129.298477
 10
253.324219
 20
129.5802
 10
254.338959
 20
129.935394
 10
255.325592
 20
130.362381
 10
256.279114
 20
130.858841
 10
257.194611
 20
131.422165
 10
258.067291
 20
132.049683
 10
258.892761
 20
132.738022
 10
259.66684
 20
133.483612
 10
260.385376
 20
134.282761
 10
261.044769
 20
135.131256
 10
261.641632
 20
136.024765
 10
262.172729
 20
136.958755
 10
262.63559
 20
137.92836
 10
263.027863
 20
138.928543
 10
263.347382
 20
139.954254
 10
263.592377
 20
141.000229
 10
263.761688
 20
142.061005
 10
263.854401
 20
143.131119
 10
263.87027
 20
144.205185
 10
263.809143
 20
145.277817
 10
263.671051
 20
146.343445
 10
263.45282
 20
147.413284
  0
LWPOLYLINE
  5
17D
330
D6
100
AcDbEntity
  8
0
  6
Continuous
 62
     0
370
    30
100
AcDbPolyline
 90
       11
 70
     0
 43
0.0
 10
263.45282
 20
147.413284
 10
263.175507
 20
148.406921
 10
262.830353
 20
149.379242
 10
262.419098
 20
150.325424
 10
261.943573
 20
151.241104
 10
261.406189
 20
152.121964
 10
260.809387
 20
152.963791
 10
260.156006
 20
153.762589
 10
259.449158
 20
154.514542
 10
258.6922
 20
155.216156
 10
257.839355
 20
155.901047
  0
LWPOLYLINE
  5
17E
330
D6
100
AcDbEntity
  8
0
  6
Continuous
 62
     0
370
    30
100
AcDbPolyline
 90
       11
 70
     0
 43
0.0
 10
239.839355
 20
152.428879
 10
239.25679
 20
151.74472
 10
238.726135
 20
151.019638
 10
238.250061
 20
150.25769
 10
237.831253
 20
149.462997
 10
237.472122
 20
148.63974
 10
237.174362
 20
147.792358
 10
236.939423
 20
146.925385
 10
236.768784
 20
146.043304
 10
236.663528
 20
145.151001
 10
236.623734
 20
144.166138
  0
LWPOLYLINE
  5
17F
330
D6
100
AcDbEntity
  8
0
  6
Continuous
 62
     0
370
    30
100
AcDbPolyline
 90
        8
 70
     0
 43
0.0
 10
260.78006
 20
147.043854
 10
260.542236
 20
147.890961
 10
260.24408
 20
148.718842
 10
259.887115
 20
149.523117
 10
259.473175
 20
150.299698
 10
259.004517
 20
151.044617
 10
258.483429
 20
151.753937
 10
257.839355
 20
152.503342
  0
ARC
  5
180
330
D6
100
AcDbEntity
  8
0
  6
Continuous
 62
     0
370
    30
100
AcDbCircle
 10
248.903081
 20
144.166095
 30
0.0
 40
12.22065915809948
100
AcDbArc
 50
0.000186
 51
13.620134
  0
LINE
  5
181
330
D6
100
AcDbEntity
  8
0
  6
Continuous
 62
     0
370
    30
100
AcDbLine
 10
257.839357
 20
144.764057
 30
0.0
 11
257.839357
 21
144.400202
 31
0.0
  0
LINE
  5
182
330
D6
100
AcDbEntity
  8
0
  6
Continuous
 62
     0
370
    30
100
AcDbLine
 10
257.839357
 20
144.764057
 30
0.0
 11
257.839357
 21
204.457802
 31
0.0
  0
LINE
  5
183
330
D6
100
AcDbEntity
  8
0
  6
Continuous
 62
     0
370
    30
100
AcDbLine
 10
257.839357
 20
244.189872
 30
0.0
 11
257.839357
 21
204.457802
 31
0.0
  0
LINE
  5
184
330
D6
100
AcDbEntity
  8
0
  6
Continuous
 62
     0
370
    30
100
AcDbLine
 10
257.839357
 20
244.189872
 30
0.0
 11
257.839357
 21
257.291039
 31
0.0
  0
LINE
  5
185
330
D6
100
AcDbEntity
  8
0
  6
Continuous
 62
     0
370
    30
100
AcDbLine
 10
257.839357
 20
257.291039
 30
0.0
 11
257.839357
 21
298.791039
 31
0.0
  0
ARC
  5
186
330
D6
100
AcDbEntity
  8
0
  6
Continuous
 62
     0
370
    30
100
AcDbCircle
 10
275.839159
 20
338.226361
 30
0.0
 40
0.4999990574333317
100
AcDbArc
 50
278.866068
 51
0.000146
  0
ARC
  5
187
330
D6
100
AcDbEntity
  8
0
  6
Continuous
 62
     0
370
    30
100
AcDbCircle
 10
221.839869
 20
338.226354
 30
0.0
 40
0.4999913289642063
100
AcDbArc
 50
179.999013
 51
261.018108
  0
LINE
  5
188
330
D6
100
AcDbEntity
  8
0
  6
Continuous
 62
     0
370
    30
100
AcDbLine
 10
276.339358
 20
344.791008
 30
0.0
 11
276.339358
 21
338.226362
 31
0.0
  0
LINE
  5
189
330
D6
100
AcDbEntity
  8
0
  6
Continuous
 62
     0
370
    30
100
AcDbLine
 10
221.339357
 20
344.791008
 30
0.0
 11
221.339357
 21
338.226362
 31
0.0
  0
ARC
  5
18A
330
D6
100
AcDbEntity
  8
0
  6
Continuous
 62
     0
370
    30
100
AcDbCircle
 10
219.661683
 20
324.143739
 30
0.0
 40
13.75000183792437
100
AcDbArc
 50
15.876241
 51
81.209662
  0
ARC
  5
18B
330
D6
100
AcDbEntity
  8
0
  6
Continuous
 62
     0
370
    30
100
AcDbCircle
 10
278.017032
 20
324.143739
 30
0.0
 40
13.75000183792431
100
AcDbArc
 50
98.790338
 51
164.123759
  0
ARC
  5
18C
330
D6
100
AcDbEntity
  8
0
  6
Continuous
 62
     0
370
    30
100
AcDbCircle
 10
238.275781
 20
304.29101
 30
0.0
 40
0.5000020099695937
100
AcDbArc
 50
187.47268
 51
269.940058
  0
ARC
  5
18D
330
D6
100
AcDbEntity
  8
0
  6
Continuous
 62
     0
370
    30
100
AcDbCircle
 10
259.40301
 20
304.291012
 30
0.0
 40
0.500004272712167
100
AcDbArc
 50
270.03005
 51
352.527093
  0
ARC
  5
18E
330
D6
100
AcDbEntity
  8
0
  6
Continuous
 62
     0
370
    30
100
AcDbCircle
 10
74.181916
 20
282.767905
 30
0.0
 40
164.9992078044817
100
AcDbArc
 50
7.472458
 51
15.876256
  0
ARC
  5
18F
330
D6
100
AcDbEntity
  8
0
  6
Continuous
 62
     0
370
    30
100
AcDbCircle
 10
423.496799
 20
282.767905
 30
0.0
 40
164.9992078044819
100
AcDbArc
 50
164.123744
 51
172.527542
  0
ARC
  5
190
330
D6
100
AcDbEntity
  8
0
  6
Continuous
 62
     0
370
    30
100
AcDbCircle
 10
259.339425
 20
302.29094
 30
0.0
 40
1.500067575883254
100
AcDbArc
 50
90.002581
 51
179.997419
  0
ARC
  5
191
330
D6
100
AcDbEntity
  8
0
  6
Continuous
 62
     0
370
    30
100
AcDbCircle
 10
238.33929
 20
302.29094
 30
0.0
 40
1.50006784141945
100
AcDbArc
 50
0.002591
 51
89.989306
  0
LINE
  5
192
330
D6
100
AcDbEntity
  8
0
  6
Continuous
 62
     0
370
    30
100
AcDbLine
 10
257.839357
 20
302.291008
 30
0.0
 11
257.839357
 21
298.791008
 31
0.0
  0
LINE
  5
193
330
D6
100
AcDbEntity
  8
0
  6
Continuous
 62
     0
370
    30
100
AcDbLine
 10
239.839357
 20
302.291008
 30
0.0
 11
239.839357
 21
298.791008
 31
0.0
  0
ENDBLK
  5
195
330
D6
100
AcDbEntity
  8
0
100
AcDbBlockEnd
  0
BLOCK
  5
251
330
197
100
AcDbEntity
  8
0
100
AcDbBlockBegin
  2
c
 70
     0
 10
223.460022
 20
79.903931
 30
0.0
  3
c
  1

  0
LINE
  5
198
330
197
100
AcDbEntity
  8
0
  6
Continuous
 62
     0
370
     0
100
AcDbLine
 10
475.508675
 20
461.720938
 30
0.0
 11
475.508675
 21
453.05138
 31
0.0
  0
LWPOLYLINE
  5
199
330
197
100
AcDbEntity
  8
0
  6
Continuous
 62
     0
370
     0
100
AcDbPolyline
 90
       19
 70
     0
 43
0.0
 10
475.508667
 20
471.051392
 10
475.508667
 20
471.045319
 10
475.508667
 20
470.985291
 10
475.508667
 20
470.856445
 10
475.508667
 20
470.654114
 10
475.508667
 20
470.375031
 10
475.508667
 20
470.017731
 10
475.508667
 20
469.582886
 10
475.508667
 20
469.073303
 10
475.508667
 20
468.49411
 10
475.508667
 20
467.85257
 10
475.508667
 20
467.157715
 10
475.508667
 20
466.420105
 10
475.508667
 20
465.651062
 10
475.508667
 20
464.862305
 10
475.508667
 20
464.065399
 10
475.508667
 20
463.271149
 10
475.508667
 20
462.489349
 10
475.508667
 20
461.720947
  0
LINE
  5
19A
330
197
100
AcDbEntity
  8
0
  6
Continuous
 62
     0
370
    30
100
AcDbLine
 10
433.008676
 20
461.041697
 30
0.0
 11
433.008675
 21
489.551635
 31
0.0
  0
LWPOLYLINE
  5
19B
330
197
100
AcDbEntity
  8
0
  6
Continuous
 62
     0
370
    30
100
AcDbPolyline
 90
       30
 70
     0
 43
0.0
 10
433.008667
 20
434.551117
 10
433.008667
 20
434.5896
 10
433.008667
 20
434.704681
 10
433.008667
 20
434.895874
 10
433.008667
 20
435.16272
 10
433.008667
 20
435.50473
 10
433.008667
 20
435.921265
 10
433.008667
 20
436.411072
 10
433.008667
 20
436.972412
 10
433.008667
 20
437.603546
 10
433.008667
 20
438.302795
 10
433.008667
 20
439.06842
 10
433.008667
 20
439.89859
 10
433.008667
 20
440.790863
 10
433.008667
 20
441.742432
 10
433.008667
 20
442.750549
 10
433.008667
 20
443.812408
 10
433.008667
 20
444.925262
 10
433.008667
 20
446.086212
 10
433.008667
 20
447.291931
 10
433.008667
 20
448.538818
 10
433.008667
 20
449.823303
 10
433.008667
 20
451.141876
 10
433.008667
 20
452.490875
 10
433.008667
 20
453.86676
 10
433.008667
 20
455.265594
 10
433.008667
 20
456.68335
 10
433.008667
 20
458.116089
 10
433.008667
 20
459.559753
 10
433.008667
 20
461.041687
  0
LINE
  5
19C
330
197
100
AcDbEntity
  8
0
  6
Continuous
 62
     0
370
    30
100
AcDbLine
 10
474.008675
 20
461.663524
 30
0.0
 11
474.008675
 21
451.487545
 31
0.0
  0
LINE
  5
19D
330
197
100
AcDbEntity
  8
0
  6
Continuous
 62
     0
370
    30
100
AcDbLine
 10
474.008675
 20
472.615215
 30
0.0
 11
474.008675
 21
461.663524
 31
0.0
  0
LINE
  5
19E
330
197
100
AcDbEntity
  8
0
  6
Continuous
 62
     0
370
     0
100
AcDbLine
 10
473.5737
 20
461.645322
 30
0.0
 11
473.5737
 21
473.110871
 31
0.0
  0
LINE
  5
19F
330
197
100
AcDbEntity
  8
0
  6
Continuous
 62
     0
370
     0
100
AcDbLine
 10
473.5737
 20
450.991889
 30
0.0
 11
473.5737
 21
461.645322
 31
0.0
  0
LINE
  5
1A0
330
197
100
AcDbEntity
  8
0
  6
Continuous
 62
     0
370
     0
100
AcDbLine
 10
449.894489
 20
461.465684
 30
0.0
 11
449.894488
 21
446.099212
 31
0.0
  0
LWPOLYLINE
  5
1A1
330
197
100
AcDbEntity
  8
0
  6
Continuous
 62
     0
370
     0
100
AcDbPolyline
 90
       25
 70
     0
 43
0.0
 10
449.894501
 20
478.00354
 10
449.894501
 20
477.992798
 10
449.894501
 20
477.925568
 10
449.894501
 20
477.793152
 10
449.894501
 20
477.591797
 10
449.894501
 20
477.318512
 10
449.894501
 20
476.971008
 10
449.894501
 20
476.548065
 10
449.894501
 20
476.049408
 10
449.894501
 20
475.475922
 10
449.894501
 20
474.829773
 10
449.894501
 20
474.114197
 10
449.894501
 20
473.33374
 10
449.894501
 20
472.493896
 10
449.894501
 20
471.601196
 10
449.894501
 20
470.662872
 10
449.894501
 20
469.686859
 10
449.894501
 20
468.681335
 10
449.894501
 20
467.654724
 10
449.894501
 20
466.615356
 10
449.894501
 20
465.57132
 10
449.894501
 20
464.530243
 10
449.894501
 20
463.499207
 10
449.894501
 20
462.484619
 10
449.894501
 20
461.465698
  0
LINE
  5
1A2
330
197
100
AcDbEntity
  8
0
  6
Continuous
 62
     0
370
     0
100
AcDbLine
 10
440.067449
 20
461.057249
 30
0.0
 11
440.067447
 21
434.97497
 31
0.0
  0
LWPOLYLINE
  5
1A3
330
197
100
AcDbEntity
  8
0
  6
Continuous
 62
     0
370
     0
100
AcDbPolyline
 90
       32
 70
     0
 43
0.0
 10
440.067444
 20
489.127777
 10
440.067444
 20
489.109528
 10
440.067444
 20
489.031708
 10
440.067444
 20
488.889679
 10
440.067444
 20
488.680511
 10
440.067444
 20
488.40152
 10
440.067444
 20
488.050537
 10
440.067444
 20
487.625763
 10
440.067444
 20
487.126038
 10
440.067444
 20
486.55069
 10
440.067444
 20
485.899811
 10
440.067444
 20
485.174072
 10
440.067444
 20
484.374908
 10
440.067444
 20
483.504425
 10
440.067444
 20
482.56546
 10
440.067444
 20
481.561523
 10
440.067444
 20
480.496704
 10
440.067444
 20
479.375763
 10
440.067444
 20
478.203918
 10
440.067444
 20
476.986816
 10
440.067444
 20
475.730469
 10
440.067444
 20
474.441101
 10
440.067444
 20
473.125122
 10
440.067444
 20
471.788971
 10
440.067444
 20
470.438995
 10
440.067444
 20
469.081512
 10
440.067444
 20
467.722534
 10
440.067444
 20
466.367767
 10
440.067444
 20
465.022644
 10
440.067444
 20
463.692169
 10
440.067444
 20
462.380859
 10
440.067444
 20
461.057251
  0
LINE
  5
1A4
330
197
100
AcDbEntity
  8
0
  6
Continuous
 62
     0
370
     0
100
AcDbLine
 10
439.573321
 20
461.041697
 30
0.0
 11
439.57332
 21
489.551381
 31
0.0
  0
LINE
  5
1A5
330
197
100
AcDbEntity
  8
0
  6
Continuous
 62
     0
370
     0
100
AcDbLine
 10
439.57332
 20
434.55138
 30
0.0
 11
439.573321
 21
461.041697
 31
0.0
  0
LINE
  5
1A6
330
197
100
AcDbEntity
  8
0
  6
Continuous
 62
     0
370
    30
100
AcDbLine
 10
437.612834
 20
487.644588
 30
0.0
 11
437.253102
 21
487.644588
 31
0.0
  0
ARC
  5
1A7
330
197
100
AcDbEntity
  8
0
  6
Continuous
 62
     0
370
    30
100
AcDbCircle
 10
423.746273
 20
440.69914
 30
0.0
 40
48.8498663394644
100
AcDbArc
 50
73.94877
 51
76.27897
  0
LINE
  5
1A8
330
197
100
AcDbEntity
  8
0
  6
Continuous
 62
     0
370
    30
100
AcDbLine
 10
435.333204
 20
488.154935
 30
0.0
 11
435.333204
 21
487.659027
 31
0.0
  0
LINE
  5
1A9
330
197
100
AcDbEntity
  8
0
  6
Continuous
 62
     0
370
    30
100
AcDbLine
 10
435.333204
 20
487.659027
 30
0.0
 11
435.016739
 21
487.659027
 31
0.0
  0
LINE
  5
1AA
330
197
100
AcDbEntity
  8
0
  6
Continuous
 62
     0
370
    30
100
AcDbLine
 10
435.016739
 20
487.659027
 30
0.0
 11
435.016739
 21
488.286384
 31
0.0
  0
LINE
  5
1AB
330
197
100
AcDbEntity
  8
0
  6
Continuous
 62
     0
370
    30
100
AcDbLine
 10
435.016739
 20
488.286384
 30
0.0
 11
435.37271
 21
488.286384
 31
0.0
  0
ARC
  5
1AC
330
197
100
AcDbEntity
  8
0
  6
Continuous
 62
     0
370
    30
100
AcDbCircle
 10
424.513363
 20
441.951013
 30
0.0
 40
47.59088100350549
100
AcDbArc
 50
74.419166
 51
76.809982
  0
LINE
  5
1AD
330
197
100
AcDbEntity
  8
0
  6
Continuous
 62
     0
370
    30
100
AcDbLine
 10
437.296161
 20
487.793047
 30
0.0
 11
437.296161
 21
488.293959
 31
0.0
  0
LINE
  5
1AE
330
197
100
AcDbEntity
  8
0
  6
Continuous
 62
     0
370
    30
100
AcDbLine
 10
437.296161
 20
488.293959
 30
0.0
 11
437.612834
 21
488.293959
 31
0.0
  0
LINE
  5
1AF
330
197
100
AcDbEntity
  8
0
  6
Continuous
 62
     0
370
    30
100
AcDbLine
 10
437.612834
 20
488.293959
 30
0.0
 11
437.612834
 21
487.644588
 31
0.0
  0
LINE
  5
1B0
330
197
100
AcDbEntity
  8
0
  6
Continuous
 62
     0
370
    30
100
AcDbLine
 10
435.016739
 20
488.394457
 30
0.0
 11
435.016739
 21
488.495432
 31
0.0
  0
LINE
  5
1B1
330
197
100
AcDbEntity
  8
0
  6
Continuous
 62
     0
370
    30
100
AcDbLine
 10
435.016739
 20
488.495432
 30
0.0
 11
436.623726
 21
488.495432
 31
0.0
  0
LWPOLYLINE
  5
1B2
330
197
100
AcDbEntity
  8
0
  6
Continuous
 62
     0
370
    30
100
AcDbPolyline
 90
        3
 70
     0
 43
0.0
 10
436.623718
 20
488.495422
 10
436.85611
 20
488.500519
 10
437.091095
 20
488.526825
  0
LWPOLYLINE
  5
1B3
330
197
100
AcDbEntity
  8
0
  6
Continuous
 62
     0
370
    30
100
AcDbPolyline
 90
        4
 70
     0
 43
0.0
 10
437.091095
 20
488.526825
 10
437.237152
 20
488.569214
 10
437.319824
 20
488.621307
 10
437.346527
 20
488.681091
  0
LWPOLYLINE
  5
1B4
330
197
100
AcDbEntity
  8
0
  6
Continuous
 62
     0
370
    30
100
AcDbPolyline
 90
        7
 70
     0
 43
0.0
 10
437.346527
 20
488.681091
 10
437.330872
 20
488.727661
 10
437.275757
 20
488.770966
 10
437.167938
 20
488.807129
 10
437.012665
 20
488.831573
 10
436.832306
 20
488.843964
 10
436.609528
 20
488.847412
  0
LINE
  5
1B5
330
197
100
AcDbEntity
  8
0
  6
Continuous
 62
     0
370
    30
100
AcDbLine
 10
436.609512
 20
488.847402
 30
0.0
 11
435.016739
 21
488.847402
 31
0.0
  0
LINE
  5
1B6
330
197
100
AcDbEntity
  8
0
  6
Continuous
 62
     0
370
    30
100
AcDbLine
 10
435.016739
 20
488.847402
 30
0.0
 11
435.016739
 21
488.923677
 31
0.0
  0
LINE
  5
1B7
330
197
100
AcDbEntity
  8
0
  6
Continuous
 62
     0
370
    30
100
AcDbLine
 10
435.016739
 20
488.923677
 30
0.0
 11
436.616619
 21
488.923677
 31
0.0
  0
LWPOLYLINE
  5
1B8
330
197
100
AcDbEntity
  8
0
  6
Continuous
 62
     0
370
    30
100
AcDbPolyline
 90
        4
 70
     0
 43
0.0
 10
436.616608
 20
488.923676
 10
436.820343
 20
488.921326
 10
437.019409
 20
488.911743
 10
437.307251
 20
488.877777
  0
LWPOLYLINE
  5
1B9
330
197
100
AcDbEntity
  8
0
  6
Continuous
 62
     0
370
    30
100
AcDbPolyline
 90
        5
 70
     0
 43
0.0
 10
437.307251
 20
488.877777
 10
437.457794
 20
488.843384
 10
437.567078
 20
488.800781
 10
437.634216
 20
488.752045
 10
437.666565
 20
488.681091
  0
LWPOLYLINE
  5
1BA
330
197
100
AcDbEntity
  8
0
  6
Continuous
 62
     0
370
    30
100
AcDbPolyline
 90
        5
 70
     0
 43
0.0
 10
437.666565
 20
488.681091
 10
437.644287
 20
488.618042
 10
437.578552
 20
488.554901
 10
437.462524
 20
488.495728
 10
437.253113
 20
488.437439
  0
LWPOLYLINE
  5
1BB
330
197
100
AcDbEntity
  8
0
  6
Continuous
 62
     0
370
    30
100
AcDbPolyline
 90
        4
 70
     0
 43
0.0
 10
437.253113
 20
488.437439
 10
437.087341
 20
488.413116
 10
436.906494
 20
488.400116
 10
436.598633
 20
488.39447
  0
LINE
  5
1BC
330
197
100
AcDbEntity
  8
0
  6
Continuous
 62
     0
370
    30
100
AcDbLine
 10
436.598643
 20
488.394457
 30
0.0
 11
435.016739
 21
488.394457
 31
0.0
  0
LINE
  5
1BD
330
197
100
AcDbEntity
  8
0
  6
Continuous
 62
     0
370
    30
100
AcDbLine
 10
435.71781
 20
489.326806
 30
0.0
 11
435.71781
 21
489.275071
 31
0.0
  0
LWPOLYLINE
  5
1BE
330
197
100
AcDbEntity
  8
0
  6
Continuous
 62
     0
370
    30
100
AcDbPolyline
 90
        5
 70
     0
 43
0.0
 10
435.717804
 20
489.275085
 10
435.528748
 20
489.267151
 10
435.376862
 20
489.248993
 10
435.292755
 20
489.222015
 10
435.268402
 20
489.190094
  0
LWPOLYLINE
  5
1BF
330
197
100
AcDbEntity
  8
0
  6
Continuous
 62
     0
370
    30
100
AcDbPolyline
 90
        8
 70
     0
 43
0.0
 10
435.268402
 20
489.190094
 10
435.296997
 20
489.155792
 10
435.386078
 20
489.123566
 10
435.534576
 20
489.097748
 10
435.717804
 20
489.079956
 10
435.916687
 20
489.069
 10
436.121887
 20
489.063141
 10
436.339874
 20
489.061279
  0
LWPOLYLINE
  5
1C0
330
197
100
AcDbEntity
  8
0
  6
Continuous
 62
     0
370
    30
100
AcDbPolyline
 90
        8
 70
     0
 43
0.0
 10
436.339874
 20
489.061279
 10
436.539307
 20
489.062866
 10
436.736786
 20
489.068298
 10
436.928009
 20
489.078888
 10
437.103149
 20
489.096375
 10
437.243256
 20
489.121765
 10
437.327545
 20
489.152924
 10
437.357208
 20
489.189514
  0
LWPOLYLINE
  5
1C1
330
197
100
AcDbEntity
  8
0
  6
Continuous
 62
     0
370
    30
100
AcDbPolyline
 90
        4
 70
     0
 43
0.0
 10
437.357208
 20
489.189514
 10
437.346985
 20
489.209869
 10
437.314514
 20
489.229004
 10
437.202728
 20
489.254333
  0
ARC
  5
1C2
330
197
100
AcDbEntity
  8
0
  6
Continuous
 62
     0
370
    30
100
AcDbCircle
 10
436.898078
 20
486.737608
 30
0.0
 40
2.535110978964925
100
AcDbArc
 50
83.097998
 51
89.289138
  0
LINE
  5
1C3
330
197
100
AcDbEntity
  8
0
  6
Continuous
 62
     0
370
    30
100
AcDbLine
 10
436.92953
 20
489.272523
 30
0.0
 11
436.92953
 21
489.325884
 31
0.0
  0
LWPOLYLINE
  5
1C4
330
197
100
AcDbEntity
  8
0
  6
Continuous
 62
     0
370
    30
100
AcDbPolyline
 90
        6
 70
     0
 43
0.0
 10
436.929535
 20
489.325897
 10
437.181458
 20
489.316925
 10
437.392242
 20
489.296387
 10
437.539276
 20
489.266113
 10
437.62265
 20
489.229095
 10
437.65213
 20
489.184845
  0
LWPOLYLINE
  5
1C5
330
197
100
AcDbEntity
  8
0
  6
Continuous
 62
     0
370
    30
100
AcDbPolyline
 90
        8
 70
     0
 43
0.0
 10
437.65213
 20
489.184845
 10
437.622986
 20
489.138733
 10
437.53064
 20
489.092926
 10
437.364471
 20
489.052338
 10
437.141846
 20
489.021423
 10
436.887512
 20
489.001038
 10
436.618713
 20
488.989838
 10
436.343628
 20
488.986267
  0
LWPOLYLINE
  5
1C6
330
197
100
AcDbEntity
  8
0
  6
Continuous
 62
     0
370
    30
100
AcDbPolyline
 90
        9
 70
     0
 43
0.0
 10
436.343628
 20
488.986267
 10
436.098785
 20
488.989105
 10
435.857452
 20
488.997833
 10
435.624817
 20
489.013184
 10
435.409698
 20
489.036133
 10
435.226196
 20
489.067078
 10
435.090118
 20
489.104431
 10
435.010681
 20
489.145203
 10
434.980774
 20
489.192413
  0
LWPOLYLINE
  5
1C7
330
197
100
AcDbEntity
  8
0
  6
Continuous
 62
     0
370
    30
100
AcDbPolyline
 90
        6
 70
     0
 43
0.0
 10
434.980774
 20
489.192413
 10
435.006775
 20
489.233521
 10
435.08902
 20
489.270386
 10
435.240326
 20
489.300049
 10
435.458435
 20
489.319122
 10
435.717804
 20
489.326813
  0
LINE
  5
1C8
330
197
100
AcDbEntity
  8
0
  6
Continuous
 62
     0
370
    30
100
AcDbLine
 10
435.71781
 20
489.52354
 30
0.0
 11
435.71781
 21
489.503547
 31
0.0
  0
LWPOLYLINE
  5
1C9
330
197
100
AcDbEntity
  8
0
  6
Continuous
 62
     0
370
    30
100
AcDbPolyline
 90
        5
 70
     0
 43
0.0
 10
435.717804
 20
489.50354
 10
435.5289
 20
489.500214
 10
435.377045
 20
489.49234
 10
435.292847
 20
489.480072
 10
435.268402
 20
489.464783
  0
LWPOLYLINE
  5
1CA
330
197
100
AcDbEntity
  8
0
  6
Continuous
 62
     0
370
    30
100
AcDbPolyline
 90
        8
 70
     0
 43
0.0
 10
435.268402
 20
489.464783
 10
435.296906
 20
489.44751
 10
435.386292
 20
489.430664
 10
435.534851
 20
489.416687
 10
435.718201
 20
489.406891
 10
435.917297
 20
489.400787
 10
436.12265
 20
489.397522
 10
436.339874
 20
489.396454
  0
LWPOLYLINE
  5
1CB
330
197
100
AcDbEntity
  8
0
  6
Continuous
 62
     0
370
    30
100
AcDbPolyline
 90
        8
 70
     0
 43
0.0
 10
436.339874
 20
489.396454
 10
436.539246
 20
489.397369
 10
436.736664
 20
489.400421
 10
436.927826
 20
489.406311
 10
437.102936
 20
489.415955
 10
437.243042
 20
489.429657
 10
437.327454
 20
489.446014
 10
437.357208
 20
489.464478
  0
LWPOLYLINE
  5
1CC
330
197
100
AcDbEntity
  8
0
  6
Continuous
 62
     0
370
    30
100
AcDbPolyline
 90
        4
 70
     0
 43
0.0
 10
437.357208
 20
489.464478
 10
437.347015
 20
489.474304
 10
437.314667
 20
489.483276
 10
437.202728
 20
489.49469
  0
ARC
  5
1CD
330
197
100
AcDbEntity
  8
0
  6
Continuous
 62
     0
370
    30
100
AcDbCircle
 10
436.902455
 20
483.762374
 30
0.0
 40
5.740171075040868
100
AcDbArc
 50
87.001462
 51
89.729749
  0
LINE
  5
1CE
330
197
100
AcDbEntity
  8
0
  6
Continuous
 62
     0
370
    30
100
AcDbLine
 10
436.92953
 20
489.502481
 30
0.0
 11
436.92953
 21
489.523219
 31
0.0
  0
LWPOLYLINE
  5
1CF
330
197
100
AcDbEntity
  8
0
  6
Continuous
 62
     0
370
    30
100
AcDbPolyline
 90
        6
 70
     0
 43
0.0
 10
436.929535
 20
489.523224
 10
437.181305
 20
489.519989
 10
437.391998
 20
489.512207
 10
437.539062
 20
489.499817
 10
437.622559
 20
489.483368
 10
437.65213
 20
489.462189
  0
LWPOLYLINE
  5
1D0
330
197
100
AcDbEntity
  8
0
  6
Continuous
 62
     0
370
    30
100
AcDbPolyline
 90
        8
 70
     0
 43
0.0
 10
437.65213
 20
489.462189
 10
437.623047
 20
489.43866
 10
437.530701
 20
489.414093
 10
437.364624
 20
489.391418
 10
437.14209
 20
489.373657
 10
436.887848
 20
489.361725
 10
436.61911
 20
489.355103
 10
436.343628
 20
489.352966
  0
LWPOLYLINE
  5
1D1
330
197
100
AcDbEntity
  8
0
  6
Continuous
 62
     0
370
    30
100
AcDbPolyline
 90
        9
 70
     0
 43
0.0
 10
436.343628
 20
489.352966
 10
436.098328
 20
489.354645
 10
435.856537
 20
489.359863
 10
435.623505
 20
489.368927
 10
435.408142
 20
489.382263
 10
435.22467
 20
489.399902
 10
435.088837
 20
489.420593
 10
435.01059
 20
489.442322
 10
434.980774
 20
489.465912
  0
LWPOLYLINE
  5
1D2
330
197
100
AcDbEntity
  8
0
  6
Continuous
 62
     0
370
    30
100
AcDbPolyline
 90
        6
 70
     0
 43
0.0
 10
434.980774
 20
489.465912
 10
435.006683
 20
489.485321
 10
435.088837
 20
489.501556
 10
435.239899
 20
489.51358
 10
435.457703
 20
489.520782
 10
435.717804
 20
489.523529
  0
LINE
  5
1D3
330
197
100
AcDbEntity
  8
0
  6
Continuous
 62
     0
370
    30
100
AcDbLine
 10
437.612625
 20
489.54401
 30
0.0
 11
437.612625
 21
489.533333
 31
0.0
  0
LINE
  5
1D4
330
197
100
AcDbEntity
  8
0
  6
Continuous
 62
     0
370
    30
100
AcDbLine
 10
437.612625
 20
489.533333
 30
0.0
 11
435.016739
 21
489.533333
 31
0.0
  0
LINE
  5
1D5
330
197
100
AcDbEntity
  8
0
  6
Continuous
 62
     0
370
    30
100
AcDbLine
 10
435.016739
 20
489.533333
 30
0.0
 11
435.016739
 21
489.54401
 31
0.0
  0
LINE
  5
1D6
330
197
100
AcDbEntity
  8
0
  6
Continuous
 62
     0
370
    30
100
AcDbLine
 10
435.016739
 20
489.54401
 30
0.0
 11
436.131262
 21
489.54401
 31
0.0
  0
LINE
  5
1D7
330
197
100
AcDbEntity
  8
0
  6
Continuous
 62
     0
370
    30
100
AcDbLine
 10
436.131262
 20
489.534756
 30
0.0
 11
436.440411
 21
489.534756
 31
0.0
  0
LINE
  5
1D8
330
197
100
AcDbEntity
  8
0
  6
Continuous
 62
     0
370
    30
100
AcDbLine
 10
436.440411
 20
489.54401
 30
0.0
 11
437.612625
 21
489.54401
 31
0.0
  0
LINE
  5
1D9
330
197
100
AcDbEntity
  8
0
  6
Continuous
 62
     0
370
    30
100
AcDbLine
 10
437.296161
 20
488.228715
 30
0.0
 11
437.612834
 21
488.228715
 31
0.0
  0
LINE
  5
1DA
330
197
100
AcDbEntity
  8
0
  6
Continuous
 62
     0
370
    30
100
AcDbLine
 10
437.296161
 20
487.793047
 30
0.0
 11
437.296161
 21
487.725072
 31
0.0
  0
LINE
  5
1DB
330
197
100
AcDbEntity
  8
0
  6
Continuous
 62
     0
370
    30
100
AcDbLine
 10
435.37271
 20
488.286384
 30
0.0
 11
435.37271
 21
488.220437
 31
0.0
  0
LINE
  5
1DC
330
197
100
AcDbEntity
  8
0
  6
Continuous
 62
     0
370
    30
100
AcDbLine
 10
435.37271
 20
488.220437
 30
0.0
 11
437.296161
 21
487.725072
 31
0.0
  0
LINE
  5
1DD
330
197
100
AcDbEntity
  8
0
  6
Continuous
 62
     0
370
    30
100
AcDbLine
 10
435.016739
 20
488.220437
 30
0.0
 11
435.37271
 21
488.220437
 31
0.0
  0
LINE
  5
1DE
330
197
100
AcDbEntity
  8
0
  6
Continuous
 62
     0
370
     0
100
AcDbLine
 10
437.307239
 20
488.877765
 30
0.0
 11
437.307239
 21
488.795643
 31
0.0
  0
LWPOLYLINE
  5
1DF
330
197
100
AcDbEntity
  8
0
  6
Continuous
 62
     0
370
    30
100
AcDbPolyline
 90
        5
 70
     0
 43
0.0
 10
437.307251
 20
488.795654
 10
437.44989
 20
488.760529
 10
437.549316
 20
488.721893
 10
437.613068
 20
488.682434
 10
437.654449
 20
488.635559
  0
LINE
  5
1E0
330
197
100
AcDbEntity
  8
0
  6
Continuous
 62
     0
370
     0
100
AcDbLine
 10
436.616619
 20
488.923677
 30
0.0
 11
436.616619
 21
488.847369
 31
0.0
  0
LWPOLYLINE
  5
1E1
330
197
100
AcDbEntity
  8
0
  6
Continuous
 62
     0
370
    30
100
AcDbPolyline
 90
        4
 70
     0
 43
0.0
 10
436.653259
 20
488.847321
 10
436.832367
 20
488.844269
 10
437.05545
 20
488.830627
 10
437.307251
 20
488.795654
  0
LINE
  5
1E2
330
197
100
AcDbEntity
  8
0
  6
Continuous
 62
     0
370
    30
100
AcDbLine
 10
437.346536
 20
488.68109
 30
0.0
 11
437.346536
 21
488.591541
 31
0.0
  0
LINE
  5
1E3
330
197
100
AcDbEntity
  8
0
  6
Continuous
 62
     0
370
     0
100
AcDbLine
 10
437.091107
 20
488.526823
 30
0.0
 11
437.091107
 21
488.446984
 31
0.0
  0
LWPOLYLINE
  5
1E4
330
197
100
AcDbEntity
  8
0
  6
Continuous
 62
     0
370
    30
100
AcDbPolyline
 90
        5
 70
     0
 43
0.0
 10
437.091095
 20
488.446991
 10
437.218475
 20
488.47876
 10
437.295776
 20
488.514832
 10
437.334564
 20
488.551941
 10
437.346527
 20
488.591553
  0
LINE
  5
1E5
330
197
100
AcDbEntity
  8
0
  6
Continuous
 62
     0
370
     0
100
AcDbLine
 10
436.623726
 20
488.495432
 30
0.0
 11
436.623726
 21
488.418918
 31
0.0
  0
LWPOLYLINE
  5
1E6
330
197
100
AcDbEntity
  8
0
  6
Continuous
 62
     0
370
    30
100
AcDbPolyline
 90
        5
 70
     0
 43
0.0
 10
436.623718
 20
488.418915
 10
436.794983
 20
488.421204
 10
436.921417
 20
488.427185
 10
437.012787
 20
488.435516
 10
437.091095
 20
488.446991
  0
LINE
  5
1E7
330
197
100
AcDbEntity
  8
0
  6
Continuous
 62
     0
370
    30
100
AcDbLine
 10
435.016739
 20
488.418918
 30
0.0
 11
436.623726
 21
488.418918
 31
0.0
  0
LWPOLYLINE
  5
1E8
330
197
100
AcDbEntity
  8
0
  6
Continuous
 62
     0
370
    30
100
AcDbPolyline
 90
        4
 70
     0
 43
0.0
 10
435.012665
 20
489.143677
 10
435.057129
 20
489.167053
 10
435.125061
 20
489.189301
 10
435.288727
 20
489.219421
  0
LWPOLYLINE
  5
1E9
330
197
100
AcDbEntity
  8
0
  6
Continuous
 62
     0
370
    30
100
AcDbPolyline
 90
        4
 70
     0
 43
0.0
 10
437.339142
 20
489.216339
 10
437.440063
 20
489.199493
 10
437.520416
 20
489.179871
 10
437.62027
 20
489.136566
  0
LINE
  5
1EA
330
197
100
AcDbEntity
  8
0
  6
Continuous
 62
     0
370
    30
100
AcDbLine
 10
437.357196
 20
489.189521
 30
0.0
 11
437.357196
 21
489.09462
 31
0.0
  0
LINE
  5
1EB
330
197
100
AcDbEntity
  8
0
  6
Continuous
 62
     0
370
     0
100
AcDbLine
 10
436.33987
 20
489.061264
 30
0.0
 11
436.33987
 21
488.986262
 31
0.0
  0
LWPOLYLINE
  5
1EC
330
197
100
AcDbEntity
  8
0
  6
Continuous
 62
     0
370
    30
100
AcDbPolyline
 90
        3
 70
     0
 43
0.0
 10
437.26535
 20
489.036438
 10
437.319489
 20
489.055115
 10
437.357208
 20
489.094635
  0
LINE
  5
1ED
330
197
100
AcDbEntity
  8
0
  6
Continuous
 62
     0
370
    30
100
AcDbLine
 10
435.268406
 20
489.190096
 30
0.0
 11
435.268406
 21
489.095182
 31
0.0
  0
LWPOLYLINE
  5
1EE
330
197
100
AcDbEntity
  8
0
  6
Continuous
 62
     0
370
    30
100
AcDbPolyline
 90
        3
 70
     0
 43
0.0
 10
435.268402
 20
489.095184
 10
435.271729
 20
489.08313
 10
435.32962
 20
489.047882
  0
ARC
  5
1EF
330
197
100
AcDbEntity
  8
0
  6
Continuous
 62
     0
370
    30
100
AcDbCircle
 10
435.396147
 20
487.14746
 30
0.0
 40
2.291615111907044
100
AcDbArc
 50
93.195503
 51
97.536618
  0
ARC
  5
1F0
330
197
100
AcDbEntity
  8
0
  6
Continuous
 62
     0
370
    30
100
AcDbCircle
 10
437.221801
 20
487.137222
 30
0.0
 40
2.300951668613208
100
AcDbArc
 50
82.035112
 51
86.626591
  0
LINE
  5
1F1
330
197
100
AcDbEntity
  8
0
  6
Continuous
 62
     0
370
    30
100
AcDbLine
 10
437.357196
 20
489.464486
 30
0.0
 11
437.357196
 21
489.39066
 31
0.0
  0
LINE
  5
1F2
330
197
100
AcDbEntity
  8
0
  6
Continuous
 62
     0
370
     0
100
AcDbLine
 10
436.33987
 20
489.396461
 30
0.0
 11
436.33987
 21
489.352969
 31
0.0
  0
LINE
  5
1F3
330
197
100
AcDbEntity
  8
0
  6
Continuous
 62
     0
370
    30
100
AcDbLine
 10
435.268406
 20
489.464768
 30
0.0
 11
435.268406
 21
489.394953
 31
0.0
  0
LINE
  5
1F4
330
197
100
AcDbEntity
  8
0
  6
Continuous
 62
     0
370
    30
100
AcDbLine
 10
436.440411
 20
489.54401
 30
0.0
 11
436.440411
 21
489.533333
 31
0.0
  0
LINE
  5
1F5
330
197
100
AcDbEntity
  8
0
  6
Continuous
 62
     0
370
    30
100
AcDbLine
 10
436.131262
 20
489.54401
 30
0.0
 11
436.131262
 21
489.533333
 31
0.0
  0
LINE
  5
1F6
330
197
100
AcDbEntity
  8
0
  6
Continuous
 62
     0
370
     0
100
AcDbLine
 10
520.508644
 20
462.05138
 30
0.0
 11
520.508644
 21
471.05138
 31
0.0
  0
LINE
  5
1F7
330
197
100
AcDbEntity
  8
0
  6
Continuous
 62
     0
370
     0
100
AcDbLine
 10
520.508644
 20
453.05138
 30
0.0
 11
520.508644
 21
462.05138
 31
0.0
  0
LINE
  5
1F8
330
197
100
AcDbEntity
  8
0
  6
Continuous
 62
     0
370
     0
100
AcDbLine
 10
533.609811
 20
464.955839
 30
0.0
 11
529.806246
 21
473.112609
 31
0.0
  0
LWPOLYLINE
  5
1F9
330
197
100
AcDbEntity
  8
0
  6
Continuous
 62
     0
370
     0
100
AcDbPolyline
 90
       18
 70
     0
 43
0.0
 10
537.413391
 20
456.799072
 10
537.39978
 20
456.828217
 10
537.357361
 20
456.919189
 10
537.283997
 20
457.076508
 10
537.178162
 20
457.303467
 10
537.039062
 20
457.601746
 10
536.866821
 20
457.971161
 10
536.662415
 20
458.409515
 10
536.427856
 20
458.912506
 10
536.166077
 20
459.473938
 10
535.880737
 20
460.085846
 10
535.576172
 20
460.738922
 10
535.257202
 20
461.423004
 10
534.92865
 20
462.127563
 10
534.595459
 20
462.842102
 10
534.262207
 20
463.556763
 10
533.933105
 20
464.262543
 10
533.609802
 20
464.955841
  0
LINE
  5
1FA
330
197
100
AcDbEntity
  8
0
  6
Continuous
 62
     0
370
     0
100
AcDbLine
 10
573.34188
 20
483.483207
 30
0.0
 11
569.538315
 21
491.639977
 31
0.0
  0
LWPOLYLINE
  5
1FB
330
197
100
AcDbEntity
  8
0
  6
Continuous
 62
     0
370
     0
100
AcDbPolyline
 90
       18
 70
     0
 43
0.0
 10
577.145447
 20
475.326447
 10
577.131836
 20
475.355591
 10
577.089417
 20
475.446564
 10
577.016052
 20
475.603882
 10
576.910217
 20
475.830841
 10
576.771118
 20
476.12912
 10
576.598877
 20
476.498535
 10
576.39447
 20
476.93689
 10
576.159912
 20
477.43988
 10
575.898132
 20
478.001312
 10
575.612793
 20
478.61322
 10
575.308289
 20
479.266296
 10
574.989258
 20
479.950378
 10
574.660706
 20
480.654938
 10
574.327515
 20
481.369476
 10
573.994263
 20
482.084137
 10
573.665161
 20
482.789917
 10
573.341858
 20
483.483215
  0
LINE
  5
1FC
330
197
100
AcDbEntity
  8
0
  6
Continuous
 62
     0
370
     0
100
AcDbLine
 10
633.035627
 20
447.590686
 30
0.0
 11
642.023579
 21
448.056201
 31
0.0
  0
LINE
  5
1FD
330
197
100
AcDbEntity
  8
0
  6
Continuous
 62
     0
370
     0
100
AcDbLine
 10
624.047674
 20
447.12517
 30
0.0
 11
633.035627
 21
447.590686
 31
0.0
  0
LWPOLYLINE
  5
1FE
330
197
100
AcDbEntity
  8
0
  6
Continuous
 62
     0
370
     0
100
AcDbPolyline
 90
       22
 70
     0
 43
0.0
 10
481.902435
 20
453.051392
 10
481.939972
 20
453.062561
 10
482.051636
 20
453.094696
 10
482.231323
 20
453.144409
 10
482.472351
 20
453.206665
 10
482.766937
 20
453.275604
 10
483.107452
 20
453.345154
 10
483.487091
 20
453.409546
 10
483.897827
 20
453.463715
 10
484.330902
 20
453.502991
 10
484.777557
 20
453.523285
 10
485.228729
 20
453.523499
 10
485.675262
 20
453.503754
 10
486.108246
 20
453.465027
 10
486.519562
 20
453.411224
 10
486.901184
 20
453.346802
 10
487.244995
 20
453.276764
 10
487.54248
 20
453.207275
 10
487.785065
 20
453.144684
 10
487.965057
 20
453.094879
 10
488.076843
 20
453.062683
 10
488.114838
 20
453.051392
  0
LINE
  5
1FF
330
197
100
AcDbEntity
  8
0
  6
Continuous
 62
     0
370
    30
100
AcDbLine
 10
626.490652
 20
417.424792
 30
0.0
 11
639.460343
 21
418.096535
 31
0.0
  0
LINE
  5
200
330
197
100
AcDbEntity
  8
0
  6
Continuous
 62
     0
370
    30
100
AcDbLine
 10
639.460343
 20
418.096535
 30
0.0
 11
639.36724
 21
419.894125
 31
0.0
  0
LWPOLYLINE
  5
201
330
197
100
AcDbEntity
  8
0
  6
Continuous
 62
     0
370
    30
100
AcDbPolyline
 90
       12
 70
     0
 43
0.0
 10
639.367249
 20
419.894135
 10
640.146484
 20
420.120972
 10
640.902466
 20
420.311646
 10
641.629272
 20
420.46521
 10
642.32135
 20
420.57962
 10
642.973206
 20
420.653381
 10
643.579651
 20
420.685638
 10
644.135803
 20
420.676178
 10
644.637695
 20
420.625214
 10
645.082336
 20
420.533966
 10
645.467651
 20
420.4039
 10
645.804871
 20
420.227539
  0
LINE
  5
202
330
197
100
AcDbEntity
  8
0
  6
Continuous
 62
     0
370
    30
100
AcDbLine
 10
645.80486
 20
420.227551
 30
0.0
 11
645.897963
 21
418.42996
 31
0.0
  0
LINE
  5
203
330
197
100
AcDbEntity
  8
0
  6
Continuous
 62
     0
370
    30
100
AcDbLine
 10
645.897963
 20
418.42996
 30
0.0
 11
646.528609
 21
418.462623
 31
0.0
  0
LINE
  5
204
330
197
100
AcDbEntity
  8
0
  6
Continuous
 62
     0
370
    30
100
AcDbLine
 10
622.560735
 20
417.221249
 30
0.0
 11
626.490652
 21
417.424792
 31
0.0
  0
LWPOLYLINE
  5
205
330
197
100
AcDbEntity
  8
0
  6
Continuous
 62
     0
370
    30
100
AcDbPolyline
 90
        8
 70
     0
 43
0.0
 10
645.771179
 20
417.622314
 10
645.737793
 20
417.620605
 10
645.638184
 20
417.615448
 10
645.4729
 20
417.606873
 10
645.242554
 20
417.59494
 10
644.948486
 20
417.579712
 10
644.59259
 20
417.561279
 10
644.134766
 20
417.537567
  0
LINE
  5
206
330
197
100
AcDbEntity
  8
0
  6
Continuous
 62
     0
370
    30
100
AcDbLine
 10
644.134772
 20
417.537566
 30
0.0
 11
641.306293
 21
417.39107
 31
0.0
  0
LINE
  5
207
330
197
100
AcDbEntity
  8
0
  6
Continuous
 62
     0
370
    30
100
AcDbLine
 10
641.306293
 20
417.39107
 30
0.0
 11
627.068966
 21
416.653672
 31
0.0
  0
LINE
  5
208
330
197
100
AcDbEntity
  8
0
  6
Continuous
 62
     0
370
    30
100
AcDbLine
 10
627.068966
 20
416.653672
 30
0.0
 11
623.401038
 21
416.463698
 31
0.0
  0
LINE
  5
209
330
197
100
AcDbEntity
  8
0
  6
Continuous
 62
     0
370
     0
100
AcDbLine
 10
627.068966
 20
416.653672
 30
0.0
 11
626.490652
 21
417.424792
 31
0.0
  0
LWPOLYLINE
  5
20A
330
197
100
AcDbEntity
  8
0
  6
Continuous
 62
     0
370
    30
100
AcDbPolyline
 90
        4
 70
     0
 43
0.0
 10
645.89801
 20
418.429901
 10
645.342529
 20
418.086609
 10
644.772644
 20
417.792725
 10
644.134766
 20
417.537567
  0
LWPOLYLINE
  5
20B
330
197
100
AcDbEntity
  8
0
  6
Continuous
 62
     0
370
    30
100
AcDbPolyline
 90
        4
 70
     0
 43
0.0
 10
641.306274
 20
417.391083
 10
640.701599
 20
417.560028
 10
640.104187
 20
417.78833
 10
639.459961
 20
418.096527
  0
LINE
  5
20C
330
197
100
AcDbEntity
  8
0
  6
Continuous
 62
     0
370
    30
100
AcDbLine
 10
645.80486
 20
420.227551
 30
0.0
 11
639.36724
 21
419.894125
 31
0.0
  0
LINE
  5
20D
330
197
100
AcDbEntity
  8
0
  6
Continuous
 62
     0
370
     0
100
AcDbLine
 10
621.070924
 20
426.652427
 30
0.0
 11
637.106784
 21
427.482976
 31
0.0
  0
LINE
  5
20E
330
197
100
AcDbEntity
  8
0
  6
Continuous
 62
     0
370
     0
100
AcDbLine
 10
637.106784
 20
427.482976
 30
0.0
 11
647.036119
 21
427.997249
 31
0.0
  0
LWPOLYLINE
  5
20F
330
197
100
AcDbEntity
  8
0
  6
Continuous
 62
     0
370
     0
100
AcDbPolyline
 90
       19
 70
     0
 43
0.0
 10
647.291931
 20
428.391266
 10
647.257385
 20
428.389465
 10
647.15155
 20
428.383972
 10
646.971619
 20
428.374664
 10
646.716187
 20
428.36145
 10
646.384949
 20
428.344269
 10
645.978943
 20
428.323242
 10
645.50061
 20
428.298492
 10
644.953735
 20
428.270142
 10
644.343323
 20
428.238525
 10
643.675354
 20
428.203949
 10
642.956909
 20
428.166718
 10
642.195496
 20
428.127289
 10
641.39917
 20
428.08606
 10
640.576111
 20
428.043427
 10
639.734436
 20
427.999817
 10
638.882019
 20
427.955688
 10
638.026184
 20
427.911346
 10
637.151917
 20
427.866058
  0
LINE
  5
210
330
197
100
AcDbEntity
  8
0
  6
Continuous
 62
     0
370
     0
100
AcDbLine
 10
637.151907
 20
427.866073
 30
0.0
 11
620.775763
 21
427.017899
 31
0.0
  0
LINE
  5
211
330
197
100
AcDbEntity
  8
0
  6
Continuous
 62
     0
370
    30
100
AcDbLine
 10
621.264448
 20
422.915948
 30
0.0
 11
637.300309
 21
423.746498
 31
0.0
  0
LINE
  5
212
330
197
100
AcDbEntity
  8
0
  6
Continuous
 62
     0
370
    30
100
AcDbLine
 10
637.300309
 20
423.746498
 30
0.0
 11
647.229644
 21
424.260771
 31
0.0
  0
LINE
  5
213
330
197
100
AcDbEntity
  8
0
  6
Continuous
 62
     0
370
     0
100
AcDbLine
 10
621.50788
 20
435.306115
 30
0.0
 11
636.453334
 21
436.080189
 31
0.0
  0
LINE
  5
214
330
197
100
AcDbEntity
  8
0
  6
Continuous
 62
     0
370
     0
100
AcDbLine
 10
636.453334
 20
436.080189
 30
0.0
 11
645.707494
 21
436.559492
 31
0.0
  0
LWPOLYLINE
  5
215
330
197
100
AcDbEntity
  8
0
  6
Continuous
 62
     0
370
    30
100
AcDbPolyline
 90
       16
 70
     0
 43
0.0
 10
642.793884
 20
441.052094
 10
642.758362
 20
441.050262
 10
642.649109
 20
441.044617
 10
642.463318
 20
441.034973
 10
642.199768
 20
441.021332
 10
641.859314
 20
441.003693
 10
641.444885
 20
440.982239
 10
640.961121
 20
440.957184
 10
640.414612
 20
440.928894
 10
639.813477
 20
440.897736
 10
639.166809
 20
440.864258
 10
638.484375
 20
440.828918
 10
637.776306
 20
440.792236
 10
637.05249
 20
440.75473
 10
636.322266
 20
440.716919
 10
635.584656
 20
440.678711
  0
LINE
  5
216
330
197
100
AcDbEntity
  8
0
  6
Continuous
 62
     0
370
    30
100
AcDbLine
 10
635.584655
 20
440.678719
 30
0.0
 11
623.941786
 21
440.075697
 31
0.0
  0
LINE
  5
217
330
197
100
AcDbEntity
  8
0
  6
Continuous
 62
     0
370
     0
100
AcDbLine
 10
621.399946
 20
434.799854
 30
0.0
 11
636.510662
 21
435.582488
 31
0.0
  0
LINE
  5
218
330
197
100
AcDbEntity
  8
0
  6
Continuous
 62
     0
370
     0
100
AcDbLine
 10
636.510662
 20
435.582488
 30
0.0
 11
645.867151
 21
436.067091
 31
0.0
  0
LINE
  5
219
330
197
100
AcDbEntity
  8
0
  6
Continuous
 62
     0
370
    30
100
AcDbLine
 10
619.67105
 20
434.34713
 30
0.0
 11
636.940438
 21
435.241568
 31
0.0
  0
LINE
  5
21A
330
197
100
AcDbEntity
  8
0
  6
Continuous
 62
     0
370
    30
100
AcDbLine
 10
636.940438
 20
435.241568
 30
0.0
 11
647.633567
 21
435.7954
 31
0.0
  0
LINE
  5
21B
330
197
100
AcDbEntity
  8
0
  6
Continuous
 62
     0
370
     0
100
AcDbLine
 10
619.816348
 20
431.541781
 30
0.0
 11
637.085736
 21
432.436219
 31
0.0
  0
LINE
  5
21C
330
197
100
AcDbEntity
  8
0
  6
Continuous
 62
     0
370
     0
100
AcDbLine
 10
637.085736
 20
432.436219
 30
0.0
 11
647.778866
 21
432.990051
 31
0.0
  0
LINE
  5
21D
330
197
100
AcDbEntity
  8
0
  6
Continuous
 62
     0
370
     0
100
AcDbLine
 10
619.694232
 20
431.232859
 30
0.0
 11
637.133762
 21
432.136109
 31
0.0
  0
LINE
  5
21E
330
197
100
AcDbEntity
  8
0
  6
Continuous
 62
     0
370
     0
100
AcDbLine
 10
637.133762
 20
432.136109
 30
0.0
 11
647.932243
 21
432.695398
 31
0.0
  0
LINE
  5
21F
330
197
100
AcDbEntity
  8
0
  6
Continuous
 62
     0
370
     0
100
AcDbLine
 10
479.008675
 20
461.720938
 30
0.0
 11
479.008675
 21
453.051297
 31
0.0
  0
LINE
  5
220
330
197
100
AcDbEntity
  8
0
  6
Continuous
 62
     0
370
     0
100
AcDbLine
 10
479.008675
 20
471.051463
 30
0.0
 11
479.008675
 21
462.05138
 31
0.0
  0
LINE
  5
221
330
197
100
AcDbEntity
  8
0
  6
Continuous
 62
     0
370
     0
100
AcDbLine
 10
479.008675
 20
462.05138
 30
0.0
 11
479.008675
 21
461.720938
 31
0.0
  0
LINE
  5
222
330
197
100
AcDbEntity
  8
0
  6
Continuous
 62
     0
370
    30
100
AcDbLine
 10
646.527585
 20
418.462568
 30
0.0
 11
645.770494
 21
417.622697
 31
0.0
  0
LINE
  5
223
330
197
100
AcDbEntity
  8
0
  6
Continuous
 62
     0
370
    30
100
AcDbLine
 10
623.401119
 20
416.463825
 30
0.0
 11
622.560954
 21
417.22126
 31
0.0
  0
LINE
  5
224
330
197
100
AcDbEntity
  8
0
  6
Continuous
 62
     0
370
    30
100
AcDbLine
 10
646.528609
 20
418.462623
 30
0.0
 11
646.230983
 21
424.209047
 31
0.0
  0
LINE
  5
225
330
197
100
AcDbEntity
  8
0
  6
Continuous
 62
     0
370
    30
100
AcDbLine
 10
622.560735
 20
417.221249
 30
0.0
 11
622.263109
 21
422.967672
 31
0.0
  0
ARC
  5
226
330
197
100
AcDbEntity
  8
0
  6
Continuous
 62
     0
370
    30
100
AcDbCircle
 10
621.427679
 20
429.431413
 30
0.0
 40
2.500009479540718
100
AcDbArc
 50
133.89798
 51
254.884507
  0
ARC
  5
227
330
197
100
AcDbEntity
  8
0
  6
Continuous
 62
     0
370
    30
100
AcDbCircle
 10
646.394177
 20
430.72451
 30
0.0
 40
2.500009479543753
100
AcDbArc
 50
291.045266
 51
52.031793
  0
ARC
  5
228
330
197
100
AcDbEntity
  8
0
  6
Continuous
 62
     0
370
    30
100
AcDbCircle
 10
648.178611
 20
433.010886
 30
0.0
 40
0.4002870233987633
100
AcDbArc
 50
182.983637
 51
232.013426
  0
ARC
  5
229
330
197
100
AcDbEntity
  8
0
  6
Continuous
 62
     0
370
    30
100
AcDbCircle
 10
619.41659
 20
431.521207
 30
0.0
 40
0.4002870232031386
100
AcDbArc
 50
313.916347
 51
2.946136
  0
LINE
  5
22A
330
197
100
AcDbEntity
  8
0
  6
Continuous
 62
     0
370
    30
100
AcDbLine
 10
619.671049
 20
434.34713
 30
0.0
 11
619.816348
 21
431.541781
 31
0.0
  0
LINE
  5
22B
330
197
100
AcDbEntity
  8
0
  6
Continuous
 62
     0
370
    30
100
AcDbLine
 10
647.778866
 20
432.990051
 30
0.0
 11
647.633568
 21
435.7954
 31
0.0
  0
LINE
  5
22C
330
197
100
AcDbEntity
  8
0
  6
Continuous
 62
     0
370
    30
100
AcDbLine
 10
621.399946
 20
434.799854
 30
0.0
 11
621.418706
 21
434.437647
 31
0.0
  0
LINE
  5
22D
330
197
100
AcDbEntity
  8
0
  6
Continuous
 62
     0
370
    30
100
AcDbLine
 10
645.885911
 20
435.704883
 30
0.0
 11
645.867151
 21
436.067091
 31
0.0
  0
ARC
  5
22E
330
197
100
AcDbEntity
  8
0
  6
Continuous
 62
     0
370
    30
100
AcDbCircle
 10
644.867759
 20
436.01513
 30
0.0
 40
1.000741772036886
100
AcDbArc
 50
2.976266
 51
32.953507
  0
ARC
  5
22F
330
197
100
AcDbEntity
  8
0
  6
Continuous
 62
     0
370
    30
100
AcDbCircle
 10
622.399359
 20
434.851418
 30
0.0
 40
1.000741772109683
100
AcDbArc
 50
152.976266
 51
182.953507
  0
LINE
  5
230
330
197
100
AcDbEntity
  8
0
  6
Continuous
 62
     0
370
    30
100
AcDbLine
 10
621.50788
 20
435.306115
 30
0.0
 11
623.941786
 21
440.075697
 31
0.0
  0
LINE
  5
231
330
197
100
AcDbEntity
  8
0
  6
Continuous
 62
     0
370
    30
100
AcDbLine
 10
645.707494
 20
436.559492
 30
0.0
 11
642.793868
 21
441.052108
 31
0.0
  0
LINE
  5
232
330
197
100
AcDbEntity
  8
0
  6
Continuous
 62
     0
370
    30
100
AcDbLine
 10
621.070924
 20
426.652427
 30
0.0
 11
621.264448
 21
422.915948
 31
0.0
  0
LINE
  5
233
330
197
100
AcDbEntity
  8
0
  6
Continuous
 62
     0
370
    30
100
AcDbLine
 10
647.229644
 20
424.260771
 30
0.0
 11
647.036119
 21
427.997249
 31
0.0
  0
ARC
  5
234
330
197
100
AcDbEntity
  8
0
  6
Continuous
 62
     0
370
    30
100
AcDbCircle
 10
620.671504
 20
426.631773
 30
0.0
 40
0.3999538157674727
100
AcDbArc
 50
2.960087
 51
74.889691
  0
ARC
  5
235
330
197
100
AcDbEntity
  8
0
  6
Continuous
 62
     0
370
    30
100
AcDbCircle
 10
647.435536
 20
428.01797
 30
0.0
 40
0.3999538158529464
100
AcDbArc
 50
111.040082
 51
182.969687
  0
LINE
  5
236
330
197
100
AcDbEntity
  8
0
  6
Continuous
 62
     0
370
    30
100
AcDbLine
 10
481.902444
 20
453.05138
 30
0.0
 11
488.114841
 21
453.05138
 31
0.0
  0
LINE
  5
237
330
197
100
AcDbEntity
  8
0
  6
Continuous
 62
     0
370
    30
100
AcDbLine
 10
642.023579
 20
448.056201
 30
0.0
 11
642.387434
 21
441.031058
 31
0.0
  0
LINE
  5
238
330
197
100
AcDbEntity
  8
0
  6
Continuous
 62
     0
370
    30
100
AcDbLine
 10
624.411529
 20
440.100027
 30
0.0
 11
624.047674
 21
447.12517
 31
0.0
  0
ARC
  5
239
330
197
100
AcDbEntity
  8
0
  6
Continuous
 62
     0
370
    30
100
AcDbCircle
 10
591.091846
 20
445.418278
 30
0.0
 40
51.00000136799614
100
AcDbArc
 50
2.964889
 51
114.999998
  0
ARC
  5
23A
330
197
100
AcDbEntity
  8
0
  6
Continuous
 62
     0
370
    30
100
AcDbCircle
 10
591.091845
 20
445.418277
 30
0.0
 40
33.00000202714115
100
AcDbArc
 50
2.964892
 51
114.999995
  0
LINE
  5
23B
330
197
100
AcDbEntity
  8
0
  6
Continuous
 62
     0
370
    30
100
AcDbLine
 10
537.413375
 20
456.799069
 30
0.0
 11
577.145444
 21
475.326437
 31
0.0
  0
LINE
  5
23C
330
197
100
AcDbEntity
  8
0
  6
Continuous
 62
     0
370
    30
100
AcDbLine
 10
529.806246
 20
473.112609
 30
0.0
 11
569.538315
 21
491.639977
 31
0.0
  0
ARC
  5
23D
330
197
100
AcDbEntity
  8
0
  6
Continuous
 62
     0
370
    30
100
AcDbCircle
 10
520.508626
 20
493.051462
 30
0.0
 40
22.00008185178692
100
AcDbArc
 50
270.000047
 51
294.999953
  0
ARC
  5
23E
330
197
100
AcDbEntity
  8
0
  6
Continuous
 62
     0
370
    30
100
AcDbCircle
 10
520.508611
 20
493.051529
 30
0.0
 40
40.00014882142565
100
AcDbArc
 50
270.000047
 51
294.999953
  0
LINE
  5
23F
330
197
100
AcDbEntity
  8
0
  6
Continuous
 62
     0
370
    30
100
AcDbLine
 10
520.508644
 20
471.05138
 30
0.0
 11
479.008644
 21
471.05138
 31
0.0
  0
LINE
  5
240
330
197
100
AcDbEntity
  8
0
  6
Continuous
 62
     0
370
    30
100
AcDbLine
 10
520.508644
 20
453.05138
 30
0.0
 11
488.114841
 21
453.05138
 31
0.0
  0
LINE
  5
241
330
197
100
AcDbEntity
  8
0
  6
Continuous
 62
     0
370
    30
100
AcDbLine
 10
479.008644
 20
453.05138
 30
0.0
 11
481.902444
 21
453.05138
 31
0.0
  0
ARC
  5
242
330
197
100
AcDbEntity
  8
0
  6
Continuous
 62
     0
370
    30
100
AcDbCircle
 10
439.57332
 20
435.051385
 30
0.0
 40
0.4999998167513415
100
AcDbArc
 50
269.999982
 51
351.127677
  0
ARC
  5
243
330
197
100
AcDbEntity
  8
0
  6
Continuous
 62
     0
370
    30
100
AcDbCircle
 10
439.573324
 20
489.051033
 30
0.0
 40
0.4999962606531269
100
AcDbArc
 50
8.905158
 51
90.000461
  0
LINE
  5
244
330
197
100
AcDbEntity
  8
0
  6
Continuous
 62
     0
370
    30
100
AcDbLine
 10
433.008675
 20
434.55138
 30
0.0
 11
439.57332
 21
434.55138
 31
0.0
  0
LINE
  5
245
330
197
100
AcDbEntity
  8
0
  6
Continuous
 62
     0
370
    30
100
AcDbLine
 10
433.008675
 20
489.551381
 30
0.0
 11
436.131262
 21
489.551381
 31
0.0
  0
LINE
  5
246
330
197
100
AcDbEntity
  8
0
  6
Continuous
 62
     0
370
    30
100
AcDbLine
 10
439.57332
 20
489.551381
 30
0.0
 11
436.440411
 21
489.551381
 31
0.0
  0
ARC
  5
247
330
197
100
AcDbEntity
  8
0
  6
Continuous
 62
     0
370
    30
100
AcDbCircle
 10
453.655944
 20
491.229054
 30
0.0
 40
13.75000183792427
100
AcDbArc
 50
188.790338
 51
254.123759
  0
ARC
  5
248
330
197
100
AcDbEntity
  8
0
  6
Continuous
 62
     0
370
    30
100
AcDbCircle
 10
453.655944
 20
432.873706
 30
0.0
 40
13.75000183792447
100
AcDbArc
 50
105.876241
 51
171.209662
  0
ARC
  5
249
330
197
100
AcDbEntity
  8
0
  6
Continuous
 62
     0
370
    30
100
AcDbCircle
 10
473.508671
 20
472.615022
 30
0.0
 40
0.5000039846224884
100
AcDbArc
 50
0.045214
 51
82.527122
  0
ARC
  5
24A
330
197
100
AcDbEntity
  8
0
  6
Continuous
 62
     0
370
    30
100
AcDbCircle
 10
473.508671
 20
451.487712
 30
0.0
 40
0.5000035842533468
100
AcDbArc
 50
277.472838
 51
359.959806
  0
ARC
  5
24B
330
197
100
AcDbEntity
  8
0
  6
Continuous
 62
     0
370
    30
100
AcDbCircle
 10
495.031778
 20
636.708822
 30
0.0
 40
164.9992078044836
100
AcDbArc
 50
254.123744
 51
262.527542
  0
ARC
  5
24C
330
197
100
AcDbEntity
  8
0
  6
Continuous
 62
     0
370
    30
100
AcDbCircle
 10
495.031778
 20
287.393939
 30
0.0
 40
164.9992078044863
100
AcDbArc
 50
97.472458
 51
105.876256
  0
ARC
  5
24D
330
197
100
AcDbEntity
  8
0
  6
Continuous
 62
     0
370
    30
100
AcDbCircle
 10
475.508742
 20
451.551313
 30
0.0
 40
1.500067575882489
100
AcDbArc
 50
90.002581
 51
179.997419
  0
ARC
  5
24E
330
197
100
AcDbEntity
  8
0
  6
Continuous
 62
     0
370
    30
100
AcDbCircle
 10
475.508742
 20
472.551448
 30
0.0
 40
1.500067841419356
100
AcDbArc
 50
180.010694
 51
269.997409
  0
LINE
  5
24F
330
197
100
AcDbEntity
  8
0
  6
Continuous
 62
     0
370
    30
100
AcDbLine
 10
475.508675
 20
453.05138
 30
0.0
 11
479.008675
 21
453.05138
 31
0.0
  0
LINE
  5
250
330
197
100
AcDbEntity
  8
0
  6
Continuous
 62
     0
370
    30
100
AcDbLine
 10
475.508675
 20
471.05138
 30
0.0
 11
479.008675
 21
471.05138
 31
0.0
  0
ENDBLK
  5
252
330
197
100
AcDbEntity
  8
0
100
AcDbBlockEnd
  0
BLOCK
  5
2E5
330
254
100
AcDbEntity
  8
0
100
AcDbBlockBegin
  2
d
 70
     0
 10
103.923218
 20
0.0
 30
0.0
  3
d
  1

  0
LINE
  5
255
330
254
100
AcDbEntity
  8
0
  6
Continuous
 62
     0
370
    30
100
AcDbLine
 10
64.751698
 20
488.356199
 30
0.0
 11
64.068603
 21
488.356199
 31
0.0
  0
LINE
  5
256
330
254
100
AcDbEntity
  8
0
  6
Continuous
 62
     0
370
    30
100
AcDbLine
 10
64.068603
 20
488.31758
 30
0.0
 11
64.751698
 21
488.31758
 31
0.0
  0
LINE
  5
257
330
254
100
AcDbEntity
  8
0
  6
Continuous
 62
     0
370
    30
100
AcDbLine
 10
64.068603
 20
488.422332
 30
0.0
 11
64.068603
 21
488.31758
 31
0.0
  0
LWPOLYLINE
  5
258
330
254
100
AcDbEntity
  8
0
  6
Continuous
 62
     0
370
     0
100
AcDbPolyline
 90
       19
 70
     0
 43
0.0
 10
26.172554
 20
453.051392
 10
26.172554
 20
453.080933
 10
26.172554
 20
453.172394
 10
26.172554
 20
453.330505
 10
26.172554
 20
453.55896
 10
26.172554
 20
453.859955
 10
26.172554
 20
454.2341
 10
26.172554
 20
454.680084
 10
26.172554
 20
455.19455
 10
26.172554
 20
455.772339
 10
26.172554
 20
456.406342
 10
26.172554
 20
457.087982
 10
26.172554
 20
457.807617
 10
26.172554
 20
458.55481
 10
26.172554
 20
459.31897
 10
26.172554
 20
460.089752
 10
26.172554
 20
460.857391
 10
26.172554
 20
461.613098
 10
26.172554
 20
462.381836
  0
LINE
  5
259
330
254
100
AcDbEntity
  8
0
  6
Continuous
 62
     0
370
     0
100
AcDbLine
 10
26.172554
 20
462.381822
 30
0.0
 11
26.172554
 21
471.05138
 31
0.0
  0
LWPOLYLINE
  5
25A
330
254
100
AcDbEntity
  8
0
  6
Continuous
 62
     0
370
    30
100
AcDbPolyline
 90
       30
 70
     0
 43
0.0
 10
68.672554
 20
489.551636
 10
68.672554
 20
489.513153
 10
68.672554
 20
489.398071
 10
68.672554
 20
489.206879
 10
68.672554
 20
488.940033
 10
68.672554
 20
488.598053
 10
68.672554
 20
488.181488
 10
68.672554
 20
487.691681
 10
68.672554
 20
487.130341
 10
68.672554
 20
486.499207
 10
68.672554
 20
485.799957
 10
68.672554
 20
485.034332
 10
68.672554
 20
484.204163
 10
68.672554
 20
483.31189
 10
68.672554
 20
482.360321
 10
68.672554
 20
481.352234
 10
68.672554
 20
480.290344
 10
68.672554
 20
479.177521
 10
68.672554
 20
478.016541
 10
68.672554
 20
476.810822
 10
68.672554
 20
475.563934
 10
68.672554
 20
474.279449
 10
68.672554
 20
472.960907
 10
68.672554
 20
471.611877
 10
68.672554
 20
470.235992
 10
68.672554
 20
468.837189
 10
68.672554
 20
467.419403
 10
68.672554
 20
465.986694
 10
68.672554
 20
464.542999
 10
68.672554
 20
463.061066
  0
LINE
  5
25B
330
254
100
AcDbEntity
  8
0
  6
Continuous
 62
     0
370
    30
100
AcDbLine
 10
68.672553
 20
463.061064
 30
0.0
 11
68.672554
 21
434.551126
 31
0.0
  0
LINE
  5
25C
330
254
100
AcDbEntity
  8
0
  6
Continuous
 62
     0
370
    30
100
AcDbLine
 10
27.672554
 20
451.487545
 30
0.0
 11
27.672554
 21
462.439236
 31
0.0
  0
LINE
  5
25D
330
254
100
AcDbEntity
  8
0
  6
Continuous
 62
     0
370
    30
100
AcDbLine
 10
27.672554
 20
462.439236
 30
0.0
 11
27.672554
 21
472.615215
 31
0.0
  0
LINE
  5
25E
330
254
100
AcDbEntity
  8
0
  6
Continuous
 62
     0
370
     0
100
AcDbLine
 10
28.107529
 20
473.110871
 30
0.0
 11
28.107529
 21
462.457438
 31
0.0
  0
LINE
  5
25F
330
254
100
AcDbEntity
  8
0
  6
Continuous
 62
     0
370
     0
100
AcDbLine
 10
28.107529
 20
462.457438
 30
0.0
 11
28.107529
 21
450.991889
 31
0.0
  0
LWPOLYLINE
  5
260
330
254
100
AcDbEntity
  8
0
  6
Continuous
 62
     0
370
     0
100
AcDbPolyline
 90
       24
 70
     0
 43
0.0
 10
51.786739
 20
446.099213
 10
51.786739
 20
446.131348
 10
51.786739
 20
446.229828
 10
51.786739
 20
446.398926
 10
51.786739
 20
446.642365
 10
51.786739
 20
446.963013
 10
51.786739
 20
447.362793
 10
51.786739
 20
447.842407
 10
51.786739
 20
448.401459
 10
51.786739
 20
449.038177
 10
51.786739
 20
449.74942
 10
51.786739
 20
450.530792
 10
51.786739
 20
451.376587
 10
51.786739
 20
452.280121
 10
51.786739
 20
453.233643
 10
51.786739
 20
454.22879
 10
51.786739
 20
455.256714
 10
51.786739
 20
456.308289
 10
51.786739
 20
457.374512
 10
51.786739
 20
458.446594
 10
51.786739
 20
459.516144
 10
51.786739
 20
460.575531
 10
51.786739
 20
461.617706
 10
51.786739
 20
462.637085
  0
LINE
  5
261
330
254
100
AcDbEntity
  8
0
  6
Continuous
 62
     0
370
     0
100
AcDbLine
 10
51.78674
 20
462.637076
 30
0.0
 11
51.786741
 21
478.003549
 31
0.0
  0
LWPOLYLINE
  5
262
330
254
100
AcDbEntity
  8
0
  6
Continuous
 62
     0
370
     0
100
AcDbPolyline
 90
       31
 70
     0
 43
0.0
 10
61.613781
 20
434.974976
 10
61.613781
 20
435.007019
 10
61.613781
 20
435.104156
 10
61.613781
 20
435.269836
 10
61.613781
 20
435.507202
 10
61.613781
 20
435.81897
 10
61.613781
 20
436.207397
 10
61.613781
 20
436.674133
 10
61.613781
 20
437.220215
 10
61.613781
 20
437.846069
 10
61.613781
 20
438.5513
 10
61.613781
 20
439.334778
 10
61.613781
 20
440.19458
 10
61.613781
 20
441.127991
 10
61.613781
 20
442.131592
 10
61.613781
 20
443.201141
 10
61.613781
 20
444.331787
 10
61.613781
 20
445.518066
 10
61.613781
 20
446.753967
 10
61.613781
 20
448.033173
 10
61.613781
 20
449.348907
 10
61.613781
 20
450.694366
 10
61.613781
 20
452.062531
 10
61.613781
 20
453.446472
 10
61.613781
 20
454.839417
 10
61.613781
 20
456.234772
 10
61.613781
 20
457.626282
 10
61.613781
 20
459.008118
 10
61.613781
 20
460.374786
 10
61.613781
 20
461.721344
 10
61.613781
 20
463.045502
  0
LINE
  5
263
330
254
100
AcDbEntity
  8
0
  6
Continuous
 62
     0
370
     0
100
AcDbLine
 10
61.61378
 20
463.045511
 30
0.0
 11
61.613781
 21
489.12779
 31
0.0
  0
LINE
  5
264
330
254
100
AcDbEntity
  8
0
  6
Continuous
 62
     0
370
     0
100
AcDbLine
 10
62.107908
 20
489.551381
 30
0.0
 11
62.107907
 21
463.061064
 31
0.0
  0
LINE
  5
265
330
254
100
AcDbEntity
  8
0
  6
Continuous
 62
     0
370
     0
100
AcDbLine
 10
62.107907
 20
463.061064
 30
0.0
 11
62.107908
 21
434.55138
 31
0.0
  0
LINE
  5
266
330
254
100
AcDbEntity
  8
0
  6
Continuous
 62
     0
370
    30
100
AcDbLine
 10
65.549966
 20
489.544909
 30
0.0
 11
66.66449
 21
489.544909
 31
0.0
  0
LINE
  5
267
330
254
100
AcDbEntity
  8
0
  6
Continuous
 62
     0
370
    30
100
AcDbLine
 10
66.66449
 20
489.544909
 30
0.0
 11
66.66449
 21
489.534756
 31
0.0
  0
LINE
  5
268
330
254
100
AcDbEntity
  8
0
  6
Continuous
 62
     0
370
    30
100
AcDbLine
 10
66.66449
 20
489.534756
 30
0.0
 11
64.068604
 21
489.534756
 31
0.0
  0
LINE
  5
269
330
254
100
AcDbEntity
  8
0
  6
Continuous
 62
     0
370
    30
100
AcDbLine
 10
64.068604
 20
489.534756
 30
0.0
 11
64.068604
 21
489.544909
 31
0.0
  0
LINE
  5
26A
330
254
100
AcDbEntity
  8
0
  6
Continuous
 62
     0
370
    30
100
AcDbLine
 10
64.068604
 20
489.544909
 30
0.0
 11
65.240818
 21
489.544909
 31
0.0
  0
LINE
  5
26B
330
254
100
AcDbEntity
  8
0
  6
Continuous
 62
     0
370
    30
100
AcDbLine
 10
66.66449
 20
489.522938
 30
0.0
 11
66.664489
 21
488.713422
 31
0.0
  0
LINE
  5
26C
330
254
100
AcDbEntity
  8
0
  6
Continuous
 62
     0
370
    30
100
AcDbLine
 10
66.664489
 20
488.713422
 30
0.0
 11
66.347816
 21
488.713422
 31
0.0
  0
LINE
  5
26D
330
254
100
AcDbEntity
  8
0
  6
Continuous
 62
     0
370
    30
100
AcDbLine
 10
66.347816
 20
488.713422
 30
0.0
 11
66.347816
 21
488.91402
 31
0.0
  0
LINE
  5
26E
330
254
100
AcDbEntity
  8
0
  6
Continuous
 62
     0
370
    30
100
AcDbLine
 10
66.347816
 20
488.91402
 30
0.0
 11
64.068604
 21
488.91402
 31
0.0
  0
LINE
  5
26F
330
254
100
AcDbEntity
  8
0
  6
Continuous
 62
     0
370
    30
100
AcDbLine
 10
64.068604
 20
488.91402
 30
0.0
 11
64.068604
 21
488.988125
 31
0.0
  0
LINE
  5
270
330
254
100
AcDbEntity
  8
0
  6
Continuous
 62
     0
370
    30
100
AcDbLine
 10
64.068604
 20
488.988125
 30
0.0
 11
66.347816
 21
488.988125
 31
0.0
  0
LINE
  5
271
330
254
100
AcDbEntity
  8
0
  6
Continuous
 62
     0
370
    30
100
AcDbLine
 10
66.347816
 20
488.988125
 30
0.0
 11
66.347816
 21
489.210345
 31
0.0
  0
LINE
  5
272
330
254
100
AcDbEntity
  8
0
  6
Continuous
 62
     0
370
    30
100
AcDbLine
 10
66.347816
 20
489.210345
 30
0.0
 11
64.068604
 21
489.210345
 31
0.0
  0
LINE
  5
273
330
254
100
AcDbEntity
  8
0
  6
Continuous
 62
     0
370
    30
100
AcDbLine
 10
64.068604
 20
489.210345
 30
0.0
 11
64.068604
 21
489.26393
 31
0.0
  0
LINE
  5
274
330
254
100
AcDbEntity
  8
0
  6
Continuous
 62
     0
370
    30
100
AcDbLine
 10
64.068604
 20
489.26393
 30
0.0
 11
66.347816
 21
489.26393
 31
0.0
  0
LINE
  5
275
330
254
100
AcDbEntity
  8
0
  6
Continuous
 62
     0
370
    30
100
AcDbLine
 10
66.347816
 20
489.26393
 30
0.0
 11
66.347816
 21
489.504165
 31
0.0
  0
LINE
  5
276
330
254
100
AcDbEntity
  8
0
  6
Continuous
 62
     0
370
    30
100
AcDbLine
 10
66.347816
 20
489.504165
 30
0.0
 11
65.549966
 21
489.504165
 31
0.0
  0
LINE
  5
277
330
254
100
AcDbEntity
  8
0
  6
Continuous
 62
     0
370
    30
100
AcDbLine
 10
65.549966
 20
489.504165
 30
0.0
 11
65.549966
 21
489.40673
 31
0.0
  0
LINE
  5
278
330
254
100
AcDbEntity
  8
0
  6
Continuous
 62
     0
370
    30
100
AcDbLine
 10
65.549966
 20
489.40673
 30
0.0
 11
65.240818
 21
489.40673
 31
0.0
  0
LINE
  5
279
330
254
100
AcDbEntity
  8
0
  6
Continuous
 62
     0
370
    30
100
AcDbLine
 10
65.240818
 20
489.40673
 30
0.0
 11
65.240818
 21
489.504165
 31
0.0
  0
LINE
  5
27A
330
254
100
AcDbEntity
  8
0
  6
Continuous
 62
     0
370
    30
100
AcDbLine
 10
65.240818
 20
489.504165
 30
0.0
 11
64.385068
 21
489.504165
 31
0.0
  0
LINE
  5
27B
330
254
100
AcDbEntity
  8
0
  6
Continuous
 62
     0
370
    30
100
AcDbLine
 10
64.385068
 20
489.504165
 30
0.0
 11
64.385068
 21
489.397382
 31
0.0
  0
LINE
  5
27C
330
254
100
AcDbEntity
  8
0
  6
Continuous
 62
     0
370
    30
100
AcDbLine
 10
64.385068
 20
489.397382
 30
0.0
 11
64.068604
 21
489.397382
 31
0.0
  0
LINE
  5
27D
330
254
100
AcDbEntity
  8
0
  6
Continuous
 62
     0
370
    30
100
AcDbLine
 10
64.068604
 20
489.397382
 30
0.0
 11
64.068604
 21
489.522938
 31
0.0
  0
LINE
  5
27E
330
254
100
AcDbEntity
  8
0
  6
Continuous
 62
     0
370
    30
100
AcDbLine
 10
64.068604
 20
489.522938
 30
0.0
 11
66.66449
 21
489.522938
 31
0.0
  0
LINE
  5
27F
330
254
100
AcDbEntity
  8
0
  6
Continuous
 62
     0
370
    30
100
AcDbLine
 10
64.068604
 20
488.607953
 30
0.0
 11
66.664489
 21
488.607953
 31
0.0
  0
LINE
  5
280
330
254
100
AcDbEntity
  8
0
  6
Continuous
 62
     0
370
    30
100
AcDbLine
 10
66.664489
 20
488.607953
 30
0.0
 11
66.664489
 21
488.512259
 31
0.0
  0
LINE
  5
281
330
254
100
AcDbEntity
  8
0
  6
Continuous
 62
     0
370
    30
100
AcDbLine
 10
66.664489
 20
488.512259
 30
0.0
 11
64.068603
 21
488.512259
 31
0.0
  0
LINE
  5
282
330
254
100
AcDbEntity
  8
0
  6
Continuous
 62
     0
370
    30
100
AcDbLine
 10
64.068603
 20
488.512259
 30
0.0
 11
64.068604
 21
488.607953
 31
0.0
  0
LINE
  5
283
330
254
100
AcDbEntity
  8
0
  6
Continuous
 62
     0
370
    30
100
AcDbLine
 10
64.751698
 20
488.422332
 30
0.0
 11
64.751698
 21
488.31758
 31
0.0
  0
LINE
  5
284
330
254
100
AcDbEntity
  8
0
  6
Continuous
 62
     0
370
    30
100
AcDbLine
 10
64.068603
 20
488.422332
 30
0.0
 11
64.751698
 21
488.422332
 31
0.0
  0
LINE
  5
285
330
254
100
AcDbEntity
  8
0
  6
Continuous
 62
     0
370
    30
100
AcDbLine
 10
65.240818
 20
489.544909
 30
0.0
 11
65.240818
 21
489.534756
 31
0.0
  0
LINE
  5
286
330
254
100
AcDbEntity
  8
0
  6
Continuous
 62
     0
370
    30
100
AcDbLine
 10
65.549966
 20
489.544909
 30
0.0
 11
65.549966
 21
489.534756
 31
0.0
  0
LINE
  5
287
330
254
100
AcDbEntity
  8
0
  6
Continuous
 62
     0
370
    30
100
AcDbLine
 10
66.347816
 20
489.419688
 30
0.0
 11
66.66449
 21
489.419688
 31
0.0
  0
LINE
  5
288
330
254
100
AcDbEntity
  8
0
  6
Continuous
 62
     0
370
    30
100
AcDbLine
 10
65.240818
 20
489.419688
 30
0.0
 11
65.549966
 21
489.419688
 31
0.0
  0
LINE
  5
289
330
254
100
AcDbEntity
  8
0
  6
Continuous
 62
     0
370
    30
100
AcDbLine
 10
64.068604
 20
489.419688
 30
0.0
 11
64.385068
 21
489.419688
 31
0.0
  0
LINE
  5
28A
330
254
100
AcDbEntity
  8
0
  6
Continuous
 62
     0
370
    30
100
AcDbLine
 10
66.347816
 20
489.26393
 30
0.0
 11
66.347816
 21
489.210345
 31
0.0
  0
LINE
  5
28B
330
254
100
AcDbEntity
  8
0
  6
Continuous
 62
     0
370
    30
100
AcDbLine
 10
66.347816
 20
488.988125
 30
0.0
 11
66.347816
 21
488.91402
 31
0.0
  0
LINE
  5
28C
330
254
100
AcDbEntity
  8
0
  6
Continuous
 62
     0
370
    30
100
AcDbLine
 10
64.068604
 20
488.532178
 30
0.0
 11
66.664489
 21
488.532178
 31
0.0
  0
LINE
  5
28D
330
254
100
AcDbEntity
  8
0
  6
Continuous
 62
     0
370
     0
100
AcDbLine
 10
-18.827415
 20
471.05138
 30
0.0
 11
-18.827416
 21
462.05138
 31
0.0
  0
LINE
  5
28E
330
254
100
AcDbEntity
  8
0
  6
Continuous
 62
     0
370
     0
100
AcDbLine
 10
-18.827416
 20
462.05138
 30
0.0
 11
-18.827415
 21
453.05138
 31
0.0
  0
LINE
  5
28F
330
254
100
AcDbEntity
  8
0
  6
Continuous
 62
     0
370
     0
100
AcDbLine
 10
-28.125017
 20
473.112609
 30
0.0
 11
-31.928582
 21
464.955839
 31
0.0
  0
LINE
  5
290
330
254
100
AcDbEntity
  8
0
  6
Continuous
 62
     0
370
     0
100
AcDbLine
 10
-31.928582
 20
464.955839
 30
0.0
 11
-35.732146
 21
456.799069
 31
0.0
  0
LINE
  5
291
330
254
100
AcDbEntity
  8
0
  6
Continuous
 62
     0
370
     0
100
AcDbLine
 10
-67.857087
 20
491.639977
 30
0.0
 11
-71.660652
 21
483.483207
 31
0.0
  0
LINE
  5
292
330
254
100
AcDbEntity
  8
0
  6
Continuous
 62
     0
370
     0
100
AcDbLine
 10
-71.660652
 20
483.483207
 30
0.0
 11
-75.464216
 21
475.326437
 31
0.0
  0
LWPOLYLINE
  5
293
330
254
100
AcDbEntity
  8
0
  6
Continuous
 62
     0
370
     0
100
AcDbPolyline
 90
       18
 70
     0
 43
0.0
 10
-140.342346
 20
448.056213
 10
-140.310226
 20
448.054535
 10
-140.209991
 20
448.049347
 10
-140.036636
 20
448.040375
 10
-139.786545
 20
448.027405
 10
-139.45787
 20
448.010376
 10
-139.050812
 20
447.989319
 10
-138.567795
 20
447.964294
 10
-138.013535
 20
447.935577
 10
-137.394897
 20
447.903534
 10
-136.720642
 20
447.868622
 10
-136.001022
 20
447.83136
 10
-135.247223
 20
447.792297
 10
-134.470886
 20
447.752106
 10
-133.683517
 20
447.711304
 10
-132.896042
 20
447.670532
 10
-132.118332
 20
447.630249
 10
-131.354401
 20
447.590698
  0
LINE
  5
294
330
254
100
AcDbEntity
  8
0
  6
Continuous
 62
     0
370
     0
100
AcDbLine
 10
-131.354398
 20
447.590686
 30
0.0
 11
-122.366445
 21
447.12517
 31
0.0
  0
LWPOLYLINE
  5
295
330
254
100
AcDbEntity
  8
0
  6
Continuous
 62
     0
370
     0
100
AcDbPolyline
 90
       22
 70
     0
 43
0.0
 10
13.566387
 20
453.051392
 10
13.603902
 20
453.062561
 10
13.715099
 20
453.094574
 10
13.89441
 20
453.144226
 10
14.136236
 20
453.206635
 10
14.432912
 20
453.276001
 10
14.775902
 20
453.346008
 10
15.156714
 20
453.410492
 10
15.567247
 20
453.464417
 10
15.999586
 20
453.503326
 10
16.445648
 20
453.523315
 10
16.89641
 20
453.523407
 10
17.342533
 20
453.50354
 10
17.77499
 20
453.464752
 10
18.185692
 20
453.410889
 10
18.566723
 20
453.346466
 10
18.909985
 20
453.276489
 10
19.206993
 20
453.207092
 10
19.449223
 20
453.144592
 10
19.629009
 20
453.094879
 10
19.740778
 20
453.062714
 10
19.778784
 20
453.051392
  0
LWPOLYLINE
  5
296
330
254
100
AcDbEntity
  8
0
  6
Continuous
 62
     0
370
    30
100
AcDbPolyline
 90
       27
 70
     0
 43
0.0
 10
-144.847382
 20
418.462616
 10
-144.808975
 20
418.460632
 10
-144.694214
 20
418.454681
 10
-144.504837
 20
418.444885
 10
-144.243973
 20
418.431366
 10
-143.915985
 20
418.414398
 10
-143.526291
 20
418.394196
 10
-143.081131
 20
418.371155
 10
-142.587341
 20
418.345581
 10
-142.052094
 20
418.317841
 10
-141.482651
 20
418.288361
 10
-140.886124
 20
418.257446
 10
-140.24939
 20
418.224487
 10
-139.558823
 20
418.188721
 10
-138.81633
 20
418.150269
 10
-138.024979
 20
418.109283
 10
-137.188995
 20
418.065979
 10
-136.313782
 20
418.02063
 10
-135.405838
 20
417.973602
 10
-134.472641
 20
417.925293
 10
-133.522461
 20
417.876068
 10
-132.564148
 20
417.826447
 10
-131.606857
 20
417.776855
 10
-130.65976
 20
417.727814
 10
-129.731735
 20
417.679749
 10
-128.831116
 20
417.633087
 10
-127.947777
 20
417.587341
  0
LINE
  5
297
330
254
100
AcDbEntity
  8
0
  6
Continuous
 62
     0
370
    30
100
AcDbLine
 10
-127.947773
 20
417.587337
 30
0.0
 11
-127.85467
 21
419.384928
 31
0.0
  0
LWPOLYLINE
  5
298
330
254
100
AcDbEntity
  8
0
  6
Continuous
 62
     0
370
    30
100
AcDbPolyline
 90
       12
 70
     0
 43
0.0
 10
-127.854668
 20
419.384918
 10
-127.056175
 20
419.53006
 10
-126.284508
 20
419.641602
 10
-125.545738
 20
419.719238
 10
-124.845528
 20
419.761566
 10
-124.18956
 20
419.767609
 10
-123.583046
 20
419.73703
 10
-123.030815
 20
419.670135
 10
-122.536896
 20
419.567627
 10
-122.104042
 20
419.430908
 10
-121.734261
 20
419.261749
 10
-121.417046
 20
419.051514
  0
LINE
  5
299
330
254
100
AcDbEntity
  8
0
  6
Continuous
 62
     0
370
    30
100
AcDbLine
 10
-121.417049
 20
419.051503
 30
0.0
 11
-121.510152
 21
417.253912
 31
0.0
  0
LINE
  5
29A
330
254
100
AcDbEntity
  8
0
  6
Continuous
 62
     0
370
    30
100
AcDbLine
 10
-121.510152
 20
417.253912
 30
0.0
 11
-120.879506
 21
417.221249
 31
0.0
  0
LINE
  5
29B
330
254
100
AcDbEntity
  8
0
  6
Continuous
 62
     0
370
    30
100
AcDbLine
 10
-126.184581
 20
416.694944
 30
0.0
 11
-144.089929
 21
417.62232
 31
0.0
  0
LINE
  5
29C
330
254
100
AcDbEntity
  8
0
  6
Continuous
 62
     0
370
    30
100
AcDbLine
 10
-121.719809
 20
416.463698
 30
0.0
 11
-123.356102
 21
416.548447
 31
0.0
  0
LINE
  5
29D
330
254
100
AcDbEntity
  8
0
  6
Continuous
 62
     0
370
    30
100
AcDbLine
 10
-123.356102
 20
416.548447
 30
0.0
 11
-126.184581
 21
416.694944
 31
0.0
  0
LWPOLYLINE
  5
29E
330
254
100
AcDbEntity
  8
0
  6
Continuous
 62
     0
370
    30
100
AcDbPolyline
 90
        5
 70
     0
 43
0.0
 10
-123.356102
 20
416.548462
 10
-122.829727
 20
416.691772
 10
-122.355957
 20
416.861694
 10
-121.92318
 20
417.048767
 10
-121.510155
 20
417.253906
  0
LINE
  5
29F
330
254
100
AcDbEntity
  8
0
  6
Continuous
 62
     0
370
    30
100
AcDbLine
 10
-121.417049
 20
419.051503
 30
0.0
 11
-127.85467
 21
419.384928
 31
0.0
  0
LWPOLYLINE
  5
2A0
330
254
100
AcDbEntity
  8
0
  6
Continuous
 62
     0
370
    30
100
AcDbPolyline
 90
        5
 70
     0
 43
0.0
 10
-127.947777
 20
417.587341
 10
-127.570412
 20
417.347992
 10
-127.160431
 20
417.116882
 10
-126.70826
 20
416.898438
 10
-126.184578
 20
416.694946
  0
LINE
  5
2A1
330
254
100
AcDbEntity
  8
0
  6
Continuous
 62
     0
370
     0
100
AcDbLine
 10
-129.319031
 20
427.166699
 30
0.0
 11
-119.389695
 21
426.652427
 31
0.0
  0
LWPOLYLINE
  5
2A2
330
254
100
AcDbEntity
  8
0
  6
Continuous
 62
     0
370
     0
100
AcDbPolyline
 90
       24
 70
     0
 43
0.0
 10
-145.354889
 20
427.997253
 10
-145.316803
 20
427.99527
 10
-145.206436
 20
427.989563
 10
-145.030106
 20
427.980438
 10
-144.789368
 20
427.967957
 10
-144.474991
 20
427.951691
 10
-144.083649
 20
427.931396
 10
-143.613464
 20
427.907043
 10
-143.063919
 20
427.878601
 10
-142.436096
 20
427.846069
 10
-141.732758
 20
427.809662
 10
-140.958405
 20
427.769531
 10
-140.119217
 20
427.726074
 10
-139.222885
 20
427.679657
 10
-138.278473
 20
427.630737
 10
-137.29599
 20
427.579865
 10
-136.286148
 20
427.527557
 10
-135.259949
 20
427.474396
 10
-134.228271
 20
427.420959
 10
-133.201523
 20
427.367798
 10
-132.189423
 20
427.315369
 10
-131.200623
 20
427.26416
 10
-130.242661
 20
427.214539
 10
-129.319031
 20
427.166687
  0
LINE
  5
2A3
330
254
100
AcDbEntity
  8
0
  6
Continuous
 62
     0
370
     0
100
AcDbLine
 10
-129.234572
 20
427.543084
 30
0.0
 11
-145.610715
 21
428.391259
 31
0.0
  0
LINE
  5
2A4
330
254
100
AcDbEntity
  8
0
  6
Continuous
 62
     0
370
     0
100
AcDbLine
 10
-119.094534
 20
427.017899
 30
0.0
 11
-129.234572
 21
427.543084
 31
0.0
  0
LINE
  5
2A5
330
254
100
AcDbEntity
  8
0
  6
Continuous
 62
     0
370
    30
100
AcDbLine
 10
-129.512555
 20
423.430221
 30
0.0
 11
-119.58322
 21
422.915948
 31
0.0
  0
LWPOLYLINE
  5
2A6
330
254
100
AcDbEntity
  8
0
  6
Continuous
 62
     0
370
    30
100
AcDbPolyline
 90
       24
 70
     0
 43
0.0
 10
-145.548416
 20
424.260773
 10
-145.51033
 20
424.258789
 10
-145.399963
 20
424.253082
 10
-145.223633
 20
424.243958
 10
-144.982895
 20
424.231476
 10
-144.668518
 20
424.21521
 10
-144.277176
 20
424.194916
 10
-143.806992
 20
424.170563
 10
-143.257446
 20
424.14212
 10
-142.629623
 20
424.109589
 10
-141.926285
 20
424.073181
 10
-141.151932
 20
424.033051
 10
-140.312744
 20
423.989594
 10
-139.416412
 20
423.943176
 10
-138.472
 20
423.894257
 10
-137.489517
 20
423.843384
 10
-136.479675
 20
423.791077
 10
-135.453476
 20
423.737915
 10
-134.421783
 20
423.684479
 10
-133.39505
 20
423.631317
 10
-132.38295
 20
423.578888
 10
-131.39415
 20
423.527679
 10
-130.436188
 20
423.478058
 10
-129.512558
 20
423.430206
  0
LINE
  5
2A7
330
254
100
AcDbEntity
  8
0
  6
Continuous
 62
     0
370
     0
100
AcDbLine
 10
-129.080812
 20
435.785418
 30
0.0
 11
-119.826651
 21
435.306115
 31
0.0
  0
LWPOLYLINE
  5
2A8
330
254
100
AcDbEntity
  8
0
  6
Continuous
 62
     0
370
     0
100
AcDbPolyline
 90
       24
 70
     0
 43
0.0
 10
-144.02626
 20
436.559479
 10
-143.990891
 20
436.557648
 10
-143.888336
 20
436.552338
 10
-143.724503
 20
436.543854
 10
-143.500885
 20
436.532288
 10
-143.208878
 20
436.517151
 10
-142.845398
 20
436.498322
 10
-142.408676
 20
436.475708
 10
-141.898239
 20
436.44928
 10
-141.315063
 20
436.419067
 10
-140.661697
 20
436.385223
 10
-139.942261
 20
436.347961
 10
-139.162476
 20
436.307587
 10
-138.329468
 20
436.264435
 10
-137.451599
 20
436.218964
 10
-136.538147
 20
436.171661
 10
-135.59903
 20
436.123016
 10
-134.64444
 20
436.073578
 10
-133.684494
 20
436.023865
 10
-132.728851
 20
435.974365
 10
-131.786545
 20
435.925568
 10
-130.865646
 20
435.877869
 10
-129.97316
 20
435.831635
 10
-129.080811
 20
435.785431
  0
LINE
  5
2A9
330
254
100
AcDbEntity
  8
0
  6
Continuous
 62
     0
370
    30
100
AcDbLine
 10
-129.469772
 20
440.449086
 30
0.0
 11
-141.112639
 21
441.052108
 31
0.0
  0
LINE
  5
2AA
330
254
100
AcDbEntity
  8
0
  6
Continuous
 62
     0
370
    30
100
AcDbLine
 10
-122.260558
 20
440.075697
 30
0.0
 11
-129.469772
 21
440.449086
 31
0.0
  0
LINE
  5
2AB
330
254
100
AcDbEntity
  8
0
  6
Continuous
 62
     0
370
     0
100
AcDbLine
 10
-129.075208
 20
435.284458
 30
0.0
 11
-119.718718
 21
434.799854
 31
0.0
  0
LWPOLYLINE
  5
2AC
330
254
100
AcDbEntity
  8
0
  6
Continuous
 62
     0
370
     0
100
AcDbPolyline
 90
       24
 70
     0
 43
0.0
 10
-144.185928
 20
436.067078
 10
-144.150131
 20
436.065247
 10
-144.046402
 20
436.059875
 10
-143.880676
 20
436.05127
 10
-143.654465
 20
436.039551
 10
-143.35907
 20
436.024261
 10
-142.991364
 20
436.005219
 10
-142.549576
 20
435.98233
 10
-142.033218
 20
435.955597
 10
-141.443283
 20
435.925049
 10
-140.782349
 20
435.890808
 10
-140.054596
 20
435.853119
 10
-139.265808
 20
435.812256
 10
-138.423218
 20
435.768616
 10
-137.535263
 20
435.722626
 10
-136.611343
 20
435.674774
 10
-135.661514
 20
435.62558
 10
-134.696091
 20
435.575592
 10
-133.725266
 20
435.525299
 10
-132.75885
 20
435.47525
 10
-131.805969
 20
435.425903
 10
-130.874786
 20
435.377655
 10
-129.972366
 20
435.330933
 10
-129.075211
 20
435.284454
  0
LINE
  5
2AD
330
254
100
AcDbEntity
  8
0
  6
Continuous
 62
     0
370
    30
100
AcDbLine
 10
-128.682952
 20
434.900962
 30
0.0
 11
-117.989822
 21
434.34713
 31
0.0
  0
LWPOLYLINE
  5
2AE
330
254
100
AcDbEntity
  8
0
  6
Continuous
 62
     0
370
    30
100
AcDbPolyline
 90
       25
 70
     0
 43
0.0
 10
-145.952332
 20
435.79541
 10
-145.912781
 20
435.793365
 10
-145.794434
 20
435.787231
 10
-145.597763
 20
435.777039
 10
-145.323456
 20
435.762817
 10
-144.973358
 20
435.74469
 10
-144.549744
 20
435.722748
 10
-144.054947
 20
435.697113
 10
-143.491333
 20
435.667938
 10
-142.862228
 20
435.635345
 10
-142.171539
 20
435.599579
 10
-141.423157
 20
435.560822
 10
-140.621017
 20
435.519287
 10
-139.769638
 20
435.475189
 10
-138.87413
 20
435.428802
 10
-137.939606
 20
435.380402
 10
-136.971191
 20
435.330231
 10
-135.974274
 20
435.278595
 10
-134.954666
 20
435.2258
 10
-133.918213
 20
435.172119
 10
-132.870743
 20
435.117859
 10
-131.81813
 20
435.063354
 10
-130.766357
 20
435.008881
 10
-129.721405
 20
434.954742
 10
-128.682953
 20
434.90097
  0
LINE
  5
2AF
330
254
100
AcDbEntity
  8
0
  6
Continuous
 62
     0
370
     0
100
AcDbLine
 10
-128.82825
 20
432.095613
 30
0.0
 11
-118.135119
 21
431.541781
 31
0.0
  0
LWPOLYLINE
  5
2B0
330
254
100
AcDbEntity
  8
0
  6
Continuous
 62
     0
370
     0
100
AcDbPolyline
 90
       25
 70
     0
 43
0.0
 10
-146.097641
 20
432.990051
 10
-146.059952
 20
432.988098
 10
-145.950546
 20
432.982422
 10
-145.775375
 20
432.973358
 10
-145.53746
 20
432.961029
 10
-145.227737
 20
432.945007
 10
-144.842484
 20
432.925049
 10
-144.379608
 20
432.901062
 10
-143.838257
 20
432.873016
 10
-143.218979
 20
432.840942
 10
-142.523819
 20
432.804962
 10
-141.756363
 20
432.765198
 10
-140.921783
 20
432.721985
 10
-140.026703
 20
432.675629
 10
-139.079056
 20
432.626526
 10
-138.08786
 20
432.575195
 10
-137.062912
 20
432.522125
 10
-136.014496
 20
432.467804
 10
-134.953003
 20
432.412842
 10
-133.888702
 20
432.357697
 10
-132.831329
 20
432.302948
 10
-131.789871
 20
432.248993
 10
-130.77243
 20
432.19632
 10
-129.785995
 20
432.145233
 10
-128.828247
 20
432.095612
  0
LINE
  5
2B1
330
254
100
AcDbEntity
  8
0
  6
Continuous
 62
     0
370
     0
100
AcDbLine
 10
-128.811485
 20
431.792148
 30
0.0
 11
-118.013003
 21
431.232859
 31
0.0
  0
LWPOLYLINE
  5
2B2
330
254
100
AcDbEntity
  8
0
  6
Continuous
 62
     0
370
     0
100
AcDbPolyline
 90
       25
 70
     0
 43
0.0
 10
-146.251007
 20
432.695404
 10
-146.212936
 20
432.69342
 10
-146.102417
 20
432.687714
 10
-145.925446
 20
432.678528
 10
-145.685089
 20
432.666077
 10
-145.372162
 20
432.649872
 10
-144.982941
 20
432.62973
 10
-144.515289
 20
432.605499
 10
-143.968369
 20
432.577179
 10
-143.342712
 20
432.544769
 10
-142.640396
 20
432.508392
 10
-141.865051
 20
432.468231
 10
-141.021912
 20
432.424561
 10
-140.117676
 20
432.377747
 10
-139.160339
 20
432.328156
 10
-138.159042
 20
432.276276
 10
-137.123672
 20
432.222656
 10
-136.064636
 20
432.167816
 10
-134.992432
 20
432.112274
 10
-133.917419
 20
432.05661
 10
-132.849442
 20
432.001282
 10
-131.797592
 20
431.946808
 10
-130.770035
 20
431.893585
 10
-129.773849
 20
431.84198
 10
-128.811478
 20
431.792145
  0
LINE
  5
2B3
330
254
100
AcDbEntity
  8
0
  6
Continuous
 62
     0
370
     0
100
AcDbLine
 10
22.672554
 20
453.051297
 30
0.0
 11
22.672554
 21
462.05138
 31
0.0
  0
LINE
  5
2B4
330
254
100
AcDbEntity
  8
0
  6
Continuous
 62
     0
370
     0
100
AcDbLine
 10
22.672554
 20
462.05138
 30
0.0
 11
22.672554
 21
462.381822
 31
0.0
  0
LINE
  5
2B5
330
254
100
AcDbEntity
  8
0
  6
Continuous
 62
     0
370
     0
100
AcDbLine
 10
22.672554
 20
462.381822
 30
0.0
 11
22.672554
 21
471.051463
 31
0.0
  0
LINE
  5
2B6
330
254
100
AcDbEntity
  8
0
  6
Continuous
 62
     0
370
    30
100
AcDbLine
 10
-144.846356
 20
418.462568
 30
0.0
 11
-144.089265
 21
417.622697
 31
0.0
  0
LINE
  5
2B7
330
254
100
AcDbEntity
  8
0
  6
Continuous
 62
     0
370
    30
100
AcDbLine
 10
-121.719891
 20
416.463825
 30
0.0
 11
-120.879726
 21
417.22126
 31
0.0
  0
LINE
  5
2B8
330
254
100
AcDbEntity
  8
0
  6
Continuous
 62
     0
370
    30
100
AcDbLine
 10
-144.84738
 20
418.462623
 30
0.0
 11
-144.549754
 21
424.209047
 31
0.0
  0
LINE
  5
2B9
330
254
100
AcDbEntity
  8
0
  6
Continuous
 62
     0
370
    30
100
AcDbLine
 10
-120.879506
 20
417.221249
 30
0.0
 11
-120.58188
 21
422.967672
 31
0.0
  0
ARC
  5
2BA
330
254
100
AcDbEntity
  8
0
  6
Continuous
 62
     0
370
    30
100
AcDbCircle
 10
-119.746451
 20
429.431413
 30
0.0
 40
2.500009479537411
100
AcDbArc
 50
285.115493
 51
46.10202
  0
ARC
  5
2BB
330
254
100
AcDbEntity
  8
0
  6
Continuous
 62
     0
370
    30
100
AcDbCircle
 10
-144.712948
 20
430.72451
 30
0.0
 40
2.500009479541453
100
AcDbArc
 50
127.968207
 51
248.954734
  0
ARC
  5
2BC
330
254
100
AcDbEntity
  8
0
  6
Continuous
 62
     0
370
    30
100
AcDbCircle
 10
-146.497382
 20
433.010886
 30
0.0
 40
0.4002870234306141
100
AcDbArc
 50
307.986574
 51
357.016363
  0
ARC
  5
2BD
330
254
100
AcDbEntity
  8
0
  6
Continuous
 62
     0
370
    30
100
AcDbCircle
 10
-117.735361
 20
431.521207
 30
0.0
 40
0.4002870232678784
100
AcDbArc
 50
177.053864
 51
226.083653
  0
LINE
  5
2BE
330
254
100
AcDbEntity
  8
0
  6
Continuous
 62
     0
370
    30
100
AcDbLine
 10
-117.989821
 20
434.34713
 30
0.0
 11
-118.135119
 21
431.541781
 31
0.0
  0
LINE
  5
2BF
330
254
100
AcDbEntity
  8
0
  6
Continuous
 62
     0
370
    30
100
AcDbLine
 10
-146.097638
 20
432.990051
 30
0.0
 11
-145.952339
 21
435.7954
 31
0.0
  0
LINE
  5
2C0
330
254
100
AcDbEntity
  8
0
  6
Continuous
 62
     0
370
    30
100
AcDbLine
 10
-119.718718
 20
434.799854
 30
0.0
 11
-119.737478
 21
434.437647
 31
0.0
  0
LINE
  5
2C1
330
254
100
AcDbEntity
  8
0
  6
Continuous
 62
     0
370
    30
100
AcDbLine
 10
-144.204682
 20
435.704883
 30
0.0
 11
-144.185922
 21
436.067091
 31
0.0
  0
ARC
  5
2C2
330
254
100
AcDbEntity
  8
0
  6
Continuous
 62
     0
370
    30
100
AcDbCircle
 10
-143.186531
 20
436.01513
 30
0.0
 40
1.000741772035628
100
AcDbArc
 50
147.046493
 51
177.023734
  0
ARC
  5
2C3
330
254
100
AcDbEntity
  8
0
  6
Continuous
 62
     0
370
    30
100
AcDbCircle
 10
-120.71813
 20
434.851418
 30
0.0
 40
1.000741772055325
100
AcDbArc
 50
357.046493
 51
27.023734
  0
LINE
  5
2C4
330
254
100
AcDbEntity
  8
0
  6
Continuous
 62
     0
370
    30
100
AcDbLine
 10
-119.826651
 20
435.306115
 30
0.0
 11
-122.260558
 21
440.075697
 31
0.0
  0
LINE
  5
2C5
330
254
100
AcDbEntity
  8
0
  6
Continuous
 62
     0
370
    30
100
AcDbLine
 10
-144.026265
 20
436.559492
 30
0.0
 11
-141.112639
 21
441.052108
 31
0.0
  0
LINE
  5
2C6
330
254
100
AcDbEntity
  8
0
  6
Continuous
 62
     0
370
    30
100
AcDbLine
 10
-119.389695
 20
426.652427
 30
0.0
 11
-119.58322
 21
422.915948
 31
0.0
  0
LINE
  5
2C7
330
254
100
AcDbEntity
  8
0
  6
Continuous
 62
     0
370
    30
100
AcDbLine
 10
-145.548415
 20
424.260771
 30
0.0
 11
-145.35489
 21
427.997249
 31
0.0
  0
ARC
  5
2C8
330
254
100
AcDbEntity
  8
0
  6
Continuous
 62
     0
370
    30
100
AcDbCircle
 10
-118.990275
 20
426.631773
 30
0.0
 40
0.3999538157307223
100
AcDbArc
 50
105.110309
 51
177.039913
  0
ARC
  5
2C9
330
254
100
AcDbEntity
  8
0
  6
Continuous
 62
     0
370
    30
100
AcDbCircle
 10
-145.754307
 20
428.01797
 30
0.0
 40
0.3999538158211486
100
AcDbArc
 50
357.030313
 51
68.959918
  0
LINE
  5
2CA
330
254
100
AcDbEntity
  8
0
  6
Continuous
 62
     0
370
    30
100
AcDbLine
 10
19.778785
 20
453.05138
 30
0.0
 11
13.566387
 21
453.05138
 31
0.0
  0
LINE
  5
2CB
330
254
100
AcDbEntity
  8
0
  6
Continuous
 62
     0
370
    30
100
AcDbLine
 10
-140.342351
 20
448.056201
 30
0.0
 11
-140.706206
 21
441.031058
 31
0.0
  0
LINE
  5
2CC
330
254
100
AcDbEntity
  8
0
  6
Continuous
 62
     0
370
    30
100
AcDbLine
 10
-122.7303
 20
440.100027
 30
0.0
 11
-122.366445
 21
447.12517
 31
0.0
  0
ARC
  5
2CD
330
254
100
AcDbEntity
  8
0
  6
Continuous
 62
     0
370
    30
100
AcDbCircle
 10
-89.410617
 20
445.418278
 30
0.0
 40
51.00000136799614
100
AcDbArc
 50
65.000002
 51
177.035111
  0
ARC
  5
2CE
330
254
100
AcDbEntity
  8
0
  6
Continuous
 62
     0
370
    30
100
AcDbCircle
 10
-89.410616
 20
445.418277
 30
0.0
 40
33.00000202714115
100
AcDbArc
 50
65.000005
 51
177.035108
  0
LINE
  5
2CF
330
254
100
AcDbEntity
  8
0
  6
Continuous
 62
     0
370
    30
100
AcDbLine
 10
-35.732146
 20
456.799069
 30
0.0
 11
-75.464216
 21
475.326437
 31
0.0
  0
LINE
  5
2D0
330
254
100
AcDbEntity
  8
0
  6
Continuous
 62
     0
370
    30
100
AcDbLine
 10
-28.125017
 20
473.112609
 30
0.0
 11
-67.857087
 21
491.639977
 31
0.0
  0
ARC
  5
2D1
330
254
100
AcDbEntity
  8
0
  6
Continuous
 62
     0
370
    30
100
AcDbCircle
 10
-18.827397
 20
493.051462
 30
0.0
 40
22.00008185178692
100
AcDbArc
 50
245.000047
 51
269.999953
  0
ARC
  5
2D2
330
254
100
AcDbEntity
  8
0
  6
Continuous
 62
     0
370
    30
100
AcDbCircle
 10
-18.827382
 20
493.051529
 30
0.0
 40
40.00014882142565
100
AcDbArc
 50
245.000047
 51
269.999953
  0
LINE
  5
2D3
330
254
100
AcDbEntity
  8
0
  6
Continuous
 62
     0
370
    30
100
AcDbLine
 10
-18.827415
 20
471.05138
 30
0.0
 11
22.672585
 21
471.05138
 31
0.0
  0
LINE
  5
2D4
330
254
100
AcDbEntity
  8
0
  6
Continuous
 62
     0
370
    30
100
AcDbLine
 10
-18.827415
 20
453.05138
 30
0.0
 11
13.566387
 21
453.05138
 31
0.0
  0
LINE
  5
2D5
330
254
100
AcDbEntity
  8
0
  6
Continuous
 62
     0
370
    30
100
AcDbLine
 10
22.672585
 20
453.05138
 30
0.0
 11
19.778785
 21
453.05138
 31
0.0
  0
ARC
  5
2D6
330
254
100
AcDbEntity
  8
0
  6
Continuous
 62
     0
370
    30
100
AcDbCircle
 10
62.107908
 20
435.051385
 30
0.0
 40
0.4999998167436546
100
AcDbArc
 50
188.872323
 51
270.000018
  0
ARC
  5
2D7
330
254
100
AcDbEntity
  8
0
  6
Continuous
 62
     0
370
    30
100
AcDbCircle
 10
62.107904
 20
489.051033
 30
0.0
 40
0.4999962606774227
100
AcDbArc
 50
89.999539
 51
171.094842
  0
LINE
  5
2D8
330
254
100
AcDbEntity
  8
0
  6
Continuous
 62
     0
370
    30
100
AcDbLine
 10
68.672554
 20
434.55138
 30
0.0
 11
62.107908
 21
434.55138
 31
0.0
  0
LINE
  5
2D9
330
254
100
AcDbEntity
  8
0
  6
Continuous
 62
     0
370
    30
100
AcDbLine
 10
68.672554
 20
489.551381
 30
0.0
 11
65.549966
 21
489.551381
 31
0.0
  0
LINE
  5
2DA
330
254
100
AcDbEntity
  8
0
  6
Continuous
 62
     0
370
    30
100
AcDbLine
 10
62.107908
 20
489.551381
 30
0.0
 11
65.240818
 21
489.551381
 31
0.0
  0
ARC
  5
2DB
330
254
100
AcDbEntity
  8
0
  6
Continuous
 62
     0
370
    30
100
AcDbCircle
 10
48.025285
 20
491.229054
 30
0.0
 40
13.75000183792427
100
AcDbArc
 50
285.876241
 51
351.209662
  0
ARC
  5
2DC
330
254
100
AcDbEntity
  8
0
  6
Continuous
 62
     0
370
    30
100
AcDbCircle
 10
48.025285
 20
432.873706
 30
0.0
 40
13.75000183792447
100
AcDbArc
 50
8.790338
 51
74.123759
  0
ARC
  5
2DD
330
254
100
AcDbEntity
  8
0
  6
Continuous
 62
     0
370
    30
100
AcDbCircle
 10
28.172558
 20
472.615022
 30
0.0
 40
0.5000039846443349
100
AcDbArc
 50
97.472878
 51
179.954786
  0
ARC
  5
2DE
330
254
100
AcDbEntity
  8
0
  6
Continuous
 62
     0
370
    30
100
AcDbCircle
 10
28.172558
 20
451.487712
 30
0.0
 40
0.5000035842341061
100
AcDbArc
 50
180.040194
 51
262.527162
  0
ARC
  5
2DF
330
254
100
AcDbEntity
  8
0
  6
Continuous
 62
     0
370
    30
100
AcDbCircle
 10
6.649451
 20
636.708822
 30
0.0
 40
164.9992078044836
100
AcDbArc
 50
277.472458
 51
285.876256
  0
ARC
  5
2E0
330
254
100
AcDbEntity
  8
0
  6
Continuous
 62
     0
370
    30
100
AcDbCircle
 10
6.649451
 20
287.393939
 30
0.0
 40
164.9992078044863
100
AcDbArc
 50
74.123744
 51
82.527542
  0
ARC
  5
2E1
330
254
100
AcDbEntity
  8
0
  6
Continuous
 62
     0
370
    30
100
AcDbCircle
 10
26.172486
 20
451.551313
 30
0.0
 40
1.500067575882489
100
AcDbArc
 50
0.002581
 51
89.997419
  0
ARC
  5
2E2
330
254
100
AcDbEntity
  8
0
  6
Continuous
 62
     0
370
    30
100
AcDbCircle
 10
26.172486
 20
472.551448
 30
0.0
 40
1.500067841419686
100
AcDbArc
 50
270.002591
 51
359.989306
  0
LINE
  5
2E3
330
254
100
AcDbEntity
  8
0
  6
Continuous
 62
     0
370
    30
100
AcDbLine
 10
26.172554
 20
453.05138
 30
0.0
 11
22.672554
 21
453.05138
 31
0.0
  0
LINE
  5
2E4
330
254
100
AcDbEntity
  8
0
  6
Continuous
 62
     0
370
    30
100
AcDbLine
 10
26.172554
 20
471.05138
 30
0.0
 11
22.672554
 21
471.05138
 31
0.0
  0
ENDBLK
  5
2E6
330
254
100
AcDbEntity
  8
0
100
AcDbBlockEnd
  0
ENDSEC
  0
SECTION
  2
ENTITIES
  0
INSERT
  5
D5
330
1F
100
AcDbEntity
  8
0
  6
Continuous
 62
     7
370
     0
100
AcDbBlockReference
  2
a
 10
193.227478
 20
146.344055
 30
0.0
  0
INSERT
  5
196
330
1F
100
AcDbEntity
  8
0
  6
Continuous
 62
     7
370
     0
100
AcDbBlockReference
  2
b
 10
193.227478
 20
124.669403
 30
0.0
  0
INSERT
  5
253
330
1F
100
AcDbEntity
  8
0
  6
Continuous
 62
     7
370
     0
100
AcDbBlockReference
  2
c
 10
223.460022
 20
79.903931
 30
0.0
  0
INSERT
  5
2E7
330
1F
100
AcDbEntity
  8
0
  6
Continuous
 62
     7
370
     0
100
AcDbBlockReference
  2
d
 10
103.923218
 20
0.0
 30
0.0
  0
ENDSEC
  0
SECTION
  2
OBJECTS
  0
DICTIONARY
  5
C
330
0
100
AcDbDictionary
281
     1
  3
ACAD_GROUP
350
D
  3
ACAD_LAYOUT
350
1A
  3
ACAD_MATERIAL
350
43
  3
ACAD_MLEADERSTYLE
350
6B
  3
ACAD_MLINESTYLE
350
17
  3
ACAD_PLOTSETTINGS
350
19
  3
ACAD_PLOTSTYLENAME
350
E
  3
ACAD_SCALELIST
350
47
  3
ACAD_TABLESTYLE
350
69
  3
ACAD_VISUALSTYLE
350
2A
  3
AcDbVariableDictionary
350
2E8
  0
DICTIONARY
  5
2F1
330
8
100
AcDbDictionary
280
     1
281
     1
  3
ACAD_XREC_ROUNDTRIP
360
2F2
  0
DICTIONARY
  5
D
102
{ACAD_REACTORS
330
C
102
}
330
C
100
AcDbDictionary
281
     1
  0
DICTIONARY
  5
1A
102
{ACAD_REACTORS
330
C
102
}
330
C
100
AcDbDictionary
281
     1
  3
Layout1
350
1E
  3
Layout2
350
26
  3
Model
350
22
  0
DICTIONARY
  5
43
102
{ACAD_REACTORS
330
C
102
}
330
C
100
AcDbDictionary
281
     1
  3
ByBlock
350
45
  3
ByLayer
350
44
  3
Global
350
46
  0
DICTIONARY
  5
6B
102
{ACAD_REACTORS
330
C
102
}
330
C
100
AcDbDictionary
281
     1
  3
Standard
350
6C
  0
DICTIONARY
  5
17
102
{ACAD_REACTORS
330
C
102
}
330
C
100
AcDbDictionary
281
     1
  3
Standard
350
18
  0
DICTIONARY
  5
19
102
{ACAD_REACTORS
330
C
102
}
330
C
100
AcDbDictionary
281
     1
  0
ACDBDICTIONARYWDFLT
  5
E
102
{ACAD_REACTORS
330
C
102
}
330
C
100
AcDbDictionary
281
     1
  3
Normal
350
F
100
AcDbDictionaryWithDefault
340
F
  0
DICTIONARY
  5
47
102
{ACAD_REACTORS
330
C
102
}
330
C
100
AcDbDictionary
281
     1
  3
A0
350
48
  3
A1
350
49
  3
A2
350
4A
  3
A3
350
4B
  3
A4
350
4C
  3
A5
350
4D
  3
A6
350
4E
  3
A7
350
4F
  3
A8
350
50
  3
A9
350
51
  3
B0
350
52
  3
B1
350
53
  3
B2
350
54
  3
B3
350
55
  3
B4
350
56
  3
B5
350
57
  3
B6
350
58
  3
B7
350
59
  3
B8
350
5A
  3
B9
350
5B
  3
C0
350
5C
  3
C1
350
5D
  3
C2
350
5E
  3
C3
350
5F
  3
C4
350
60
  3
C5
350
61
  3
C6
350
62
  3
C7
350
63
  3
C8
350
64
  3
C9
350
65
  3
D0
350
66
  3
D1
350
67
  3
D2
350
68
  0
DICTIONARY
  5
69
102
{ACAD_REACTORS
330
C
102
}
330
C
100
AcDbDictionary
281
     1
  3
Standard
350
6A
  0
DICTIONARY
  5
2A
102
{ACAD_REACTORS
330
C
102
}
330
C
100
AcDbDictionary
281
     1
  3
2dWireframe
350
2F
  3
Basic
350
32
  3
Brighten
350
36
  3
ColorChange
350
3A
  3
Conceptual
350
34
  3
Dim
350
35
  3
EdgeColorOff
350
3D
  3
Facepattern
350
39
  3
Flat
350
2B
  3
FlatWithEdges
350
2C
  3
Gouraud
350
2D
  3
GouraudWithEdges
350
2E
  3
Hidden
350
31
  3
JitterOff
350
3B
  3
Linepattern
350
38
  3
OverhangOff
350
3C
  3
Realistic
350
33
  3
Shaded
350
42
  3
Shaded with edges
350
41
  3
Shades of Gray
350
3E
  3
Sketchy
350
3F
  3
Thicken
350
37
  3
Wireframe
350
30
  3
X-Ray
350
40
  0
DICTIONARY
  5
2E8
102
{ACAD_REACTORS
330
C
102
}
330
C
100
AcDbDictionary
281
     1
  3
CANNOSCALE
350
2F3
  3
CMLEADERSTYLE
350
2EA
  3
CTABLESTYLE
350
2E9
  3
DIMASSOC
350
2EF
  3
HIDETEXT
350
2F0
  3
MSLTSCALE
350
2F4
  3
PSOLHEIGHT
350
2EC
  3
PSOLWIDTH
350
2EB
  0
XRECORD
  5
2F2
102
{ACAD_REACTORS
330
2F1
102
}
330
2F1
100
AcDbXrecord
280
     1
102
VTR_0.000_0.000_1.000_1.000_VISUALSTYLE
340
2F
102
VTR_0.000_0.000_1.000_1.000_GRIDDISPLAY
 70
     3
102
VTR_0.000_0.000_1.000_1.000_GRIDMAJOR
 70
     5
102
VTR_0.000_0.000_1.000_1.000_DEFAULTLIGHTING
280
     1
102
VTR_0.000_0.000_1.000_1.000_DEFAULTLIGHTINGTYPE
 70
     1
102
VTR_0.000_0.000_1.000_1.000_BRIGHTNESS
141
0.0
102
VTR_0.000_0.000_1.000_1.000_CONTRAST
142
0.0
  0
LAYOUT
  5
1E
102
{ACAD_REACTORS
330
1A
102
}
330
1A
100
AcDbPlotSettings
  1

  2
none_device
  4

  6

 40
0.0
 41
0.0
 42
0.0
 43
0.0
 44
0.0
 45
0.0
 46
0.0
 47
0.0
 48
0.0
 49
0.0
140
0.0
141
0.0
142
1.0
143
1.0
 70
   688
 72
     1
 73
     0
 74
     5
  7

 75
    16
147
1.0
148
0.0
149
0.0
100
AcDbLayout
  1
Layout1
 70
     1
 71
     1
 10
0.0
 20
0.0
 11
420.0
 21
297.0
 12
0.0
 22
0.0
 32
0.0
 14
1.000000E+20
 24
1.000000E+20
 34
1.000000E+20
 15
-1.000000E+20
 25
-1.000000E+20
 35
-1.000000E+20
146
0.0
 13
0.0
 23
0.0
 33
0.0
 16
1.0
 26
0.0
 36
0.0
 17
0.0
 27
1.0
 37
0.0
 76
     0
330
1B
  0
LAYOUT
  5
26
102
{ACAD_REACTORS
330
1A
102
}
330
1A
100
AcDbPlotSettings
  1

  2
none_device
  4

  6

 40
0.0
 41
0.0
 42
0.0
 43
0.0
 44
0.0
 45
0.0
 46
0.0
 47
0.0
 48
0.0
 49
0.0
140
0.0
141
0.0
142
1.0
143
1.0
 70
   688
 72
     1
 73
     0
 74
     5
  7

 75
    16
147
1.0
148
0.0
149
0.0
100
AcDbLayout
  1
Layout2
 70
     1
 71
     2
 10
0.0
 20
0.0
 11
0.0
 21
0.0
 12
0.0
 22
0.0
 32
0.0
 14
0.0
 24
0.0
 34
0.0
 15
0.0
 25
0.0
 35
0.0
146
0.0
 13
0.0
 23
0.0
 33
0.0
 16
1.0
 26
0.0
 36
0.0
 17
0.0
 27
1.0
 37
0.0
 76
     0
330
23
  0
LAYOUT
  5
22
102
{ACAD_REACTORS
330
1A
102
}
330
1A
100
AcDbPlotSettings
  1

  2
none_device
  4
Letter_(8.50_x_11.00_Inches)
  6

 40
6.35
 41
6.35
 42
6.350005
 43
6.350005
 44
215.9
 45
279.4
 46
0.0
 47
0.0
 48
0.0
 49
0.0
140
0.0
141
0.0
142
1.0
143
1.0
 70
  1712
 72
     1
 73
     0
 74
     0
  7

 75
     0
147
1.0
148
0.0
149
0.0
100
AcDbLayout
  1
Model
 70
     1
 71
     0
 10
0.0
 20
0.0
 11
420.0
 21
297.0
 12
0.0
 22
0.0
 32
0.0
 14
1.000000E+20
 24
1.000000E+20
 34
1.000000E+20
 15
-1.000000E+20
 25
-1.000000E+20
 35
-1.000000E+20
146
0.0
 13
0.0
 23
0.0
 33
0.0
 16
1.0
 26
0.0
 36
0.0
 17
0.0
 27
1.0
 37
0.0
 76
     0
330
1F
331
29
  0
MATERIAL
  5
45
102
{ACAD_REACTORS
330
43
102
}
102
{ACAD_XDICTIONARY
360
327
102
}
330
43
100
AcDbMaterial
  1
ByBlock
  0
MATERIAL
  5
44
102
{ACAD_REACTORS
330
43
102
}
102
{ACAD_XDICTIONARY
360
325
102
}
330
43
100
AcDbMaterial
  1
ByLayer
  0
MATERIAL
  5
46
102
{ACAD_REACTORS
330
43
102
}
102
{ACAD_XDICTIONARY
360
329
102
}
330
43
100
AcDbMaterial
  1
Global
  0
MLEADERSTYLE
  5
6C
102
{ACAD_REACTORS
330
6B
102
}
102
{ACAD_XDICTIONARY
360
32C
102
}
330
6B
100
AcDbMLeaderStyle
170
     2
171
     1
172
     0
 90
        2
 40
0.0
 41
0.0
173
     1
 91
-1056964608
340
14
 92
       -2
290
     1
 42
2.0
291
     1
 43
8.0
  3
Standard
341
0
 44
4.0
300

342
11
174
     1
178
     6
175
     1
176
     0
 93
-1056964608
 45
4.0
292
     0
297
     0
 46
4.0
343
0
 94
-1056964608
 47
1.0
 49
1.0
140
1.0
293
     1
141
0.0
294
     1
177
     0
142
1.0
295
     0
296
     0
143
3.75
1001
ACAD_MLEADERVER
1070
     2
  0
MLINESTYLE
  5
18
102
{ACAD_REACTORS
330
17
102
}
330
17
100
AcDbMlineStyle
  2
Standard
 70
     0
  3

 62
   256
 51
90.0
 52
90.0
 71
     2
 49
0.5
 62
   256
  6
BYLAYER
 49
-0.5
 62
   256
  6
BYLAYER
  0
ACDBPLACEHOLDER
  5
F
102
{ACAD_REACTORS
330
E
102
}
330
E
  0
SCALE
  5
48
102
{ACAD_REACTORS
330
47
102
}
330
47
100
AcDbScale
 70
     0
300
1:1
140
1.0
141
1.0
290
     1
  0
SCALE
  5
49
102
{ACAD_REACTORS
330
47
102
}
330
47
100
AcDbScale
 70
     0
300
1:2
140
1.0
141
2.0
290
     0
  0
SCALE
  5
4A
102
{ACAD_REACTORS
330
47
102
}
330
47
100
AcDbScale
 70
     0
300
1:4
140
1.0
141
4.0
290
     0
  0
SCALE
  5
4B
102
{ACAD_REACTORS
330
47
102
}
330
47
100
AcDbScale
 70
     0
300
1:5
140
1.0
141
5.0
290
     0
  0
SCALE
  5
4C
102
{ACAD_REACTORS
330
47
102
}
330
47
100
AcDbScale
 70
     0
300
1:8
140
1.0
141
8.0
290
     0
  0
SCALE
  5
4D
102
{ACAD_REACTORS
330
47
102
}
330
47
100
AcDbScale
 70
     0
300
1:10
140
1.0
141
10.0
290
     0
  0
SCALE
  5
4E
102
{ACAD_REACTORS
330
47
102
}
330
47
100
AcDbScale
 70
     0
300
1:16
140
1.0
141
16.0
290
     0
  0
SCALE
  5
4F
102
{ACAD_REACTORS
330
47
102
}
330
47
100
AcDbScale
 70
     0
300
1:20
140
1.0
141
20.0
290
     0
  0
SCALE
  5
50
102
{ACAD_REACTORS
330
47
102
}
330
47
100
AcDbScale
 70
     0
300
1:30
140
1.0
141
30.0
290
     0
  0
SCALE
  5
51
102
{ACAD_REACTORS
330
47
102
}
330
47
100
AcDbScale
 70
     0
300
1:40
140
1.0
141
40.0
290
     0
  0
SCALE
  5
52
102
{ACAD_REACTORS
330
47
102
}
330
47
100
AcDbScale
 70
     0
300
1:50
140
1.0
141
50.0
290
     0
  0
SCALE
  5
53
102
{ACAD_REACTORS
330
47
102
}
330
47
100
AcDbScale
 70
     0
300
1:100
140
1.0
141
100.0
290
     0
  0
SCALE
  5
54
102
{ACAD_REACTORS
330
47
102
}
330
47
100
AcDbScale
 70
     0
300
2:1
140
2.0
141
1.0
290
     0
  0
SCALE
  5
55
102
{ACAD_REACTORS
330
47
102
}
330
47
100
AcDbScale
 70
     0
300
4:1
140
4.0
141
1.0
290
     0
  0
SCALE
  5
56
102
{ACAD_REACTORS
330
47
102
}
330
47
100
AcDbScale
 70
     0
300
8:1
140
8.0
141
1.0
290
     0
  0
SCALE
  5
57
102
{ACAD_REACTORS
330
47
102
}
330
47
100
AcDbScale
 70
     0
300
10:1
140
10.0
141
1.0
290
     0
  0
SCALE
  5
58
102
{ACAD_REACTORS
330
47
102
}
330
47
100
AcDbScale
 70
     0
300
100:1
140
100.0
141
1.0
290
     0
  0
SCALE
  5
59
102
{ACAD_REACTORS
330
47
102
}
330
47
100
AcDbScale
 70
     0
300
1/128" = 1'-0"
140
0.007812
141
12.0
290
     0
  0
SCALE
  5
5A
102
{ACAD_REACTORS
330
47
102
}
330
47
100
AcDbScale
 70
     0
300
1/64" = 1'-0"
140
0.015625
141
12.0
290
     0
  0
SCALE
  5
5B
102
{ACAD_REACTORS
330
47
102
}
330
47
100
AcDbScale
 70
     0
300
1/32" = 1'-0"
140
0.03125
141
12.0
290
     0
  0
SCALE
  5
5C
102
{ACAD_REACTORS
330
47
102
}
330
47
100
AcDbScale
 70
     0
300
1/16" = 1'-0"
140
0.0625
141
12.0
290
     0
  0
SCALE
  5
5D
102
{ACAD_REACTORS
330
47
102
}
330
47
100
AcDbScale
 70
     0
300
3/32" = 1'-0"
140
0.09375
141
12.0
290
     0
  0
SCALE
  5
5E
102
{ACAD_REACTORS
330
47
102
}
330
47
100
AcDbScale
 70
     0
300
1/8" = 1'-0"
140
0.125
141
12.0
290
     0
  0
SCALE
  5
5F
102
{ACAD_REACTORS
330
47
102
}
330
47
100
AcDbScale
 70
     0
300
3/16" = 1'-0"
140
0.1875
141
12.0
290
     0
  0
SCALE
  5
60
102
{ACAD_REACTORS
330
47
102
}
330
47
100
AcDbScale
 70
     0
300
1/4" = 1'-0"
140
0.25
141
12.0
290
     0
  0
SCALE
  5
61
102
{ACAD_REACTORS
330
47
102
}
330
47
100
AcDbScale
 70
     0
300
3/8" = 1'-0"
140
0.375
141
12.0
290
     0
  0
SCALE
  5
62
102
{ACAD_REACTORS
330
47
102
}
330
47
100
AcDbScale
 70
     0
300
1/2" = 1'-0"
140
0.5
141
12.0
290
     0
  0
SCALE
  5
63
102
{ACAD_REACTORS
330
47
102
}
330
47
100
AcDbScale
 70
     0
300
3/4" = 1'-0"
140
0.75
141
12.0
290
     0
  0
SCALE
  5
64
102
{ACAD_REACTORS
330
47
102
}
330
47
100
AcDbScale
 70
     0
300
1" = 1'-0"
140
1.0
141
12.0
290
     0
  0
SCALE
  5
65
102
{ACAD_REACTORS
330
47
102
}
330
47
100
AcDbScale
 70
     0
300
1-1/2" = 1'-0"
140
1.5
141
12.0
290
     0
  0
SCALE
  5
66
102
{ACAD_REACTORS
330
47
102
}
330
47
100
AcDbScale
 70
     0
300
3" = 1'-0"
140
3.0
141
12.0
290
     0
  0
SCALE
  5
67
102
{ACAD_REACTORS
330
47
102
}
330
47
100
AcDbScale
 70
     0
300
6" = 1'-0"
140
6.0
141
12.0
290
     0
  0
SCALE
  5
68
102
{ACAD_REACTORS
330
47
102
}
330
47
100
AcDbScale
 70
     0
300
1'-0" = 1'-0"
140
12.0
141
12.0
290
     0
  0
TABLESTYLE
  5
6A
102
{ACAD_REACTORS
330
69
102
}
330
69
100
AcDbTableStyle
  3
Standard
 70
     0
 71
     0
 40
1.5
 41
1.5
280
     0
281
     0
  7
Standard
140
4.5
170
     2
 62
     0
 63
   257
283
     0
274
    -2
284
     1
 64
     0
275
    -2
285
     1
 65
     0
276
    -2
286
     1
 66
     0
277
    -2
287
     1
 67
     0
278
    -2
288
     1
 68
     0
279
    -2
289
     1
 69
     0
  7
Standard
140
6.0
170
     5
 62
     0
 63
   257
283
     0
274
    -2
284
     1
 64
     0
275
    -2
285
     1
 65
     0
276
    -2
286
     1
 66
     0
277
    -2
287
     1
 67
     0
278
    -2
288
     1
 68
     0
279
    -2
289
     1
 69
     0
  7
Standard
140
4.5
170
     5
 62
     0
 63
   257
283
     0
274
    -2
284
     1
 64
     0
275
    -2
285
     1
 65
     0
276
    -2
286
     1
 66
     0
277
    -2
287
     1
 67
     0
278
    -2
288
     1
 68
     0
279
    -2
289
     1
 69
     0
  0
VISUALSTYLE
  5
2F
102
{ACAD_REACTORS
330
2A
102
}
102
{ACAD_XDICTIONARY
360
2FD
102
}
330
2A
100
AcDbVisualStyle
  2
2dWireframe
 70
     4
 71
     0
 72
     2
 73
     0
 90
        0
 40
0.6
 41
30.0
 62
     5
 63
     7
 74
     1
 91
        4
 64
     7
 65
   257
 75
     1
175
     1
 42
1.0
 92
        0
 66
   257
 43
1.0
 76
     1
 77
     6
 78
     2
 67
     7
 79
     5
170
     0
171
     0
290
     0
174
     0
 93
        1
 44
0.0
173
     0
291
     0
 45
0.0
1001
ACAD
1000
AcDbSavedByObjectVersion
1070
     0
  0
VISUALSTYLE
  5
32
102
{ACAD_REACTORS
330
2A
102
}
102
{ACAD_XDICTIONARY
360
303
102
}
330
2A
100
AcDbVisualStyle
  2
Basic
 70
     7
 71
     1
 72
     0
 73
     1
 90
        0
 40
0.6
 41
30.0
 62
     5
 63
     7
 74
     0
 91
        4
 64
     7
 65
   257
 75
     1
175
     1
 42
1.0
 92
        8
 66
     7
 43
1.0
 76
     1
 77
     6
 78
     2
 67
     7
 79
     5
170
     0
171
     0
290
     0
174
     0
 93
        1
 44
0.0
173
     0
291
     1
 45
0.0
1001
ACAD
1000
AcDbSavedByObjectVersion
1070
     0
  0
VISUALSTYLE
  5
36
102
{ACAD_REACTORS
330
2A
102
}
102
{ACAD_XDICTIONARY
360
30B
102
}
330
2A
100
AcDbVisualStyle
  2
Brighten
 70
    12
 71
     2
 72
     2
 73
     0
 90
        0
 40
0.6
 41
30.0
 62
     5
 63
     7
 74
     1
 91
        4
 64
     7
 65
   257
 75
     1
175
     1
 42
1.0
 92
        8
 66
     7
 43
1.0
 76
     1
 77
     6
 78
     2
 67
     7
 79
     5
170
     0
171
     0
290
     0
174
     0
 93
        1
 44
50.0
173
     0
291
     1
 45
0.0
1001
ACAD
1000
AcDbSavedByObjectVersion
1070
     0
  0
VISUALSTYLE
  5
3A
102
{ACAD_REACTORS
330
2A
102
}
102
{ACAD_XDICTIONARY
360
313
102
}
330
2A
100
AcDbVisualStyle
  2
ColorChange
 70
    16
 71
     2
 72
     2
 73
     3
 90
        0
 40
0.6
 41
30.0
 62
     5
 63
     8
 74
     1
 91
        4
 64
     7
 65
   257
 75
     1
175
     1
 42
1.0
 92
        8
 66
     8
 43
1.0
 76
     1
 77
     6
 78
     2
 67
     7
 79
     5
170
     0
171
     0
290
     0
174
     0
 93
        1
 44
0.0
173
     0
291
     1
 45
0.0
1001
ACAD
1000
AcDbSavedByObjectVersion
1070
     0
  0
VISUALSTYLE
  5
34
102
{ACAD_REACTORS
330
2A
102
}
102
{ACAD_XDICTIONARY
360
307
102
}
330
2A
100
AcDbVisualStyle
  2
Conceptual
 70
     9
 71
     3
 72
     2
 73
     0
 90
        0
 40
0.6
 41
30.0
 62
     5
 63
     7
 74
     2
 91
        2
 64
     7
 65
   257
 75
     1
175
     1
 42
179.0
 92
        8
 66
     7
 43
1.0
 76
     1
 77
     6
 78
     2
 67
     7
 79
     3
170
     0
171
     0
290
     0
174
     0
 93
        1
 44
0.0
173
     0
291
     0
 45
0.0
1001
ACAD
1000
AcDbSavedByObjectVersion
1070
     0
  0
VISUALSTYLE
  5
35
102
{ACAD_REACTORS
330
2A
102
}
102
{ACAD_XDICTIONARY
360
309
102
}
330
2A
100
AcDbVisualStyle
  2
Dim
 70
    11
 71
     2
 72
     2
 73
     0
 90
        0
 40
0.6
 41
30.0
 62
     5
 63
     7
 74
     1
 91
        4
 64
     7
 65
   257
 75
     1
175
     1
 42
1.0
 92
        8
 66
     7
 43
1.0
 76
     1
 77
     6
 78
     2
 67
     7
 79
     5
170
     0
171
     0
290
     0
174
     0
 93
        1
 44
-50.0
173
     0
291
     1
 45
0.0
1001
ACAD
1000
AcDbSavedByObjectVersion
1070
     0
  0
VISUALSTYLE
  5
3D
102
{ACAD_REACTORS
330
2A
102
}
102
{ACAD_XDICTIONARY
360
319
102
}
330
2A
100
AcDbVisualStyle
  2
EdgeColorOff
 70
    22
 71
     2
 72
     2
 73
     0
 90
        0
 40
0.6
 41
30.0
 62
     5
 63
     7
 74
     1
 91
        4
 64
     7
 65
   257
 75
     1
175
     1
 42
1.0
 92
        8
 66
     7
 43
1.0
 76
     1
 77
     6
 78
     2
 67
     7
 79
     5
170
     0
171
     0
290
     0
174
     0
 93
        1
 44
0.0
173
     0
291
     1
 45
0.0
1001
ACAD
1000
AcDbSavedByObjectVersion
1070
     0
  0
VISUALSTYLE
  5
39
102
{ACAD_REACTORS
330
2A
102
}
102
{ACAD_XDICTIONARY
360
311
102
}
330
2A
100
AcDbVisualStyle
  2
Facepattern
 70
    15
 71
     2
 72
     2
 73
     0
 90
        0
 40
0.6
 41
30.0
 62
     5
 63
     7
 74
     1
 91
        4
 64
     7
 65
   257
 75
     1
175
     1
 42
1.0
 92
        8
 66
     7
 43
1.0
 76
     1
 77
     6
 78
     2
 67
     7
 79
     5
170
     0
171
     0
290
     0
174
     0
 93
        1
 44
0.0
173
     0
291
     1
 45
0.0
1001
ACAD
1000
AcDbSavedByObjectVersion
1070
     0
  0
VISUALSTYLE
  5
2B
102
{ACAD_REACTORS
330
2A
102
}
102
{ACAD_XDICTIONARY
360
2F5
102
}
330
2A
100
AcDbVisualStyle
  2
Flat
 70
     0
 71
     2
 72
     1
 73
     1
 90
        2
 40
0.6
 41
30.0
 62
     5
 63
     7
 74
     0
 91
        0
 64
     7
 65
   257
 75
     1
175
     1
 42
1.0
 92
        8
 66
     7
 43
1.0
 76
     1
 77
     6
 78
     2
 67
     7
 79
     5
170
     0
171
     0
290
     0
174
     0
 93
       13
 44
0.0
173
     0
291
     1
 45
0.0
1001
ACAD
1000
AcDbSavedByObjectVersion
1070
     0
  0
VISUALSTYLE
  5
2C
102
{ACAD_REACTORS
330
2A
102
}
102
{ACAD_XDICTIONARY
360
2F7
102
}
330
2A
100
AcDbVisualStyle
  2
FlatWithEdges
 70
     1
 71
     2
 72
     1
 73
     1
 90
        2
 40
0.6
 41
30.0
 62
     5
 63
     7
 74
     1
 91
        0
 64
     7
 65
   257
 75
     1
175
     1
 42
1.0
 92
        0
 66
   257
 43
1.0
 76
     1
 77
     6
 78
     2
 67
     7
 79
     5
170
     0
171
     0
290
     0
174
     0
 93
       13
 44
0.0
173
     0
291
     1
 45
0.0
1001
ACAD
1000
AcDbSavedByObjectVersion
1070
     0
  0
VISUALSTYLE
  5
2D
102
{ACAD_REACTORS
330
2A
102
}
102
{ACAD_XDICTIONARY
360
2F9
102
}
330
2A
100
AcDbVisualStyle
  2
Gouraud
 70
     2
 71
     2
 72
     2
 73
     1
 90
        2
 40
0.6
 41
30.0
 62
     5
 63
     7
 74
     0
 91
        0
 64
     7
 65
   257
 75
     1
175
     1
 42
1.0
 92
        0
 66
     7
 43
1.0
 76
     1
 77
     6
 78
     2
 67
     7
 79
     5
170
     0
171
     0
290
     0
174
     0
 93
       13
 44
0.0
173
     0
291
     1
 45
0.0
1001
ACAD
1000
AcDbSavedByObjectVersion
1070
     0
  0
VISUALSTYLE
  5
2E
102
{ACAD_REACTORS
330
2A
102
}
102
{ACAD_XDICTIONARY
360
2FB
102
}
330
2A
100
AcDbVisualStyle
  2
GouraudWithEdges
 70
     3
 71
     2
 72
     2
 73
     1
 90
        2
 40
0.6
 41
30.0
 62
     5
 63
     7
 74
     1
 91
        0
 64
     7
 65
   257
 75
     1
175
     1
 42
1.0
 92
        0
 66
   257
 43
1.0
 76
     1
 77
     6
 78
     2
 67
     7
 79
     5
170
     0
171
     0
290
     0
174
     0
 93
       13
 44
0.0
173
     0
291
     1
 45
0.0
1001
ACAD
1000
AcDbSavedByObjectVersion
1070
     0
  0
VISUALSTYLE
  5
31
102
{ACAD_REACTORS
330
2A
102
}
102
{ACAD_XDICTIONARY
360
301
102
}
330
2A
100
AcDbVisualStyle
  2
Hidden
 70
     6
 71
     1
 72
     2
 73
     2
 90
        0
 40
0.6
 41
30.0
 62
     5
 63
     7
 74
     2
 91
        2
 64
     7
 65
   257
 75
     2
175
     1
 42
40.0
 92
        0
 66
   257
 43
1.0
 76
     1
 77
     6
 78
     2
 67
     7
 79
     3
170
     0
171
     0
290
     0
174
     0
 93
        1
 44
0.0
173
     0
291
     0
 45
0.0
1001
ACAD
1000
AcDbSavedByObjectVersion
1070
     0
  0
VISUALSTYLE
  5
3B
102
{ACAD_REACTORS
330
2A
102
}
102
{ACAD_XDICTIONARY
360
315
102
}
330
2A
100
AcDbVisualStyle
  2
JitterOff
 70
    20
 71
     2
 72
     2
 73
     0
 90
        0
 40
0.6
 41
30.0
 62
     5
 63
     7
 74
     1
 91
        4
 64
     7
 65
   257
 75
     1
175
     1
 42
1.0
 92
       10
 66
     7
 43
1.0
 76
     1
 77
     6
 78
     2
 67
     7
 79
     5
170
     0
171
     0
290
     0
174
     0
 93
        1
 44
0.0
173
     0
291
     1
 45
0.0
1001
ACAD
1000
AcDbSavedByObjectVersion
1070
     0
  0
VISUALSTYLE
  5
38
102
{ACAD_REACTORS
330
2A
102
}
102
{ACAD_XDICTIONARY
360
30F
102
}
330
2A
100
AcDbVisualStyle
  2
Linepattern
 70
    14
 71
     2
 72
     2
 73
     0
 90
        0
 40
0.6
 41
30.0
 62
     5
 63
     7
 74
     1
 91
        4
 64
     7
 65
   257
 75
     7
175
     7
 42
1.0
 92
        8
 66
     7
 43
1.0
 76
     1
 77
     6
 78
     2
 67
     7
 79
     5
170
     0
171
     0
290
     0
174
     0
 93
        1
 44
0.0
173
     0
291
     1
 45
0.0
1001
ACAD
1000
AcDbSavedByObjectVersion
1070
     0
  0
VISUALSTYLE
  5
3C
102
{ACAD_REACTORS
330
2A
102
}
102
{ACAD_XDICTIONARY
360
317
102
}
330
2A
100
AcDbVisualStyle
  2
OverhangOff
 70
    21
 71
     2
 72
     2
 73
     0
 90
        0
 40
0.6
 41
30.0
 62
     5
 63
     7
 74
     1
 91
        4
 64
     7
 65
   257
 75
     1
175
     1
 42
1.0
 92
        9
 66
     7
 43
1.0
 76
     1
 77
     6
 78
     2
 67
     7
 79
     5
170
     0
171
     0
290
     0
174
     0
 93
        1
 44
0.0
173
     0
291
     1
 45
0.0
1001
ACAD
1000
AcDbSavedByObjectVersion
1070
     0
  0
VISUALSTYLE
  5
33
102
{ACAD_REACTORS
330
2A
102
}
102
{ACAD_XDICTIONARY
360
305
102
}
330
2A
100
AcDbVisualStyle
  2
Realistic
 70
     8
 71
     2
 72
     3
 73
     0
 90
        2
 40
0.6
 41
30.0
 62
     5
 63
     7
 74
     0
 91
        0
 64
     7
 65
   257
 75
     1
175
     1
 42
1.0
 92
        8
 66
   257
 43
1.0
 76
     1
 77
     6
 78
     2
 67
     7
 79
     3
170
     0
171
     0
290
     0
174
     0
 93
       13
 44
0.0
173
     0
291
     0
 45
0.0
1001
ACAD
1000
AcDbSavedByObjectVersion
1070
     0
  0
VISUALSTYLE
  5
42
102
{ACAD_REACTORS
330
2A
102
}
102
{ACAD_XDICTIONARY
360
323
102
}
330
2A
100
AcDbVisualStyle
  2
Shaded
 70
    27
 71
     2
 72
     2
 73
     1
 90
        2
 40
0.6
 41
30.0
 62
     5
 63
     7
 74
     0
 91
        4
 64
     7
 65
   257
 75
     1
175
     1
 42
1.0
 92
        8
 66
   257
 43
1.0
 76
     1
 77
     6
 78
     2
 67
     8
 79
     3
170
     0
171
     0
290
     0
174
     0
 93
        5
 44
0.0
173
     0
291
     0
 45
0.0
1001
ACAD
1000
AcDbSavedByObjectVersion
1070
     0
  0
VISUALSTYLE
  5
41
102
{ACAD_REACTORS
330
2A
102
}
102
{ACAD_XDICTIONARY
360
321
102
}
330
2A
100
AcDbVisualStyle
  2
Shaded with edges
 70
    26
 71
     2
 72
     2
 73
     1
 90
        2
 40
0.6
 41
30.0
 62
     5
 63
     7
 74
     1
 91
       10
 64
     7
 65
   257
 75
     2
175
     1
 42
1.0
 92
        8
 66
   257
 43
1.0
 76
     1
 77
     6
 78
     2
 67
     7
 79
     3
170
     0
171
     0
290
     0
174
     0
 93
        5
 44
0.0
173
     0
291
     0
 45
0.0
1001
ACAD
1000
AcDbSavedByObjectVersion
1070
     0
  0
VISUALSTYLE
  5
3E
102
{ACAD_REACTORS
330
2A
102
}
102
{ACAD_XDICTIONARY
360
31B
102
}
330
2A
100
AcDbVisualStyle
  2
Shades of Gray
 70
    23
 71
     2
 72
     2
 73
     3
 90
        0
 40
0.6
 41
30.0
 62
     5
 63
     7
 74
     2
 91
        2
 64
     7
 65
     7
 75
     1
175
     1
 42
40.0
 92
        8
 66
     7
 43
1.0
 76
     1
 77
     6
 78
     2
 67
     7
 79
     3
170
     0
171
     0
290
     0
174
     0
 93
        1
 44
0.0
173
     0
291
     0
 45
0.0
1001
ACAD
1000
AcDbSavedByObjectVersion
1070
     0
  0
VISUALSTYLE
  5
3F
102
{ACAD_REACTORS
330
2A
102
}
102
{ACAD_XDICTIONARY
360
31D
102
}
330
2A
100
AcDbVisualStyle
  2
Sketchy
 70
    24
 71
     1
 72
     2
 73
     2
 90
        0
 40
0.6
 41
30.0
 62
     5
 63
     7
 74
     2
 91
        2
 64
     7
 65
     7
 75
     1
175
     1
 42
40.0
 92
       11
 66
     7
 43
1.0
 76
     1
 77
     6
 78
     2
 67
     7
 79
     6
170
     0
171
     0
290
     0
174
     0
 93
        1
 44
0.0
173
     0
291
     0
 45
0.0
1001
ACAD
1000
AcDbSavedByObjectVersion
1070
     0
  0
VISUALSTYLE
  5
37
102
{ACAD_REACTORS
330
2A
102
}
102
{ACAD_XDICTIONARY
360
30D
102
}
330
2A
100
AcDbVisualStyle
  2
Thicken
 70
    13
 71
     2
 72
     2
 73
     0
 90
        0
 40
0.6
 41
30.0
 62
     5
 63
     7
 74
     1
 91
        4
 64
     7
 65
   257
 75
     1
175
     1
 42
1.0
 92
       12
 66
     7
 43
1.0
 76
     1
 77
     6
 78
     2
 67
     7
 79
     5
170
     0
171
     0
290
     0
174
     0
 93
        1
 44
0.0
173
     0
291
     1
 45
0.0
1001
ACAD
1000
AcDbSavedByObjectVersion
1070
     0
  0
VISUALSTYLE
  5
30
102
{ACAD_REACTORS
330
2A
102
}
102
{ACAD_XDICTIONARY
360
2FF
102
}
330
2A
100
AcDbVisualStyle
  2
Wireframe
 70
     5
 71
     0
 72
     2
 73
     0
 90
        0
 40
0.6
 41
30.0
 62
     5
 63
     7
 74
     1
 91
        4
 64
     7
 65
   257
 75
     1
175
     1
 42
1.0
 92
        0
 66
   257
 43
1.0
 76
     1
 77
     6
 78
     2
 67
     7
 79
     3
170
     0
171
     0
290
     0
174
     0
 93
        1
 44
0.0
173
     0
291
     0
 45
0.0
1001
ACAD
1000
AcDbSavedByObjectVersion
1070
     0
  0
VISUALSTYLE
  5
40
102
{ACAD_REACTORS
330
2A
102
}
102
{ACAD_XDICTIONARY
360
31F
102
}
330
2A
100
AcDbVisualStyle
  2
X-Ray
 70
    25
 71
     2
 72
     2
 73
     1
 90
        1
 40
0.5
 41
30.0
 62
     5
 63
     7
 74
     1
 91
        0
 64
     7
 65
   257
 75
     1
175
     1
 42
1.0
 92
        8
 66
     7
 43
1.0
 76
     1
 77
     6
 78
     2
 67
     7
 79
     3
170
     0
171
     0
290
     0
174
     0
 93
       13
 44
0.0
173
     0
291
     0
 45
0.0
1001
ACAD
1000
AcDbSavedByObjectVersion
1070
     0
  0
DICTIONARYVAR
  5
2F3
102
{ACAD_REACTORS
330
2E8
102
}
330
2E8
100
DictionaryVariables
280
     0
  1
1:1
  0
DICTIONARYVAR
  5
2EA
102
{ACAD_REACTORS
330
2E8
102
}
330
2E8
100
DictionaryVariables
280
     0
  1
Standard
  0
DICTIONARYVAR
  5
2E9
102
{ACAD_REACTORS
330
2E8
102
}
330
2E8
100
DictionaryVariables
280
     0
  1
Standard
  0
DICTIONARYVAR
  5
2EF
102
{ACAD_REACTORS
330
2E8
102
}
330
2E8
100
DictionaryVariables
280
     0
  1
2
  0
DICTIONARYVAR
  5
2F0
102
{ACAD_REACTORS
330
2E8
102
}
330
2E8
100
DictionaryVariables
280
     0
  1
1
  0
DICTIONARYVAR
  5
2F4
102
{ACAD_REACTORS
330
2E8
102
}
330
2E8
100
DictionaryVariables
280
     0
  1
1
  0
DICTIONARYVAR
  5
2EC
102
{ACAD_REACTORS
330
2E8
102
}
330
2E8
100
DictionaryVariables
280
     0
  1
80.000000
  0
DICTIONARYVAR
  5
2EB
102
{ACAD_REACTORS
330
2E8
102
}
330
2E8
100
DictionaryVariables
280
     0
  1
5.000000
  0
DICTIONARY
  5
327
330
45
100
AcDbDictionary
280
     1
281
     1
  3
ACAD_XREC_ROUNDTRIP
360
328
  0
DICTIONARY
  5
325
330
44
100
AcDbDictionary
280
     1
281
     1
  3
ACAD_XREC_ROUNDTRIP
360
326
  0
DICTIONARY
  5
329
330
46
100
AcDbDictionary
280
     1
281
     1
  3
ACAD_XREC_ROUNDTRIP
360
32A
  0
DICTIONARY
  5
32C
330
6C
100
AcDbDictionary
280
     1
281
     1
  3
ACAD_XREC_ROUNDTRIP
360
32D
  0
DICTIONARY
  5
2FD
330
2F
100
AcDbDictionary
280
     1
281
     1
  3
ACAD_XREC_ROUNDTRIP
360
2FE
  0
DICTIONARY
  5
303
330
32
100
AcDbDictionary
280
     1
281
     1
  3
ACAD_XREC_ROUNDTRIP
360
304
  0
DICTIONARY
  5
30B
330
36
100
AcDbDictionary
280
     1
281
     1
  3
ACAD_XREC_ROUNDTRIP
360
30C
  0
DICTIONARY
  5
313
330
3A
100
AcDbDictionary
280
     1
281
     1
  3
ACAD_XREC_ROUNDTRIP
360
314
  0
DICTIONARY
  5
307
330
34
100
AcDbDictionary
280
     1
281
     1
  3
ACAD_XREC_ROUNDTRIP
360
308
  0
DICTIONARY
  5
309
330
35
100
AcDbDictionary
280
     1
281
     1
  3
ACAD_XREC_ROUNDTRIP
360
30A
  0
DICTIONARY
  5
319
330
3D
100
AcDbDictionary
280
     1
281
     1
  3
ACAD_XREC_ROUNDTRIP
360
31A
  0
DICTIONARY
  5
311
330
39
100
AcDbDictionary
280
     1
281
     1
  3
ACAD_XREC_ROUNDTRIP
360
312
  0
DICTIONARY
  5
2F5
330
2B
100
AcDbDictionary
280
     1
281
     1
  3
ACAD_XREC_ROUNDTRIP
360
2F6
  0
DICTIONARY
  5
2F7
330
2C
100
AcDbDictionary
280
     1
281
     1
  3
ACAD_XREC_ROUNDTRIP
360
2F8
  0
DICTIONARY
  5
2F9
330
2D
100
AcDbDictionary
280
     1
281
     1
  3
ACAD_XREC_ROUNDTRIP
360
2FA
  0
DICTIONARY
  5
2FB
330
2E
100
AcDbDictionary
280
     1
281
     1
  3
ACAD_XREC_ROUNDTRIP
360
2FC
  0
DICTIONARY
  5
301
330
31
100
AcDbDictionary
280
     1
281
     1
  3
ACAD_XREC_ROUNDTRIP
360
302
  0
DICTIONARY
  5
315
330
3B
100
AcDbDictionary
280
     1
281
     1
  3
ACAD_XREC_ROUNDTRIP
360
316
  0
DICTIONARY
  5
30F
330
38
100
AcDbDictionary
280
     1
281
     1
  3
ACAD_XREC_ROUNDTRIP
360
310
  0
DICTIONARY
  5
317
330
3C
100
AcDbDictionary
280
     1
281
     1
  3
ACAD_XREC_ROUNDTRIP
360
318
  0
DICTIONARY
  5
305
330
33
100
AcDbDictionary
280
     1
281
     1
  3
ACAD_XREC_ROUNDTRIP
360
306
  0
DICTIONARY
  5
323
330
42
100
AcDbDictionary
280
     1
281
     1
  3
ACAD_XREC_ROUNDTRIP
360
324
  0
DICTIONARY
  5
321
330
41
100
AcDbDictionary
280
     1
281
     1
  3
ACAD_XREC_ROUNDTRIP
360
322
  0
DICTIONARY
  5
31B
330
3E
100
AcDbDictionary
280
     1
281
     1
  3
ACAD_XREC_ROUNDTRIP
360
31C
  0
DICTIONARY
  5
31D
330
3F
100
AcDbDictionary
280
     1
281
     1
  3
ACAD_XREC_ROUNDTRIP
360
31E
  0
DICTIONARY
  5
30D
330
37
100
AcDbDictionary
280
     1
281
     1
  3
ACAD_XREC_ROUNDTRIP
360
30E
  0
DICTIONARY
  5
2FF
330
30
100
AcDbDictionary
280
     1
281
     1
  3
ACAD_XREC_ROUNDTRIP
360
300
  0
DICTIONARY
  5
31F
330
40
100
AcDbDictionary
280
     1
281
     1
  3
ACAD_XREC_ROUNDTRIP
360
320
  0
XRECORD
  5
328
102
{ACAD_REACTORS
330
327
102
}
330
327
100
AcDbXrecord
280
     1
102
MATERIAL
148
0.0
149
0.0
149
0.0
 93
        0
 94
      127
282
     0
 72
     1
 77
     1
171
     1
175
     1
179
     1
273
     0
  0
XRECORD
  5
326
102
{ACAD_REACTORS
330
325
102
}
330
325
100
AcDbXrecord
280
     1
102
MATERIAL
148
0.0
149
0.0
149
0.0
 93
        0
 94
      127
282
     0
 72
     1
 77
     1
171
     1
175
     1
179
     1
273
     0
  0
XRECORD
  5
32A
102
{ACAD_REACTORS
330
329
102
}
330
329
100
AcDbXrecord
280
     1
102
MATERIAL
148
0.0
149
0.0
149
0.0
 93
        0
 94
      127
282
     0
 72
     1
 77
     1
171
     1
175
     1
179
     1
273
     0
  0
XRECORD
  5
32D
102
{ACAD_REACTORS
330
32C
102
}
330
32C
100
AcDbXrecord
280
     1
102
ACAD_ROUNDTRIP_2010_MLEADER_STYLE
  0
XRECORD
  5
2FE
102
{ACAD_REACTORS
330
2FD
102
}
330
2FD
100
AcDbXrecord
280
     1
102
RTVSPropertyOp0
 70
     1
102
RTVSPropertyOp1
 70
     1
102
RTVSPropertyOp2
 70
     1
102
RTVSPropertyOp3
 70
     1
102
RTVSPropertyOp4
 70
     1
102
RTVSPropertyOp5
 70
     1
102
RTVSPropertyOp6
 70
     1
102
RTVSPropertyOp7
 70
     1
102
RTVSPropertyOp8
 70
     1
102
RTVSPropertyOp9
 70
     1
102
RTVSPropertyOp10
 70
     1
102
RTVSPropertyOp11
 70
     1
102
RTVSPropertyOp12
 70
     1
102
RTVSPropertyOp13
 70
     1
102
RTVSPropertyOp14
 70
     1
102
RTVSPropertyOp15
 70
     1
102
RTVSPropertyOp16
 70
     1
102
RTVSPropertyOp17
 70
     1
102
RTVSPropertyOp18
 70
     1
102
RTVSPropertyOp19
 70
     1
102
RTVSPropertyOp20
 70
     1
102
RTVSPropertyOp21
 70
     1
102
RTVSPropertyOp22
 70
     1
102
RTVSPropertyOp23
 70
     1
102
RTVSPropertyOp24
 70
     1
102
RTVSPropertyOp25
 70
     1
102
RTVSPropertyOp26
 70
     1
102
RTVSPropertyOp27
 70
     1
102
RTVSPropertyOp28
 70
     1
102
RTVSPropertyOp29
 70
     1
102
RTVSPropertyOp30
 70
     1
102
RTVSPropertyOp31
 70
     1
102
RTVSPropertyOp32
 70
     1
102
RTVSPropertyOp33
 70
     1
102
RTVSPropertyOp34
 70
     1
102
RTVSPropertyOp35
 70
     1
102
RTVSPropertyOp36
 70
     1
102
RTVSPropertyOp37
 70
     1
102
RTVSPropertyOp38
 70
     1
102
RTVSPropertyOp39
 70
     1
102
RTVSPropertyOp40
 70
     1
102
RTVSPropertyOp41
 70
     1
102
RTVSPropertyOp42
 70
     1
102
RTVSPropertyOp43
 70
     1
102
RTVSPropertyOp44
 70
     1
102
RTVSPropertyOp45
 70
     1
102
RTVSPropertyOp46
 70
     1
102
RTVSPropertyOp47
 70
     1
102
RTVSPropertyOp48
 70
     1
102
RTVSPropertyOp49
 70
     1
102
RTVSPropertyOp50
 70
     1
102
RTVSPropertyOp51
 70
     0
102
RTVSPropertyOp52
 70
     0
102
RTVSPropertyOp53
 70
     1
102
RTVSPropertyOp54
 70
     1
102
RTVSPropertyOp55
 70
     1
102
RTVSPropertyOp56
 70
     1
102
RTVSPropertyOp57
 70
     1
102
RTVSPost2010Prop28
280
     1
102
RTVSPost2010PropOp28
 70
     1
102
RTVSPost2010Prop29
280
     1
102
RTVSPost2010PropOp29
 70
     1
102
RTVSPost2010Prop30
280
     0
102
RTVSPost2010PropOp30
 70
     1
102
RTVSPost2010Prop31
280
     0
102
RTVSPost2010PropOp31
 70
     1
102
RTVSPost2010Prop32
280
     0
102
RTVSPost2010PropOp32
 70
     1
102
RTVSPost2010Prop33
280
     0
102
RTVSPost2010PropOp33
 70
     1
102
RTVSPost2010Prop34
280
     0
102
RTVSPost2010PropOp34
 70
     1
102
RTVSPost2010Prop35
280
     0
102
RTVSPost2010PropOp35
 70
     1
102
RTVSPost2010Prop36
280
     0
102
RTVSPost2010PropOp36
 70
     1
102
RTVSPost2010Prop37
 90
       50
102
RTVSPost2010PropOp37
 70
     1
102
RTVSPost2010Prop38
140
0.0
102
RTVSPost2010PropOp38
 70
     1
102
RTVSPost2010Prop39
140
1.0
102
RTVSPost2010PropOp39
 70
     1
102
RTVSPost2010Prop40
 90
        0
102
RTVSPost2010PropOp40
 70
     1
102
RTVSPost2010Prop41ColorIndex
 90
       18
102
RTVSPost2010Prop41ColorRGB
 90
        0
102
RTVSPost2010PropOp41
 70
     1
102
RTVSPost2010Prop42
 90
       50
102
RTVSPost2010PropOp42
 70
     1
102
RTVSPost2010Prop43
 90
        3
102
RTVSPost2010PropOp43
 70
     1
102
RTVSPost2010Prop44ColorIndex
 90
        5
102
RTVSPost2010Prop44ColorRGB
 90
      255
102
RTVSPost2010PropOp44
 70
     1
102
RTVSPost2010Prop45
280
     0
102
RTVSPost2010PropOp45
 70
     1
102
RTVSPost2010Prop46
 90
       50
102
RTVSPost2010PropOp46
 70
     1
102
RTVSPost2010Prop47
 90
       50
102
RTVSPost2010PropOp47
 70
     1
102
RTVSPost2010Prop48
 90
       50
102
RTVSPost2010PropOp48
 70
     1
102
RTVSPost2010Prop49
280
     0
102
RTVSPost2010PropOp49
 70
     1
102
RTVSPost2010Prop50
 90
       50
102
RTVSPost2010PropOp50
 70
     1
102
RTVSPost2010Prop51ColorIndex
 90
      256
102
RTVSPost2010Prop51ColorRGB
 90
-16777216
102
RTVSPost2010PropOp51
 70
     0
102
RTVSPost2010Prop52
140
1.0
102
RTVSPost2010PropOp52
 70
     0
102
RTVSPost2010Prop53
 90
        2
102
RTVSPost2010PropOp53
 70
     1
102
RTVSPost2010Prop54
  1
strokes_ogs.tif
102
RTVSPost2010PropOp54
 70
     1
102
RTVSPost2010Prop55
280
     0
102
RTVSPost2010PropOp55
 70
     1
102
RTVSPost2010Prop56
140
1.0
102
RTVSPost2010PropOp56
 70
     1
102
RTVSPost2010Prop57
140
1.0
102
RTVSPost2010PropOp57
 70
     1
  0
XRECORD
  5
304
102
{ACAD_REACTORS
330
303
102
}
330
303
100
AcDbXrecord
280
     1
102
RTVSPropertyOp0
 70
     1
102
RTVSPropertyOp1
 70
     1
102
RTVSPropertyOp2
 70
     1
102
RTVSPropertyOp3
 70
     1
102
RTVSPropertyOp4
 70
     1
102
RTVSPropertyOp5
 70
     1
102
RTVSPropertyOp6
 70
     1
102
RTVSPropertyOp7
 70
     1
102
RTVSPropertyOp8
 70
     1
102
RTVSPropertyOp9
 70
     1
102
RTVSPropertyOp10
 70
     1
102
RTVSPropertyOp11
 70
     1
102
RTVSPropertyOp12
 70
     1
102
RTVSPropertyOp13
 70
     1
102
RTVSPropertyOp14
 70
     1
102
RTVSPropertyOp15
 70
     1
102
RTVSPropertyOp16
 70
     1
102
RTVSPropertyOp17
 70
     1
102
RTVSPropertyOp18
 70
     1
102
RTVSPropertyOp19
 70
     1
102
RTVSPropertyOp20
 70
     1
102
RTVSPropertyOp21
 70
     1
102
RTVSPropertyOp22
 70
     1
102
RTVSPropertyOp23
 70
     1
102
RTVSPropertyOp24
 70
     1
102
RTVSPropertyOp25
 70
     1
102
RTVSPropertyOp26
 70
     1
102
RTVSPropertyOp27
 70
     1
102
RTVSPropertyOp28
 70
     1
102
RTVSPropertyOp29
 70
     1
102
RTVSPropertyOp30
 70
     1
102
RTVSPropertyOp31
 70
     1
102
RTVSPropertyOp32
 70
     1
102
RTVSPropertyOp33
 70
     1
102
RTVSPropertyOp34
 70
     1
102
RTVSPropertyOp35
 70
     1
102
RTVSPropertyOp36
 70
     1
102
RTVSPropertyOp37
 70
     1
102
RTVSPropertyOp38
 70
     1
102
RTVSPropertyOp39
 70
     1
102
RTVSPropertyOp40
 70
     1
102
RTVSPropertyOp41
 70
     1
102
RTVSPropertyOp42
 70
     1
102
RTVSPropertyOp43
 70
     1
102
RTVSPropertyOp44
 70
     1
102
RTVSPropertyOp45
 70
     1
102
RTVSPropertyOp46
 70
     1
102
RTVSPropertyOp47
 70
     1
102
RTVSPropertyOp48
 70
     1
102
RTVSPropertyOp49
 70
     1
102
RTVSPropertyOp50
 70
     1
102
RTVSPropertyOp51
 70
     0
102
RTVSPropertyOp52
 70
     0
102
RTVSPropertyOp53
 70
     1
102
RTVSPropertyOp54
 70
     1
102
RTVSPropertyOp55
 70
     1
102
RTVSPropertyOp56
 70
     1
102
RTVSPropertyOp57
 70
     1
102
RTVSPost2010Prop28
280
     0
102
RTVSPost2010PropOp28
 70
     1
102
RTVSPost2010Prop29
280
     1
102
RTVSPost2010PropOp29
 70
     1
102
RTVSPost2010Prop30
280
     1
102
RTVSPost2010PropOp30
 70
     1
102
RTVSPost2010Prop31
280
     0
102
RTVSPost2010PropOp31
 70
     1
102
RTVSPost2010Prop32
280
     0
102
RTVSPost2010PropOp32
 70
     1
102
RTVSPost2010Prop33
280
     0
102
RTVSPost2010PropOp33
 70
     1
102
RTVSPost2010Prop34
280
     0
102
RTVSPost2010PropOp34
 70
     1
102
RTVSPost2010Prop35
280
     0
102
RTVSPost2010PropOp35
 70
     1
102
RTVSPost2010Prop36
280
     0
102
RTVSPost2010PropOp36
 70
     1
102
RTVSPost2010Prop37
 90
       50
102
RTVSPost2010PropOp37
 70
     1
102
RTVSPost2010Prop38
140
0.0
102
RTVSPost2010PropOp38
 70
     1
102
RTVSPost2010Prop39
140
1.0
102
RTVSPost2010PropOp39
 70
     1
102
RTVSPost2010Prop40
 90
        0
102
RTVSPost2010PropOp40
 70
     1
102
RTVSPost2010Prop41ColorIndex
 90
       18
102
RTVSPost2010Prop41ColorRGB
 90
        0
102
RTVSPost2010PropOp41
 70
     1
102
RTVSPost2010Prop42
 90
       50
102
RTVSPost2010PropOp42
 70
     1
102
RTVSPost2010Prop43
 90
        3
102
RTVSPost2010PropOp43
 70
     1
102
RTVSPost2010Prop44ColorIndex
 90
        5
102
RTVSPost2010Prop44ColorRGB
 90
      255
102
RTVSPost2010PropOp44
 70
     1
102
RTVSPost2010Prop45
280
     0
102
RTVSPost2010PropOp45
 70
     1
102
RTVSPost2010Prop46
 90
       50
102
RTVSPost2010PropOp46
 70
     1
102
RTVSPost2010Prop47
 90
       50
102
RTVSPost2010PropOp47
 70
     1
102
RTVSPost2010Prop48
 90
       50
102
RTVSPost2010PropOp48
 70
     1
102
RTVSPost2010Prop49
280
     0
102
RTVSPost2010PropOp49
 70
     1
102
RTVSPost2010Prop50
 90
       50
102
RTVSPost2010PropOp50
 70
     1
102
RTVSPost2010Prop51ColorIndex
 90
      256
102
RTVSPost2010Prop51ColorRGB
 90
-16777216
102
RTVSPost2010PropOp51
 70
     0
102
RTVSPost2010Prop52
140
1.0
102
RTVSPost2010PropOp52
 70
     0
102
RTVSPost2010Prop53
 90
        2
102
RTVSPost2010PropOp53
 70
     1
102
RTVSPost2010Prop54
  1
strokes_ogs.tif
102
RTVSPost2010PropOp54
 70
     1
102
RTVSPost2010Prop55
280
     0
102
RTVSPost2010PropOp55
 70
     1
102
RTVSPost2010Prop56
140
1.0
102
RTVSPost2010PropOp56
 70
     1
102
RTVSPost2010Prop57
140
1.0
102
RTVSPost2010PropOp57
 70
     1
  0
XRECORD
  5
30C
102
{ACAD_REACTORS
330
30B
102
}
330
30B
100
AcDbXrecord
280
     1
102
RTVSPropertyOp0
 70
     1
102
RTVSPropertyOp1
 70
     1
102
RTVSPropertyOp2
 70
     1
102
RTVSPropertyOp3
 70
     1
102
RTVSPropertyOp4
 70
     1
102
RTVSPropertyOp5
 70
     1
102
RTVSPropertyOp6
 70
     1
102
RTVSPropertyOp7
 70
     1
102
RTVSPropertyOp8
 70
     1
102
RTVSPropertyOp9
 70
     1
102
RTVSPropertyOp10
 70
     1
102
RTVSPropertyOp11
 70
     1
102
RTVSPropertyOp12
 70
     1
102
RTVSPropertyOp13
 70
     1
102
RTVSPropertyOp14
 70
     1
102
RTVSPropertyOp15
 70
     1
102
RTVSPropertyOp16
 70
     1
102
RTVSPropertyOp17
 70
     1
102
RTVSPropertyOp18
 70
     1
102
RTVSPropertyOp19
 70
     1
102
RTVSPropertyOp20
 70
     1
102
RTVSPropertyOp21
 70
     1
102
RTVSPropertyOp22
 70
     1
102
RTVSPropertyOp23
 70
     1
102
RTVSPropertyOp24
 70
     1
102
RTVSPropertyOp25
 70
     1
102
RTVSPropertyOp26
 70
     1
102
RTVSPropertyOp27
 70
     1
102
RTVSPropertyOp28
 70
     1
102
RTVSPropertyOp29
 70
     1
102
RTVSPropertyOp30
 70
     1
102
RTVSPropertyOp31
 70
     1
102
RTVSPropertyOp32
 70
     1
102
RTVSPropertyOp33
 70
     1
102
RTVSPropertyOp34
 70
     1
102
RTVSPropertyOp35
 70
     1
102
RTVSPropertyOp36
 70
     1
102
RTVSPropertyOp37
 70
     1
102
RTVSPropertyOp38
 70
     1
102
RTVSPropertyOp39
 70
     1
102
RTVSPropertyOp40
 70
     1
102
RTVSPropertyOp41
 70
     1
102
RTVSPropertyOp42
 70
     1
102
RTVSPropertyOp43
 70
     1
102
RTVSPropertyOp44
 70
     1
102
RTVSPropertyOp45
 70
     1
102
RTVSPropertyOp46
 70
     1
102
RTVSPropertyOp47
 70
     1
102
RTVSPropertyOp48
 70
     1
102
RTVSPropertyOp49
 70
     1
102
RTVSPropertyOp50
 70
     1
102
RTVSPropertyOp51
 70
     0
102
RTVSPropertyOp52
 70
     0
102
RTVSPropertyOp53
 70
     1
102
RTVSPropertyOp54
 70
     1
102
RTVSPropertyOp55
 70
     1
102
RTVSPropertyOp56
 70
     1
102
RTVSPropertyOp57
 70
     1
102
RTVSPost2010Prop28
280
     0
102
RTVSPost2010PropOp28
 70
     1
102
RTVSPost2010Prop29
280
     1
102
RTVSPost2010PropOp29
 70
     1
102
RTVSPost2010Prop30
280
     1
102
RTVSPost2010PropOp30
 70
     1
102
RTVSPost2010Prop31
280
     0
102
RTVSPost2010PropOp31
 70
     1
102
RTVSPost2010Prop32
280
     0
102
RTVSPost2010PropOp32
 70
     1
102
RTVSPost2010Prop33
280
     0
102
RTVSPost2010PropOp33
 70
     1
102
RTVSPost2010Prop34
280
     0
102
RTVSPost2010PropOp34
 70
     1
102
RTVSPost2010Prop35
280
     0
102
RTVSPost2010PropOp35
 70
     1
102
RTVSPost2010Prop36
280
     0
102
RTVSPost2010PropOp36
 70
     1
102
RTVSPost2010Prop37
 90
       50
102
RTVSPost2010PropOp37
 70
     1
102
RTVSPost2010Prop38
140
0.0
102
RTVSPost2010PropOp38
 70
     1
102
RTVSPost2010Prop39
140
1.0
102
RTVSPost2010PropOp39
 70
     1
102
RTVSPost2010Prop40
 90
        0
102
RTVSPost2010PropOp40
 70
     1
102
RTVSPost2010Prop41ColorIndex
 90
       18
102
RTVSPost2010Prop41ColorRGB
 90
        0
102
RTVSPost2010PropOp41
 70
     1
102
RTVSPost2010Prop42
 90
       50
102
RTVSPost2010PropOp42
 70
     1
102
RTVSPost2010Prop43
 90
        3
102
RTVSPost2010PropOp43
 70
     1
102
RTVSPost2010Prop44ColorIndex
 90
        5
102
RTVSPost2010Prop44ColorRGB
 90
      255
102
RTVSPost2010PropOp44
 70
     1
102
RTVSPost2010Prop45
280
     0
102
RTVSPost2010PropOp45
 70
     1
102
RTVSPost2010Prop46
 90
       50
102
RTVSPost2010PropOp46
 70
     1
102
RTVSPost2010Prop47
 90
       50
102
RTVSPost2010PropOp47
 70
     1
102
RTVSPost2010Prop48
 90
       50
102
RTVSPost2010PropOp48
 70
     1
102
RTVSPost2010Prop49
280
     0
102
RTVSPost2010PropOp49
 70
     1
102
RTVSPost2010Prop50
 90
       50
102
RTVSPost2010PropOp50
 70
     1
102
RTVSPost2010Prop51ColorIndex
 90
      256
102
RTVSPost2010Prop51ColorRGB
 90
-16777216
102
RTVSPost2010PropOp51
 70
     0
102
RTVSPost2010Prop52
140
1.0
102
RTVSPost2010PropOp52
 70
     0
102
RTVSPost2010Prop53
 90
        2
102
RTVSPost2010PropOp53
 70
     1
102
RTVSPost2010Prop54
  1
strokes_ogs.tif
102
RTVSPost2010PropOp54
 70
     1
102
RTVSPost2010Prop55
280
     0
102
RTVSPost2010PropOp55
 70
     1
102
RTVSPost2010Prop56
140
1.0
102
RTVSPost2010PropOp56
 70
     1
102
RTVSPost2010Prop57
140
1.0
102
RTVSPost2010PropOp57
 70
     1
  0
XRECORD
  5
314
102
{ACAD_REACTORS
330
313
102
}
330
313
100
AcDbXrecord
280
     1
102
RTVSPropertyOp0
 70
     1
102
RTVSPropertyOp1
 70
     1
102
RTVSPropertyOp2
 70
     1
102
RTVSPropertyOp3
 70
     1
102
RTVSPropertyOp4
 70
     1
102
RTVSPropertyOp5
 70
     1
102
RTVSPropertyOp6
 70
     1
102
RTVSPropertyOp7
 70
     1
102
RTVSPropertyOp8
 70
     1
102
RTVSPropertyOp9
 70
     1
102
RTVSPropertyOp10
 70
     1
102
RTVSPropertyOp11
 70
     1
102
RTVSPropertyOp12
 70
     1
102
RTVSPropertyOp13
 70
     1
102
RTVSPropertyOp14
 70
     1
102
RTVSPropertyOp15
 70
     1
102
RTVSPropertyOp16
 70
     1
102
RTVSPropertyOp17
 70
     1
102
RTVSPropertyOp18
 70
     1
102
RTVSPropertyOp19
 70
     1
102
RTVSPropertyOp20
 70
     1
102
RTVSPropertyOp21
 70
     1
102
RTVSPropertyOp22
 70
     1
102
RTVSPropertyOp23
 70
     1
102
RTVSPropertyOp24
 70
     1
102
RTVSPropertyOp25
 70
     1
102
RTVSPropertyOp26
 70
     1
102
RTVSPropertyOp27
 70
     1
102
RTVSPropertyOp28
 70
     1
102
RTVSPropertyOp29
 70
     1
102
RTVSPropertyOp30
 70
     1
102
RTVSPropertyOp31
 70
     1
102
RTVSPropertyOp32
 70
     1
102
RTVSPropertyOp33
 70
     1
102
RTVSPropertyOp34
 70
     1
102
RTVSPropertyOp35
 70
     1
102
RTVSPropertyOp36
 70
     1
102
RTVSPropertyOp37
 70
     1
102
RTVSPropertyOp38
 70
     1
102
RTVSPropertyOp39
 70
     1
102
RTVSPropertyOp40
 70
     1
102
RTVSPropertyOp41
 70
     1
102
RTVSPropertyOp42
 70
     1
102
RTVSPropertyOp43
 70
     1
102
RTVSPropertyOp44
 70
     1
102
RTVSPropertyOp45
 70
     1
102
RTVSPropertyOp46
 70
     1
102
RTVSPropertyOp47
 70
     1
102
RTVSPropertyOp48
 70
     1
102
RTVSPropertyOp49
 70
     1
102
RTVSPropertyOp50
 70
     1
102
RTVSPropertyOp51
 70
     0
102
RTVSPropertyOp52
 70
     0
102
RTVSPropertyOp53
 70
     1
102
RTVSPropertyOp54
 70
     1
102
RTVSPropertyOp55
 70
     1
102
RTVSPropertyOp56
 70
     1
102
RTVSPropertyOp57
 70
     1
102
RTVSPost2010Prop28
280
     0
102
RTVSPost2010PropOp28
 70
     1
102
RTVSPost2010Prop29
280
     1
102
RTVSPost2010PropOp29
 70
     1
102
RTVSPost2010Prop30
280
     1
102
RTVSPost2010PropOp30
 70
     1
102
RTVSPost2010Prop31
280
     0
102
RTVSPost2010PropOp31
 70
     1
102
RTVSPost2010Prop32
280
     0
102
RTVSPost2010PropOp32
 70
     1
102
RTVSPost2010Prop33
280
     0
102
RTVSPost2010PropOp33
 70
     1
102
RTVSPost2010Prop34
280
     0
102
RTVSPost2010PropOp34
 70
     1
102
RTVSPost2010Prop35
280
     0
102
RTVSPost2010PropOp35
 70
     1
102
RTVSPost2010Prop36
280
     0
102
RTVSPost2010PropOp36
 70
     1
102
RTVSPost2010Prop37
 90
       50
102
RTVSPost2010PropOp37
 70
     1
102
RTVSPost2010Prop38
140
0.0
102
RTVSPost2010PropOp38
 70
     1
102
RTVSPost2010Prop39
140
1.0
102
RTVSPost2010PropOp39
 70
     1
102
RTVSPost2010Prop40
 90
        0
102
RTVSPost2010PropOp40
 70
     1
102
RTVSPost2010Prop41ColorIndex
 90
       18
102
RTVSPost2010Prop41ColorRGB
 90
        0
102
RTVSPost2010PropOp41
 70
     1
102
RTVSPost2010Prop42
 90
       50
102
RTVSPost2010PropOp42
 70
     1
102
RTVSPost2010Prop43
 90
        3
102
RTVSPost2010PropOp43
 70
     1
102
RTVSPost2010Prop44ColorIndex
 90
        5
102
RTVSPost2010Prop44ColorRGB
 90
      255
102
RTVSPost2010PropOp44
 70
     1
102
RTVSPost2010Prop45
280
     0
102
RTVSPost2010PropOp45
 70
     1
102
RTVSPost2010Prop46
 90
       50
102
RTVSPost2010PropOp46
 70
     1
102
RTVSPost2010Prop47
 90
       50
102
RTVSPost2010PropOp47
 70
     1
102
RTVSPost2010Prop48
 90
       50
102
RTVSPost2010PropOp48
 70
     1
102
RTVSPost2010Prop49
280
     0
102
RTVSPost2010PropOp49
 70
     1
102
RTVSPost2010Prop50
 90
       50
102
RTVSPost2010PropOp50
 70
     1
102
RTVSPost2010Prop51ColorIndex
 90
      256
102
RTVSPost2010Prop51ColorRGB
 90
-16777216
102
RTVSPost2010PropOp51
 70
     0
102
RTVSPost2010Prop52
140
1.0
102
RTVSPost2010PropOp52
 70
     0
102
RTVSPost2010Prop53
 90
        2
102
RTVSPost2010PropOp53
 70
     1
102
RTVSPost2010Prop54
  1
strokes_ogs.tif
102
RTVSPost2010PropOp54
 70
     1
102
RTVSPost2010Prop55
280
     0
102
RTVSPost2010PropOp55
 70
     1
102
RTVSPost2010Prop56
140
1.0
102
RTVSPost2010PropOp56
 70
     1
102
RTVSPost2010Prop57
140
1.0
102
RTVSPost2010PropOp57
 70
     1
  0
XRECORD
  5
308
102
{ACAD_REACTORS
330
307
102
}
330
307
100
AcDbXrecord
280
     1
102
RTVSPropertyOp0
 70
     1
102
RTVSPropertyOp1
 70
     1
102
RTVSPropertyOp2
 70
     1
102
RTVSPropertyOp3
 70
     1
102
RTVSPropertyOp4
 70
     1
102
RTVSPropertyOp5
 70
     1
102
RTVSPropertyOp6
 70
     1
102
RTVSPropertyOp7
 70
     1
102
RTVSPropertyOp8
 70
     1
102
RTVSPropertyOp9
 70
     1
102
RTVSPropertyOp10
 70
     1
102
RTVSPropertyOp11
 70
     1
102
RTVSPropertyOp12
 70
     1
102
RTVSPropertyOp13
 70
     1
102
RTVSPropertyOp14
 70
     1
102
RTVSPropertyOp15
 70
     1
102
RTVSPropertyOp16
 70
     1
102
RTVSPropertyOp17
 70
     1
102
RTVSPropertyOp18
 70
     1
102
RTVSPropertyOp19
 70
     1
102
RTVSPropertyOp20
 70
     1
102
RTVSPropertyOp21
 70
     1
102
RTVSPropertyOp22
 70
     1
102
RTVSPropertyOp23
 70
     1
102
RTVSPropertyOp24
 70
     1
102
RTVSPropertyOp25
 70
     1
102
RTVSPropertyOp26
 70
     1
102
RTVSPropertyOp27
 70
     1
102
RTVSPropertyOp28
 70
     1
102
RTVSPropertyOp29
 70
     1
102
RTVSPropertyOp30
 70
     1
102
RTVSPropertyOp31
 70
     1
102
RTVSPropertyOp32
 70
     1
102
RTVSPropertyOp33
 70
     1
102
RTVSPropertyOp34
 70
     1
102
RTVSPropertyOp35
 70
     1
102
RTVSPropertyOp36
 70
     1
102
RTVSPropertyOp37
 70
     1
102
RTVSPropertyOp38
 70
     1
102
RTVSPropertyOp39
 70
     1
102
RTVSPropertyOp40
 70
     1
102
RTVSPropertyOp41
 70
     1
102
RTVSPropertyOp42
 70
     1
102
RTVSPropertyOp43
 70
     1
102
RTVSPropertyOp44
 70
     1
102
RTVSPropertyOp45
 70
     1
102
RTVSPropertyOp46
 70
     1
102
RTVSPropertyOp47
 70
     1
102
RTVSPropertyOp48
 70
     1
102
RTVSPropertyOp49
 70
     1
102
RTVSPropertyOp50
 70
     1
102
RTVSPropertyOp51
 70
     0
102
RTVSPropertyOp52
 70
     0
102
RTVSPropertyOp53
 70
     1
102
RTVSPropertyOp54
 70
     1
102
RTVSPropertyOp55
 70
     1
102
RTVSPropertyOp56
 70
     1
102
RTVSPropertyOp57
 70
     1
102
RTVSPost2010Prop28
280
     0
102
RTVSPost2010PropOp28
 70
     1
102
RTVSPost2010Prop29
280
     1
102
RTVSPost2010PropOp29
 70
     1
102
RTVSPost2010Prop30
280
     1
102
RTVSPost2010PropOp30
 70
     1
102
RTVSPost2010Prop31
280
     0
102
RTVSPost2010PropOp31
 70
     1
102
RTVSPost2010Prop32
280
     0
102
RTVSPost2010PropOp32
 70
     1
102
RTVSPost2010Prop33
280
     0
102
RTVSPost2010PropOp33
 70
     1
102
RTVSPost2010Prop34
280
     0
102
RTVSPost2010PropOp34
 70
     1
102
RTVSPost2010Prop35
280
     0
102
RTVSPost2010PropOp35
 70
     1
102
RTVSPost2010Prop36
280
     0
102
RTVSPost2010PropOp36
 70
     1
102
RTVSPost2010Prop37
 90
       50
102
RTVSPost2010PropOp37
 70
     1
102
RTVSPost2010Prop38
140
0.0
102
RTVSPost2010PropOp38
 70
     1
102
RTVSPost2010Prop39
140
1.0
102
RTVSPost2010PropOp39
 70
     1
102
RTVSPost2010Prop40
 90
        0
102
RTVSPost2010PropOp40
 70
     1
102
RTVSPost2010Prop41ColorIndex
 90
       18
102
RTVSPost2010Prop41ColorRGB
 90
        0
102
RTVSPost2010PropOp41
 70
     1
102
RTVSPost2010Prop42
 90
       50
102
RTVSPost2010PropOp42
 70
     1
102
RTVSPost2010Prop43
 90
        3
102
RTVSPost2010PropOp43
 70
     1
102
RTVSPost2010Prop44ColorIndex
 90
        5
102
RTVSPost2010Prop44ColorRGB
 90
      255
102
RTVSPost2010PropOp44
 70
     1
102
RTVSPost2010Prop45
280
     0
102
RTVSPost2010PropOp45
 70
     1
102
RTVSPost2010Prop46
 90
       50
102
RTVSPost2010PropOp46
 70
     1
102
RTVSPost2010Prop47
 90
       50
102
RTVSPost2010PropOp47
 70
     1
102
RTVSPost2010Prop48
 90
       50
102
RTVSPost2010PropOp48
 70
     1
102
RTVSPost2010Prop49
280
     0
102
RTVSPost2010PropOp49
 70
     1
102
RTVSPost2010Prop50
 90
       50
102
RTVSPost2010PropOp50
 70
     1
102
RTVSPost2010Prop51ColorIndex
 90
      256
102
RTVSPost2010Prop51ColorRGB
 90
-16777216
102
RTVSPost2010PropOp51
 70
     0
102
RTVSPost2010Prop52
140
1.0
102
RTVSPost2010PropOp52
 70
     0
102
RTVSPost2010Prop53
 90
        2
102
RTVSPost2010PropOp53
 70
     1
102
RTVSPost2010Prop54
  1
strokes_ogs.tif
102
RTVSPost2010PropOp54
 70
     1
102
RTVSPost2010Prop55
280
     0
102
RTVSPost2010PropOp55
 70
     1
102
RTVSPost2010Prop56
140
1.0
102
RTVSPost2010PropOp56
 70
     1
102
RTVSPost2010Prop57
140
1.0
102
RTVSPost2010PropOp57
 70
     1
  0
XRECORD
  5
30A
102
{ACAD_REACTORS
330
309
102
}
330
309
100
AcDbXrecord
280
     1
102
RTVSPropertyOp0
 70
     1
102
RTVSPropertyOp1
 70
     1
102
RTVSPropertyOp2
 70
     1
102
RTVSPropertyOp3
 70
     1
102
RTVSPropertyOp4
 70
     1
102
RTVSPropertyOp5
 70
     1
102
RTVSPropertyOp6
 70
     1
102
RTVSPropertyOp7
 70
     1
102
RTVSPropertyOp8
 70
     1
102
RTVSPropertyOp9
 70
     1
102
RTVSPropertyOp10
 70
     1
102
RTVSPropertyOp11
 70
     1
102
RTVSPropertyOp12
 70
     1
102
RTVSPropertyOp13
 70
     1
102
RTVSPropertyOp14
 70
     1
102
RTVSPropertyOp15
 70
     1
102
RTVSPropertyOp16
 70
     1
102
RTVSPropertyOp17
 70
     1
102
RTVSPropertyOp18
 70
     1
102
RTVSPropertyOp19
 70
     1
102
RTVSPropertyOp20
 70
     1
102
RTVSPropertyOp21
 70
     1
102
RTVSPropertyOp22
 70
     1
102
RTVSPropertyOp23
 70
     1
102
RTVSPropertyOp24
 70
     1
102
RTVSPropertyOp25
 70
     1
102
RTVSPropertyOp26
 70
     1
102
RTVSPropertyOp27
 70
     1
102
RTVSPropertyOp28
 70
     1
102
RTVSPropertyOp29
 70
     1
102
RTVSPropertyOp30
 70
     1
102
RTVSPropertyOp31
 70
     1
102
RTVSPropertyOp32
 70
     1
102
RTVSPropertyOp33
 70
     1
102
RTVSPropertyOp34
 70
     1
102
RTVSPropertyOp35
 70
     1
102
RTVSPropertyOp36
 70
     1
102
RTVSPropertyOp37
 70
     1
102
RTVSPropertyOp38
 70
     1
102
RTVSPropertyOp39
 70
     1
102
RTVSPropertyOp40
 70
     1
102
RTVSPropertyOp41
 70
     1
102
RTVSPropertyOp42
 70
     1
102
RTVSPropertyOp43
 70
     1
102
RTVSPropertyOp44
 70
     1
102
RTVSPropertyOp45
 70
     1
102
RTVSPropertyOp46
 70
     1
102
RTVSPropertyOp47
 70
     1
102
RTVSPropertyOp48
 70
     1
102
RTVSPropertyOp49
 70
     1
102
RTVSPropertyOp50
 70
     1
102
RTVSPropertyOp51
 70
     0
102
RTVSPropertyOp52
 70
     0
102
RTVSPropertyOp53
 70
     1
102
RTVSPropertyOp54
 70
     1
102
RTVSPropertyOp55
 70
     1
102
RTVSPropertyOp56
 70
     1
102
RTVSPropertyOp57
 70
     1
102
RTVSPost2010Prop28
280
     0
102
RTVSPost2010PropOp28
 70
     1
102
RTVSPost2010Prop29
280
     1
102
RTVSPost2010PropOp29
 70
     1
102
RTVSPost2010Prop30
280
     1
102
RTVSPost2010PropOp30
 70
     1
102
RTVSPost2010Prop31
280
     0
102
RTVSPost2010PropOp31
 70
     1
102
RTVSPost2010Prop32
280
     0
102
RTVSPost2010PropOp32
 70
     1
102
RTVSPost2010Prop33
280
     0
102
RTVSPost2010PropOp33
 70
     1
102
RTVSPost2010Prop34
280
     0
102
RTVSPost2010PropOp34
 70
     1
102
RTVSPost2010Prop35
280
     0
102
RTVSPost2010PropOp35
 70
     1
102
RTVSPost2010Prop36
280
     0
102
RTVSPost2010PropOp36
 70
     1
102
RTVSPost2010Prop37
 90
       50
102
RTVSPost2010PropOp37
 70
     1
102
RTVSPost2010Prop38
140
0.0
102
RTVSPost2010PropOp38
 70
     1
102
RTVSPost2010Prop39
140
1.0
102
RTVSPost2010PropOp39
 70
     1
102
RTVSPost2010Prop40
 90
        0
102
RTVSPost2010PropOp40
 70
     1
102
RTVSPost2010Prop41ColorIndex
 90
       18
102
RTVSPost2010Prop41ColorRGB
 90
        0
102
RTVSPost2010PropOp41
 70
     1
102
RTVSPost2010Prop42
 90
       50
102
RTVSPost2010PropOp42
 70
     1
102
RTVSPost2010Prop43
 90
        3
102
RTVSPost2010PropOp43
 70
     1
102
RTVSPost2010Prop44ColorIndex
 90
        5
102
RTVSPost2010Prop44ColorRGB
 90
      255
102
RTVSPost2010PropOp44
 70
     1
102
RTVSPost2010Prop45
280
     0
102
RTVSPost2010PropOp45
 70
     1
102
RTVSPost2010Prop46
 90
       50
102
RTVSPost2010PropOp46
 70
     1
102
RTVSPost2010Prop47
 90
       50
102
RTVSPost2010PropOp47
 70
     1
102
RTVSPost2010Prop48
 90
       50
102
RTVSPost2010PropOp48
 70
     1
102
RTVSPost2010Prop49
280
     0
102
RTVSPost2010PropOp49
 70
     1
102
RTVSPost2010Prop50
 90
       50
102
RTVSPost2010PropOp50
 70
     1
102
RTVSPost2010Prop51ColorIndex
 90
      256
102
RTVSPost2010Prop51ColorRGB
 90
-16777216
102
RTVSPost2010PropOp51
 70
     0
102
RTVSPost2010Prop52
140
1.0
102
RTVSPost2010PropOp52
 70
     0
102
RTVSPost2010Prop53
 90
        2
102
RTVSPost2010PropOp53
 70
     1
102
RTVSPost2010Prop54
  1
strokes_ogs.tif
102
RTVSPost2010PropOp54
 70
     1
102
RTVSPost2010Prop55
280
     0
102
RTVSPost2010PropOp55
 70
     1
102
RTVSPost2010Prop56
140
1.0
102
RTVSPost2010PropOp56
 70
     1
102
RTVSPost2010Prop57
140
1.0
102
RTVSPost2010PropOp57
 70
     1
  0
XRECORD
  5
31A
102
{ACAD_REACTORS
330
319
102
}
330
319
100
AcDbXrecord
280
     1
102
RTVSPropertyOp0
 70
     0
102
RTVSPropertyOp1
 70
     0
102
RTVSPropertyOp2
 70
     0
102
RTVSPropertyOp3
 70
     0
102
RTVSPropertyOp4
 70
     0
102
RTVSPropertyOp5
 70
     0
102
RTVSPropertyOp6
 70
     0
102
RTVSPropertyOp7
 70
     0
102
RTVSPropertyOp8
 70
     0
102
RTVSPropertyOp9
 70
     0
102
RTVSPropertyOp10
 70
     0
102
RTVSPropertyOp11
 70
     0
102
RTVSPropertyOp12
 70
     0
102
RTVSPropertyOp13
 70
     0
102
RTVSPropertyOp14
 70
     2
102
RTVSPropertyOp15
 70
     0
102
RTVSPropertyOp16
 70
     0
102
RTVSPropertyOp17
 70
     0
102
RTVSPropertyOp18
 70
     0
102
RTVSPropertyOp19
 70
     0
102
RTVSPropertyOp20
 70
     0
102
RTVSPropertyOp21
 70
     0
102
RTVSPropertyOp22
 70
     0
102
RTVSPropertyOp23
 70
     0
102
RTVSPropertyOp24
 70
     0
102
RTVSPropertyOp25
 70
     0
102
RTVSPropertyOp26
 70
     0
102
RTVSPropertyOp27
 70
     0
102
RTVSPropertyOp28
 70
     0
102
RTVSPropertyOp29
 70
     0
102
RTVSPropertyOp30
 70
     0
102
RTVSPropertyOp31
 70
     0
102
RTVSPropertyOp32
 70
     0
102
RTVSPropertyOp33
 70
     0
102
RTVSPropertyOp34
 70
     0
102
RTVSPropertyOp35
 70
     0
102
RTVSPropertyOp36
 70
     0
102
RTVSPropertyOp37
 70
     0
102
RTVSPropertyOp38
 70
     0
102
RTVSPropertyOp39
 70
     0
102
RTVSPropertyOp40
 70
     0
102
RTVSPropertyOp41
 70
     0
102
RTVSPropertyOp42
 70
     0
102
RTVSPropertyOp43
 70
     0
102
RTVSPropertyOp44
 70
     0
102
RTVSPropertyOp45
 70
     0
102
RTVSPropertyOp46
 70
     0
102
RTVSPropertyOp47
 70
     0
102
RTVSPropertyOp48
 70
     0
102
RTVSPropertyOp49
 70
     0
102
RTVSPropertyOp50
 70
     0
102
RTVSPropertyOp51
 70
     0
102
RTVSPropertyOp52
 70
     0
102
RTVSPropertyOp53
 70
     0
102
RTVSPropertyOp54
 70
     0
102
RTVSPropertyOp55
 70
     0
102
RTVSPropertyOp56
 70
     0
102
RTVSPropertyOp57
 70
     0
102
RTVSPost2010Prop28
280
     0
102
RTVSPost2010PropOp28
 70
     0
102
RTVSPost2010Prop29
280
     1
102
RTVSPost2010PropOp29
 70
     0
102
RTVSPost2010Prop30
280
     1
102
RTVSPost2010PropOp30
 70
     0
102
RTVSPost2010Prop31
280
     0
102
RTVSPost2010PropOp31
 70
     0
102
RTVSPost2010Prop32
280
     0
102
RTVSPost2010PropOp32
 70
     0
102
RTVSPost2010Prop33
280
     0
102
RTVSPost2010PropOp33
 70
     0
102
RTVSPost2010Prop34
280
     0
102
RTVSPost2010PropOp34
 70
     0
102
RTVSPost2010Prop35
280
     0
102
RTVSPost2010PropOp35
 70
     0
102
RTVSPost2010Prop36
280
     0
102
RTVSPost2010PropOp36
 70
     0
102
RTVSPost2010Prop37
 90
       50
102
RTVSPost2010PropOp37
 70
     0
102
RTVSPost2010Prop38
140
0.0
102
RTVSPost2010PropOp38
 70
     0
102
RTVSPost2010Prop39
140
1.0
102
RTVSPost2010PropOp39
 70
     0
102
RTVSPost2010Prop40
 90
        0
102
RTVSPost2010PropOp40
 70
     0
102
RTVSPost2010Prop41ColorIndex
 90
       18
102
RTVSPost2010Prop41ColorRGB
 90
        0
102
RTVSPost2010PropOp41
 70
     0
102
RTVSPost2010Prop42
 90
       50
102
RTVSPost2010PropOp42
 70
     0
102
RTVSPost2010Prop43
 90
        3
102
RTVSPost2010PropOp43
 70
     0
102
RTVSPost2010Prop44ColorIndex
 90
        5
102
RTVSPost2010Prop44ColorRGB
 90
      255
102
RTVSPost2010PropOp44
 70
     0
102
RTVSPost2010Prop45
280
     0
102
RTVSPost2010PropOp45
 70
     0
102
RTVSPost2010Prop46
 90
       50
102
RTVSPost2010PropOp46
 70
     0
102
RTVSPost2010Prop47
 90
       50
102
RTVSPost2010PropOp47
 70
     0
102
RTVSPost2010Prop48
 90
       50
102
RTVSPost2010PropOp48
 70
     0
102
RTVSPost2010Prop49
280
     0
102
RTVSPost2010PropOp49
 70
     0
102
RTVSPost2010Prop50
 90
       50
102
RTVSPost2010PropOp50
 70
     0
102
RTVSPost2010Prop51ColorIndex
 90
      256
102
RTVSPost2010Prop51ColorRGB
 90
-16777216
102
RTVSPost2010PropOp51
 70
     0
102
RTVSPost2010Prop52
140
1.0
102
RTVSPost2010PropOp52
 70
     0
102
RTVSPost2010Prop53
 90
        2
102
RTVSPost2010PropOp53
 70
     0
102
RTVSPost2010Prop54
  1
strokes_ogs.tif
102
RTVSPost2010PropOp54
 70
     0
102
RTVSPost2010Prop55
280
     0
102
RTVSPost2010PropOp55
 70
     0
102
RTVSPost2010Prop56
140
1.0
102
RTVSPost2010PropOp56
 70
     0
102
RTVSPost2010Prop57
140
1.0
102
RTVSPost2010PropOp57
 70
     0
  0
XRECORD
  5
312
102
{ACAD_REACTORS
330
311
102
}
330
311
100
AcDbXrecord
280
     1
102
RTVSPropertyOp0
 70
     1
102
RTVSPropertyOp1
 70
     1
102
RTVSPropertyOp2
 70
     1
102
RTVSPropertyOp3
 70
     1
102
RTVSPropertyOp4
 70
     1
102
RTVSPropertyOp5
 70
     1
102
RTVSPropertyOp6
 70
     1
102
RTVSPropertyOp7
 70
     1
102
RTVSPropertyOp8
 70
     1
102
RTVSPropertyOp9
 70
     1
102
RTVSPropertyOp10
 70
     1
102
RTVSPropertyOp11
 70
     1
102
RTVSPropertyOp12
 70
     1
102
RTVSPropertyOp13
 70
     1
102
RTVSPropertyOp14
 70
     1
102
RTVSPropertyOp15
 70
     1
102
RTVSPropertyOp16
 70
     1
102
RTVSPropertyOp17
 70
     1
102
RTVSPropertyOp18
 70
     1
102
RTVSPropertyOp19
 70
     1
102
RTVSPropertyOp20
 70
     1
102
RTVSPropertyOp21
 70
     1
102
RTVSPropertyOp22
 70
     1
102
RTVSPropertyOp23
 70
     1
102
RTVSPropertyOp24
 70
     1
102
RTVSPropertyOp25
 70
     1
102
RTVSPropertyOp26
 70
     1
102
RTVSPropertyOp27
 70
     1
102
RTVSPropertyOp28
 70
     1
102
RTVSPropertyOp29
 70
     1
102
RTVSPropertyOp30
 70
     1
102
RTVSPropertyOp31
 70
     1
102
RTVSPropertyOp32
 70
     1
102
RTVSPropertyOp33
 70
     1
102
RTVSPropertyOp34
 70
     1
102
RTVSPropertyOp35
 70
     1
102
RTVSPropertyOp36
 70
     1
102
RTVSPropertyOp37
 70
     1
102
RTVSPropertyOp38
 70
     1
102
RTVSPropertyOp39
 70
     1
102
RTVSPropertyOp40
 70
     1
102
RTVSPropertyOp41
 70
     1
102
RTVSPropertyOp42
 70
     1
102
RTVSPropertyOp43
 70
     1
102
RTVSPropertyOp44
 70
     1
102
RTVSPropertyOp45
 70
     1
102
RTVSPropertyOp46
 70
     1
102
RTVSPropertyOp47
 70
     1
102
RTVSPropertyOp48
 70
     1
102
RTVSPropertyOp49
 70
     1
102
RTVSPropertyOp50
 70
     1
102
RTVSPropertyOp51
 70
     0
102
RTVSPropertyOp52
 70
     0
102
RTVSPropertyOp53
 70
     1
102
RTVSPropertyOp54
 70
     1
102
RTVSPropertyOp55
 70
     1
102
RTVSPropertyOp56
 70
     1
102
RTVSPropertyOp57
 70
     1
102
RTVSPost2010Prop28
280
     0
102
RTVSPost2010PropOp28
 70
     1
102
RTVSPost2010Prop29
280
     1
102
RTVSPost2010PropOp29
 70
     1
102
RTVSPost2010Prop30
280
     1
102
RTVSPost2010PropOp30
 70
     1
102
RTVSPost2010Prop31
280
     0
102
RTVSPost2010PropOp31
 70
     1
102
RTVSPost2010Prop32
280
     0
102
RTVSPost2010PropOp32
 70
     1
102
RTVSPost2010Prop33
280
     0
102
RTVSPost2010PropOp33
 70
     1
102
RTVSPost2010Prop34
280
     0
102
RTVSPost2010PropOp34
 70
     1
102
RTVSPost2010Prop35
280
     0
102
RTVSPost2010PropOp35
 70
     1
102
RTVSPost2010Prop36
280
     0
102
RTVSPost2010PropOp36
 70
     1
102
RTVSPost2010Prop37
 90
       50
102
RTVSPost2010PropOp37
 70
     1
102
RTVSPost2010Prop38
140
0.0
102
RTVSPost2010PropOp38
 70
     1
102
RTVSPost2010Prop39
140
1.0
102
RTVSPost2010PropOp39
 70
     1
102
RTVSPost2010Prop40
 90
        0
102
RTVSPost2010PropOp40
 70
     1
102
RTVSPost2010Prop41ColorIndex
 90
       18
102
RTVSPost2010Prop41ColorRGB
 90
        0
102
RTVSPost2010PropOp41
 70
     1
102
RTVSPost2010Prop42
 90
       50
102
RTVSPost2010PropOp42
 70
     1
102
RTVSPost2010Prop43
 90
        3
102
RTVSPost2010PropOp43
 70
     1
102
RTVSPost2010Prop44ColorIndex
 90
        5
102
RTVSPost2010Prop44ColorRGB
 90
      255
102
RTVSPost2010PropOp44
 70
     1
102
RTVSPost2010Prop45
280
     0
102
RTVSPost2010PropOp45
 70
     1
102
RTVSPost2010Prop46
 90
       50
102
RTVSPost2010PropOp46
 70
     1
102
RTVSPost2010Prop47
 90
       50
102
RTVSPost2010PropOp47
 70
     1
102
RTVSPost2010Prop48
 90
       50
102
RTVSPost2010PropOp48
 70
     1
102
RTVSPost2010Prop49
280
     0
102
RTVSPost2010PropOp49
 70
     1
102
RTVSPost2010Prop50
 90
       50
102
RTVSPost2010PropOp50
 70
     1
102
RTVSPost2010Prop51ColorIndex
 90
      256
102
RTVSPost2010Prop51ColorRGB
 90
-16777216
102
RTVSPost2010PropOp51
 70
     0
102
RTVSPost2010Prop52
140
1.0
102
RTVSPost2010PropOp52
 70
     0
102
RTVSPost2010Prop53
 90
        2
102
RTVSPost2010PropOp53
 70
     1
102
RTVSPost2010Prop54
  1
strokes_ogs.tif
102
RTVSPost2010PropOp54
 70
     1
102
RTVSPost2010Prop55
280
     0
102
RTVSPost2010PropOp55
 70
     1
102
RTVSPost2010Prop56
140
1.0
102
RTVSPost2010PropOp56
 70
     1
102
RTVSPost2010Prop57
140
1.0
102
RTVSPost2010PropOp57
 70
     1
  0
XRECORD
  5
2F6
102
{ACAD_REACTORS
330
2F5
102
}
330
2F5
100
AcDbXrecord
280
     1
102
RTVSPropertyOp0
 70
     1
102
RTVSPropertyOp1
 70
     1
102
RTVSPropertyOp2
 70
     1
102
RTVSPropertyOp3
 70
     1
102
RTVSPropertyOp4
 70
     1
102
RTVSPropertyOp5
 70
     1
102
RTVSPropertyOp6
 70
     1
102
RTVSPropertyOp7
 70
     1
102
RTVSPropertyOp8
 70
     1
102
RTVSPropertyOp9
 70
     1
102
RTVSPropertyOp10
 70
     1
102
RTVSPropertyOp11
 70
     1
102
RTVSPropertyOp12
 70
     1
102
RTVSPropertyOp13
 70
     1
102
RTVSPropertyOp14
 70
     1
102
RTVSPropertyOp15
 70
     1
102
RTVSPropertyOp16
 70
     1
102
RTVSPropertyOp17
 70
     1
102
RTVSPropertyOp18
 70
     1
102
RTVSPropertyOp19
 70
     1
102
RTVSPropertyOp20
 70
     1
102
RTVSPropertyOp21
 70
     1
102
RTVSPropertyOp22
 70
     1
102
RTVSPropertyOp23
 70
     1
102
RTVSPropertyOp24
 70
     1
102
RTVSPropertyOp25
 70
     1
102
RTVSPropertyOp26
 70
     1
102
RTVSPropertyOp27
 70
     1
102
RTVSPropertyOp28
 70
     1
102
RTVSPropertyOp29
 70
     1
102
RTVSPropertyOp30
 70
     1
102
RTVSPropertyOp31
 70
     1
102
RTVSPropertyOp32
 70
     1
102
RTVSPropertyOp33
 70
     1
102
RTVSPropertyOp34
 70
     1
102
RTVSPropertyOp35
 70
     1
102
RTVSPropertyOp36
 70
     1
102
RTVSPropertyOp37
 70
     1
102
RTVSPropertyOp38
 70
     1
102
RTVSPropertyOp39
 70
     1
102
RTVSPropertyOp40
 70
     1
102
RTVSPropertyOp41
 70
     1
102
RTVSPropertyOp42
 70
     1
102
RTVSPropertyOp43
 70
     1
102
RTVSPropertyOp44
 70
     1
102
RTVSPropertyOp45
 70
     1
102
RTVSPropertyOp46
 70
     1
102
RTVSPropertyOp47
 70
     1
102
RTVSPropertyOp48
 70
     1
102
RTVSPropertyOp49
 70
     1
102
RTVSPropertyOp50
 70
     1
102
RTVSPropertyOp51
 70
     0
102
RTVSPropertyOp52
 70
     0
102
RTVSPropertyOp53
 70
     1
102
RTVSPropertyOp54
 70
     1
102
RTVSPropertyOp55
 70
     1
102
RTVSPropertyOp56
 70
     1
102
RTVSPropertyOp57
 70
     1
102
RTVSPost2010Prop28
280
     0
102
RTVSPost2010PropOp28
 70
     1
102
RTVSPost2010Prop29
280
     1
102
RTVSPost2010PropOp29
 70
     1
102
RTVSPost2010Prop30
280
     1
102
RTVSPost2010PropOp30
 70
     1
102
RTVSPost2010Prop31
280
     0
102
RTVSPost2010PropOp31
 70
     1
102
RTVSPost2010Prop32
280
     0
102
RTVSPost2010PropOp32
 70
     1
102
RTVSPost2010Prop33
280
     0
102
RTVSPost2010PropOp33
 70
     1
102
RTVSPost2010Prop34
280
     0
102
RTVSPost2010PropOp34
 70
     1
102
RTVSPost2010Prop35
280
     0
102
RTVSPost2010PropOp35
 70
     1
102
RTVSPost2010Prop36
280
     0
102
RTVSPost2010PropOp36
 70
     1
102
RTVSPost2010Prop37
 90
       50
102
RTVSPost2010PropOp37
 70
     1
102
RTVSPost2010Prop38
140
0.0
102
RTVSPost2010PropOp38
 70
     1
102
RTVSPost2010Prop39
140
1.0
102
RTVSPost2010PropOp39
 70
     1
102
RTVSPost2010Prop40
 90
        0
102
RTVSPost2010PropOp40
 70
     1
102
RTVSPost2010Prop41ColorIndex
 90
       18
102
RTVSPost2010Prop41ColorRGB
 90
        0
102
RTVSPost2010PropOp41
 70
     1
102
RTVSPost2010Prop42
 90
       50
102
RTVSPost2010PropOp42
 70
     1
102
RTVSPost2010Prop43
 90
        3
102
RTVSPost2010PropOp43
 70
     1
102
RTVSPost2010Prop44ColorIndex
 90
        5
102
RTVSPost2010Prop44ColorRGB
 90
      255
102
RTVSPost2010PropOp44
 70
     1
102
RTVSPost2010Prop45
280
     0
102
RTVSPost2010PropOp45
 70
     1
102
RTVSPost2010Prop46
 90
       50
102
RTVSPost2010PropOp46
 70
     1
102
RTVSPost2010Prop47
 90
       50
102
RTVSPost2010PropOp47
 70
     1
102
RTVSPost2010Prop48
 90
       50
102
RTVSPost2010PropOp48
 70
     1
102
RTVSPost2010Prop49
280
     0
102
RTVSPost2010PropOp49
 70
     1
102
RTVSPost2010Prop50
 90
       50
102
RTVSPost2010PropOp50
 70
     1
102
RTVSPost2010Prop51ColorIndex
 90
      256
102
RTVSPost2010Prop51ColorRGB
 90
-16777216
102
RTVSPost2010PropOp51
 70
     0
102
RTVSPost2010Prop52
140
1.0
102
RTVSPost2010PropOp52
 70
     0
102
RTVSPost2010Prop53
 90
        2
102
RTVSPost2010PropOp53
 70
     1
102
RTVSPost2010Prop54
  1
strokes_ogs.tif
102
RTVSPost2010PropOp54
 70
     1
102
RTVSPost2010Prop55
280
     0
102
RTVSPost2010PropOp55
 70
     1
102
RTVSPost2010Prop56
140
1.0
102
RTVSPost2010PropOp56
 70
     1
102
RTVSPost2010Prop57
140
1.0
102
RTVSPost2010PropOp57
 70
     1
  0
XRECORD
  5
2F8
102
{ACAD_REACTORS
330
2F7
102
}
330
2F7
100
AcDbXrecord
280
     1
102
RTVSPropertyOp0
 70
     1
102
RTVSPropertyOp1
 70
     1
102
RTVSPropertyOp2
 70
     1
102
RTVSPropertyOp3
 70
     1
102
RTVSPropertyOp4
 70
     1
102
RTVSPropertyOp5
 70
     1
102
RTVSPropertyOp6
 70
     1
102
RTVSPropertyOp7
 70
     1
102
RTVSPropertyOp8
 70
     1
102
RTVSPropertyOp9
 70
     1
102
RTVSPropertyOp10
 70
     1
102
RTVSPropertyOp11
 70
     1
102
RTVSPropertyOp12
 70
     1
102
RTVSPropertyOp13
 70
     1
102
RTVSPropertyOp14
 70
     1
102
RTVSPropertyOp15
 70
     1
102
RTVSPropertyOp16
 70
     1
102
RTVSPropertyOp17
 70
     1
102
RTVSPropertyOp18
 70
     1
102
RTVSPropertyOp19
 70
     1
102
RTVSPropertyOp20
 70
     1
102
RTVSPropertyOp21
 70
     1
102
RTVSPropertyOp22
 70
     1
102
RTVSPropertyOp23
 70
     1
102
RTVSPropertyOp24
 70
     1
102
RTVSPropertyOp25
 70
     1
102
RTVSPropertyOp26
 70
     1
102
RTVSPropertyOp27
 70
     1
102
RTVSPropertyOp28
 70
     1
102
RTVSPropertyOp29
 70
     1
102
RTVSPropertyOp30
 70
     1
102
RTVSPropertyOp31
 70
     1
102
RTVSPropertyOp32
 70
     1
102
RTVSPropertyOp33
 70
     1
102
RTVSPropertyOp34
 70
     1
102
RTVSPropertyOp35
 70
     1
102
RTVSPropertyOp36
 70
     1
102
RTVSPropertyOp37
 70
     1
102
RTVSPropertyOp38
 70
     1
102
RTVSPropertyOp39
 70
     1
102
RTVSPropertyOp40
 70
     1
102
RTVSPropertyOp41
 70
     1
102
RTVSPropertyOp42
 70
     1
102
RTVSPropertyOp43
 70
     1
102
RTVSPropertyOp44
 70
     1
102
RTVSPropertyOp45
 70
     1
102
RTVSPropertyOp46
 70
     1
102
RTVSPropertyOp47
 70
     1
102
RTVSPropertyOp48
 70
     1
102
RTVSPropertyOp49
 70
     1
102
RTVSPropertyOp50
 70
     1
102
RTVSPropertyOp51
 70
     0
102
RTVSPropertyOp52
 70
     0
102
RTVSPropertyOp53
 70
     1
102
RTVSPropertyOp54
 70
     1
102
RTVSPropertyOp55
 70
     1
102
RTVSPropertyOp56
 70
     1
102
RTVSPropertyOp57
 70
     1
102
RTVSPost2010Prop28
280
     0
102
RTVSPost2010PropOp28
 70
     1
102
RTVSPost2010Prop29
280
     1
102
RTVSPost2010PropOp29
 70
     1
102
RTVSPost2010Prop30
280
     1
102
RTVSPost2010PropOp30
 70
     1
102
RTVSPost2010Prop31
280
     0
102
RTVSPost2010PropOp31
 70
     1
102
RTVSPost2010Prop32
280
     0
102
RTVSPost2010PropOp32
 70
     1
102
RTVSPost2010Prop33
280
     0
102
RTVSPost2010PropOp33
 70
     1
102
RTVSPost2010Prop34
280
     0
102
RTVSPost2010PropOp34
 70
     1
102
RTVSPost2010Prop35
280
     0
102
RTVSPost2010PropOp35
 70
     1
102
RTVSPost2010Prop36
280
     0
102
RTVSPost2010PropOp36
 70
     1
102
RTVSPost2010Prop37
 90
       50
102
RTVSPost2010PropOp37
 70
     1
102
RTVSPost2010Prop38
140
0.0
102
RTVSPost2010PropOp38
 70
     1
102
RTVSPost2010Prop39
140
1.0
102
RTVSPost2010PropOp39
 70
     1
102
RTVSPost2010Prop40
 90
        0
102
RTVSPost2010PropOp40
 70
     1
102
RTVSPost2010Prop41ColorIndex
 90
       18
102
RTVSPost2010Prop41ColorRGB
 90
        0
102
RTVSPost2010PropOp41
 70
     1
102
RTVSPost2010Prop42
 90
       50
102
RTVSPost2010PropOp42
 70
     1
102
RTVSPost2010Prop43
 90
        3
102
RTVSPost2010PropOp43
 70
     1
102
RTVSPost2010Prop44ColorIndex
 90
        5
102
RTVSPost2010Prop44ColorRGB
 90
      255
102
RTVSPost2010PropOp44
 70
     1
102
RTVSPost2010Prop45
280
     0
102
RTVSPost2010PropOp45
 70
     1
102
RTVSPost2010Prop46
 90
       50
102
RTVSPost2010PropOp46
 70
     1
102
RTVSPost2010Prop47
 90
       50
102
RTVSPost2010PropOp47
 70
     1
102
RTVSPost2010Prop48
 90
       50
102
RTVSPost2010PropOp48
 70
     1
102
RTVSPost2010Prop49
280
     0
102
RTVSPost2010PropOp49
 70
     1
102
RTVSPost2010Prop50
 90
       50
102
RTVSPost2010PropOp50
 70
     1
102
RTVSPost2010Prop51ColorIndex
 90
      256
102
RTVSPost2010Prop51ColorRGB
 90
-16777216
102
RTVSPost2010PropOp51
 70
     0
102
RTVSPost2010Prop52
140
1.0
102
RTVSPost2010PropOp52
 70
     0
102
RTVSPost2010Prop53
 90
        2
102
RTVSPost2010PropOp53
 70
     1
102
RTVSPost2010Prop54
  1
strokes_ogs.tif
102
RTVSPost2010PropOp54
 70
     1
102
RTVSPost2010Prop55
280
     0
102
RTVSPost2010PropOp55
 70
     1
102
RTVSPost2010Prop56
140
1.0
102
RTVSPost2010PropOp56
 70
     1
102
RTVSPost2010Prop57
140
1.0
102
RTVSPost2010PropOp57
 70
     1
  0
XRECORD
  5
2FA
102
{ACAD_REACTORS
330
2F9
102
}
330
2F9
100
AcDbXrecord
280
     1
102
RTVSPropertyOp0
 70
     1
102
RTVSPropertyOp1
 70
     1
102
RTVSPropertyOp2
 70
     1
102
RTVSPropertyOp3
 70
     1
102
RTVSPropertyOp4
 70
     1
102
RTVSPropertyOp5
 70
     1
102
RTVSPropertyOp6
 70
     1
102
RTVSPropertyOp7
 70
     1
102
RTVSPropertyOp8
 70
     1
102
RTVSPropertyOp9
 70
     1
102
RTVSPropertyOp10
 70
     1
102
RTVSPropertyOp11
 70
     1
102
RTVSPropertyOp12
 70
     1
102
RTVSPropertyOp13
 70
     1
102
RTVSPropertyOp14
 70
     1
102
RTVSPropertyOp15
 70
     1
102
RTVSPropertyOp16
 70
     1
102
RTVSPropertyOp17
 70
     1
102
RTVSPropertyOp18
 70
     1
102
RTVSPropertyOp19
 70
     1
102
RTVSPropertyOp20
 70
     1
102
RTVSPropertyOp21
 70
     1
102
RTVSPropertyOp22
 70
     1
102
RTVSPropertyOp23
 70
     1
102
RTVSPropertyOp24
 70
     1
102
RTVSPropertyOp25
 70
     1
102
RTVSPropertyOp26
 70
     1
102
RTVSPropertyOp27
 70
     1
102
RTVSPropertyOp28
 70
     1
102
RTVSPropertyOp29
 70
     1
102
RTVSPropertyOp30
 70
     1
102
RTVSPropertyOp31
 70
     1
102
RTVSPropertyOp32
 70
     1
102
RTVSPropertyOp33
 70
     1
102
RTVSPropertyOp34
 70
     1
102
RTVSPropertyOp35
 70
     1
102
RTVSPropertyOp36
 70
     1
102
RTVSPropertyOp37
 70
     1
102
RTVSPropertyOp38
 70
     1
102
RTVSPropertyOp39
 70
     1
102
RTVSPropertyOp40
 70
     1
102
RTVSPropertyOp41
 70
     1
102
RTVSPropertyOp42
 70
     1
102
RTVSPropertyOp43
 70
     1
102
RTVSPropertyOp44
 70
     1
102
RTVSPropertyOp45
 70
     1
102
RTVSPropertyOp46
 70
     1
102
RTVSPropertyOp47
 70
     1
102
RTVSPropertyOp48
 70
     1
102
RTVSPropertyOp49
 70
     1
102
RTVSPropertyOp50
 70
     1
102
RTVSPropertyOp51
 70
     0
102
RTVSPropertyOp52
 70
     0
102
RTVSPropertyOp53
 70
     1
102
RTVSPropertyOp54
 70
     1
102
RTVSPropertyOp55
 70
     1
102
RTVSPropertyOp56
 70
     1
102
RTVSPropertyOp57
 70
     1
102
RTVSPost2010Prop28
280
     0
102
RTVSPost2010PropOp28
 70
     1
102
RTVSPost2010Prop29
280
     1
102
RTVSPost2010PropOp29
 70
     1
102
RTVSPost2010Prop30
280
     1
102
RTVSPost2010PropOp30
 70
     1
102
RTVSPost2010Prop31
280
     0
102
RTVSPost2010PropOp31
 70
     1
102
RTVSPost2010Prop32
280
     0
102
RTVSPost2010PropOp32
 70
     1
102
RTVSPost2010Prop33
280
     0
102
RTVSPost2010PropOp33
 70
     1
102
RTVSPost2010Prop34
280
     0
102
RTVSPost2010PropOp34
 70
     1
102
RTVSPost2010Prop35
280
     0
102
RTVSPost2010PropOp35
 70
     1
102
RTVSPost2010Prop36
280
     0
102
RTVSPost2010PropOp36
 70
     1
102
RTVSPost2010Prop37
 90
       50
102
RTVSPost2010PropOp37
 70
     1
102
RTVSPost2010Prop38
140
0.0
102
RTVSPost2010PropOp38
 70
     1
102
RTVSPost2010Prop39
140
1.0
102
RTVSPost2010PropOp39
 70
     1
102
RTVSPost2010Prop40
 90
        0
102
RTVSPost2010PropOp40
 70
     1
102
RTVSPost2010Prop41ColorIndex
 90
       18
102
RTVSPost2010Prop41ColorRGB
 90
        0
102
RTVSPost2010PropOp41
 70
     1
102
RTVSPost2010Prop42
 90
       50
102
RTVSPost2010PropOp42
 70
     1
102
RTVSPost2010Prop43
 90
        3
102
RTVSPost2010PropOp43
 70
     1
102
RTVSPost2010Prop44ColorIndex
 90
        5
102
RTVSPost2010Prop44ColorRGB
 90
      255
102
RTVSPost2010PropOp44
 70
     1
102
RTVSPost2010Prop45
280
     0
102
RTVSPost2010PropOp45
 70
     1
102
RTVSPost2010Prop46
 90
       50
102
RTVSPost2010PropOp46
 70
     1
102
RTVSPost2010Prop47
 90
       50
102
RTVSPost2010PropOp47
 70
     1
102
RTVSPost2010Prop48
 90
       50
102
RTVSPost2010PropOp48
 70
     1
102
RTVSPost2010Prop49
280
     0
102
RTVSPost2010PropOp49
 70
     1
102
RTVSPost2010Prop50
 90
       50
102
RTVSPost2010PropOp50
 70
     1
102
RTVSPost2010Prop51ColorIndex
 90
      256
102
RTVSPost2010Prop51ColorRGB
 90
-16777216
102
RTVSPost2010PropOp51
 70
     0
102
RTVSPost2010Prop52
140
1.0
102
RTVSPost2010PropOp52
 70
     0
102
RTVSPost2010Prop53
 90
        2
102
RTVSPost2010PropOp53
 70
     1
102
RTVSPost2010Prop54
  1
strokes_ogs.tif
102
RTVSPost2010PropOp54
 70
     1
102
RTVSPost2010Prop55
280
     0
102
RTVSPost2010PropOp55
 70
     1
102
RTVSPost2010Prop56
140
1.0
102
RTVSPost2010PropOp56
 70
     1
102
RTVSPost2010Prop57
140
1.0
102
RTVSPost2010PropOp57
 70
     1
  0
XRECORD
  5
2FC
102
{ACAD_REACTORS
330
2FB
102
}
330
2FB
100
AcDbXrecord
280
     1
102
RTVSPropertyOp0
 70
     1
102
RTVSPropertyOp1
 70
     1
102
RTVSPropertyOp2
 70
     1
102
RTVSPropertyOp3
 70
     1
102
RTVSPropertyOp4
 70
     1
102
RTVSPropertyOp5
 70
     1
102
RTVSPropertyOp6
 70
     1
102
RTVSPropertyOp7
 70
     1
102
RTVSPropertyOp8
 70
     1
102
RTVSPropertyOp9
 70
     1
102
RTVSPropertyOp10
 70
     1
102
RTVSPropertyOp11
 70
     1
102
RTVSPropertyOp12
 70
     1
102
RTVSPropertyOp13
 70
     1
102
RTVSPropertyOp14
 70
     1
102
RTVSPropertyOp15
 70
     1
102
RTVSPropertyOp16
 70
     1
102
RTVSPropertyOp17
 70
     1
102
RTVSPropertyOp18
 70
     1
102
RTVSPropertyOp19
 70
     1
102
RTVSPropertyOp20
 70
     1
102
RTVSPropertyOp21
 70
     1
102
RTVSPropertyOp22
 70
     1
102
RTVSPropertyOp23
 70
     1
102
RTVSPropertyOp24
 70
     1
102
RTVSPropertyOp25
 70
     1
102
RTVSPropertyOp26
 70
     1
102
RTVSPropertyOp27
 70
     1
102
RTVSPropertyOp28
 70
     1
102
RTVSPropertyOp29
 70
     1
102
RTVSPropertyOp30
 70
     1
102
RTVSPropertyOp31
 70
     1
102
RTVSPropertyOp32
 70
     1
102
RTVSPropertyOp33
 70
     1
102
RTVSPropertyOp34
 70
     1
102
RTVSPropertyOp35
 70
     1
102
RTVSPropertyOp36
 70
     1
102
RTVSPropertyOp37
 70
     1
102
RTVSPropertyOp38
 70
     1
102
RTVSPropertyOp39
 70
     1
102
RTVSPropertyOp40
 70
     1
102
RTVSPropertyOp41
 70
     1
102
RTVSPropertyOp42
 70
     1
102
RTVSPropertyOp43
 70
     1
102
RTVSPropertyOp44
 70
     1
102
RTVSPropertyOp45
 70
     1
102
RTVSPropertyOp46
 70
     1
102
RTVSPropertyOp47
 70
     1
102
RTVSPropertyOp48
 70
     1
102
RTVSPropertyOp49
 70
     1
102
RTVSPropertyOp50
 70
     1
102
RTVSPropertyOp51
 70
     0
102
RTVSPropertyOp52
 70
     0
102
RTVSPropertyOp53
 70
     1
102
RTVSPropertyOp54
 70
     1
102
RTVSPropertyOp55
 70
     1
102
RTVSPropertyOp56
 70
     1
102
RTVSPropertyOp57
 70
     1
102
RTVSPost2010Prop28
280
     0
102
RTVSPost2010PropOp28
 70
     1
102
RTVSPost2010Prop29
280
     1
102
RTVSPost2010PropOp29
 70
     1
102
RTVSPost2010Prop30
280
     1
102
RTVSPost2010PropOp30
 70
     1
102
RTVSPost2010Prop31
280
     0
102
RTVSPost2010PropOp31
 70
     1
102
RTVSPost2010Prop32
280
     0
102
RTVSPost2010PropOp32
 70
     1
102
RTVSPost2010Prop33
280
     0
102
RTVSPost2010PropOp33
 70
     1
102
RTVSPost2010Prop34
280
     0
102
RTVSPost2010PropOp34
 70
     1
102
RTVSPost2010Prop35
280
     0
102
RTVSPost2010PropOp35
 70
     1
102
RTVSPost2010Prop36
280
     0
102
RTVSPost2010PropOp36
 70
     1
102
RTVSPost2010Prop37
 90
       50
102
RTVSPost2010PropOp37
 70
     1
102
RTVSPost2010Prop38
140
0.0
102
RTVSPost2010PropOp38
 70
     1
102
RTVSPost2010Prop39
140
1.0
102
RTVSPost2010PropOp39
 70
     1
102
RTVSPost2010Prop40
 90
        0
102
RTVSPost2010PropOp40
 70
     1
102
RTVSPost2010Prop41ColorIndex
 90
       18
102
RTVSPost2010Prop41ColorRGB
 90
        0
102
RTVSPost2010PropOp41
 70
     1
102
RTVSPost2010Prop42
 90
       50
102
RTVSPost2010PropOp42
 70
     1
102
RTVSPost2010Prop43
 90
        3
102
RTVSPost2010PropOp43
 70
     1
102
RTVSPost2010Prop44ColorIndex
 90
        5
102
RTVSPost2010Prop44ColorRGB
 90
      255
102
RTVSPost2010PropOp44
 70
     1
102
RTVSPost2010Prop45
280
     0
102
RTVSPost2010PropOp45
 70
     1
102
RTVSPost2010Prop46
 90
       50
102
RTVSPost2010PropOp46
 70
     1
102
RTVSPost2010Prop47
 90
       50
102
RTVSPost2010PropOp47
 70
     1
102
RTVSPost2010Prop48
 90
       50
102
RTVSPost2010PropOp48
 70
     1
102
RTVSPost2010Prop49
280
     0
102
RTVSPost2010PropOp49
 70
     1
102
RTVSPost2010Prop50
 90
       50
102
RTVSPost2010PropOp50
 70
     1
102
RTVSPost2010Prop51ColorIndex
 90
      256
102
RTVSPost2010Prop51ColorRGB
 90
-16777216
102
RTVSPost2010PropOp51
 70
     0
102
RTVSPost2010Prop52
140
1.0
102
RTVSPost2010PropOp52
 70
     0
102
RTVSPost2010Prop53
 90
        2
102
RTVSPost2010PropOp53
 70
     1
102
RTVSPost2010Prop54
  1
strokes_ogs.tif
102
RTVSPost2010PropOp54
 70
     1
102
RTVSPost2010Prop55
280
     0
102
RTVSPost2010PropOp55
 70
     1
102
RTVSPost2010Prop56
140
1.0
102
RTVSPost2010PropOp56
 70
     1
102
RTVSPost2010Prop57
140
1.0
102
RTVSPost2010PropOp57
 70
     1
  0
XRECORD
  5
302
102
{ACAD_REACTORS
330
301
102
}
330
301
100
AcDbXrecord
280
     1
102
RTVSPropertyOp0
 70
     1
102
RTVSPropertyOp1
 70
     1
102
RTVSPropertyOp2
 70
     1
102
RTVSPropertyOp3
 70
     1
102
RTVSPropertyOp4
 70
     1
102
RTVSPropertyOp5
 70
     1
102
RTVSPropertyOp6
 70
     1
102
RTVSPropertyOp7
 70
     1
102
RTVSPropertyOp8
 70
     1
102
RTVSPropertyOp9
 70
     1
102
RTVSPropertyOp10
 70
     1
102
RTVSPropertyOp11
 70
     1
102
RTVSPropertyOp12
 70
     1
102
RTVSPropertyOp13
 70
     1
102
RTVSPropertyOp14
 70
     1
102
RTVSPropertyOp15
 70
     1
102
RTVSPropertyOp16
 70
     1
102
RTVSPropertyOp17
 70
     1
102
RTVSPropertyOp18
 70
     1
102
RTVSPropertyOp19
 70
     1
102
RTVSPropertyOp20
 70
     1
102
RTVSPropertyOp21
 70
     1
102
RTVSPropertyOp22
 70
     1
102
RTVSPropertyOp23
 70
     1
102
RTVSPropertyOp24
 70
     1
102
RTVSPropertyOp25
 70
     1
102
RTVSPropertyOp26
 70
     1
102
RTVSPropertyOp27
 70
     1
102
RTVSPropertyOp28
 70
     1
102
RTVSPropertyOp29
 70
     1
102
RTVSPropertyOp30
 70
     1
102
RTVSPropertyOp31
 70
     1
102
RTVSPropertyOp32
 70
     1
102
RTVSPropertyOp33
 70
     1
102
RTVSPropertyOp34
 70
     1
102
RTVSPropertyOp35
 70
     1
102
RTVSPropertyOp36
 70
     1
102
RTVSPropertyOp37
 70
     1
102
RTVSPropertyOp38
 70
     1
102
RTVSPropertyOp39
 70
     1
102
RTVSPropertyOp40
 70
     1
102
RTVSPropertyOp41
 70
     1
102
RTVSPropertyOp42
 70
     1
102
RTVSPropertyOp43
 70
     1
102
RTVSPropertyOp44
 70
     1
102
RTVSPropertyOp45
 70
     1
102
RTVSPropertyOp46
 70
     1
102
RTVSPropertyOp47
 70
     1
102
RTVSPropertyOp48
 70
     1
102
RTVSPropertyOp49
 70
     1
102
RTVSPropertyOp50
 70
     1
102
RTVSPropertyOp51
 70
     0
102
RTVSPropertyOp52
 70
     0
102
RTVSPropertyOp53
 70
     1
102
RTVSPropertyOp54
 70
     1
102
RTVSPropertyOp55
 70
     1
102
RTVSPropertyOp56
 70
     1
102
RTVSPropertyOp57
 70
     1
102
RTVSPost2010Prop28
280
     0
102
RTVSPost2010PropOp28
 70
     1
102
RTVSPost2010Prop29
280
     1
102
RTVSPost2010PropOp29
 70
     1
102
RTVSPost2010Prop30
280
     1
102
RTVSPost2010PropOp30
 70
     1
102
RTVSPost2010Prop31
280
     0
102
RTVSPost2010PropOp31
 70
     1
102
RTVSPost2010Prop32
280
     0
102
RTVSPost2010PropOp32
 70
     1
102
RTVSPost2010Prop33
280
     0
102
RTVSPost2010PropOp33
 70
     1
102
RTVSPost2010Prop34
280
     0
102
RTVSPost2010PropOp34
 70
     1
102
RTVSPost2010Prop35
280
     0
102
RTVSPost2010PropOp35
 70
     1
102
RTVSPost2010Prop36
280
     0
102
RTVSPost2010PropOp36
 70
     1
102
RTVSPost2010Prop37
 90
       50
102
RTVSPost2010PropOp37
 70
     1
102
RTVSPost2010Prop38
140
0.0
102
RTVSPost2010PropOp38
 70
     1
102
RTVSPost2010Prop39
140
1.0
102
RTVSPost2010PropOp39
 70
     1
102
RTVSPost2010Prop40
 90
        0
102
RTVSPost2010PropOp40
 70
     1
102
RTVSPost2010Prop41ColorIndex
 90
       18
102
RTVSPost2010Prop41ColorRGB
 90
        0
102
RTVSPost2010PropOp41
 70
     1
102
RTVSPost2010Prop42
 90
       50
102
RTVSPost2010PropOp42
 70
     1
102
RTVSPost2010Prop43
 90
        3
102
RTVSPost2010PropOp43
 70
     1
102
RTVSPost2010Prop44ColorIndex
 90
        5
102
RTVSPost2010Prop44ColorRGB
 90
      255
102
RTVSPost2010PropOp44
 70
     1
102
RTVSPost2010Prop45
280
     0
102
RTVSPost2010PropOp45
 70
     1
102
RTVSPost2010Prop46
 90
       50
102
RTVSPost2010PropOp46
 70
     1
102
RTVSPost2010Prop47
 90
       50
102
RTVSPost2010PropOp47
 70
     1
102
RTVSPost2010Prop48
 90
       50
102
RTVSPost2010PropOp48
 70
     1
102
RTVSPost2010Prop49
280
     0
102
RTVSPost2010PropOp49
 70
     1
102
RTVSPost2010Prop50
 90
       50
102
RTVSPost2010PropOp50
 70
     1
102
RTVSPost2010Prop51ColorIndex
 90
      256
102
RTVSPost2010Prop51ColorRGB
 90
-16777216
102
RTVSPost2010PropOp51
 70
     0
102
RTVSPost2010Prop52
140
1.0
102
RTVSPost2010PropOp52
 70
     0
102
RTVSPost2010Prop53
 90
        2
102
RTVSPost2010PropOp53
 70
     1
102
RTVSPost2010Prop54
  1
strokes_ogs.tif
102
RTVSPost2010PropOp54
 70
     1
102
RTVSPost2010Prop55
280
     0
102
RTVSPost2010PropOp55
 70
     1
102
RTVSPost2010Prop56
140
1.0
102
RTVSPost2010PropOp56
 70
     1
102
RTVSPost2010Prop57
140
1.0
102
RTVSPost2010PropOp57
 70
     1
  0
XRECORD
  5
316
102
{ACAD_REACTORS
330
315
102
}
330
315
100
AcDbXrecord
280
     1
102
RTVSPropertyOp0
 70
     0
102
RTVSPropertyOp1
 70
     0
102
RTVSPropertyOp2
 70
     0
102
RTVSPropertyOp3
 70
     0
102
RTVSPropertyOp4
 70
     0
102
RTVSPropertyOp5
 70
     0
102
RTVSPropertyOp6
 70
     0
102
RTVSPropertyOp7
 70
     0
102
RTVSPropertyOp8
 70
     0
102
RTVSPropertyOp9
 70
     0
102
RTVSPropertyOp10
 70
     0
102
RTVSPropertyOp11
 70
     0
102
RTVSPropertyOp12
 70
     0
102
RTVSPropertyOp13
 70
     0
102
RTVSPropertyOp14
 70
     2
102
RTVSPropertyOp15
 70
     0
102
RTVSPropertyOp16
 70
     0
102
RTVSPropertyOp17
 70
     0
102
RTVSPropertyOp18
 70
     0
102
RTVSPropertyOp19
 70
     0
102
RTVSPropertyOp20
 70
     0
102
RTVSPropertyOp21
 70
     0
102
RTVSPropertyOp22
 70
     0
102
RTVSPropertyOp23
 70
     0
102
RTVSPropertyOp24
 70
     0
102
RTVSPropertyOp25
 70
     0
102
RTVSPropertyOp26
 70
     0
102
RTVSPropertyOp27
 70
     0
102
RTVSPropertyOp28
 70
     0
102
RTVSPropertyOp29
 70
     0
102
RTVSPropertyOp30
 70
     0
102
RTVSPropertyOp31
 70
     0
102
RTVSPropertyOp32
 70
     0
102
RTVSPropertyOp33
 70
     0
102
RTVSPropertyOp34
 70
     0
102
RTVSPropertyOp35
 70
     0
102
RTVSPropertyOp36
 70
     0
102
RTVSPropertyOp37
 70
     0
102
RTVSPropertyOp38
 70
     0
102
RTVSPropertyOp39
 70
     0
102
RTVSPropertyOp40
 70
     0
102
RTVSPropertyOp41
 70
     0
102
RTVSPropertyOp42
 70
     0
102
RTVSPropertyOp43
 70
     0
102
RTVSPropertyOp44
 70
     0
102
RTVSPropertyOp45
 70
     0
102
RTVSPropertyOp46
 70
     0
102
RTVSPropertyOp47
 70
     0
102
RTVSPropertyOp48
 70
     0
102
RTVSPropertyOp49
 70
     0
102
RTVSPropertyOp50
 70
     0
102
RTVSPropertyOp51
 70
     0
102
RTVSPropertyOp52
 70
     0
102
RTVSPropertyOp53
 70
     0
102
RTVSPropertyOp54
 70
     0
102
RTVSPropertyOp55
 70
     0
102
RTVSPropertyOp56
 70
     0
102
RTVSPropertyOp57
 70
     0
102
RTVSPost2010Prop28
280
     0
102
RTVSPost2010PropOp28
 70
     0
102
RTVSPost2010Prop29
280
     1
102
RTVSPost2010PropOp29
 70
     0
102
RTVSPost2010Prop30
280
     1
102
RTVSPost2010PropOp30
 70
     0
102
RTVSPost2010Prop31
280
     0
102
RTVSPost2010PropOp31
 70
     0
102
RTVSPost2010Prop32
280
     0
102
RTVSPost2010PropOp32
 70
     0
102
RTVSPost2010Prop33
280
     0
102
RTVSPost2010PropOp33
 70
     0
102
RTVSPost2010Prop34
280
     0
102
RTVSPost2010PropOp34
 70
     0
102
RTVSPost2010Prop35
280
     0
102
RTVSPost2010PropOp35
 70
     0
102
RTVSPost2010Prop36
280
     0
102
RTVSPost2010PropOp36
 70
     0
102
RTVSPost2010Prop37
 90
       50
102
RTVSPost2010PropOp37
 70
     0
102
RTVSPost2010Prop38
140
0.0
102
RTVSPost2010PropOp38
 70
     0
102
RTVSPost2010Prop39
140
1.0
102
RTVSPost2010PropOp39
 70
     0
102
RTVSPost2010Prop40
 90
        0
102
RTVSPost2010PropOp40
 70
     0
102
RTVSPost2010Prop41ColorIndex
 90
       18
102
RTVSPost2010Prop41ColorRGB
 90
        0
102
RTVSPost2010PropOp41
 70
     0
102
RTVSPost2010Prop42
 90
       50
102
RTVSPost2010PropOp42
 70
     0
102
RTVSPost2010Prop43
 90
        3
102
RTVSPost2010PropOp43
 70
     0
102
RTVSPost2010Prop44ColorIndex
 90
        5
102
RTVSPost2010Prop44ColorRGB
 90
      255
102
RTVSPost2010PropOp44
 70
     0
102
RTVSPost2010Prop45
280
     0
102
RTVSPost2010PropOp45
 70
     0
102
RTVSPost2010Prop46
 90
       50
102
RTVSPost2010PropOp46
 70
     0
102
RTVSPost2010Prop47
 90
       50
102
RTVSPost2010PropOp47
 70
     0
102
RTVSPost2010Prop48
 90
       50
102
RTVSPost2010PropOp48
 70
     0
102
RTVSPost2010Prop49
280
     0
102
RTVSPost2010PropOp49
 70
     0
102
RTVSPost2010Prop50
 90
       50
102
RTVSPost2010PropOp50
 70
     0
102
RTVSPost2010Prop51ColorIndex
 90
      256
102
RTVSPost2010Prop51ColorRGB
 90
-16777216
102
RTVSPost2010PropOp51
 70
     0
102
RTVSPost2010Prop52
140
1.0
102
RTVSPost2010PropOp52
 70
     0
102
RTVSPost2010Prop53
 90
        2
102
RTVSPost2010PropOp53
 70
     0
102
RTVSPost2010Prop54
  1
strokes_ogs.tif
102
RTVSPost2010PropOp54
 70
     0
102
RTVSPost2010Prop55
280
     0
102
RTVSPost2010PropOp55
 70
     0
102
RTVSPost2010Prop56
140
1.0
102
RTVSPost2010PropOp56
 70
     0
102
RTVSPost2010Prop57
140
1.0
102
RTVSPost2010PropOp57
 70
     0
  0
XRECORD
  5
310
102
{ACAD_REACTORS
330
30F
102
}
330
30F
100
AcDbXrecord
280
     1
102
RTVSPropertyOp0
 70
     1
102
RTVSPropertyOp1
 70
     1
102
RTVSPropertyOp2
 70
     1
102
RTVSPropertyOp3
 70
     1
102
RTVSPropertyOp4
 70
     1
102
RTVSPropertyOp5
 70
     1
102
RTVSPropertyOp6
 70
     1
102
RTVSPropertyOp7
 70
     1
102
RTVSPropertyOp8
 70
     1
102
RTVSPropertyOp9
 70
     1
102
RTVSPropertyOp10
 70
     1
102
RTVSPropertyOp11
 70
     1
102
RTVSPropertyOp12
 70
     1
102
RTVSPropertyOp13
 70
     1
102
RTVSPropertyOp14
 70
     1
102
RTVSPropertyOp15
 70
     1
102
RTVSPropertyOp16
 70
     1
102
RTVSPropertyOp17
 70
     1
102
RTVSPropertyOp18
 70
     1
102
RTVSPropertyOp19
 70
     1
102
RTVSPropertyOp20
 70
     1
102
RTVSPropertyOp21
 70
     1
102
RTVSPropertyOp22
 70
     1
102
RTVSPropertyOp23
 70
     1
102
RTVSPropertyOp24
 70
     1
102
RTVSPropertyOp25
 70
     1
102
RTVSPropertyOp26
 70
     1
102
RTVSPropertyOp27
 70
     1
102
RTVSPropertyOp28
 70
     1
102
RTVSPropertyOp29
 70
     1
102
RTVSPropertyOp30
 70
     1
102
RTVSPropertyOp31
 70
     1
102
RTVSPropertyOp32
 70
     1
102
RTVSPropertyOp33
 70
     1
102
RTVSPropertyOp34
 70
     1
102
RTVSPropertyOp35
 70
     1
102
RTVSPropertyOp36
 70
     1
102
RTVSPropertyOp37
 70
     1
102
RTVSPropertyOp38
 70
     1
102
RTVSPropertyOp39
 70
     1
102
RTVSPropertyOp40
 70
     1
102
RTVSPropertyOp41
 70
     1
102
RTVSPropertyOp42
 70
     1
102
RTVSPropertyOp43
 70
     1
102
RTVSPropertyOp44
 70
     1
102
RTVSPropertyOp45
 70
     1
102
RTVSPropertyOp46
 70
     1
102
RTVSPropertyOp47
 70
     1
102
RTVSPropertyOp48
 70
     1
102
RTVSPropertyOp49
 70
     1
102
RTVSPropertyOp50
 70
     1
102
RTVSPropertyOp51
 70
     0
102
RTVSPropertyOp52
 70
     0
102
RTVSPropertyOp53
 70
     1
102
RTVSPropertyOp54
 70
     1
102
RTVSPropertyOp55
 70
     1
102
RTVSPropertyOp56
 70
     1
102
RTVSPropertyOp57
 70
     1
102
RTVSPost2010Prop28
280
     0
102
RTVSPost2010PropOp28
 70
     1
102
RTVSPost2010Prop29
280
     1
102
RTVSPost2010PropOp29
 70
     1
102
RTVSPost2010Prop30
280
     1
102
RTVSPost2010PropOp30
 70
     1
102
RTVSPost2010Prop31
280
     0
102
RTVSPost2010PropOp31
 70
     1
102
RTVSPost2010Prop32
280
     0
102
RTVSPost2010PropOp32
 70
     1
102
RTVSPost2010Prop33
280
     0
102
RTVSPost2010PropOp33
 70
     1
102
RTVSPost2010Prop34
280
     0
102
RTVSPost2010PropOp34
 70
     1
102
RTVSPost2010Prop35
280
     0
102
RTVSPost2010PropOp35
 70
     1
102
RTVSPost2010Prop36
280
     0
102
RTVSPost2010PropOp36
 70
     1
102
RTVSPost2010Prop37
 90
       50
102
RTVSPost2010PropOp37
 70
     1
102
RTVSPost2010Prop38
140
0.0
102
RTVSPost2010PropOp38
 70
     1
102
RTVSPost2010Prop39
140
1.0
102
RTVSPost2010PropOp39
 70
     1
102
RTVSPost2010Prop40
 90
        0
102
RTVSPost2010PropOp40
 70
     1
102
RTVSPost2010Prop41ColorIndex
 90
       18
102
RTVSPost2010Prop41ColorRGB
 90
        0
102
RTVSPost2010PropOp41
 70
     1
102
RTVSPost2010Prop42
 90
       50
102
RTVSPost2010PropOp42
 70
     1
102
RTVSPost2010Prop43
 90
        3
102
RTVSPost2010PropOp43
 70
     1
102
RTVSPost2010Prop44ColorIndex
 90
        5
102
RTVSPost2010Prop44ColorRGB
 90
      255
102
RTVSPost2010PropOp44
 70
     1
102
RTVSPost2010Prop45
280
     0
102
RTVSPost2010PropOp45
 70
     1
102
RTVSPost2010Prop46
 90
       50
102
RTVSPost2010PropOp46
 70
     1
102
RTVSPost2010Prop47
 90
       50
102
RTVSPost2010PropOp47
 70
     1
102
RTVSPost2010Prop48
 90
       50
102
RTVSPost2010PropOp48
 70
     1
102
RTVSPost2010Prop49
280
     0
102
RTVSPost2010PropOp49
 70
     1
102
RTVSPost2010Prop50
 90
       50
102
RTVSPost2010PropOp50
 70
     1
102
RTVSPost2010Prop51ColorIndex
 90
      256
102
RTVSPost2010Prop51ColorRGB
 90
-16777216
102
RTVSPost2010PropOp51
 70
     0
102
RTVSPost2010Prop52
140
1.0
102
RTVSPost2010PropOp52
 70
     0
102
RTVSPost2010Prop53
 90
        2
102
RTVSPost2010PropOp53
 70
     1
102
RTVSPost2010Prop54
  1
strokes_ogs.tif
102
RTVSPost2010PropOp54
 70
     1
102
RTVSPost2010Prop55
280
     0
102
RTVSPost2010PropOp55
 70
     1
102
RTVSPost2010Prop56
140
1.0
102
RTVSPost2010PropOp56
 70
     1
102
RTVSPost2010Prop57
140
1.0
102
RTVSPost2010PropOp57
 70
     1
  0
XRECORD
  5
318
102
{ACAD_REACTORS
330
317
102
}
330
317
100
AcDbXrecord
280
     1
102
RTVSPropertyOp0
 70
     0
102
RTVSPropertyOp1
 70
     0
102
RTVSPropertyOp2
 70
     0
102
RTVSPropertyOp3
 70
     0
102
RTVSPropertyOp4
 70
     0
102
RTVSPropertyOp5
 70
     0
102
RTVSPropertyOp6
 70
     0
102
RTVSPropertyOp7
 70
     0
102
RTVSPropertyOp8
 70
     0
102
RTVSPropertyOp9
 70
     0
102
RTVSPropertyOp10
 70
     0
102
RTVSPropertyOp11
 70
     0
102
RTVSPropertyOp12
 70
     0
102
RTVSPropertyOp13
 70
     0
102
RTVSPropertyOp14
 70
     2
102
RTVSPropertyOp15
 70
     0
102
RTVSPropertyOp16
 70
     0
102
RTVSPropertyOp17
 70
     0
102
RTVSPropertyOp18
 70
     0
102
RTVSPropertyOp19
 70
     0
102
RTVSPropertyOp20
 70
     0
102
RTVSPropertyOp21
 70
     0
102
RTVSPropertyOp22
 70
     0
102
RTVSPropertyOp23
 70
     0
102
RTVSPropertyOp24
 70
     0
102
RTVSPropertyOp25
 70
     0
102
RTVSPropertyOp26
 70
     0
102
RTVSPropertyOp27
 70
     0
102
RTVSPropertyOp28
 70
     0
102
RTVSPropertyOp29
 70
     0
102
RTVSPropertyOp30
 70
     0
102
RTVSPropertyOp31
 70
     0
102
RTVSPropertyOp32
 70
     0
102
RTVSPropertyOp33
 70
     0
102
RTVSPropertyOp34
 70
     0
102
RTVSPropertyOp35
 70
     0
102
RTVSPropertyOp36
 70
     0
102
RTVSPropertyOp37
 70
     0
102
RTVSPropertyOp38
 70
     0
102
RTVSPropertyOp39
 70
     0
102
RTVSPropertyOp40
 70
     0
102
RTVSPropertyOp41
 70
     0
102
RTVSPropertyOp42
 70
     0
102
RTVSPropertyOp43
 70
     0
102
RTVSPropertyOp44
 70
     0
102
RTVSPropertyOp45
 70
     0
102
RTVSPropertyOp46
 70
     0
102
RTVSPropertyOp47
 70
     0
102
RTVSPropertyOp48
 70
     0
102
RTVSPropertyOp49
 70
     0
102
RTVSPropertyOp50
 70
     0
102
RTVSPropertyOp51
 70
     0
102
RTVSPropertyOp52
 70
     0
102
RTVSPropertyOp53
 70
     0
102
RTVSPropertyOp54
 70
     0
102
RTVSPropertyOp55
 70
     0
102
RTVSPropertyOp56
 70
     0
102
RTVSPropertyOp57
 70
     0
102
RTVSPost2010Prop28
280
     0
102
RTVSPost2010PropOp28
 70
     0
102
RTVSPost2010Prop29
280
     1
102
RTVSPost2010PropOp29
 70
     0
102
RTVSPost2010Prop30
280
     1
102
RTVSPost2010PropOp30
 70
     0
102
RTVSPost2010Prop31
280
     0
102
RTVSPost2010PropOp31
 70
     0
102
RTVSPost2010Prop32
280
     0
102
RTVSPost2010PropOp32
 70
     0
102
RTVSPost2010Prop33
280
     0
102
RTVSPost2010PropOp33
 70
     0
102
RTVSPost2010Prop34
280
     0
102
RTVSPost2010PropOp34
 70
     0
102
RTVSPost2010Prop35
280
     0
102
RTVSPost2010PropOp35
 70
     0
102
RTVSPost2010Prop36
280
     0
102
RTVSPost2010PropOp36
 70
     0
102
RTVSPost2010Prop37
 90
       50
102
RTVSPost2010PropOp37
 70
     0
102
RTVSPost2010Prop38
140
0.0
102
RTVSPost2010PropOp38
 70
     0
102
RTVSPost2010Prop39
140
1.0
102
RTVSPost2010PropOp39
 70
     0
102
RTVSPost2010Prop40
 90
        0
102
RTVSPost2010PropOp40
 70
     0
102
RTVSPost2010Prop41ColorIndex
 90
       18
102
RTVSPost2010Prop41ColorRGB
 90
        0
102
RTVSPost2010PropOp41
 70
     0
102
RTVSPost2010Prop42
 90
       50
102
RTVSPost2010PropOp42
 70
     0
102
RTVSPost2010Prop43
 90
        3
102
RTVSPost2010PropOp43
 70
     0
102
RTVSPost2010Prop44ColorIndex
 90
        5
102
RTVSPost2010Prop44ColorRGB
 90
      255
102
RTVSPost2010PropOp44
 70
     0
102
RTVSPost2010Prop45
280
     0
102
RTVSPost2010PropOp45
 70
     0
102
RTVSPost2010Prop46
 90
       50
102
RTVSPost2010PropOp46
 70
     0
102
RTVSPost2010Prop47
 90
       50
102
RTVSPost2010PropOp47
 70
     0
102
RTVSPost2010Prop48
 90
       50
102
RTVSPost2010PropOp48
 70
     0
102
RTVSPost2010Prop49
280
     0
102
RTVSPost2010PropOp49
 70
     0
102
RTVSPost2010Prop50
 90
       50
102
RTVSPost2010PropOp50
 70
     0
102
RTVSPost2010Prop51ColorIndex
 90
      256
102
RTVSPost2010Prop51ColorRGB
 90
-16777216
102
RTVSPost2010PropOp51
 70
     0
102
RTVSPost2010Prop52
140
1.0
102
RTVSPost2010PropOp52
 70
     0
102
RTVSPost2010Prop53
 90
        2
102
RTVSPost2010PropOp53
 70
     0
102
RTVSPost2010Prop54
  1
strokes_ogs.tif
102
RTVSPost2010PropOp54
 70
     0
102
RTVSPost2010Prop55
280
     0
102
RTVSPost2010PropOp55
 70
     0
102
RTVSPost2010Prop56
140
1.0
102
RTVSPost2010PropOp56
 70
     0
102
RTVSPost2010Prop57
140
1.0
102
RTVSPost2010PropOp57
 70
     0
  0
XRECORD
  5
306
102
{ACAD_REACTORS
330
305
102
}
330
305
100
AcDbXrecord
280
     1
102
RTVSPropertyOp0
 70
     1
102
RTVSPropertyOp1
 70
     1
102
RTVSPropertyOp2
 70
     1
102
RTVSPropertyOp3
 70
     1
102
RTVSPropertyOp4
 70
     1
102
RTVSPropertyOp5
 70
     1
102
RTVSPropertyOp6
 70
     1
102
RTVSPropertyOp7
 70
     1
102
RTVSPropertyOp8
 70
     1
102
RTVSPropertyOp9
 70
     1
102
RTVSPropertyOp10
 70
     1
102
RTVSPropertyOp11
 70
     1
102
RTVSPropertyOp12
 70
     1
102
RTVSPropertyOp13
 70
     1
102
RTVSPropertyOp14
 70
     1
102
RTVSPropertyOp15
 70
     1
102
RTVSPropertyOp16
 70
     1
102
RTVSPropertyOp17
 70
     1
102
RTVSPropertyOp18
 70
     1
102
RTVSPropertyOp19
 70
     1
102
RTVSPropertyOp20
 70
     1
102
RTVSPropertyOp21
 70
     1
102
RTVSPropertyOp22
 70
     1
102
RTVSPropertyOp23
 70
     1
102
RTVSPropertyOp24
 70
     1
102
RTVSPropertyOp25
 70
     1
102
RTVSPropertyOp26
 70
     1
102
RTVSPropertyOp27
 70
     1
102
RTVSPropertyOp28
 70
     1
102
RTVSPropertyOp29
 70
     1
102
RTVSPropertyOp30
 70
     1
102
RTVSPropertyOp31
 70
     1
102
RTVSPropertyOp32
 70
     1
102
RTVSPropertyOp33
 70
     1
102
RTVSPropertyOp34
 70
     1
102
RTVSPropertyOp35
 70
     1
102
RTVSPropertyOp36
 70
     1
102
RTVSPropertyOp37
 70
     1
102
RTVSPropertyOp38
 70
     1
102
RTVSPropertyOp39
 70
     1
102
RTVSPropertyOp40
 70
     1
102
RTVSPropertyOp41
 70
     1
102
RTVSPropertyOp42
 70
     1
102
RTVSPropertyOp43
 70
     1
102
RTVSPropertyOp44
 70
     1
102
RTVSPropertyOp45
 70
     1
102
RTVSPropertyOp46
 70
     1
102
RTVSPropertyOp47
 70
     1
102
RTVSPropertyOp48
 70
     1
102
RTVSPropertyOp49
 70
     1
102
RTVSPropertyOp50
 70
     1
102
RTVSPropertyOp51
 70
     0
102
RTVSPropertyOp52
 70
     0
102
RTVSPropertyOp53
 70
     1
102
RTVSPropertyOp54
 70
     1
102
RTVSPropertyOp55
 70
     1
102
RTVSPropertyOp56
 70
     1
102
RTVSPropertyOp57
 70
     1
102
RTVSPost2010Prop28
280
     0
102
RTVSPost2010PropOp28
 70
     1
102
RTVSPost2010Prop29
280
     1
102
RTVSPost2010PropOp29
 70
     1
102
RTVSPost2010Prop30
280
     1
102
RTVSPost2010PropOp30
 70
     1
102
RTVSPost2010Prop31
280
     0
102
RTVSPost2010PropOp31
 70
     1
102
RTVSPost2010Prop32
280
     0
102
RTVSPost2010PropOp32
 70
     1
102
RTVSPost2010Prop33
280
     0
102
RTVSPost2010PropOp33
 70
     1
102
RTVSPost2010Prop34
280
     0
102
RTVSPost2010PropOp34
 70
     1
102
RTVSPost2010Prop35
280
     0
102
RTVSPost2010PropOp35
 70
     1
102
RTVSPost2010Prop36
280
     0
102
RTVSPost2010PropOp36
 70
     1
102
RTVSPost2010Prop37
 90
       50
102
RTVSPost2010PropOp37
 70
     1
102
RTVSPost2010Prop38
140
0.0
102
RTVSPost2010PropOp38
 70
     1
102
RTVSPost2010Prop39
140
1.0
102
RTVSPost2010PropOp39
 70
     1
102
RTVSPost2010Prop40
 90
        0
102
RTVSPost2010PropOp40
 70
     1
102
RTVSPost2010Prop41ColorIndex
 90
       18
102
RTVSPost2010Prop41ColorRGB
 90
        0
102
RTVSPost2010PropOp41
 70
     1
102
RTVSPost2010Prop42
 90
       50
102
RTVSPost2010PropOp42
 70
     1
102
RTVSPost2010Prop43
 90
        3
102
RTVSPost2010PropOp43
 70
     1
102
RTVSPost2010Prop44ColorIndex
 90
        5
102
RTVSPost2010Prop44ColorRGB
 90
      255
102
RTVSPost2010PropOp44
 70
     1
102
RTVSPost2010Prop45
280
     0
102
RTVSPost2010PropOp45
 70
     1
102
RTVSPost2010Prop46
 90
       50
102
RTVSPost2010PropOp46
 70
     1
102
RTVSPost2010Prop47
 90
       50
102
RTVSPost2010PropOp47
 70
     1
102
RTVSPost2010Prop48
 90
       50
102
RTVSPost2010PropOp48
 70
     1
102
RTVSPost2010Prop49
280
     0
102
RTVSPost2010PropOp49
 70
     1
102
RTVSPost2010Prop50
 90
       50
102
RTVSPost2010PropOp50
 70
     1
102
RTVSPost2010Prop51ColorIndex
 90
      256
102
RTVSPost2010Prop51ColorRGB
 90
-16777216
102
RTVSPost2010PropOp51
 70
     0
102
RTVSPost2010Prop52
140
1.0
102
RTVSPost2010PropOp52
 70
     0
102
RTVSPost2010Prop53
 90
        2
102
RTVSPost2010PropOp53
 70
     1
102
RTVSPost2010Prop54
  1
strokes_ogs.tif
102
RTVSPost2010PropOp54
 70
     1
102
RTVSPost2010Prop55
280
     0
102
RTVSPost2010PropOp55
 70
     1
102
RTVSPost2010Prop56
140
1.0
102
RTVSPost2010PropOp56
 70
     1
102
RTVSPost2010Prop57
140
1.0
102
RTVSPost2010PropOp57
 70
     1
  0
XRECORD
  5
324
102
{ACAD_REACTORS
330
323
102
}
330
323
100
AcDbXrecord
280
     1
102
RTVSPropertyOp0
 70
     1
102
RTVSPropertyOp1
 70
     1
102
RTVSPropertyOp2
 70
     1
102
RTVSPropertyOp3
 70
     1
102
RTVSPropertyOp4
 70
     1
102
RTVSPropertyOp5
 70
     1
102
RTVSPropertyOp6
 70
     1
102
RTVSPropertyOp7
 70
     1
102
RTVSPropertyOp8
 70
     1
102
RTVSPropertyOp9
 70
     1
102
RTVSPropertyOp10
 70
     1
102
RTVSPropertyOp11
 70
     1
102
RTVSPropertyOp12
 70
     1
102
RTVSPropertyOp13
 70
     1
102
RTVSPropertyOp14
 70
     1
102
RTVSPropertyOp15
 70
     1
102
RTVSPropertyOp16
 70
     1
102
RTVSPropertyOp17
 70
     1
102
RTVSPropertyOp18
 70
     1
102
RTVSPropertyOp19
 70
     1
102
RTVSPropertyOp20
 70
     1
102
RTVSPropertyOp21
 70
     1
102
RTVSPropertyOp22
 70
     1
102
RTVSPropertyOp23
 70
     1
102
RTVSPropertyOp24
 70
     1
102
RTVSPropertyOp25
 70
     1
102
RTVSPropertyOp26
 70
     1
102
RTVSPropertyOp27
 70
     1
102
RTVSPropertyOp28
 70
     1
102
RTVSPropertyOp29
 70
     1
102
RTVSPropertyOp30
 70
     1
102
RTVSPropertyOp31
 70
     1
102
RTVSPropertyOp32
 70
     1
102
RTVSPropertyOp33
 70
     1
102
RTVSPropertyOp34
 70
     1
102
RTVSPropertyOp35
 70
     1
102
RTVSPropertyOp36
 70
     1
102
RTVSPropertyOp37
 70
     1
102
RTVSPropertyOp38
 70
     1
102
RTVSPropertyOp39
 70
     1
102
RTVSPropertyOp40
 70
     1
102
RTVSPropertyOp41
 70
     1
102
RTVSPropertyOp42
 70
     1
102
RTVSPropertyOp43
 70
     1
102
RTVSPropertyOp44
 70
     1
102
RTVSPropertyOp45
 70
     1
102
RTVSPropertyOp46
 70
     1
102
RTVSPropertyOp47
 70
     1
102
RTVSPropertyOp48
 70
     1
102
RTVSPropertyOp49
 70
     1
102
RTVSPropertyOp50
 70
     1
102
RTVSPropertyOp51
 70
     0
102
RTVSPropertyOp52
 70
     0
102
RTVSPropertyOp53
 70
     1
102
RTVSPropertyOp54
 70
     1
102
RTVSPropertyOp55
 70
     1
102
RTVSPropertyOp56
 70
     1
102
RTVSPropertyOp57
 70
     1
102
RTVSPost2010Prop28
280
     0
102
RTVSPost2010PropOp28
 70
     1
102
RTVSPost2010Prop29
280
     1
102
RTVSPost2010PropOp29
 70
     1
102
RTVSPost2010Prop30
280
     1
102
RTVSPost2010PropOp30
 70
     1
102
RTVSPost2010Prop31
280
     0
102
RTVSPost2010PropOp31
 70
     1
102
RTVSPost2010Prop32
280
     0
102
RTVSPost2010PropOp32
 70
     1
102
RTVSPost2010Prop33
280
     0
102
RTVSPost2010PropOp33
 70
     1
102
RTVSPost2010Prop34
280
     0
102
RTVSPost2010PropOp34
 70
     1
102
RTVSPost2010Prop35
280
     0
102
RTVSPost2010PropOp35
 70
     1
102
RTVSPost2010Prop36
280
     0
102
RTVSPost2010PropOp36
 70
     1
102
RTVSPost2010Prop37
 90
       50
102
RTVSPost2010PropOp37
 70
     1
102
RTVSPost2010Prop38
140
0.0
102
RTVSPost2010PropOp38
 70
     1
102
RTVSPost2010Prop39
140
1.0
102
RTVSPost2010PropOp39
 70
     1
102
RTVSPost2010Prop40
 90
        0
102
RTVSPost2010PropOp40
 70
     1
102
RTVSPost2010Prop41ColorIndex
 90
       18
102
RTVSPost2010Prop41ColorRGB
 90
        0
102
RTVSPost2010PropOp41
 70
     1
102
RTVSPost2010Prop42
 90
       50
102
RTVSPost2010PropOp42
 70
     1
102
RTVSPost2010Prop43
 90
        3
102
RTVSPost2010PropOp43
 70
     1
102
RTVSPost2010Prop44ColorIndex
 90
        5
102
RTVSPost2010Prop44ColorRGB
 90
      255
102
RTVSPost2010PropOp44
 70
     1
102
RTVSPost2010Prop45
280
     0
102
RTVSPost2010PropOp45
 70
     1
102
RTVSPost2010Prop46
 90
       50
102
RTVSPost2010PropOp46
 70
     1
102
RTVSPost2010Prop47
 90
       50
102
RTVSPost2010PropOp47
 70
     1
102
RTVSPost2010Prop48
 90
       50
102
RTVSPost2010PropOp48
 70
     1
102
RTVSPost2010Prop49
280
     0
102
RTVSPost2010PropOp49
 70
     1
102
RTVSPost2010Prop50
 90
       50
102
RTVSPost2010PropOp50
 70
     1
102
RTVSPost2010Prop51ColorIndex
 90
      256
102
RTVSPost2010Prop51ColorRGB
 90
-16777216
102
RTVSPost2010PropOp51
 70
     0
102
RTVSPost2010Prop52
140
1.0
102
RTVSPost2010PropOp52
 70
     0
102
RTVSPost2010Prop53
 90
        2
102
RTVSPost2010PropOp53
 70
     1
102
RTVSPost2010Prop54
  1
strokes_ogs.tif
102
RTVSPost2010PropOp54
 70
     1
102
RTVSPost2010Prop55
280
     0
102
RTVSPost2010PropOp55
 70
     1
102
RTVSPost2010Prop56
140
1.0
102
RTVSPost2010PropOp56
 70
     1
102
RTVSPost2010Prop57
140
1.0
102
RTVSPost2010PropOp57
 70
     1
  0
XRECORD
  5
322
102
{ACAD_REACTORS
330
321
102
}
330
321
100
AcDbXrecord
280
     1
102
RTVSPropertyOp0
 70
     1
102
RTVSPropertyOp1
 70
     1
102
RTVSPropertyOp2
 70
     1
102
RTVSPropertyOp3
 70
     1
102
RTVSPropertyOp4
 70
     1
102
RTVSPropertyOp5
 70
     1
102
RTVSPropertyOp6
 70
     1
102
RTVSPropertyOp7
 70
     1
102
RTVSPropertyOp8
 70
     1
102
RTVSPropertyOp9
 70
     1
102
RTVSPropertyOp10
 70
     1
102
RTVSPropertyOp11
 70
     1
102
RTVSPropertyOp12
 70
     1
102
RTVSPropertyOp13
 70
     1
102
RTVSPropertyOp14
 70
     1
102
RTVSPropertyOp15
 70
     1
102
RTVSPropertyOp16
 70
     1
102
RTVSPropertyOp17
 70
     1
102
RTVSPropertyOp18
 70
     1
102
RTVSPropertyOp19
 70
     1
102
RTVSPropertyOp20
 70
     1
102
RTVSPropertyOp21
 70
     1
102
RTVSPropertyOp22
 70
     1
102
RTVSPropertyOp23
 70
     1
102
RTVSPropertyOp24
 70
     1
102
RTVSPropertyOp25
 70
     1
102
RTVSPropertyOp26
 70
     1
102
RTVSPropertyOp27
 70
     1
102
RTVSPropertyOp28
 70
     1
102
RTVSPropertyOp29
 70
     1
102
RTVSPropertyOp30
 70
     1
102
RTVSPropertyOp31
 70
     1
102
RTVSPropertyOp32
 70
     1
102
RTVSPropertyOp33
 70
     1
102
RTVSPropertyOp34
 70
     1
102
RTVSPropertyOp35
 70
     1
102
RTVSPropertyOp36
 70
     1
102
RTVSPropertyOp37
 70
     1
102
RTVSPropertyOp38
 70
     1
102
RTVSPropertyOp39
 70
     1
102
RTVSPropertyOp40
 70
     1
102
RTVSPropertyOp41
 70
     1
102
RTVSPropertyOp42
 70
     1
102
RTVSPropertyOp43
 70
     1
102
RTVSPropertyOp44
 70
     1
102
RTVSPropertyOp45
 70
     1
102
RTVSPropertyOp46
 70
     1
102
RTVSPropertyOp47
 70
     1
102
RTVSPropertyOp48
 70
     1
102
RTVSPropertyOp49
 70
     1
102
RTVSPropertyOp50
 70
     1
102
RTVSPropertyOp51
 70
     0
102
RTVSPropertyOp52
 70
     0
102
RTVSPropertyOp53
 70
     1
102
RTVSPropertyOp54
 70
     1
102
RTVSPropertyOp55
 70
     1
102
RTVSPropertyOp56
 70
     1
102
RTVSPropertyOp57
 70
     1
102
RTVSPost2010Prop28
280
     0
102
RTVSPost2010PropOp28
 70
     1
102
RTVSPost2010Prop29
280
     1
102
RTVSPost2010PropOp29
 70
     1
102
RTVSPost2010Prop30
280
     1
102
RTVSPost2010PropOp30
 70
     1
102
RTVSPost2010Prop31
280
     0
102
RTVSPost2010PropOp31
 70
     1
102
RTVSPost2010Prop32
280
     0
102
RTVSPost2010PropOp32
 70
     1
102
RTVSPost2010Prop33
280
     0
102
RTVSPost2010PropOp33
 70
     1
102
RTVSPost2010Prop34
280
     0
102
RTVSPost2010PropOp34
 70
     1
102
RTVSPost2010Prop35
280
     0
102
RTVSPost2010PropOp35
 70
     1
102
RTVSPost2010Prop36
280
     0
102
RTVSPost2010PropOp36
 70
     1
102
RTVSPost2010Prop37
 90
       50
102
RTVSPost2010PropOp37
 70
     1
102
RTVSPost2010Prop38
140
0.0
102
RTVSPost2010PropOp38
 70
     1
102
RTVSPost2010Prop39
140
1.0
102
RTVSPost2010PropOp39
 70
     1
102
RTVSPost2010Prop40
 90
        0
102
RTVSPost2010PropOp40
 70
     1
102
RTVSPost2010Prop41ColorIndex
 90
       18
102
RTVSPost2010Prop41ColorRGB
 90
        0
102
RTVSPost2010PropOp41
 70
     1
102
RTVSPost2010Prop42
 90
       50
102
RTVSPost2010PropOp42
 70
     1
102
RTVSPost2010Prop43
 90
        3
102
RTVSPost2010PropOp43
 70
     1
102
RTVSPost2010Prop44ColorIndex
 90
        5
102
RTVSPost2010Prop44ColorRGB
 90
      255
102
RTVSPost2010PropOp44
 70
     1
102
RTVSPost2010Prop45
280
     0
102
RTVSPost2010PropOp45
 70
     1
102
RTVSPost2010Prop46
 90
       50
102
RTVSPost2010PropOp46
 70
     1
102
RTVSPost2010Prop47
 90
       50
102
RTVSPost2010PropOp47
 70
     1
102
RTVSPost2010Prop48
 90
       50
102
RTVSPost2010PropOp48
 70
     1
102
RTVSPost2010Prop49
280
     0
102
RTVSPost2010PropOp49
 70
     1
102
RTVSPost2010Prop50
 90
       50
102
RTVSPost2010PropOp50
 70
     1
102
RTVSPost2010Prop51ColorIndex
 90
      256
102
RTVSPost2010Prop51ColorRGB
 90
-16777216
102
RTVSPost2010PropOp51
 70
     0
102
RTVSPost2010Prop52
140
1.0
102
RTVSPost2010PropOp52
 70
     0
102
RTVSPost2010Prop53
 90
        2
102
RTVSPost2010PropOp53
 70
     1
102
RTVSPost2010Prop54
  1
strokes_ogs.tif
102
RTVSPost2010PropOp54
 70
     1
102
RTVSPost2010Prop55
280
     0
102
RTVSPost2010PropOp55
 70
     1
102
RTVSPost2010Prop56
140
1.0
102
RTVSPost2010PropOp56
 70
     1
102
RTVSPost2010Prop57
140
1.0
102
RTVSPost2010PropOp57
 70
     1
  0
XRECORD
  5
31C
102
{ACAD_REACTORS
330
31B
102
}
330
31B
100
AcDbXrecord
280
     1
102
RTVSPropertyOp0
 70
     1
102
RTVSPropertyOp1
 70
     1
102
RTVSPropertyOp2
 70
     1
102
RTVSPropertyOp3
 70
     1
102
RTVSPropertyOp4
 70
     1
102
RTVSPropertyOp5
 70
     1
102
RTVSPropertyOp6
 70
     1
102
RTVSPropertyOp7
 70
     1
102
RTVSPropertyOp8
 70
     1
102
RTVSPropertyOp9
 70
     1
102
RTVSPropertyOp10
 70
     1
102
RTVSPropertyOp11
 70
     1
102
RTVSPropertyOp12
 70
     1
102
RTVSPropertyOp13
 70
     1
102
RTVSPropertyOp14
 70
     1
102
RTVSPropertyOp15
 70
     1
102
RTVSPropertyOp16
 70
     1
102
RTVSPropertyOp17
 70
     1
102
RTVSPropertyOp18
 70
     1
102
RTVSPropertyOp19
 70
     1
102
RTVSPropertyOp20
 70
     1
102
RTVSPropertyOp21
 70
     1
102
RTVSPropertyOp22
 70
     1
102
RTVSPropertyOp23
 70
     1
102
RTVSPropertyOp24
 70
     1
102
RTVSPropertyOp25
 70
     1
102
RTVSPropertyOp26
 70
     1
102
RTVSPropertyOp27
 70
     1
102
RTVSPropertyOp28
 70
     1
102
RTVSPropertyOp29
 70
     1
102
RTVSPropertyOp30
 70
     1
102
RTVSPropertyOp31
 70
     1
102
RTVSPropertyOp32
 70
     1
102
RTVSPropertyOp33
 70
     1
102
RTVSPropertyOp34
 70
     1
102
RTVSPropertyOp35
 70
     1
102
RTVSPropertyOp36
 70
     1
102
RTVSPropertyOp37
 70
     1
102
RTVSPropertyOp38
 70
     1
102
RTVSPropertyOp39
 70
     1
102
RTVSPropertyOp40
 70
     1
102
RTVSPropertyOp41
 70
     1
102
RTVSPropertyOp42
 70
     1
102
RTVSPropertyOp43
 70
     1
102
RTVSPropertyOp44
 70
     1
102
RTVSPropertyOp45
 70
     1
102
RTVSPropertyOp46
 70
     1
102
RTVSPropertyOp47
 70
     1
102
RTVSPropertyOp48
 70
     1
102
RTVSPropertyOp49
 70
     1
102
RTVSPropertyOp50
 70
     1
102
RTVSPropertyOp51
 70
     0
102
RTVSPropertyOp52
 70
     0
102
RTVSPropertyOp53
 70
     1
102
RTVSPropertyOp54
 70
     1
102
RTVSPropertyOp55
 70
     1
102
RTVSPropertyOp56
 70
     1
102
RTVSPropertyOp57
 70
     1
102
RTVSPost2010Prop28
280
     0
102
RTVSPost2010PropOp28
 70
     1
102
RTVSPost2010Prop29
280
     1
102
RTVSPost2010PropOp29
 70
     1
102
RTVSPost2010Prop30
280
     1
102
RTVSPost2010PropOp30
 70
     1
102
RTVSPost2010Prop31
280
     0
102
RTVSPost2010PropOp31
 70
     1
102
RTVSPost2010Prop32
280
     0
102
RTVSPost2010PropOp32
 70
     1
102
RTVSPost2010Prop33
280
     0
102
RTVSPost2010PropOp33
 70
     1
102
RTVSPost2010Prop34
280
     0
102
RTVSPost2010PropOp34
 70
     1
102
RTVSPost2010Prop35
280
     0
102
RTVSPost2010PropOp35
 70
     1
102
RTVSPost2010Prop36
280
     0
102
RTVSPost2010PropOp36
 70
     1
102
RTVSPost2010Prop37
 90
       50
102
RTVSPost2010PropOp37
 70
     1
102
RTVSPost2010Prop38
140
0.0
102
RTVSPost2010PropOp38
 70
     1
102
RTVSPost2010Prop39
140
1.0
102
RTVSPost2010PropOp39
 70
     1
102
RTVSPost2010Prop40
 90
        0
102
RTVSPost2010PropOp40
 70
     1
102
RTVSPost2010Prop41ColorIndex
 90
       18
102
RTVSPost2010Prop41ColorRGB
 90
        0
102
RTVSPost2010PropOp41
 70
     1
102
RTVSPost2010Prop42
 90
       50
102
RTVSPost2010PropOp42
 70
     1
102
RTVSPost2010Prop43
 90
        3
102
RTVSPost2010PropOp43
 70
     1
102
RTVSPost2010Prop44ColorIndex
 90
        5
102
RTVSPost2010Prop44ColorRGB
 90
      255
102
RTVSPost2010PropOp44
 70
     1
102
RTVSPost2010Prop45
280
     0
102
RTVSPost2010PropOp45
 70
     1
102
RTVSPost2010Prop46
 90
       50
102
RTVSPost2010PropOp46
 70
     1
102
RTVSPost2010Prop47
 90
       50
102
RTVSPost2010PropOp47
 70
     1
102
RTVSPost2010Prop48
 90
       50
102
RTVSPost2010PropOp48
 70
     1
102
RTVSPost2010Prop49
280
     0
102
RTVSPost2010PropOp49
 70
     1
102
RTVSPost2010Prop50
 90
       50
102
RTVSPost2010PropOp50
 70
     1
102
RTVSPost2010Prop51ColorIndex
 90
      256
102
RTVSPost2010Prop51ColorRGB
 90
-16777216
102
RTVSPost2010PropOp51
 70
     0
102
RTVSPost2010Prop52
140
1.0
102
RTVSPost2010PropOp52
 70
     0
102
RTVSPost2010Prop53
 90
        2
102
RTVSPost2010PropOp53
 70
     1
102
RTVSPost2010Prop54
  1
strokes_ogs.tif
102
RTVSPost2010PropOp54
 70
     1
102
RTVSPost2010Prop55
280
     0
102
RTVSPost2010PropOp55
 70
     1
102
RTVSPost2010Prop56
140
1.0
102
RTVSPost2010PropOp56
 70
     1
102
RTVSPost2010Prop57
140
1.0
102
RTVSPost2010PropOp57
 70
     1
  0
XRECORD
  5
31E
102
{ACAD_REACTORS
330
31D
102
}
330
31D
100
AcDbXrecord
280
     1
102
RTVSPropertyOp0
 70
     1
102
RTVSPropertyOp1
 70
     1
102
RTVSPropertyOp2
 70
     1
102
RTVSPropertyOp3
 70
     1
102
RTVSPropertyOp4
 70
     1
102
RTVSPropertyOp5
 70
     1
102
RTVSPropertyOp6
 70
     1
102
RTVSPropertyOp7
 70
     1
102
RTVSPropertyOp8
 70
     1
102
RTVSPropertyOp9
 70
     1
102
RTVSPropertyOp10
 70
     1
102
RTVSPropertyOp11
 70
     1
102
RTVSPropertyOp12
 70
     1
102
RTVSPropertyOp13
 70
     1
102
RTVSPropertyOp14
 70
     1
102
RTVSPropertyOp15
 70
     1
102
RTVSPropertyOp16
 70
     1
102
RTVSPropertyOp17
 70
     1
102
RTVSPropertyOp18
 70
     1
102
RTVSPropertyOp19
 70
     1
102
RTVSPropertyOp20
 70
     1
102
RTVSPropertyOp21
 70
     1
102
RTVSPropertyOp22
 70
     1
102
RTVSPropertyOp23
 70
     1
102
RTVSPropertyOp24
 70
     1
102
RTVSPropertyOp25
 70
     1
102
RTVSPropertyOp26
 70
     1
102
RTVSPropertyOp27
 70
     1
102
RTVSPropertyOp28
 70
     1
102
RTVSPropertyOp29
 70
     1
102
RTVSPropertyOp30
 70
     1
102
RTVSPropertyOp31
 70
     1
102
RTVSPropertyOp32
 70
     1
102
RTVSPropertyOp33
 70
     1
102
RTVSPropertyOp34
 70
     1
102
RTVSPropertyOp35
 70
     1
102
RTVSPropertyOp36
 70
     1
102
RTVSPropertyOp37
 70
     1
102
RTVSPropertyOp38
 70
     1
102
RTVSPropertyOp39
 70
     1
102
RTVSPropertyOp40
 70
     1
102
RTVSPropertyOp41
 70
     1
102
RTVSPropertyOp42
 70
     1
102
RTVSPropertyOp43
 70
     1
102
RTVSPropertyOp44
 70
     1
102
RTVSPropertyOp45
 70
     1
102
RTVSPropertyOp46
 70
     1
102
RTVSPropertyOp47
 70
     1
102
RTVSPropertyOp48
 70
     1
102
RTVSPropertyOp49
 70
     1
102
RTVSPropertyOp50
 70
     1
102
RTVSPropertyOp51
 70
     0
102
RTVSPropertyOp52
 70
     0
102
RTVSPropertyOp53
 70
     1
102
RTVSPropertyOp54
 70
     1
102
RTVSPropertyOp55
 70
     1
102
RTVSPropertyOp56
 70
     1
102
RTVSPropertyOp57
 70
     1
102
RTVSPost2010Prop28
280
     0
102
RTVSPost2010PropOp28
 70
     1
102
RTVSPost2010Prop29
280
     1
102
RTVSPost2010PropOp29
 70
     1
102
RTVSPost2010Prop30
280
     1
102
RTVSPost2010PropOp30
 70
     1
102
RTVSPost2010Prop31
280
     0
102
RTVSPost2010PropOp31
 70
     1
102
RTVSPost2010Prop32
280
     0
102
RTVSPost2010PropOp32
 70
     1
102
RTVSPost2010Prop33
280
     0
102
RTVSPost2010PropOp33
 70
     1
102
RTVSPost2010Prop34
280
     0
102
RTVSPost2010PropOp34
 70
     1
102
RTVSPost2010Prop35
280
     0
102
RTVSPost2010PropOp35
 70
     1
102
RTVSPost2010Prop36
280
     0
102
RTVSPost2010PropOp36
 70
     1
102
RTVSPost2010Prop37
 90
       50
102
RTVSPost2010PropOp37
 70
     1
102
RTVSPost2010Prop38
140
0.0
102
RTVSPost2010PropOp38
 70
     1
102
RTVSPost2010Prop39
140
1.0
102
RTVSPost2010PropOp39
 70
     1
102
RTVSPost2010Prop40
 90
        0
102
RTVSPost2010PropOp40
 70
     1
102
RTVSPost2010Prop41ColorIndex
 90
       18
102
RTVSPost2010Prop41ColorRGB
 90
        0
102
RTVSPost2010PropOp41
 70
     1
102
RTVSPost2010Prop42
 90
       50
102
RTVSPost2010PropOp42
 70
     1
102
RTVSPost2010Prop43
 90
        3
102
RTVSPost2010PropOp43
 70
     1
102
RTVSPost2010Prop44ColorIndex
 90
        5
102
RTVSPost2010Prop44ColorRGB
 90
      255
102
RTVSPost2010PropOp44
 70
     1
102
RTVSPost2010Prop45
280
     0
102
RTVSPost2010PropOp45
 70
     1
102
RTVSPost2010Prop46
 90
       50
102
RTVSPost2010PropOp46
 70
     1
102
RTVSPost2010Prop47
 90
       50
102
RTVSPost2010PropOp47
 70
     1
102
RTVSPost2010Prop48
 90
       50
102
RTVSPost2010PropOp48
 70
     1
102
RTVSPost2010Prop49
280
     0
102
RTVSPost2010PropOp49
 70
     1
102
RTVSPost2010Prop50
 90
       50
102
RTVSPost2010PropOp50
 70
     1
102
RTVSPost2010Prop51ColorIndex
 90
      256
102
RTVSPost2010Prop51ColorRGB
 90
-16777216
102
RTVSPost2010PropOp51
 70
     0
102
RTVSPost2010Prop52
140
1.0
102
RTVSPost2010PropOp52
 70
     0
102
RTVSPost2010Prop53
 90
        2
102
RTVSPost2010PropOp53
 70
     1
102
RTVSPost2010Prop54
  1
strokes_ogs.tif
102
RTVSPost2010PropOp54
 70
     1
102
RTVSPost2010Prop55
280
     0
102
RTVSPost2010PropOp55
 70
     1
102
RTVSPost2010Prop56
140
1.0
102
RTVSPost2010PropOp56
 70
     1
102
RTVSPost2010Prop57
140
1.0
102
RTVSPost2010PropOp57
 70
     1
  0
XRECORD
  5
30E
102
{ACAD_REACTORS
330
30D
102
}
330
30D
100
AcDbXrecord
280
     1
102
RTVSPropertyOp0
 70
     1
102
RTVSPropertyOp1
 70
     1
102
RTVSPropertyOp2
 70
     1
102
RTVSPropertyOp3
 70
     1
102
RTVSPropertyOp4
 70
     1
102
RTVSPropertyOp5
 70
     1
102
RTVSPropertyOp6
 70
     1
102
RTVSPropertyOp7
 70
     1
102
RTVSPropertyOp8
 70
     1
102
RTVSPropertyOp9
 70
     1
102
RTVSPropertyOp10
 70
     1
102
RTVSPropertyOp11
 70
     1
102
RTVSPropertyOp12
 70
     1
102
RTVSPropertyOp13
 70
     1
102
RTVSPropertyOp14
 70
     1
102
RTVSPropertyOp15
 70
     1
102
RTVSPropertyOp16
 70
     1
102
RTVSPropertyOp17
 70
     1
102
RTVSPropertyOp18
 70
     1
102
RTVSPropertyOp19
 70
     1
102
RTVSPropertyOp20
 70
     1
102
RTVSPropertyOp21
 70
     1
102
RTVSPropertyOp22
 70
     1
102
RTVSPropertyOp23
 70
     1
102
RTVSPropertyOp24
 70
     1
102
RTVSPropertyOp25
 70
     1
102
RTVSPropertyOp26
 70
     1
102
RTVSPropertyOp27
 70
     1
102
RTVSPropertyOp28
 70
     1
102
RTVSPropertyOp29
 70
     1
102
RTVSPropertyOp30
 70
     1
102
RTVSPropertyOp31
 70
     1
102
RTVSPropertyOp32
 70
     1
102
RTVSPropertyOp33
 70
     1
102
RTVSPropertyOp34
 70
     1
102
RTVSPropertyOp35
 70
     1
102
RTVSPropertyOp36
 70
     1
102
RTVSPropertyOp37
 70
     1
102
RTVSPropertyOp38
 70
     1
102
RTVSPropertyOp39
 70
     1
102
RTVSPropertyOp40
 70
     1
102
RTVSPropertyOp41
 70
     1
102
RTVSPropertyOp42
 70
     1
102
RTVSPropertyOp43
 70
     1
102
RTVSPropertyOp44
 70
     1
102
RTVSPropertyOp45
 70
     1
102
RTVSPropertyOp46
 70
     1
102
RTVSPropertyOp47
 70
     1
102
RTVSPropertyOp48
 70
     1
102
RTVSPropertyOp49
 70
     1
102
RTVSPropertyOp50
 70
     1
102
RTVSPropertyOp51
 70
     0
102
RTVSPropertyOp52
 70
     0
102
RTVSPropertyOp53
 70
     1
102
RTVSPropertyOp54
 70
     1
102
RTVSPropertyOp55
 70
     1
102
RTVSPropertyOp56
 70
     1
102
RTVSPropertyOp57
 70
     1
102
RTVSPost2010Prop28
280
     0
102
RTVSPost2010PropOp28
 70
     1
102
RTVSPost2010Prop29
280
     1
102
RTVSPost2010PropOp29
 70
     1
102
RTVSPost2010Prop30
280
     1
102
RTVSPost2010PropOp30
 70
     1
102
RTVSPost2010Prop31
280
     0
102
RTVSPost2010PropOp31
 70
     1
102
RTVSPost2010Prop32
280
     0
102
RTVSPost2010PropOp32
 70
     1
102
RTVSPost2010Prop33
280
     0
102
RTVSPost2010PropOp33
 70
     1
102
RTVSPost2010Prop34
280
     0
102
RTVSPost2010PropOp34
 70
     1
102
RTVSPost2010Prop35
280
     0
102
RTVSPost2010PropOp35
 70
     1
102
RTVSPost2010Prop36
280
     0
102
RTVSPost2010PropOp36
 70
     1
102
RTVSPost2010Prop37
 90
       50
102
RTVSPost2010PropOp37
 70
     1
102
RTVSPost2010Prop38
140
0.0
102
RTVSPost2010PropOp38
 70
     1
102
RTVSPost2010Prop39
140
1.0
102
RTVSPost2010PropOp39
 70
     1
102
RTVSPost2010Prop40
 90
        0
102
RTVSPost2010PropOp40
 70
     1
102
RTVSPost2010Prop41ColorIndex
 90
       18
102
RTVSPost2010Prop41ColorRGB
 90
        0
102
RTVSPost2010PropOp41
 70
     1
102
RTVSPost2010Prop42
 90
       50
102
RTVSPost2010PropOp42
 70
     1
102
RTVSPost2010Prop43
 90
        3
102
RTVSPost2010PropOp43
 70
     1
102
RTVSPost2010Prop44ColorIndex
 90
        5
102
RTVSPost2010Prop44ColorRGB
 90
      255
102
RTVSPost2010PropOp44
 70
     1
102
RTVSPost2010Prop45
280
     0
102
RTVSPost2010PropOp45
 70
     1
102
RTVSPost2010Prop46
 90
       50
102
RTVSPost2010PropOp46
 70
     1
102
RTVSPost2010Prop47
 90
       50
102
RTVSPost2010PropOp47
 70
     1
102
RTVSPost2010Prop48
 90
       50
102
RTVSPost2010PropOp48
 70
     1
102
RTVSPost2010Prop49
280
     0
102
RTVSPost2010PropOp49
 70
     1
102
RTVSPost2010Prop50
 90
       50
102
RTVSPost2010PropOp50
 70
     1
102
RTVSPost2010Prop51ColorIndex
 90
      256
102
RTVSPost2010Prop51ColorRGB
 90
-16777216
102
RTVSPost2010PropOp51
 70
     0
102
RTVSPost2010Prop52
140
1.0
102
RTVSPost2010PropOp52
 70
     0
102
RTVSPost2010Prop53
 90
        2
102
RTVSPost2010PropOp53
 70
     1
102
RTVSPost2010Prop54
  1
strokes_ogs.tif
102
RTVSPost2010PropOp54
 70
     1
102
RTVSPost2010Prop55
280
     0
102
RTVSPost2010PropOp55
 70
     1
102
RTVSPost2010Prop56
140
1.0
102
RTVSPost2010PropOp56
 70
     1
102
RTVSPost2010Prop57
140
1.0
102
RTVSPost2010PropOp57
 70
     1
  0
XRECORD
  5
300
102
{ACAD_REACTORS
330
2FF
102
}
330
2FF
100
AcDbXrecord
280
     1
102
RTVSPropertyOp0
 70
     1
102
RTVSPropertyOp1
 70
     1
102
RTVSPropertyOp2
 70
     1
102
RTVSPropertyOp3
 70
     1
102
RTVSPropertyOp4
 70
     1
102
RTVSPropertyOp5
 70
     1
102
RTVSPropertyOp6
 70
     1
102
RTVSPropertyOp7
 70
     1
102
RTVSPropertyOp8
 70
     1
102
RTVSPropertyOp9
 70
     1
102
RTVSPropertyOp10
 70
     1
102
RTVSPropertyOp11
 70
     1
102
RTVSPropertyOp12
 70
     1
102
RTVSPropertyOp13
 70
     1
102
RTVSPropertyOp14
 70
     1
102
RTVSPropertyOp15
 70
     1
102
RTVSPropertyOp16
 70
     1
102
RTVSPropertyOp17
 70
     1
102
RTVSPropertyOp18
 70
     1
102
RTVSPropertyOp19
 70
     1
102
RTVSPropertyOp20
 70
     1
102
RTVSPropertyOp21
 70
     1
102
RTVSPropertyOp22
 70
     1
102
RTVSPropertyOp23
 70
     1
102
RTVSPropertyOp24
 70
     1
102
RTVSPropertyOp25
 70
     1
102
RTVSPropertyOp26
 70
     1
102
RTVSPropertyOp27
 70
     1
102
RTVSPropertyOp28
 70
     1
102
RTVSPropertyOp29
 70
     1
102
RTVSPropertyOp30
 70
     1
102
RTVSPropertyOp31
 70
     1
102
RTVSPropertyOp32
 70
     1
102
RTVSPropertyOp33
 70
     1
102
RTVSPropertyOp34
 70
     1
102
RTVSPropertyOp35
 70
     1
102
RTVSPropertyOp36
 70
     1
102
RTVSPropertyOp37
 70
     1
102
RTVSPropertyOp38
 70
     1
102
RTVSPropertyOp39
 70
     1
102
RTVSPropertyOp40
 70
     1
102
RTVSPropertyOp41
 70
     1
102
RTVSPropertyOp42
 70
     1
102
RTVSPropertyOp43
 70
     1
102
RTVSPropertyOp44
 70
     1
102
RTVSPropertyOp45
 70
     1
102
RTVSPropertyOp46
 70
     1
102
RTVSPropertyOp47
 70
     1
102
RTVSPropertyOp48
 70
     1
102
RTVSPropertyOp49
 70
     1
102
RTVSPropertyOp50
 70
     1
102
RTVSPropertyOp51
 70
     0
102
RTVSPropertyOp52
 70
     0
102
RTVSPropertyOp53
 70
     1
102
RTVSPropertyOp54
 70
     1
102
RTVSPropertyOp55
 70
     1
102
RTVSPropertyOp56
 70
     1
102
RTVSPropertyOp57
 70
     1
102
RTVSPost2010Prop28
280
     0
102
RTVSPost2010PropOp28
 70
     1
102
RTVSPost2010Prop29
280
     1
102
RTVSPost2010PropOp29
 70
     1
102
RTVSPost2010Prop30
280
     1
102
RTVSPost2010PropOp30
 70
     1
102
RTVSPost2010Prop31
280
     0
102
RTVSPost2010PropOp31
 70
     1
102
RTVSPost2010Prop32
280
     0
102
RTVSPost2010PropOp32
 70
     1
102
RTVSPost2010Prop33
280
     0
102
RTVSPost2010PropOp33
 70
     1
102
RTVSPost2010Prop34
280
     0
102
RTVSPost2010PropOp34
 70
     1
102
RTVSPost2010Prop35
280
     0
102
RTVSPost2010PropOp35
 70
     1
102
RTVSPost2010Prop36
280
     0
102
RTVSPost2010PropOp36
 70
     1
102
RTVSPost2010Prop37
 90
       50
102
RTVSPost2010PropOp37
 70
     1
102
RTVSPost2010Prop38
140
0.0
102
RTVSPost2010PropOp38
 70
     1
102
RTVSPost2010Prop39
140
1.0
102
RTVSPost2010PropOp39
 70
     1
102
RTVSPost2010Prop40
 90
        0
102
RTVSPost2010PropOp40
 70
     1
102
RTVSPost2010Prop41ColorIndex
 90
       18
102
RTVSPost2010Prop41ColorRGB
 90
        0
102
RTVSPost2010PropOp41
 70
     1
102
RTVSPost2010Prop42
 90
       50
102
RTVSPost2010PropOp42
 70
     1
102
RTVSPost2010Prop43
 90
        3
102
RTVSPost2010PropOp43
 70
     1
102
RTVSPost2010Prop44ColorIndex
 90
        5
102
RTVSPost2010Prop44ColorRGB
 90
      255
102
RTVSPost2010PropOp44
 70
     1
102
RTVSPost2010Prop45
280
     0
102
RTVSPost2010PropOp45
 70
     1
102
RTVSPost2010Prop46
 90
       50
102
RTVSPost2010PropOp46
 70
     1
102
RTVSPost2010Prop47
 90
       50
102
RTVSPost2010PropOp47
 70
     1
102
RTVSPost2010Prop48
 90
       50
102
RTVSPost2010PropOp48
 70
     1
102
RTVSPost2010Prop49
280
     0
102
RTVSPost2010PropOp49
 70
     1
102
RTVSPost2010Prop50
 90
       50
102
RTVSPost2010PropOp50
 70
     1
102
RTVSPost2010Prop51ColorIndex
 90
      256
102
RTVSPost2010Prop51ColorRGB
 90
-16777216
102
RTVSPost2010PropOp51
 70
     0
102
RTVSPost2010Prop52
140
1.0
102
RTVSPost2010PropOp52
 70
     0
102
RTVSPost2010Prop53
 90
        2
102
RTVSPost2010PropOp53
 70
     1
102
RTVSPost2010Prop54
  1
strokes_ogs.tif
102
RTVSPost2010PropOp54
 70
     1
102
RTVSPost2010Prop55
280
     0
102
RTVSPost2010PropOp55
 70
     1
102
RTVSPost2010Prop56
140
1.0
102
RTVSPost2010PropOp56
 70
     1
102
RTVSPost2010Prop57
140
1.0
102
RTVSPost2010PropOp57
 70
     1
  0
XRECORD
  5
320
102
{ACAD_REACTORS
330
31F
102
}
330
31F
100
AcDbXrecord
280
     1
102
RTVSPropertyOp0
 70
     1
102
RTVSPropertyOp1
 70
     1
102
RTVSPropertyOp2
 70
     1
102
RTVSPropertyOp3
 70
     1
102
RTVSPropertyOp4
 70
     1
102
RTVSPropertyOp5
 70
     1
102
RTVSPropertyOp6
 70
     1
102
RTVSPropertyOp7
 70
     1
102
RTVSPropertyOp8
 70
     1
102
RTVSPropertyOp9
 70
     1
102
RTVSPropertyOp10
 70
     1
102
RTVSPropertyOp11
 70
     1
102
RTVSPropertyOp12
 70
     1
102
RTVSPropertyOp13
 70
     1
102
RTVSPropertyOp14
 70
     1
102
RTVSPropertyOp15
 70
     1
102
RTVSPropertyOp16
 70
     1
102
RTVSPropertyOp17
 70
     1
102
RTVSPropertyOp18
 70
     1
102
RTVSPropertyOp19
 70
     1
102
RTVSPropertyOp20
 70
     1
102
RTVSPropertyOp21
 70
     1
102
RTVSPropertyOp22
 70
     1
102
RTVSPropertyOp23
 70
     1
102
RTVSPropertyOp24
 70
     1
102
RTVSPropertyOp25
 70
     1
102
RTVSPropertyOp26
 70
     1
102
RTVSPropertyOp27
 70
     1
102
RTVSPropertyOp28
 70
     1
102
RTVSPropertyOp29
 70
     1
102
RTVSPropertyOp30
 70
     1
102
RTVSPropertyOp31
 70
     1
102
RTVSPropertyOp32
 70
     1
102
RTVSPropertyOp33
 70
     1
102
RTVSPropertyOp34
 70
     1
102
RTVSPropertyOp35
 70
     1
102
RTVSPropertyOp36
 70
     1
102
RTVSPropertyOp37
 70
     1
102
RTVSPropertyOp38
 70
     1
102
RTVSPropertyOp39
 70
     1
102
RTVSPropertyOp40
 70
     1
102
RTVSPropertyOp41
 70
     1
102
RTVSPropertyOp42
 70
     1
102
RTVSPropertyOp43
 70
     1
102
RTVSPropertyOp44
 70
     1
102
RTVSPropertyOp45
 70
     1
102
RTVSPropertyOp46
 70
     1
102
RTVSPropertyOp47
 70
     1
102
RTVSPropertyOp48
 70
     1
102
RTVSPropertyOp49
 70
     1
102
RTVSPropertyOp50
 70
     1
102
RTVSPropertyOp51
 70
     0
102
RTVSPropertyOp52
 70
     0
102
RTVSPropertyOp53
 70
     1
102
RTVSPropertyOp54
 70
     1
102
RTVSPropertyOp55
 70
     1
102
RTVSPropertyOp56
 70
     1
102
RTVSPropertyOp57
 70
     1
102
RTVSPost2010Prop28
280
     0
102
RTVSPost2010PropOp28
 70
     1
102
RTVSPost2010Prop29
280
     1
102
RTVSPost2010PropOp29
 70
     1
102
RTVSPost2010Prop30
280
     1
102
RTVSPost2010PropOp30
 70
     1
102
RTVSPost2010Prop31
280
     0
102
RTVSPost2010PropOp31
 70
     1
102
RTVSPost2010Prop32
280
     0
102
RTVSPost2010PropOp32
 70
     1
102
RTVSPost2010Prop33
280
     0
102
RTVSPost2010PropOp33
 70
     1
102
RTVSPost2010Prop34
280
     0
102
RTVSPost2010PropOp34
 70
     1
102
RTVSPost2010Prop35
280
     0
102
RTVSPost2010PropOp35
 70
     1
102
RTVSPost2010Prop36
280
     0
102
RTVSPost2010PropOp36
 70
     1
102
RTVSPost2010Prop37
 90
       50
102
RTVSPost2010PropOp37
 70
     1
102
RTVSPost2010Prop38
140
0.0
102
RTVSPost2010PropOp38
 70
     1
102
RTVSPost2010Prop39
140
1.0
102
RTVSPost2010PropOp39
 70
     1
102
RTVSPost2010Prop40
 90
        0
102
RTVSPost2010PropOp40
 70
     1
102
RTVSPost2010Prop41ColorIndex
 90
       18
102
RTVSPost2010Prop41ColorRGB
 90
        0
102
RTVSPost2010PropOp41
 70
     1
102
RTVSPost2010Prop42
 90
       50
102
RTVSPost2010PropOp42
 70
     1
102
RTVSPost2010Prop43
 90
        3
102
RTVSPost2010PropOp43
 70
     1
102
RTVSPost2010Prop44ColorIndex
 90
        5
102
RTVSPost2010Prop44ColorRGB
 90
      255
102
RTVSPost2010PropOp44
 70
     1
102
RTVSPost2010Prop45
280
     0
102
RTVSPost2010PropOp45
 70
     1
102
RTVSPost2010Prop46
 90
       50
102
RTVSPost2010PropOp46
 70
     1
102
RTVSPost2010Prop47
 90
       50
102
RTVSPost2010PropOp47
 70
     1
102
RTVSPost2010Prop48
 90
       50
102
RTVSPost2010PropOp48
 70
     1
102
RTVSPost2010Prop49
280
     0
102
RTVSPost2010PropOp49
 70
     1
102
RTVSPost2010Prop50
 90
       50
102
RTVSPost2010PropOp50
 70
     1
102
RTVSPost2010Prop51ColorIndex
 90
      256
102
RTVSPost2010Prop51ColorRGB
 90
-16777216
102
RTVSPost2010PropOp51
 70
     0
102
RTVSPost2010Prop52
140
1.0
102
RTVSPost2010PropOp52
 70
     0
102
RTVSPost2010Prop53
 90
        2
102
RTVSPost2010PropOp53
 70
     1
102
RTVSPost2010Prop54
  1
strokes_ogs.tif
102
RTVSPost2010PropOp54
 70
     1
102
RTVSPost2010Prop55
280
     0
102
RTVSPost2010PropOp55
 70
     1
102
RTVSPost2010Prop56
140
1.0
102
RTVSPost2010PropOp56
 70
     1
102
RTVSPost2010Prop57
140
1.0
102
RTVSPost2010PropOp57
 70
     1
  0
ENDSEC
  0
EOF
