  0
SECTION
  2
HEADER
  9
$ACADVER
  1
AC1024
  9
$ACADMAINTVER
 70
     6
  9
$DWGCODEPAGE
  3
ANSI_1252
  9
$INSBASE
 10
0.0
 20
0.0
 30
0.0
  9
$EXTMIN
 10
1.000000E+20
 20
1.000000E+20
 30
1.000000E+20
  9
$EXTMAX
 10
-1.000000E+20
 20
-1.000000E+20
 30
-1.000000E+20
  9
$LIMMIN
 10
0.0
 20
0.0
  9
$LIMMAX
 10
420.0
 20
297.0
  9
$ORTHOMODE
 70
     0
  9
$REGENMODE
 70
     1
  9
$FILLMODE
 70
     1
  9
$QTEXTMODE
 70
     0
  9
$MIRRTEXT
 70
     1
  9
$LTSCALE
 40
1.0
  9
$ATTMODE
 70
     1
  9
$TEXTSIZE
 40
2.5
  9
$TRACEWID
 40
1.0
  9
$TEXTSTYLE
  7
Standard
  9
$CLAYER
  8
0
  9
$CELTYPE
  6
ByLayer
  9
$CECOLOR
 62
   256
  9
$CELTSCALE
 40
1.0
  9
$DISPSILH
 70
     0
  9
$DIMSCALE
 40
1.0
  9
$DIMASZ
 40
2.5
  9
$DIMEXO
 40
0.625
  9
$DIMDLI
 40
3.75
  9
$DIMRND
 40
0.0
  9
$DIMDLE
 40
0.0
  9
$DIMEXE
 40
1.25
  9
$DIMTP
 40
0.0
  9
$DIMTM
 40
0.0
  9
$DIMTXT
 40
2.5
  9
$DIMCEN
 40
2.5
  9
$DIMTSZ
 40
0.0
  9
$DIMTOL
 70
     0
  9
$DIMLIM
 70
     0
  9
$DIMTIH
 70
     0
  9
$DIMTOH
 70
     0
  9
$DIMSE1
 70
     0
  9
$DIMSE2
 70
     0
  9
$DIMTAD
 70
     1
  9
$DIMZIN
 70
     8
  9
$DIMBLK
  1

  9
$DIMASO
 70
     1
  9
$DIMSHO
 70
     1
  9
$DIMPOST
  1

  9
$DIMAPOST
  1

  9
$DIMALT
 70
     0
  9
$DIMALTD
 70
     3
  9
$DIMALTF
 40
0.03937
  9
$DIMLFAC
 40
1.0
  9
$DIMTOFL
 70
     1
  9
$DIMTVP
 40
0.0
  9
$DIMTIX
 70
     0
  9
$DIMSOXD
 70
     0
  9
$DIMSAH
 70
     0
  9
$DIMBLK1
  1

  9
$DIMBLK2
  1

  9
$DIMSTYLE
  2
ISO-25
  9
$DIMCLRD
 70
     0
  9
$DIMCLRE
 70
     0
  9
$DIMCLRT
 70
     0
  9
$DIMTFAC
 40
1.0
  9
$DIMGAP
 40
0.625
  9
$DIMJUST
 70
     0
  9
$DIMSD1
 70
     0
  9
$DIMSD2
 70
     0
  9
$DIMTOLJ
 70
     0
  9
$DIMTZIN
 70
     8
  9
$DIMALTZ
 70
     0
  9
$DIMALTTZ
 70
     0
  9
$DIMUPT
 70
     0
  9
$DIMDEC
 70
     2
  9
$DIMTDEC
 70
     2
  9
$DIMALTU
 70
     2
  9
$DIMALTTD
 70
     3
  9
$DIMTXSTY
  7
Standard
  9
$DIMAUNIT
 70
     0
  9
$DIMADEC
 70
     0
  9
$DIMALTRND
 40
0.0
  9
$DIMAZIN
 70
     0
  9
$DIMDSEP
 70
    44
  9
$DIMATFIT
 70
     3
  9
$DIMFRAC
 70
     0
  9
$DIMLDRBLK
  1

  9
$DIMLUNIT
 70
     2
  9
$DIMLWD
 70
    -2
  9
$DIMLWE
 70
    -2
  9
$DIMTMOVE
 70
     0
  9
$DIMFXL
 40
1.0
  9
$DIMFXLON
 70
     0
  9
$DIMJOGANG
 40
0.785398
  9
$DIMTFILL
 70
     0
  9
$DIMTFILLCLR
 70
     0
  9
$DIMARCSYM
 70
     0
  9
$DIMLTYPE
  6

  9
$DIMLTEX1
  6

  9
$DIMLTEX2
  6

  9
$DIMTXTDIRECTION
 70
     0
  9
$LUNITS
 70
     2
  9
$LUPREC
 70
     4
  9
$SKETCHINC
 40
1.0
  9
$FILLETRAD
 40
10.0
  9
$AUNITS
 70
     0
  9
$AUPREC
 70
     0
  9
$MENU
  1
.
  9
$ELEVATION
 40
0.0
  9
$PELEVATION
 40
0.0
  9
$THICKNESS
 40
0.0
  9
$LIMCHECK
 70
     0
  9
$CHAMFERA
 40
0.0
  9
$CHAMFERB
 40
0.0
  9
$CHAMFERC
 40
0.0
  9
$CHAMFERD
 40
0.0
  9
$SKPOLY
 70
     0
  9
$TDCREATE
 40
2457828.435771852
  9
$TDUCREATE
 40
2457828.394105185
  9
$TDUPDATE
 40
2457828.43577294
  9
$TDUUPDATE
 40
2457828.394106273
  9
$TDINDWG
 40
0.0000000116
  9
$TDUSRTIMER
 40
0.0000000116
  9
$USRTIMER
 70
     1
  9
$ANGBASE
 50
0.0
  9
$ANGDIR
 70
     0
  9
$PDMODE
 70
     0
  9
$PDSIZE
 40
0.0
  9
$PLINEWID
 40
0.0
  9
$SPLFRAME
 70
     0
  9
$SPLINETYPE
 70
     6
  9
$SPLINESEGS
 70
     8
  9
$HANDSEED
  5
415
  9
$SURFTAB1
 70
     6
  9
$SURFTAB2
 70
     6
  9
$SURFTYPE
 70
     6
  9
$SURFU
 70
     6
  9
$SURFV
 70
     6
  9
$UCSBASE
  2

  9
$UCSNAME
  2

  9
$UCSORG
 10
0.0
 20
0.0
 30
0.0
  9
$UCSXDIR
 10
1.0
 20
0.0
 30
0.0
  9
$UCSYDIR
 10
0.0
 20
1.0
 30
0.0
  9
$UCSORTHOREF
  2

  9
$UCSORTHOVIEW
 70
     0
  9
$UCSORGTOP
 10
0.0
 20
0.0
 30
0.0
  9
$UCSORGBOTTOM
 10
0.0
 20
0.0
 30
0.0
  9
$UCSORGLEFT
 10
0.0
 20
0.0
 30
0.0
  9
$UCSORGRIGHT
 10
0.0
 20
0.0
 30
0.0
  9
$UCSORGFRONT
 10
0.0
 20
0.0
 30
0.0
  9
$UCSORGBACK
 10
0.0
 20
0.0
 30
0.0
  9
$PUCSBASE
  2

  9
$PUCSNAME
  2

  9
$PUCSORG
 10
0.0
 20
0.0
 30
0.0
  9
$PUCSXDIR
 10
1.0
 20
0.0
 30
0.0
  9
$PUCSYDIR
 10
0.0
 20
1.0
 30
0.0
  9
$PUCSORTHOREF
  2

  9
$PUCSORTHOVIEW
 70
     0
  9
$PUCSORGTOP
 10
0.0
 20
0.0
 30
0.0
  9
$PUCSORGBOTTOM
 10
0.0
 20
0.0
 30
0.0
  9
$PUCSORGLEFT
 10
0.0
 20
0.0
 30
0.0
  9
$PUCSORGRIGHT
 10
0.0
 20
0.0
 30
0.0
  9
$PUCSORGFRONT
 10
0.0
 20
0.0
 30
0.0
  9
$PUCSORGBACK
 10
0.0
 20
0.0
 30
0.0
  9
$USERI1
 70
     0
  9
$USERI2
 70
     0
  9
$USERI3
 70
     0
  9
$USERI4
 70
     0
  9
$USERI5
 70
     0
  9
$USERR1
 40
0.0
  9
$USERR2
 40
0.0
  9
$USERR3
 40
0.0
  9
$USERR4
 40
0.0
  9
$USERR5
 40
0.0
  9
$WORLDVIEW
 70
     1
  9
$SHADEDGE
 70
     3
  9
$SHADEDIF
 70
    70
  9
$TILEMODE
 70
     1
  9
$MAXACTVP
 70
    64
  9
$PINSBASE
 10
0.0
 20
0.0
 30
0.0
  9
$PLIMCHECK
 70
     0
  9
$PEXTMIN
 10
1.000000E+20
 20
1.000000E+20
 30
1.000000E+20
  9
$PEXTMAX
 10
-1.000000E+20
 20
-1.000000E+20
 30
-1.000000E+20
  9
$PLIMMIN
 10
0.0
 20
0.0
  9
$PLIMMAX
 10
420.0
 20
297.0
  9
$UNITMODE
 70
     0
  9
$VISRETAIN
 70
     1
  9
$PLINEGEN
 70
     0
  9
$PSLTSCALE
 70
     1
  9
$TREEDEPTH
 70
  3020
  9
$CMLSTYLE
  2
Standard
  9
$CMLJUST
 70
     0
  9
$CMLSCALE
 40
20.0
  9
$PROXYGRAPHICS
 70
     1
  9
$MEASUREMENT
 70
     1
  9
$CELWEIGHT
370
    -1
  9
$ENDCAPS
280
     0
  9
$JOINSTYLE
280
     0
  9
$LWDISPLAY
290
     0
  9
$INSUNITS
 70
     4
  9
$HYPERLINKBASE
  1

  9
$STYLESHEET
  1

  9
$XEDIT
290
     1
  9
$CEPSNTYPE
380
     0
  9
$PSTYLEMODE
290
     1
  9
$FINGERPRINTGUID
  2
{04180DC7-7A81-423C-9361-5666CEBA030C}
  9
$VERSIONGUID
  2
{FAEB1C32-E019-11D5-929B-00C0DF256EC4}
  9
$EXTNAMES
290
     1
  9
$PSVPSCALE
 40
0.0
  9
$OLESTARTUP
290
     0
  9
$SORTENTS
280
   127
  9
$INDEXCTL
280
     0
  9
$HIDETEXT
280
     1
  9
$XCLIPFRAME
280
     2
  9
$HALOGAP
280
     0
  9
$OBSCOLOR
 70
   257
  9
$OBSLTYPE
280
     0
  9
$INTERSECTIONDISPLAY
280
     0
  9
$INTERSECTIONCOLOR
 70
   257
  9
$DIMASSOC
280
     2
  9
$PROJECTNAME
  1

  9
$CAMERADISPLAY
290
     0
  9
$LENSLENGTH
 40
50.0
  9
$CAMERAHEIGHT
 40
0.0
  9
$STEPSPERSEC
 40
2.0
  9
$STEPSIZE
 40
6.0
  9
$3DDWFPREC
 40
2.0
  9
$PSOLWIDTH
 40
5.0
  9
$PSOLHEIGHT
 40
80.0
  9
$LOFTANG1
 40
1.570796
  9
$LOFTANG2
 40
1.570796
  9
$LOFTMAG1
 40
0.0
  9
$LOFTMAG2
 40
0.0
  9
$LOFTPARAM
 70
     7
  9
$LOFTNORMALS
280
     1
  9
$LATITUDE
 40
37.795
  9
$LONGITUDE
 40
-122.394
  9
$NORTHDIRECTION
 40
0.0
  9
$TIMEZONE
 70
 -8000
  9
$LIGHTGLYPHDISPLAY
280
     1
  9
$TILEMODELIGHTSYNCH
280
     1
  9
$CMATERIAL
347
44
  9
$SOLIDHIST
280
     0
  9
$SHOWHIST
280
     1
  9
$DWFFRAME
280
     2
  9
$DGNFRAME
280
     2
  9
$REALWORLDSCALE
290
     1
  9
$INTERFERECOLOR
 62
   256
  9
$CSHADOW
280
     0
  9
$SHADOWPLANELOCATION
 40
0.0
  0
ENDSEC
  0
SECTION
  2
CLASSES
  0
CLASS
  1
ACDBDICTIONARYWDFLT
  2
AcDbDictionaryWithDefault
  3
ObjectDBX Classes
 90
        0
 91
        4
280
     0
281
     0
  0
CLASS
  1
VISUALSTYLE
  2
AcDbVisualStyle
  3
ObjectDBX Classes
 90
     4095
 91
        4
280
     0
281
     0
  0
CLASS
  1
MATERIAL
  2
AcDbMaterial
  3
ObjectDBX Classes
 90
     1153
 91
        4
280
     0
281
     0
  0
CLASS
  1
SCALE
  2
AcDbScale
  3
ObjectDBX Classes
 90
     1153
 91
        4
280
     0
281
     0
  0
CLASS
  1
TABLESTYLE
  2
AcDbTableStyle
  3
ObjectDBX Classes
 90
     4095
 91
        4
280
     0
281
     0
  0
CLASS
  1
MLEADERSTYLE
  2
AcDbMLeaderStyle
  3
ACDB_MLEADERSTYLE_CLASS
 90
     4095
 91
        4
280
     0
281
     0
  0
CLASS
  1
SUN
  2
AcDbSun
  3
SCENEOE
 90
     1153
 91
        4
280
     0
281
     0
  0
CLASS
  1
DICTIONARYVAR
  2
AcDbDictionaryVar
  3
ObjectDBX Classes
 90
        0
 91
        4
280
     0
281
     0
  0
CLASS
  1
CELLSTYLEMAP
  2
AcDbCellStyleMap
  3
ObjectDBX Classes
 90
     1152
 91
        4
280
     0
281
     0
  0
ENDSEC
  0
SECTION
  2
TABLES
  0
TABLE
  2
VPORT
  5
8
330
0
100
AcDbSymbolTable
 70
     1
  0
VPORT
  5
29
330
8
100
AcDbSymbolTableRecord
100
AcDbViewportTableRecord
  2
*Active
 70
     0
 10
0.0
 20
0.0
 11
1.0
 21
1.0
 12
344.186916
 22
148.5
 13
0.0
 23
0.0
 14
10.0
 24
10.0
 15
10.0
 25
10.0
 16
0.0
 26
0.0
 36
1.0
 17
0.0
 27
0.0
 37
0.0
 40
297.0
 41
1.972973
 42
50.0
 43
0.0
 44
0.0
 50
0.0
 51
0.0
 71
     0
 72
   100
 73
     1
 74
     3
 75
     0
 76
     0
 77
     0
 78
     0
281
     0
 65
     1
110
0.0
120
0.0
130
0.0
111
1.0
121
0.0
131
0.0
112
0.0
122
1.0
132
0.0
 79
     0
146
0.0
348
2F
 60
     3
 61
     5
292
     1
282
     1
141
0.0
142
0.0
 63
   250
361
6D
  0
ENDTAB
  0
TABLE
  2
LTYPE
  5
5
330
0
100
AcDbSymbolTable
 70
     1
  0
LTYPE
  5
14
330
5
100
AcDbSymbolTableRecord
100
AcDbLinetypeTableRecord
  2
ByBlock
 70
     0
  3

 72
    65
 73
     0
 40
0.0
  0
LTYPE
  5
15
330
5
100
AcDbSymbolTableRecord
100
AcDbLinetypeTableRecord
  2
ByLayer
 70
     0
  3

 72
    65
 73
     0
 40
0.0
  0
LTYPE
  5
16
330
5
100
AcDbSymbolTableRecord
100
AcDbLinetypeTableRecord
  2
Continuous
 70
     0
  3
Solid line
 72
    65
 73
     0
 40
0.0
  0
ENDTAB
  0
TABLE
  2
LAYER
  5
2
330
0
100
AcDbSymbolTable
 70
     1
  0
LAYER
  5
10
330
2
100
AcDbSymbolTableRecord
100
AcDbLayerTableRecord
  2
0
 70
     0
 62
   106
  6
Continuous
370
     0
390
F
347
46
  0
ENDTAB
  0
TABLE
  2
STYLE
  5
3
330
0
100
AcDbSymbolTable
 70
     4
  0
STYLE
  5
11
330
3
100
AcDbSymbolTableRecord
100
AcDbTextStyleTableRecord
  2
Standard
 70
     0
 40
0.0
 41
1.0
 50
0.0
 71
     0
 42
2.5
  3
txt
  4

  0
STYLE
  5
6E
330
3
100
AcDbSymbolTableRecord
100
AcDbTextStyleTableRecord
  2
Default
 70
     0
 40
0.0
 41
1.0
 50
0.0
 71
     0
 42
2.5
  3

  4

1001
ACAD
1000
txt
1071
        0
  0
STYLE
  5
6F
330
3
100
AcDbSymbolTableRecord
100
AcDbTextStyleTableRecord
  2
ISO
 70
     0
 40
0.0
 41
1.0
 50
0.0
 71
     0
 42
2.5
  3

  4

1001
ACAD
1000
txt
1071
        0
  0
STYLE
  5
70
330
3
100
AcDbSymbolTableRecord
100
AcDbTextStyleTableRecord
  2
zucchetti
 70
     0
 40
0.0
 41
1.0
 50
0.0
 71
     0
 42
2.5
  3

  4

1001
ACAD
1000
Arial
1071
        0
  0
ENDTAB
  0
TABLE
  2
VIEW
  5
6
330
0
100
AcDbSymbolTable
 70
     0
  0
ENDTAB
  0
TABLE
  2
UCS
  5
7
330
0
100
AcDbSymbolTable
 70
     0
  0
ENDTAB
  0
TABLE
  2
APPID
  5
9
330
0
100
AcDbSymbolTable
 70
     1
  0
APPID
  5
12
330
9
100
AcDbSymbolTableRecord
100
AcDbRegAppTableRecord
  2
ACAD
 70
     0
  0
ENDTAB
  0
TABLE
  2
DIMSTYLE
  5
A
330
0
100
AcDbSymbolTable
 70
     4
100
AcDbDimStyleTable
  0
DIMSTYLE
105
27
330
A
100
AcDbSymbolTableRecord
100
AcDbDimStyleTableRecord
  2
ISO-25
 70
     0
 41
2.5
 42
0.625
 43
3.75
 44
1.25
 73
     0
 74
     0
 77
     1
 78
     8
140
2.5
141
2.5
143
0.03937
147
0.625
171
     3
172
     1
178
     0
271
     2
272
     2
274
     3
278
    44
283
     0
284
     8
340
11
  0
DIMSTYLE
105
71
330
A
100
AcDbSymbolTableRecord
100
AcDbDimStyleTableRecord
  2
Default
 70
     0
  3
<>
 41
4.375
 42
1.05
 44
2.1
 49
10.01
 73
     0
 74
     0
 77
     1
 78
     8
140
3.5
146
0.4
147
1.75
172
     1
271
     2
178
     3
271
     2
272
     3
284
     8
340
6E
341
72
342
72
  0
DIMSTYLE
105
79
330
A
100
AcDbSymbolTableRecord
100
AcDbDimStyleTableRecord
  2
ISO
 70
     0
  3
<>
 41
4.375
 42
1.05
 44
2.1
 49
10.01
 73
     0
 74
     0
 77
     1
 78
     8
140
3.5
146
0.4
147
1.75
172
     1
271
     2
178
     3
271
     2
272
     3
284
     8
340
6F
341
72
342
72
  0
DIMSTYLE
105
7A
330
A
100
AcDbSymbolTableRecord
100
AcDbDimStyleTableRecord
  2
zucchetti
 70
     0
  3
<>
 41
3.0
 42
0.9
 44
1.8
 49
8.58
 73
     0
 74
     0
 77
     1
 78
     8
140
3.0
146
0.6
147
1.5
172
     1
176
     3
177
     3
271
     2
178
     3
271
     2
272
     2
284
     8
340
70
  0
ENDTAB
  0
TABLE
  2
BLOCK_RECORD
  5
1
330
0
100
AcDbSymbolTable
 70
     7
  0
BLOCK_RECORD
  5
1F
330
1
100
AcDbSymbolTableRecord
100
AcDbBlockTableRecord
  2
*Model_Space
340
22
 70
     0
280
     1
281
     0
  0
BLOCK_RECORD
  5
1B
330
1
100
AcDbSymbolTableRecord
100
AcDbBlockTableRecord
  2
*Paper_Space
340
1E
 70
     0
280
     1
281
     0
  0
BLOCK_RECORD
  5
23
330
1
100
AcDbSymbolTableRecord
100
AcDbBlockTableRecord
  2
*Paper_Space0
340
26
 70
     0
280
     1
281
     0
  0
BLOCK_RECORD
  5
72
330
1
100
AcDbSymbolTableRecord
100
AcDbBlockTableRecord
  2
_CLOSED
340
0
 70
     0
280
     1
281
     0
  0
BLOCK_RECORD
  5
7B
330
1
100
AcDbSymbolTableRecord
100
AcDbBlockTableRecord
  2
a
340
0
102
{BLKREFS
331
172
102
}
 70
     0
280
     1
281
     0
  0
BLOCK_RECORD
  5
173
330
1
100
AcDbSymbolTableRecord
100
AcDbBlockTableRecord
  2
b
340
0
102
{BLKREFS
331
21B
102
}
 70
     0
280
     1
281
     0
  0
BLOCK_RECORD
  5
21C
330
1
100
AcDbSymbolTableRecord
100
AcDbBlockTableRecord
  2
c
340
0
102
{BLKREFS
331
288
102
}
 70
     0
280
     1
281
     0
  0
BLOCK_RECORD
  5
289
330
1
100
AcDbSymbolTableRecord
100
AcDbBlockTableRecord
  2
d
340
0
102
{BLKREFS
331
36F
102
}
 70
     0
280
     1
281
     0
  0
BLOCK_RECORD
  5
370
330
1
100
AcDbSymbolTableRecord
100
AcDbBlockTableRecord
  2
e
340
0
102
{BLKREFS
331
3DB
102
}
 70
     0
280
     1
281
     0
  0
ENDTAB
  0
ENDSEC
  0
SECTION
  2
BLOCKS
  0
BLOCK
  5
20
330
1F
100
AcDbEntity
  8
0
100
AcDbBlockBegin
  2
*Model_Space
 70
     0
 10
0.0
 20
0.0
 30
0.0
  3
*Model_Space
  1

  0
ENDBLK
  5
21
330
1F
100
AcDbEntity
  8
0
100
AcDbBlockEnd
  0
BLOCK
  5
1C
330
1B
100
AcDbEntity
 67
     1
  8
0
100
AcDbBlockBegin
  2
*Paper_Space
 70
     0
 10
0.0
 20
0.0
 30
0.0
  3
*Paper_Space
  1

  0
ENDBLK
  5
1D
330
1B
100
AcDbEntity
 67
     1
  8
0
100
AcDbBlockEnd
  0
BLOCK
  5
24
330
23
100
AcDbEntity
  8
0
100
AcDbBlockBegin
  2
*Paper_Space0
 70
     0
 10
0.0
 20
0.0
 30
0.0
  3
*Paper_Space0
  1

  0
ENDBLK
  5
25
330
23
100
AcDbEntity
  8
0
100
AcDbBlockEnd
  0
BLOCK
  5
73
330
72
100
AcDbEntity
  8
0
100
AcDbBlockBegin
  2
_CLOSED
 70
     0
 10
0.0
 20
0.0
 30
0.0
  3
_CLOSED
  1

  0
LINE
  5
75
330
72
100
AcDbEntity
  8
0
  6
ByBlock
 62
     0
370
    -2
100
AcDbLine
 10
-1.0
 20
0.166667
 30
0.0
 11
0.0
 21
0.0
 31
0.0
  0
LINE
  5
76
330
72
100
AcDbEntity
  8
0
  6
ByBlock
 62
     0
370
    -2
100
AcDbLine
 10
0.0
 20
0.0
 30
0.0
 11
-1.0
 21
-0.166667
 31
0.0
  0
LINE
  5
77
330
72
100
AcDbEntity
  8
0
  6
ByBlock
 62
     0
370
    -2
100
AcDbLine
 10
-1.0
 20
0.166667
 30
0.0
 11
-1.0
 21
-0.166667
 31
0.0
  0
LINE
  5
78
330
72
100
AcDbEntity
  8
0
  6
ByBlock
 62
     0
370
    -2
100
AcDbLine
 10
0.0
 20
0.0
 30
0.0
 11
-1.0
 21
0.0
 31
0.0
  0
ENDBLK
  5
74
330
72
100
AcDbEntity
  8
0
100
AcDbBlockEnd
  0
BLOCK
  5
170
330
7B
100
AcDbEntity
  8
0
100
AcDbBlockBegin
  2
a
 70
     0
 10
83.490158
 20
137.581848
 30
0.0
  3
a
  1

  0
ARC
  5
7C
330
7B
100
AcDbEntity
  8
0
  6
Continuous
 62
     0
370
     0
100
AcDbCircle
 10
150.658226
 20
475.806591
 30
0.0
 40
15.32162671768681
100
AcDbArc
 50
35.727269
 51
87.634185
  0
ARC
  5
7D
330
7B
100
AcDbEntity
  8
0
  6
Continuous
 62
     0
370
     0
100
AcDbCircle
 10
150.658226
 20
475.806591
 30
0.0
 40
15.32162671768681
100
AcDbArc
 50
125.727269
 51
177.634185
  0
ARC
  5
7E
330
7B
100
AcDbEntity
  8
0
  6
Continuous
 62
     0
370
     0
100
AcDbCircle
 10
150.658226
 20
475.806591
 30
0.0
 40
15.32162671768681
100
AcDbArc
 50
215.727269
 51
267.634185
  0
ARC
  5
7F
330
7B
100
AcDbEntity
  8
0
  6
Continuous
 62
     0
370
     0
100
AcDbCircle
 10
150.658226
 20
475.806591
 30
0.0
 40
15.32162671768681
100
AcDbArc
 50
305.727269
 51
357.634185
  0
ARC
  5
80
330
7B
100
AcDbEntity
  8
0
  6
Continuous
 62
     0
370
     0
100
AcDbCircle
 10
150.658226
 20
475.806591
 30
0.0
 40
23.20500521730931
100
AcDbArc
 50
0.0
 51
4.159793
  0
ARC
  5
81
330
7B
100
AcDbEntity
  8
0
  6
Continuous
 62
     0
370
     0
100
AcDbCircle
 10
150.658226
 20
475.806591
 30
0.0
 40
23.20500521730931
100
AcDbArc
 50
29.201661
 51
94.159793
  0
ARC
  5
82
330
7B
100
AcDbEntity
  8
0
  6
Continuous
 62
     0
370
     0
100
AcDbCircle
 10
150.658226
 20
475.806591
 30
0.0
 40
23.20500521730931
100
AcDbArc
 50
119.201661
 51
180.0
  0
ARC
  5
83
330
7B
100
AcDbEntity
  8
0
  6
Continuous
 62
     0
370
     0
100
AcDbCircle
 10
150.658226
 20
475.806591
 30
0.0
 40
23.20500521730931
100
AcDbArc
 50
180.0
 51
184.159793
  0
ARC
  5
84
330
7B
100
AcDbEntity
  8
0
  6
Continuous
 62
     0
370
     0
100
AcDbCircle
 10
150.658226
 20
475.806591
 30
0.0
 40
23.20500521730931
100
AcDbArc
 50
209.201661
 51
274.159793
  0
ARC
  5
85
330
7B
100
AcDbEntity
  8
0
  6
Continuous
 62
     0
370
     0
100
AcDbCircle
 10
150.658226
 20
475.806591
 30
0.0
 40
23.20500521730931
100
AcDbArc
 50
299.201661
 51
0.0
  0
ARC
  5
86
330
7B
100
AcDbEntity
  8
0
  6
Continuous
 62
     0
370
     0
100
AcDbCircle
 10
150.658226
 20
475.806591
 30
0.0
 40
27.32755986930916
100
AcDbArc
 50
0.0
 51
3.576509
  0
ARC
  5
87
330
7B
100
AcDbEntity
  8
0
  6
Continuous
 62
     0
370
     0
100
AcDbCircle
 10
150.658226
 20
475.806591
 30
0.0
 40
27.32755986930916
100
AcDbArc
 50
29.784945
 51
93.576509
  0
ARC
  5
88
330
7B
100
AcDbEntity
  8
0
  6
Continuous
 62
     0
370
     0
100
AcDbCircle
 10
150.658226
 20
475.806591
 30
0.0
 40
27.32755986930916
100
AcDbArc
 50
119.784945
 51
180.0
  0
ARC
  5
89
330
7B
100
AcDbEntity
  8
0
  6
Continuous
 62
     0
370
     0
100
AcDbCircle
 10
150.658226
 20
475.806591
 30
0.0
 40
27.32755986930916
100
AcDbArc
 50
180.0
 51
183.576509
  0
ARC
  5
8A
330
7B
100
AcDbEntity
  8
0
  6
Continuous
 62
     0
370
     0
100
AcDbCircle
 10
150.658226
 20
475.806591
 30
0.0
 40
27.32755986930916
100
AcDbArc
 50
209.784945
 51
273.576509
  0
ARC
  5
8B
330
7B
100
AcDbEntity
  8
0
  6
Continuous
 62
     0
370
     0
100
AcDbCircle
 10
150.658226
 20
475.806591
 30
0.0
 40
27.32755986930916
100
AcDbArc
 50
299.784945
 51
0.0
  0
ARC
  5
8C
330
7B
100
AcDbEntity
  8
0
  6
Continuous
 62
     0
370
     0
100
AcDbCircle
 10
150.658226
 20
475.806591
 30
0.0
 40
30.00436063267573
100
AcDbArc
 50
0.0
 51
1.822543
  0
ARC
  5
8D
330
7B
100
AcDbEntity
  8
0
  6
Continuous
 62
     0
370
     0
100
AcDbCircle
 10
150.658226
 20
475.806591
 30
0.0
 40
30.00436063267573
100
AcDbArc
 50
31.538912
 51
91.822543
  0
ARC
  5
8E
330
7B
100
AcDbEntity
  8
0
  6
Continuous
 62
     0
370
     0
100
AcDbCircle
 10
150.658226
 20
475.806591
 30
0.0
 40
30.00436063267573
100
AcDbArc
 50
121.538912
 51
180.0
  0
ARC
  5
8F
330
7B
100
AcDbEntity
  8
0
  6
Continuous
 62
     0
370
     0
100
AcDbCircle
 10
150.658226
 20
475.806591
 30
0.0
 40
30.00436063267573
100
AcDbArc
 50
180.0
 51
181.822543
  0
ARC
  5
90
330
7B
100
AcDbEntity
  8
0
  6
Continuous
 62
     0
370
     0
100
AcDbCircle
 10
150.658226
 20
475.806591
 30
0.0
 40
30.00436063267573
100
AcDbArc
 50
211.538912
 51
271.822543
  0
ARC
  5
91
330
7B
100
AcDbEntity
  8
0
  6
Continuous
 62
     0
370
     0
100
AcDbCircle
 10
150.658226
 20
475.806591
 30
0.0
 40
30.00436063267573
100
AcDbArc
 50
301.538912
 51
0.0
  0
ARC
  5
92
330
7B
100
AcDbEntity
  8
0
  6
Continuous
 62
     0
370
    30
100
AcDbCircle
 10
150.658226
 20
475.806591
 30
0.0
 40
32.49999999986922
100
AcDbArc
 50
0.0
 51
2.660402
  0
ARC
  5
93
330
7B
100
AcDbEntity
  8
0
  6
Continuous
 62
     0
370
    30
100
AcDbCircle
 10
150.658226
 20
475.806591
 30
0.0
 40
32.49999999986922
100
AcDbArc
 50
30.701052
 51
92.660402
  0
ARC
  5
94
330
7B
100
AcDbEntity
  8
0
  6
Continuous
 62
     0
370
    30
100
AcDbCircle
 10
150.658226
 20
475.806591
 30
0.0
 40
32.49999999986922
100
AcDbArc
 50
120.701052
 51
180.0
  0
ARC
  5
95
330
7B
100
AcDbEntity
  8
0
  6
Continuous
 62
     0
370
    30
100
AcDbCircle
 10
150.658226
 20
475.806591
 30
0.0
 40
32.49999999986922
100
AcDbArc
 50
180.0
 51
182.660402
  0
ARC
  5
96
330
7B
100
AcDbEntity
  8
0
  6
Continuous
 62
     0
370
    30
100
AcDbCircle
 10
150.658226
 20
475.806591
 30
0.0
 40
32.49999999986922
100
AcDbArc
 50
210.701052
 51
272.660402
  0
ARC
  5
97
330
7B
100
AcDbEntity
  8
0
  6
Continuous
 62
     0
370
    30
100
AcDbCircle
 10
150.658226
 20
475.806591
 30
0.0
 40
32.49999999986922
100
AcDbArc
 50
300.701052
 51
0.0
  0
ARC
  5
98
330
7B
100
AcDbEntity
  8
0
  6
Continuous
 62
     0
370
     0
100
AcDbCircle
 10
260.658226
 20
475.806591
 30
0.0
 40
15.32162671768673
100
AcDbArc
 50
0.0
 51
44.115383
  0
ARC
  5
99
330
7B
100
AcDbEntity
  8
0
  6
Continuous
 62
     0
370
     0
100
AcDbCircle
 10
260.658226
 20
475.806591
 30
0.0
 40
15.32162671768673
100
AcDbArc
 50
135.884617
 51
180.0
  0
ARC
  5
9A
330
7B
100
AcDbEntity
  8
0
  6
Continuous
 62
     0
370
     0
100
AcDbCircle
 10
260.658226
 20
475.806591
 30
0.0
 40
15.32162671768673
100
AcDbArc
 50
180.0
 51
224.115383
  0
ARC
  5
9B
330
7B
100
AcDbEntity
  8
0
  6
Continuous
 62
     0
370
     0
100
AcDbCircle
 10
260.658226
 20
475.806591
 30
0.0
 40
15.32162671768673
100
AcDbArc
 50
315.884617
 51
0.0
  0
ARC
  5
9C
330
7B
100
AcDbEntity
  8
0
  6
Continuous
 62
     0
370
     0
100
AcDbCircle
 10
260.658226
 20
475.806591
 30
0.0
 40
23.20500521730908
100
AcDbArc
 50
0.0
 51
61.703419
  0
ARC
  5
9D
330
7B
100
AcDbEntity
  8
0
  6
Continuous
 62
     0
370
     0
100
AcDbCircle
 10
260.658226
 20
475.806591
 30
0.0
 40
23.20500521730908
100
AcDbArc
 50
118.296581
 51
180.0
  0
ARC
  5
9E
330
7B
100
AcDbEntity
  8
0
  6
Continuous
 62
     0
370
     0
100
AcDbCircle
 10
260.658226
 20
475.806591
 30
0.0
 40
23.20500521730908
100
AcDbArc
 50
180.0
 51
241.703419
  0
ARC
  5
9F
330
7B
100
AcDbEntity
  8
0
  6
Continuous
 62
     0
370
     0
100
AcDbCircle
 10
260.658226
 20
475.806591
 30
0.0
 40
23.20500521730908
100
AcDbArc
 50
298.296581
 51
0.0
  0
ARC
  5
A0
330
7B
100
AcDbEntity
  8
0
  6
Continuous
 62
     0
370
     0
100
AcDbCircle
 10
260.658226
 20
475.806591
 30
0.0
 40
27.32755986930918
100
AcDbArc
 50
0.0
 51
66.263936
  0
ARC
  5
A1
330
7B
100
AcDbEntity
  8
0
  6
Continuous
 62
     0
370
     0
100
AcDbCircle
 10
260.658226
 20
475.806591
 30
0.0
 40
27.32755986930918
100
AcDbArc
 50
113.736064
 51
180.0
  0
ARC
  5
A2
330
7B
100
AcDbEntity
  8
0
  6
Continuous
 62
     0
370
     0
100
AcDbCircle
 10
260.658226
 20
475.806591
 30
0.0
 40
27.32755986930918
100
AcDbArc
 50
180.0
 51
242.772307
  0
ARC
  5
A3
330
7B
100
AcDbEntity
  8
0
  6
Continuous
 62
     0
370
     0
100
AcDbCircle
 10
260.658226
 20
475.806591
 30
0.0
 40
27.32755986930918
100
AcDbArc
 50
297.227693
 51
0.0
  0
ARC
  5
A4
330
7B
100
AcDbEntity
  8
0
  6
Continuous
 62
     0
370
     0
100
AcDbCircle
 10
260.658226
 20
475.806591
 30
0.0
 40
30.00436063267613
100
AcDbArc
 50
0.0
 51
68.583832
  0
ARC
  5
A5
330
7B
100
AcDbEntity
  8
0
  6
Continuous
 62
     0
370
     0
100
AcDbCircle
 10
260.658226
 20
475.806591
 30
0.0
 40
30.00436063267613
100
AcDbArc
 50
111.414838
 51
180.0
  0
ARC
  5
A6
330
7B
100
AcDbEntity
  8
0
  6
Continuous
 62
     0
370
     0
100
AcDbCircle
 10
260.658226
 20
475.806591
 30
0.0
 40
30.00436063267613
100
AcDbArc
 50
180.0
 51
245.372951
  0
ARC
  5
A7
330
7B
100
AcDbEntity
  8
0
  6
Continuous
 62
     0
370
     0
100
AcDbCircle
 10
260.658226
 20
475.806591
 30
0.0
 40
30.00436063267613
100
AcDbArc
 50
294.627049
 51
0.0
  0
ARC
  5
A8
330
7B
100
AcDbEntity
  8
0
  6
Continuous
 62
     0
370
    30
100
AcDbCircle
 10
260.658226
 20
475.806591
 30
0.0
 40
32.49999999986906
100
AcDbArc
 50
0.0
 51
71.540744
  0
ARC
  5
A9
330
7B
100
AcDbEntity
  8
0
  6
Continuous
 62
     0
370
    30
100
AcDbCircle
 10
260.658226
 20
475.806591
 30
0.0
 40
32.49999999986906
100
AcDbArc
 50
108.46396
 51
180.0
  0
ARC
  5
AA
330
7B
100
AcDbEntity
  8
0
  6
Continuous
 62
     0
370
    30
100
AcDbCircle
 10
260.658226
 20
475.806591
 30
0.0
 40
32.49999999986906
100
AcDbArc
 50
180.0
 51
244.971767
  0
ARC
  5
AB
330
7B
100
AcDbEntity
  8
0
  6
Continuous
 62
     0
370
    30
100
AcDbCircle
 10
260.658226
 20
475.806591
 30
0.0
 40
32.49999999986906
100
AcDbArc
 50
295.028233
 51
0.0
  0
ARC
  5
AC
330
7B
100
AcDbEntity
  8
0
  6
Continuous
 62
     0
370
     0
100
AcDbCircle
 10
370.658226
 20
475.806591
 30
0.0
 40
15.3216267176287
100
AcDbArc
 50
35.727269
 51
87.634185
  0
ARC
  5
AD
330
7B
100
AcDbEntity
  8
0
  6
Continuous
 62
     0
370
     0
100
AcDbCircle
 10
370.658226
 20
475.806591
 30
0.0
 40
15.3216267176287
100
AcDbArc
 50
125.727269
 51
177.634185
  0
ARC
  5
AE
330
7B
100
AcDbEntity
  8
0
  6
Continuous
 62
     0
370
     0
100
AcDbCircle
 10
370.658226
 20
475.806591
 30
0.0
 40
15.3216267176287
100
AcDbArc
 50
215.727269
 51
267.634185
  0
ARC
  5
AF
330
7B
100
AcDbEntity
  8
0
  6
Continuous
 62
     0
370
     0
100
AcDbCircle
 10
370.658226
 20
475.806591
 30
0.0
 40
15.3216267176287
100
AcDbArc
 50
305.727269
 51
357.634185
  0
ARC
  5
B0
330
7B
100
AcDbEntity
  8
0
  6
Continuous
 62
     0
370
     0
100
AcDbCircle
 10
370.658226
 20
475.806591
 30
0.0
 40
23.20500521730943
100
AcDbArc
 50
0.0
 51
4.159793
  0
ARC
  5
B1
330
7B
100
AcDbEntity
  8
0
  6
Continuous
 62
     0
370
     0
100
AcDbCircle
 10
370.658226
 20
475.806591
 30
0.0
 40
23.20500521730943
100
AcDbArc
 50
29.201661
 51
94.159793
  0
ARC
  5
B2
330
7B
100
AcDbEntity
  8
0
  6
Continuous
 62
     0
370
     0
100
AcDbCircle
 10
370.658226
 20
475.806591
 30
0.0
 40
23.20500521730943
100
AcDbArc
 50
119.201661
 51
180.0
  0
ARC
  5
B3
330
7B
100
AcDbEntity
  8
0
  6
Continuous
 62
     0
370
     0
100
AcDbCircle
 10
370.658226
 20
475.806591
 30
0.0
 40
23.20500521730943
100
AcDbArc
 50
180.0
 51
184.159793
  0
ARC
  5
B4
330
7B
100
AcDbEntity
  8
0
  6
Continuous
 62
     0
370
     0
100
AcDbCircle
 10
370.658226
 20
475.806591
 30
0.0
 40
23.20500521730943
100
AcDbArc
 50
209.201661
 51
274.159793
  0
ARC
  5
B5
330
7B
100
AcDbEntity
  8
0
  6
Continuous
 62
     0
370
     0
100
AcDbCircle
 10
370.658226
 20
475.806591
 30
0.0
 40
23.20500521730943
100
AcDbArc
 50
299.201661
 51
0.0
  0
ARC
  5
B6
330
7B
100
AcDbEntity
  8
0
  6
Continuous
 62
     0
370
     0
100
AcDbCircle
 10
370.658226
 20
475.806591
 30
0.0
 40
27.32755986930936
100
AcDbArc
 50
0.0
 51
3.576509
  0
ARC
  5
B7
330
7B
100
AcDbEntity
  8
0
  6
Continuous
 62
     0
370
     0
100
AcDbCircle
 10
370.658226
 20
475.806591
 30
0.0
 40
27.32755986930936
100
AcDbArc
 50
29.784945
 51
93.576509
  0
ARC
  5
B8
330
7B
100
AcDbEntity
  8
0
  6
Continuous
 62
     0
370
     0
100
AcDbCircle
 10
370.658226
 20
475.806591
 30
0.0
 40
27.32755986930936
100
AcDbArc
 50
119.784945
 51
180.0
  0
ARC
  5
B9
330
7B
100
AcDbEntity
  8
0
  6
Continuous
 62
     0
370
     0
100
AcDbCircle
 10
370.658226
 20
475.806591
 30
0.0
 40
27.32755986930936
100
AcDbArc
 50
180.0
 51
183.576509
  0
ARC
  5
BA
330
7B
100
AcDbEntity
  8
0
  6
Continuous
 62
     0
370
     0
100
AcDbCircle
 10
370.658226
 20
475.806591
 30
0.0
 40
27.32755986930936
100
AcDbArc
 50
209.784945
 51
273.576509
  0
ARC
  5
BB
330
7B
100
AcDbEntity
  8
0
  6
Continuous
 62
     0
370
     0
100
AcDbCircle
 10
370.658226
 20
475.806591
 30
0.0
 40
27.32755986930936
100
AcDbArc
 50
299.784945
 51
0.0
  0
ARC
  5
BC
330
7B
100
AcDbEntity
  8
0
  6
Continuous
 62
     0
370
     0
100
AcDbCircle
 10
370.658226
 20
475.806591
 30
0.0
 40
30.00436063267561
100
AcDbArc
 50
0.0
 51
1.822543
  0
ARC
  5
BD
330
7B
100
AcDbEntity
  8
0
  6
Continuous
 62
     0
370
     0
100
AcDbCircle
 10
370.658226
 20
475.806591
 30
0.0
 40
30.00436063267561
100
AcDbArc
 50
31.538912
 51
91.822543
  0
ARC
  5
BE
330
7B
100
AcDbEntity
  8
0
  6
Continuous
 62
     0
370
     0
100
AcDbCircle
 10
370.658226
 20
475.806591
 30
0.0
 40
30.00436063267561
100
AcDbArc
 50
121.538912
 51
180.0
  0
ARC
  5
BF
330
7B
100
AcDbEntity
  8
0
  6
Continuous
 62
     0
370
     0
100
AcDbCircle
 10
370.658226
 20
475.806591
 30
0.0
 40
30.00436063267561
100
AcDbArc
 50
180.0
 51
181.822543
  0
ARC
  5
C0
330
7B
100
AcDbEntity
  8
0
  6
Continuous
 62
     0
370
     0
100
AcDbCircle
 10
370.658226
 20
475.806591
 30
0.0
 40
30.00436063267561
100
AcDbArc
 50
211.538912
 51
271.822543
  0
ARC
  5
C1
330
7B
100
AcDbEntity
  8
0
  6
Continuous
 62
     0
370
     0
100
AcDbCircle
 10
370.658226
 20
475.806591
 30
0.0
 40
30.00436063267561
100
AcDbArc
 50
301.538912
 51
0.0
  0
ARC
  5
C2
330
7B
100
AcDbEntity
  8
0
  6
Continuous
 62
     0
370
    30
100
AcDbCircle
 10
370.658226
 20
475.806591
 30
0.0
 40
32.49999999987168
100
AcDbArc
 50
0.0
 51
2.660402
  0
ARC
  5
C3
330
7B
100
AcDbEntity
  8
0
  6
Continuous
 62
     0
370
    30
100
AcDbCircle
 10
370.658226
 20
475.806591
 30
0.0
 40
32.49999999987168
100
AcDbArc
 50
30.701052
 51
92.660402
  0
ARC
  5
C4
330
7B
100
AcDbEntity
  8
0
  6
Continuous
 62
     0
370
    30
100
AcDbCircle
 10
370.658226
 20
475.806591
 30
0.0
 40
32.49999999987168
100
AcDbArc
 50
120.701052
 51
180.0
  0
ARC
  5
C5
330
7B
100
AcDbEntity
  8
0
  6
Continuous
 62
     0
370
    30
100
AcDbCircle
 10
370.658226
 20
475.806591
 30
0.0
 40
32.49999999987168
100
AcDbArc
 50
180.0
 51
182.660402
  0
ARC
  5
C6
330
7B
100
AcDbEntity
  8
0
  6
Continuous
 62
     0
370
    30
100
AcDbCircle
 10
370.658226
 20
475.806591
 30
0.0
 40
32.49999999987168
100
AcDbArc
 50
210.701052
 51
272.660402
  0
ARC
  5
C7
330
7B
100
AcDbEntity
  8
0
  6
Continuous
 62
     0
370
    30
100
AcDbCircle
 10
370.658226
 20
475.806591
 30
0.0
 40
32.49999999987168
100
AcDbArc
 50
300.701052
 51
0.0
  0
LINE
  5
C8
330
7B
100
AcDbEntity
  8
0
  6
Continuous
 62
     0
370
     0
100
AcDbLine
 10
390.176882
 20
486.87496
 30
0.0
 11
391.612074
 21
482.085365
 31
0.0
  0
LINE
  5
C9
330
7B
100
AcDbEntity
  8
0
  6
Continuous
 62
     0
370
     0
100
AcDbLine
 10
391.612074
 20
482.085365
 30
0.0
 11
393.047265
 21
477.295769
 31
0.0
  0
LINE
  5
CA
330
7B
100
AcDbEntity
  8
0
  6
Continuous
 62
     0
370
     0
100
AcDbLine
 10
395.487388
 20
490.703233
 30
0.0
 11
397.537662
 21
483.860954
 31
0.0
  0
LINE
  5
CB
330
7B
100
AcDbEntity
  8
0
  6
Continuous
 62
     0
370
     0
100
AcDbLine
 10
397.537662
 20
483.860954
 30
0.0
 11
399.587935
 21
477.018674
 31
0.0
  0
LINE
  5
CC
330
7B
100
AcDbEntity
  8
0
  6
Continuous
 62
     0
370
     0
100
AcDbLine
 10
401.248128
 20
491.534629
 30
0.0
 11
403.052369
 21
485.513423
 31
0.0
  0
LINE
  5
CD
330
7B
100
AcDbEntity
  8
0
  6
Continuous
 62
     0
370
     0
100
AcDbLine
 10
403.052369
 20
485.513423
 30
0.0
 11
404.85661
 21
479.492218
 31
0.0
  0
LINE
  5
CE
330
7B
100
AcDbEntity
  8
0
  6
Continuous
 62
     0
370
     0
100
AcDbLine
 10
359.589857
 20
495.325247
 30
0.0
 11
364.379452
 21
496.760439
 31
0.0
  0
LINE
  5
CF
330
7B
100
AcDbEntity
  8
0
  6
Continuous
 62
     0
370
     0
100
AcDbLine
 10
364.379452
 20
496.760439
 30
0.0
 11
369.169048
 21
498.19563
 31
0.0
  0
LINE
  5
D0
330
7B
100
AcDbEntity
  8
0
  6
Continuous
 62
     0
370
     0
100
AcDbLine
 10
355.761584
 20
500.635753
 30
0.0
 11
362.603863
 21
502.686027
 31
0.0
  0
LINE
  5
D1
330
7B
100
AcDbEntity
  8
0
  6
Continuous
 62
     0
370
     0
100
AcDbLine
 10
362.603863
 20
502.686027
 30
0.0
 11
369.446143
 21
504.7363
 31
0.0
  0
LINE
  5
D2
330
7B
100
AcDbEntity
  8
0
  6
Continuous
 62
     0
370
     0
100
AcDbLine
 10
354.930188
 20
506.396493
 30
0.0
 11
360.951394
 21
508.200734
 31
0.0
  0
LINE
  5
D3
330
7B
100
AcDbEntity
  8
0
  6
Continuous
 62
     0
370
     0
100
AcDbLine
 10
360.951394
 20
508.200734
 30
0.0
 11
366.972599
 21
510.004975
 31
0.0
  0
LINE
  5
D4
330
7B
100
AcDbEntity
  8
0
  6
Continuous
 62
     0
370
     0
100
AcDbLine
 10
351.13957
 20
464.738222
 30
0.0
 11
349.704378
 21
469.527817
 31
0.0
  0
LINE
  5
D5
330
7B
100
AcDbEntity
  8
0
  6
Continuous
 62
     0
370
     0
100
AcDbLine
 10
349.704378
 20
469.527817
 30
0.0
 11
348.269187
 21
474.317413
 31
0.0
  0
LINE
  5
D6
330
7B
100
AcDbEntity
  8
0
  6
Continuous
 62
     0
370
     0
100
AcDbLine
 10
345.829064
 20
460.909949
 30
0.0
 11
343.778791
 21
467.752228
 31
0.0
  0
LINE
  5
D7
330
7B
100
AcDbEntity
  8
0
  6
Continuous
 62
     0
370
     0
100
AcDbLine
 10
343.778791
 20
467.752228
 30
0.0
 11
341.728517
 21
474.594508
 31
0.0
  0
LINE
  5
D8
330
7B
100
AcDbEntity
  8
0
  6
Continuous
 62
     0
370
     0
100
AcDbLine
 10
340.068324
 20
460.078553
 30
0.0
 11
338.264083
 21
466.099759
 31
0.0
  0
LINE
  5
D9
330
7B
100
AcDbEntity
  8
0
  6
Continuous
 62
     0
370
     0
100
AcDbLine
 10
338.264083
 20
466.099759
 30
0.0
 11
336.459842
 21
472.120964
 31
0.0
  0
LINE
  5
DA
330
7B
100
AcDbEntity
  8
0
  6
Continuous
 62
     0
370
     0
100
AcDbLine
 10
381.726595
 20
456.287935
 30
0.0
 11
376.937
 21
454.852743
 31
0.0
  0
LINE
  5
DB
330
7B
100
AcDbEntity
  8
0
  6
Continuous
 62
     0
370
     0
100
AcDbLine
 10
376.937
 20
454.852743
 30
0.0
 11
372.147404
 21
453.417552
 31
0.0
  0
LINE
  5
DC
330
7B
100
AcDbEntity
  8
0
  6
Continuous
 62
     0
370
     0
100
AcDbLine
 10
385.554868
 20
450.977429
 30
0.0
 11
378.712589
 21
448.927156
 31
0.0
  0
LINE
  5
DD
330
7B
100
AcDbEntity
  8
0
  6
Continuous
 62
     0
370
     0
100
AcDbLine
 10
378.712589
 20
448.927156
 30
0.0
 11
371.870309
 21
446.876882
 31
0.0
  0
LINE
  5
DE
330
7B
100
AcDbEntity
  8
0
  6
Continuous
 62
     0
370
     0
100
AcDbLine
 10
386.386264
 20
445.216689
 30
0.0
 11
380.365058
 21
443.412448
 31
0.0
  0
LINE
  5
DF
330
7B
100
AcDbEntity
  8
0
  6
Continuous
 62
     0
370
     0
100
AcDbLine
 10
380.365058
 20
443.412448
 30
0.0
 11
374.343853
 21
441.608207
 31
0.0
  0
ARC
  5
E0
330
7B
100
AcDbEntity
  8
0
  6
Continuous
 62
     0
370
    30
100
AcDbCircle
 10
370.658226
 20
475.806591
 30
0.0
 40
13.00000326245959
100
AcDbArc
 50
105.649379
 51
285.649379
  0
ARC
  5
E1
330
7B
100
AcDbEntity
  8
0
  6
Continuous
 62
     0
370
    30
100
AcDbCircle
 10
370.658226
 20
475.806591
 30
0.0
 40
13.00000326245959
100
AcDbArc
 50
285.649379
 51
105.649379
  0
ARC
  5
E2
330
7B
100
AcDbEntity
  8
0
  6
Continuous
 62
     0
370
     0
100
AcDbCircle
 10
370.658226
 20
475.806591
 30
0.0
 40
8.000003262459582
100
AcDbArc
 50
285.649379
 51
105.649379
  0
ARC
  5
E3
330
7B
100
AcDbEntity
  8
0
  6
Continuous
 62
     0
370
     0
100
AcDbCircle
 10
370.658226
 20
475.806591
 30
0.0
 40
8.000003262459582
100
AcDbArc
 50
105.649379
 51
285.649379
  0
ARC
  5
E4
330
7B
100
AcDbEntity
  8
0
  6
Continuous
 62
     0
370
    30
100
AcDbCircle
 10
370.658226
 20
475.806591
 30
0.0
 40
7.100003262459607
100
AcDbArc
 50
285.649379
 51
105.649379
  0
ARC
  5
E5
330
7B
100
AcDbEntity
  8
0
  6
Continuous
 62
     0
370
    30
100
AcDbCircle
 10
370.658226
 20
475.806591
 30
0.0
 40
7.100003262459607
100
AcDbArc
 50
105.649379
 51
285.649379
  0
ARC
  5
E6
330
7B
100
AcDbEntity
  8
0
  6
Continuous
 62
     0
370
    30
100
AcDbCircle
 10
370.658226
 20
475.806591
 30
0.0
 40
7.0
100
AcDbArc
 50
106.680727
 51
286.680727
  0
ARC
  5
E7
330
7B
100
AcDbEntity
  8
0
  6
Continuous
 62
     0
370
    30
100
AcDbCircle
 10
370.658226
 20
475.806591
 30
0.0
 40
7.0
100
AcDbArc
 50
286.680727
 51
106.680727
  0
ARC
  5
E8
330
7B
100
AcDbEntity
  8
0
  6
Continuous
 62
     0
370
    30
100
AcDbCircle
 10
377.772289
 20
452.062147
 30
0.0
 40
11.00276646588918
100
AcDbArc
 50
286.68868
 51
321.526111
  0
ARC
  5
E9
330
7B
100
AcDbEntity
  8
0
  6
Continuous
 62
     0
370
    30
100
AcDbCircle
 10
377.773953
 20
452.062646
 30
0.0
 40
11.00276646589846
100
AcDbArc
 50
251.835344
 51
286.672775
  0
ARC
  5
EA
330
7B
100
AcDbEntity
  8
0
  6
Continuous
 62
     0
370
    30
100
AcDbCircle
 10
375.591416
 20
445.408893
 30
0.0
 40
4.000203289055376
100
AcDbArc
 50
158.470604
 51
251.827735
  0
ARC
  5
EB
330
7B
100
AcDbEntity
  8
0
  6
Continuous
 62
     0
370
    30
100
AcDbCircle
 10
383.254208
 20
447.705031
 30
0.0
 40
4.000203289056134
100
AcDbArc
 50
321.53372
 51
54.89085
  0
ARC
  5
EC
330
7B
100
AcDbEntity
  8
0
  6
Continuous
 62
     0
370
    30
100
AcDbCircle
 10
362.565045
 20
450.547303
 30
0.0
 40
10.002996545986
100
AcDbArc
 50
338.473462
 51
16.674782
  0
ARC
  5
ED
330
7B
100
AcDbEntity
  8
0
  6
Continuous
 62
     0
370
    30
100
AcDbCircle
 10
391.308359
 20
459.160172
 30
0.0
 40
10.00299654598461
100
AcDbArc
 50
196.686673
 51
234.887992
  0
LINE
  5
EE
330
7B
100
AcDbEntity
  8
0
  6
Continuous
 62
     0
370
    30
100
AcDbLine
 10
369.310081
 20
462.886414
 30
0.0
 11
372.147404
 21
453.417552
 31
0.0
  0
LINE
  5
EF
330
7B
100
AcDbEntity
  8
0
  6
Continuous
 62
     0
370
    30
100
AcDbLine
 10
378.889272
 20
465.756797
 30
0.0
 11
381.726595
 21
456.287935
 31
0.0
  0
ARC
  5
F0
330
7B
100
AcDbEntity
  8
0
  6
Continuous
 62
     0
370
    30
100
AcDbCircle
 10
346.913782
 20
468.692528
 30
0.0
 40
11.00276646573448
100
AcDbArc
 50
196.68868
 51
231.526111
  0
ARC
  5
F1
330
7B
100
AcDbEntity
  8
0
  6
Continuous
 62
     0
370
    30
100
AcDbCircle
 10
346.914281
 20
468.690865
 30
0.0
 40
11.00276646453845
100
AcDbArc
 50
161.835344
 51
196.672775
  0
ARC
  5
F2
330
7B
100
AcDbEntity
  8
0
  6
Continuous
 62
     0
370
    30
100
AcDbCircle
 10
340.260528
 20
470.873401
 30
0.0
 40
4.000203289056141
100
AcDbArc
 50
68.470604
 51
161.827735
  0
ARC
  5
F3
330
7B
100
AcDbEntity
  8
0
  6
Continuous
 62
     0
370
    30
100
AcDbCircle
 10
342.556666
 20
463.21061
 30
0.0
 40
4.00020328905563
100
AcDbArc
 50
231.53372
 51
324.89085
  0
ARC
  5
F4
330
7B
100
AcDbEntity
  8
0
  6
Continuous
 62
     0
370
    30
100
AcDbCircle
 10
345.398938
 20
483.899772
 30
0.0
 40
10.00299654598674
100
AcDbArc
 50
248.473462
 51
286.674782
  0
ARC
  5
F5
330
7B
100
AcDbEntity
  8
0
  6
Continuous
 62
     0
370
    30
100
AcDbCircle
 10
354.011807
 20
455.156458
 30
0.0
 40
10.00299654598613
100
AcDbArc
 50
106.686673
 51
144.887992
  0
LINE
  5
F6
330
7B
100
AcDbEntity
  8
0
  6
Continuous
 62
     0
370
    30
100
AcDbLine
 10
357.738048
 20
477.154736
 30
0.0
 11
348.269187
 21
474.317413
 31
0.0
  0
LINE
  5
F7
330
7B
100
AcDbEntity
  8
0
  6
Continuous
 62
     0
370
    30
100
AcDbLine
 10
360.608432
 20
467.575545
 30
0.0
 11
351.13957
 21
464.738222
 31
0.0
  0
ARC
  5
F8
330
7B
100
AcDbEntity
  8
0
  6
Continuous
 62
     0
370
    30
100
AcDbCircle
 10
363.544163
 20
499.551035
 30
0.0
 40
11.00276646502712
100
AcDbArc
 50
106.68868
 51
141.526111
  0
ARC
  5
F9
330
7B
100
AcDbEntity
  8
0
  6
Continuous
 62
     0
370
    30
100
AcDbCircle
 10
363.542499
 20
499.550536
 30
0.0
 40
11.00276646618593
100
AcDbArc
 50
71.835344
 51
106.672775
  0
ARC
  5
FA
330
7B
100
AcDbEntity
  8
0
  6
Continuous
 62
     0
370
    30
100
AcDbCircle
 10
365.725036
 20
506.204289
 30
0.0
 40
4.000203289055717
100
AcDbArc
 50
338.470604
 51
71.827735
  0
ARC
  5
FB
330
7B
100
AcDbEntity
  8
0
  6
Continuous
 62
     0
370
    30
100
AcDbCircle
 10
358.062245
 20
503.908151
 30
0.0
 40
4.00020328905603
100
AcDbArc
 50
141.53372
 51
234.89085
  0
ARC
  5
FC
330
7B
100
AcDbEntity
  8
0
  6
Continuous
 62
     0
370
    30
100
AcDbCircle
 10
378.751407
 20
501.065879
 30
0.0
 40
10.00299654598598
100
AcDbArc
 50
158.473462
 51
196.674782
  0
ARC
  5
FD
330
7B
100
AcDbEntity
  8
0
  6
Continuous
 62
     0
370
    30
100
AcDbCircle
 10
350.008093
 20
492.45301
 30
0.0
 40
10.00299654598754
100
AcDbArc
 50
16.686673
 51
54.887992
  0
LINE
  5
FE
330
7B
100
AcDbEntity
  8
0
  6
Continuous
 62
     0
370
    30
100
AcDbLine
 10
372.006371
 20
488.726769
 30
0.0
 11
369.169048
 21
498.19563
 31
0.0
  0
LINE
  5
FF
330
7B
100
AcDbEntity
  8
0
  6
Continuous
 62
     0
370
    30
100
AcDbLine
 10
362.42718
 20
485.856385
 30
0.0
 11
359.589857
 21
495.325247
 31
0.0
  0
ARC
  5
100
330
7B
100
AcDbEntity
  8
0
  6
Continuous
 62
     0
370
    30
100
AcDbCircle
 10
394.40267
 20
482.920654
 30
0.0
 40
11.00276646638462
100
AcDbArc
 50
16.68868
 51
51.526111
  0
ARC
  5
101
330
7B
100
AcDbEntity
  8
0
  6
Continuous
 62
     0
370
    30
100
AcDbCircle
 10
394.402171
 20
482.922318
 30
0.0
 40
11.00276646621257
100
AcDbArc
 50
341.835344
 51
16.672775
  0
ARC
  5
102
330
7B
100
AcDbEntity
  8
0
  6
Continuous
 62
     0
370
    30
100
AcDbCircle
 10
401.055924
 20
480.739781
 30
0.0
 40
4.000203289055247
100
AcDbArc
 50
248.470604
 51
341.827735
  0
ARC
  5
103
330
7B
100
AcDbEntity
  8
0
  6
Continuous
 62
     0
370
    30
100
AcDbCircle
 10
398.759786
 20
488.402573
 30
0.0
 40
4.000203289055916
100
AcDbArc
 50
51.53372
 51
144.89085
  0
ARC
  5
104
330
7B
100
AcDbEntity
  8
0
  6
Continuous
 62
     0
370
    30
100
AcDbCircle
 10
395.917514
 20
467.71341
 30
0.0
 40
10.00299654598717
100
AcDbArc
 50
68.473462
 51
106.674782
  0
ARC
  5
105
330
7B
100
AcDbEntity
  8
0
  6
Continuous
 62
     0
370
    30
100
AcDbCircle
 10
387.304645
 20
496.456724
 30
0.0
 40
10.00299654598451
100
AcDbArc
 50
286.686673
 51
324.887992
  0
LINE
  5
106
330
7B
100
AcDbEntity
  8
0
  6
Continuous
 62
     0
370
    30
100
AcDbLine
 10
383.578404
 20
474.458446
 30
0.0
 11
393.047265
 21
477.295769
 31
0.0
  0
LINE
  5
107
330
7B
100
AcDbEntity
  8
0
  6
Continuous
 62
     0
370
    30
100
AcDbLine
 10
380.70802
 20
484.037637
 30
0.0
 11
390.176882
 21
486.87496
 31
0.0
  0
LINE
  5
108
330
7B
100
AcDbEntity
  8
0
  6
Continuous
 62
     0
370
     0
100
AcDbLine
 10
170.176882
 20
486.87496
 30
0.0
 11
171.612074
 21
482.085365
 31
0.0
  0
LINE
  5
109
330
7B
100
AcDbEntity
  8
0
  6
Continuous
 62
     0
370
     0
100
AcDbLine
 10
171.612074
 20
482.085365
 30
0.0
 11
173.047265
 21
477.295769
 31
0.0
  0
LINE
  5
10A
330
7B
100
AcDbEntity
  8
0
  6
Continuous
 62
     0
370
     0
100
AcDbLine
 10
175.487388
 20
490.703233
 30
0.0
 11
177.537662
 21
483.860954
 31
0.0
  0
LINE
  5
10B
330
7B
100
AcDbEntity
  8
0
  6
Continuous
 62
     0
370
     0
100
AcDbLine
 10
177.537662
 20
483.860954
 30
0.0
 11
179.587935
 21
477.018674
 31
0.0
  0
LINE
  5
10C
330
7B
100
AcDbEntity
  8
0
  6
Continuous
 62
     0
370
     0
100
AcDbLine
 10
181.248128
 20
491.534629
 30
0.0
 11
183.052369
 21
485.513423
 31
0.0
  0
LINE
  5
10D
330
7B
100
AcDbEntity
  8
0
  6
Continuous
 62
     0
370
     0
100
AcDbLine
 10
183.052369
 20
485.513423
 30
0.0
 11
184.85661
 21
479.492218
 31
0.0
  0
LINE
  5
10E
330
7B
100
AcDbEntity
  8
0
  6
Continuous
 62
     0
370
     0
100
AcDbLine
 10
139.589857
 20
495.325247
 30
0.0
 11
144.379452
 21
496.760439
 31
0.0
  0
LINE
  5
10F
330
7B
100
AcDbEntity
  8
0
  6
Continuous
 62
     0
370
     0
100
AcDbLine
 10
144.379452
 20
496.760439
 30
0.0
 11
149.169048
 21
498.19563
 31
0.0
  0
LINE
  5
110
330
7B
100
AcDbEntity
  8
0
  6
Continuous
 62
     0
370
     0
100
AcDbLine
 10
135.761584
 20
500.635753
 30
0.0
 11
142.603863
 21
502.686027
 31
0.0
  0
LINE
  5
111
330
7B
100
AcDbEntity
  8
0
  6
Continuous
 62
     0
370
     0
100
AcDbLine
 10
142.603863
 20
502.686027
 30
0.0
 11
149.446143
 21
504.7363
 31
0.0
  0
LINE
  5
112
330
7B
100
AcDbEntity
  8
0
  6
Continuous
 62
     0
370
     0
100
AcDbLine
 10
134.930188
 20
506.396493
 30
0.0
 11
140.951394
 21
508.200734
 31
0.0
  0
LINE
  5
113
330
7B
100
AcDbEntity
  8
0
  6
Continuous
 62
     0
370
     0
100
AcDbLine
 10
140.951394
 20
508.200734
 30
0.0
 11
146.972599
 21
510.004975
 31
0.0
  0
LINE
  5
114
330
7B
100
AcDbEntity
  8
0
  6
Continuous
 62
     0
370
     0
100
AcDbLine
 10
131.13957
 20
464.738222
 30
0.0
 11
129.704378
 21
469.527817
 31
0.0
  0
LINE
  5
115
330
7B
100
AcDbEntity
  8
0
  6
Continuous
 62
     0
370
     0
100
AcDbLine
 10
129.704378
 20
469.527817
 30
0.0
 11
128.269187
 21
474.317413
 31
0.0
  0
LINE
  5
116
330
7B
100
AcDbEntity
  8
0
  6
Continuous
 62
     0
370
     0
100
AcDbLine
 10
125.829064
 20
460.909949
 30
0.0
 11
123.778791
 21
467.752228
 31
0.0
  0
LINE
  5
117
330
7B
100
AcDbEntity
  8
0
  6
Continuous
 62
     0
370
     0
100
AcDbLine
 10
123.778791
 20
467.752228
 30
0.0
 11
121.728517
 21
474.594508
 31
0.0
  0
LINE
  5
118
330
7B
100
AcDbEntity
  8
0
  6
Continuous
 62
     0
370
     0
100
AcDbLine
 10
120.068324
 20
460.078553
 30
0.0
 11
118.264083
 21
466.099759
 31
0.0
  0
LINE
  5
119
330
7B
100
AcDbEntity
  8
0
  6
Continuous
 62
     0
370
     0
100
AcDbLine
 10
118.264083
 20
466.099759
 30
0.0
 11
116.459842
 21
472.120964
 31
0.0
  0
LINE
  5
11A
330
7B
100
AcDbEntity
  8
0
  6
Continuous
 62
     0
370
     0
100
AcDbLine
 10
161.726595
 20
456.287935
 30
0.0
 11
156.937
 21
454.852743
 31
0.0
  0
LINE
  5
11B
330
7B
100
AcDbEntity
  8
0
  6
Continuous
 62
     0
370
     0
100
AcDbLine
 10
156.937
 20
454.852743
 30
0.0
 11
152.147404
 21
453.417552
 31
0.0
  0
LINE
  5
11C
330
7B
100
AcDbEntity
  8
0
  6
Continuous
 62
     0
370
     0
100
AcDbLine
 10
165.554868
 20
450.977429
 30
0.0
 11
158.712589
 21
448.927156
 31
0.0
  0
LINE
  5
11D
330
7B
100
AcDbEntity
  8
0
  6
Continuous
 62
     0
370
     0
100
AcDbLine
 10
158.712589
 20
448.927156
 30
0.0
 11
151.870309
 21
446.876882
 31
0.0
  0
LINE
  5
11E
330
7B
100
AcDbEntity
  8
0
  6
Continuous
 62
     0
370
     0
100
AcDbLine
 10
166.386264
 20
445.216689
 30
0.0
 11
160.365058
 21
443.412448
 31
0.0
  0
LINE
  5
11F
330
7B
100
AcDbEntity
  8
0
  6
Continuous
 62
     0
370
     0
100
AcDbLine
 10
160.365058
 20
443.412448
 30
0.0
 11
154.343853
 21
441.608207
 31
0.0
  0
ARC
  5
120
330
7B
100
AcDbEntity
  8
0
  6
Continuous
 62
     0
370
    30
100
AcDbCircle
 10
150.658226
 20
475.806591
 30
0.0
 40
13.00000326245959
100
AcDbArc
 50
105.649379
 51
285.649379
  0
ARC
  5
121
330
7B
100
AcDbEntity
  8
0
  6
Continuous
 62
     0
370
    30
100
AcDbCircle
 10
150.658226
 20
475.806591
 30
0.0
 40
13.00000326245959
100
AcDbArc
 50
285.649379
 51
105.649379
  0
ARC
  5
122
330
7B
100
AcDbEntity
  8
0
  6
Continuous
 62
     0
370
     0
100
AcDbCircle
 10
150.658226
 20
475.806591
 30
0.0
 40
8.000003262459582
100
AcDbArc
 50
285.649379
 51
105.649379
  0
ARC
  5
123
330
7B
100
AcDbEntity
  8
0
  6
Continuous
 62
     0
370
     0
100
AcDbCircle
 10
150.658226
 20
475.806591
 30
0.0
 40
8.000003262459582
100
AcDbArc
 50
105.649379
 51
285.649379
  0
ARC
  5
124
330
7B
100
AcDbEntity
  8
0
  6
Continuous
 62
     0
370
    30
100
AcDbCircle
 10
150.658226
 20
475.806591
 30
0.0
 40
7.100003262459607
100
AcDbArc
 50
285.649379
 51
105.649379
  0
ARC
  5
125
330
7B
100
AcDbEntity
  8
0
  6
Continuous
 62
     0
370
    30
100
AcDbCircle
 10
150.658226
 20
475.806591
 30
0.0
 40
7.100003262459607
100
AcDbArc
 50
105.649379
 51
285.649379
  0
ARC
  5
126
330
7B
100
AcDbEntity
  8
0
  6
Continuous
 62
     0
370
    30
100
AcDbCircle
 10
150.658226
 20
475.806591
 30
0.0
 40
7.0
100
AcDbArc
 50
106.680727
 51
286.680727
  0
ARC
  5
127
330
7B
100
AcDbEntity
  8
0
  6
Continuous
 62
     0
370
    30
100
AcDbCircle
 10
150.658226
 20
475.806591
 30
0.0
 40
7.0
100
AcDbArc
 50
286.680727
 51
106.680727
  0
ARC
  5
128
330
7B
100
AcDbEntity
  8
0
  6
Continuous
 62
     0
370
    30
100
AcDbCircle
 10
157.772289
 20
452.062147
 30
0.0
 40
11.00276646573526
100
AcDbArc
 50
286.68868
 51
321.526111
  0
ARC
  5
129
330
7B
100
AcDbEntity
  8
0
  6
Continuous
 62
     0
370
    30
100
AcDbCircle
 10
157.773953
 20
452.062646
 30
0.0
 40
11.00276646565634
100
AcDbArc
 50
251.835344
 51
286.672775
  0
ARC
  5
12A
330
7B
100
AcDbEntity
  8
0
  6
Continuous
 62
     0
370
    30
100
AcDbCircle
 10
155.591416
 20
445.408893
 30
0.0
 40
4.000203289055711
100
AcDbArc
 50
158.470604
 51
251.827735
  0
ARC
  5
12B
330
7B
100
AcDbEntity
  8
0
  6
Continuous
 62
     0
370
    30
100
AcDbCircle
 10
163.254208
 20
447.705031
 30
0.0
 40
4.000203289055694
100
AcDbArc
 50
321.53372
 51
54.89085
  0
ARC
  5
12C
330
7B
100
AcDbEntity
  8
0
  6
Continuous
 62
     0
370
    30
100
AcDbCircle
 10
142.565045
 20
450.547303
 30
0.0
 40
10.00299654598561
100
AcDbArc
 50
338.473462
 51
16.674782
  0
ARC
  5
12D
330
7B
100
AcDbEntity
  8
0
  6
Continuous
 62
     0
370
    30
100
AcDbCircle
 10
171.308359
 20
459.160172
 30
0.0
 40
10.00299654598619
100
AcDbArc
 50
196.686673
 51
234.887992
  0
LINE
  5
12E
330
7B
100
AcDbEntity
  8
0
  6
Continuous
 62
     0
370
    30
100
AcDbLine
 10
149.310081
 20
462.886414
 30
0.0
 11
152.147404
 21
453.417552
 31
0.0
  0
LINE
  5
12F
330
7B
100
AcDbEntity
  8
0
  6
Continuous
 62
     0
370
    30
100
AcDbLine
 10
158.889272
 20
465.756797
 30
0.0
 11
161.726595
 21
456.287935
 31
0.0
  0
ARC
  5
130
330
7B
100
AcDbEntity
  8
0
  6
Continuous
 62
     0
370
    30
100
AcDbCircle
 10
126.913782
 20
468.692528
 30
0.0
 40
11.00276646598391
100
AcDbArc
 50
196.68868
 51
231.526111
  0
ARC
  5
131
330
7B
100
AcDbEntity
  8
0
  6
Continuous
 62
     0
370
    30
100
AcDbCircle
 10
126.914281
 20
468.690865
 30
0.0
 40
11.00276645545583
100
AcDbArc
 50
161.835344
 51
196.672775
  0
ARC
  5
132
330
7B
100
AcDbEntity
  8
0
  6
Continuous
 62
     0
370
    30
100
AcDbCircle
 10
120.260528
 20
470.873401
 30
0.0
 40
4.000203289055513
100
AcDbArc
 50
68.470604
 51
161.827735
  0
ARC
  5
133
330
7B
100
AcDbEntity
  8
0
  6
Continuous
 62
     0
370
    30
100
AcDbCircle
 10
122.556666
 20
463.21061
 30
0.0
 40
4.000203289056586
100
AcDbArc
 50
231.53372
 51
324.89085
  0
ARC
  5
134
330
7B
100
AcDbEntity
  8
0
  6
Continuous
 62
     0
370
    30
100
AcDbCircle
 10
125.398938
 20
483.899772
 30
0.0
 40
10.00299654598627
100
AcDbArc
 50
248.473462
 51
286.674782
  0
ARC
  5
135
330
7B
100
AcDbEntity
  8
0
  6
Continuous
 62
     0
370
    30
100
AcDbCircle
 10
134.011807
 20
455.156458
 30
0.0
 40
10.00299654598619
100
AcDbArc
 50
106.686673
 51
144.887992
  0
LINE
  5
136
330
7B
100
AcDbEntity
  8
0
  6
Continuous
 62
     0
370
    30
100
AcDbLine
 10
137.738048
 20
477.154736
 30
0.0
 11
128.269187
 21
474.317413
 31
0.0
  0
LINE
  5
137
330
7B
100
AcDbEntity
  8
0
  6
Continuous
 62
     0
370
    30
100
AcDbLine
 10
140.608432
 20
467.575545
 30
0.0
 11
131.13957
 21
464.738222
 31
0.0
  0
ARC
  5
138
330
7B
100
AcDbEntity
  8
0
  6
Continuous
 62
     0
370
    30
100
AcDbCircle
 10
143.544163
 20
499.551035
 30
0.0
 40
11.00276646638907
100
AcDbArc
 50
106.68868
 51
141.526111
  0
ARC
  5
139
330
7B
100
AcDbEntity
  8
0
  6
Continuous
 62
     0
370
    30
100
AcDbCircle
 10
143.542499
 20
499.550536
 30
0.0
 40
11.00276646638777
100
AcDbArc
 50
71.835344
 51
106.672775
  0
ARC
  5
13A
330
7B
100
AcDbEntity
  8
0
  6
Continuous
 62
     0
370
    30
100
AcDbCircle
 10
145.725036
 20
506.204289
 30
0.0
 40
4.000203289055749
100
AcDbArc
 50
338.470604
 51
71.827735
  0
ARC
  5
13B
330
7B
100
AcDbEntity
  8
0
  6
Continuous
 62
     0
370
    30
100
AcDbCircle
 10
138.062245
 20
503.908151
 30
0.0
 40
4.00020328905656
100
AcDbArc
 50
141.53372
 51
234.89085
  0
ARC
  5
13C
330
7B
100
AcDbEntity
  8
0
  6
Continuous
 62
     0
370
    30
100
AcDbCircle
 10
158.751407
 20
501.065879
 30
0.0
 40
10.00299654598703
100
AcDbArc
 50
158.473462
 51
196.674782
  0
ARC
  5
13D
330
7B
100
AcDbEntity
  8
0
  6
Continuous
 62
     0
370
    30
100
AcDbCircle
 10
130.008093
 20
492.45301
 30
0.0
 40
10.00299654598568
100
AcDbArc
 50
16.686673
 51
54.887992
  0
LINE
  5
13E
330
7B
100
AcDbEntity
  8
0
  6
Continuous
 62
     0
370
    30
100
AcDbLine
 10
152.006371
 20
488.726769
 30
0.0
 11
149.169048
 21
498.19563
 31
0.0
  0
LINE
  5
13F
330
7B
100
AcDbEntity
  8
0
  6
Continuous
 62
     0
370
    30
100
AcDbLine
 10
142.42718
 20
485.856385
 30
0.0
 11
139.589857
 21
495.325247
 31
0.0
  0
ARC
  5
140
330
7B
100
AcDbEntity
  8
0
  6
Continuous
 62
     0
370
    30
100
AcDbCircle
 10
174.40267
 20
482.920654
 30
0.0
 40
11.00276646614107
100
AcDbArc
 50
16.68868
 51
51.526111
  0
ARC
  5
141
330
7B
100
AcDbEntity
  8
0
  6
Continuous
 62
     0
370
    30
100
AcDbCircle
 10
174.402171
 20
482.922318
 30
0.0
 40
11.00276646620326
100
AcDbArc
 50
341.835344
 51
16.672775
  0
ARC
  5
142
330
7B
100
AcDbEntity
  8
0
  6
Continuous
 62
     0
370
    30
100
AcDbCircle
 10
181.055924
 20
480.739781
 30
0.0
 40
4.000203289055976
100
AcDbArc
 50
248.470604
 51
341.827735
  0
ARC
  5
143
330
7B
100
AcDbEntity
  8
0
  6
Continuous
 62
     0
370
    30
100
AcDbCircle
 10
178.759786
 20
488.402573
 30
0.0
 40
4.000203289055911
100
AcDbArc
 50
51.53372
 51
144.89085
  0
ARC
  5
144
330
7B
100
AcDbEntity
  8
0
  6
Continuous
 62
     0
370
    30
100
AcDbCircle
 10
175.917514
 20
467.71341
 30
0.0
 40
10.00299654598651
100
AcDbArc
 50
68.473462
 51
106.674782
  0
ARC
  5
145
330
7B
100
AcDbEntity
  8
0
  6
Continuous
 62
     0
370
    30
100
AcDbCircle
 10
167.304645
 20
496.456724
 30
0.0
 40
10.0029965459867
100
AcDbArc
 50
286.686673
 51
324.887992
  0
LINE
  5
146
330
7B
100
AcDbEntity
  8
0
  6
Continuous
 62
     0
370
    30
100
AcDbLine
 10
163.578404
 20
474.458446
 30
0.0
 11
173.047265
 21
477.295769
 31
0.0
  0
LINE
  5
147
330
7B
100
AcDbEntity
  8
0
  6
Continuous
 62
     0
370
    30
100
AcDbLine
 10
160.70802
 20
484.037637
 30
0.0
 11
170.176882
 21
486.87496
 31
0.0
  0
LINE
  5
148
330
7B
100
AcDbEntity
  8
0
  6
Continuous
 62
     0
370
    30
100
AcDbLine
 10
249.658226
 20
502.754163
 30
0.0
 11
249.658226
 21
454.63886
 31
0.0
  0
LWPOLYLINE
  5
149
330
7B
100
AcDbEntity
  8
0
  6
Continuous
 62
     0
370
     0
100
AcDbPolyline
 90
       38
 70
     0
 43
0.0
 10
271.658234
 20
454.638855
 10
271.618622
 20
454.699005
 10
271.500061
 20
454.758728
 10
271.303436
 20
454.817596
 10
271.030121
 20
454.875183
 10
270.682098
 20
454.931061
 10
270.261902
 20
454.984802
 10
269.772522
 20
455.036102
 10
269.217499
 20
455.084503
 10
268.60083
 20
455.1297
 10
267.926971
 20
455.171387
 10
267.200745
 20
455.209229
 10
266.427399
 20
455.24295
 10
265.612518
 20
455.272308
 10
264.761932
 20
455.297119
 10
263.881805
 20
455.3172
 10
262.978455
 20
455.332397
 10
262.058411
 20
455.34259
 10
261.128265
 20
455.347717
 10
260.194733
 20
455.347717
 10
259.264526
 20
455.342621
 10
258.344391
 20
455.332489
 10
257.440887
 20
455.317322
 10
256.560577
 20
455.297302
 10
255.709763
 20
455.272522
 10
254.894608
 20
455.243164
 10
254.120956
 20
455.209473
 10
253.394379
 20
455.171661
 10
252.720123
 20
455.130005
 10
252.103043
 20
455.084839
 10
251.547592
 20
455.036438
 10
251.057739
 20
454.985199
 10
250.637039
 20
454.931427
 10
250.288513
 20
454.87558
 10
250.014679
 20
454.818024
 10
249.81749
 20
454.759155
 10
249.698395
 20
454.699432
 10
249.658234
 20
454.638855
  0
LINE
  5
14A
330
7B
100
AcDbEntity
  8
0
  6
Continuous
 62
     0
370
    30
100
AcDbLine
 10
249.658226
 20
454.63886
 30
0.0
 11
249.658226
 21
453.101428
 31
0.0
  0
LINE
  5
14B
330
7B
100
AcDbEntity
  8
0
  6
Continuous
 62
     0
370
    30
100
AcDbLine
 10
271.658226
 20
454.63886
 30
0.0
 11
271.658226
 21
453.101428
 31
0.0
  0
LINE
  5
14C
330
7B
100
AcDbEntity
  8
0
  6
Continuous
 62
     0
370
    30
100
AcDbLine
 10
271.658226
 20
502.756491
 30
0.0
 11
271.658226
 21
454.63886
 31
0.0
  0
ARC
  5
14D
330
7B
100
AcDbEntity
  8
0
  6
Continuous
 62
     0
370
    30
100
AcDbCircle
 10
260.65776
 20
502.75474
 30
0.0
 40
10.99953409986852
100
AcDbArc
 50
0.009129
 51
180.003005
  0
ELLIPSE
  5
14E
330
7B
100
AcDbEntity
  8
0
  6
Continuous
 62
     0
370
    30
100
AcDbEllipse
 10
260.658226
 20
429.770565
 30
0.0
 11
11.5030692369188
 21
0.0
 31
0.0
210
0.0
220
0.0
230
1.0
 40
0.087156
 41
1.570796326794897
 42
4.71238898038469
  0
ELLIPSE
  5
14F
330
7B
100
AcDbEntity
  8
0
  6
Continuous
 62
     0
370
    30
100
AcDbEllipse
 10
260.658226
 20
429.770565
 30
0.0
 11
11.5030692369188
 21
0.0
 31
0.0
210
0.0
220
0.0
230
1.0
 40
0.087156
 41
4.71238898038469
 42
7.853981633974483
  0
ELLIPSE
  5
150
330
7B
100
AcDbEntity
  8
0
  6
Continuous
 62
     0
370
    30
100
AcDbEllipse
 10
260.658226
 20
430.268662
 30
0.0
 11
12.00306923186482
 21
0.0
 31
0.0
210
0.0
220
0.0
230
1.0
 40
0.087156
 41
1.570796326794897
 42
3.141592653589793
  0
ELLIPSE
  5
151
330
7B
100
AcDbEntity
  8
0
  6
Continuous
 62
     0
370
    30
100
AcDbEllipse
 10
260.658226
 20
430.268662
 30
0.0
 11
12.00306923186482
 21
0.0
 31
0.0
210
0.0
220
0.0
230
1.0
 40
0.087156
 41
0.0
 42
1.570796326794897
  0
ELLIPSE
  5
152
330
7B
100
AcDbEntity
  8
0
  6
Continuous
 62
     0
370
    30
100
AcDbEllipse
 10
260.658226
 20
437.740096
 30
0.0
 11
12.00306923186453
 21
0.0
 31
0.0
210
0.0
220
0.0
230
1.0
 40
0.087156
 41
1.570796326794897
 42
3.141592653589793
  0
ELLIPSE
  5
153
330
7B
100
AcDbEntity
  8
0
  6
Continuous
 62
     0
370
    30
100
AcDbEllipse
 10
260.658226
 20
437.740096
 30
0.0
 11
12.00306923186453
 21
0.0
 31
0.0
210
0.0
220
0.0
230
1.0
 40
0.087156
 41
0.0
 42
1.570796326794897
  0
ELLIPSE
  5
154
330
7B
100
AcDbEntity
  8
0
  6
Continuous
 62
     0
370
    30
100
AcDbEllipse
 10
260.658226
 20
437.740096
 30
0.0
 11
13.40311703251502
 21
0.0
 31
0.0
210
0.0
220
0.0
230
1.0
 40
0.087156
 41
1.570796326794897
 42
3.602738711319144
  0
ELLIPSE
  5
155
330
7B
100
AcDbEntity
  8
0
  6
Continuous
 62
     0
370
    30
100
AcDbEllipse
 10
260.658226
 20
437.740096
 30
0.0
 11
13.40311703251502
 21
0.0
 31
0.0
210
0.0
220
0.0
230
1.0
 40
0.087156
 41
5.822039249450234
 42
7.853981633974483
  0
ELLIPSE
  5
156
330
7B
100
AcDbEntity
  8
0
  6
Continuous
 62
     0
370
    30
100
AcDbEllipse
 10
260.658226
 20
437.839716
 30
0.0
 11
13.50311703400469
 21
0.0
 31
0.0
210
0.0
220
0.0
230
1.0
 40
0.087156
 41
1.570796326794897
 42
3.141592653589793
  0
ELLIPSE
  5
157
330
7B
100
AcDbEntity
  8
0
  6
Continuous
 62
     0
370
    30
100
AcDbEllipse
 10
260.658226
 20
437.839716
 30
0.0
 11
13.50311703400469
 21
0.0
 31
0.0
210
0.0
220
0.0
230
1.0
 40
0.087156
 41
0.0
 42
1.570796326794897
  0
ELLIPSE
  5
158
330
7B
100
AcDbEntity
  8
0
  6
Continuous
 62
     0
370
    30
100
AcDbEllipse
 10
260.658226
 20
442.222972
 30
0.0
 11
13.50311703400458
 21
0.0
 31
0.0
210
0.0
220
0.0
230
1.0
 40
0.087156
 41
1.570796326794897
 42
3.141592653589793
  0
ELLIPSE
  5
159
330
7B
100
AcDbEntity
  8
0
  6
Continuous
 62
     0
370
    30
100
AcDbEllipse
 10
260.658226
 20
442.222972
 30
0.0
 11
13.50311703400458
 21
0.0
 31
0.0
210
0.0
220
0.0
230
1.0
 40
0.087156
 41
0.0
 42
1.570796326794897
  0
ELLIPSE
  5
15A
330
7B
100
AcDbEntity
  8
0
  6
Continuous
 62
     0
370
     0
100
AcDbEllipse
 10
260.658226
 20
443.717265
 30
0.0
 11
15.00311703399478
 21
0.0
 31
0.0
210
0.0
220
0.0
230
1.0
 40
0.087156
 41
1.570796326794897
 42
3.141592653589793
  0
ELLIPSE
  5
15B
330
7B
100
AcDbEntity
  8
0
  6
Continuous
 62
     0
370
     0
100
AcDbEllipse
 10
260.658226
 20
443.717265
 30
0.0
 11
15.00311703399478
 21
0.0
 31
0.0
210
0.0
220
0.0
230
1.0
 40
0.087156
 41
0.0
 42
1.570796326794897
  0
ELLIPSE
  5
15C
330
7B
100
AcDbEntity
  8
0
  6
Continuous
 62
     0
370
     0
100
AcDbEllipse
 10
260.658226
 20
444.713459
 30
0.0
 11
15.00311703399461
 21
0.0
 31
0.0
210
0.0
220
0.0
230
1.0
 40
0.087156
 41
1.570796326794897
 42
3.14159265358953
  0
ELLIPSE
  5
15D
330
7B
100
AcDbEntity
  8
0
  6
Continuous
 62
     0
370
     0
100
AcDbEllipse
 10
260.658226
 20
444.713459
 30
0.0
 11
15.00311703399461
 21
0.0
 31
0.0
210
0.0
220
0.0
230
1.0
 40
0.087156
 41
0.0
 42
1.570796326794897
  0
ELLIPSE
  5
15E
330
7B
100
AcDbEntity
  8
0
  6
Continuous
 62
     0
370
     0
100
AcDbEllipse
 10
260.658226
 20
447.203946
 30
0.0
 11
12.50311703401416
 21
0.0
 31
0.0
210
0.0
220
0.0
230
1.0
 40
0.087156
 41
1.570796326794897
 42
3.141592653587664
  0
ELLIPSE
  5
15F
330
7B
100
AcDbEntity
  8
0
  6
Continuous
 62
     0
370
     0
100
AcDbEllipse
 10
260.658226
 20
447.203946
 30
0.0
 11
12.50311703401416
 21
0.0
 31
0.0
210
0.0
220
0.0
230
1.0
 40
0.087156
 41
6.283184953842011
 42
7.853981633974482
  0
ELLIPSE
  5
160
330
7B
100
AcDbEntity
  8
0
  6
Continuous
 62
     0
370
    30
100
AcDbEllipse
 10
260.658226
 20
452.583397
 30
0.0
 11
12.50311703401407
 21
0.0
 31
0.0
210
0.0
220
0.0
230
1.0
 40
0.087156
 41
1.570796326794897
 42
3.141592653589793
  0
ELLIPSE
  5
161
330
7B
100
AcDbEntity
  8
0
  6
Continuous
 62
     0
370
    30
100
AcDbEllipse
 10
260.658226
 20
452.583397
 30
0.0
 11
12.50311703401407
 21
0.0
 31
0.0
210
0.0
220
0.0
230
1.0
 40
0.087156
 41
0.0
 42
1.570796326794897
  0
LINE
  5
162
330
7B
100
AcDbEntity
  8
0
  6
Continuous
 62
     0
370
    30
100
AcDbLine
 10
248.155109
 20
452.583397
 30
0.0
 11
248.155109
 21
447.203946
 31
0.0
  0
LINE
  5
163
330
7B
100
AcDbEntity
  8
0
  6
Continuous
 62
     0
370
    30
100
AcDbLine
 10
273.161343
 20
452.583397
 30
0.0
 11
273.161343
 21
447.203946
 31
0.0
  0
LINE
  5
164
330
7B
100
AcDbEntity
  8
0
  6
Continuous
 62
     0
370
    30
100
AcDbLine
 10
273.359003
 20
446.648846
 30
0.0
 11
273.161343
 21
447.203946
 31
0.0
  0
LINE
  5
165
330
7B
100
AcDbEntity
  8
0
  6
Continuous
 62
     0
370
    30
100
AcDbLine
 10
248.155109
 20
447.203946
 30
0.0
 11
247.960601
 21
446.649486
 31
0.0
  0
LWPOLYLINE
  5
166
330
7B
100
AcDbEntity
  8
0
  6
Continuous
 62
     0
370
    30
100
AcDbPolyline
 90
       50
 70
     0
 43
0.0
 10
245.655106
 20
444.71347
 10
245.697433
 20
445.074341
 10
245.812805
 20
445.407623
 10
245.981888
 20
445.687103
 10
246.174576
 20
445.905334
 10
246.366348
 20
446.066711
 10
246.551575
 20
446.185852
 10
246.72728
 20
446.278168
 10
246.894928
 20
446.352814
 10
247.059204
 20
446.41452
 10
247.224823
 20
446.467896
 10
247.396088
 20
446.517029
 10
247.574829
 20
446.563354
 10
247.761917
 20
446.607208
 10
247.958237
 20
446.649017
 10
248.164642
 20
446.689087
 10
248.381653
 20
446.727692
 10
248.609573
 20
446.765015
 10
248.84874
 20
446.801208
 10
249.099396
 20
446.836395
 10
249.36145
 20
446.870636
 10
249.634705
 20
446.903931
 10
249.918945
 20
446.936249
 10
250.213943
 20
446.96756
 10
250.519516
 20
446.997894
 10
250.835464
 20
447.027222
 10
251.161545
 20
447.055542
 10
251.497574
 20
447.082855
 10
251.843323
 20
447.1091
 10
252.198547
 20
447.134308
 10
252.562851
 20
447.158447
 10
252.935822
 20
447.181519
 10
253.317062
 20
447.203461
 10
253.706177
 20
447.224304
 10
254.102768
 20
447.243988
 10
254.506424
 20
447.262512
 10
254.916763
 20
447.279846
 10
255.333359
 20
447.295959
 10
255.755829
 20
447.310883
 10
256.183777
 20
447.324524
 10
256.61676
 20
447.336945
 10
257.054352
 20
447.348053
 10
257.495911
 20
447.35788
 10
257.940887
 20
447.366455
 10
258.388702
 20
447.373688
 10
258.838745
 20
447.379639
 10
259.290466
 20
447.384308
 10
259.743256
 20
447.387634
 10
260.196564
 20
447.389648
 10
260.658234
 20
447.39032
  0
LWPOLYLINE
  5
167
330
7B
100
AcDbEntity
  8
0
  6
Continuous
 62
     0
370
    30
100
AcDbPolyline
 90
       50
 70
     0
 43
0.0
 10
275.661346
 20
444.71347
 10
275.619019
 20
445.074341
 10
275.503662
 20
445.407623
 10
275.334564
 20
445.687103
 10
275.141876
 20
445.905334
 10
274.950104
 20
446.066711
 10
274.764893
 20
446.185852
 10
274.589172
 20
446.278168
 10
274.421509
 20
446.352814
 10
274.257263
 20
446.41452
 10
274.091644
 20
446.467896
 10
273.920349
 20
446.517029
 10
273.741608
 20
446.563354
 10
273.554535
 20
446.607208
 10
273.358215
 20
446.649017
 10
273.151794
 20
446.689087
 10
272.934814
 20
446.727692
 10
272.706879
 20
446.765015
 10
272.467712
 20
446.801208
 10
272.217041
 20
446.836395
 10
271.954987
 20
446.870636
 10
271.681732
 20
446.903931
 10
271.397522
 20
446.936249
 10
271.102509
 20
446.96756
 10
270.796936
 20
446.997894
 10
270.480988
 20
447.027222
 10
270.154907
 20
447.055542
 10
269.818878
 20
447.082855
 10
269.473114
 20
447.1091
 10
269.117889
 20
447.134308
 10
268.753601
 20
447.158447
 10
268.380646
 20
447.181519
 10
267.99939
 20
447.203461
 10
267.61026
 20
447.224304
 10
267.213684
 20
447.243988
 10
266.810028
 20
447.262512
 10
266.399689
 20
447.279846
 10
265.983093
 20
447.295959
 10
265.560608
 20
447.310883
 10
265.13269
 20
447.324524
 10
264.699677
 20
447.336945
 10
264.262115
 20
447.348053
 10
263.820557
 20
447.35788
 10
263.37558
 20
447.366455
 10
262.927765
 20
447.373688
 10
262.477722
 20
447.379639
 10
262.026001
 20
447.384308
 10
261.573181
 20
447.387634
 10
261.119904
 20
447.389648
 10
260.658234
 20
447.39032
  0
LINE
  5
168
330
7B
100
AcDbEntity
  8
0
  6
Continuous
 62
     0
370
    30
100
AcDbLine
 10
245.655109
 20
444.713459
 30
0.0
 11
245.655109
 21
443.717265
 31
0.0
  0
LINE
  5
169
330
7B
100
AcDbEntity
  8
0
  6
Continuous
 62
     0
370
    30
100
AcDbLine
 10
275.661343
 20
444.713459
 30
0.0
 11
275.661343
 21
443.717265
 31
0.0
  0
LWPOLYLINE
  5
16A
330
7B
100
AcDbEntity
  8
0
  6
Continuous
 62
     0
370
    30
100
AcDbPolyline
 90
       11
 70
     0
 43
0.0
 10
247.155106
 20
441.985016
 10
246.995499
 20
442.040222
 10
246.837082
 20
442.102325
 10
246.675964
 20
442.177094
 10
246.50769
 20
442.271484
 10
246.328995
 20
442.393677
 10
246.142349
 20
442.557526
 10
245.958389
 20
442.774719
 10
245.801712
 20
443.048828
 10
245.694778
 20
443.370544
 10
245.655106
 20
443.717255
  0
LWPOLYLINE
  5
16B
330
7B
100
AcDbEntity
  8
0
  6
Continuous
 62
     0
370
    30
100
AcDbPolyline
 90
       11
 70
     0
 43
0.0
 10
275.661346
 20
443.717255
 10
275.622284
 20
443.371246
 10
275.515686
 20
443.049377
 10
275.358337
 20
442.775543
 10
275.174469
 20
442.557892
 10
274.987885
 20
442.394165
 10
274.809174
 20
442.271332
 10
274.640839
 20
442.177216
 10
274.479462
 20
442.103027
 10
274.321289
 20
442.040588
 10
274.161346
 20
441.985138
  0
LINE
  5
16C
330
7B
100
AcDbEntity
  8
0
  6
Continuous
 62
     0
370
    30
100
AcDbLine
 10
247.155109
 20
442.222972
 30
0.0
 11
247.155109
 21
437.839716
 31
0.0
  0
LINE
  5
16D
330
7B
100
AcDbEntity
  8
0
  6
Continuous
 62
     0
370
    30
100
AcDbLine
 10
274.161343
 20
442.222972
 30
0.0
 11
274.161343
 21
437.839716
 31
0.0
  0
LINE
  5
16E
330
7B
100
AcDbEntity
  8
0
  6
Continuous
 62
     0
370
    30
100
AcDbLine
 10
248.655157
 20
437.740096
 30
0.0
 11
248.655157
 21
430.268662
 31
0.0
  0
LINE
  5
16F
330
7B
100
AcDbEntity
  8
0
  6
Continuous
 62
     0
370
    30
100
AcDbLine
 10
272.661295
 20
437.740096
 30
0.0
 11
272.661295
 21
430.268662
 31
0.0
  0
ENDBLK
  5
171
330
7B
100
AcDbEntity
  8
0
100
AcDbBlockEnd
  0
BLOCK
  5
219
330
173
100
AcDbEntity
  8
0
100
AcDbBlockBegin
  2
b
 70
     0
 10
83.490158
 20
137.581848
 30
0.0
  3
b
  1

  0
LINE
  5
174
330
173
100
AcDbEntity
  8
0
  6
Continuous
 62
     0
370
    30
100
AcDbLine
 10
135.336599
 20
307.399032
 30
0.0
 11
165.979853
 21
307.399032
 31
0.0
  0
ARC
  5
175
330
173
100
AcDbEntity
  8
0
  6
Continuous
 62
     0
370
    30
100
AcDbCircle
 10
165.979853
 20
315.399032
 30
0.0
 40
7.999999999936003
100
AcDbArc
 50
270.0
 51
350.204853
  0
LINE
  5
176
330
173
100
AcDbEntity
  8
0
  6
Continuous
 62
     0
370
     0
100
AcDbLine
 10
127.453221
 20
314.038024
 30
0.0
 11
173.863231
 21
314.038024
 31
0.0
  0
LINE
  5
177
330
173
100
AcDbEntity
  8
0
  6
Continuous
 62
     0
370
    30
100
AcDbLine
 10
173.863231
 20
314.038024
 30
0.0
 11
177.985786
 21
337.917129
 31
0.0
  0
LINE
  5
178
330
173
100
AcDbEntity
  8
0
  6
Continuous
 62
     0
370
     0
100
AcDbLine
 10
123.330666
 20
337.917129
 30
0.0
 11
177.985786
 21
337.917129
 31
0.0
  0
ARC
  5
179
330
173
100
AcDbEntity
  8
0
  6
Continuous
 62
     0
370
    30
100
AcDbCircle
 10
186.854587
 20
336.385994
 30
0.0
 40
8.999999999964002
100
AcDbArc
 50
133.472
 51
170.204853
  0
LINE
  5
17A
330
173
100
AcDbEntity
  8
0
  6
Continuous
 62
     0
370
     0
100
AcDbLine
 10
120.653865
 20
342.917391
 30
0.0
 11
180.662587
 21
342.917391
 31
0.0
  0
ARC
  5
17B
330
173
100
AcDbEntity
  8
0
  6
Continuous
 62
     0
370
    30
100
AcDbCircle
 10
175.158587
 20
348.723076
 30
0.0
 40
7.999999999936003
100
AcDbArc
 50
313.472
 51
0.544002
  0
LINE
  5
17C
330
173
100
AcDbEntity
  8
0
  6
Continuous
 62
     0
370
    30
100
AcDbLine
 10
118.158226
 20
348.799032
 30
0.0
 11
183.158226
 21
348.799032
 31
0.0
  0
ARC
  5
17D
330
173
100
AcDbEntity
  8
0
  6
Continuous
 62
     0
370
    30
100
AcDbCircle
 10
126.161437
 20
348.724591
 30
0.0
 40
8.00355731758071
100
AcDbArc
 50
179.467089
 51
226.516909
  0
ARC
  5
17E
330
173
100
AcDbEntity
  8
0
  6
Continuous
 62
     0
370
    30
100
AcDbCircle
 10
114.459543
 20
336.384751
 30
0.0
 40
9.00250005165846
100
AcDbArc
 50
9.800429
 51
46.522718
  0
LINE
  5
17F
330
173
100
AcDbEntity
  8
0
  6
Continuous
 62
     0
370
    30
100
AcDbLine
 10
127.453221
 20
314.038024
 30
0.0
 11
123.330666
 21
337.917129
 31
0.0
  0
ARC
  5
180
330
173
100
AcDbEntity
  8
0
  6
Continuous
 62
     0
370
    30
100
AcDbCircle
 10
135.337585
 20
315.400203
 30
0.0
 40
8.00117085085561
100
AcDbArc
 50
189.802206
 51
269.985559
  0
LINE
  5
181
330
173
100
AcDbEntity
  8
0
  6
Continuous
 62
     0
370
    30
100
AcDbLine
 10
245.336599
 20
307.399032
 30
0.0
 11
275.979853
 21
307.399032
 31
0.0
  0
ARC
  5
182
330
173
100
AcDbEntity
  8
0
  6
Continuous
 62
     0
370
    30
100
AcDbCircle
 10
275.979853
 20
315.399032
 30
0.0
 40
7.999999999936003
100
AcDbArc
 50
270.0
 51
350.204853
  0
LINE
  5
183
330
173
100
AcDbEntity
  8
0
  6
Continuous
 62
     0
370
     0
100
AcDbLine
 10
237.453221
 20
314.038024
 30
0.0
 11
283.863231
 21
314.038024
 31
0.0
  0
LINE
  5
184
330
173
100
AcDbEntity
  8
0
  6
Continuous
 62
     0
370
    30
100
AcDbLine
 10
283.863231
 20
314.038024
 30
0.0
 11
287.985786
 21
337.917129
 31
0.0
  0
LINE
  5
185
330
173
100
AcDbEntity
  8
0
  6
Continuous
 62
     0
370
     0
100
AcDbLine
 10
233.330666
 20
337.917129
 30
0.0
 11
287.985786
 21
337.917129
 31
0.0
  0
ARC
  5
186
330
173
100
AcDbEntity
  8
0
  6
Continuous
 62
     0
370
    30
100
AcDbCircle
 10
296.854587
 20
336.385995
 30
0.0
 40
8.999999999964002
100
AcDbArc
 50
133.472
 51
170.204853
  0
LINE
  5
187
330
173
100
AcDbEntity
  8
0
  6
Continuous
 62
     0
370
     0
100
AcDbLine
 10
230.653865
 20
342.917391
 30
0.0
 11
290.662587
 21
342.917391
 31
0.0
  0
ARC
  5
188
330
173
100
AcDbEntity
  8
0
  6
Continuous
 62
     0
370
    30
100
AcDbCircle
 10
285.158587
 20
348.723076
 30
0.0
 40
7.999999999936003
100
AcDbArc
 50
313.472
 51
0.544002
  0
LINE
  5
189
330
173
100
AcDbEntity
  8
0
  6
Continuous
 62
     0
370
    30
100
AcDbLine
 10
228.158226
 20
348.799032
 30
0.0
 11
293.158226
 21
348.799032
 31
0.0
  0
ARC
  5
18A
330
173
100
AcDbEntity
  8
0
  6
Continuous
 62
     0
370
    30
100
AcDbCircle
 10
236.161437
 20
348.724592
 30
0.0
 40
8.003557317581187
100
AcDbArc
 50
179.467089
 51
226.516909
  0
ARC
  5
18B
330
173
100
AcDbEntity
  8
0
  6
Continuous
 62
     0
370
    30
100
AcDbCircle
 10
224.459543
 20
336.384751
 30
0.0
 40
9.002500051660267
100
AcDbArc
 50
9.800429
 51
46.522718
  0
LINE
  5
18C
330
173
100
AcDbEntity
  8
0
  6
Continuous
 62
     0
370
    30
100
AcDbLine
 10
237.453221
 20
314.038024
 30
0.0
 11
233.330666
 21
337.917129
 31
0.0
  0
ARC
  5
18D
330
173
100
AcDbEntity
  8
0
  6
Continuous
 62
     0
370
    30
100
AcDbCircle
 10
245.337585
 20
315.400203
 30
0.0
 40
8.001170850855827
100
AcDbArc
 50
189.802206
 51
269.985559
  0
LINE
  5
18E
330
173
100
AcDbEntity
  8
0
  6
Continuous
 62
     0
370
    30
100
AcDbLine
 10
355.336599
 20
307.399032
 30
0.0
 11
385.979853
 21
307.399032
 31
0.0
  0
ARC
  5
18F
330
173
100
AcDbEntity
  8
0
  6
Continuous
 62
     0
370
    30
100
AcDbCircle
 10
385.979853
 20
315.399032
 30
0.0
 40
7.999999999936003
100
AcDbArc
 50
270.0
 51
350.204853
  0
LINE
  5
190
330
173
100
AcDbEntity
  8
0
  6
Continuous
 62
     0
370
     0
100
AcDbLine
 10
347.453221
 20
314.038024
 30
0.0
 11
393.863231
 21
314.038024
 31
0.0
  0
LINE
  5
191
330
173
100
AcDbEntity
  8
0
  6
Continuous
 62
     0
370
    30
100
AcDbLine
 10
393.863231
 20
314.038024
 30
0.0
 11
397.985786
 21
337.917129
 31
0.0
  0
LINE
  5
192
330
173
100
AcDbEntity
  8
0
  6
Continuous
 62
     0
370
     0
100
AcDbLine
 10
343.330666
 20
337.917129
 30
0.0
 11
397.985786
 21
337.917129
 31
0.0
  0
ARC
  5
193
330
173
100
AcDbEntity
  8
0
  6
Continuous
 62
     0
370
    30
100
AcDbCircle
 10
406.854587
 20
336.385994
 30
0.0
 40
8.999999999964002
100
AcDbArc
 50
133.472
 51
170.204853
  0
LINE
  5
194
330
173
100
AcDbEntity
  8
0
  6
Continuous
 62
     0
370
     0
100
AcDbLine
 10
340.653865
 20
342.917391
 30
0.0
 11
400.662587
 21
342.917391
 31
0.0
  0
ARC
  5
195
330
173
100
AcDbEntity
  8
0
  6
Continuous
 62
     0
370
    30
100
AcDbCircle
 10
395.158587
 20
348.723076
 30
0.0
 40
7.999999999936003
100
AcDbArc
 50
313.472
 51
0.544002
  0
LINE
  5
196
330
173
100
AcDbEntity
  8
0
  6
Continuous
 62
     0
370
    30
100
AcDbLine
 10
338.158226
 20
348.799032
 30
0.0
 11
403.158226
 21
348.799032
 31
0.0
  0
ARC
  5
197
330
173
100
AcDbEntity
  8
0
  6
Continuous
 62
     0
370
    30
100
AcDbCircle
 10
346.161437
 20
348.724591
 30
0.0
 40
8.003557317581553
100
AcDbArc
 50
179.467089
 51
226.516909
  0
ARC
  5
198
330
173
100
AcDbEntity
  8
0
  6
Continuous
 62
     0
370
    30
100
AcDbCircle
 10
334.459543
 20
336.384751
 30
0.0
 40
9.00250005166025
100
AcDbArc
 50
9.800429
 51
46.522718
  0
LINE
  5
199
330
173
100
AcDbEntity
  8
0
  6
Continuous
 62
     0
370
    30
100
AcDbLine
 10
347.453221
 20
314.038024
 30
0.0
 11
343.330666
 21
337.917129
 31
0.0
  0
ARC
  5
19A
330
173
100
AcDbEntity
  8
0
  6
Continuous
 62
     0
370
    30
100
AcDbCircle
 10
355.337585
 20
315.400203
 30
0.0
 40
8.001170850855871
100
AcDbArc
 50
189.802206
 51
269.985559
  0
LINE
  5
19B
330
173
100
AcDbEntity
  8
0
  6
Continuous
 62
     0
370
     0
100
AcDbLine
 10
361.19394
 20
299.036306
 30
0.0
 11
379.724246
 21
299.036306
 31
0.0
  0
LINE
  5
19C
330
173
100
AcDbEntity
  8
0
  6
Continuous
 62
     0
370
     0
100
AcDbLine
 10
379.724246
 20
299.036306
 30
0.0
 11
380.122512
 21
299.036306
 31
0.0
  0
LINE
  5
19D
330
173
100
AcDbEntity
  8
0
  6
Continuous
 62
     0
370
    30
100
AcDbLine
 10
369.067274
 20
293.899031
 30
0.0
 11
368.124291
 21
294.245514
 31
0.0
  0
LINE
  5
19E
330
173
100
AcDbEntity
  8
0
  6
Continuous
 62
     0
370
     0
100
AcDbLine
 10
369.067274
 20
293.899032
 30
0.0
 11
382.309339
 21
293.899032
 31
0.0
  0
ARC
  5
19F
330
173
100
AcDbEntity
  8
0
  6
Continuous
 62
     0
370
    30
100
AcDbCircle
 10
383.320061
 20
293.180691
 30
0.0
 40
1.239989335195951
100
AcDbArc
 50
100.722497
 51
144.59783
  0
LINE
  5
1A0
330
173
100
AcDbEntity
  8
0
  6
Continuous
 62
     0
370
     0
100
AcDbLine
 10
364.408122
 20
303.73873
 30
0.0
 11
376.64532
 21
303.73873
 31
0.0
  0
LINE
  5
1A1
330
173
100
AcDbEntity
  8
0
  6
Continuous
 62
     0
370
     0
100
AcDbLine
 10
376.64532
 20
303.73873
 30
0.0
 11
376.90833
 21
303.73873
 31
0.0
  0
ELLIPSE
  5
1A2
330
173
100
AcDbEntity
  8
0
  6
Continuous
 62
     0
370
     0
100
AcDbEllipse
 10
391.612074
 20
289.39903
 30
0.0
 11
6.549009873598866E-8
 21
4.999999999979931
 31
0.0
210
0.0
220
0.0
230
1.0
 40
0.287038
 41
0.0000000456316069
 42
3.1415926992214
  0
LINE
  5
1A3
330
173
100
AcDbEntity
  8
0
  6
Continuous
 62
     0
370
    30
100
AcDbLine
 10
383.111174
 20
284.39903
 30
0.0
 11
391.612074
 21
284.39903
 31
0.0
  0
LWPOLYLINE
  5
1A4
330
173
100
AcDbEntity
  8
0
  6
Continuous
 62
     0
370
    30
100
AcDbPolyline
 90
       24
 70
     0
 43
0.0
 10
382.309326
 20
293.899017
 10
382.070862
 20
293.615479
 10
381.832001
 20
293.276001
 10
381.599762
 20
292.885345
 10
381.381073
 20
292.44812
 10
381.182831
 20
291.969086
 10
381.012146
 20
291.453583
 10
380.875519
 20
290.907806
 10
380.7789
 20
290.338928
 10
380.726807
 20
289.755066
 10
380.721863
 20
289.165466
 10
380.764252
 20
288.57962
 10
380.851959
 20
288.006927
 10
380.980682
 20
287.455688
 10
381.144836
 20
286.93338
 10
381.337921
 20
286.44632
 10
381.552948
 20
285.999969
 10
381.782959
 20
285.599213
 10
382.020966
 20
285.248779
 10
382.259979
 20
284.953308
 10
382.493652
 20
284.716949
 10
382.715759
 20
284.543701
 10
382.920502
 20
284.437073
 10
383.111176
 20
284.399017
  0
ELLIPSE
  5
1A5
330
173
100
AcDbEntity
  8
0
  6
Continuous
 62
     0
370
     0
100
AcDbEllipse
 10
397.537662
 20
289.39903
 30
0.0
 11
9.355728390855446E-8
 21
7.142857142828414
 31
0.0
210
0.0
220
0.0
230
1.0
 40
0.287038
 41
0.0000000456316069
 42
3.1415926992214
  0
ELLIPSE
  5
1A6
330
173
100
AcDbEntity
  8
0
  6
Continuous
 62
     0
370
     0
100
AcDbEllipse
 10
403.052369
 20
289.39903
 30
0.0
 11
8.233040983952179E-8
 21
6.285714285688536
 31
0.0
210
0.0
220
0.0
230
1.0
 40
0.287038
 41
0.0000000456316069
 42
3.1415926992214
  0
ELLIPSE
  5
1A7
330
173
100
AcDbEntity
  8
0
  6
Continuous
 62
     0
370
     0
100
AcDbEllipse
 10
403.052369
 20
289.39903
 30
0.0
 11
8.233040983952179E-8
 21
6.285714285688536
 31
0.0
210
0.0
220
0.0
230
1.0
 40
0.287038
 41
5.838319079370791
 42
6.283185352811193
  0
ELLIPSE
  5
1A8
330
173
100
AcDbEntity
  8
0
  6
Continuous
 62
     0
370
     0
100
AcDbEllipse
 10
403.052369
 20
289.39903
 30
0.0
 11
8.233040983952179E-8
 21
6.285714285688536
 31
0.0
210
0.0
220
0.0
230
1.0
 40
0.287038
 41
3.1415926992214
 42
3.586458046682938
  0
ARC
  5
1A9
330
173
100
AcDbEntity
  8
0
  6
Continuous
 62
     0
370
    30
100
AcDbCircle
 10
367.054395
 20
289.381746
 30
0.0
 40
4.945457445202239
100
AcDbArc
 50
282.514525
 51
65.9825
  0
ELLIPSE
  5
1AA
330
173
100
AcDbEntity
  8
0
  6
Continuous
 62
     0
370
     0
100
AcDbEllipse
 10
360.951394
 20
289.399029
 30
0.0
 11
9.169342511737704E-7
 21
-6.28571428568847
 31
0.0
210
0.0
220
0.0
230
1.0
 40
0.957919
 41
3.141592501305652
 42
6.28318515489541
  0
ELLIPSE
  5
1AB
330
173
100
AcDbEntity
  8
0
  6
Continuous
 62
     0
370
     0
100
AcDbEllipse
 10
360.951394
 20
289.399029
 30
0.0
 11
9.169342511737704E-7
 21
-6.28571428568847
 31
0.0
210
0.0
220
0.0
230
1.0
 40
0.957919
 41
6.283185154895429
 42
9.424777808485238
  0
ELLIPSE
  5
1AC
330
173
100
AcDbEntity
  8
0
  6
Continuous
 62
     0
370
     0
100
AcDbEllipse
 10
349.704378
 20
289.39903
 30
0.0
 11
-6.549009873598861E-8
 21
-4.999999999979931
 31
0.0
210
0.0
220
0.0
230
-1.0
 40
0.287038
 41
-0.0000000456316069
 42
3.141592607958196
  0
LINE
  5
1AD
330
173
100
AcDbEntity
  8
0
  6
Continuous
 62
     0
370
    30
100
AcDbLine
 10
355.779694
 20
284.39903
 30
0.0
 11
349.704378
 21
284.39903
 31
0.0
  0
ELLIPSE
  5
1AE
330
173
100
AcDbEntity
  8
0
  6
Continuous
 62
     0
370
     0
100
AcDbEllipse
 10
343.778791
 20
289.39903
 30
0.0
 11
-9.355728390855438E-8
 21
-7.142857142828414
 31
0.0
210
0.0
220
0.0
230
-1.0
 40
0.287038
 41
6.045028893823668
 42
6.283185261547972
  0
ELLIPSE
  5
1AF
330
173
100
AcDbEntity
  8
0
  6
Continuous
 62
     0
370
     0
100
AcDbEllipse
 10
343.778791
 20
289.39903
 30
0.0
 11
-9.355728390855438E-8
 21
-7.142857142828414
 31
0.0
210
0.0
220
0.0
230
-1.0
 40
0.287038
 41
3.141592607958193
 42
3.379748975682411
  0
ELLIPSE
  5
1B0
330
173
100
AcDbEntity
  8
0
  6
Continuous
 62
     0
370
     0
100
AcDbEllipse
 10
343.778791
 20
289.39903
 30
0.0
 11
-9.355728390855438E-8
 21
-7.142857142828414
 31
0.0
210
0.0
220
0.0
230
-1.0
 40
0.287038
 41
-0.0000000456316069
 42
3.141592607958193
  0
ELLIPSE
  5
1B1
330
173
100
AcDbEntity
  8
0
  6
Continuous
 62
     0
370
     0
100
AcDbEllipse
 10
338.264083
 20
289.39903
 30
0.0
 11
-8.233040983952172E-8
 21
-6.285714285688536
 31
0.0
210
0.0
220
0.0
230
-1.0
 40
0.287038
 41
0.4448637832245354
 42
2.696728393268976
  0
LINE
  5
1B2
330
173
100
AcDbEntity
  8
0
  6
Continuous
 62
     0
370
     0
100
AcDbLine
 10
367.151478
 20
277.399032
 30
0.0
 11
357.658223
 21
277.399032
 31
0.0
  0
LINE
  5
1B3
330
173
100
AcDbEntity
  8
0
  6
Continuous
 62
     0
370
     0
100
AcDbLine
 10
383.658229
 20
277.399032
 30
0.0
 11
367.151478
 21
277.399032
 31
0.0
  0
LINE
  5
1B4
330
173
100
AcDbEntity
  8
0
  6
Continuous
 62
     0
370
    30
100
AcDbLine
 10
378.658229
 20
272.399032
 30
0.0
 11
368.500227
 21
272.399032
 31
0.0
  0
LINE
  5
1B5
330
173
100
AcDbEntity
  8
0
  6
Continuous
 62
     0
370
    30
100
AcDbLine
 10
368.500227
 20
272.399032
 30
0.0
 11
362.658223
 21
272.399032
 31
0.0
  0
LINE
  5
1B6
330
173
100
AcDbEntity
  8
0
  6
Continuous
 62
     0
370
    30
100
AcDbLine
 10
383.658226
 20
277.399032
 30
0.0
 11
383.658226
 21
284.39903
 31
0.0
  0
LINE
  5
1B7
330
173
100
AcDbEntity
  8
0
  6
Continuous
 62
     0
370
    30
100
AcDbLine
 10
357.658226
 20
277.399032
 30
0.0
 11
357.658226
 21
282.670191
 31
0.0
  0
ARC
  5
1B8
330
173
100
AcDbEntity
  8
0
  6
Continuous
 62
     0
370
    30
100
AcDbCircle
 10
362.659136
 20
277.399945
 30
0.0
 40
5.000913014709639
100
AcDbArc
 50
180.01046
 51
269.98954
  0
ARC
  5
1B9
330
173
100
AcDbEntity
  8
0
  6
Continuous
 62
     0
370
    30
100
AcDbCircle
 10
378.657316
 20
277.399945
 30
0.0
 40
5.000913014710171
100
AcDbArc
 50
270.01046
 51
359.98954
  0
ARC
  5
1BA
330
173
100
AcDbEntity
  8
0
  6
Continuous
 62
     0
370
    30
100
AcDbCircle
 10
379.363459
 20
289.581889
 30
0.0
 40
7.829246776867111
100
AcDbArc
 50
37.971926
 51
62.376464
  0
ARC
  5
1BB
330
173
100
AcDbEntity
  8
0
  6
Continuous
 62
     0
370
    30
100
AcDbCircle
 10
379.327849
 20
289.260531
 30
0.0
 40
7.885729966402771
100
AcDbArc
 50
303.308098
 51
321.93949
  0
ARC
  5
1BC
330
173
100
AcDbEntity
  8
0
  6
Continuous
 62
     0
370
    30
100
AcDbCircle
 10
346.912168
 20
289.39903
 30
0.0
 40
11.00067325499557
100
AcDbArc
 50
148.950472
 51
211.049543
  0
ARC
  5
1BD
330
173
100
AcDbEntity
  8
0
  6
Continuous
 62
     0
370
    30
100
AcDbCircle
 10
341.390707
 20
292.950112
 30
0.0
 40
4.443001689205545
100
AcDbArc
 50
49.732487
 51
151.458639
  0
ARC
  5
1BE
330
173
100
AcDbEntity
  8
0
  6
Continuous
 62
     0
370
    30
100
AcDbCircle
 10
341.392334
 20
285.818565
 30
0.0
 40
4.41956494104827
100
AcDbArc
 50
270.210293
 51
310.497636
  0
ARC
  5
1BF
330
173
100
AcDbEntity
  8
0
  6
Continuous
 62
     0
370
    30
100
AcDbCircle
 10
341.472843
 20
285.975021
 30
0.0
 40
4.576442700445634
100
AcDbArc
 50
209.447654
 51
269.195117
  0
ARC
  5
1C0
330
173
100
AcDbEntity
  8
0
  6
Continuous
 62
     0
370
    30
100
AcDbCircle
 10
349.658686
 20
302.869221
 30
0.0
 40
8.47031431406279
100
AcDbArc
 50
230.426056
 51
270.309074
  0
ARC
  5
1C1
330
173
100
AcDbEntity
  8
0
  6
Continuous
 62
     0
370
    30
100
AcDbCircle
 10
349.658686
 20
275.928839
 30
0.0
 40
8.470314352427225
100
AcDbArc
 50
89.690923
 51
129.57394
  0
LINE
  5
1C2
330
173
100
AcDbEntity
  8
0
  6
Continuous
 62
     0
370
    30
100
AcDbLine
 10
355.781102
 20
294.39903
 30
0.0
 11
349.704378
 21
294.39903
 31
0.0
  0
CIRCLE
  5
1C3
330
173
100
AcDbEntity
  8
0
  6
Continuous
 62
     0
370
    30
100
AcDbCircle
 10
361.901349
 20
289.386987
 30
0.0
 40
7.923577789830301
  0
ARC
  5
1C4
330
173
100
AcDbEntity
  8
0
  6
Continuous
 62
     0
370
    30
100
AcDbCircle
 10
394.404284
 20
289.39903
 30
0.0
 40
11.00067325499782
100
AcDbArc
 50
328.950457
 51
31.049528
  0
ARC
  5
1C5
330
173
100
AcDbEntity
  8
0
  6
Continuous
 62
     0
370
    30
100
AcDbCircle
 10
399.925745
 20
292.950111
 30
0.0
 40
4.443001668903698
100
AcDbArc
 50
28.541363
 51
130.267515
  0
ARC
  5
1C6
330
173
100
AcDbEntity
  8
0
  6
Continuous
 62
     0
370
    30
100
AcDbCircle
 10
399.924118
 20
285.818565
 30
0.0
 40
4.419564918464425
100
AcDbArc
 50
229.502366
 51
269.789709
  0
ARC
  5
1C7
330
173
100
AcDbEntity
  8
0
  6
Continuous
 62
     0
370
    30
100
AcDbCircle
 10
399.843609
 20
285.975021
 30
0.0
 40
4.576442757846088
100
AcDbArc
 50
270.804885
 51
330.552347
  0
ARC
  5
1C8
330
173
100
AcDbEntity
  8
0
  6
Continuous
 62
     0
370
    30
100
AcDbCircle
 10
391.657766
 20
302.869221
 30
0.0
 40
8.47031435242593
100
AcDbArc
 50
269.690923
 51
309.57394
  0
ARC
  5
1C9
330
173
100
AcDbEntity
  8
0
  6
Continuous
 62
     0
370
    30
100
AcDbCircle
 10
391.657766
 20
275.928839
 30
0.0
 40
8.470314314061934
100
AcDbArc
 50
50.426056
 51
90.309074
  0
LINE
  5
1CA
330
173
100
AcDbEntity
  8
0
  6
Continuous
 62
     0
370
    30
100
AcDbLine
 10
383.089358
 20
294.39903
 30
0.0
 11
391.612074
 21
294.39903
 31
0.0
  0
LINE
  5
1CB
330
173
100
AcDbEntity
  8
0
  6
Continuous
 62
     0
370
    30
100
AcDbLine
 10
376.90833
 20
303.73873
 30
0.0
 11
376.920107
 21
307.399032
 31
0.0
  0
LINE
  5
1CC
330
173
100
AcDbEntity
  8
0
  6
Continuous
 62
     0
370
    30
100
AcDbLine
 10
364.408122
 20
303.73873
 30
0.0
 11
364.396345
 21
307.399032
 31
0.0
  0
ARC
  5
1CD
330
173
100
AcDbEntity
  8
0
  6
Continuous
 62
     0
370
    30
100
AcDbCircle
 10
381.906075
 20
303.705084
 30
0.0
 40
4.99785874869846
100
AcDbArc
 50
179.614276
 51
249.092181
  0
ARC
  5
1CE
330
173
100
AcDbEntity
  8
0
  6
Continuous
 62
     0
370
    30
100
AcDbCircle
 10
359.410377
 20
303.705084
 30
0.0
 40
4.997858748698001
100
AcDbArc
 50
290.907819
 51
0.385724
  0
ARC
  5
1CF
330
173
100
AcDbEntity
  8
0
  6
Continuous
 62
     0
370
    30
100
AcDbCircle
 10
363.153413
 20
293.90587
 30
0.0
 40
5.491894552792187
100
AcDbArc
 50
110.903409
 51
151.591032
  0
ARC
  5
1D0
330
173
100
AcDbEntity
  8
0
  6
Continuous
 62
     0
370
    30
100
AcDbCircle
 10
378.163216
 20
293.903823
 30
0.0
 40
5.493743309180649
100
AcDbArc
 50
5.171668
 51
69.105928
  0
LINE
  5
1D1
330
173
100
AcDbEntity
  8
0
  6
Continuous
 62
     0
370
     0
100
AcDbLine
 10
141.19394
 20
299.036306
 30
0.0
 11
159.724246
 21
299.036306
 31
0.0
  0
LINE
  5
1D2
330
173
100
AcDbEntity
  8
0
  6
Continuous
 62
     0
370
     0
100
AcDbLine
 10
159.724246
 20
299.036306
 30
0.0
 11
160.122512
 21
299.036306
 31
0.0
  0
LINE
  5
1D3
330
173
100
AcDbEntity
  8
0
  6
Continuous
 62
     0
370
    30
100
AcDbLine
 10
149.067274
 20
293.899031
 30
0.0
 11
148.124291
 21
294.245514
 31
0.0
  0
LINE
  5
1D4
330
173
100
AcDbEntity
  8
0
  6
Continuous
 62
     0
370
     0
100
AcDbLine
 10
149.067274
 20
293.899032
 30
0.0
 11
162.309339
 21
293.899032
 31
0.0
  0
ARC
  5
1D5
330
173
100
AcDbEntity
  8
0
  6
Continuous
 62
     0
370
    30
100
AcDbCircle
 10
163.320061
 20
293.180691
 30
0.0
 40
1.239989335190604
100
AcDbArc
 50
100.722497
 51
144.59783
  0
LINE
  5
1D6
330
173
100
AcDbEntity
  8
0
  6
Continuous
 62
     0
370
     0
100
AcDbLine
 10
144.408122
 20
303.73873
 30
0.0
 11
156.64532
 21
303.73873
 31
0.0
  0
LINE
  5
1D7
330
173
100
AcDbEntity
  8
0
  6
Continuous
 62
     0
370
     0
100
AcDbLine
 10
156.64532
 20
303.73873
 30
0.0
 11
156.90833
 21
303.73873
 31
0.0
  0
ELLIPSE
  5
1D8
330
173
100
AcDbEntity
  8
0
  6
Continuous
 62
     0
370
     0
100
AcDbEllipse
 10
171.612074
 20
289.39903
 30
0.0
 11
6.549009873598866E-8
 21
4.999999999979931
 31
0.0
210
0.0
220
0.0
230
1.0
 40
0.287038
 41
0.0000000456316176
 42
3.1415926992214
  0
LINE
  5
1D9
330
173
100
AcDbEntity
  8
0
  6
Continuous
 62
     0
370
    30
100
AcDbLine
 10
163.111174
 20
284.39903
 30
0.0
 11
171.612074
 21
284.39903
 31
0.0
  0
LWPOLYLINE
  5
1DA
330
173
100
AcDbEntity
  8
0
  6
Continuous
 62
     0
370
    30
100
AcDbPolyline
 90
       24
 70
     0
 43
0.0
 10
162.309341
 20
293.899017
 10
162.070862
 20
293.615479
 10
161.832001
 20
293.276001
 10
161.599777
 20
292.885345
 10
161.381073
 20
292.44812
 10
161.182846
 20
291.969086
 10
161.012131
 20
291.453583
 10
160.875519
 20
290.907806
 10
160.778885
 20
290.338928
 10
160.726791
 20
289.755066
 10
160.721863
 20
289.165466
 10
160.764252
 20
288.57962
 10
160.851974
 20
288.006927
 10
160.980682
 20
287.455688
 10
161.144836
 20
286.93338
 10
161.337921
 20
286.44632
 10
161.552948
 20
285.999969
 10
161.782959
 20
285.599213
 10
162.02095
 20
285.248779
 10
162.259995
 20
284.953308
 10
162.493668
 20
284.716949
 10
162.715775
 20
284.543701
 10
162.920517
 20
284.437073
 10
163.111176
 20
284.399017
  0
ELLIPSE
  5
1DB
330
173
100
AcDbEntity
  8
0
  6
Continuous
 62
     0
370
     0
100
AcDbEllipse
 10
177.537662
 20
289.39903
 30
0.0
 11
9.355728390855446E-8
 21
7.142857142828414
 31
0.0
210
0.0
220
0.0
230
1.0
 40
0.287038
 41
0.000000045631614
 42
3.1415926992214
  0
ELLIPSE
  5
1DC
330
173
100
AcDbEntity
  8
0
  6
Continuous
 62
     0
370
     0
100
AcDbEllipse
 10
183.052369
 20
289.39903
 30
0.0
 11
8.233040983952179E-8
 21
6.285714285688536
 31
0.0
210
0.0
220
0.0
230
1.0
 40
0.287038
 41
0.0000000456316149
 42
3.1415926992214
  0
ELLIPSE
  5
1DD
330
173
100
AcDbEntity
  8
0
  6
Continuous
 62
     0
370
     0
100
AcDbEllipse
 10
183.052369
 20
289.39903
 30
0.0
 11
8.233040983952179E-8
 21
6.285714285688536
 31
0.0
210
0.0
220
0.0
230
1.0
 40
0.287038
 41
5.838319079370784
 42
6.283185352811201
  0
ELLIPSE
  5
1DE
330
173
100
AcDbEntity
  8
0
  6
Continuous
 62
     0
370
     0
100
AcDbEllipse
 10
183.052369
 20
289.39903
 30
0.0
 11
8.233040983952179E-8
 21
6.285714285688536
 31
0.0
210
0.0
220
0.0
230
1.0
 40
0.287038
 41
3.141592699221408
 42
3.586458046682957
  0
ARC
  5
1DF
330
173
100
AcDbEntity
  8
0
  6
Continuous
 62
     0
370
    30
100
AcDbCircle
 10
147.054395
 20
289.381746
 30
0.0
 40
4.945457445202344
100
AcDbArc
 50
282.514525
 51
65.9825
  0
ELLIPSE
  5
1E0
330
173
100
AcDbEntity
  8
0
  6
Continuous
 62
     0
370
     0
100
AcDbEllipse
 10
140.951394
 20
289.399029
 30
0.0
 11
9.169342511737704E-7
 21
-6.28571428568847
 31
0.0
210
0.0
220
0.0
230
1.0
 40
0.957919
 41
3.141592501305645
 42
6.28318515489541
  0
ELLIPSE
  5
1E1
330
173
100
AcDbEntity
  8
0
  6
Continuous
 62
     0
370
     0
100
AcDbEllipse
 10
140.951394
 20
289.399029
 30
0.0
 11
9.169342511737704E-7
 21
-6.28571428568847
 31
0.0
210
0.0
220
0.0
230
1.0
 40
0.957919
 41
6.283185154895429
 42
9.424777808485231
  0
ELLIPSE
  5
1E2
330
173
100
AcDbEntity
  8
0
  6
Continuous
 62
     0
370
     0
100
AcDbEllipse
 10
129.704378
 20
289.39903
 30
0.0
 11
-6.549009873598861E-8
 21
-4.999999999979931
 31
0.0
210
0.0
220
0.0
230
-1.0
 40
0.287038
 41
-0.0000000456316069
 42
3.141592607958186
  0
LINE
  5
1E3
330
173
100
AcDbEntity
  8
0
  6
Continuous
 62
     0
370
    30
100
AcDbLine
 10
135.779694
 20
284.39903
 30
0.0
 11
129.704378
 21
284.39903
 31
0.0
  0
ELLIPSE
  5
1E4
330
173
100
AcDbEntity
  8
0
  6
Continuous
 62
     0
370
     0
100
AcDbEllipse
 10
123.778791
 20
289.39903
 30
0.0
 11
-9.355728390855438E-8
 21
-7.142857142828414
 31
0.0
210
0.0
220
0.0
230
-1.0
 40
0.287038
 41
6.045028893823654
 42
6.283185261547965
  0
ELLIPSE
  5
1E5
330
173
100
AcDbEntity
  8
0
  6
Continuous
 62
     0
370
     0
100
AcDbEllipse
 10
123.778791
 20
289.39903
 30
0.0
 11
-9.355728390855438E-8
 21
-7.142857142828414
 31
0.0
210
0.0
220
0.0
230
-1.0
 40
0.287038
 41
3.141592607958186
 42
3.379748975682482
  0
ELLIPSE
  5
1E6
330
173
100
AcDbEntity
  8
0
  6
Continuous
 62
     0
370
     0
100
AcDbEllipse
 10
123.778791
 20
289.39903
 30
0.0
 11
-9.355728390855438E-8
 21
-7.142857142828414
 31
0.0
210
0.0
220
0.0
230
-1.0
 40
0.287038
 41
-0.0000000456316069
 42
3.141592607958186
  0
ELLIPSE
  5
1E7
330
173
100
AcDbEntity
  8
0
  6
Continuous
 62
     0
370
     0
100
AcDbEllipse
 10
118.264083
 20
289.39903
 30
0.0
 11
-8.233040983952172E-8
 21
-6.285714285688536
 31
0.0
210
0.0
220
0.0
230
-1.0
 40
0.287038
 41
0.4448637250449547
 42
2.696729611193538
  0
LINE
  5
1E8
330
173
100
AcDbEntity
  8
0
  6
Continuous
 62
     0
370
     0
100
AcDbLine
 10
147.151478
 20
277.399032
 30
0.0
 11
137.658223
 21
277.399032
 31
0.0
  0
LINE
  5
1E9
330
173
100
AcDbEntity
  8
0
  6
Continuous
 62
     0
370
     0
100
AcDbLine
 10
163.658229
 20
277.399032
 30
0.0
 11
147.151478
 21
277.399032
 31
0.0
  0
LINE
  5
1EA
330
173
100
AcDbEntity
  8
0
  6
Continuous
 62
     0
370
    30
100
AcDbLine
 10
158.658229
 20
272.399032
 30
0.0
 11
148.500227
 21
272.399032
 31
0.0
  0
LINE
  5
1EB
330
173
100
AcDbEntity
  8
0
  6
Continuous
 62
     0
370
    30
100
AcDbLine
 10
148.500227
 20
272.399032
 30
0.0
 11
142.658223
 21
272.399032
 31
0.0
  0
LINE
  5
1EC
330
173
100
AcDbEntity
  8
0
  6
Continuous
 62
     0
370
    30
100
AcDbLine
 10
163.658226
 20
277.399032
 30
0.0
 11
163.658226
 21
284.39903
 31
0.0
  0
LINE
  5
1ED
330
173
100
AcDbEntity
  8
0
  6
Continuous
 62
     0
370
    30
100
AcDbLine
 10
137.658226
 20
277.399032
 30
0.0
 11
137.658226
 21
282.670191
 31
0.0
  0
ARC
  5
1EE
330
173
100
AcDbEntity
  8
0
  6
Continuous
 62
     0
370
    30
100
AcDbCircle
 10
142.659136
 20
277.399945
 30
0.0
 40
5.000913014710072
100
AcDbArc
 50
180.01046
 51
269.98954
  0
ARC
  5
1EF
330
173
100
AcDbEntity
  8
0
  6
Continuous
 62
     0
370
    30
100
AcDbCircle
 10
158.657316
 20
277.399945
 30
0.0
 40
5.000913014709596
100
AcDbArc
 50
270.01046
 51
359.98954
  0
ARC
  5
1F0
330
173
100
AcDbEntity
  8
0
  6
Continuous
 62
     0
370
    30
100
AcDbCircle
 10
159.363459
 20
289.581889
 30
0.0
 40
7.829246776857692
100
AcDbArc
 50
37.971926
 51
62.376464
  0
ARC
  5
1F1
330
173
100
AcDbEntity
  8
0
  6
Continuous
 62
     0
370
    30
100
AcDbCircle
 10
159.327849
 20
289.260531
 30
0.0
 40
7.88572996640964
100
AcDbArc
 50
303.308098
 51
321.93949
  0
ARC
  5
1F2
330
173
100
AcDbEntity
  8
0
  6
Continuous
 62
     0
370
    30
100
AcDbCircle
 10
126.912168
 20
289.39903
 30
0.0
 40
11.00067325499551
100
AcDbArc
 50
148.950472
 51
211.049543
  0
ARC
  5
1F3
330
173
100
AcDbEntity
  8
0
  6
Continuous
 62
     0
370
    30
100
AcDbCircle
 10
121.390707
 20
292.950112
 30
0.0
 40
4.443001689205089
100
AcDbArc
 50
49.732487
 51
151.458639
  0
ARC
  5
1F4
330
173
100
AcDbEntity
  8
0
  6
Continuous
 62
     0
370
    30
100
AcDbCircle
 10
121.392334
 20
285.818565
 30
0.0
 40
4.419564941045273
100
AcDbArc
 50
270.210293
 51
310.497636
  0
ARC
  5
1F5
330
173
100
AcDbEntity
  8
0
  6
Continuous
 62
     0
370
    30
100
AcDbCircle
 10
121.472843
 20
285.975021
 30
0.0
 40
4.576442700445158
100
AcDbArc
 50
209.447654
 51
269.195117
  0
ARC
  5
1F6
330
173
100
AcDbEntity
  8
0
  6
Continuous
 62
     0
370
    30
100
AcDbCircle
 10
129.658686
 20
302.869221
 30
0.0
 40
8.470314314065718
100
AcDbArc
 50
230.426056
 51
270.309074
  0
ARC
  5
1F7
330
173
100
AcDbEntity
  8
0
  6
Continuous
 62
     0
370
    30
100
AcDbCircle
 10
129.658686
 20
275.928839
 30
0.0
 40
8.470314352428383
100
AcDbArc
 50
89.690923
 51
129.57394
  0
LINE
  5
1F8
330
173
100
AcDbEntity
  8
0
  6
Continuous
 62
     0
370
    30
100
AcDbLine
 10
135.781102
 20
294.39903
 30
0.0
 11
129.704378
 21
294.39903
 31
0.0
  0
CIRCLE
  5
1F9
330
173
100
AcDbEntity
  8
0
  6
Continuous
 62
     0
370
    30
100
AcDbCircle
 10
141.901349
 20
289.386987
 30
0.0
 40
7.923577789830285
  0
ARC
  5
1FA
330
173
100
AcDbEntity
  8
0
  6
Continuous
 62
     0
370
    30
100
AcDbCircle
 10
174.404284
 20
289.39903
 30
0.0
 40
11.00067325499633
100
AcDbArc
 50
328.950457
 51
31.049528
  0
ARC
  5
1FB
330
173
100
AcDbEntity
  8
0
  6
Continuous
 62
     0
370
    30
100
AcDbCircle
 10
179.925745
 20
292.950111
 30
0.0
 40
4.443001668903081
100
AcDbArc
 50
28.541363
 51
130.267515
  0
ARC
  5
1FC
330
173
100
AcDbEntity
  8
0
  6
Continuous
 62
     0
370
    30
100
AcDbCircle
 10
179.924118
 20
285.818565
 30
0.0
 40
4.41956491846469
100
AcDbArc
 50
229.502366
 51
269.789709
  0
ARC
  5
1FD
330
173
100
AcDbEntity
  8
0
  6
Continuous
 62
     0
370
    30
100
AcDbCircle
 10
179.843609
 20
285.975021
 30
0.0
 40
4.576442757846929
100
AcDbArc
 50
270.804885
 51
330.552347
  0
ARC
  5
1FE
330
173
100
AcDbEntity
  8
0
  6
Continuous
 62
     0
370
    30
100
AcDbCircle
 10
171.657766
 20
302.869221
 30
0.0
 40
8.470314352427417
100
AcDbArc
 50
269.690923
 51
309.57394
  0
ARC
  5
1FF
330
173
100
AcDbEntity
  8
0
  6
Continuous
 62
     0
370
    30
100
AcDbCircle
 10
171.657766
 20
275.928839
 30
0.0
 40
8.470314314064506
100
AcDbArc
 50
50.426056
 51
90.309074
  0
LINE
  5
200
330
173
100
AcDbEntity
  8
0
  6
Continuous
 62
     0
370
    30
100
AcDbLine
 10
163.089358
 20
294.39903
 30
0.0
 11
171.612074
 21
294.39903
 31
0.0
  0
LINE
  5
201
330
173
100
AcDbEntity
  8
0
  6
Continuous
 62
     0
370
    30
100
AcDbLine
 10
156.90833
 20
303.73873
 30
0.0
 11
156.920107
 21
307.399032
 31
0.0
  0
LINE
  5
202
330
173
100
AcDbEntity
  8
0
  6
Continuous
 62
     0
370
    30
100
AcDbLine
 10
144.408122
 20
303.73873
 30
0.0
 11
144.396345
 21
307.399032
 31
0.0
  0
ARC
  5
203
330
173
100
AcDbEntity
  8
0
  6
Continuous
 62
     0
370
    30
100
AcDbCircle
 10
161.906075
 20
303.705084
 30
0.0
 40
4.997858748698095
100
AcDbArc
 50
179.614276
 51
249.092181
  0
ARC
  5
204
330
173
100
AcDbEntity
  8
0
  6
Continuous
 62
     0
370
    30
100
AcDbCircle
 10
139.410377
 20
303.705084
 30
0.0
 40
4.997858748698601
100
AcDbArc
 50
290.907819
 51
0.385724
  0
ARC
  5
205
330
173
100
AcDbEntity
  8
0
  6
Continuous
 62
     0
370
    30
100
AcDbCircle
 10
143.153413
 20
293.90587
 30
0.0
 40
5.491894552788414
100
AcDbArc
 50
110.903409
 51
151.591032
  0
ARC
  5
206
330
173
100
AcDbEntity
  8
0
  6
Continuous
 62
     0
370
    30
100
AcDbCircle
 10
158.163216
 20
293.903823
 30
0.0
 40
5.493743309180454
100
AcDbArc
 50
5.171668
 51
69.105928
  0
LINE
  5
207
330
173
100
AcDbEntity
  8
0
  6
Continuous
 62
     0
370
    30
100
AcDbLine
 10
249.658226
 20
307.399032
 30
0.0
 11
249.658226
 21
297.002926
 31
0.0
  0
LINE
  5
208
330
173
100
AcDbEntity
  8
0
  6
Continuous
 62
     0
370
     0
100
AcDbLine
 10
271.658226
 20
297.002926
 30
0.0
 11
249.658226
 21
297.002926
 31
0.0
  0
LINE
  5
209
330
173
100
AcDbEntity
  8
0
  6
Continuous
 62
     0
370
    30
100
AcDbLine
 10
249.658226
 20
297.002926
 30
0.0
 11
249.658226
 21
149.137887
 31
0.0
  0
ARC
  5
20A
330
173
100
AcDbEntity
  8
0
  6
Continuous
 62
     0
370
     0
100
AcDbCircle
 10
260.658226
 20
149.160816
 30
0.0
 40
11.00002389654242
100
AcDbArc
 50
180.119429
 51
359.880571
  0
LINE
  5
20B
330
173
100
AcDbEntity
  8
0
  6
Continuous
 62
     0
370
    30
100
AcDbLine
 10
271.658226
 20
297.002926
 30
0.0
 11
271.658226
 21
149.137887
 31
0.0
  0
LINE
  5
20C
330
173
100
AcDbEntity
  8
0
  6
Continuous
 62
     0
370
    30
100
AcDbLine
 10
271.658226
 20
297.002926
 30
0.0
 11
271.658226
 21
307.399032
 31
0.0
  0
ARC
  5
20D
330
173
100
AcDbEntity
  8
0
  6
Continuous
 62
     0
370
     0
100
AcDbCircle
 10
260.629735
 20
148.222026
 30
0.0
 40
14.97465299188084
100
AcDbArc
 50
180.10943
 51
270.109013
  0
ARC
  5
20E
330
173
100
AcDbEntity
  8
0
  6
Continuous
 62
     0
370
     0
100
AcDbCircle
 10
260.686717
 20
148.222026
 30
0.0
 40
14.97465299043089
100
AcDbArc
 50
269.890987
 51
359.890572
  0
ARC
  5
20F
330
173
100
AcDbEntity
  8
0
  6
Continuous
 62
     0
370
     0
100
AcDbCircle
 10
260.610899
 20
148.321287
 30
0.0
 40
13.44894527396782
100
AcDbArc
 50
144.526991
 51
270.201625
  0
ARC
  5
210
330
173
100
AcDbEntity
  8
0
  6
Continuous
 62
     0
370
     0
100
AcDbCircle
 10
260.705553
 20
148.321287
 30
0.0
 40
13.44894527396806
100
AcDbArc
 50
269.798375
 51
35.473009
  0
ARC
  5
211
330
173
100
AcDbEntity
  8
0
  6
Continuous
 62
     0
370
     0
100
AcDbCircle
 10
260.634482
 20
148.435149
 30
0.0
 40
12.47939601331057
100
AcDbArc
 50
180.10943
 51
270.109013
  0
ARC
  5
212
330
173
100
AcDbEntity
  8
0
  6
Continuous
 62
     0
370
     0
100
AcDbCircle
 10
260.68197
 20
148.435149
 30
0.0
 40
12.47939601331094
100
AcDbArc
 50
269.890987
 51
359.89057
  0
ARC
  5
213
330
173
100
AcDbEntity
  8
0
  6
Continuous
 62
     0
370
    30
100
AcDbCircle
 10
260.634482
 20
148.90579
 30
0.0
 40
12.47939601331156
100
AcDbArc
 50
180.10943
 51
270.109013
  0
ARC
  5
214
330
173
100
AcDbEntity
  8
0
  6
Continuous
 62
     0
370
    30
100
AcDbCircle
 10
260.68197
 20
148.90579
 30
0.0
 40
12.47939601331089
100
AcDbArc
 50
269.890987
 51
359.89057
  0
ARC
  5
215
330
173
100
AcDbEntity
  8
0
  6
Continuous
 62
     0
370
    30
100
AcDbCircle
 10
260.618728
 20
148.89206
 30
0.0
 40
12.35737159961056
100
AcDbArc
 50
152.493774
 51
270.183133
  0
ARC
  5
216
330
173
100
AcDbEntity
  8
0
  6
Continuous
 62
     0
370
    30
100
AcDbCircle
 10
260.697724
 20
148.89206
 30
0.0
 40
12.35737159961077
100
AcDbArc
 50
269.816867
 51
27.506226
  0
ARC
  5
217
330
173
100
AcDbEntity
  8
0
  6
Continuous
 62
     0
370
    30
100
AcDbCircle
 10
260.746465
 20
148.190434
 30
0.0
 40
14.91487844432216
100
AcDbArc
 50
0.011495
 51
42.979101
  0
ARC
  5
218
330
173
100
AcDbEntity
  8
0
  6
Continuous
 62
     0
370
    30
100
AcDbCircle
 10
260.592772
 20
148.183839
 30
0.0
 40
14.93766581580316
100
AcDbArc
 50
137.055306
 51
179.963228
  0
ENDBLK
  5
21A
330
173
100
AcDbEntity
  8
0
100
AcDbBlockEnd
  0
BLOCK
  5
286
330
21C
100
AcDbEntity
  8
0
100
AcDbBlockBegin
  2
c
 70
     0
 10
83.490158
 20
137.581848
 30
0.0
  3
c
  1

  0
LINE
  5
21D
330
21C
100
AcDbEntity
  8
0
  6
Continuous
 62
     0
370
    30
100
AcDbLine
 10
506.797333
 20
475.806591
 30
0.0
 11
506.797333
 21
491.128218
 31
0.0
  0
LINE
  5
21E
330
21C
100
AcDbEntity
  8
0
  6
Continuous
 62
     0
370
    30
100
AcDbLine
 10
506.797333
 20
460.484964
 30
0.0
 11
506.797333
 21
475.806591
 31
0.0
  0
LINE
  5
21F
330
21C
100
AcDbEntity
  8
0
  6
Continuous
 62
     0
370
     0
100
AcDbLine
 10
500.158341
 20
475.806591
 30
0.0
 11
500.158341
 21
499.011596
 31
0.0
  0
LINE
  5
220
330
21C
100
AcDbEntity
  8
0
  6
Continuous
 62
     0
370
     0
100
AcDbLine
 10
500.158341
 20
452.601586
 30
0.0
 11
500.158341
 21
475.806591
 31
0.0
  0
LINE
  5
221
330
21C
100
AcDbEntity
  8
0
  6
Continuous
 62
     0
370
     0
100
AcDbLine
 10
476.279236
 20
475.806591
 30
0.0
 11
476.279236
 21
503.134151
 31
0.0
  0
LINE
  5
222
330
21C
100
AcDbEntity
  8
0
  6
Continuous
 62
     0
370
     0
100
AcDbLine
 10
476.279236
 20
448.479031
 30
0.0
 11
476.279236
 21
475.806591
 31
0.0
  0
LINE
  5
223
330
21C
100
AcDbEntity
  8
0
  6
Continuous
 62
     0
370
     0
100
AcDbLine
 10
471.278974
 20
475.806591
 30
0.0
 11
471.278974
 21
505.810952
 31
0.0
  0
LINE
  5
224
330
21C
100
AcDbEntity
  8
0
  6
Continuous
 62
     0
370
     0
100
AcDbLine
 10
471.278974
 20
445.80223
 30
0.0
 11
471.278974
 21
475.806591
 31
0.0
  0
LINE
  5
225
330
21C
100
AcDbEntity
  8
0
  6
Continuous
 62
     0
370
    30
100
AcDbLine
 10
465.397333
 20
475.806591
 30
0.0
 11
465.397333
 21
508.306591
 31
0.0
  0
LINE
  5
226
330
21C
100
AcDbEntity
  8
0
  6
Continuous
 62
     0
370
    30
100
AcDbLine
 10
465.397333
 20
443.306591
 30
0.0
 11
465.397333
 21
475.806591
 31
0.0
  0
ARC
  5
227
330
21C
100
AcDbEntity
  8
0
  6
Continuous
 62
     0
370
    30
100
AcDbCircle
 10
465.471773
 20
451.309802
 30
0.0
 40
8.00355731758132
100
AcDbArc
 50
269.467089
 51
316.516909
  0
ARC
  5
228
330
21C
100
AcDbEntity
  8
0
  6
Continuous
 62
     0
370
    30
100
AcDbCircle
 10
465.471773
 20
500.30338
 30
0.0
 40
8.003557317581256
100
AcDbArc
 50
43.483091
 51
90.532911
  0
ARC
  5
229
330
21C
100
AcDbEntity
  8
0
  6
Continuous
 62
     0
370
    30
100
AcDbCircle
 10
477.811613
 20
439.607908
 30
0.0
 40
9.00250005166025
100
AcDbArc
 50
99.800429
 51
136.522718
  0
ARC
  5
22A
330
21C
100
AcDbEntity
  8
0
  6
Continuous
 62
     0
370
    30
100
AcDbCircle
 10
477.811613
 20
512.005274
 30
0.0
 40
9.00250005165994
100
AcDbArc
 50
223.477282
 51
260.199571
  0
LINE
  5
22B
330
21C
100
AcDbEntity
  8
0
  6
Continuous
 62
     0
370
    30
100
AcDbLine
 10
500.158341
 20
452.601586
 30
0.0
 11
476.279236
 21
448.479031
 31
0.0
  0
LINE
  5
22C
330
21C
100
AcDbEntity
  8
0
  6
Continuous
 62
     0
370
    30
100
AcDbLine
 10
500.158341
 20
499.011596
 30
0.0
 11
476.279236
 21
503.134151
 31
0.0
  0
ARC
  5
22D
330
21C
100
AcDbEntity
  8
0
  6
Continuous
 62
     0
370
    30
100
AcDbCircle
 10
498.796162
 20
460.48595
 30
0.0
 40
8.00117085085579
100
AcDbArc
 50
279.802206
 51
359.985559
  0
ARC
  5
22E
330
21C
100
AcDbEntity
  8
0
  6
Continuous
 62
     0
370
    30
100
AcDbCircle
 10
498.796162
 20
491.127232
 30
0.0
 40
8.00117085085582
100
AcDbArc
 50
0.014441
 51
80.197794
  0
LINE
  5
22F
330
21C
100
AcDbEntity
  8
0
  6
Continuous
 62
     0
370
     0
100
AcDbLine
 10
515.160059
 20
473.089978
 30
0.0
 11
515.160059
 21
485.270877
 31
0.0
  0
LINE
  5
230
330
21C
100
AcDbEntity
  8
0
  6
Continuous
 62
     0
370
     0
100
AcDbLine
 10
515.160059
 20
466.342305
 30
0.0
 11
515.160059
 21
473.089978
 31
0.0
  0
LINE
  5
231
330
21C
100
AcDbEntity
  8
0
  6
Continuous
 62
     0
370
    30
100
AcDbLine
 10
520.297333
 20
474.215639
 30
0.0
 11
519.950851
 21
473.272656
 31
0.0
  0
LINE
  5
232
330
21C
100
AcDbEntity
  8
0
  6
Continuous
 62
     0
370
     0
100
AcDbLine
 10
520.297333
 20
474.215639
 30
0.0
 11
520.297333
 21
487.457704
 31
0.0
  0
ARC
  5
233
330
21C
100
AcDbEntity
  8
0
  6
Continuous
 62
     0
370
    30
100
AcDbCircle
 10
521.013707
 20
488.466791
 30
0.0
 40
1.237517207961475
100
AcDbArc
 50
190.607515
 51
234.628209
  0
LINE
  5
234
330
21C
100
AcDbEntity
  8
0
  6
Continuous
 62
     0
370
     0
100
AcDbLine
 10
510.457634
 20
474.012572
 30
0.0
 11
510.457634
 21
482.056695
 31
0.0
  0
LINE
  5
235
330
21C
100
AcDbEntity
  8
0
  6
Continuous
 62
     0
370
     0
100
AcDbLine
 10
510.457634
 20
469.556488
 30
0.0
 11
510.457634
 21
474.012572
 31
0.0
  0
ELLIPSE
  5
236
330
21C
100
AcDbEntity
  8
0
  6
Continuous
 62
     0
370
     0
100
AcDbEllipse
 10
524.797335
 20
496.760439
 30
0.0
 11
-4.999999999979931
 21
6.549009873598842E-8
 31
0.0
210
0.0
220
0.0
230
1.0
 40
0.287038
 41
0.0000000456316194
 42
3.1415926992214
  0
LINE
  5
237
330
21C
100
AcDbEntity
  8
0
  6
Continuous
 62
     0
370
    30
100
AcDbLine
 10
529.797335
 20
488.259539
 30
0.0
 11
529.797335
 21
496.760439
 31
0.0
  0
LWPOLYLINE
  5
238
330
21C
100
AcDbEntity
  8
0
  6
Continuous
 62
     0
370
    30
100
AcDbPolyline
 90
       24
 70
     0
 43
0.0
 10
520.297363
 20
487.457703
 10
520.580872
 20
487.219238
 10
520.920349
 20
486.980377
 10
521.311035
 20
486.748138
 10
521.74823
 20
486.529449
 10
522.227295
 20
486.331207
 10
522.742798
 20
486.160492
 10
523.288574
 20
486.023865
 10
523.857422
 20
485.927246
 10
524.441284
 20
485.875153
 10
525.030884
 20
485.870239
 10
525.61676
 20
485.912628
 10
526.189453
 20
486.000336
 10
526.740662
 20
486.129028
 10
527.263
 20
486.293213
 10
527.750061
 20
486.486267
 10
528.196411
 20
486.701324
 10
528.597168
 20
486.931335
 10
528.947571
 20
487.169312
 10
529.243042
 20
487.408356
 10
529.479431
 20
487.642029
 10
529.652649
 20
487.864136
 10
529.759277
 20
488.068878
 10
529.797363
 20
488.259552
  0
ELLIPSE
  5
239
330
21C
100
AcDbEntity
  8
0
  6
Continuous
 62
     0
370
     0
100
AcDbEllipse
 10
524.797335
 20
502.686027
 30
0.0
 11
-7.142857142828414
 21
9.355728390855413E-8
 31
0.0
210
0.0
220
0.0
230
1.0
 40
0.287038
 41
0.0000000456316229
 42
3.14159269922138
  0
ELLIPSE
  5
23A
330
21C
100
AcDbEntity
  8
0
  6
Continuous
 62
     0
370
     0
100
AcDbEllipse
 10
524.797335
 20
508.200734
 30
0.0
 11
-6.285714285688536
 21
8.233040983952150E-8
 31
0.0
210
0.0
220
0.0
230
1.0
 40
0.287038
 41
0.0000000456316149
 42
3.141592699221381
  0
ELLIPSE
  5
23B
330
21C
100
AcDbEntity
  8
0
  6
Continuous
 62
     0
370
     0
100
AcDbEllipse
 10
524.797335
 20
508.200734
 30
0.0
 11
-6.285714285688536
 21
8.233040983952150E-8
 31
0.0
210
0.0
220
0.0
230
1.0
 40
0.287038
 41
5.838319079370843
 42
6.283185352811201
  0
ELLIPSE
  5
23C
330
21C
100
AcDbEntity
  8
0
  6
Continuous
 62
     0
370
     0
100
AcDbEllipse
 10
524.797335
 20
508.200734
 30
0.0
 11
-6.285714285688536
 21
8.233040983952150E-8
 31
0.0
210
0.0
220
0.0
230
1.0
 40
0.287038
 41
3.1415926992214
 42
3.586458046682914
  0
ARC
  5
23D
330
21C
100
AcDbEntity
  8
0
  6
Continuous
 62
     0
370
    30
100
AcDbCircle
 10
524.814619
 20
472.20276
 30
0.0
 40
4.945457445202295
100
AcDbArc
 50
12.514525
 51
155.9825
  0
ELLIPSE
  5
23E
330
21C
100
AcDbEntity
  8
0
  6
Continuous
 62
     0
370
     0
100
AcDbEllipse
 10
524.797336
 20
466.099759
 30
0.0
 11
6.28571428568847
 21
9.169342511737681E-7
 31
0.0
210
0.0
220
0.0
230
1.0
 40
0.957919
 41
3.141592501305641
 42
6.283185154895419
  0
ELLIPSE
  5
23F
330
21C
100
AcDbEntity
  8
0
  6
Continuous
 62
     0
370
     0
100
AcDbEllipse
 10
524.797336
 20
466.099759
 30
0.0
 11
6.28571428568847
 21
9.169342511737681E-7
 31
0.0
210
0.0
220
0.0
230
1.0
 40
0.957919
 41
6.283185154895429
 42
9.424777808485228
  0
ELLIPSE
  5
240
330
21C
100
AcDbEntity
  8
0
  6
Continuous
 62
     0
370
     0
100
AcDbEllipse
 10
524.797334
 20
454.852743
 30
0.0
 11
4.999999999979931
 21
-6.549009873598842E-8
 31
0.0
210
0.0
220
0.0
230
-1.0
 40
0.287038
 41
-0.0000000456316069
 42
3.141592607958186
  0
LINE
  5
241
330
21C
100
AcDbEntity
  8
0
  6
Continuous
 62
     0
370
    30
100
AcDbLine
 10
529.797334
 20
460.928059
 30
0.0
 11
529.797334
 21
454.852743
 31
0.0
  0
ELLIPSE
  5
242
330
21C
100
AcDbEntity
  8
0
  6
Continuous
 62
     0
370
     0
100
AcDbEllipse
 10
524.797334
 20
448.927156
 30
0.0
 11
7.142857142828414
 21
-9.355728390855413E-8
 31
0.0
210
0.0
220
0.0
230
-1.0
 40
0.287038
 41
6.045028893823753
 42
6.283185261547963
  0
ELLIPSE
  5
243
330
21C
100
AcDbEntity
  8
0
  6
Continuous
 62
     0
370
     0
100
AcDbEllipse
 10
524.797334
 20
448.927156
 30
0.0
 11
7.142857142828414
 21
-9.355728390855413E-8
 31
0.0
210
0.0
220
0.0
230
-1.0
 40
0.287038
 41
3.141592607958186
 42
3.379748975682367
  0
ELLIPSE
  5
244
330
21C
100
AcDbEntity
  8
0
  6
Continuous
 62
     0
370
     0
100
AcDbEllipse
 10
524.797334
 20
448.927156
 30
0.0
 11
7.142857142828414
 21
-9.355728390855413E-8
 31
0.0
210
0.0
220
0.0
230
-1.0
 40
0.287038
 41
-0.0000000456316069
 42
3.141592607958186
  0
ELLIPSE
  5
245
330
21C
100
AcDbEntity
  8
0
  6
Continuous
 62
     0
370
     0
100
AcDbEllipse
 10
524.797334
 20
443.412448
 30
0.0
 11
6.285714285688536
 21
-8.233040983952150E-8
 31
0.0
210
0.0
220
0.0
230
-1.0
 40
0.287038
 41
0.444863702968253
 42
2.696730033268365
  0
LINE
  5
246
330
21C
100
AcDbEntity
  8
0
  6
Continuous
 62
     0
370
     0
100
AcDbLine
 10
536.797333
 20
488.32469
 30
0.0
 11
536.797333
 21
462.806588
 31
0.0
  0
LINE
  5
247
330
21C
100
AcDbEntity
  8
0
  6
Continuous
 62
     0
370
     0
100
AcDbLine
 10
536.797333
 20
488.806594
 30
0.0
 11
536.797333
 21
488.32469
 31
0.0
  0
LINE
  5
248
330
21C
100
AcDbEntity
  8
0
  6
Continuous
 62
     0
370
    30
100
AcDbLine
 10
541.797333
 20
483.806594
 30
0.0
 11
541.797333
 21
483.510038
 31
0.0
  0
LINE
  5
249
330
21C
100
AcDbEntity
  8
0
  6
Continuous
 62
     0
370
    30
100
AcDbLine
 10
541.797333
 20
483.510038
 30
0.0
 11
541.797333
 21
467.806588
 31
0.0
  0
LINE
  5
24A
330
21C
100
AcDbEntity
  8
0
  6
Continuous
 62
     0
370
    30
100
AcDbLine
 10
536.797333
 20
488.806591
 30
0.0
 11
529.797335
 21
488.806591
 31
0.0
  0
LINE
  5
24B
330
21C
100
AcDbEntity
  8
0
  6
Continuous
 62
     0
370
    30
100
AcDbLine
 10
536.797333
 20
462.806591
 30
0.0
 11
531.526174
 21
462.806591
 31
0.0
  0
ARC
  5
24C
330
21C
100
AcDbEntity
  8
0
  6
Continuous
 62
     0
370
    30
100
AcDbCircle
 10
536.79642
 20
467.807501
 30
0.0
 40
5.00091301470974
100
AcDbArc
 50
270.01046
 51
359.98954
  0
ARC
  5
24D
330
21C
100
AcDbEntity
  8
0
  6
Continuous
 62
     0
370
    30
100
AcDbCircle
 10
536.79642
 20
483.805681
 30
0.0
 40
5.000913014709697
100
AcDbArc
 50
0.01046
 51
89.98954
  0
ARC
  5
24E
330
21C
100
AcDbEntity
  8
0
  6
Continuous
 62
     0
370
    30
100
AcDbCircle
 10
524.797334
 20
452.060533
 30
0.0
 40
11.00067325499617
100
AcDbArc
 50
238.950472
 51
301.049543
  0
ARC
  5
24F
330
21C
100
AcDbEntity
  8
0
  6
Continuous
 62
     0
370
    30
100
AcDbCircle
 10
521.246253
 20
446.539072
 30
0.0
 40
4.443001689205722
100
AcDbArc
 50
139.732487
 51
241.458639
  0
ARC
  5
250
330
21C
100
AcDbEntity
  8
0
  6
Continuous
 62
     0
370
    30
100
AcDbCircle
 10
528.377799
 20
446.540699
 30
0.0
 40
4.419564941045591
100
AcDbArc
 50
0.210293
 51
40.497636
  0
ARC
  5
251
330
21C
100
AcDbEntity
  8
0
  6
Continuous
 62
     0
370
    30
100
AcDbCircle
 10
528.221343
 20
446.621208
 30
0.0
 40
4.576442700446517
100
AcDbArc
 50
299.447654
 51
359.195117
  0
ARC
  5
252
330
21C
100
AcDbEntity
  8
0
  6
Continuous
 62
     0
370
    30
100
AcDbCircle
 10
511.327143
 20
454.807051
 30
0.0
 40
8.470314314062735
100
AcDbArc
 50
320.426056
 51
0.309074
  0
ARC
  5
253
330
21C
100
AcDbEntity
  8
0
  6
Continuous
 62
     0
370
    30
100
AcDbCircle
 10
538.267525
 20
454.807051
 30
0.0
 40
8.470314352427494
100
AcDbArc
 50
179.690923
 51
219.57394
  0
LINE
  5
254
330
21C
100
AcDbEntity
  8
0
  6
Continuous
 62
     0
370
    30
100
AcDbLine
 10
519.797334
 20
460.929467
 30
0.0
 11
519.797334
 21
454.852743
 31
0.0
  0
CIRCLE
  5
255
330
21C
100
AcDbEntity
  8
0
  6
Continuous
 62
     0
370
    30
100
AcDbCircle
 10
524.809377
 20
467.049714
 30
0.0
 40
7.923577789830267
  0
ARC
  5
256
330
21C
100
AcDbEntity
  8
0
  6
Continuous
 62
     0
370
    30
100
AcDbCircle
 10
524.797335
 20
499.552649
 30
0.0
 40
11.00067325499684
100
AcDbArc
 50
58.950457
 51
121.049528
  0
ARC
  5
257
330
21C
100
AcDbEntity
  8
0
  6
Continuous
 62
     0
370
    30
100
AcDbCircle
 10
521.246253
 20
505.07411
 30
0.0
 40
4.443001668902964
100
AcDbArc
 50
118.541363
 51
220.267515
  0
ARC
  5
258
330
21C
100
AcDbEntity
  8
0
  6
Continuous
 62
     0
370
    30
100
AcDbCircle
 10
528.3778
 20
505.072483
 30
0.0
 40
4.419564918462786
100
AcDbArc
 50
319.502366
 51
359.789709
  0
ARC
  5
259
330
21C
100
AcDbEntity
  8
0
  6
Continuous
 62
     0
370
    30
100
AcDbCircle
 10
528.221344
 20
504.991974
 30
0.0
 40
4.576442757846367
100
AcDbArc
 50
0.804885
 51
60.552347
  0
ARC
  5
25A
330
21C
100
AcDbEntity
  8
0
  6
Continuous
 62
     0
370
    30
100
AcDbCircle
 10
511.327144
 20
496.806131
 30
0.0
 40
8.47031435242738
100
AcDbArc
 50
359.690923
 51
39.57394
  0
ARC
  5
25B
330
21C
100
AcDbEntity
  8
0
  6
Continuous
 62
     0
370
    30
100
AcDbCircle
 10
538.267526
 20
496.806131
 30
0.0
 40
8.470314314063021
100
AcDbArc
 50
140.426056
 51
180.309074
  0
LINE
  5
25C
330
21C
100
AcDbEntity
  8
0
  6
Continuous
 62
     0
370
    30
100
AcDbLine
 10
519.797335
 20
488.237724
 30
0.0
 11
519.797335
 21
496.760439
 31
0.0
  0
ARC
  5
25D
330
21C
100
AcDbEntity
  8
0
  6
Continuous
 62
     0
370
    30
100
AcDbCircle
 10
524.614475
 20
484.511824
 30
0.0
 40
7.829246776864563
100
AcDbArc
 50
127.971926
 51
152.376464
  0
ARC
  5
25E
330
21C
100
AcDbEntity
  8
0
  6
Continuous
 62
     0
370
    30
100
AcDbCircle
 10
524.935833
 20
484.476214
 30
0.0
 40
7.885729966406757
100
AcDbArc
 50
33.308098
 51
51.93949
  0
LINE
  5
25F
330
21C
100
AcDbEntity
  8
0
  6
Continuous
 62
     0
370
    30
100
AcDbLine
 10
510.457634
 20
469.556488
 30
0.0
 11
506.797333
 21
469.54471
 31
0.0
  0
LINE
  5
260
330
21C
100
AcDbEntity
  8
0
  6
Continuous
 62
     0
370
    30
100
AcDbLine
 10
510.457634
 20
482.056695
 30
0.0
 11
506.797333
 21
482.068472
 31
0.0
  0
ARC
  5
261
330
21C
100
AcDbEntity
  8
0
  6
Continuous
 62
     0
370
    30
100
AcDbCircle
 10
510.49128
 20
464.558742
 30
0.0
 40
4.997858748698023
100
AcDbArc
 50
20.907819
 51
90.385724
  0
ARC
  5
262
330
21C
100
AcDbEntity
  8
0
  6
Continuous
 62
     0
370
    30
100
AcDbCircle
 10
510.49128
 20
487.05444
 30
0.0
 40
4.997858748697858
100
AcDbArc
 50
269.614276
 51
339.092181
  0
ARC
  5
263
330
21C
100
AcDbEntity
  8
0
  6
Continuous
 62
     0
370
    30
100
AcDbCircle
 10
520.292541
 20
483.311581
 30
0.0
 40
5.493743309181195
100
AcDbArc
 50
95.171668
 51
159.105928
  0
ARC
  5
264
330
21C
100
AcDbEntity
  8
0
  6
Continuous
 62
     0
370
    30
100
AcDbCircle
 10
520.290495
 20
468.301778
 30
0.0
 40
5.491894552792512
100
AcDbArc
 50
200.903409
 51
241.591032
  0
LWPOLYLINE
  5
265
330
21C
100
AcDbEntity
  8
0
  6
Continuous
 62
     0
370
     0
100
AcDbPolyline
 90
       20
 70
     0
 43
0.0
 10
676.035583
 20
455.348358
 10
675.99823
 20
455.345947
 10
675.886414
 20
455.338715
 10
675.700867
 20
455.326721
 10
675.442932
 20
455.310059
 10
675.114258
 20
455.288818
 10
674.717163
 20
455.263153
 10
674.254333
 20
455.233215
 10
673.728882
 20
455.19928
 10
673.14447
 20
455.161499
 10
672.505005
 20
455.120148
 10
671.814819
 20
455.075562
 10
671.078674
 20
455.027954
 10
670.301514
 20
454.977753
 10
669.488708
 20
454.925201
 10
668.645691
 20
454.870728
 10
667.77832
 20
454.814667
 10
666.892395
 20
454.757385
 10
665.994019
 20
454.699341
 10
665.058472
 20
454.638855
  0
LINE
  5
266
330
21C
100
AcDbEntity
  8
0
  6
Continuous
 62
     0
370
     0
100
AcDbLine
 10
665.058474
 20
454.63886
 30
0.0
 11
654.081378
 21
453.929366
 31
0.0
  0
LINE
  5
267
330
21C
100
AcDbEntity
  8
0
  6
Continuous
 62
     0
370
    30
100
AcDbLine
 10
676.035568
 20
455.348354
 30
0.0
 11
676.146537
 21
453.631468
 31
0.0
  0
LINE
  5
268
330
21C
100
AcDbEntity
  8
0
  6
Continuous
 62
     0
370
    30
100
AcDbLine
 10
654.081378
 20
453.929366
 30
0.0
 11
654.224595
 21
451.713547
 31
0.0
  0
LWPOLYLINE
  5
269
330
21C
100
AcDbEntity
  8
0
  6
Continuous
 62
     0
370
    30
100
AcDbPolyline
 90
      109
 70
     0
 43
0.0
 10
540.794922
 20
486.809814
 10
542.430237
 20
486.805847
 10
544.06604
 20
486.802948
 10
545.702698
 20
486.803223
 10
547.340027
 20
486.813202
 10
548.976257
 20
486.848877
 10
550.609497
 20
486.927338
 10
552.237793
 20
487.065674
 10
553.859009
 20
487.279144
 10
555.468872
 20
487.571747
 10
557.062256
 20
487.943176
 10
558.635193
 20
488.391846
 10
560.185303
 20
488.913666
 10
561.711914
 20
489.500977
 10
563.221008
 20
490.13205
 10
564.718201
 20
490.790741
 10
566.208252
 20
491.465668
 10
567.694397
 20
492.149048
 10
569.177734
 20
492.83844
 10
570.65918
 20
493.53186
 10
572.139709
 20
494.227264
 10
573.620239
 20
494.922668
 10
575.101501
 20
495.616486
 10
576.583496
 20
496.308807
 10
578.065979
 20
497.000061
 10
579.548706
 20
497.690765
 10
581.031494
 20
498.381378
 10
582.514099
 20
499.072357
 10
583.996338
 20
499.764038
 10
585.478394
 20
500.456055
 10
586.960571
 20
501.147919
 10
588.443054
 20
501.839172
 10
589.926086
 20
502.529327
 10
591.409851
 20
503.217896
 10
592.894348
 20
503.905029
 10
594.378479
 20
504.592834
 10
595.861023
 20
505.283783
 10
597.340881
 20
505.980042
 10
598.81897
 20
506.680023
 10
600.297607
 20
507.379517
 10
601.779053
 20
508.07431
 10
603.265808
 20
508.758636
 10
604.760925
 20
509.423798
 10
606.267334
 20
510.06076
 10
607.788147
 20
510.660431
 10
609.326355
 20
511.213745
 10
610.883362
 20
511.714142
 10
612.457397
 20
512.159912
 10
614.046265
 20
512.549866
 10
615.647827
 20
512.883301
 10
617.259888
 20
513.16095
 10
618.880371
 20
513.384216
 10
620.507324
 20
513.554565
 10
622.138855
 20
513.672607
 10
623.773376
 20
513.738586
 10
625.409241
 20
513.752625
 10
627.0448
 20
513.714722
 10
628.678284
 20
513.624878
 10
630.307983
 20
513.482788
 10
631.932129
 20
513.288452
 10
633.54895
 20
513.041687
 10
635.156677
 20
512.74231
 10
636.753662
 20
512.390198
 10
638.338074
 20
511.985291
 10
639.908142
 20
511.527405
 10
641.46228
 20
511.017273
 10
642.999023
 20
510.456512
 10
644.516785
 20
509.846436
 10
646.013977
 20
509.187622
 10
647.488892
 20
508.480499
 10
648.93988
 20
507.725494
 10
650.365356
 20
506.923157
 10
651.763672
 20
506.07428
 10
653.133423
 20
505.17984
 10
654.473145
 20
504.240967
 10
655.781311
 20
503.258698
 10
657.056519
 20
502.23407
 10
658.297302
 20
501.168121
 10
659.502075
 20
500.06192
 10
660.669495
 20
498.916565
 10
661.798523
 20
497.733337
 10
662.888245
 20
496.513794
 10
663.937927
 20
495.25943
 10
664.946777
 20
493.971771
 10
665.914001
 20
492.652344
 10
666.838684
 20
491.302612
 10
667.719727
 20
489.924011
 10
668.55603
 20
488.517822
 10
669.346375
 20
487.085449
 10
670.089478
 20
485.628235
 10
670.784302
 20
484.147461
 10
671.429626
 20
482.644562
 10
672.024231
 20
481.120819
 10
672.566833
 20
479.577606
 10
673.055054
 20
478.016388
 10
673.486206
 20
476.438629
 10
673.860291
 20
474.846375
 10
674.180481
 20
473.242218
 10
674.450317
 20
471.628815
 10
674.674194
 20
470.008789
 10
674.862427
 20
468.384064
 10
675.027649
 20
466.756348
 10
675.182556
 20
465.127319
 10
675.33783
 20
463.498474
 10
675.493408
 20
461.869904
 10
675.645142
 20
460.241241
 10
675.788818
 20
458.61203
 10
675.920349
 20
456.981903
 10
676.035583
 20
455.348358
  0
LWPOLYLINE
  5
26A
330
21C
100
AcDbEntity
  8
0
  6
Continuous
 62
     0
370
    30
100
AcDbPolyline
 90
      106
 70
     0
 43
0.0
 10
540.799622
 20
464.809601
 10
542.166138
 20
464.80603
 10
543.532837
 20
464.803192
 10
544.899658
 20
464.802399
 10
546.266724
 20
464.805237
 10
547.63385
 20
464.815887
 10
549.000549
 20
464.840027
 10
550.366516
 20
464.883362
 10
551.731323
 20
464.95163
 10
553.094482
 20
465.049438
 10
554.455139
 20
465.178162
 10
555.812378
 20
465.338745
 10
557.165283
 20
465.531982
 10
558.513123
 20
465.758209
 10
559.855164
 20
466.016754
 10
561.190796
 20
466.306976
 10
562.519104
 20
466.629211
 10
563.838867
 20
466.984283
 10
565.148926
 20
467.373016
 10
566.448486
 20
467.795746
 10
567.737549
 20
468.249908
 10
569.016541
 20
468.732056
 10
570.28595
 20
469.238678
 10
571.546875
 20
469.765839
 10
572.800964
 20
470.309113
 10
574.049927
 20
470.864075
 10
575.294983
 20
471.427582
 10
576.536987
 20
471.997803
 10
577.776733
 20
472.573029
 10
579.015015
 20
473.15152
 10
580.252563
 20
473.731537
 10
581.490112
 20
474.311523
 10
582.727905
 20
474.890991
 10
583.965881
 20
475.470001
 10
585.203979
 20
476.048676
 10
586.442261
 20
476.627106
 10
587.680542
 20
477.205383
 10
588.918884
 20
477.7836
 10
590.157166
 20
478.361816
 10
591.395447
 20
478.940155
 10
592.633667
 20
479.518555
 10
593.871948
 20
480.096863
 10
595.110291
 20
480.674988
 10
596.348877
 20
481.252686
 10
597.587646
 20
481.829895
 10
598.826843
 20
482.406433
 10
600.066345
 20
482.982147
 10
601.306396
 20
483.556915
 10
602.546692
 20
484.131104
 10
603.786621
 20
484.705933
 10
605.025696
 20
485.282593
 10
606.263123
 20
485.862366
 10
607.498901
 20
486.445557
 10
608.733887
 20
487.030518
 10
609.969238
 20
487.615204
 10
611.206055
 20
488.197693
 10
612.446289
 20
488.773407
 10
613.694946
 20
489.329468
 10
614.957642
 20
489.851349
 10
616.239685
 20
490.324646
 10
617.542603
 20
490.73819
 10
618.864929
 20
491.083344
 10
620.204834
 20
491.352478
 10
621.557617
 20
491.548706
 10
622.918213
 20
491.678955
 10
624.283508
 20
491.745087
 10
625.650574
 20
491.748352
 10
627.016418
 20
491.68927
 10
628.377808
 20
491.56665
 10
629.731384
 20
491.379211
 10
631.073853
 20
491.12561
 10
632.401855
 20
490.80481
 10
633.712402
 20
490.417694
 10
635.002441
 20
489.965881
 10
636.269043
 20
489.45108
 10
637.509277
 20
488.874908
 10
638.720093
 20
488.239075
 10
639.89856
 20
487.545227
 10
641.041687
 20
486.795013
 10
642.146545
 20
485.990112
 10
643.210083
 20
485.132172
 10
644.229431
 20
484.2229
 10
645.202026
 20
483.264221
 10
646.126404
 20
482.258911
 10
647.001343
 20
481.209808
 10
647.825378
 20
480.11972
 10
648.597351
 20
478.991486
 10
649.315918
 20
477.827942
 10
649.979797
 20
476.631927
 10
650.587463
 20
475.40625
 10
651.134155
 20
474.152832
 10
651.612122
 20
472.872864
 10
652.01416
 20
471.567657
 10
652.342041
 20
470.24115
 10
652.605164
 20
468.899445
 10
652.813171
 20
467.548523
 10
652.978699
 20
466.1922
 10
653.116638
 20
464.832367
 10
653.241943
 20
463.470947
 10
653.368286
 20
462.10965
 10
653.498169
 20
460.748871
 10
653.628113
 20
459.388245
 10
653.754761
 20
458.027496
 10
653.874634
 20
456.66626
 10
653.984436
 20
455.30426
 10
654.08136
 20
453.929352
  0
LINE
  5
26B
330
21C
100
AcDbEntity
  8
0
  6
Continuous
 62
     0
370
    30
100
AcDbLine
 10
516.054532
 20
464.806591
 30
0.0
 11
506.797327
 21
464.806591
 31
0.0
  0
LINE
  5
26C
330
21C
100
AcDbEntity
  8
0
  6
Continuous
 62
     0
370
    30
100
AcDbLine
 10
516.054532
 20
486.806591
 30
0.0
 11
506.797327
 21
486.806591
 31
0.0
  0
LINE
  5
26D
330
21C
100
AcDbEntity
  8
0
  6
Continuous
 62
     0
370
    30
100
AcDbLine
 10
678.769566
 20
430.773123
 30
0.0
 11
655.850973
 21
428.768006
 31
0.0
  0
LINE
  5
26E
330
21C
100
AcDbEntity
  8
0
  6
Continuous
 62
     0
370
    30
100
AcDbLine
 10
678.769566
 20
430.773123
 30
0.0
 11
679.224085
 21
431.314799
 31
0.0
  0
LINE
  5
26F
330
21C
100
AcDbEntity
  8
0
  6
Continuous
 62
     0
370
    30
100
AcDbLine
 10
679.224085
 20
431.314799
 30
0.0
 11
655.309297
 21
429.222526
 31
0.0
  0
LINE
  5
270
330
21C
100
AcDbEntity
  8
0
  6
Continuous
 62
     0
370
    30
100
AcDbLine
 10
679.224085
 20
431.314799
 30
0.0
 11
678.57042
 21
438.786233
 31
0.0
  0
LINE
  5
271
330
21C
100
AcDbEntity
  8
0
  6
Continuous
 62
     0
370
    30
100
AcDbLine
 10
680.056044
 20
439.01659
 30
0.0
 11
653.152576
 21
436.662842
 31
0.0
  0
LINE
  5
272
330
21C
100
AcDbEntity
  8
0
  6
Continuous
 62
     0
370
    30
100
AcDbLine
 10
680.056044
 20
439.01659
 30
0.0
 11
679.672558
 21
443.399847
 31
0.0
  0
LINE
  5
273
330
21C
100
AcDbEntity
  8
0
  6
Continuous
 62
     0
370
    30
100
AcDbLine
 10
679.672558
 20
443.399847
 30
0.0
 11
652.769091
 21
441.046098
 31
0.0
  0
ARC
  5
274
330
21C
100
AcDbEntity
  8
0
  6
Continuous
 62
     0
370
    30
100
AcDbCircle
 10
679.541825
 20
444.894139
 30
0.0
 40
1.499999999988016
100
AcDbArc
 50
275.0
 51
5.0
  0
LINE
  5
275
330
21C
100
AcDbEntity
  8
0
  6
Continuous
 62
     0
370
     0
100
AcDbLine
 10
681.036117
 20
445.024872
 30
0.0
 11
651.144066
 21
442.409657
 31
0.0
  0
LINE
  5
276
330
21C
100
AcDbEntity
  8
0
  6
Continuous
 62
     0
370
    30
100
AcDbLine
 10
681.036117
 20
445.024872
 30
0.0
 11
680.948961
 21
446.021067
 31
0.0
  0
LINE
  5
277
330
21C
100
AcDbEntity
  8
0
  6
Continuous
 62
     0
370
     0
100
AcDbLine
 10
680.948961
 20
446.021067
 30
0.0
 11
651.05691
 21
443.405851
 31
0.0
  0
ARC
  5
278
330
21C
100
AcDbEntity
  8
0
  6
Continuous
 62
     0
370
    30
100
AcDbCircle
 10
679.454669
 20
445.890333
 30
0.0
 40
1.499999999987986
100
AcDbArc
 50
5.0
 51
95.0
  0
LINE
  5
279
330
21C
100
AcDbEntity
  8
0
  6
Continuous
 62
     0
370
    30
100
AcDbLine
 10
679.323935
 20
447.384625
 30
0.0
 11
652.420468
 21
445.030877
 31
0.0
  0
ARC
  5
27A
330
21C
100
AcDbEntity
  8
0
  6
Continuous
 62
     0
370
    30
100
AcDbCircle
 10
679.23678
 20
448.38082
 30
0.0
 40
0.999999999992918
100
AcDbArc
 50
185.0
 51
275.0
  0
LINE
  5
27B
330
21C
100
AcDbEntity
  8
0
  6
Continuous
 62
     0
370
     0
100
AcDbLine
 10
678.240585
 20
448.293664
 30
0.0
 11
653.329507
 21
446.114227
 31
0.0
  0
LINE
  5
27C
330
21C
100
AcDbEntity
  8
0
  6
Continuous
 62
     0
370
    30
100
AcDbLine
 10
678.240585
 20
448.293664
 30
0.0
 11
677.769944
 21
453.673116
 31
0.0
  0
LINE
  5
27D
330
21C
100
AcDbEntity
  8
0
  6
Continuous
 62
     0
370
    30
100
AcDbLine
 10
677.769944
 20
453.673116
 30
0.0
 11
652.858866
 21
451.493679
 31
0.0
  0
LINE
  5
27E
330
21C
100
AcDbEntity
  8
0
  6
Continuous
 62
     0
370
    30
100
AcDbLine
 10
677.661609
 20
453.76402
 30
0.0
 11
652.94977
 21
451.602014
 31
0.0
  0
LINE
  5
27F
330
21C
100
AcDbEntity
  8
0
  6
Continuous
 62
     0
370
    30
100
AcDbLine
 10
652.858866
 20
451.493679
 30
0.0
 11
653.329507
 21
446.114227
 31
0.0
  0
ARC
  5
280
330
21C
100
AcDbEntity
  8
0
  6
Continuous
 62
     0
370
    30
100
AcDbCircle
 10
652.332868
 20
446.027445
 30
0.0
 40
1.000410492213551
100
AcDbArc
 50
275.031605
 51
4.976498
  0
ARC
  5
281
330
21C
100
AcDbEntity
  8
0
  6
Continuous
 62
     0
370
    30
100
AcDbCircle
 10
652.551629
 20
443.536227
 30
0.0
 40
1.500394165549652
100
AcDbArc
 50
95.01505
 51
184.98495
  0
LINE
  5
282
330
21C
100
AcDbEntity
  8
0
  6
Continuous
 62
     0
370
    30
100
AcDbLine
 10
651.05691
 20
443.405851
 30
0.0
 11
651.144066
 21
442.409657
 31
0.0
  0
ARC
  5
283
330
21C
100
AcDbEntity
  8
0
  6
Continuous
 62
     0
370
    30
100
AcDbCircle
 10
652.638712
 20
442.540813
 30
0.0
 40
1.500389978272653
100
AcDbArc
 50
185.014888
 51
274.977009
  0
LINE
  5
284
330
21C
100
AcDbEntity
  8
0
  6
Continuous
 62
     0
370
    30
100
AcDbLine
 10
652.769091
 20
441.046098
 30
0.0
 11
653.152576
 21
436.662842
 31
0.0
  0
LINE
  5
285
330
21C
100
AcDbEntity
  8
0
  6
Continuous
 62
     0
370
    30
100
AcDbLine
 10
654.655632
 20
436.69396
 30
0.0
 11
655.309297
 21
429.222526
 31
0.0
  0
ENDBLK
  5
287
330
21C
100
AcDbEntity
  8
0
100
AcDbBlockEnd
  0
BLOCK
  5
36D
330
289
100
AcDbEntity
  8
0
100
AcDbBlockBegin
  2
d
 70
     0
 10
83.490158
 20
137.581848
 30
0.0
  3
d
  1

  0
ELLIPSE
  5
28A
330
289
100
AcDbEntity
  8
0
  6
Continuous
 62
     0
370
     0
100
AcDbEllipse
 10
518.701322
 20
218.00734
 30
0.0
 11
-7.660813358843407
 21
-13.26891796481916
 31
0.0
210
0.0
220
0.0
230
-1.0
 40
0.57735
 41
0.7853981633974485
 42
2.232342759105374
  0
ELLIPSE
  5
28B
330
289
100
AcDbEntity
  8
0
  6
Continuous
 62
     0
370
     0
100
AcDbEllipse
 10
518.701322
 20
218.00734
 30
0.0
 11
-7.660813358843407
 21
-13.26891796481916
 31
0.0
210
0.0
220
0.0
230
-1.0
 40
0.57735
 41
5.550455561271837
 42
7.068583470577035
  0
ELLIPSE
  5
28C
330
289
100
AcDbEntity
  8
0
  6
Continuous
 62
     0
370
     0
100
AcDbEllipse
 10
514.006846
 20
220.717697
 30
0.0
 11
-11.60250260865466
 21
-20.0961240131403
 31
0.0
210
0.0
220
0.0
230
-1.0
 40
0.57735
 41
0.7853981633974485
 42
3.263981249435274
  0
ELLIPSE
  5
28D
330
289
100
AcDbEntity
  8
0
  6
Continuous
 62
     0
370
     0
100
AcDbEllipse
 10
514.006846
 20
220.717697
 30
0.0
 11
-11.60250260865466
 21
-20.0961240131403
 31
0.0
210
0.0
220
0.0
230
-1.0
 40
0.57735
 41
6.160803131290202
 42
7.068583470577035
  0
ELLIPSE
  5
28E
330
289
100
AcDbEntity
  8
0
  6
Continuous
 62
     0
370
     0
100
AcDbEllipse
 10
497.121769
 20
230.466301
 30
0.0
 11
-13.66377993465459
 21
-23.66636107026189
 31
0.0
210
0.0
220
0.0
230
-1.0
 40
0.57735
 41
0.7853981633974486
 42
3.263975277106897
  0
ELLIPSE
  5
28F
330
289
100
AcDbEntity
  8
0
  6
Continuous
 62
     0
370
     0
100
AcDbEllipse
 10
497.121769
 20
230.466301
 30
0.0
 11
-13.66377993465459
 21
-23.66636107026189
 31
0.0
210
0.0
220
0.0
230
-1.0
 40
0.57735
 41
6.160802901009468
 42
7.068583470577035
  0
ELLIPSE
  5
290
330
289
100
AcDbEntity
  8
0
  6
Continuous
 62
     0
370
     0
100
AcDbEllipse
 10
493.58605
 20
232.507649
 30
0.0
 11
-15.00218031633787
 21
-25.98453853220692
 31
0.0
210
0.0
220
0.0
230
-1.0
 40
0.57735
 41
0.785398163397448
 42
3.613435817001328
  0
ELLIPSE
  5
291
330
289
100
AcDbEntity
  8
0
  6
Continuous
 62
     0
370
     0
100
AcDbEllipse
 10
493.58605
 20
232.507649
 30
0.0
 11
-15.00218031633787
 21
-25.98453853220692
 31
0.0
210
0.0
220
0.0
230
-1.0
 40
0.57735
 41
5.811342189468354
 42
7.068583470577035
  0
ELLIPSE
  5
292
330
289
100
AcDbEntity
  8
0
  6
Continuous
 62
     0
370
    30
100
AcDbEllipse
 10
489.427101
 20
234.90882
 30
0.0
 11
-16.24999999993461
 21
-28.145825622881
 31
0.0
210
0.0
220
0.0
230
-1.0
 40
0.57735
 41
0.7853981633974482
 42
3.134879088850744
  0
ELLIPSE
  5
293
330
289
100
AcDbEntity
  8
0
  6
Continuous
 62
     0
370
    30
100
AcDbEllipse
 10
489.427101
 20
234.90882
 30
0.0
 11
-16.24999999993461
 21
-28.145825622881
 31
0.0
210
0.0
220
0.0
230
-1.0
 40
0.57735
 41
0.0067139403431336
 42
0.7853981633974482
  0
ARC
  5
294
330
289
100
AcDbEntity
  8
0
  6
Continuous
 62
     0
370
    30
100
AcDbCircle
 10
481.949991
 20
222.528266
 30
0.0
 40
18.03953999613574
100
AcDbArc
 50
240.505362
 51
287.468503
  0
ARC
  5
295
330
289
100
AcDbEntity
  8
0
  6
Continuous
 62
     0
370
    30
100
AcDbCircle
 10
496.412653
 20
247.576617
 30
0.0
 40
18.03655095254799
100
AcDbArc
 50
12.527881
 51
59.497273
  0
LINE
  5
296
330
289
100
AcDbEntity
  8
0
  6
Continuous
 62
     0
370
    30
100
AcDbLine
 10
503.907519
 20
199.954122
 30
0.0
 11
485.228216
 21
206.013911
 31
0.0
  0
LINE
  5
297
330
289
100
AcDbEntity
  8
0
  6
Continuous
 62
     0
370
    30
100
AcDbLine
 10
526.938967
 20
239.845758
 30
0.0
 11
512.351384
 21
252.992615
 31
0.0
  0
ARC
  5
298
330
289
100
AcDbEntity
  8
0
  6
Continuous
 62
     0
370
    30
100
AcDbCircle
 10
517.692511
 20
229.623803
 30
0.0
 40
13.78351536808606
100
AcDbArc
 50
34.025182
 51
47.868854
  0
LINE
  5
299
330
289
100
AcDbEntity
  8
0
  6
Continuous
 62
     0
370
    30
100
AcDbLine
 10
531.861952
 20
226.660582
 30
0.0
 11
531.878494
 21
227.528355
 31
0.0
  0
LWPOLYLINE
  5
29A
330
289
100
AcDbEntity
  8
0
  6
Continuous
 62
     0
370
    30
100
AcDbPolyline
 90
       10
 70
     0
 43
0.0
 10
503.907532
 20
199.954117
 10
504.777954
 20
199.704361
 10
505.664001
 20
199.513397
 10
506.561249
 20
199.380661
 10
507.46521
 20
199.305573
 10
508.37146
 20
199.287521
 10
509.27652
 20
199.325378
 10
510.178345
 20
199.417191
 10
511.075134
 20
199.560883
 10
512.084167
 20
199.784149
  0
ELLIPSE
  5
29B
330
289
100
AcDbEntity
  8
0
  6
Continuous
 62
     0
370
     0
100
AcDbEllipse
 10
596.483068
 20
262.914652
 30
0.0
 11
-7.660813358843368
 21
-13.2689179648191
 31
0.0
210
0.0
220
0.0
230
-1.0
 40
0.57735
 41
0.7853981633974482
 42
3.911551381049487
  0
ELLIPSE
  5
29C
330
289
100
AcDbEntity
  8
0
  6
Continuous
 62
     0
370
     0
100
AcDbEllipse
 10
596.483068
 20
262.914652
 30
0.0
 11
-7.660813358843368
 21
-13.2689179648191
 31
0.0
210
0.0
220
0.0
230
-1.0
 40
0.57735
 41
5.513226624479741
 42
7.068583470577035
  0
ELLIPSE
  5
29D
330
289
100
AcDbEntity
  8
0
  6
Continuous
 62
     0
370
     0
100
AcDbEllipse
 10
591.788592
 20
265.625009
 30
0.0
 11
-11.60250260865454
 21
-20.09612401314011
 31
0.0
210
0.0
220
0.0
230
-1.0
 40
0.57735
 41
0.7853981633974483
 42
3.263981247173965
  0
ELLIPSE
  5
29E
330
289
100
AcDbEntity
  8
0
  6
Continuous
 62
     0
370
     0
100
AcDbEllipse
 10
591.788592
 20
265.625009
 30
0.0
 11
-11.60250260865454
 21
-20.09612401314011
 31
0.0
210
0.0
220
0.0
230
-1.0
 40
0.57735
 41
6.160803151914167
 42
7.068583470577035
  0
ELLIPSE
  5
29F
330
289
100
AcDbEntity
  8
0
  6
Continuous
 62
     0
370
     0
100
AcDbEllipse
 10
574.903515
 20
275.373613
 30
0.0
 11
-13.66377993465459
 21
-23.66636107026191
 31
0.0
210
0.0
220
0.0
230
-1.0
 40
0.57735
 41
0.7853981633974484
 42
3.263975190692352
  0
ELLIPSE
  5
2A0
330
289
100
AcDbEntity
  8
0
  6
Continuous
 62
     0
370
     0
100
AcDbEllipse
 10
574.903515
 20
275.373613
 30
0.0
 11
-13.66377993465459
 21
-23.66636107026191
 31
0.0
210
0.0
220
0.0
230
-1.0
 40
0.57735
 41
6.160802868901598
 42
7.068583470577035
  0
ELLIPSE
  5
2A1
330
289
100
AcDbEntity
  8
0
  6
Continuous
 62
     0
370
     0
100
AcDbEllipse
 10
571.367796
 20
277.414962
 30
0.0
 11
-15.00218031633807
 21
-25.98453853220726
 31
0.0
210
0.0
220
0.0
230
-1.0
 40
0.57735
 41
0.7853981633974484
 42
3.613435817001389
  0
ELLIPSE
  5
2A2
330
289
100
AcDbEntity
  8
0
  6
Continuous
 62
     0
370
     0
100
AcDbEllipse
 10
571.367796
 20
277.414962
 30
0.0
 11
-15.00218031633807
 21
-25.98453853220726
 31
0.0
210
0.0
220
0.0
230
-1.0
 40
0.57735
 41
5.811342189468302
 42
7.068583470577035
  0
ELLIPSE
  5
2A3
330
289
100
AcDbEntity
  8
0
  6
Continuous
 62
     0
370
    30
100
AcDbEllipse
 10
567.208847
 20
279.816132
 30
0.0
 11
-16.24999999993453
 21
-28.14582562288086
 31
0.0
210
0.0
220
0.0
230
-1.0
 40
0.57735
 41
0.7853981633974483
 42
3.134879279712888
  0
ELLIPSE
  5
2A4
330
289
100
AcDbEntity
  8
0
  6
Continuous
 62
     0
370
    30
100
AcDbEllipse
 10
567.208847
 20
279.816132
 30
0.0
 11
-16.24999999993453
 21
-28.14582562288086
 31
0.0
210
0.0
220
0.0
230
-1.0
 40
0.57735
 41
0.0067139419212536
 42
0.7853981633974483
  0
ARC
  5
2A5
330
289
100
AcDbEntity
  8
0
  6
Continuous
 62
     0
370
    30
100
AcDbCircle
 10
559.731737
 20
267.435578
 30
0.0
 40
18.03953999613605
100
AcDbArc
 50
240.505362
 51
287.468503
  0
ARC
  5
2A6
330
289
100
AcDbEntity
  8
0
  6
Continuous
 62
     0
370
    30
100
AcDbCircle
 10
574.194399
 20
292.48393
 30
0.0
 40
18.03655095254826
100
AcDbArc
 50
12.527881
 51
59.497273
  0
LINE
  5
2A7
330
289
100
AcDbEntity
  8
0
  6
Continuous
 62
     0
370
    30
100
AcDbLine
 10
581.689265
 20
244.861434
 30
0.0
 11
563.009962
 21
250.921223
 31
0.0
  0
LINE
  5
2A8
330
289
100
AcDbEntity
  8
0
  6
Continuous
 62
     0
370
    30
100
AcDbLine
 10
604.720712
 20
284.75307
 30
0.0
 11
590.13313
 21
297.899927
 31
0.0
  0
ARC
  5
2A9
330
289
100
AcDbEntity
  8
0
  6
Continuous
 62
     0
370
    30
100
AcDbCircle
 10
593.45599
 20
273.086559
 30
0.0
 40
16.21731677172831
100
AcDbArc
 50
357.699781
 51
46.0041
  0
LWPOLYLINE
  5
2AA
330
289
100
AcDbEntity
  8
0
  6
Continuous
 62
     0
370
    30
100
AcDbPolyline
 90
        5
 70
     0
 43
0.0
 10
609.28772
 20
268.223602
 10
609.435913
 20
269.186493
 10
609.547363
 20
270.145599
 10
609.621277
 20
271.09967
 10
609.660217
 20
272.435669
  0
LWPOLYLINE
  5
2AB
330
289
100
AcDbEntity
  8
0
  6
Continuous
 62
     0
370
    30
100
AcDbPolyline
 90
       18
 70
     0
 43
0.0
 10
581.68927
 20
244.861435
 10
582.681091
 20
244.581848
 10
583.692322
 20
244.378311
 10
584.716492
 20
244.249954
 10
585.746948
 20
244.195908
 10
586.777588
 20
244.215073
 10
587.804871
 20
244.304916
 10
588.825989
 20
244.462387
 10
589.838257
 20
244.684479
 10
590.838989
 20
244.96817
 10
591.826294
 20
245.310791
 10
592.799255
 20
245.710052
 10
593.757019
 20
246.163651
 10
594.69873
 20
246.669296
 10
595.623535
 20
247.224701
 10
596.530457
 20
247.827805
 10
597.418396
 20
248.476685
 10
598.287964
 20
249.170898
  0
ELLIPSE
  5
2AC
330
289
100
AcDbEntity
  8
0
  6
Continuous
 62
     0
370
     0
100
AcDbEllipse
 10
674.264814
 20
307.821964
 30
0.0
 11
-7.660813358814353
 21
-13.26891796476884
 31
0.0
210
0.0
220
0.0
230
-1.0
 40
0.57735
 41
0.7853981633974475
 42
2.232342759105419
  0
ELLIPSE
  5
2AD
330
289
100
AcDbEntity
  8
0
  6
Continuous
 62
     0
370
     0
100
AcDbEllipse
 10
674.264814
 20
307.821964
 30
0.0
 11
-7.660813358814353
 21
-13.26891796476884
 31
0.0
210
0.0
220
0.0
230
-1.0
 40
0.57735
 41
5.550455561261262
 42
7.068583470577034
  0
ELLIPSE
  5
2AE
330
289
100
AcDbEntity
  8
0
  6
Continuous
 62
     0
370
     0
100
AcDbEllipse
 10
669.570338
 20
310.532321
 30
0.0
 11
-11.60250260865472
 21
-20.09612401314041
 31
0.0
210
0.0
220
0.0
230
-1.0
 40
0.57735
 41
0.7853981633974483
 42
3.263981255842067
  0
ELLIPSE
  5
2AF
330
289
100
AcDbEntity
  8
0
  6
Continuous
 62
     0
370
     0
100
AcDbEllipse
 10
669.570338
 20
310.532321
 30
0.0
 11
-11.60250260865472
 21
-20.09612401314041
 31
0.0
210
0.0
220
0.0
230
-1.0
 40
0.57735
 41
6.160803039712877
 42
7.068583470577035
  0
ELLIPSE
  5
2B0
330
289
100
AcDbEntity
  8
0
  6
Continuous
 62
     0
370
     0
100
AcDbEllipse
 10
652.685261
 20
320.280925
 30
0.0
 11
-13.66377993465468
 21
-23.66636107026206
 31
0.0
210
0.0
220
0.0
230
-1.0
 40
0.57735
 41
0.7853981633974483
 42
3.263975361584196
  0
ELLIPSE
  5
2B1
330
289
100
AcDbEntity
  8
0
  6
Continuous
 62
     0
370
     0
100
AcDbEllipse
 10
652.685261
 20
320.280925
 30
0.0
 11
-13.66377993465468
 21
-23.66636107026206
 31
0.0
210
0.0
220
0.0
230
-1.0
 40
0.57735
 41
6.16080295327753
 42
7.068583470577035
  0
ELLIPSE
  5
2B2
330
289
100
AcDbEntity
  8
0
  6
Continuous
 62
     0
370
     0
100
AcDbEllipse
 10
649.149542
 20
322.322273
 30
0.0
 11
-15.00218031633781
 21
-25.98453853220681
 31
0.0
210
0.0
220
0.0
230
-1.0
 40
0.57735
 41
0.7853981633974483
 42
3.613435817001303
  0
ELLIPSE
  5
2B3
330
289
100
AcDbEntity
  8
0
  6
Continuous
 62
     0
370
     0
100
AcDbEllipse
 10
649.149542
 20
322.322273
 30
0.0
 11
-15.00218031633781
 21
-25.98453853220681
 31
0.0
210
0.0
220
0.0
230
-1.0
 40
0.57735
 41
5.811342189468384
 42
7.068583470577035
  0
ELLIPSE
  5
2B4
330
289
100
AcDbEntity
  8
0
  6
Continuous
 62
     0
370
    30
100
AcDbEllipse
 10
644.990593
 20
324.723443
 30
0.0
 11
-16.24999999993584
 21
-28.14582562288313
 31
0.0
210
0.0
220
0.0
230
-1.0
 40
0.57735
 41
0.7853981633974483
 42
3.134879287159948
  0
ELLIPSE
  5
2B5
330
289
100
AcDbEntity
  8
0
  6
Continuous
 62
     0
370
    30
100
AcDbEllipse
 10
644.990593
 20
324.723443
 30
0.0
 11
-16.24999999993584
 21
-28.14582562288313
 31
0.0
210
0.0
220
0.0
230
-1.0
 40
0.57735
 41
0.0067135564037532
 42
0.7853981633974483
  0
ARC
  5
2B6
330
289
100
AcDbEntity
  8
0
  6
Continuous
 62
     0
370
    30
100
AcDbCircle
 10
637.513483
 20
312.34289
 30
0.0
 40
18.03953999613623
100
AcDbArc
 50
240.505362
 51
287.468503
  0
ARC
  5
2B7
330
289
100
AcDbEntity
  8
0
  6
Continuous
 62
     0
370
    30
100
AcDbCircle
 10
651.976145
 20
337.391241
 30
0.0
 40
18.03655095254883
100
AcDbArc
 50
12.527881
 51
59.497273
  0
LINE
  5
2B8
330
289
100
AcDbEntity
  8
0
  6
Continuous
 62
     0
370
    30
100
AcDbLine
 10
659.471011
 20
289.768746
 30
0.0
 11
640.791708
 21
295.828535
 31
0.0
  0
LINE
  5
2B9
330
289
100
AcDbEntity
  8
0
  6
Continuous
 62
     0
370
    30
100
AcDbLine
 10
682.502459
 20
329.660382
 30
0.0
 11
667.914876
 21
342.807238
 31
0.0
  0
ARC
  5
2BA
330
289
100
AcDbEntity
  8
0
  6
Continuous
 62
     0
370
    30
100
AcDbCircle
 10
673.256003
 20
319.438427
 30
0.0
 40
13.7835153681013
100
AcDbArc
 50
34.025182
 51
47.868854
  0
LINE
  5
2BB
330
289
100
AcDbEntity
  8
0
  6
Continuous
 62
     0
370
    30
100
AcDbLine
 10
687.425444
 20
316.475206
 30
0.0
 11
687.441986
 21
317.342979
 31
0.0
  0
LWPOLYLINE
  5
2BC
330
289
100
AcDbEntity
  8
0
  6
Continuous
 62
     0
370
    30
100
AcDbPolyline
 90
       10
 70
     0
 43
0.0
 10
659.471008
 20
289.768738
 10
660.341431
 20
289.518982
 10
661.227478
 20
289.328033
 10
662.124756
 20
289.195282
 10
663.028687
 20
289.120209
 10
663.934937
 20
289.102142
 10
664.840027
 20
289.140015
 10
665.741821
 20
289.231812
 10
666.638611
 20
289.375488
 10
667.647705
 20
289.598785
  0
ELLIPSE
  5
2BD
330
289
100
AcDbEntity
  8
0
  6
Continuous
 62
     0
370
     0
100
AcDbEllipse
 10
683.810755
 20
302.310612
 30
0.0
 11
-6.499999999974054
 21
-11.25833024915276
 31
0.0
210
0.0
220
0.0
230
-1.0
 40
0.57735
 41
0.6785303102211975
 42
1.832034531038085
  0
ELLIPSE
  5
2BE
330
289
100
AcDbEntity
  8
0
  6
Continuous
 62
     0
370
     0
100
AcDbEllipse
 10
683.810755
 20
302.310612
 30
0.0
 11
-6.499999999974054
 21
-11.25833024915276
 31
0.0
210
0.0
220
0.0
230
-1.0
 40
0.57735
 41
2.834008385929911
 42
3.141592676439948
  0
ELLIPSE
  5
2BF
330
289
100
AcDbEntity
  8
0
  6
Continuous
 62
     0
370
     0
100
AcDbEllipse
 10
676.853038
 20
306.327652
 30
0.0
 11
-3.125051764878465
 21
-5.412748433052289
 31
0.0
210
0.0
220
0.0
230
-1.0
 40
0.57735
 41
0.4942645528313939
 42
2.678732091861697
  0
ELLIPSE
  5
2C0
330
289
100
AcDbEntity
  8
0
  6
Continuous
 62
     0
370
     0
100
AcDbEllipse
 10
676.853038
 20
306.327652
 30
0.0
 11
-3.125051764878465
 21
-5.412748433052289
 31
0.0
210
0.0
220
0.0
230
-1.0
 40
0.57735
 41
0.1963385387918098
 42
0.4942645528313939
  0
ELLIPSE
  5
2C1
330
289
100
AcDbEntity
  8
0
  6
Continuous
 62
     0
370
    30
100
AcDbEllipse
 10
674.264814
 20
307.821964
 30
0.0
 11
-3.130940496485168
 21
-5.422948015387234
 31
0.0
210
0.0
220
0.0
230
-1.0
 40
0.57735
 41
0.4942645528313924
 42
3.378022089959247
  0
ELLIPSE
  5
2C2
330
289
100
AcDbEntity
  8
0
  6
Continuous
 62
     0
370
    30
100
AcDbEllipse
 10
674.264814
 20
307.821964
 30
0.0
 11
-3.130940496485168
 21
-5.422948015387234
 31
0.0
210
0.0
220
0.0
230
-1.0
 40
0.57735
 41
5.854579442978571
 42
6.777449860010979
  0
ELLIPSE
  5
2C3
330
289
100
AcDbEntity
  8
0
  6
Continuous
 62
     0
370
     0
100
AcDbEllipse
 10
701.809345
 20
314.154464
 30
0.0
 11
-3.391949458402222
 21
3.673510428928191
 31
0.0
210
0.0
220
0.0
230
-1.0
 40
0.387333
 41
-0.0000000256045158
 42
2.464879024606776
  0
ELLIPSE
  5
2C4
330
289
100
AcDbEntity
  8
0
  6
Continuous
 62
     0
370
     0
100
AcDbEllipse
 10
701.809345
 20
314.154464
 30
0.0
 11
-3.391949458402222
 21
3.673510428928191
 31
0.0
210
0.0
220
0.0
230
-1.0
 40
0.387333
 41
2.464879024606832
 42
3.141592627985344
  0
ELLIPSE
  5
2C5
330
289
100
AcDbEntity
  8
0
  6
Continuous
 62
     0
370
     0
100
AcDbEllipse
 10
705.999369
 20
318.023337
 30
0.0
 11
-4.845642083431707
 21
5.247872041325944
 31
0.0
210
0.0
220
0.0
230
-1.0
 40
0.387333
 41
5.946070761502987
 42
8.748064331786361
  0
ELLIPSE
  5
2C6
330
289
100
AcDbEntity
  8
0
  6
Continuous
 62
     0
370
     0
100
AcDbEllipse
 10
705.999369
 20
318.023337
 30
0.0
 11
-4.845642083431707
 21
5.247872041325944
 31
0.0
210
0.0
220
0.0
230
-1.0
 40
0.387333
 41
2.464879024606779
 42
3.47870715159164
  0
ELLIPSE
  5
2C7
330
289
100
AcDbEntity
  8
0
  6
Continuous
 62
     0
370
     0
100
AcDbEllipse
 10
709.898855
 20
321.623943
 30
0.0
 11
-4.264165033419585
 21
4.618127396366487
 31
0.0
210
0.0
220
0.0
230
-1.0
 40
0.387333
 41
0.6477011967589273
 42
2.464879024606775
  0
ELLIPSE
  5
2C8
330
289
100
AcDbEntity
  8
0
  6
Continuous
 62
     0
370
     0
100
AcDbEllipse
 10
709.898855
 20
321.623943
 30
0.0
 11
-4.264165033419585
 21
4.618127396366487
 31
0.0
210
0.0
220
0.0
230
-1.0
 40
0.387333
 41
2.46487902460678
 42
2.493890882581305
  0
ELLIPSE
  5
2C9
330
289
100
AcDbEntity
  8
0
  6
Continuous
 62
     0
370
     0
100
AcDbEllipse
 10
682.552974
 20
315.018941
 30
0.0
 11
-4.782187518897425
 21
-1.459685765464951
 31
0.0
210
0.0
220
0.0
230
1.0
 40
0.718777
 41
6.120687387634542
 42
8.44489603236471
  0
ELLIPSE
  5
2CA
330
289
100
AcDbEntity
  8
0
  6
Continuous
 62
     0
370
     0
100
AcDbEllipse
 10
682.552974
 20
315.018941
 30
0.0
 11
-4.782187518897425
 21
-1.459685765464951
 31
0.0
210
0.0
220
0.0
230
1.0
 40
0.718777
 41
2.161710725185143
 42
3.304159314188309
  0
LINE
  5
2CB
330
289
100
AcDbEntity
  8
0
  6
Continuous
 62
     0
370
    30
100
AcDbLine
 10
687.889704
 20
307.076665
 30
0.0
 11
688.044752
 21
307.223849
 31
0.0
  0
LWPOLYLINE
  5
2CC
330
289
100
AcDbEntity
  8
0
  6
Continuous
 62
     0
370
    30
100
AcDbPolyline
 90
        9
 70
     0
 43
0.0
 10
688.044739
 20
307.223846
 10
688.398987
 20
307.595917
 10
688.702454
 20
307.970825
 10
688.950989
 20
308.344147
 10
689.141541
 20
308.712799
 10
689.271606
 20
309.073914
 10
689.339172
 20
309.425507
 10
689.343262
 20
309.766602
 10
689.273438
 20
310.128418
  0
LWPOLYLINE
  5
2CD
330
289
100
AcDbEntity
  8
0
  6
Continuous
 62
     0
370
    30
100
AcDbPolyline
 90
       19
 70
     0
 43
0.0
 10
679.707214
 20
307.215271
 10
679.886536
 20
306.744873
 10
680.129761
 20
306.309845
 10
680.433228
 20
305.919617
 10
680.792664
 20
305.58316
 10
681.202026
 20
305.30777
 10
681.654419
 20
305.098969
 10
682.142151
 20
304.95932
 10
682.657532
 20
304.888885
 10
683.193054
 20
304.885406
 10
683.742126
 20
304.945221
 10
684.298462
 20
305.063629
 10
684.856445
 20
305.235535
 10
685.410217
 20
305.455566
 10
685.953979
 20
305.718353
 10
686.480957
 20
306.018005
 10
686.98407
 20
306.348389
 10
687.455994
 20
306.703278
 10
687.889709
 20
307.07666
  0
ELLIPSE
  5
2CE
330
289
100
AcDbEntity
  8
0
  6
Continuous
 62
     0
370
     0
100
AcDbEllipse
 10
681.297443
 20
319.132282
 30
0.0
 11
-6.831696455567695
 21
-2.085265379235627
 31
0.0
210
0.0
220
0.0
230
1.0
 40
0.718777
 41
0.9509149035841515
 42
2.161710725185104
  0
ELLIPSE
  5
2CF
330
289
100
AcDbEntity
  8
0
  6
Continuous
 62
     0
370
     0
100
AcDbEllipse
 10
681.297443
 20
319.132282
 30
0.0
 11
-6.831696455567695
 21
-2.085265379235627
 31
0.0
210
0.0
220
0.0
230
1.0
 40
0.718777
 41
2.161710725185124
 42
2.190695146317193
  0
ELLIPSE
  5
2D0
330
289
100
AcDbEntity
  8
0
  6
Continuous
 62
     0
370
     0
100
AcDbEllipse
 10
680.12897
 20
322.960403
 30
0.0
 11
-6.011892880899124
 21
-1.835033533727215
 31
0.0
210
0.0
220
0.0
230
1.0
 40
0.718777
 41
5.303303378774935
 42
8.444896032364692
  0
ELLIPSE
  5
2D1
330
289
100
AcDbEntity
  8
0
  6
Continuous
 62
     0
370
     0
100
AcDbEllipse
 10
680.12897
 20
322.960403
 30
0.0
 11
-6.011892880899124
 21
-1.835033533727215
 31
0.0
210
0.0
220
0.0
230
1.0
 40
0.718777
 41
2.161710725185126
 42
5.303303378774935
  0
ELLIPSE
  5
2D2
330
289
100
AcDbEntity
  8
0
  6
Continuous
 62
     0
370
     0
100
AcDbEllipse
 10
672.17613
 20
286.792524
 30
0.0
 11
3.391949458402222
 21
-3.673510428928191
 31
0.0
210
0.0
220
0.0
230
1.0
 40
0.387333
 41
0.0000000256044519
 42
0.6767136289830074
  0
ELLIPSE
  5
2D3
330
289
100
AcDbEntity
  8
0
  6
Continuous
 62
     0
370
     0
100
AcDbEllipse
 10
672.17613
 20
286.792524
 30
0.0
 11
3.391949458402222
 21
-3.673510428928191
 31
0.0
210
0.0
220
0.0
230
1.0
 40
0.387333
 41
0.6767136289830198
 42
3.141592789984377
  0
LWPOLYLINE
  5
2D4
330
289
100
AcDbEntity
  8
0
  6
Continuous
 62
     0
370
    30
100
AcDbPolyline
 90
       21
 70
     0
 43
0.0
 10
681.722717
 20
290.301605
 10
681.579529
 20
290.739014
 10
681.404114
 20
291.218231
 10
681.198486
 20
291.729736
 10
680.964355
 20
292.263275
 10
680.703064
 20
292.808258
 10
680.415649
 20
293.35437
 10
680.102539
 20
293.891327
 10
679.763977
 20
294.408936
 10
679.400452
 20
294.896973
 10
679.013184
 20
295.345093
 10
678.604553
 20
295.743256
 10
678.178406
 20
296.08197
 10
677.740723
 20
296.353668
 10
677.299011
 20
296.552826
 10
676.862
 20
296.677338
 10
676.438904
 20
296.72757
 10
676.038635
 20
296.706421
 10
675.670044
 20
296.618073
 10
675.341248
 20
296.467712
 10
675.052979
 20
296.254333
  0
LWPOLYLINE
  5
2D5
330
289
100
AcDbEntity
  8
0
  6
Continuous
 62
     0
370
    30
100
AcDbPolyline
 90
        7
 70
     0
 43
0.0
 10
681.836304
 20
288.906799
 10
681.903198
 20
289.007385
 10
681.935059
 20
289.157501
 10
681.933167
 20
289.357391
 10
681.898926
 20
289.606781
 10
681.833679
 20
289.904724
 10
681.722717
 20
290.301605
  0
ELLIPSE
  5
2D6
330
289
100
AcDbEntity
  8
0
  6
Continuous
 62
     0
370
     0
100
AcDbEllipse
 10
667.986106
 20
282.923651
 30
0.0
 11
4.845642083431707
 21
-5.247872041325945
 31
0.0
210
0.0
220
0.0
230
1.0
 40
0.387333
 41
0.3371131562860503
 42
0.6767136289830153
  0
ELLIPSE
  5
2D7
330
289
100
AcDbEntity
  8
0
  6
Continuous
 62
     0
370
     0
100
AcDbEllipse
 10
667.986106
 20
282.923651
 30
0.0
 11
4.845642083431707
 21
-5.247872041325945
 31
0.0
210
0.0
220
0.0
230
1.0
 40
0.387333
 41
0.6767136289830198
 42
2.804479388753686
  0
ELLIPSE
  5
2D8
330
289
100
AcDbEntity
  8
0
  6
Continuous
 62
     0
370
     0
100
AcDbEllipse
 10
664.086619
 20
279.323045
 30
0.0
 11
4.264165033419585
 21
-4.618127396366488
 31
0.0
210
0.0
220
0.0
230
1.0
 40
0.387333
 41
5.635465751349084
 42
6.959898936162598
  0
ELLIPSE
  5
2D9
330
289
100
AcDbEntity
  8
0
  6
Continuous
 62
     0
370
     0
100
AcDbEllipse
 10
664.086619
 20
279.323045
 30
0.0
 11
4.264165033419585
 21
-4.618127396366488
 31
0.0
210
0.0
220
0.0
230
1.0
 40
0.387333
 41
0.6767136289830216
 42
3.81830628257282
  0
ELLIPSE
  5
2DA
330
289
100
AcDbEntity
  8
0
  6
Continuous
 62
     0
370
     0
100
AcDbEllipse
 10
691.432501
 20
285.928048
 30
0.0
 11
4.782187518897425
 21
1.459685765464951
 31
0.0
210
0.0
220
0.0
230
-1.0
 40
0.718777
 41
1.151332336185127
 42
3.141592652537894
  0
ELLIPSE
  5
2DB
330
289
100
AcDbEntity
  8
0
  6
Continuous
 62
     0
370
     0
100
AcDbEllipse
 10
692.688032
 20
281.814707
 30
0.0
 11
6.831696455567695
 21
2.085265379235627
 31
0.0
210
0.0
220
0.0
230
-1.0
 40
0.718777
 41
5.991231238051039
 42
7.263067235584241
  0
ELLIPSE
  5
2DC
330
289
100
AcDbEntity
  8
0
  6
Continuous
 62
     0
370
     0
100
AcDbEllipse
 10
692.688032
 20
281.814707
 30
0.0
 11
6.831696455567695
 21
2.085265379235627
 31
0.0
210
0.0
220
0.0
230
-1.0
 40
0.718777
 41
0.9798819284046689
 42
3.885259155690184
  0
ELLIPSE
  5
2DD
330
289
100
AcDbEntity
  8
0
  6
Continuous
 62
     0
370
     0
100
AcDbEllipse
 10
695.478017
 20
295.574515
 30
0.0
 11
6.500001631229797
 21
11.25833307457059
 31
0.0
210
0.0
220
0.0
230
1.0
 40
0.57735
 41
1.058531359151064
 42
3.141592630739632
  0
ELLIPSE
  5
2DE
330
289
100
AcDbEntity
  8
0
  6
Continuous
 62
     0
370
     0
100
AcDbEllipse
 10
695.478017
 20
295.574515
 30
0.0
 11
6.500001631229797
 21
11.25833307457059
 31
0.0
210
0.0
220
0.0
230
1.0
 40
0.57735
 41
6.283171881252635
 42
7.341716666330633
  0
ELLIPSE
  5
2DF
330
289
100
AcDbEntity
  8
0
  6
Continuous
 62
     0
370
     0
100
AcDbEllipse
 10
699.013551
 20
293.533274
 30
0.0
 11
4.000001631229792
 21
6.928206055648387
 31
0.0
210
0.0
220
0.0
230
1.0
 40
0.57735
 41
4.20012401274084
 42
7.341716666330633
  0
ELLIPSE
  5
2E0
330
289
100
AcDbEntity
  8
0
  6
Continuous
 62
     0
370
     0
100
AcDbEllipse
 10
699.013551
 20
293.533274
 30
0.0
 11
4.000001631229792
 21
6.928206055648387
 31
0.0
210
0.0
220
0.0
230
1.0
 40
0.57735
 41
1.058531359151054
 42
4.20012401274084
  0
ELLIPSE
  5
2E1
330
289
100
AcDbEntity
  8
0
  6
Continuous
 62
     0
370
    30
100
AcDbEllipse
 10
699.013551
 20
293.533274
 30
0.0
 11
3.550001631229805
 21
6.148783192242413
 31
0.0
210
0.0
220
0.0
230
1.0
 40
0.57735
 41
1.058531359151056
 42
4.200124012740838
  0
ELLIPSE
  5
2E2
330
289
100
AcDbEntity
  8
0
  6
Continuous
 62
     0
370
    30
100
AcDbEllipse
 10
699.013551
 20
293.533274
 30
0.0
 11
3.500000000000001
 21
6.062177826491071
 31
0.0
210
0.0
220
0.0
230
1.0
 40
0.57735
 41
4.195307606067368
 42
4.218124427553269
  0
ELLIPSE
  5
2E3
330
289
100
AcDbEntity
  8
0
  6
Continuous
 62
     0
370
    30
100
AcDbEllipse
 10
699.013551
 20
293.533274
 30
0.0
 11
3.500000000000001
 21
6.062177826491071
 31
0.0
210
0.0
220
0.0
230
1.0
 40
0.57735
 41
4.218124427553295
 42
7.336900259657172
  0
LINE
  5
2E4
330
289
100
AcDbEntity
  8
0
  6
Continuous
 62
     0
370
    30
100
AcDbLine
 10
701.978018
 20
306.832846
 30
0.0
 11
690.310756
 21
313.568942
 31
0.0
  0
LINE
  5
2E5
330
289
100
AcDbEntity
  8
0
  6
Continuous
 62
     0
370
    30
100
AcDbLine
 10
688.978017
 20
284.316185
 30
0.0
 11
681.524885
 21
288.619253
 31
0.0
  0
LWPOLYLINE
  5
2E6
330
289
100
AcDbEntity
  8
0
  6
Continuous
 62
     0
370
    30
100
AcDbPolyline
 90
       45
 70
     0
 43
0.0
 10
688.978027
 20
284.316193
 10
689.675293
 20
283.961151
 10
690.407654
 20
283.678223
 10
691.165527
 20
283.468597
 10
691.939697
 20
283.333496
 10
692.720642
 20
283.274078
 10
693.501831
 20
283.28891
 10
694.279053
 20
283.373901
 10
695.048584
 20
283.524902
 10
695.806396
 20
283.737732
 10
696.549072
 20
284.008392
 10
697.274841
 20
284.333923
 10
697.982788
 20
284.711761
 10
698.671692
 20
285.139221
 10
699.340515
 20
285.613678
 10
699.98822
 20
286.132538
 10
700.613708
 20
286.693115
 10
701.215759
 20
287.292755
 10
701.792603
 20
287.928314
 10
702.342224
 20
288.596619
 10
702.862549
 20
289.294403
 10
703.351501
 20
290.018463
 10
703.80719
 20
290.765533
 10
704.227478
 20
291.53241
 10
704.610352
 20
292.315857
 10
704.954163
 20
293.112915
 10
705.257263
 20
293.920685
 10
705.518188
 20
294.736359
 10
705.735352
 20
295.557037
 10
705.907166
 20
296.379883
 10
706.032043
 20
297.202057
 10
706.108582
 20
298.02063
 10
706.13501
 20
298.832825
 10
706.10968
 20
299.635925
 10
706.030273
 20
300.427429
 10
705.894714
 20
301.204895
 10
705.700745
 20
301.96582
 10
705.446411
 20
302.707306
 10
705.130798
 20
303.423798
 10
704.753418
 20
304.108887
 10
704.31366
 20
304.756104
 10
703.811523
 20
305.358978
 10
703.251221
 20
305.910492
 10
702.639221
 20
306.403442
 10
701.978027
 20
306.832855
  0
LWPOLYLINE
  5
2E7
330
289
100
AcDbEntity
  8
0
  6
Continuous
 62
     0
370
    30
100
AcDbPolyline
 90
       33
 70
     0
 43
0.0
 10
686.636841
 20
283.612793
 10
686.258301
 20
283.046875
 10
685.934631
 20
282.450745
 10
685.670776
 20
281.828552
 10
685.47168
 20
281.184723
 10
685.340149
 20
280.52536
 10
685.278381
 20
279.857239
 10
685.288513
 20
279.187134
 10
685.372375
 20
278.521942
 10
685.528992
 20
277.869446
 10
685.755798
 20
277.238007
 10
686.050354
 20
276.635895
 10
686.409607
 20
276.070709
 10
686.828125
 20
275.547089
 10
687.299927
 20
275.068756
 10
687.81897
 20
274.639557
 10
688.379272
 20
274.263275
 10
688.974915
 20
273.943024
 10
689.600403
 20
273.67923
 10
690.250488
 20
273.471863
 10
690.919922
 20
273.320587
 10
691.603821
 20
273.224884
 10
692.297485
 20
273.184113
 10
692.996094
 20
273.197693
 10
693.694885
 20
273.264923
 10
694.388977
 20
273.385193
 10
695.07373
 20
273.557159
 10
695.744263
 20
273.779266
 10
696.395813
 20
274.049927
 10
697.023621
 20
274.367523
 10
697.622864
 20
274.730499
 10
698.188843
 20
275.136658
 10
698.732239
 20
275.597565
  0
ARC
  5
2E8
330
289
100
AcDbEntity
  8
0
  6
Continuous
 62
     0
370
    30
100
AcDbCircle
 10
694.660233
 20
280.586484
 30
0.0
 40
6.439755129374689
100
AcDbArc
 50
309.221636
 51
47.781895
  0
LINE
  5
2E9
330
289
100
AcDbEntity
  8
0
  6
Continuous
 62
     0
370
    30
100
AcDbLine
 10
686.650313
 20
284.468362
 30
0.0
 11
686.710813
 21
283.558373
 31
0.0
  0
LINE
  5
2EA
330
289
100
AcDbEntity
  8
0
  6
Continuous
 62
     0
370
    30
100
AcDbLine
 10
686.208742
 20
285.915027
 30
0.0
 11
686.650313
 21
284.468362
 31
0.0
  0
ARC
  5
2EB
330
289
100
AcDbEntity
  8
0
  6
Continuous
 62
     0
370
    30
100
AcDbCircle
 10
670.199441
 20
284.967342
 30
0.0
 40
10.99788985357399
100
AcDbArc
 50
195.602665
 51
249.833393
  0
ARC
  5
2EC
330
289
100
AcDbEntity
  8
0
  6
Continuous
 62
     0
370
    30
100
AcDbCircle
 10
664.141061
 20
283.66886
 30
0.0
 40
4.828401518946736
100
AcDbArc
 50
90.65874
 51
200.102963
  0
ARC
  5
2ED
330
289
100
AcDbEntity
  8
0
  6
Continuous
 62
     0
370
    30
100
AcDbCircle
 10
668.422986
 20
279.031499
 30
0.0
 40
4.828401195020367
100
AcDbArc
 50
245.332937
 51
354.77717
  0
ARC
  5
2EE
330
289
100
AcDbEntity
  8
0
  6
Continuous
 62
     0
370
    30
100
AcDbCircle
 10
663.824767
 20
295.709681
 30
0.0
 40
7.21745129672813
100
AcDbArc
 50
272.070674
 51
313.40429
  0
ARC
  5
2EF
330
289
100
AcDbEntity
  8
0
  6
Continuous
 62
     0
370
    30
100
AcDbCircle
 10
680.400454
 20
277.758068
 30
0.0
 40
7.217450536935146
100
AcDbArc
 50
132.03161
 51
173.365229
  0
LINE
  5
2F0
330
289
100
AcDbEntity
  8
0
  6
Continuous
 62
     0
370
    30
100
AcDbLine
 10
675.054507
 20
296.255764
 30
0.0
 11
668.78418
 21
290.466035
 31
0.0
  0
LINE
  5
2F1
330
289
100
AcDbEntity
  8
0
  6
Continuous
 62
     0
370
    30
100
AcDbLine
 10
681.83837
 20
288.908711
 30
0.0
 11
675.568079
 21
283.119014
 31
0.0
  0
LWPOLYLINE
  5
2F2
330
289
100
AcDbEntity
  8
0
  6
Continuous
 62
     0
370
    30
100
AcDbPolyline
 90
       56
 70
     0
 43
0.0
 10
686.486206
 20
316.346832
 10
686.967224
 20
316.85556
 10
687.400146
 20
317.402832
 10
687.779419
 20
317.985107
 10
688.099792
 20
318.598755
 10
688.35675
 20
319.238892
 10
688.546753
 20
319.899414
 10
688.666138
 20
320.57431
 10
688.711365
 20
321.257416
 10
688.68042
 20
321.941772
 10
688.573975
 20
322.618805
 10
688.392822
 20
323.279846
 10
688.138062
 20
323.91626
 10
687.812988
 20
324.519897
 10
687.423035
 20
325.083099
 10
686.973755
 20
325.599304
 10
686.471313
 20
326.06543
 10
685.921997
 20
326.479065
 10
685.332031
 20
326.837799
 10
684.707703
 20
327.139252
 10
684.055176
 20
327.381195
 10
683.380005
 20
327.563416
 10
682.687256
 20
327.686829
 10
681.982178
 20
327.752319
 10
681.269836
 20
327.760803
 10
680.555359
 20
327.713226
 10
679.843933
 20
327.610474
 10
679.140686
 20
327.453461
 10
678.450745
 20
327.243225
 10
677.779114
 20
326.981354
 10
677.130737
 20
326.669952
 10
676.510498
 20
326.311157
 10
675.923462
 20
325.907074
 10
675.374512
 20
325.459778
 10
674.868408
 20
324.971375
 10
674.409668
 20
324.44397
 10
674.00293
 20
323.879639
 10
673.652649
 20
323.281097
 10
673.362854
 20
322.653625
 10
673.137207
 20
322.003174
 10
672.979614
 20
321.335693
 10
672.893921
 20
320.657043
 10
672.883728
 20
319.973297
 10
672.950562
 20
319.291687
 10
673.092957
 20
318.621094
 10
673.309387
 20
317.970459
 10
673.598022
 20
317.348633
 10
673.954529
 20
316.763092
 10
674.373352
 20
316.220673
 10
674.848694
 20
315.727081
 10
675.374329
 20
315.285156
 10
675.944031
 20
314.897278
 10
676.551392
 20
314.565887
 10
677.190308
 20
314.293304
 10
677.854492
 20
314.0802
 10
678.548645
 20
313.924011
  0
LINE
  5
2F3
330
289
100
AcDbEntity
  8
0
  6
Continuous
 62
     0
370
    30
100
AcDbLine
 10
687.335161
 20
316.478626
 30
0.0
 11
687.244127
 21
317.193761
 31
0.0
  0
LINE
  5
2F4
330
289
100
AcDbEntity
  8
0
  6
Continuous
 62
     0
370
    30
100
AcDbLine
 10
677.770786
 20
313.559255
 30
0.0
 11
677.447231
 21
314.202955
 31
0.0
  0
LINE
  5
2F5
330
289
100
AcDbEntity
  8
0
  6
Continuous
 62
     0
370
    30
100
AcDbLine
 10
689.27466
 20
310.124487
 30
0.0
 11
687.335161
 21
316.478626
 31
0.0
  0
LINE
  5
2F6
330
289
100
AcDbEntity
  8
0
  6
Continuous
 62
     0
370
    30
100
AcDbLine
 10
679.710194
 20
307.205414
 30
0.0
 11
677.770786
 21
313.559255
 31
0.0
  0
ARC
  5
2F7
330
289
100
AcDbEntity
  8
0
  6
Continuous
 62
     0
370
    30
100
AcDbCircle
 10
703.784286
 20
315.978033
 30
0.0
 40
11.00000684867752
100
AcDbArc
 50
16.973984
 51
69.827593
  0
ARC
  5
2F8
330
289
100
AcDbEntity
  8
0
  6
Continuous
 62
     0
370
    30
100
AcDbCircle
 10
709.844414
 20
317.278128
 30
0.0
 40
4.828401518946537
100
AcDbArc
 50
270.65874
 51
20.102963
  0
ARC
  5
2F9
330
289
100
AcDbEntity
  8
0
  6
Continuous
 62
     0
370
    30
100
AcDbCircle
 10
705.562489
 20
321.91549
 30
0.0
 40
4.828401195020368
100
AcDbArc
 50
65.332937
 51
174.77717
  0
ARC
  5
2FA
330
289
100
AcDbEntity
  8
0
  6
Continuous
 62
     0
370
    30
100
AcDbCircle
 10
710.160708
 20
305.237307
 30
0.0
 40
7.217451296727171
100
AcDbArc
 50
92.070674
 51
133.40429
  0
ARC
  5
2FB
330
289
100
AcDbEntity
  8
0
  6
Continuous
 62
     0
370
    30
100
AcDbCircle
 10
693.58502
 20
323.18892
 30
0.0
 40
7.217450536935603
100
AcDbArc
 50
312.03161
 51
353.365229
  0
LINE
  5
2FC
330
289
100
AcDbEntity
  8
0
  6
Continuous
 62
     0
370
    30
100
AcDbLine
 10
701.530306
 20
307.091332
 30
0.0
 11
705.201295
 21
310.480954
 31
0.0
  0
LINE
  5
2FD
330
289
100
AcDbEntity
  8
0
  6
Continuous
 62
     0
370
    30
100
AcDbLine
 10
692.46059
 20
312.327735
 30
0.0
 11
698.417396
 21
317.827974
 31
0.0
  0
LINE
  5
2FE
330
289
100
AcDbEntity
  8
0
  6
Continuous
 62
     0
370
    30
100
AcDbLine
 10
673.158452
 20
301.24072
 30
0.0
 11
671.141005
 21
302.394917
 31
0.0
  0
LINE
  5
2FF
330
289
100
AcDbEntity
  8
0
  6
Continuous
 62
     0
370
    30
100
AcDbLine
 10
677.9686
 20
312.911181
 30
0.0
 11
677.40287
 21
313.240785
 31
0.0
  0
LWPOLYLINE
  5
300
330
289
100
AcDbEntity
  8
0
  6
Continuous
 62
     0
370
    30
100
AcDbPolyline
 90
        5
 70
     0
 43
0.0
 10
687.947693
 20
314.471893
 10
688.514832
 20
314.329498
 10
689.070557
 20
314.147675
 10
689.611206
 20
313.927063
 10
690.31073
 20
313.568939
  0
LWPOLYLINE
  5
301
330
289
100
AcDbEntity
  8
0
  6
Continuous
 62
     0
370
    30
100
AcDbPolyline
 90
       21
 70
     0
 43
0.0
 10
673.801758
 20
295.09906
 10
673.510498
 20
295.885498
 10
673.287659
 20
296.694153
 10
673.131104
 20
297.520996
 10
673.03833
 20
298.362732
 10
673.006836
 20
299.216095
 10
673.034058
 20
300.07785
 10
673.117554
 20
300.944794
 10
673.255188
 20
301.813812
 10
673.445129
 20
302.682159
 10
673.685791
 20
303.547058
 10
673.975464
 20
304.405701
 10
674.312317
 20
305.254944
 10
674.694092
 20
306.090637
 10
675.118713
 20
306.908569
 10
675.583862
 20
307.704529
 10
676.087341
 20
308.474792
 10
676.627136
 20
309.215942
 10
677.200989
 20
309.924591
 10
677.806702
 20
310.597351
 10
678.472778
 20
311.259491
  0
ELLIPSE
  5
302
330
289
100
AcDbEntity
  8
0
  6
Continuous
 62
     0
370
     0
100
AcDbEllipse
 10
528.247264
 20
212.495988
 30
0.0
 11
-6.499999999974054
 21
-11.25833024915276
 31
0.0
210
0.0
220
0.0
230
-1.0
 40
0.57735
 41
0.6785303102211919
 42
1.832034531038087
  0
ELLIPSE
  5
303
330
289
100
AcDbEntity
  8
0
  6
Continuous
 62
     0
370
     0
100
AcDbEllipse
 10
528.247264
 20
212.495988
 30
0.0
 11
-6.499999999974054
 21
-11.25833024915276
 31
0.0
210
0.0
220
0.0
230
-1.0
 40
0.57735
 41
2.834008385929915
 42
3.141592676439949
  0
ELLIPSE
  5
304
330
289
100
AcDbEntity
  8
0
  6
Continuous
 62
     0
370
     0
100
AcDbEllipse
 10
521.289546
 20
216.513028
 30
0.0
 11
-3.125051764878465
 21
-5.412748433052289
 31
0.0
210
0.0
220
0.0
230
-1.0
 40
0.57735
 41
0.4942645528313928
 42
2.678732091861697
  0
ELLIPSE
  5
305
330
289
100
AcDbEntity
  8
0
  6
Continuous
 62
     0
370
     0
100
AcDbEllipse
 10
521.289546
 20
216.513028
 30
0.0
 11
-3.125051764878465
 21
-5.412748433052289
 31
0.0
210
0.0
220
0.0
230
-1.0
 40
0.57735
 41
0.1963385387917984
 42
0.4942645528313928
  0
ELLIPSE
  5
306
330
289
100
AcDbEntity
  8
0
  6
Continuous
 62
     0
370
    30
100
AcDbEllipse
 10
518.701322
 20
218.00734
 30
0.0
 11
-3.130940496485168
 21
-5.422948015387234
 31
0.0
210
0.0
220
0.0
230
-1.0
 40
0.57735
 41
0.4942645528313908
 42
3.378022089959249
  0
ELLIPSE
  5
307
330
289
100
AcDbEntity
  8
0
  6
Continuous
 62
     0
370
    30
100
AcDbEllipse
 10
518.701322
 20
218.00734
 30
0.0
 11
-3.130940496485168
 21
-5.422948015387234
 31
0.0
210
0.0
220
0.0
230
-1.0
 40
0.57735
 41
5.854579442978576
 42
6.777449860010977
  0
ELLIPSE
  5
308
330
289
100
AcDbEntity
  8
0
  6
Continuous
 62
     0
370
     0
100
AcDbEllipse
 10
546.245853
 20
224.33984
 30
0.0
 11
-3.391949458402222
 21
3.673510428928191
 31
0.0
210
0.0
220
0.0
230
-1.0
 40
0.387333
 41
-0.0000000256045141
 42
2.464879024606773
  0
ELLIPSE
  5
309
330
289
100
AcDbEntity
  8
0
  6
Continuous
 62
     0
370
     0
100
AcDbEllipse
 10
546.245853
 20
224.33984
 30
0.0
 11
-3.391949458402222
 21
3.673510428928191
 31
0.0
210
0.0
220
0.0
230
-1.0
 40
0.387333
 41
2.464879024606836
 42
3.141592627985339
  0
ELLIPSE
  5
30A
330
289
100
AcDbEntity
  8
0
  6
Continuous
 62
     0
370
     0
100
AcDbEllipse
 10
550.435877
 20
228.208713
 30
0.0
 11
-4.845642083431707
 21
5.247872041325944
 31
0.0
210
0.0
220
0.0
230
-1.0
 40
0.387333
 41
5.946070761502993
 42
8.74806433178636
  0
ELLIPSE
  5
30B
330
289
100
AcDbEntity
  8
0
  6
Continuous
 62
     0
370
     0
100
AcDbEllipse
 10
550.435877
 20
228.208713
 30
0.0
 11
-4.845642083431707
 21
5.247872041325944
 31
0.0
210
0.0
220
0.0
230
-1.0
 40
0.387333
 41
2.464879024606784
 42
3.478707151591612
  0
ELLIPSE
  5
30C
330
289
100
AcDbEntity
  8
0
  6
Continuous
 62
     0
370
     0
100
AcDbEllipse
 10
554.335364
 20
231.809319
 30
0.0
 11
-4.264165033419585
 21
4.618127396366487
 31
0.0
210
0.0
220
0.0
230
-1.0
 40
0.387333
 41
0.6477057659818726
 42
2.464879024606773
  0
ELLIPSE
  5
30D
330
289
100
AcDbEntity
  8
0
  6
Continuous
 62
     0
370
     0
100
AcDbEllipse
 10
554.335364
 20
231.809319
 30
0.0
 11
-4.264165033419585
 21
4.618127396366487
 31
0.0
210
0.0
220
0.0
230
-1.0
 40
0.387333
 41
2.464879024606781
 42
2.4938901283334
  0
ELLIPSE
  5
30E
330
289
100
AcDbEntity
  8
0
  6
Continuous
 62
     0
370
     0
100
AcDbEllipse
 10
526.989482
 20
225.204317
 30
0.0
 11
-4.782187518897425
 21
-1.459685765464951
 31
0.0
210
0.0
220
0.0
230
1.0
 40
0.718777
 41
6.120687387634546
 42
8.44489603236471
  0
ELLIPSE
  5
30F
330
289
100
AcDbEntity
  8
0
  6
Continuous
 62
     0
370
     0
100
AcDbEllipse
 10
526.989482
 20
225.204317
 30
0.0
 11
-4.782187518897425
 21
-1.459685765464951
 31
0.0
210
0.0
220
0.0
230
1.0
 40
0.718777
 41
2.161710725185143
 42
3.304159314188311
  0
LINE
  5
310
330
289
100
AcDbEntity
  8
0
  6
Continuous
 62
     0
370
    30
100
AcDbLine
 10
532.326212
 20
217.262041
 30
0.0
 11
532.48126
 21
217.409225
 31
0.0
  0
LWPOLYLINE
  5
311
330
289
100
AcDbEntity
  8
0
  6
Continuous
 62
     0
370
    30
100
AcDbPolyline
 90
        9
 70
     0
 43
0.0
 10
532.481262
 20
217.409225
 10
532.835449
 20
217.781281
 10
533.138977
 20
218.156189
 10
533.387451
 20
218.529526
 10
533.578064
 20
218.898193
 10
533.708069
 20
219.259293
 10
533.775696
 20
219.61087
 10
533.779785
 20
219.951981
 10
533.709961
 20
220.313782
  0
LWPOLYLINE
  5
312
330
289
100
AcDbEntity
  8
0
  6
Continuous
 62
     0
370
    30
100
AcDbPolyline
 90
       19
 70
     0
 43
0.0
 10
524.145569
 20
217.394577
 10
524.325562
 20
216.924896
 10
524.569275
 20
216.490646
 10
524.873169
 20
216.101227
 10
525.232849
 20
215.765594
 10
525.642334
 20
215.491013
 10
526.094788
 20
215.282928
 10
526.582397
 20
215.143936
 10
527.097534
 20
215.07402
 10
527.632812
 20
215.070938
 10
528.181519
 20
215.131058
 10
528.737488
 20
215.24968
 10
529.295044
 20
215.421631
 10
529.848389
 20
215.641678
 10
530.391724
 20
215.904388
 10
530.918274
 20
216.203873
 10
531.421021
 20
216.534058
 10
531.892578
 20
216.888687
 10
532.326233
 20
217.262039
  0
ELLIPSE
  5
313
330
289
100
AcDbEntity
  8
0
  6
Continuous
 62
     0
370
     0
100
AcDbEllipse
 10
525.733951
 20
229.317658
 30
0.0
 11
-6.831696455567695
 21
-2.085265379235627
 31
0.0
210
0.0
220
0.0
230
1.0
 40
0.718777
 41
0.9509149035841364
 42
2.161710725185104
  0
ELLIPSE
  5
314
330
289
100
AcDbEntity
  8
0
  6
Continuous
 62
     0
370
     0
100
AcDbEllipse
 10
525.733951
 20
229.317658
 30
0.0
 11
-6.831696455567695
 21
-2.085265379235627
 31
0.0
210
0.0
220
0.0
230
1.0
 40
0.718777
 41
2.161710725185125
 42
2.190692742428402
  0
ELLIPSE
  5
315
330
289
100
AcDbEntity
  8
0
  6
Continuous
 62
     0
370
     0
100
AcDbEllipse
 10
524.565478
 20
233.145779
 30
0.0
 11
-6.011892880899124
 21
-1.835033533727215
 31
0.0
210
0.0
220
0.0
230
1.0
 40
0.718777
 41
5.303303378774927
 42
8.444896032364692
  0
ELLIPSE
  5
316
330
289
100
AcDbEntity
  8
0
  6
Continuous
 62
     0
370
     0
100
AcDbEllipse
 10
524.565478
 20
233.145779
 30
0.0
 11
-6.011892880899124
 21
-1.835033533727215
 31
0.0
210
0.0
220
0.0
230
1.0
 40
0.718777
 41
2.161710725185125
 42
5.303303378774927
  0
ELLIPSE
  5
317
330
289
100
AcDbEntity
  8
0
  6
Continuous
 62
     0
370
     0
100
AcDbEllipse
 10
516.612638
 20
196.977901
 30
0.0
 11
3.391949458402222
 21
-3.673510428928191
 31
0.0
210
0.0
220
0.0
230
1.0
 40
0.387333
 41
0.0000000256044546
 42
0.6767136289830118
  0
ELLIPSE
  5
318
330
289
100
AcDbEntity
  8
0
  6
Continuous
 62
     0
370
     0
100
AcDbEllipse
 10
516.612638
 20
196.977901
 30
0.0
 11
3.391949458402222
 21
-3.673510428928191
 31
0.0
210
0.0
220
0.0
230
1.0
 40
0.387333
 41
0.6767136289830198
 42
3.141592911058913
  0
LWPOLYLINE
  5
319
330
289
100
AcDbEntity
  8
0
  6
Continuous
 62
     0
370
    30
100
AcDbPolyline
 90
       21
 70
     0
 43
0.0
 10
526.159241
 20
200.486984
 10
526.016052
 20
200.924393
 10
525.840576
 20
201.40361
 10
525.63501
 20
201.915131
 10
525.400818
 20
202.448639
 10
525.139587
 20
202.993652
 10
524.852173
 20
203.539749
 10
524.539001
 20
204.076691
 10
524.200439
 20
204.594299
 10
523.836975
 20
205.082352
 10
523.449646
 20
205.530472
 10
523.041016
 20
205.928635
 10
522.614929
 20
206.267334
 10
522.177246
 20
206.539032
 10
521.735535
 20
206.738205
 10
521.298523
 20
206.862717
 10
520.875366
 20
206.912933
 10
520.475159
 20
206.8918
 10
520.106567
 20
206.803436
 10
519.777771
 20
206.653076
 10
519.489441
 20
206.439713
  0
LWPOLYLINE
  5
31A
330
289
100
AcDbEntity
  8
0
  6
Continuous
 62
     0
370
    30
100
AcDbPolyline
 90
        7
 70
     0
 43
0.0
 10
526.272827
 20
199.092178
 10
526.339722
 20
199.192764
 10
526.371521
 20
199.342896
 10
526.36969
 20
199.542755
 10
526.335449
 20
199.792145
 10
526.270203
 20
200.090088
 10
526.159241
 20
200.486984
  0
ELLIPSE
  5
31B
330
289
100
AcDbEntity
  8
0
  6
Continuous
 62
     0
370
     0
100
AcDbEllipse
 10
512.422614
 20
193.109027
 30
0.0
 11
4.845642083431707
 21
-5.247872041325945
 31
0.0
210
0.0
220
0.0
230
1.0
 40
0.387333
 41
0.3371131915167513
 42
0.6767136289830145
  0
ELLIPSE
  5
31C
330
289
100
AcDbEntity
  8
0
  6
Continuous
 62
     0
370
     0
100
AcDbEllipse
 10
512.422614
 20
193.109027
 30
0.0
 11
4.845642083431707
 21
-5.247872041325945
 31
0.0
210
0.0
220
0.0
230
1.0
 40
0.387333
 41
0.6767136289830198
 42
2.804479402031752
  0
ELLIPSE
  5
31D
330
289
100
AcDbEntity
  8
0
  6
Continuous
 62
     0
370
     0
100
AcDbEllipse
 10
508.523128
 20
189.508421
 30
0.0
 11
4.264165033419585
 21
-4.618127396366488
 31
0.0
210
0.0
220
0.0
230
1.0
 40
0.387333
 41
5.635465741756685
 42
6.9598989361626
  0
ELLIPSE
  5
31E
330
289
100
AcDbEntity
  8
0
  6
Continuous
 62
     0
370
     0
100
AcDbEllipse
 10
508.523128
 20
189.508421
 30
0.0
 11
4.264165033419585
 21
-4.618127396366488
 31
0.0
210
0.0
220
0.0
230
1.0
 40
0.387333
 41
0.6767136289830198
 42
3.81830628257282
  0
ELLIPSE
  5
31F
330
289
100
AcDbEntity
  8
0
  6
Continuous
 62
     0
370
     0
100
AcDbEllipse
 10
535.869009
 20
196.113424
 30
0.0
 11
4.782187518897425
 21
1.459685765464951
 31
0.0
210
0.0
220
0.0
230
-1.0
 40
0.718777
 41
1.151332336185125
 42
3.141592652537887
  0
ELLIPSE
  5
320
330
289
100
AcDbEntity
  8
0
  6
Continuous
 62
     0
370
     0
100
AcDbEllipse
 10
537.12454
 20
192.000083
 30
0.0
 11
6.831696455567695
 21
2.085265379235627
 31
0.0
210
0.0
220
0.0
230
-1.0
 40
0.718777
 41
5.991231238051035
 42
7.26306723558424
  0
ELLIPSE
  5
321
330
289
100
AcDbEntity
  8
0
  6
Continuous
 62
     0
370
     0
100
AcDbEllipse
 10
537.12454
 20
192.000083
 30
0.0
 11
6.831696455567695
 21
2.085265379235627
 31
0.0
210
0.0
220
0.0
230
-1.0
 40
0.718777
 41
0.9798819284046693
 42
3.885259155683295
  0
ELLIPSE
  5
322
330
289
100
AcDbEntity
  8
0
  6
Continuous
 62
     0
370
     0
100
AcDbEllipse
 10
539.914526
 20
205.759892
 30
0.0
 11
6.500001631229797
 21
11.25833307457059
 31
0.0
210
0.0
220
0.0
230
1.0
 40
0.57735
 41
1.058531359151056
 42
3.141592630739625
  0
ELLIPSE
  5
323
330
289
100
AcDbEntity
  8
0
  6
Continuous
 62
     0
370
     0
100
AcDbEllipse
 10
539.914526
 20
205.759892
 30
0.0
 11
6.500001631229797
 21
11.25833307457059
 31
0.0
210
0.0
220
0.0
230
1.0
 40
0.57735
 41
6.283178126129434
 42
7.341716666330633
  0
ELLIPSE
  5
324
330
289
100
AcDbEntity
  8
0
  6
Continuous
 62
     0
370
     0
100
AcDbEllipse
 10
543.450059
 20
203.71865
 30
0.0
 11
4.000001631229792
 21
6.928206055648387
 31
0.0
210
0.0
220
0.0
230
1.0
 40
0.57735
 41
4.200124012740837
 42
7.341716666330628
  0
ELLIPSE
  5
325
330
289
100
AcDbEntity
  8
0
  6
Continuous
 62
     0
370
     0
100
AcDbEllipse
 10
543.450059
 20
203.71865
 30
0.0
 11
4.000001631229792
 21
6.928206055648387
 31
0.0
210
0.0
220
0.0
230
1.0
 40
0.57735
 41
1.058531359151047
 42
4.200124012740836
  0
ELLIPSE
  5
326
330
289
100
AcDbEntity
  8
0
  6
Continuous
 62
     0
370
    30
100
AcDbEllipse
 10
543.450059
 20
203.71865
 30
0.0
 11
3.550001631229805
 21
6.148783192242413
 31
0.0
210
0.0
220
0.0
230
1.0
 40
0.57735
 41
1.058531359151054
 42
4.200124012740835
  0
ELLIPSE
  5
327
330
289
100
AcDbEntity
  8
0
  6
Continuous
 62
     0
370
    30
100
AcDbEllipse
 10
543.450059
 20
203.71865
 30
0.0
 11
3.500000000000001
 21
6.062177826491071
 31
0.0
210
0.0
220
0.0
230
1.0
 40
0.57735
 41
4.19530760606736
 42
4.218124427553275
  0
ELLIPSE
  5
328
330
289
100
AcDbEntity
  8
0
  6
Continuous
 62
     0
370
    30
100
AcDbEllipse
 10
543.450059
 20
203.71865
 30
0.0
 11
3.500000000000001
 21
6.062177826491071
 31
0.0
210
0.0
220
0.0
230
1.0
 40
0.57735
 41
4.218124427553294
 42
7.33690025965717
  0
LINE
  5
329
330
289
100
AcDbEntity
  8
0
  6
Continuous
 62
     0
370
    30
100
AcDbLine
 10
546.414526
 20
217.018222
 30
0.0
 11
534.747264
 21
223.754319
 31
0.0
  0
LINE
  5
32A
330
289
100
AcDbEntity
  8
0
  6
Continuous
 62
     0
370
    30
100
AcDbLine
 10
533.414525
 20
194.501561
 30
0.0
 11
525.961393
 21
198.804629
 31
0.0
  0
LWPOLYLINE
  5
32B
330
289
100
AcDbEntity
  8
0
  6
Continuous
 62
     0
370
    30
100
AcDbPolyline
 90
       45
 70
     0
 43
0.0
 10
533.414551
 20
194.501556
 10
534.111816
 20
194.14653
 10
534.844116
 20
193.863586
 10
535.602051
 20
193.653976
 10
536.37616
 20
193.51889
 10
537.157166
 20
193.459457
 10
537.938293
 20
193.474289
 10
538.715576
 20
193.55928
 10
539.485107
 20
193.710281
 10
540.24292
 20
193.923096
 10
540.985535
 20
194.193756
 10
541.711365
 20
194.519318
 10
542.41925
 20
194.897141
 10
543.108154
 20
195.3246
 10
543.777039
 20
195.799057
 10
544.424744
 20
196.317902
 10
545.050232
 20
196.878494
 10
545.652283
 20
197.478119
 10
546.229126
 20
198.113693
 10
546.778748
 20
198.781998
 10
547.299072
 20
199.479782
 10
547.788025
 20
200.203827
 10
548.243713
 20
200.950897
 10
548.66394
 20
201.717773
 10
549.046875
 20
202.501221
 10
549.390625
 20
203.298279
 10
549.693787
 20
204.106064
 10
549.954712
 20
204.921738
 10
550.171814
 20
205.742432
 10
550.343628
 20
206.565277
 10
550.468567
 20
207.387421
 10
550.545044
 20
208.206024
 10
550.571533
 20
209.018204
 10
550.546143
 20
209.821304
 10
550.466797
 20
210.612823
 10
550.331177
 20
211.390274
 10
550.137268
 20
212.151199
 10
549.882935
 20
212.89267
 10
549.567322
 20
213.609161
 10
549.189941
 20
214.29425
 10
548.750183
 20
214.941483
 10
548.247986
 20
215.544342
 10
547.687683
 20
216.095856
 10
547.075684
 20
216.588821
 10
546.414551
 20
217.018219
  0
LWPOLYLINE
  5
32C
330
289
100
AcDbEntity
  8
0
  6
Continuous
 62
     0
370
    30
100
AcDbPolyline
 90
       33
 70
     0
 43
0.0
 10
531.073303
 20
193.798187
 10
530.694824
 20
193.232269
 10
530.371094
 20
192.636124
 10
530.1073
 20
192.013947
 10
529.908142
 20
191.370117
 10
529.776611
 20
190.710754
 10
529.714844
 20
190.042618
 10
529.725037
 20
189.372513
 10
529.808899
 20
188.707306
 10
529.965454
 20
188.054825
 10
530.192322
 20
187.42337
 10
530.486877
 20
186.821259
 10
530.84613
 20
186.256088
 10
531.264648
 20
185.732452
 10
531.73645
 20
185.254135
 10
532.255493
 20
184.824951
 10
532.815796
 20
184.448654
 10
533.411438
 20
184.128387
 10
534.036926
 20
183.864624
 10
534.687012
 20
183.657227
 10
535.356445
 20
183.505966
 10
536.040344
 20
183.410263
 10
536.734009
 20
183.369507
 10
537.432617
 20
183.383057
 10
538.131348
 20
183.450317
 10
538.8255
 20
183.570572
 10
539.510193
 20
183.742538
 10
540.180725
 20
183.964645
 10
540.832275
 20
184.235291
 10
541.460083
 20
184.552902
 10
542.059387
 20
184.915863
 10
542.625366
 20
185.322021
 10
543.168762
 20
185.782944
  0
ARC
  5
32D
330
289
100
AcDbEntity
  8
0
  6
Continuous
 62
     0
370
    30
100
AcDbCircle
 10
539.096741
 20
190.77186
 30
0.0
 40
6.43975512937493
100
AcDbArc
 50
309.221636
 51
47.781895
  0
LINE
  5
32E
330
289
100
AcDbEntity
  8
0
  6
Continuous
 62
     0
370
    30
100
AcDbLine
 10
531.086821
 20
194.653738
 30
0.0
 11
531.147321
 21
193.743749
 31
0.0
  0
LINE
  5
32F
330
289
100
AcDbEntity
  8
0
  6
Continuous
 62
     0
370
    30
100
AcDbLine
 10
530.64525
 20
196.100403
 30
0.0
 11
531.086821
 21
194.653738
 31
0.0
  0
ARC
  5
330
330
289
100
AcDbEntity
  8
0
  6
Continuous
 62
     0
370
    30
100
AcDbCircle
 10
514.635949
 20
195.152718
 30
0.0
 40
10.99788985357424
100
AcDbArc
 50
195.602665
 51
249.833393
  0
ARC
  5
331
330
289
100
AcDbEntity
  8
0
  6
Continuous
 62
     0
370
    30
100
AcDbCircle
 10
508.577569
 20
193.854236
 30
0.0
 40
4.828401518946545
100
AcDbArc
 50
90.65874
 51
200.102963
  0
ARC
  5
332
330
289
100
AcDbEntity
  8
0
  6
Continuous
 62
     0
370
    30
100
AcDbCircle
 10
512.859494
 20
189.216875
 30
0.0
 40
4.828401195020476
100
AcDbArc
 50
245.332937
 51
354.77717
  0
ARC
  5
333
330
289
100
AcDbEntity
  8
0
  6
Continuous
 62
     0
370
    30
100
AcDbCircle
 10
508.261275
 20
205.895057
 30
0.0
 40
7.217451296729067
100
AcDbArc
 50
272.070674
 51
313.40429
  0
ARC
  5
334
330
289
100
AcDbEntity
  8
0
  6
Continuous
 62
     0
370
    30
100
AcDbCircle
 10
524.836963
 20
187.943444
 30
0.0
 40
7.217450536935763
100
AcDbArc
 50
132.03161
 51
173.365229
  0
LINE
  5
335
330
289
100
AcDbEntity
  8
0
  6
Continuous
 62
     0
370
    30
100
AcDbLine
 10
519.491015
 20
206.44114
 30
0.0
 11
513.220688
 21
200.651411
 31
0.0
  0
LINE
  5
336
330
289
100
AcDbEntity
  8
0
  6
Continuous
 62
     0
370
    30
100
AcDbLine
 10
526.274878
 20
199.094087
 30
0.0
 11
520.004587
 21
193.30439
 31
0.0
  0
LWPOLYLINE
  5
337
330
289
100
AcDbEntity
  8
0
  6
Continuous
 62
     0
370
    30
100
AcDbPolyline
 90
       56
 70
     0
 43
0.0
 10
530.922729
 20
226.532211
 10
531.403748
 20
227.040939
 10
531.836609
 20
227.588211
 10
532.215942
 20
228.170486
 10
532.536255
 20
228.784134
 10
532.793274
 20
229.424271
 10
532.983276
 20
230.084808
 10
533.102661
 20
230.759674
 10
533.147888
 20
231.44278
 10
533.116943
 20
232.127136
 10
533.010437
 20
232.804184
 10
532.829346
 20
233.465225
 10
532.574524
 20
234.101639
 10
532.249512
 20
234.705261
 10
531.859497
 20
235.268463
 10
531.410217
 20
235.784683
 10
530.907837
 20
236.250793
 10
530.358521
 20
236.664429
 10
529.768555
 20
237.023163
 10
529.144226
 20
237.324615
 10
528.491699
 20
237.566574
 10
527.816467
 20
237.748795
 10
527.123779
 20
237.872192
 10
526.418701
 20
237.937683
 10
525.70636
 20
237.946182
 10
524.991882
 20
237.89859
 10
524.280457
 20
237.795837
 10
523.577209
 20
237.638855
 10
522.887268
 20
237.428589
 10
522.215637
 20
237.166718
 10
521.5672
 20
236.855331
 10
520.947021
 20
236.496536
 10
520.359985
 20
236.092438
 10
519.811035
 20
235.645142
 10
519.304871
 20
235.156754
 10
518.84613
 20
234.629333
 10
518.439453
 20
234.065002
 10
518.089172
 20
233.466461
 10
517.799316
 20
232.839005
 10
517.57373
 20
232.188553
 10
517.416138
 20
231.521057
 10
517.330383
 20
230.842438
 10
517.320251
 20
230.158676
 10
517.387024
 20
229.477066
 10
517.529419
 20
228.806473
 10
517.745911
 20
228.155853
 10
518.034546
 20
227.533997
 10
518.391052
 20
226.948456
 10
518.809875
 20
226.406052
 10
519.285217
 20
225.91246
 10
519.810852
 20
225.47052
 10
520.380493
 20
225.082657
 10
520.987915
 20
224.751251
 10
521.626831
 20
224.478668
 10
522.291016
 20
224.265579
 10
522.985107
 20
224.10939
  0
LINE
  5
338
330
289
100
AcDbEntity
  8
0
  6
Continuous
 62
     0
370
    30
100
AcDbLine
 10
531.77167
 20
226.664003
 30
0.0
 11
531.680635
 21
227.379137
 31
0.0
  0
LINE
  5
339
330
289
100
AcDbEntity
  8
0
  6
Continuous
 62
     0
370
    30
100
AcDbLine
 10
522.207295
 20
223.744631
 30
0.0
 11
521.883739
 21
224.388332
 31
0.0
  0
LINE
  5
33A
330
289
100
AcDbEntity
  8
0
  6
Continuous
 62
     0
370
    30
100
AcDbLine
 10
533.711168
 20
220.309863
 30
0.0
 11
531.77167
 21
226.664003
 31
0.0
  0
LINE
  5
33B
330
289
100
AcDbEntity
  8
0
  6
Continuous
 62
     0
370
    30
100
AcDbLine
 10
524.146702
 20
217.39079
 30
0.0
 11
522.207295
 21
223.744631
 31
0.0
  0
ARC
  5
33C
330
289
100
AcDbEntity
  8
0
  6
Continuous
 62
     0
370
    30
100
AcDbCircle
 10
548.220795
 20
226.163409
 30
0.0
 40
11.00000684867805
100
AcDbArc
 50
16.973984
 51
69.827593
  0
ARC
  5
33D
330
289
100
AcDbEntity
  8
0
  6
Continuous
 62
     0
370
    30
100
AcDbCircle
 10
554.280922
 20
227.463504
 30
0.0
 40
4.828401518946587
100
AcDbArc
 50
270.65874
 51
20.102963
  0
ARC
  5
33E
330
289
100
AcDbEntity
  8
0
  6
Continuous
 62
     0
370
    30
100
AcDbCircle
 10
549.998997
 20
232.100866
 30
0.0
 40
4.828401195020416
100
AcDbArc
 50
65.332937
 51
174.77717
  0
ARC
  5
33F
330
289
100
AcDbEntity
  8
0
  6
Continuous
 62
     0
370
    30
100
AcDbCircle
 10
554.597216
 20
215.422684
 30
0.0
 40
7.217451296728539
100
AcDbArc
 50
92.070674
 51
133.40429
  0
ARC
  5
340
330
289
100
AcDbEntity
  8
0
  6
Continuous
 62
     0
370
    30
100
AcDbCircle
 10
538.021529
 20
233.374296
 30
0.0
 40
7.217450536936488
100
AcDbArc
 50
312.03161
 51
353.365229
  0
LINE
  5
341
330
289
100
AcDbEntity
  8
0
  6
Continuous
 62
     0
370
    30
100
AcDbLine
 10
545.966814
 20
217.276708
 30
0.0
 11
549.637803
 21
220.66633
 31
0.0
  0
LINE
  5
342
330
289
100
AcDbEntity
  8
0
  6
Continuous
 62
     0
370
    30
100
AcDbLine
 10
536.897098
 20
222.513111
 30
0.0
 11
542.853904
 21
228.01335
 31
0.0
  0
LINE
  5
343
330
289
100
AcDbEntity
  8
0
  6
Continuous
 62
     0
370
    30
100
AcDbLine
 10
517.59496
 20
211.426096
 30
0.0
 11
515.577513
 21
212.580294
 31
0.0
  0
LINE
  5
344
330
289
100
AcDbEntity
  8
0
  6
Continuous
 62
     0
370
    30
100
AcDbLine
 10
522.405109
 20
223.096557
 30
0.0
 11
521.839378
 21
223.426161
 31
0.0
  0
LWPOLYLINE
  5
345
330
289
100
AcDbEntity
  8
0
  6
Continuous
 62
     0
370
    30
100
AcDbPolyline
 90
        5
 70
     0
 43
0.0
 10
532.384216
 20
224.657272
 10
532.951355
 20
224.514862
 10
533.507019
 20
224.333038
 10
534.047729
 20
224.112457
 10
534.747253
 20
223.754318
  0
LWPOLYLINE
  5
346
330
289
100
AcDbEntity
  8
0
  6
Continuous
 62
     0
370
    30
100
AcDbPolyline
 90
       21
 70
     0
 43
0.0
 10
518.238281
 20
205.284424
 10
517.947021
 20
206.070862
 10
517.724121
 20
206.879547
 10
517.567566
 20
207.70636
 10
517.474854
 20
208.548096
 10
517.443359
 20
209.401474
 10
517.470581
 20
210.263245
 10
517.554077
 20
211.130157
 10
517.69165
 20
211.999191
 10
517.881653
 20
212.867538
 10
518.122314
 20
213.732437
 10
518.411987
 20
214.59108
 10
518.748779
 20
215.440308
 10
519.130615
 20
216.276001
 10
519.555176
 20
217.093933
 10
520.020325
 20
217.889908
 10
520.523865
 20
218.660156
 10
521.06366
 20
219.401306
 10
521.637451
 20
220.109955
 10
522.243225
 20
220.782715
 10
522.909241
 20
221.44487
  0
ARC
  5
347
330
289
100
AcDbEntity
  8
0
  6
Continuous
 62
     0
370
    30
100
AcDbCircle
 10
594.173614
 20
257.865495
 30
0.0
 40
5.497157940475692
100
AcDbArc
 50
174.169583
 51
234.578952
  0
LWPOLYLINE
  5
348
330
289
100
AcDbEntity
  8
0
  6
Continuous
 62
     0
370
    30
100
AcDbPolyline
 90
       29
 70
     0
 43
0.0
 10
588.704895
 20
258.42392
 10
588.732422
 20
259.19458
 10
588.814758
 20
259.991547
 10
588.951355
 20
260.809204
 10
589.141235
 20
261.641754
 10
589.383057
 20
262.483307
 10
589.67511
 20
263.327911
 10
590.01532
 20
264.169586
 10
590.401306
 20
265.00238
 10
590.830261
 20
265.820404
 10
591.299255
 20
266.617889
 10
591.804932
 20
267.38916
 10
592.343689
 20
268.128784
 10
592.911743
 20
268.831512
 10
593.505066
 20
269.492401
 10
594.119446
 20
270.10672
 10
594.750488
 20
270.670197
 10
595.39386
 20
271.178772
 10
596.044922
 20
271.628906
 10
596.699097
 20
272.017365
 10
597.351746
 20
272.341461
 10
597.99823
 20
272.598846
 10
598.633972
 20
272.78772
 10
599.254517
 20
272.906738
 10
599.855469
 20
272.955078
 10
600.432556
 20
272.932373
 10
600.981689
 20
272.838806
 10
601.499023
 20
272.675049
 10
601.987549
 20
272.438324
  0
LWPOLYLINE
  5
349
330
289
100
AcDbEntity
  8
0
  6
Continuous
 62
     0
370
     0
100
AcDbPolyline
 90
       29
 70
     0
 43
0.0
 10
609.341003
 20
268.19281
 10
608.859802
 20
268.427002
 10
608.343079
 20
268.592133
 10
607.794373
 20
268.687073
 10
607.217712
 20
268.711121
 10
606.617065
 20
268.664093
 10
605.996704
 20
268.546326
 10
605.361023
 20
268.358704
 10
604.7146
 20
268.102478
 10
604.06189
 20
267.779541
 10
603.407593
 20
267.39209
 10
602.756348
 20
266.942963
 10
602.112671
 20
266.435242
 10
601.481262
 20
265.872589
 10
600.866394
 20
265.258972
 10
600.272644
 20
264.598724
 10
599.704041
 20
263.896515
 10
599.164673
 20
263.157318
 10
598.658325
 20
262.386383
 10
598.18866
 20
261.589142
 10
597.758911
 20
260.77124
 10
597.372131
 20
259.938477
 10
597.031128
 20
259.09671
 10
596.738281
 20
258.251953
 10
596.495667
 20
257.410156
 10
596.304932
 20
256.577271
 10
596.167542
 20
255.759216
 10
596.084351
 20
254.961761
 10
596.05603
 20
254.179733
  0
ARC
  5
34A
330
289
100
AcDbEntity
  8
0
  6
Continuous
 62
     0
370
     0
100
AcDbCircle
 10
601.527948
 20
253.622198
 30
0.0
 40
5.500227766853168
100
AcDbArc
 50
174.18222
 51
234.503523
  0
LWPOLYLINE
  5
34B
330
289
100
AcDbEntity
  8
0
  6
Continuous
 62
     0
370
     0
100
AcDbPolyline
 90
       29
 70
     0
 43
0.0
 10
719.374451
 20
181.61702
 10
719.361938
 20
181.110992
 10
719.269714
 20
180.604324
 10
719.098572
 20
180.100677
 10
718.84967
 20
179.603699
 10
718.524902
 20
179.117035
 10
718.126526
 20
178.64418
 10
717.657471
 20
178.188583
 10
717.121155
 20
177.753555
 10
716.521484
 20
177.342255
 10
715.862793
 20
176.957642
 10
715.149841
 20
176.602539
 10
714.387817
 20
176.27951
 10
713.582275
 20
175.990906
 10
712.739014
 20
175.738831
 10
711.864258
 20
175.525085
 10
710.964233
 20
175.351242
 10
710.045532
 20
175.218552
 10
709.114807
 20
175.127991
 10
708.178833
 20
175.080215
 10
707.244385
 20
175.075562
 10
706.318298
 20
175.114075
 10
705.407227
 20
175.195465
 10
704.517822
 20
175.319138
 10
703.656555
 20
175.484207
 10
702.82959
 20
175.689484
 10
702.04303
 20
175.933456
 10
701.302551
 20
176.214355
 10
700.612427
 20
176.530701
  0
ARC
  5
34C
330
289
100
AcDbEntity
  8
0
  6
Continuous
 62
     0
370
     0
100
AcDbCircle
 10
702.356409
 20
181.232699
 30
0.0
 40
5.015006521750665
100
AcDbArc
 50
189.258278
 51
249.650026
  0
LINE
  5
34D
330
289
100
AcDbEntity
  8
0
  6
Continuous
 62
     0
370
    30
100
AcDbLine
 10
719.374462
 20
181.617002
 30
0.0
 11
719.505454
 21
179.201182
 31
0.0
  0
LINE
  5
34E
330
289
100
AcDbEntity
  8
0
  6
Continuous
 62
     0
370
    30
100
AcDbLine
 10
697.406732
 20
180.425859
 30
0.0
 11
697.537724
 21
178.010039
 31
0.0
  0
LWPOLYLINE
  5
34F
330
289
100
AcDbEntity
  8
0
  6
Continuous
 62
     0
370
    30
100
AcDbPolyline
 90
      114
 70
     0
 43
0.0
 10
609.334473
 20
268.196594
 10
610.552063
 20
267.493408
 10
611.770142
 20
266.789703
 10
612.988525
 20
266.085724
 10
614.207092
 20
265.381683
 10
615.425537
 20
264.677917
 10
616.643799
 20
263.974579
 10
617.861633
 20
263.271973
 10
619.079102
 20
262.570038
 10
620.296448
 20
261.868408
 10
621.514038
 20
261.166779
 10
622.732056
 20
260.464722
 10
623.950867
 20
259.761932
 10
625.170776
 20
259.058044
 10
626.391785
 20
258.352539
 10
627.61322
 20
257.644592
 10
628.830505
 20
256.937927
 10
630.03302
 20
256.245026
 10
631.206909
 20
255.583481
 10
632.336304
 20
254.97374
 10
633.407104
 20
254.435089
 10
634.424988
 20
253.972839
 10
635.402893
 20
253.581741
 10
636.34137
 20
253.255615
 10
637.22052
 20
252.998413
 10
638.0047
 20
252.816681
 10
638.800476
 20
252.681931
 10
639.662109
 20
252.577927
 10
640.593994
 20
252.496902
 10
641.590271
 20
252.432602
 10
642.638672
 20
252.379303
 10
643.710449
 20
252.333115
 10
644.791748
 20
252.291367
 10
645.88147
 20
252.252075
 10
646.978943
 20
252.213318
 10
648.083435
 20
252.173218
 10
649.193298
 20
252.131241
 10
650.30603
 20
252.088104
 10
651.419189
 20
252.044617
 10
652.530273
 20
252.001526
 10
653.638062
 20
251.959106
 10
654.743286
 20
251.916962
 10
655.846802
 20
251.874619
 10
656.949402
 20
251.83165
 10
658.05188
 20
251.787582
 10
659.15509
 20
251.741989
 10
660.258728
 20
251.695053
 10
661.360596
 20
251.648132
 10
662.458313
 20
251.602631
 10
663.5495
 20
251.559998
 10
664.631897
 20
251.521652
 10
665.703491
 20
251.488998
 10
666.80957
 20
251.457809
 10
668.001038
 20
251.414886
 10
669.24408
 20
251.347672
 10
670.540771
 20
251.244019
 10
671.886475
 20
251.089249
 10
673.261597
 20
250.875092
 10
674.646973
 20
250.596832
 10
676.033569
 20
250.25412
 10
677.415955
 20
249.84816
 10
678.788879
 20
249.380417
 10
680.15033
 20
248.854416
 10
681.499512
 20
248.274719
 10
682.835938
 20
247.645599
 10
684.15979
 20
246.968674
 10
685.471863
 20
246.244141
 10
686.772949
 20
245.472229
 10
688.06366
 20
244.653168
 10
689.344788
 20
243.787155
 10
690.614624
 20
242.874893
 10
691.870178
 20
241.917297
 10
693.109253
 20
240.915604
 10
694.331116
 20
239.871323
 10
695.535156
 20
238.785995
 10
696.720642
 20
237.661148
 10
697.886902
 20
236.498337
 10
699.032715
 20
235.299042
 10
700.157043
 20
234.064728
 10
701.258728
 20
232.796906
 10
702.336609
 20
231.49704
 10
703.389465
 20
230.166626
 10
704.41626
 20
228.807144
 10
705.415771
 20
227.420074
 10
706.386902
 20
226.006897
 10
707.32843
 20
224.569183
 10
708.239441
 20
223.108749
 10
709.118713
 20
221.627426
 10
709.965271
 20
220.12706
 10
710.778076
 20
218.609497
 10
711.55603
 20
217.076584
 10
712.298096
 20
215.530136
 10
713.003601
 20
213.972
 10
713.672241
 20
212.403976
 10
714.303772
 20
210.827835
 10
714.897827
 20
209.245407
 10
715.453613
 20
207.658325
 10
715.969299
 20
206.067978
 10
716.442993
 20
204.475662
 10
716.872742
 20
202.882751
 10
717.256714
 20
201.290817
 10
717.593201
 20
199.70163
 10
717.881531
 20
198.118576
 10
718.121704
 20
196.546112
 10
718.317749
 20
194.989594
 10
718.478271
 20
193.455429
 10
718.612122
 20
191.949799
 10
718.730408
 20
190.46991
 10
718.846069
 20
189.001923
 10
718.963013
 20
187.53508
 10
719.077698
 20
186.062439
 10
719.186707
 20
184.583817
 10
719.286682
 20
183.101883
 10
719.374451
 20
181.616974
  0
LWPOLYLINE
  5
350
330
289
100
AcDbEntity
  8
0
  6
Continuous
 62
     0
370
    30
100
AcDbPolyline
 90
      139
 70
     0
 43
0.0
 10
598.333984
 20
249.144318
 10
599.227844
 20
248.628082
 10
600.121277
 20
248.111862
 10
601.014465
 20
247.595657
 10
601.907532
 20
247.079498
 10
602.800537
 20
246.563431
 10
603.693665
 20
246.04744
 10
604.586975
 20
245.53157
 10
605.480652
 20
245.015854
 10
606.374756
 20
244.50029
 10
607.269348
 20
243.984894
 10
608.164307
 20
243.46965
 10
609.059204
 20
242.954529
 10
609.953857
 20
242.439484
 10
610.848083
 20
241.924484
 10
611.741516
 20
241.409485
 10
612.633911
 20
240.894485
 10
613.525024
 20
240.379425
 10
614.414612
 20
239.864288
 10
615.303162
 20
239.348877
 10
616.192749
 20
238.832687
 10
617.085754
 20
238.31517
 10
617.984497
 20
237.795761
 10
618.891235
 20
237.274216
 10
619.807251
 20
236.753067
 10
620.733154
 20
236.236282
 10
621.669739
 20
235.727859
 10
622.617737
 20
235.231766
 10
623.577148
 20
234.751923
 10
624.545105
 20
234.291946
 10
625.517578
 20
233.855316
 10
626.492371
 20
233.44429
 10
627.470093
 20
233.059006
 10
628.451477
 20
232.699448
 10
629.4375
 20
232.36557
 10
630.428894
 20
232.057327
 10
631.426025
 20
231.775085
 10
632.426636
 20
231.52092
 10
633.427734
 20
231.297379
 10
634.425171
 20
231.105576
 10
635.412231
 20
230.943802
 10
636.383057
 20
230.809692
 10
637.335022
 20
230.700302
 10
638.266541
 20
230.612244
 10
639.176941
 20
230.541565
 10
640.065918
 20
230.484207
 10
640.933105
 20
230.436142
 10
641.781067
 20
230.394638
 10
642.61499
 20
230.358231
 10
643.440369
 20
230.32547
 10
644.261597
 20
230.295029
 10
645.079651
 20
230.265961
 10
645.894958
 20
230.237366
 10
646.707642
 20
230.208359
 10
647.518127
 20
230.17868
 10
648.326721
 20
230.148392
 10
649.133728
 20
230.117615
 10
649.939575
 20
230.086441
 10
650.744568
 20
230.054962
 10
651.549133
 20
230.0233
 10
652.353577
 20
229.991547
 10
653.158203
 20
229.959808
 10
653.96344
 20
229.928162
 10
654.769348
 20
229.896606
 10
655.575867
 20
229.865051
 10
656.383118
 20
229.83345
 10
657.190979
 20
229.801697
 10
657.999451
 20
229.769745
 10
658.808594
 20
229.737518
 10
659.618408
 20
229.704941
 10
660.428772
 20
229.671936
 10
661.240112
 20
229.638519
 10
662.054382
 20
229.605164
 10
662.87439
 20
229.57254
 10
663.703003
 20
229.541641
 10
664.542603
 20
229.513687
 10
665.37384
 20
229.489594
 10
666.161011
 20
229.467575
 10
666.898376
 20
229.441956
 10
667.591797
 20
229.40802
 10
668.236511
 20
229.362701
 10
668.804443
 20
229.305511
 10
669.322693
 20
229.230499
 10
669.831665
 20
229.130341
 10
670.363159
 20
228.997238
 10
670.934265
 20
228.822586
 10
671.554993
 20
228.598923
 10
672.228638
 20
228.320892
 10
672.94574
 20
227.99086
 10
673.693359
 20
227.613815
 10
674.463501
 20
227.192551
 10
675.248962
 20
226.729568
 10
676.043579
 20
226.226669
 10
676.845581
 20
225.682953
 10
677.654236
 20
225.096817
 10
678.46875
 20
224.466904
 10
679.287598
 20
223.793808
 10
680.108521
 20
223.079193
 10
680.929016
 20
222.324982
 10
681.746338
 20
221.533127
 10
682.557861
 20
220.705597
 10
683.36084
 20
219.84436
 10
684.153137
 20
218.951309
 10
684.933167
 20
218.028259
 10
685.699341
 20
217.076981
 10
686.450256
 20
216.099289
 10
687.184265
 20
215.09697
 10
687.899963
 20
214.071808
 10
688.595764
 20
213.02565
 10
689.270142
 20
211.960434
 10
689.921509
 20
210.878204
 10
690.54834
 20
209.780991
 10
691.149414
 20
208.670959
 10
691.723816
 20
207.55043
 10
692.270447
 20
206.421707
 10
692.788757
 20
205.287003
 10
693.278442
 20
204.148331
 10
693.739441
 20
203.007675
 10
694.171448
 20
201.867142
 10
694.572937
 20
200.729813
 10
694.941772
 20
199.599289
 10
695.27594
 20
198.479141
 10
695.573486
 20
197.372787
 10
695.833252
 20
196.283356
 10
696.053955
 20
195.213943
 10
696.235474
 20
194.165894
 10
696.38324
 20
193.131424
 10
696.504578
 20
192.099869
 10
696.606812
 20
191.060699
 10
696.697144
 20
190.007935
 10
696.782593
 20
188.94072
 10
696.867249
 20
187.863953
 10
696.952759
 20
186.786057
 10
697.038452
 20
185.711349
 10
697.122253
 20
184.641357
 10
697.202332
 20
183.577393
 10
697.277344
 20
182.520599
 10
697.345764
 20
181.472137
 10
697.406738
 20
180.425842
  0
LINE
  5
351
330
289
100
AcDbEntity
  8
0
  6
Continuous
 62
     0
370
    30
100
AcDbLine
 10
598.334225
 20
249.144181
 30
0.0
 11
590.983068
 21
253.388373
 31
0.0
  0
LINE
  5
352
330
289
100
AcDbEntity
  8
0
  6
Continuous
 62
     0
370
    30
100
AcDbLine
 10
609.334225
 20
268.196739
 30
0.0
 11
601.983068
 21
272.440932
 31
0.0
  0
ELLIPSE
  5
353
330
289
100
AcDbEntity
  8
0
  6
Continuous
 62
     0
370
    30
100
AcDbEllipse
 10
709.952043
 20
160.221746
 30
0.0
 11
11.971568067935
 21
0.8690391128935497
 31
0.0
210
0.0
220
0.0
230
-1.0
 40
0.524834
 41
0.8253847209995523
 42
3.141592659676601
  0
ELLIPSE
  5
354
330
289
100
AcDbEntity
  8
0
  6
Continuous
 62
     0
370
    30
100
AcDbEllipse
 10
709.952043
 20
160.221746
 30
0.0
 11
11.971568067935
 21
0.8690391128935497
 31
0.0
210
0.0
220
0.0
230
-1.0
 40
0.524834
 41
0.0000000060868068
 42
0.8253847209995517
  0
ELLIPSE
  5
355
330
289
100
AcDbEntity
  8
0
  6
Continuous
 62
     0
370
    30
100
AcDbEllipse
 10
709.483669
 20
166.673901
 30
0.0
 11
13.46767910600188
 21
0.9776446858589095
 31
0.0
210
0.0
220
0.0
230
-1.0
 40
0.524834
 41
0.8253847209995525
 42
3.141592659676598
  0
ELLIPSE
  5
356
330
289
100
AcDbEntity
  8
0
  6
Continuous
 62
     0
370
    30
100
AcDbEllipse
 10
709.483669
 20
166.673901
 30
0.0
 11
13.46767910600188
 21
0.9776446858589095
 31
0.0
210
0.0
220
0.0
230
-1.0
 40
0.524834
 41
0.000000006086807
 42
0.825384720999552
  0
ELLIPSE
  5
357
330
289
100
AcDbEntity
  8
0
  6
Continuous
 62
     0
370
     0
100
AcDbEllipse
 10
709.120061
 20
171.682828
 30
0.0
 11
14.96374246737216
 21
1.086246797881318
 31
0.0
210
0.0
220
0.0
230
-1.0
 40
0.524834
 41
0.8253847209995516
 42
3.141592659676596
  0
ELLIPSE
  5
358
330
289
100
AcDbEntity
  8
0
  6
Continuous
 62
     0
370
     0
100
AcDbEllipse
 10
709.120061
 20
171.682828
 30
0.0
 11
14.96374246737216
 21
1.086246797881318
 31
0.0
210
0.0
220
0.0
230
-1.0
 40
0.524834
 41
0.0000003835268294
 42
0.8253847209995513
  0
ELLIPSE
  5
359
330
289
100
AcDbEntity
  8
0
  6
Continuous
 62
     0
370
     0
100
AcDbEllipse
 10
709.058433
 20
172.531799
 30
0.0
 11
14.96374246737198
 21
1.086246797881306
 31
0.0
210
0.0
220
0.0
230
-1.0
 40
0.524834
 41
0.8253847209995527
 42
3.141601246742081
  0
ELLIPSE
  5
35A
330
289
100
AcDbEntity
  8
0
  6
Continuous
 62
     0
370
     0
100
AcDbEllipse
 10
709.058433
 20
172.531799
 30
0.0
 11
14.96374246737198
 21
1.086246797881306
 31
0.0
210
0.0
220
0.0
230
-1.0
 40
0.524834
 41
6.238415322343476
 42
7.108570028179138
  0
ELLIPSE
  5
35B
330
289
100
AcDbEntity
  8
0
  6
Continuous
 62
     0
370
     0
100
AcDbEllipse
 10
708.96599
 20
173.805255
 30
0.0
 11
13.46767910600398
 21
0.9776446858590623
 31
0.0
210
0.0
220
0.0
230
-1.0
 40
0.524834
 41
0.8253847209995521
 42
3.528863986973557
  0
ELLIPSE
  5
35C
330
289
100
AcDbEntity
  8
0
  6
Continuous
 62
     0
370
     0
100
AcDbEllipse
 10
708.96599
 20
173.805255
 30
0.0
 11
13.46767910600398
 21
0.9776446858590623
 31
0.0
210
0.0
220
0.0
230
-1.0
 40
0.524834
 41
5.895913985969399
 42
7.108570028179138
  0
ELLIPSE
  5
35D
330
289
100
AcDbEntity
  8
0
  6
Continuous
 62
     0
370
     0
100
AcDbEllipse
 10
708.904362
 20
174.654226
 30
0.0
 11
12.47030353175787
 21
0.905243277844177
 31
0.0
210
0.0
220
0.0
230
-1.0
 40
0.524834
 41
0.8253847209995517
 42
3.141592829891287
  0
ELLIPSE
  5
35E
330
289
100
AcDbEntity
  8
0
  6
Continuous
 62
     0
370
     0
100
AcDbEllipse
 10
708.904362
 20
174.654226
 30
0.0
 11
12.47030353175787
 21
0.905243277844177
 31
0.0
210
0.0
220
0.0
230
-1.0
 40
0.524834
 41
0.0000000060479774
 42
0.8253847209995512
  0
ELLIPSE
  5
35F
330
289
100
AcDbEntity
  8
0
  6
Continuous
 62
     0
370
    30
100
AcDbEllipse
 10
708.571568
 20
179.238668
 30
0.0
 11
12.47030353175779
 21
0.905243277844161
 31
0.0
210
0.0
220
0.0
230
-1.0
 40
0.524834
 41
0.8253847209995507
 42
3.141592659676599
  0
ELLIPSE
  5
360
330
289
100
AcDbEntity
  8
0
  6
Continuous
 62
     0
370
    30
100
AcDbEllipse
 10
708.571568
 20
179.238668
 30
0.0
 11
12.47030353175779
 21
0.905243277844161
 31
0.0
210
0.0
220
0.0
230
-1.0
 40
0.524834
 41
0.0000000060868031
 42
0.8253847209995502
  0
ELLIPSE
  5
361
330
289
100
AcDbEntity
  8
0
  6
Continuous
 62
     0
370
    30
100
AcDbEllipse
 10
708.565405
 20
179.323565
 30
0.0
 11
12.37056597284698
 21
0.8980031369347863
 31
0.0
210
0.0
220
0.0
230
-1.0
 40
0.524834
 41
0.8253847209995511
 42
3.615810847755572
  0
ELLIPSE
  5
362
330
289
100
AcDbEntity
  8
0
  6
Continuous
 62
     0
370
    30
100
AcDbEllipse
 10
708.565405
 20
179.323565
 30
0.0
 11
12.37056597284698
 21
0.8980031369347863
 31
0.0
210
0.0
220
0.0
230
-1.0
 40
0.524834
 41
5.797216536765548
 42
7.108570028179137
  0
LINE
  5
363
330
289
100
AcDbEntity
  8
0
  6
Continuous
 62
     0
370
    30
100
AcDbLine
 10
696.101265
 20
178.333425
 30
0.0
 11
696.434058
 21
173.748983
 31
0.0
  0
LINE
  5
364
330
289
100
AcDbEntity
  8
0
  6
Continuous
 62
     0
370
    30
100
AcDbLine
 10
721.041872
 20
180.143911
 30
0.0
 11
721.374665
 21
175.559469
 31
0.0
  0
LWPOLYLINE
  5
365
330
289
100
AcDbEntity
  8
0
  6
Continuous
 62
     0
370
    30
100
AcDbPolyline
 90
       10
 70
     0
 43
0.0
 10
721.178894
 20
178.256317
 10
721.69873
 20
177.843994
 10
722.173584
 20
177.405426
 10
722.600708
 20
176.940353
 10
722.977417
 20
176.448547
 10
723.301025
 20
175.931
 10
723.569214
 20
175.391449
 10
723.779419
 20
174.83403
 10
723.929321
 20
174.262848
 10
724.022156
 20
173.618042
  0
LWPOLYLINE
  5
366
330
289
100
AcDbEntity
  8
0
  6
Continuous
 62
     0
370
    30
100
AcDbPolyline
 90
       10
 70
     0
 43
0.0
 10
694.094666
 20
171.445557
 10
694.086304
 20
172.03447
 10
694.144714
 20
172.623566
 10
694.267273
 20
173.208282
 10
694.451233
 20
173.784027
 10
694.69397
 20
174.346237
 10
694.992798
 20
174.890701
 10
695.345215
 20
175.415955
 10
695.748718
 20
175.921814
 10
696.238342
 20
176.445496
  0
ARC
  5
367
330
289
100
AcDbEntity
  8
0
  6
Continuous
 62
     0
370
    30
100
AcDbCircle
 10
716.25151
 20
173.037608
 30
0.0
 40
7.836896447157662
100
AcDbArc
 50
293.543125
 51
358.036346
  0
LWPOLYLINE
  5
368
330
289
100
AcDbEntity
  8
0
  6
Continuous
 62
     0
370
    30
100
AcDbPolyline
 90
       35
 70
     0
 43
0.0
 10
694.156311
 20
170.596588
 10
694.24353
 20
169.956726
 10
694.409058
 20
169.328659
 10
694.648987
 20
168.718979
 10
694.95929
 20
168.134247
 10
695.335999
 20
167.578659
 10
695.775024
 20
167.052979
 10
696.272278
 20
166.557755
 10
696.82373
 20
166.093475
 10
697.425964
 20
165.660553
 10
698.076355
 20
165.259354
 10
698.772339
 20
164.890152
 10
699.51123
 20
164.553284
 10
700.290405
 20
164.249069
 10
701.107239
 20
163.977859
 10
701.958252
 20
163.740128
 10
702.839905
 20
163.536469
 10
703.748352
 20
163.367462
 10
704.680054
 20
163.233673
 10
705.631287
 20
163.135696
 10
706.598145
 20
163.073914
 10
707.576294
 20
163.048279
 10
708.561279
 20
163.058746
 10
709.548706
 20
163.105209
 10
710.534241
 20
163.187592
 10
711.51355
 20
163.305573
 10
712.482666
 20
163.458618
 10
713.437378
 20
163.646225
 10
714.373779
 20
163.867859
 10
715.287598
 20
164.122818
 10
716.174927
 20
164.409821
 10
717.031616
 20
164.727478
 10
717.853699
 20
165.074417
 10
718.637024
 20
165.449234
 10
719.381897
 20
165.853058
  0
LINE
  5
369
330
289
100
AcDbEntity
  8
0
  6
Continuous
 62
     0
370
    30
100
AcDbLine
 10
695.92935
 20
166.889777
 30
0.0
 11
696.01599
 21
165.696256
 31
0.0
  0
LINE
  5
36A
330
289
100
AcDbEntity
  8
0
  6
Continuous
 62
     0
370
    30
100
AcDbLine
 10
722.864885
 20
168.842628
 30
0.0
 11
722.951348
 21
167.651546
 31
0.0
  0
LINE
  5
36B
330
289
100
AcDbEntity
  8
0
  6
Continuous
 62
     0
370
    30
100
AcDbLine
 10
697.747142
 20
162.567018
 30
0.0
 11
697.980475
 21
159.352707
 31
0.0
  0
LINE
  5
36C
330
289
100
AcDbEntity
  8
0
  6
Continuous
 62
     0
370
    30
100
AcDbLine
 10
721.690278
 20
164.305096
 30
0.0
 11
721.923611
 21
161.090785
 31
0.0
  0
ENDBLK
  5
36E
330
289
100
AcDbEntity
  8
0
100
AcDbBlockEnd
  0
BLOCK
  5
3D9
330
370
100
AcDbEntity
  8
0
100
AcDbBlockBegin
  2
e
 70
     0
 10
68.427536
 20
0.0
 30
0.0
  3
e
  1

  0
LINE
  5
371
330
370
100
AcDbEntity
  8
0
  6
Continuous
 62
     0
370
    30
100
AcDbLine
 10
-8.357952
 20
491.128218
 30
0.0
 11
-8.357952
 21
475.806591
 31
0.0
  0
LINE
  5
372
330
370
100
AcDbEntity
  8
0
  6
Continuous
 62
     0
370
    30
100
AcDbLine
 10
-8.357952
 20
475.806591
 30
0.0
 11
-8.357952
 21
460.484964
 31
0.0
  0
LINE
  5
373
330
370
100
AcDbEntity
  8
0
  6
Continuous
 62
     0
370
     0
100
AcDbLine
 10
-1.71896
 20
499.011596
 30
0.0
 11
-1.71896
 21
475.806591
 31
0.0
  0
LINE
  5
374
330
370
100
AcDbEntity
  8
0
  6
Continuous
 62
     0
370
     0
100
AcDbLine
 10
-1.71896
 20
475.806591
 30
0.0
 11
-1.71896
 21
452.601586
 31
0.0
  0
LINE
  5
375
330
370
100
AcDbEntity
  8
0
  6
Continuous
 62
     0
370
     0
100
AcDbLine
 10
22.160145
 20
503.134151
 30
0.0
 11
22.160145
 21
475.806591
 31
0.0
  0
LINE
  5
376
330
370
100
AcDbEntity
  8
0
  6
Continuous
 62
     0
370
     0
100
AcDbLine
 10
22.160145
 20
475.806591
 30
0.0
 11
22.160145
 21
448.479031
 31
0.0
  0
LINE
  5
377
330
370
100
AcDbEntity
  8
0
  6
Continuous
 62
     0
370
     0
100
AcDbLine
 10
27.160407
 20
505.810952
 30
0.0
 11
27.160407
 21
475.806591
 31
0.0
  0
LINE
  5
378
330
370
100
AcDbEntity
  8
0
  6
Continuous
 62
     0
370
     0
100
AcDbLine
 10
27.160407
 20
475.806591
 30
0.0
 11
27.160407
 21
445.80223
 31
0.0
  0
LINE
  5
379
330
370
100
AcDbEntity
  8
0
  6
Continuous
 62
     0
370
    30
100
AcDbLine
 10
33.042048
 20
508.306591
 30
0.0
 11
33.042048
 21
475.806591
 31
0.0
  0
LINE
  5
37A
330
370
100
AcDbEntity
  8
0
  6
Continuous
 62
     0
370
    30
100
AcDbLine
 10
33.042048
 20
475.806591
 30
0.0
 11
33.042048
 21
443.306591
 31
0.0
  0
ARC
  5
37B
330
370
100
AcDbEntity
  8
0
  6
Continuous
 62
     0
370
    30
100
AcDbCircle
 10
32.967608
 20
451.309802
 30
0.0
 40
8.003557317581398
100
AcDbArc
 50
223.483091
 51
270.532911
  0
ARC
  5
37C
330
370
100
AcDbEntity
  8
0
  6
Continuous
 62
     0
370
    30
100
AcDbCircle
 10
32.967608
 20
500.30338
 30
0.0
 40
8.003557317581405
100
AcDbArc
 50
89.467089
 51
136.516909
  0
ARC
  5
37D
330
370
100
AcDbEntity
  8
0
  6
Continuous
 62
     0
370
    30
100
AcDbCircle
 10
20.627767
 20
439.607908
 30
0.0
 40
9.002500051659954
100
AcDbArc
 50
43.477282
 51
80.199571
  0
ARC
  5
37E
330
370
100
AcDbEntity
  8
0
  6
Continuous
 62
     0
370
    30
100
AcDbCircle
 10
20.627767
 20
512.005274
 30
0.0
 40
9.00250005165995
100
AcDbArc
 50
279.800429
 51
316.522718
  0
LINE
  5
37F
330
370
100
AcDbEntity
  8
0
  6
Continuous
 62
     0
370
    30
100
AcDbLine
 10
-1.71896
 20
452.601586
 30
0.0
 11
22.160145
 21
448.479031
 31
0.0
  0
LINE
  5
380
330
370
100
AcDbEntity
  8
0
  6
Continuous
 62
     0
370
    30
100
AcDbLine
 10
-1.71896
 20
499.011596
 30
0.0
 11
22.160145
 21
503.134151
 31
0.0
  0
ARC
  5
381
330
370
100
AcDbEntity
  8
0
  6
Continuous
 62
     0
370
    30
100
AcDbCircle
 10
-0.356781
 20
460.48595
 30
0.0
 40
8.001170850855836
100
AcDbArc
 50
180.014441
 51
260.197794
  0
ARC
  5
382
330
370
100
AcDbEntity
  8
0
  6
Continuous
 62
     0
370
    30
100
AcDbCircle
 10
-0.356781
 20
491.127232
 30
0.0
 40
8.00117085085585
100
AcDbArc
 50
99.802206
 51
179.985559
  0
LINE
  5
383
330
370
100
AcDbEntity
  8
0
  6
Continuous
 62
     0
370
     0
100
AcDbLine
 10
-16.720678
 20
485.270877
 30
0.0
 11
-16.720678
 21
478.523204
 31
0.0
  0
LINE
  5
384
330
370
100
AcDbEntity
  8
0
  6
Continuous
 62
     0
370
     0
100
AcDbLine
 10
-16.720678
 20
478.523204
 30
0.0
 11
-16.720678
 21
466.342305
 31
0.0
  0
LINE
  5
385
330
370
100
AcDbEntity
  8
0
  6
Continuous
 62
     0
370
    30
100
AcDbLine
 10
-21.857952
 20
477.397543
 30
0.0
 11
-21.511469
 21
478.340527
 31
0.0
  0
LINE
  5
386
330
370
100
AcDbEntity
  8
0
  6
Continuous
 62
     0
370
     0
100
AcDbLine
 10
-21.857952
 20
477.397543
 30
0.0
 11
-21.857952
 21
464.155478
 31
0.0
  0
ARC
  5
387
330
370
100
AcDbEntity
  8
0
  6
Continuous
 62
     0
370
    30
100
AcDbCircle
 10
-22.574326
 20
463.146391
 30
0.0
 40
1.237517207946775
100
AcDbArc
 50
10.607515
 51
54.628209
  0
LINE
  5
388
330
370
100
AcDbEntity
  8
0
  6
Continuous
 62
     0
370
     0
100
AcDbLine
 10
-12.018253
 20
482.056695
 30
0.0
 11
-12.018253
 21
477.60061
 31
0.0
  0
LINE
  5
389
330
370
100
AcDbEntity
  8
0
  6
Continuous
 62
     0
370
     0
100
AcDbLine
 10
-12.018253
 20
477.60061
 30
0.0
 11
-12.018253
 21
469.556488
 31
0.0
  0
ARC
  5
38A
330
370
100
AcDbEntity
  8
0
  6
Continuous
 62
     0
370
    30
100
AcDbCircle
 10
-26.375238
 20
479.410422
 30
0.0
 40
4.945457445202185
100
AcDbArc
 50
192.514525
 51
335.9825
  0
ELLIPSE
  5
38B
330
370
100
AcDbEntity
  8
0
  6
Continuous
 62
     0
370
     0
100
AcDbEllipse
 10
-26.357955
 20
485.513423
 30
0.0
 11
-6.28571428568847
 21
-9.169342511737672E-7
 31
0.0
210
0.0
220
0.0
230
1.0
 40
0.957919
 41
3.141592501305642
 42
6.283185154895428
  0
ELLIPSE
  5
38C
330
370
100
AcDbEntity
  8
0
  6
Continuous
 62
     0
370
     0
100
AcDbEllipse
 10
-26.357955
 20
485.513423
 30
0.0
 11
-6.28571428568847
 21
-9.169342511737672E-7
 31
0.0
210
0.0
220
0.0
230
1.0
 40
0.957919
 41
6.283185154895433
 42
9.42477780848523
  0
ELLIPSE
  5
38D
330
370
100
AcDbEntity
  8
0
  6
Continuous
 62
     0
370
     0
100
AcDbEllipse
 10
-26.357954
 20
496.760439
 30
0.0
 11
-4.999999999979931
 21
6.549009873598842E-8
 31
0.0
210
0.0
220
0.0
230
-1.0
 40
0.287038
 41
-0.0000000456315901
 42
3.141592607958196
  0
LINE
  5
38E
330
370
100
AcDbEntity
  8
0
  6
Continuous
 62
     0
370
    30
100
AcDbLine
 10
-31.357954
 20
490.685123
 30
0.0
 11
-31.357954
 21
496.760439
 31
0.0
  0
ELLIPSE
  5
38F
330
370
100
AcDbEntity
  8
0
  6
Continuous
 62
     0
370
     0
100
AcDbEllipse
 10
-26.357954
 20
502.686027
 30
0.0
 11
-7.142857142828414
 21
9.355728390855413E-8
 31
0.0
210
0.0
220
0.0
230
-1.0
 40
0.287038
 41
6.045028893823659
 42
6.283185261547958
  0
ELLIPSE
  5
390
330
370
100
AcDbEntity
  8
0
  6
Continuous
 62
     0
370
     0
100
AcDbEllipse
 10
-26.357954
 20
502.686027
 30
0.0
 11
-7.142857142828414
 21
9.355728390855413E-8
 31
0.0
210
0.0
220
0.0
230
-1.0
 40
0.287038
 41
3.141592607958205
 42
3.379748975682481
  0
ELLIPSE
  5
391
330
370
100
AcDbEntity
  8
0
  6
Continuous
 62
     0
370
     0
100
AcDbEllipse
 10
-26.357954
 20
502.686027
 30
0.0
 11
-7.142857142828414
 21
9.355728390855413E-8
 31
0.0
210
0.0
220
0.0
230
-1.0
 40
0.287038
 41
-0.0000000456316069
 42
3.141592607958205
  0
ELLIPSE
  5
392
330
370
100
AcDbEntity
  8
0
  6
Continuous
 62
     0
370
     0
100
AcDbEllipse
 10
-26.357953
 20
508.200734
 30
0.0
 11
-6.285714285688536
 21
8.233040983952150E-8
 31
0.0
210
0.0
220
0.0
230
-1.0
 40
0.287038
 41
0.4448639677038679
 42
2.69672843455492
  0
ELLIPSE
  5
393
330
370
100
AcDbEntity
  8
0
  6
Continuous
 62
     0
370
     0
100
AcDbEllipse
 10
-26.357954
 20
454.852743
 30
0.0
 11
4.999999999979931
 21
-6.549009873598842E-8
 31
0.0
210
0.0
220
0.0
230
1.0
 40
0.287038
 41
0.0000000456316069
 42
3.1415926992214
  0
LINE
  5
394
330
370
100
AcDbEntity
  8
0
  6
Continuous
 62
     0
370
    30
100
AcDbLine
 10
-31.357954
 20
463.353643
 30
0.0
 11
-31.357954
 21
454.852743
 31
0.0
  0
LWPOLYLINE
  5
395
330
370
100
AcDbEntity
  8
0
  6
Continuous
 62
     0
370
    30
100
AcDbPolyline
 90
       24
 70
     0
 43
0.0
 10
-21.857952
 20
464.155487
 10
-22.141493
 20
464.393951
 10
-22.480976
 20
464.632812
 10
-22.871628
 20
464.865051
 10
-23.308874
 20
465.08374
 10
-23.787907
 20
465.281982
 10
-24.303392
 20
465.452698
 10
-24.849171
 20
465.589294
 10
-25.418047
 20
465.685944
 10
-26.001917
 20
465.738007
 10
-26.591513
 20
465.74295
 10
-27.177362
 20
465.700562
 10
-27.750048
 20
465.612854
 10
-28.301302
 20
465.484131
 10
-28.823589
 20
465.319977
 10
-29.310661
 20
465.126892
 10
-29.757015
 20
464.911865
 10
-30.157784
 20
464.681854
 10
-30.508219
 20
464.443878
 10
-30.803688
 20
464.204834
 10
-31.040028
 20
463.971161
 10
-31.21327
 20
463.749054
 10
-31.319916
 20
463.544312
 10
-31.357954
 20
463.353638
  0
ELLIPSE
  5
396
330
370
100
AcDbEntity
  8
0
  6
Continuous
 62
     0
370
     0
100
AcDbEllipse
 10
-26.357954
 20
448.927156
 30
0.0
 11
7.142857142828414
 21
-9.355728390855413E-8
 31
0.0
210
0.0
220
0.0
230
1.0
 40
0.287038
 41
0.0000000456316069
 42
3.141592699221388
  0
ELLIPSE
  5
397
330
370
100
AcDbEntity
  8
0
  6
Continuous
 62
     0
370
     0
100
AcDbEllipse
 10
-26.357954
 20
443.412448
 30
0.0
 11
6.285714285688536
 21
-8.233040983952150E-8
 31
0.0
210
0.0
220
0.0
230
1.0
 40
0.287038
 41
0.0000000456316069
 42
3.1415926992214
  0
ELLIPSE
  5
398
330
370
100
AcDbEntity
  8
0
  6
Continuous
 62
     0
370
     0
100
AcDbEllipse
 10
-26.357954
 20
443.412448
 30
0.0
 11
6.285714285688536
 21
-8.233040983952150E-8
 31
0.0
210
0.0
220
0.0
230
1.0
 40
0.287038
 41
5.838319079370899
 42
6.283185352811193
  0
ELLIPSE
  5
399
330
370
100
AcDbEntity
  8
0
  6
Continuous
 62
     0
370
     0
100
AcDbEllipse
 10
-26.357954
 20
443.412448
 30
0.0
 11
6.285714285688536
 21
-8.233040983952150E-8
 31
0.0
210
0.0
220
0.0
230
1.0
 40
0.287038
 41
3.1415926992214
 42
3.586458046682923
  0
LINE
  5
39A
330
370
100
AcDbEntity
  8
0
  6
Continuous
 62
     0
370
     0
100
AcDbLine
 10
-38.357952
 20
462.806588
 30
0.0
 11
-38.357952
 21
463.288492
 31
0.0
  0
LINE
  5
39B
330
370
100
AcDbEntity
  8
0
  6
Continuous
 62
     0
370
     0
100
AcDbLine
 10
-38.357952
 20
463.288492
 30
0.0
 11
-38.357952
 21
488.806594
 31
0.0
  0
LINE
  5
39C
330
370
100
AcDbEntity
  8
0
  6
Continuous
 62
     0
370
    30
100
AcDbLine
 10
-43.357952
 20
468.103144
 30
0.0
 11
-43.357952
 21
483.806594
 31
0.0
  0
LINE
  5
39D
330
370
100
AcDbEntity
  8
0
  6
Continuous
 62
     0
370
    30
100
AcDbLine
 10
-43.357952
 20
467.806588
 30
0.0
 11
-43.357952
 21
468.103144
 31
0.0
  0
LINE
  5
39E
330
370
100
AcDbEntity
  8
0
  6
Continuous
 62
     0
370
    30
100
AcDbLine
 10
-38.357952
 20
488.806591
 30
0.0
 11
-33.086793
 21
488.806591
 31
0.0
  0
LINE
  5
39F
330
370
100
AcDbEntity
  8
0
  6
Continuous
 62
     0
370
    30
100
AcDbLine
 10
-38.357952
 20
462.806591
 30
0.0
 11
-31.357954
 21
462.806591
 31
0.0
  0
ARC
  5
3A0
330
370
100
AcDbEntity
  8
0
  6
Continuous
 62
     0
370
    30
100
AcDbCircle
 10
-38.357039
 20
467.807501
 30
0.0
 40
5.000913014709492
100
AcDbArc
 50
180.01046
 51
269.98954
  0
ARC
  5
3A1
330
370
100
AcDbEntity
  8
0
  6
Continuous
 62
     0
370
    30
100
AcDbCircle
 10
-38.357039
 20
483.805681
 30
0.0
 40
5.000913014709605
100
AcDbArc
 50
90.01046
 51
179.98954
  0
ARC
  5
3A2
330
370
100
AcDbEntity
  8
0
  6
Continuous
 62
     0
370
    30
100
AcDbCircle
 10
-26.357954
 20
452.060533
 30
0.0
 40
11.00067325499707
100
AcDbArc
 50
238.950457
 51
301.049528
  0
ARC
  5
3A3
330
370
100
AcDbEntity
  8
0
  6
Continuous
 62
     0
370
    30
100
AcDbCircle
 10
-22.806873
 20
446.539072
 30
0.0
 40
4.443001668903065
100
AcDbArc
 50
298.541363
 51
40.267515
  0
ARC
  5
3A4
330
370
100
AcDbEntity
  8
0
  6
Continuous
 62
     0
370
    30
100
AcDbCircle
 10
-29.938419
 20
446.5407
 30
0.0
 40
4.419564918462289
100
AcDbArc
 50
139.502366
 51
179.789709
  0
ARC
  5
3A5
330
370
100
AcDbEntity
  8
0
  6
Continuous
 62
     0
370
    30
100
AcDbCircle
 10
-29.781963
 20
446.621208
 30
0.0
 40
4.576442757846328
100
AcDbArc
 50
180.804885
 51
240.552347
  0
ARC
  5
3A6
330
370
100
AcDbEntity
  8
0
  6
Continuous
 62
     0
370
    30
100
AcDbCircle
 10
-12.887763
 20
454.807051
 30
0.0
 40
8.470314352427385
100
AcDbArc
 50
179.690923
 51
219.57394
  0
ARC
  5
3A7
330
370
100
AcDbEntity
  8
0
  6
Continuous
 62
     0
370
    30
100
AcDbCircle
 10
-39.828145
 20
454.807051
 30
0.0
 40
8.470314314062414
100
AcDbArc
 50
320.426056
 51
0.309074
  0
LINE
  5
3A8
330
370
100
AcDbEntity
  8
0
  6
Continuous
 62
     0
370
    30
100
AcDbLine
 10
-21.357954
 20
463.375458
 30
0.0
 11
-21.357954
 21
454.852743
 31
0.0
  0
ARC
  5
3A9
330
370
100
AcDbEntity
  8
0
  6
Continuous
 62
     0
370
    30
100
AcDbCircle
 10
-26.175095
 20
467.101359
 30
0.0
 40
7.829246776864045
100
AcDbArc
 50
307.971926
 51
332.376464
  0
ARC
  5
3AA
330
370
100
AcDbEntity
  8
0
  6
Continuous
 62
     0
370
    30
100
AcDbCircle
 10
-26.496453
 20
467.136968
 30
0.0
 40
7.885729966404227
100
AcDbArc
 50
213.308098
 51
231.93949
  0
ARC
  5
3AB
330
370
100
AcDbEntity
  8
0
  6
Continuous
 62
     0
370
    30
100
AcDbCircle
 10
-26.357954
 20
499.552649
 30
0.0
 40
11.00067325499603
100
AcDbArc
 50
58.950472
 51
121.049543
  0
ARC
  5
3AC
330
370
100
AcDbEntity
  8
0
  6
Continuous
 62
     0
370
    30
100
AcDbCircle
 10
-22.806872
 20
505.07411
 30
0.0
 40
4.443001689205705
100
AcDbArc
 50
319.732487
 51
61.458639
  0
ARC
  5
3AD
330
370
100
AcDbEntity
  8
0
  6
Continuous
 62
     0
370
    30
100
AcDbCircle
 10
-29.938418
 20
505.072483
 30
0.0
 40
4.419564941047918
100
AcDbArc
 50
180.210293
 51
220.497636
  0
ARC
  5
3AE
330
370
100
AcDbEntity
  8
0
  6
Continuous
 62
     0
370
    30
100
AcDbCircle
 10
-29.781962
 20
504.991974
 30
0.0
 40
4.576442700446064
100
AcDbArc
 50
119.447654
 51
179.195117
  0
ARC
  5
3AF
330
370
100
AcDbEntity
  8
0
  6
Continuous
 62
     0
370
    30
100
AcDbCircle
 10
-12.887763
 20
496.806131
 30
0.0
 40
8.470314314062898
100
AcDbArc
 50
140.426056
 51
180.309074
  0
ARC
  5
3B0
330
370
100
AcDbEntity
  8
0
  6
Continuous
 62
     0
370
    30
100
AcDbCircle
 10
-39.828145
 20
496.806131
 30
0.0
 40
8.470314352427309
100
AcDbArc
 50
359.690923
 51
39.57394
  0
LINE
  5
3B1
330
370
100
AcDbEntity
  8
0
  6
Continuous
 62
     0
370
    30
100
AcDbLine
 10
-21.357954
 20
490.683715
 30
0.0
 11
-21.357954
 21
496.760439
 31
0.0
  0
CIRCLE
  5
3B2
330
370
100
AcDbEntity
  8
0
  6
Continuous
 62
     0
370
    30
100
AcDbCircle
 10
-26.369996
 20
484.563468
 30
0.0
 40
7.923577789830323
  0
LINE
  5
3B3
330
370
100
AcDbEntity
  8
0
  6
Continuous
 62
     0
370
    30
100
AcDbLine
 10
-12.018253
 20
469.556488
 30
0.0
 11
-8.357952
 21
469.54471
 31
0.0
  0
LINE
  5
3B4
330
370
100
AcDbEntity
  8
0
  6
Continuous
 62
     0
370
    30
100
AcDbLine
 10
-12.018253
 20
482.056695
 30
0.0
 11
-8.357952
 21
482.068472
 31
0.0
  0
ARC
  5
3B5
330
370
100
AcDbEntity
  8
0
  6
Continuous
 62
     0
370
    30
100
AcDbCircle
 10
-12.0519
 20
464.558742
 30
0.0
 40
4.997858748698046
100
AcDbArc
 50
89.614276
 51
159.092181
  0
ARC
  5
3B6
330
370
100
AcDbEntity
  8
0
  6
Continuous
 62
     0
370
    30
100
AcDbCircle
 10
-12.0519
 20
487.05444
 30
0.0
 40
4.997858748697953
100
AcDbArc
 50
200.907819
 51
270.385724
  0
ARC
  5
3B7
330
370
100
AcDbEntity
  8
0
  6
Continuous
 62
     0
370
    30
100
AcDbCircle
 10
-21.851114
 20
483.311404
 30
0.0
 40
5.491894552791995
100
AcDbArc
 50
20.903409
 51
61.591032
  0
ARC
  5
3B8
330
370
100
AcDbEntity
  8
0
  6
Continuous
 62
     0
370
    30
100
AcDbCircle
 10
-21.85316
 20
468.301601
 30
0.0
 40
5.493743309181161
100
AcDbArc
 50
275.171668
 51
339.105928
  0
LINE
  5
3B9
330
370
100
AcDbEntity
  8
0
  6
Continuous
 62
     0
370
     0
100
AcDbLine
 10
-166.619093
 20
454.63886
 30
0.0
 11
-177.596188
 21
455.348354
 31
0.0
  0
LINE
  5
3BA
330
370
100
AcDbEntity
  8
0
  6
Continuous
 62
     0
370
     0
100
AcDbLine
 10
-155.641997
 20
453.929366
 30
0.0
 11
-166.619093
 21
454.63886
 31
0.0
  0
LINE
  5
3BB
330
370
100
AcDbEntity
  8
0
  6
Continuous
 62
     0
370
    30
100
AcDbLine
 10
-177.596188
 20
455.348354
 30
0.0
 11
-177.707157
 21
453.631468
 31
0.0
  0
LINE
  5
3BC
330
370
100
AcDbEntity
  8
0
  6
Continuous
 62
     0
370
    30
100
AcDbLine
 10
-155.641997
 20
453.929366
 30
0.0
 11
-155.785215
 21
451.713547
 31
0.0
  0
LWPOLYLINE
  5
3BD
330
370
100
AcDbEntity
  8
0
  6
Continuous
 62
     0
370
    30
100
AcDbPolyline
 90
      109
 70
     0
 43
0.0
 10
-42.355553
 20
486.809814
 10
-43.99086
 20
486.805847
 10
-45.626648
 20
486.802948
 10
-47.26334
 20
486.803223
 10
-48.900654
 20
486.813202
 10
-50.536869
 20
486.848877
 10
-52.17009
 20
486.927338
 10
-53.798424
 20
487.065674
 10
-55.419636
 20
487.279144
 10
-57.029472
 20
487.571747
 10
-58.622906
 20
487.943176
 10
-60.195824
 20
488.391846
 10
-61.745934
 20
488.913666
 10
-63.27256
 20
489.500977
 10
-64.781624
 20
490.13205
 10
-66.278831
 20
490.790741
 10
-67.768898
 20
491.465668
 10
-69.255035
 20
492.149048
 10
-70.738365
 20
492.83844
 10
-72.219818
 20
493.53186
 10
-73.70034
 20
494.227264
 10
-75.18087
 20
494.922668
 10
-76.662148
 20
495.616486
 10
-78.144135
 20
496.308807
 10
-79.62661
 20
497.000061
 10
-81.109344
 20
497.690765
 10
-82.592117
 20
498.381378
 10
-84.074699
 20
499.072357
 10
-85.556953
 20
499.764038
 10
-87.03904
 20
500.456055
 10
-88.521202
 20
501.147919
 10
-90.00367
 20
501.839172
 10
-91.486679
 20
502.529327
 10
-92.970459
 20
503.217896
 10
-94.454941
 20
503.905029
 10
-95.939072
 20
504.592834
 10
-97.421616
 20
505.283783
 10
-98.901482
 20
505.980042
 10
-100.379601
 20
506.680023
 10
-101.858238
 20
507.379517
 10
-103.339684
 20
508.07431
 10
-104.826454
 20
508.758636
 10
-106.321541
 20
509.423798
 10
-107.827965
 20
510.06076
 10
-109.348763
 20
510.660431
 10
-110.886963
 20
511.213745
 10
-112.443985
 20
511.714142
 10
-114.018036
 20
512.159912
 10
-115.606911
 20
512.549866
 10
-117.20842
 20
512.883301
 10
-118.82048
 20
513.16095
 10
-120.441002
 20
513.384216
 10
-122.067955
 20
513.554565
 10
-123.699501
 20
513.672607
 10
-125.334015
 20
513.738586
 10
-126.969879
 20
513.752625
 10
-128.605438
 20
513.714722
 10
-130.238922
 20
513.624878
 10
-131.868607
 20
513.482788
 10
-133.492737
 20
513.288452
 10
-135.109558
 20
513.041687
 10
-136.717316
 20
512.74231
 10
-138.31427
 20
512.390198
 10
-139.898666
 20
511.985291
 10
-141.46875
 20
511.527405
 10
-143.022919
 20
511.017273
 10
-144.559662
 20
510.456512
 10
-146.077438
 20
509.846436
 10
-147.5746
 20
509.187622
 10
-149.049515
 20
508.480499
 10
-150.500519
 20
507.725494
 10
-151.925964
 20
506.923157
 10
-153.324295
 20
506.07428
 10
-154.694061
 20
505.17984
 10
-156.033768
 20
504.240967
 10
-157.341949
 20
503.258698
 10
-158.617157
 20
502.23407
 10
-159.857895
 20
501.168121
 10
-161.062698
 20
500.06192
 10
-162.230133
 20
498.916565
 10
-163.359131
 20
497.733337
 10
-164.448868
 20
496.513794
 10
-165.498566
 20
495.25943
 10
-166.507416
 20
493.971771
 10
-167.474609
 20
492.652344
 10
-168.399292
 20
491.302612
 10
-169.280365
 20
489.924011
 10
-170.116653
 20
488.517822
 10
-170.906967
 20
487.085449
 10
-171.650131
 20
485.628235
 10
-172.344955
 20
484.147461
 10
-172.99025
 20
482.644562
 10
-173.584869
 20
481.120819
 10
-174.127441
 20
479.577606
 10
-174.615646
 20
478.016388
 10
-175.046814
 20
476.438629
 10
-175.420883
 20
474.846375
 10
-175.741104
 20
473.242218
 10
-176.010925
 20
471.628815
 10
-176.234787
 20
470.008789
 10
-176.423035
 20
468.384064
 10
-176.588287
 20
466.756348
 10
-176.743164
 20
465.127319
 10
-176.898438
 20
463.498474
 10
-177.054031
 20
461.869904
 10
-177.205765
 20
460.241241
 10
-177.349457
 20
458.61203
 10
-177.480942
 20
456.981903
 10
-177.596191
 20
455.348358
  0
LWPOLYLINE
  5
3BE
330
370
100
AcDbEntity
  8
0
  6
Continuous
 62
     0
370
    30
100
AcDbPolyline
 90
      106
 70
     0
 43
0.0
 10
-42.360226
 20
464.809601
 10
-43.726784
 20
464.80603
 10
-45.093445
 20
464.803192
 10
-46.460285
 20
464.802399
 10
-47.827366
 20
464.805237
 10
-49.194462
 20
464.815887
 10
-50.561184
 20
464.840027
 10
-51.927147
 20
464.883362
 10
-53.291954
 20
464.95163
 10
-54.655102
 20
465.049438
 10
-56.015747
 20
465.178162
 10
-57.372982
 20
465.338745
 10
-58.72591
 20
465.531982
 10
-60.07373
 20
465.758209
 10
-61.415794
 20
466.016754
 10
-62.751446
 20
466.306976
 10
-64.079704
 20
466.629211
 10
-65.39946
 20
466.984283
 10
-66.709572
 20
467.373016
 10
-68.009125
 20
467.795746
 10
-69.29818
 20
468.249908
 10
-70.577187
 20
468.732056
 10
-71.846588
 20
469.238678
 10
-73.107498
 20
469.765839
 10
-74.36158
 20
470.309113
 10
-75.610519
 20
470.864075
 10
-76.855591
 20
471.427582
 10
-78.09761
 20
471.997803
 10
-79.337357
 20
472.573029
 10
-80.575615
 20
473.15152
 10
-81.813164
 20
473.731537
 10
-83.050728
 20
474.311523
 10
-84.288513
 20
474.890991
 10
-85.526497
 20
475.470001
 10
-86.764618
 20
476.048676
 10
-88.002853
 20
476.627106
 10
-89.241158
 20
477.205383
 10
-90.479477
 20
477.7836
 10
-91.717789
 20
478.361816
 10
-92.956047
 20
478.940155
 10
-94.194275
 20
479.518555
 10
-95.432541
 20
480.096863
 10
-96.670914
 20
480.674988
 10
-97.909477
 20
481.252686
 10
-99.148293
 20
481.829895
 10
-100.387436
 20
482.406433
 10
-101.626984
 20
482.982147
 10
-102.866997
 20
483.556915
 10
-104.107292
 20
484.131104
 10
-105.347267
 20
484.705933
 10
-106.586296
 20
485.282593
 10
-107.823761
 20
485.862366
 10
-109.059517
 20
486.445557
 10
-110.294525
 20
487.030518
 10
-111.529877
 20
487.615204
 10
-112.766655
 20
488.197693
 10
-114.006889
 20
488.773407
 10
-115.255569
 20
489.329468
 10
-116.518257
 20
489.851349
 10
-117.800301
 20
490.324646
 10
-119.103233
 20
490.73819
 10
-120.42556
 20
491.083344
 10
-121.765442
 20
491.352478
 10
-123.118263
 20
491.548706
 10
-124.478844
 20
491.678955
 10
-125.844101
 20
491.745087
 10
-127.211174
 20
491.748352
 10
-128.577057
 20
491.68927
 10
-129.938446
 20
491.56665
 10
-131.292023
 20
491.379211
 10
-132.634476
 20
491.12561
 10
-133.962494
 20
490.80481
 10
-135.27301
 20
490.417694
 10
-136.563065
 20
489.965881
 10
-137.829681
 20
489.45108
 10
-139.06987
 20
488.874908
 10
-140.280701
 20
488.239075
 10
-141.459167
 20
487.545227
 10
-142.602295
 20
486.795013
 10
-143.707138
 20
485.990112
 10
-144.770721
 20
485.132172
 10
-145.790054
 20
484.2229
 10
-146.76265
 20
483.264221
 10
-147.687042
 20
482.258911
 10
-148.561935
 20
481.209808
 10
-149.386017
 20
480.11972
 10
-150.158005
 20
478.991486
 10
-150.876572
 20
477.827942
 10
-151.540421
 20
476.631927
 10
-152.148071
 20
475.40625
 10
-152.694763
 20
474.152832
 10
-153.17276
 20
472.872864
 10
-153.574783
 20
471.567657
 10
-153.902679
 20
470.24115
 10
-154.165787
 20
468.899445
 10
-154.37381
 20
467.548523
 10
-154.539322
 20
466.1922
 10
-154.677231
 20
464.832367
 10
-154.802551
 20
463.470947
 10
-154.928925
 20
462.10965
 10
-155.058777
 20
460.748871
 10
-155.188721
 20
459.388245
 10
-155.315353
 20
458.027496
 10
-155.435257
 20
456.66626
 10
-155.545029
 20
455.30426
 10
-155.641998
 20
453.929352
  0
LINE
  5
3BF
330
370
100
AcDbEntity
  8
0
  6
Continuous
 62
     0
370
    30
100
AcDbLine
 10
-17.615152
 20
464.806591
 30
0.0
 11
-8.357947
 21
464.806591
 31
0.0
  0
LINE
  5
3C0
330
370
100
AcDbEntity
  8
0
  6
Continuous
 62
     0
370
    30
100
AcDbLine
 10
-17.615152
 20
486.806591
 30
0.0
 11
-8.357947
 21
486.806591
 31
0.0
  0
LINE
  5
3C1
330
370
100
AcDbEntity
  8
0
  6
Continuous
 62
     0
370
    30
100
AcDbLine
 10
-157.411592
 20
428.768006
 30
0.0
 11
-180.330185
 21
430.773123
 31
0.0
  0
LINE
  5
3C2
330
370
100
AcDbEntity
  8
0
  6
Continuous
 62
     0
370
    30
100
AcDbLine
 10
-180.330185
 20
430.773123
 30
0.0
 11
-180.784705
 21
431.314799
 31
0.0
  0
LINE
  5
3C3
330
370
100
AcDbEntity
  8
0
  6
Continuous
 62
     0
370
    30
100
AcDbLine
 10
-156.869917
 20
429.222526
 30
0.0
 11
-180.784705
 21
431.314799
 31
0.0
  0
LINE
  5
3C4
330
370
100
AcDbEntity
  8
0
  6
Continuous
 62
     0
370
    30
100
AcDbLine
 10
-180.784705
 20
431.314799
 30
0.0
 11
-180.131039
 21
438.786233
 31
0.0
  0
LINE
  5
3C5
330
370
100
AcDbEntity
  8
0
  6
Continuous
 62
     0
370
    30
100
AcDbLine
 10
-154.713196
 20
436.662842
 30
0.0
 11
-181.616663
 21
439.01659
 31
0.0
  0
LINE
  5
3C6
330
370
100
AcDbEntity
  8
0
  6
Continuous
 62
     0
370
    30
100
AcDbLine
 10
-181.616663
 20
439.01659
 30
0.0
 11
-181.233178
 21
443.399847
 31
0.0
  0
LINE
  5
3C7
330
370
100
AcDbEntity
  8
0
  6
Continuous
 62
     0
370
    30
100
AcDbLine
 10
-154.329711
 20
441.046098
 30
0.0
 11
-181.233178
 21
443.399847
 31
0.0
  0
ARC
  5
3C8
330
370
100
AcDbEntity
  8
0
  6
Continuous
 62
     0
370
    30
100
AcDbCircle
 10
-181.102444
 20
444.894139
 30
0.0
 40
1.499999999988016
100
AcDbArc
 50
175.0
 51
265.0
  0
LINE
  5
3C9
330
370
100
AcDbEntity
  8
0
  6
Continuous
 62
     0
370
     0
100
AcDbLine
 10
-152.704685
 20
442.409657
 30
0.0
 11
-182.596736
 21
445.024872
 31
0.0
  0
LINE
  5
3CA
330
370
100
AcDbEntity
  8
0
  6
Continuous
 62
     0
370
    30
100
AcDbLine
 10
-182.596736
 20
445.024872
 30
0.0
 11
-182.50958
 21
446.021067
 31
0.0
  0
LINE
  5
3CB
330
370
100
AcDbEntity
  8
0
  6
Continuous
 62
     0
370
     0
100
AcDbLine
 10
-152.617529
 20
443.405851
 30
0.0
 11
-182.50958
 21
446.021067
 31
0.0
  0
ARC
  5
3CC
330
370
100
AcDbEntity
  8
0
  6
Continuous
 62
     0
370
    30
100
AcDbCircle
 10
-181.015288
 20
445.890333
 30
0.0
 40
1.499999999987986
100
AcDbArc
 50
85.0
 51
175.0
  0
LINE
  5
3CD
330
370
100
AcDbEntity
  8
0
  6
Continuous
 62
     0
370
    30
100
AcDbLine
 10
-153.981088
 20
445.030877
 30
0.0
 11
-180.884555
 21
447.384625
 31
0.0
  0
ARC
  5
3CE
330
370
100
AcDbEntity
  8
0
  6
Continuous
 62
     0
370
    30
100
AcDbCircle
 10
-180.797399
 20
448.38082
 30
0.0
 40
0.999999999992918
100
AcDbArc
 50
265.0
 51
355.0
  0
LINE
  5
3CF
330
370
100
AcDbEntity
  8
0
  6
Continuous
 62
     0
370
     0
100
AcDbLine
 10
-154.890127
 20
446.114227
 30
0.0
 11
-179.801204
 21
448.293664
 31
0.0
  0
LINE
  5
3D0
330
370
100
AcDbEntity
  8
0
  6
Continuous
 62
     0
370
    30
100
AcDbLine
 10
-179.801204
 20
448.293664
 30
0.0
 11
-179.330563
 21
453.673116
 31
0.0
  0
LINE
  5
3D1
330
370
100
AcDbEntity
  8
0
  6
Continuous
 62
     0
370
    30
100
AcDbLine
 10
-154.419486
 20
451.493679
 30
0.0
 11
-179.330563
 21
453.673116
 31
0.0
  0
LINE
  5
3D2
330
370
100
AcDbEntity
  8
0
  6
Continuous
 62
     0
370
    30
100
AcDbLine
 10
-154.419486
 20
451.493679
 30
0.0
 11
-154.890127
 21
446.114227
 31
0.0
  0
ARC
  5
3D3
330
370
100
AcDbEntity
  8
0
  6
Continuous
 62
     0
370
    30
100
AcDbCircle
 10
-153.893487
 20
446.027445
 30
0.0
 40
1.000410492213551
100
AcDbArc
 50
175.023502
 51
264.968395
  0
ARC
  5
3D4
330
370
100
AcDbEntity
  8
0
  6
Continuous
 62
     0
370
    30
100
AcDbCircle
 10
-154.112248
 20
443.536227
 30
0.0
 40
1.500394165549652
100
AcDbArc
 50
355.01505
 51
84.98495
  0
LINE
  5
3D5
330
370
100
AcDbEntity
  8
0
  6
Continuous
 62
     0
370
    30
100
AcDbLine
 10
-152.617529
 20
443.405851
 30
0.0
 11
-152.704685
 21
442.409657
 31
0.0
  0
ARC
  5
3D6
330
370
100
AcDbEntity
  8
0
  6
Continuous
 62
     0
370
    30
100
AcDbCircle
 10
-154.199331
 20
442.540813
 30
0.0
 40
1.500389978272653
100
AcDbArc
 50
265.022991
 51
354.985112
  0
LINE
  5
3D7
330
370
100
AcDbEntity
  8
0
  6
Continuous
 62
     0
370
    30
100
AcDbLine
 10
-154.329711
 20
441.046098
 30
0.0
 11
-154.713196
 21
436.662842
 31
0.0
  0
LINE
  5
3D8
330
370
100
AcDbEntity
  8
0
  6
Continuous
 62
     0
370
    30
100
AcDbLine
 10
-156.216251
 20
436.69396
 30
0.0
 11
-156.869917
 21
429.222526
 31
0.0
  0
ENDBLK
  5
3DA
330
370
100
AcDbEntity
  8
0
100
AcDbBlockEnd
  0
ENDSEC
  0
SECTION
  2
ENTITIES
  0
INSERT
  5
172
330
1F
100
AcDbEntity
  8
0
  6
Continuous
 62
     7
420
 16250871
370
     0
100
AcDbBlockReference
  2
a
 10
83.490158
 20
137.581848
 30
0.0
  0
INSERT
  5
21B
330
1F
100
AcDbEntity
  8
0
  6
Continuous
 62
     7
420
 16250871
370
     0
100
AcDbBlockReference
  2
b
 10
83.490158
 20
137.581848
 30
0.0
  0
INSERT
  5
288
330
1F
100
AcDbEntity
  8
0
  6
Continuous
 62
     7
420
 16250871
370
     0
100
AcDbBlockReference
  2
c
 10
83.490158
 20
137.581848
 30
0.0
  0
INSERT
  5
36F
330
1F
100
AcDbEntity
  8
0
  6
Continuous
 62
     7
420
 16250871
370
     0
100
AcDbBlockReference
  2
d
 10
83.490158
 20
137.581848
 30
0.0
  0
INSERT
  5
3DB
330
1F
100
AcDbEntity
  8
0
  6
Continuous
 62
     7
420
 16250871
370
     0
100
AcDbBlockReference
  2
e
 10
68.427536
 20
0.0
 30
0.0
  0
ENDSEC
  0
SECTION
  2
OBJECTS
  0
DICTIONARY
  5
C
330
0
100
AcDbDictionary
281
     1
  3
ACAD_DETAILVIEWSTYLE
350
413
  3
ACAD_GROUP
350
D
  3
ACAD_LAYOUT
350
1A
  3
ACAD_MATERIAL
350
43
  3
ACAD_MLEADERSTYLE
350
6B
  3
ACAD_MLINESTYLE
350
17
  3
ACAD_PLOTSETTINGS
350
19
  3
ACAD_PLOTSTYLENAME
350
E
  3
ACAD_SCALELIST
350
47
  3
ACAD_SECTIONVIEWSTYLE
350
414
  3
ACAD_TABLESTYLE
350
69
  3
ACAD_VISUALSTYLE
350
2A
  3
ACDB_RECOMPOSE_DATA
350
410
  3
AcDbVariableDictionary
350
3DC
  0
SUN
  5
6D
330
29
100
AcDbSun
 90
        1
290
     0
 63
     7
421
 16777215
 40
1.0
291
     1
 91
  2455826
 92
 54000000
292
     0
 70
     2
 71
   256
280
     1
  0
DICTIONARY
  5
413
102
{ACAD_REACTORS
330
C
102
}
330
C
100
AcDbDictionary
281
     1
  0
DICTIONARY
  5
D
102
{ACAD_REACTORS
330
C
102
}
330
C
100
AcDbDictionary
281
     1
  0
DICTIONARY
  5
1A
102
{ACAD_REACTORS
330
C
102
}
330
C
100
AcDbDictionary
281
     1
  3
Layout1
350
1E
  3
Layout2
350
26
  3
Model
350
22
  0
DICTIONARY
  5
43
102
{ACAD_REACTORS
330
C
102
}
330
C
100
AcDbDictionary
281
     1
  3
ByBlock
350
45
  3
ByLayer
350
44
  3
Global
350
46
  0
DICTIONARY
  5
6B
102
{ACAD_REACTORS
330
C
102
}
330
C
100
AcDbDictionary
281
     1
  3
Standard
350
6C
  0
DICTIONARY
  5
17
102
{ACAD_REACTORS
330
C
102
}
330
C
100
AcDbDictionary
281
     1
  3
Standard
350
18
  0
DICTIONARY
  5
19
102
{ACAD_REACTORS
330
C
102
}
330
C
100
AcDbDictionary
281
     1
  0
ACDBDICTIONARYWDFLT
  5
E
102
{ACAD_REACTORS
330
C
102
}
330
C
100
AcDbDictionary
281
     1
  3
Normal
350
F
100
AcDbDictionaryWithDefault
340
F
  0
DICTIONARY
  5
47
102
{ACAD_REACTORS
330
C
102
}
330
C
100
AcDbDictionary
281
     1
  3
A0
350
48
  3
A1
350
49
  3
A2
350
4A
  3
A3
350
4B
  3
A4
350
4C
  3
A5
350
4D
  3
A6
350
4E
  3
A7
350
4F
  3
A8
350
50
  3
A9
350
51
  3
B0
350
52
  3
B1
350
53
  3
B2
350
54
  3
B3
350
55
  3
B4
350
56
  3
B5
350
57
  3
B6
350
58
  3
B7
350
59
  3
B8
350
5A
  3
B9
350
5B
  3
C0
350
5C
  3
C1
350
5D
  3
C2
350
5E
  3
C3
350
5F
  3
C4
350
60
  3
C5
350
61
  3
C6
350
62
  3
C7
350
63
  3
C8
350
64
  3
C9
350
65
  3
D0
350
66
  3
D1
350
67
  3
D2
350
68
  0
DICTIONARY
  5
414
102
{ACAD_REACTORS
330
C
102
}
330
C
100
AcDbDictionary
281
     1
  0
DICTIONARY
  5
69
102
{ACAD_REACTORS
330
C
102
}
330
C
100
AcDbDictionary
281
     1
  3
Standard
350
6A
  0
DICTIONARY
  5
2A
102
{ACAD_REACTORS
330
C
102
}
330
C
100
AcDbDictionary
281
     1
  3
2dWireframe
350
2F
  3
Basic
350
32
  3
Brighten
350
36
  3
ColorChange
350
3A
  3
Conceptual
350
34
  3
Dim
350
35
  3
EdgeColorOff
350
3D
  3
Facepattern
350
39
  3
Flat
350
2B
  3
FlatWithEdges
350
2C
  3
Gouraud
350
2D
  3
GouraudWithEdges
350
2E
  3
Hidden
350
31
  3
JitterOff
350
3B
  3
Linepattern
350
38
  3
OverhangOff
350
3C
  3
Realistic
350
33
  3
Shaded
350
42
  3
Shaded with edges
350
41
  3
Shades of Gray
350
3E
  3
Sketchy
350
3F
  3
Thicken
350
37
  3
Wireframe
350
30
  3
X-Ray
350
40
  0
XRECORD
  5
410
102
{ACAD_REACTORS
330
C
102
}
330
C
100
AcDbXrecord
280
     1
 90
        1
330
6A
  0
DICTIONARY
  5
3DC
102
{ACAD_REACTORS
330
C
102
}
330
C
100
AcDbDictionary
281
     1
  3
CANNOSCALE
350
3DD
  3
CMLEADERSTYLE
350
412
  3
CTABLESTYLE
350
411
  0
LAYOUT
  5
1E
102
{ACAD_REACTORS
330
1A
102
}
330
1A
100
AcDbPlotSettings
  1

  2
none_device
  4

  6

 40
0.0
 41
0.0
 42
0.0
 43
0.0
 44
0.0
 45
0.0
 46
0.0
 47
0.0
 48
0.0
 49
0.0
140
0.0
141
0.0
142
1.0
143
1.0
 70
   688
 72
     1
 73
     0
 74
     5
  7

 75
    16
 76
     0
 77
     2
 78
   300
147
1.0
148
0.0
149
0.0
100
AcDbLayout
  1
Layout1
 70
     1
 71
     1
 10
0.0
 20
0.0
 11
420.0
 21
297.0
 12
0.0
 22
0.0
 32
0.0
 14
1.000000E+20
 24
1.000000E+20
 34
1.000000E+20
 15
-1.000000E+20
 25
-1.000000E+20
 35
-1.000000E+20
146
0.0
 13
0.0
 23
0.0
 33
0.0
 16
1.0
 26
0.0
 36
0.0
 17
0.0
 27
1.0
 37
0.0
 76
     0
330
1B
  0
LAYOUT
  5
26
102
{ACAD_REACTORS
330
1A
102
}
330
1A
100
AcDbPlotSettings
  1

  2
none_device
  4

  6

 40
0.0
 41
0.0
 42
0.0
 43
0.0
 44
0.0
 45
0.0
 46
0.0
 47
0.0
 48
0.0
 49
0.0
140
0.0
141
0.0
142
1.0
143
1.0
 70
   688
 72
     1
 73
     0
 74
     5
  7

 75
    16
 76
     0
 77
     2
 78
   300
147
1.0
148
0.0
149
0.0
100
AcDbLayout
  1
Layout2
 70
     1
 71
     2
 10
0.0
 20
0.0
 11
0.0
 21
0.0
 12
0.0
 22
0.0
 32
0.0
 14
0.0
 24
0.0
 34
0.0
 15
0.0
 25
0.0
 35
0.0
146
0.0
 13
0.0
 23
0.0
 33
0.0
 16
1.0
 26
0.0
 36
0.0
 17
0.0
 27
1.0
 37
0.0
 76
     0
330
23
  0
LAYOUT
  5
22
102
{ACAD_REACTORS
330
1A
102
}
330
1A
100
AcDbPlotSettings
  1

  2
none_device
  4
Letter_(8.50_x_11.00_Inches)
  6

 40
6.35
 41
6.35
 42
6.350005
 43
6.350005
 44
215.9
 45
279.4
 46
0.0
 47
0.0
 48
0.0
 49
0.0
140
0.0
141
0.0
142
1.0
143
1.0
 70
  1712
 72
     1
 73
     0
 74
     0
  7

 75
     0
 76
     0
 77
     2
 78
   300
147
1.0
148
0.0
149
0.0
100
AcDbLayout
  1
Model
 70
     1
 71
     0
 10
0.0
 20
0.0
 11
420.0
 21
297.0
 12
0.0
 22
0.0
 32
0.0
 14
1.000000E+20
 24
1.000000E+20
 34
1.000000E+20
 15
-1.000000E+20
 25
-1.000000E+20
 35
-1.000000E+20
146
0.0
 13
0.0
 23
0.0
 33
0.0
 16
1.0
 26
0.0
 36
0.0
 17
0.0
 27
1.0
 37
0.0
 76
     0
330
1F
331
29
  0
MATERIAL
  5
45
102
{ACAD_REACTORS
330
43
102
}
330
43
100
AcDbMaterial
  1
ByBlock
 72
     1
 94
      127
  0
MATERIAL
  5
44
102
{ACAD_REACTORS
330
43
102
}
330
43
100
AcDbMaterial
  1
ByLayer
 72
     1
 94
      127
  0
MATERIAL
  5
46
102
{ACAD_REACTORS
330
43
102
}
330
43
100
AcDbMaterial
  1
Global
 72
     1
 94
      127
  0
MLEADERSTYLE
  5
6C
102
{ACAD_REACTORS
330
6B
102
}
330
6B
100
AcDbMLeaderStyle
179
     2
170
     2
171
     1
172
     0
 90
        2
 40
0.0
 41
0.0
173
     1
 91
-1056964608
340
14
 92
       -2
290
     1
 42
2.0
291
     1
 43
8.0
  3
Standard
341
0
 44
4.0
300

342
11
174
     1
178
     6
175
     1
176
     0
 93
-1056964608
 45
4.0
292
     0
297
     0
 46
4.0
343
0
 94
-1056964608
 47
1.0
 49
1.0
140
1.0
293
     1
141
0.0
294
     1
177
     0
142
1.0
295
     0
296
     0
143
3.75
271
     0
272
     9
273
     9
  0
MLINESTYLE
  5
18
102
{ACAD_REACTORS
330
17
102
}
330
17
100
AcDbMlineStyle
  2
Standard
 70
     0
  3

 62
   256
 51
90.0
 52
90.0
 71
     2
 49
0.5
 62
   256
  6
BYLAYER
 49
-0.5
 62
   256
  6
BYLAYER
  0
ACDBPLACEHOLDER
  5
F
102
{ACAD_REACTORS
330
E
102
}
330
E
  0
SCALE
  5
48
102
{ACAD_REACTORS
330
47
102
}
330
47
100
AcDbScale
 70
     0
300
1:1
140
1.0
141
1.0
290
     1
  0
SCALE
  5
49
102
{ACAD_REACTORS
330
47
102
}
330
47
100
AcDbScale
 70
     0
300
1:2
140
1.0
141
2.0
290
     0
  0
SCALE
  5
4A
102
{ACAD_REACTORS
330
47
102
}
330
47
100
AcDbScale
 70
     0
300
1:4
140
1.0
141
4.0
290
     0
  0
SCALE
  5
4B
102
{ACAD_REACTORS
330
47
102
}
330
47
100
AcDbScale
 70
     0
300
1:5
140
1.0
141
5.0
290
     0
  0
SCALE
  5
4C
102
{ACAD_REACTORS
330
47
102
}
330
47
100
AcDbScale
 70
     0
300
1:8
140
1.0
141
8.0
290
     0
  0
SCALE
  5
4D
102
{ACAD_REACTORS
330
47
102
}
330
47
100
AcDbScale
 70
     0
300
1:10
140
1.0
141
10.0
290
     0
  0
SCALE
  5
4E
102
{ACAD_REACTORS
330
47
102
}
330
47
100
AcDbScale
 70
     0
300
1:16
140
1.0
141
16.0
290
     0
  0
SCALE
  5
4F
102
{ACAD_REACTORS
330
47
102
}
330
47
100
AcDbScale
 70
     0
300
1:20
140
1.0
141
20.0
290
     0
  0
SCALE
  5
50
102
{ACAD_REACTORS
330
47
102
}
330
47
100
AcDbScale
 70
     0
300
1:30
140
1.0
141
30.0
290
     0
  0
SCALE
  5
51
102
{ACAD_REACTORS
330
47
102
}
330
47
100
AcDbScale
 70
     0
300
1:40
140
1.0
141
40.0
290
     0
  0
SCALE
  5
52
102
{ACAD_REACTORS
330
47
102
}
330
47
100
AcDbScale
 70
     0
300
1:50
140
1.0
141
50.0
290
     0
  0
SCALE
  5
53
102
{ACAD_REACTORS
330
47
102
}
330
47
100
AcDbScale
 70
     0
300
1:100
140
1.0
141
100.0
290
     0
  0
SCALE
  5
54
102
{ACAD_REACTORS
330
47
102
}
330
47
100
AcDbScale
 70
     0
300
2:1
140
2.0
141
1.0
290
     0
  0
SCALE
  5
55
102
{ACAD_REACTORS
330
47
102
}
330
47
100
AcDbScale
 70
     0
300
4:1
140
4.0
141
1.0
290
     0
  0
SCALE
  5
56
102
{ACAD_REACTORS
330
47
102
}
330
47
100
AcDbScale
 70
     0
300
8:1
140
8.0
141
1.0
290
     0
  0
SCALE
  5
57
102
{ACAD_REACTORS
330
47
102
}
330
47
100
AcDbScale
 70
     0
300
10:1
140
10.0
141
1.0
290
     0
  0
SCALE
  5
58
102
{ACAD_REACTORS
330
47
102
}
330
47
100
AcDbScale
 70
     0
300
100:1
140
100.0
141
1.0
290
     0
  0
SCALE
  5
59
102
{ACAD_REACTORS
330
47
102
}
330
47
100
AcDbScale
 70
     0
300
1/128" = 1'-0"
140
0.007812
141
12.0
290
     0
  0
SCALE
  5
5A
102
{ACAD_REACTORS
330
47
102
}
330
47
100
AcDbScale
 70
     0
300
1/64" = 1'-0"
140
0.015625
141
12.0
290
     0
  0
SCALE
  5
5B
102
{ACAD_REACTORS
330
47
102
}
330
47
100
AcDbScale
 70
     0
300
1/32" = 1'-0"
140
0.03125
141
12.0
290
     0
  0
SCALE
  5
5C
102
{ACAD_REACTORS
330
47
102
}
330
47
100
AcDbScale
 70
     0
300
1/16" = 1'-0"
140
0.0625
141
12.0
290
     0
  0
SCALE
  5
5D
102
{ACAD_REACTORS
330
47
102
}
330
47
100
AcDbScale
 70
     0
300
3/32" = 1'-0"
140
0.09375
141
12.0
290
     0
  0
SCALE
  5
5E
102
{ACAD_REACTORS
330
47
102
}
330
47
100
AcDbScale
 70
     0
300
1/8" = 1'-0"
140
0.125
141
12.0
290
     0
  0
SCALE
  5
5F
102
{ACAD_REACTORS
330
47
102
}
330
47
100
AcDbScale
 70
     0
300
3/16" = 1'-0"
140
0.1875
141
12.0
290
     0
  0
SCALE
  5
60
102
{ACAD_REACTORS
330
47
102
}
330
47
100
AcDbScale
 70
     0
300
1/4" = 1'-0"
140
0.25
141
12.0
290
     0
  0
SCALE
  5
61
102
{ACAD_REACTORS
330
47
102
}
330
47
100
AcDbScale
 70
     0
300
3/8" = 1'-0"
140
0.375
141
12.0
290
     0
  0
SCALE
  5
62
102
{ACAD_REACTORS
330
47
102
}
330
47
100
AcDbScale
 70
     0
300
1/2" = 1'-0"
140
0.5
141
12.0
290
     0
  0
SCALE
  5
63
102
{ACAD_REACTORS
330
47
102
}
330
47
100
AcDbScale
 70
     0
300
3/4" = 1'-0"
140
0.75
141
12.0
290
     0
  0
SCALE
  5
64
102
{ACAD_REACTORS
330
47
102
}
330
47
100
AcDbScale
 70
     0
300
1" = 1'-0"
140
1.0
141
12.0
290
     0
  0
SCALE
  5
65
102
{ACAD_REACTORS
330
47
102
}
330
47
100
AcDbScale
 70
     0
300
1-1/2" = 1'-0"
140
1.5
141
12.0
290
     0
  0
SCALE
  5
66
102
{ACAD_REACTORS
330
47
102
}
330
47
100
AcDbScale
 70
     0
300
3" = 1'-0"
140
3.0
141
12.0
290
     0
  0
SCALE
  5
67
102
{ACAD_REACTORS
330
47
102
}
330
47
100
AcDbScale
 70
     0
300
6" = 1'-0"
140
6.0
141
12.0
290
     0
  0
SCALE
  5
68
102
{ACAD_REACTORS
330
47
102
}
330
47
100
AcDbScale
 70
     0
300
1'-0" = 1'-0"
140
12.0
141
12.0
290
     0
  0
TABLESTYLE
  5
6A
102
{ACAD_REACTORS
330
69
102
}
102
{ACAD_XDICTIONARY
360
40E
102
}
330
69
100
AcDbTableStyle
  3
Standard
 70
     0
 71
     0
 40
0.06
 41
0.06
280
     0
281
     0
  7
Standard
140
4.5
170
     2
 62
     0
 63
   257
283
     0
 90
        4
 91
        0
  1

274
    -2
284
     1
 64
     0
275
    -2
285
     1
 65
     0
276
    -2
286
     1
 66
     0
277
    -2
287
     1
 67
     0
278
    -2
288
     1
 68
     0
279
    -2
289
     1
 69
     0
  7
Standard
140
6.0
170
     5
 62
     0
 63
   257
283
     0
 90
        4
 91
        0
  1

274
    -2
284
     1
 64
     0
275
    -2
285
     1
 65
     0
276
    -2
286
     1
 66
     0
277
    -2
287
     1
 67
     0
278
    -2
288
     1
 68
     0
279
    -2
289
     1
 69
     0
  7
Standard
140
4.5
170
     5
 62
     0
 63
   257
283
     0
 90
        4
 91
        0
  1

274
    -2
284
     1
 64
     0
275
    -2
285
     1
 65
     0
276
    -2
286
     1
 66
     0
277
    -2
287
     1
 67
     0
278
    -2
288
     1
 68
     0
279
    -2
289
     1
 69
     0
  0
VISUALSTYLE
  5
2F
102
{ACAD_REACTORS
330
2A
102
}
102
{ACAD_XDICTIONARY
360
3E6
102
}
330
2A
100
AcDbVisualStyle
  2
2dWireframe
 70
     4
177
     2
291
     0
 71
     0
176
     1
 72
     2
176
     1
 73
     0
176
     1
 90
        0
176
     1
 40
0.6
176
     1
 41
30.0
176
     1
 62
     5
 63
     7
421
 16777215
176
     1
 74
     1
176
     1
 91
        4
176
     1
 64
     7
176
     1
 65
   257
176
     1
 75
     1
176
     1
175
     1
176
     1
 42
1.0
176
     1
 92
        0
176
     1
 66
   257
176
     1
 43
1.0
176
     1
 76
     1
176
     1
 77
     6
176
     1
 78
     2
176
     1
 67
     7
176
     1
 79
     5
176
     1
170
     0
176
     1
171
     0
176
     1
290
     0
176
     1
 93
        1
176
     1
 44
0.0
176
     1
173
     0
176
     1
  0
VISUALSTYLE
  5
32
102
{ACAD_REACTORS
330
2A
102
}
102
{ACAD_XDICTIONARY
360
3EC
102
}
330
2A
100
AcDbVisualStyle
  2
Basic
 70
     7
177
     2
291
     1
 71
     1
176
     1
 72
     0
176
     1
 73
     1
176
     1
 90
        0
176
     1
 40
0.6
176
     1
 41
30.0
176
     1
 62
     5
 63
     7
421
 16777215
176
     1
 74
     0
176
     1
 91
        4
176
     1
 64
     7
176
     1
 65
   257
176
     1
 75
     1
176
     1
175
     1
176
     1
 42
1.0
176
     1
 92
        8
176
     1
 66
     7
176
     1
 43
1.0
176
     1
 76
     1
176
     1
 77
     6
176
     1
 78
     2
176
     1
 67
     7
176
     1
 79
     5
176
     1
170
     0
176
     1
171
     0
176
     1
290
     0
176
     1
 93
        1
176
     1
 44
0.0
176
     1
173
     0
176
     1
  0
VISUALSTYLE
  5
36
102
{ACAD_REACTORS
330
2A
102
}
102
{ACAD_XDICTIONARY
360
3F4
102
}
330
2A
100
AcDbVisualStyle
  2
Brighten
 70
    12
177
     2
291
     1
 71
     2
176
     1
 72
     2
176
     1
 73
     0
176
     1
 90
        0
176
     1
 40
0.6
176
     1
 41
30.0
176
     1
 62
     5
 63
     7
421
 16777215
176
     1
 74
     1
176
     1
 91
        4
176
     1
 64
     7
176
     1
 65
   257
176
     1
 75
     1
176
     1
175
     1
176
     1
 42
1.0
176
     1
 92
        8
176
     1
 66
     7
176
     1
 43
1.0
176
     1
 76
     1
176
     1
 77
     6
176
     1
 78
     2
176
     1
 67
     7
176
     1
 79
     5
176
     1
170
     0
176
     1
171
     0
176
     1
290
     0
176
     1
 93
        1
176
     1
 44
50.0
176
     1
173
     0
176
     1
  0
VISUALSTYLE
  5
3A
102
{ACAD_REACTORS
330
2A
102
}
102
{ACAD_XDICTIONARY
360
3FC
102
}
330
2A
100
AcDbVisualStyle
  2
ColorChange
 70
    16
177
     2
291
     1
 71
     2
176
     1
 72
     2
176
     1
 73
     3
176
     1
 90
        0
176
     1
 40
0.6
176
     1
 41
30.0
176
     1
 62
     5
 63
     8
421
  8421504
176
     1
 74
     1
176
     1
 91
        4
176
     1
 64
     7
176
     1
 65
   257
176
     1
 75
     1
176
     1
175
     1
176
     1
 42
1.0
176
     1
 92
        8
176
     1
 66
     8
424
  8421504
176
     1
 43
1.0
176
     1
 76
     1
176
     1
 77
     6
176
     1
 78
     2
176
     1
 67
     7
176
     1
 79
     5
176
     1
170
     0
176
     1
171
     0
176
     1
290
     0
176
     1
 93
        1
176
     1
 44
0.0
176
     1
173
     0
176
     1
  0
VISUALSTYLE
  5
34
102
{ACAD_REACTORS
330
2A
102
}
102
{ACAD_XDICTIONARY
360
3F0
102
}
330
2A
100
AcDbVisualStyle
  2
Conceptual
 70
     9
177
     2
291
     0
 71
     3
176
     1
 72
     2
176
     1
 73
     0
176
     1
 90
        0
176
     1
 40
0.6
176
     1
 41
30.0
176
     1
 62
     5
 63
     7
421
 16777215
176
     1
 74
     2
176
     1
 91
        2
176
     1
 64
     7
176
     1
 65
   257
176
     1
 75
     1
176
     1
175
     1
176
     1
 42
179.0
176
     1
 92
        8
176
     1
 66
     7
176
     1
 43
1.0
176
     1
 76
     1
176
     1
 77
     6
176
     1
 78
     2
176
     1
 67
     7
176
     1
 79
     3
176
     1
170
     0
176
     1
171
     0
176
     1
290
     0
176
     1
 93
        1
176
     1
 44
0.0
176
     1
173
     0
176
     1
  0
VISUALSTYLE
  5
35
102
{ACAD_REACTORS
330
2A
102
}
102
{ACAD_XDICTIONARY
360
3F2
102
}
330
2A
100
AcDbVisualStyle
  2
Dim
 70
    11
177
     2
291
     1
 71
     2
176
     1
 72
     2
176
     1
 73
     0
176
     1
 90
        0
176
     1
 40
0.6
176
     1
 41
30.0
176
     1
 62
     5
 63
     7
421
 16777215
176
     1
 74
     1
176
     1
 91
        4
176
     1
 64
     7
176
     1
 65
   257
176
     1
 75
     1
176
     1
175
     1
176
     1
 42
1.0
176
     1
 92
        8
176
     1
 66
     7
176
     1
 43
1.0
176
     1
 76
     1
176
     1
 77
     6
176
     1
 78
     2
176
     1
 67
     7
176
     1
 79
     5
176
     1
170
     0
176
     1
171
     0
176
     1
290
     0
176
     1
 93
        1
176
     1
 44
-50.0
176
     1
173
     0
176
     1
  0
VISUALSTYLE
  5
3D
102
{ACAD_REACTORS
330
2A
102
}
102
{ACAD_XDICTIONARY
360
402
102
}
330
2A
100
AcDbVisualStyle
  2
EdgeColorOff
 70
    22
177
     2
291
     1
 71
     2
176
     0
 72
     2
176
     0
 73
     0
176
     0
 90
        0
176
     0
 40
0.6
176
     0
 41
30.0
176
     0
 62
     5
 63
     7
421
 16777215
176
     0
 74
     1
176
     0
 91
        4
176
     0
 64
     7
176
     0
 65
   257
176
     0
 75
     1
176
     0
175
     1
176
     0
 42
1.0
176
     0
 92
        8
176
     2
 66
     7
176
     0
 43
1.0
176
     0
 76
     1
176
     0
 77
     6
176
     0
 78
     2
176
     0
 67
     7
176
     0
 79
     5
176
     0
170
     0
176
     0
171
     0
176
     0
290
     0
176
     0
 93
        1
176
     0
 44
0.0
176
     0
173
     0
176
     0
  0
VISUALSTYLE
  5
39
102
{ACAD_REACTORS
330
2A
102
}
102
{ACAD_XDICTIONARY
360
3FA
102
}
330
2A
100
AcDbVisualStyle
  2
Facepattern
 70
    15
177
     2
291
     1
 71
     2
176
     1
 72
     2
176
     1
 73
     0
176
     1
 90
        0
176
     1
 40
0.6
176
     1
 41
30.0
176
     1
 62
     5
 63
     7
421
 16777215
176
     1
 74
     1
176
     1
 91
        4
176
     1
 64
     7
176
     1
 65
   257
176
     1
 75
     1
176
     1
175
     1
176
     1
 42
1.0
176
     1
 92
        8
176
     1
 66
     7
176
     1
 43
1.0
176
     1
 76
     1
176
     1
 77
     6
176
     1
 78
     2
176
     1
 67
     7
176
     1
 79
     5
176
     1
170
     0
176
     1
171
     0
176
     1
290
     0
176
     1
 93
        1
176
     1
 44
0.0
176
     1
173
     0
176
     1
  0
VISUALSTYLE
  5
2B
102
{ACAD_REACTORS
330
2A
102
}
102
{ACAD_XDICTIONARY
360
3DE
102
}
330
2A
100
AcDbVisualStyle
  2
Flat
 70
     0
177
     2
291
     1
 71
     2
176
     1
 72
     1
176
     1
 73
     1
176
     1
 90
        2
176
     1
 40
0.6
176
     1
 41
30.0
176
     1
 62
     5
 63
     7
421
 16777215
176
     1
 74
     0
176
     1
 91
        0
176
     1
 64
     7
176
     1
 65
   257
176
     1
 75
     1
176
     1
175
     1
176
     1
 42
1.0
176
     1
 92
        8
176
     1
 66
     7
176
     1
 43
1.0
176
     1
 76
     1
176
     1
 77
     6
176
     1
 78
     2
176
     1
 67
     7
176
     1
 79
     5
176
     1
170
     0
176
     1
171
     0
176
     1
290
     0
176
     1
 93
       13
176
     1
 44
0.0
176
     1
173
     0
176
     1
  0
VISUALSTYLE
  5
2C
102
{ACAD_REACTORS
330
2A
102
}
102
{ACAD_XDICTIONARY
360
3E0
102
}
330
2A
100
AcDbVisualStyle
  2
FlatWithEdges
 70
     1
177
     2
291
     1
 71
     2
176
     1
 72
     1
176
     1
 73
     1
176
     1
 90
        2
176
     1
 40
0.6
176
     1
 41
30.0
176
     1
 62
     5
 63
     7
421
 16777215
176
     1
 74
     1
176
     1
 91
        0
176
     1
 64
     7
176
     1
 65
   257
176
     1
 75
     1
176
     1
175
     1
176
     1
 42
1.0
176
     1
 92
        0
176
     1
 66
   257
176
     1
 43
1.0
176
     1
 76
     1
176
     1
 77
     6
176
     1
 78
     2
176
     1
 67
     7
176
     1
 79
     5
176
     1
170
     0
176
     1
171
     0
176
     1
290
     0
176
     1
 93
       13
176
     1
 44
0.0
176
     1
173
     0
176
     1
  0
VISUALSTYLE
  5
2D
102
{ACAD_REACTORS
330
2A
102
}
102
{ACAD_XDICTIONARY
360
3E2
102
}
330
2A
100
AcDbVisualStyle
  2
Gouraud
 70
     2
177
     2
291
     1
 71
     2
176
     1
 72
     2
176
     1
 73
     1
176
     1
 90
        2
176
     1
 40
0.6
176
     1
 41
30.0
176
     1
 62
     5
 63
     7
421
 16777215
176
     1
 74
     0
176
     1
 91
        0
176
     1
 64
     7
176
     1
 65
   257
176
     1
 75
     1
176
     1
175
     1
176
     1
 42
1.0
176
     1
 92
        0
176
     1
 66
     7
176
     1
 43
1.0
176
     1
 76
     1
176
     1
 77
     6
176
     1
 78
     2
176
     1
 67
     7
176
     1
 79
     5
176
     1
170
     0
176
     1
171
     0
176
     1
290
     0
176
     1
 93
       13
176
     1
 44
0.0
176
     1
173
     0
176
     1
  0
VISUALSTYLE
  5
2E
102
{ACAD_REACTORS
330
2A
102
}
102
{ACAD_XDICTIONARY
360
3E4
102
}
330
2A
100
AcDbVisualStyle
  2
GouraudWithEdges
 70
     3
177
     2
291
     1
 71
     2
176
     1
 72
     2
176
     1
 73
     1
176
     1
 90
        2
176
     1
 40
0.6
176
     1
 41
30.0
176
     1
 62
     5
 63
     7
421
 16777215
176
     1
 74
     1
176
     1
 91
        0
176
     1
 64
     7
176
     1
 65
   257
176
     1
 75
     1
176
     1
175
     1
176
     1
 42
1.0
176
     1
 92
        0
176
     1
 66
   257
176
     1
 43
1.0
176
     1
 76
     1
176
     1
 77
     6
176
     1
 78
     2
176
     1
 67
     7
176
     1
 79
     5
176
     1
170
     0
176
     1
171
     0
176
     1
290
     0
176
     1
 93
       13
176
     1
 44
0.0
176
     1
173
     0
176
     1
  0
VISUALSTYLE
  5
31
102
{ACAD_REACTORS
330
2A
102
}
102
{ACAD_XDICTIONARY
360
3EA
102
}
330
2A
100
AcDbVisualStyle
  2
Hidden
 70
     6
177
     2
291
     0
 71
     1
176
     1
 72
     2
176
     1
 73
     2
176
     1
 90
        0
176
     1
 40
0.6
176
     1
 41
30.0
176
     1
 62
     5
 63
     7
421
 16777215
176
     1
 74
     2
176
     1
 91
        2
176
     1
 64
     7
176
     1
 65
   257
176
     1
 75
     2
176
     1
175
     1
176
     1
 42
40.0
176
     1
 92
        0
176
     1
 66
   257
176
     1
 43
1.0
176
     1
 76
     1
176
     1
 77
     6
176
     1
 78
     2
176
     1
 67
     7
176
     1
 79
     3
176
     1
170
     0
176
     1
171
     0
176
     1
290
     0
176
     1
 93
        1
176
     1
 44
0.0
176
     1
173
     0
176
     1
  0
VISUALSTYLE
  5
3B
102
{ACAD_REACTORS
330
2A
102
}
102
{ACAD_XDICTIONARY
360
3FE
102
}
330
2A
100
AcDbVisualStyle
  2
JitterOff
 70
    20
177
     2
291
     1
 71
     2
176
     0
 72
     2
176
     0
 73
     0
176
     0
 90
        0
176
     0
 40
0.6
176
     0
 41
30.0
176
     0
 62
     5
 63
     7
421
 16777215
176
     0
 74
     1
176
     0
 91
        4
176
     0
 64
     7
176
     0
 65
   257
176
     0
 75
     1
176
     0
175
     1
176
     0
 42
1.0
176
     0
 92
       10
176
     2
 66
     7
176
     0
 43
1.0
176
     0
 76
     1
176
     0
 77
     6
176
     0
 78
     2
176
     0
 67
     7
176
     0
 79
     5
176
     0
170
     0
176
     0
171
     0
176
     0
290
     0
176
     0
 93
        1
176
     0
 44
0.0
176
     0
173
     0
176
     0
  0
VISUALSTYLE
  5
38
102
{ACAD_REACTORS
330
2A
102
}
102
{ACAD_XDICTIONARY
360
3F8
102
}
330
2A
100
AcDbVisualStyle
  2
Linepattern
 70
    14
177
     2
291
     1
 71
     2
176
     1
 72
     2
176
     1
 73
     0
176
     1
 90
        0
176
     1
 40
0.6
176
     1
 41
30.0
176
     1
 62
     5
 63
     7
421
 16777215
176
     1
 74
     1
176
     1
 91
        4
176
     1
 64
     7
176
     1
 65
   257
176
     1
 75
     7
176
     1
175
     7
176
     1
 42
1.0
176
     1
 92
        8
176
     1
 66
     7
176
     1
 43
1.0
176
     1
 76
     1
176
     1
 77
     6
176
     1
 78
     2
176
     1
 67
     7
176
     1
 79
     5
176
     1
170
     0
176
     1
171
     0
176
     1
290
     0
176
     1
 93
        1
176
     1
 44
0.0
176
     1
173
     0
176
     1
  0
VISUALSTYLE
  5
3C
102
{ACAD_REACTORS
330
2A
102
}
102
{ACAD_XDICTIONARY
360
400
102
}
330
2A
100
AcDbVisualStyle
  2
OverhangOff
 70
    21
177
     2
291
     1
 71
     2
176
     0
 72
     2
176
     0
 73
     0
176
     0
 90
        0
176
     0
 40
0.6
176
     0
 41
30.0
176
     0
 62
     5
 63
     7
421
 16777215
176
     0
 74
     1
176
     0
 91
        4
176
     0
 64
     7
176
     0
 65
   257
176
     0
 75
     1
176
     0
175
     1
176
     0
 42
1.0
176
     0
 92
        9
176
     2
 66
     7
176
     0
 43
1.0
176
     0
 76
     1
176
     0
 77
     6
176
     0
 78
     2
176
     0
 67
     7
176
     0
 79
     5
176
     0
170
     0
176
     0
171
     0
176
     0
290
     0
176
     0
 93
        1
176
     0
 44
0.0
176
     0
173
     0
176
     0
  0
VISUALSTYLE
  5
33
102
{ACAD_REACTORS
330
2A
102
}
102
{ACAD_XDICTIONARY
360
3EE
102
}
330
2A
100
AcDbVisualStyle
  2
Realistic
 70
     8
177
     2
291
     0
 71
     2
176
     1
 72
     3
176
     1
 73
     0
176
     1
 90
        2
176
     1
 40
0.6
176
     1
 41
30.0
176
     1
 62
     5
 63
     7
421
 16777215
176
     1
 74
     0
176
     1
 91
        0
176
     1
 64
     7
176
     1
 65
   257
176
     1
 75
     1
176
     1
175
     1
176
     1
 42
1.0
176
     1
 92
        8
176
     1
 66
   257
176
     1
 43
1.0
176
     1
 76
     1
176
     1
 77
     6
176
     1
 78
     2
176
     1
 67
     7
176
     1
 79
     3
176
     1
170
     0
176
     1
171
     0
176
     1
290
     0
176
     1
 93
       13
176
     1
 44
0.0
176
     1
173
     0
176
     1
  0
VISUALSTYLE
  5
42
102
{ACAD_REACTORS
330
2A
102
}
102
{ACAD_XDICTIONARY
360
40C
102
}
330
2A
100
AcDbVisualStyle
  2
Shaded
 70
    27
177
     2
291
     0
 71
     2
176
     1
 72
     2
176
     1
 73
     1
176
     1
 90
        2
176
     1
 40
0.6
176
     1
 41
30.0
176
     1
 62
     5
 63
     7
421
 16777215
176
     1
 74
     0
176
     1
 91
        4
176
     1
 64
     7
176
     1
 65
   257
176
     1
 75
     1
176
     1
175
     1
176
     1
 42
1.0
176
     1
 92
        8
176
     1
 66
   257
176
     1
 43
1.0
176
     1
 76
     1
176
     1
 77
     6
176
     1
 78
     2
176
     1
 67
     8
425
  7895160
176
     1
 79
     3
176
     1
170
     0
176
     1
171
     0
176
     1
290
     0
176
     1
 93
        5
176
     1
 44
0.0
176
     1
173
     0
176
     1
  0
VISUALSTYLE
  5
41
102
{ACAD_REACTORS
330
2A
102
}
102
{ACAD_XDICTIONARY
360
40A
102
}
330
2A
100
AcDbVisualStyle
  2
Shaded with edges
 70
    26
177
     2
291
     0
 71
     2
176
     1
 72
     2
176
     1
 73
     1
176
     1
 90
        2
176
     1
 40
0.6
176
     1
 41
30.0
176
     1
 62
     5
 63
     7
421
 16777215
176
     1
 74
     1
176
     1
 91
       10
176
     1
 64
     7
176
     1
 65
   257
176
     1
 75
     2
176
     1
175
     1
176
     1
 42
1.0
176
     1
 92
        8
176
     1
 66
   257
176
     1
 43
1.0
176
     1
 76
     1
176
     1
 77
     6
176
     1
 78
     2
176
     1
 67
     7
176
     1
 79
     3
176
     1
170
     0
176
     1
171
     0
176
     1
290
     0
176
     1
 93
        5
176
     1
 44
0.0
176
     1
173
     0
176
     1
  0
VISUALSTYLE
  5
3E
102
{ACAD_REACTORS
330
2A
102
}
102
{ACAD_XDICTIONARY
360
404
102
}
330
2A
100
AcDbVisualStyle
  2
Shades of Gray
 70
    23
177
     2
291
     0
 71
     2
176
     1
 72
     2
176
     1
 73
     3
176
     1
 90
        0
176
     1
 40
0.6
176
     1
 41
30.0
176
     1
 62
     5
 63
     7
421
 16777215
176
     1
 74
     2
176
     1
 91
        2
176
     1
 64
     7
176
     1
 65
     7
176
     1
 75
     1
176
     1
175
     1
176
     1
 42
40.0
176
     1
 92
        8
176
     1
 66
     7
176
     1
 43
1.0
176
     1
 76
     1
176
     1
 77
     6
176
     1
 78
     2
176
     1
 67
     7
176
     1
 79
     3
176
     1
170
     0
176
     1
171
     0
176
     1
290
     0
176
     1
 93
        1
176
     1
 44
0.0
176
     1
173
     0
176
     1
  0
VISUALSTYLE
  5
3F
102
{ACAD_REACTORS
330
2A
102
}
102
{ACAD_XDICTIONARY
360
406
102
}
330
2A
100
AcDbVisualStyle
  2
Sketchy
 70
    24
177
     2
291
     0
 71
     1
176
     1
 72
     2
176
     1
 73
     2
176
     1
 90
        0
176
     1
 40
0.6
176
     1
 41
30.0
176
     1
 62
     5
 63
     7
421
 16777215
176
     1
 74
     2
176
     1
 91
        2
176
     1
 64
     7
176
     1
 65
     7
176
     1
 75
     1
176
     1
175
     1
176
     1
 42
40.0
176
     1
 92
       11
176
     1
 66
     7
176
     1
 43
1.0
176
     1
 76
     1
176
     1
 77
     6
176
     1
 78
     2
176
     1
 67
     7
176
     1
 79
     6
176
     1
170
     0
176
     1
171
     0
176
     1
290
     0
176
     1
 93
        1
176
     1
 44
0.0
176
     1
173
     0
176
     1
  0
VISUALSTYLE
  5
37
102
{ACAD_REACTORS
330
2A
102
}
102
{ACAD_XDICTIONARY
360
3F6
102
}
330
2A
100
AcDbVisualStyle
  2
Thicken
 70
    13
177
     2
291
     1
 71
     2
176
     1
 72
     2
176
     1
 73
     0
176
     1
 90
        0
176
     1
 40
0.6
176
     1
 41
30.0
176
     1
 62
     5
 63
     7
421
 16777215
176
     1
 74
     1
176
     1
 91
        4
176
     1
 64
     7
176
     1
 65
   257
176
     1
 75
     1
176
     1
175
     1
176
     1
 42
1.0
176
     1
 92
       12
176
     1
 66
     7
176
     1
 43
1.0
176
     1
 76
     1
176
     1
 77
     6
176
     1
 78
     2
176
     1
 67
     7
176
     1
 79
     5
176
     1
170
     0
176
     1
171
     0
176
     1
290
     0
176
     1
 93
        1
176
     1
 44
0.0
176
     1
173
     0
176
     1
  0
VISUALSTYLE
  5
30
102
{ACAD_REACTORS
330
2A
102
}
102
{ACAD_XDICTIONARY
360
3E8
102
}
330
2A
100
AcDbVisualStyle
  2
Wireframe
 70
     5
177
     2
291
     0
 71
     0
176
     1
 72
     2
176
     1
 73
     0
176
     1
 90
        0
176
     1
 40
0.6
176
     1
 41
30.0
176
     1
 62
     5
 63
     7
421
 16777215
176
     1
 74
     1
176
     1
 91
        4
176
     1
 64
     7
176
     1
 65
   257
176
     1
 75
     1
176
     1
175
     1
176
     1
 42
1.0
176
     1
 92
        0
176
     1
 66
   257
176
     1
 43
1.0
176
     1
 76
     1
176
     1
 77
     6
176
     1
 78
     2
176
     1
 67
     7
176
     1
 79
     3
176
     1
170
     0
176
     1
171
     0
176
     1
290
     0
176
     1
 93
        1
176
     1
 44
0.0
176
     1
173
     0
176
     1
  0
VISUALSTYLE
  5
40
102
{ACAD_REACTORS
330
2A
102
}
102
{ACAD_XDICTIONARY
360
408
102
}
330
2A
100
AcDbVisualStyle
  2
X-Ray
 70
    25
177
     2
291
     0
 71
     2
176
     1
 72
     2
176
     1
 73
     1
176
     1
 90
        1
176
     1
 40
0.5
176
     1
 41
30.0
176
     1
 62
     5
 63
     7
421
 16777215
176
     1
 74
     1
176
     1
 91
        0
176
     1
 64
     7
176
     1
 65
   257
176
     1
 75
     1
176
     1
175
     1
176
     1
 42
1.0
176
     1
 92
        8
176
     1
 66
     7
176
     1
 43
1.0
176
     1
 76
     1
176
     1
 77
     6
176
     1
 78
     2
176
     1
 67
     7
176
     1
 79
     3
176
     1
170
     0
176
     1
171
     0
176
     1
290
     0
176
     1
 93
       13
176
     1
 44
0.0
176
     1
173
     0
176
     1
  0
DICTIONARYVAR
  5
3DD
102
{ACAD_REACTORS
330
3DC
102
}
330
3DC
100
DictionaryVariables
280
     0
  1
1:1
  0
DICTIONARYVAR
  5
412
102
{ACAD_REACTORS
330
3DC
102
}
330
3DC
100
DictionaryVariables
280
     0
  1
Standard
  0
DICTIONARYVAR
  5
411
102
{ACAD_REACTORS
330
3DC
102
}
330
3DC
100
DictionaryVariables
280
     0
  1
Standard
  0
DICTIONARY
  5
40E
330
6A
100
AcDbDictionary
280
     1
281
     1
  3
ACAD_ROUNDTRIP_2008_TABLESTYLE_CELLSTYLEMAP
360
40F
  0
DICTIONARY
  5
3E6
330
2F
100
AcDbDictionary
280
     1
281
     1
  3
ACAD_XREC_ROUNDTRIP
360
3E7
  0
DICTIONARY
  5
3EC
330
32
100
AcDbDictionary
280
     1
281
     1
  3
ACAD_XREC_ROUNDTRIP
360
3ED
  0
DICTIONARY
  5
3F4
330
36
100
AcDbDictionary
280
     1
281
     1
  3
ACAD_XREC_ROUNDTRIP
360
3F5
  0
DICTIONARY
  5
3FC
330
3A
100
AcDbDictionary
280
     1
281
     1
  3
ACAD_XREC_ROUNDTRIP
360
3FD
  0
DICTIONARY
  5
3F0
330
34
100
AcDbDictionary
280
     1
281
     1
  3
ACAD_XREC_ROUNDTRIP
360
3F1
  0
DICTIONARY
  5
3F2
330
35
100
AcDbDictionary
280
     1
281
     1
  3
ACAD_XREC_ROUNDTRIP
360
3F3
  0
DICTIONARY
  5
402
330
3D
100
AcDbDictionary
280
     1
281
     1
  3
ACAD_XREC_ROUNDTRIP
360
403
  0
DICTIONARY
  5
3FA
330
39
100
AcDbDictionary
280
     1
281
     1
  3
ACAD_XREC_ROUNDTRIP
360
3FB
  0
DICTIONARY
  5
3DE
330
2B
100
AcDbDictionary
280
     1
281
     1
  3
ACAD_XREC_ROUNDTRIP
360
3DF
  0
DICTIONARY
  5
3E0
330
2C
100
AcDbDictionary
280
     1
281
     1
  3
ACAD_XREC_ROUNDTRIP
360
3E1
  0
DICTIONARY
  5
3E2
330
2D
100
AcDbDictionary
280
     1
281
     1
  3
ACAD_XREC_ROUNDTRIP
360
3E3
  0
DICTIONARY
  5
3E4
330
2E
100
AcDbDictionary
280
     1
281
     1
  3
ACAD_XREC_ROUNDTRIP
360
3E5
  0
DICTIONARY
  5
3EA
330
31
100
AcDbDictionary
280
     1
281
     1
  3
ACAD_XREC_ROUNDTRIP
360
3EB
  0
DICTIONARY
  5
3FE
330
3B
100
AcDbDictionary
280
     1
281
     1
  3
ACAD_XREC_ROUNDTRIP
360
3FF
  0
DICTIONARY
  5
3F8
330
38
100
AcDbDictionary
280
     1
281
     1
  3
ACAD_XREC_ROUNDTRIP
360
3F9
  0
DICTIONARY
  5
400
330
3C
100
AcDbDictionary
280
     1
281
     1
  3
ACAD_XREC_ROUNDTRIP
360
401
  0
DICTIONARY
  5
3EE
330
33
100
AcDbDictionary
280
     1
281
     1
  3
ACAD_XREC_ROUNDTRIP
360
3EF
  0
DICTIONARY
  5
40C
330
42
100
AcDbDictionary
280
     1
281
     1
  3
ACAD_XREC_ROUNDTRIP
360
40D
  0
DICTIONARY
  5
40A
330
41
100
AcDbDictionary
280
     1
281
     1
  3
ACAD_XREC_ROUNDTRIP
360
40B
  0
DICTIONARY
  5
404
330
3E
100
AcDbDictionary
280
     1
281
     1
  3
ACAD_XREC_ROUNDTRIP
360
405
  0
DICTIONARY
  5
406
330
3F
100
AcDbDictionary
280
     1
281
     1
  3
ACAD_XREC_ROUNDTRIP
360
407
  0
DICTIONARY
  5
3F6
330
37
100
AcDbDictionary
280
     1
281
     1
  3
ACAD_XREC_ROUNDTRIP
360
3F7
  0
DICTIONARY
  5
3E8
330
30
100
AcDbDictionary
280
     1
281
     1
  3
ACAD_XREC_ROUNDTRIP
360
3E9
  0
DICTIONARY
  5
408
330
40
100
AcDbDictionary
280
     1
281
     1
  3
ACAD_XREC_ROUNDTRIP
360
409
  0
CELLSTYLEMAP
  5
40F
102
{ACAD_REACTORS
330
40E
102
}
330
40E
100
AcDbCellStyleMap
 90
        3
300
CELLSTYLE
  1
TABLEFORMAT_BEGIN
 90
        5
170
     1
 91
        0
 92
    32768
 62
   257
 93
        1
300
CONTENTFORMAT
  1
CONTENTFORMAT_BEGIN
 90
        0
 91
        0
 92
        4
 93
        0
300

 40
0.0
140
1.0
 94
        5
 62
     0
340
11
144
6.0
309
CONTENTFORMAT_END
171
     1
301
MARGIN
  1
CELLMARGIN_BEGIN
 40
1.5
 40
1.5
 40
1.5
 40
1.5
 40
1.5
 40
1.5
309
CELLMARGIN_END
 94
        6
 95
        1
302
GRIDFORMAT
  1
GRIDFORMAT_BEGIN
 90
        0
 91
        1
 62
     0
 92
       -2
340
14
 93
        0
 40
0.045
309
GRIDFORMAT_END
 95
        2
302
GRIDFORMAT
  1
GRIDFORMAT_BEGIN
 90
        0
 91
        1
 62
     0
 92
       -2
340
14
 93
        0
 40
0.045
309
GRIDFORMAT_END
 95
        4
302
GRIDFORMAT
  1
GRIDFORMAT_BEGIN
 90
        0
 91
        1
 62
     0
 92
       -2
340
14
 93
        0
 40
0.045
309
GRIDFORMAT_END
 95
        8
302
GRIDFORMAT
  1
GRIDFORMAT_BEGIN
 90
        0
 91
        1
 62
     0
 92
       -2
340
14
 93
        0
 40
0.045
309
GRIDFORMAT_END
 95
       16
302
GRIDFORMAT
  1
GRIDFORMAT_BEGIN
 90
        0
 91
        1
 62
     0
 92
       -2
340
14
 93
        0
 40
0.045
309
GRIDFORMAT_END
 95
       32
302
GRIDFORMAT
  1
GRIDFORMAT_BEGIN
 90
        0
 91
        1
 62
     0
 92
       -2
340
14
 93
        0
 40
0.045
309
GRIDFORMAT_END
309
TABLEFORMAT_END
  1
CELLSTYLE_BEGIN
 90
        1
 91
        1
300
_TITLE
309
CELLSTYLE_END
300
CELLSTYLE
  1
TABLEFORMAT_BEGIN
 90
        5
170
     1
 91
        0
 92
        0
 62
   257
 93
        1
300
CONTENTFORMAT
  1
CONTENTFORMAT_BEGIN
 90
        0
 91
        0
 92
        4
 93
        0
300

 40
0.0
140
1.0
 94
        5
 62
     0
340
11
144
4.5
309
CONTENTFORMAT_END
171
     1
301
MARGIN
  1
CELLMARGIN_BEGIN
 40
1.5
 40
1.5
 40
1.5
 40
1.5
 40
1.5
 40
1.5
309
CELLMARGIN_END
 94
        6
 95
        1
302
GRIDFORMAT
  1
GRIDFORMAT_BEGIN
 90
        0
 91
        1
 62
     0
 92
       -2
340
14
 93
        0
 40
0.045
309
GRIDFORMAT_END
 95
        2
302
GRIDFORMAT
  1
GRIDFORMAT_BEGIN
 90
        0
 91
        1
 62
     0
 92
       -2
340
14
 93
        0
 40
0.045
309
GRIDFORMAT_END
 95
        4
302
GRIDFORMAT
  1
GRIDFORMAT_BEGIN
 90
        0
 91
        1
 62
     0
 92
       -2
340
14
 93
        0
 40
0.045
309
GRIDFORMAT_END
 95
        8
302
GRIDFORMAT
  1
GRIDFORMAT_BEGIN
 90
        0
 91
        1
 62
     0
 92
       -2
340
14
 93
        0
 40
0.045
309
GRIDFORMAT_END
 95
       16
302
GRIDFORMAT
  1
GRIDFORMAT_BEGIN
 90
        0
 91
        1
 62
     0
 92
       -2
340
14
 93
        0
 40
0.045
309
GRIDFORMAT_END
 95
       32
302
GRIDFORMAT
  1
GRIDFORMAT_BEGIN
 90
        0
 91
        1
 62
     0
 92
       -2
340
14
 93
        0
 40
0.045
309
GRIDFORMAT_END
309
TABLEFORMAT_END
  1
CELLSTYLE_BEGIN
 90
        2
 91
        1
300
_HEADER
309
CELLSTYLE_END
300
CELLSTYLE
  1
TABLEFORMAT_BEGIN
 90
        5
170
     1
 91
        0
 92
        0
 62
   257
 93
        1
300
CONTENTFORMAT
  1
CONTENTFORMAT_BEGIN
 90
        0
 91
        0
 92
        4
 93
        0
300

 40
0.0
140
1.0
 94
        2
 62
     0
340
11
144
4.5
309
CONTENTFORMAT_END
171
     1
301
MARGIN
  1
CELLMARGIN_BEGIN
 40
1.5
 40
1.5
 40
1.5
 40
1.5
 40
1.5
 40
1.5
309
CELLMARGIN_END
 94
        6
 95
        1
302
GRIDFORMAT
  1
GRIDFORMAT_BEGIN
 90
        0
 91
        1
 62
     0
 92
       -2
340
14
 93
        0
 40
0.045
309
GRIDFORMAT_END
 95
        2
302
GRIDFORMAT
  1
GRIDFORMAT_BEGIN
 90
        0
 91
        1
 62
     0
 92
       -2
340
14
 93
        0
 40
0.045
309
GRIDFORMAT_END
 95
        4
302
GRIDFORMAT
  1
GRIDFORMAT_BEGIN
 90
        0
 91
        1
 62
     0
 92
       -2
340
14
 93
        0
 40
0.045
309
GRIDFORMAT_END
 95
        8
302
GRIDFORMAT
  1
GRIDFORMAT_BEGIN
 90
        0
 91
        1
 62
     0
 92
       -2
340
14
 93
        0
 40
0.045
309
GRIDFORMAT_END
 95
       16
302
GRIDFORMAT
  1
GRIDFORMAT_BEGIN
 90
        0
 91
        1
 62
     0
 92
       -2
340
14
 93
        0
 40
0.045
309
GRIDFORMAT_END
 95
       32
302
GRIDFORMAT
  1
GRIDFORMAT_BEGIN
 90
        0
 91
        1
 62
     0
 92
       -2
340
14
 93
        0
 40
0.045
309
GRIDFORMAT_END
309
TABLEFORMAT_END
  1
CELLSTYLE_BEGIN
 90
        3
 91
        2
300
_DATA
309
CELLSTYLE_END
  0
XRECORD
  5
3E7
102
{ACAD_REACTORS
330
3E6
102
}
330
3E6
100
AcDbXrecord
280
     1
102
RTVSPost2010Prop28
280
     1
102
RTVSPost2010PropOp28
 70
     1
102
RTVSPost2010Prop29
280
     1
102
RTVSPost2010PropOp29
 70
     1
102
RTVSPost2010Prop30
280
     0
102
RTVSPost2010PropOp30
 70
     1
102
RTVSPost2010Prop31
280
     0
102
RTVSPost2010PropOp31
 70
     1
102
RTVSPost2010Prop32
280
     0
102
RTVSPost2010PropOp32
 70
     1
102
RTVSPost2010Prop33
280
     0
102
RTVSPost2010PropOp33
 70
     1
102
RTVSPost2010Prop34
280
     0
102
RTVSPost2010PropOp34
 70
     1
102
RTVSPost2010Prop35
280
     0
102
RTVSPost2010PropOp35
 70
     1
102
RTVSPost2010Prop36
280
     0
102
RTVSPost2010PropOp36
 70
     1
102
RTVSPost2010Prop37
 90
       50
102
RTVSPost2010PropOp37
 70
     1
102
RTVSPost2010Prop38
140
0.0
102
RTVSPost2010PropOp38
 70
     1
102
RTVSPost2010Prop39
140
1.0
102
RTVSPost2010PropOp39
 70
     1
102
RTVSPost2010Prop40
 90
        0
102
RTVSPost2010PropOp40
 70
     1
102
RTVSPost2010Prop41ColorIndex
 90
       18
102
RTVSPost2010Prop41ColorRGB
 90
        0
102
RTVSPost2010PropOp41
 70
     1
102
RTVSPost2010Prop42
 90
       50
102
RTVSPost2010PropOp42
 70
     1
102
RTVSPost2010Prop43
 90
        3
102
RTVSPost2010PropOp43
 70
     1
102
RTVSPost2010Prop44ColorIndex
 90
        5
102
RTVSPost2010Prop44ColorRGB
 90
      255
102
RTVSPost2010PropOp44
 70
     1
102
RTVSPost2010Prop45
280
     0
102
RTVSPost2010PropOp45
 70
     1
102
RTVSPost2010Prop46
 90
       50
102
RTVSPost2010PropOp46
 70
     1
102
RTVSPost2010Prop47
 90
       50
102
RTVSPost2010PropOp47
 70
     1
102
RTVSPost2010Prop48
 90
       50
102
RTVSPost2010PropOp48
 70
     1
102
RTVSPost2010Prop49
280
     0
102
RTVSPost2010PropOp49
 70
     1
102
RTVSPost2010Prop50
 90
       50
102
RTVSPost2010PropOp50
 70
     1
102
RTVSPost2010Prop51ColorIndex
 90
      256
102
RTVSPost2010Prop51ColorRGB
 90
-16777216
102
RTVSPost2010PropOp51
 70
     0
102
RTVSPost2010Prop52
140
1.0
102
RTVSPost2010PropOp52
 70
     0
102
RTVSPost2010Prop53
 90
        2
102
RTVSPost2010PropOp53
 70
     1
102
RTVSPost2010Prop54
  1
strokes_ogs.tif
102
RTVSPost2010PropOp54
 70
     1
102
RTVSPost2010Prop55
280
     0
102
RTVSPost2010PropOp55
 70
     1
102
RTVSPost2010Prop56
140
1.0
102
RTVSPost2010PropOp56
 70
     1
102
RTVSPost2010Prop57
140
1.0
102
RTVSPost2010PropOp57
 70
     1
  0
XRECORD
  5
3ED
102
{ACAD_REACTORS
330
3EC
102
}
330
3EC
100
AcDbXrecord
280
     1
102
RTVSPost2010Prop28
280
     0
102
RTVSPost2010PropOp28
 70
     1
102
RTVSPost2010Prop29
280
     1
102
RTVSPost2010PropOp29
 70
     1
102
RTVSPost2010Prop30
280
     1
102
RTVSPost2010PropOp30
 70
     1
102
RTVSPost2010Prop31
280
     0
102
RTVSPost2010PropOp31
 70
     1
102
RTVSPost2010Prop32
280
     0
102
RTVSPost2010PropOp32
 70
     1
102
RTVSPost2010Prop33
280
     0
102
RTVSPost2010PropOp33
 70
     1
102
RTVSPost2010Prop34
280
     0
102
RTVSPost2010PropOp34
 70
     1
102
RTVSPost2010Prop35
280
     0
102
RTVSPost2010PropOp35
 70
     1
102
RTVSPost2010Prop36
280
     0
102
RTVSPost2010PropOp36
 70
     1
102
RTVSPost2010Prop37
 90
       50
102
RTVSPost2010PropOp37
 70
     1
102
RTVSPost2010Prop38
140
0.0
102
RTVSPost2010PropOp38
 70
     1
102
RTVSPost2010Prop39
140
1.0
102
RTVSPost2010PropOp39
 70
     1
102
RTVSPost2010Prop40
 90
        0
102
RTVSPost2010PropOp40
 70
     1
102
RTVSPost2010Prop41ColorIndex
 90
       18
102
RTVSPost2010Prop41ColorRGB
 90
        0
102
RTVSPost2010PropOp41
 70
     1
102
RTVSPost2010Prop42
 90
       50
102
RTVSPost2010PropOp42
 70
     1
102
RTVSPost2010Prop43
 90
        3
102
RTVSPost2010PropOp43
 70
     1
102
RTVSPost2010Prop44ColorIndex
 90
        5
102
RTVSPost2010Prop44ColorRGB
 90
      255
102
RTVSPost2010PropOp44
 70
     1
102
RTVSPost2010Prop45
280
     0
102
RTVSPost2010PropOp45
 70
     1
102
RTVSPost2010Prop46
 90
       50
102
RTVSPost2010PropOp46
 70
     1
102
RTVSPost2010Prop47
 90
       50
102
RTVSPost2010PropOp47
 70
     1
102
RTVSPost2010Prop48
 90
       50
102
RTVSPost2010PropOp48
 70
     1
102
RTVSPost2010Prop49
280
     0
102
RTVSPost2010PropOp49
 70
     1
102
RTVSPost2010Prop50
 90
       50
102
RTVSPost2010PropOp50
 70
     1
102
RTVSPost2010Prop51ColorIndex
 90
      256
102
RTVSPost2010Prop51ColorRGB
 90
-16777216
102
RTVSPost2010PropOp51
 70
     0
102
RTVSPost2010Prop52
140
1.0
102
RTVSPost2010PropOp52
 70
     0
102
RTVSPost2010Prop53
 90
        2
102
RTVSPost2010PropOp53
 70
     1
102
RTVSPost2010Prop54
  1
strokes_ogs.tif
102
RTVSPost2010PropOp54
 70
     1
102
RTVSPost2010Prop55
280
     0
102
RTVSPost2010PropOp55
 70
     1
102
RTVSPost2010Prop56
140
1.0
102
RTVSPost2010PropOp56
 70
     1
102
RTVSPost2010Prop57
140
1.0
102
RTVSPost2010PropOp57
 70
     1
  0
XRECORD
  5
3F5
102
{ACAD_REACTORS
330
3F4
102
}
330
3F4
100
AcDbXrecord
280
     1
102
RTVSPost2010Prop28
280
     0
102
RTVSPost2010PropOp28
 70
     1
102
RTVSPost2010Prop29
280
     1
102
RTVSPost2010PropOp29
 70
     1
102
RTVSPost2010Prop30
280
     1
102
RTVSPost2010PropOp30
 70
     1
102
RTVSPost2010Prop31
280
     0
102
RTVSPost2010PropOp31
 70
     1
102
RTVSPost2010Prop32
280
     0
102
RTVSPost2010PropOp32
 70
     1
102
RTVSPost2010Prop33
280
     0
102
RTVSPost2010PropOp33
 70
     1
102
RTVSPost2010Prop34
280
     0
102
RTVSPost2010PropOp34
 70
     1
102
RTVSPost2010Prop35
280
     0
102
RTVSPost2010PropOp35
 70
     1
102
RTVSPost2010Prop36
280
     0
102
RTVSPost2010PropOp36
 70
     1
102
RTVSPost2010Prop37
 90
       50
102
RTVSPost2010PropOp37
 70
     1
102
RTVSPost2010Prop38
140
0.0
102
RTVSPost2010PropOp38
 70
     1
102
RTVSPost2010Prop39
140
1.0
102
RTVSPost2010PropOp39
 70
     1
102
RTVSPost2010Prop40
 90
        0
102
RTVSPost2010PropOp40
 70
     1
102
RTVSPost2010Prop41ColorIndex
 90
       18
102
RTVSPost2010Prop41ColorRGB
 90
        0
102
RTVSPost2010PropOp41
 70
     1
102
RTVSPost2010Prop42
 90
       50
102
RTVSPost2010PropOp42
 70
     1
102
RTVSPost2010Prop43
 90
        3
102
RTVSPost2010PropOp43
 70
     1
102
RTVSPost2010Prop44ColorIndex
 90
        5
102
RTVSPost2010Prop44ColorRGB
 90
      255
102
RTVSPost2010PropOp44
 70
     1
102
RTVSPost2010Prop45
280
     0
102
RTVSPost2010PropOp45
 70
     1
102
RTVSPost2010Prop46
 90
       50
102
RTVSPost2010PropOp46
 70
     1
102
RTVSPost2010Prop47
 90
       50
102
RTVSPost2010PropOp47
 70
     1
102
RTVSPost2010Prop48
 90
       50
102
RTVSPost2010PropOp48
 70
     1
102
RTVSPost2010Prop49
280
     0
102
RTVSPost2010PropOp49
 70
     1
102
RTVSPost2010Prop50
 90
       50
102
RTVSPost2010PropOp50
 70
     1
102
RTVSPost2010Prop51ColorIndex
 90
      256
102
RTVSPost2010Prop51ColorRGB
 90
-16777216
102
RTVSPost2010PropOp51
 70
     0
102
RTVSPost2010Prop52
140
1.0
102
RTVSPost2010PropOp52
 70
     0
102
RTVSPost2010Prop53
 90
        2
102
RTVSPost2010PropOp53
 70
     1
102
RTVSPost2010Prop54
  1
strokes_ogs.tif
102
RTVSPost2010PropOp54
 70
     1
102
RTVSPost2010Prop55
280
     0
102
RTVSPost2010PropOp55
 70
     1
102
RTVSPost2010Prop56
140
1.0
102
RTVSPost2010PropOp56
 70
     1
102
RTVSPost2010Prop57
140
1.0
102
RTVSPost2010PropOp57
 70
     1
  0
XRECORD
  5
3FD
102
{ACAD_REACTORS
330
3FC
102
}
330
3FC
100
AcDbXrecord
280
     1
102
RTVSPost2010Prop28
280
     0
102
RTVSPost2010PropOp28
 70
     1
102
RTVSPost2010Prop29
280
     1
102
RTVSPost2010PropOp29
 70
     1
102
RTVSPost2010Prop30
280
     1
102
RTVSPost2010PropOp30
 70
     1
102
RTVSPost2010Prop31
280
     0
102
RTVSPost2010PropOp31
 70
     1
102
RTVSPost2010Prop32
280
     0
102
RTVSPost2010PropOp32
 70
     1
102
RTVSPost2010Prop33
280
     0
102
RTVSPost2010PropOp33
 70
     1
102
RTVSPost2010Prop34
280
     0
102
RTVSPost2010PropOp34
 70
     1
102
RTVSPost2010Prop35
280
     0
102
RTVSPost2010PropOp35
 70
     1
102
RTVSPost2010Prop36
280
     0
102
RTVSPost2010PropOp36
 70
     1
102
RTVSPost2010Prop37
 90
       50
102
RTVSPost2010PropOp37
 70
     1
102
RTVSPost2010Prop38
140
0.0
102
RTVSPost2010PropOp38
 70
     1
102
RTVSPost2010Prop39
140
1.0
102
RTVSPost2010PropOp39
 70
     1
102
RTVSPost2010Prop40
 90
        0
102
RTVSPost2010PropOp40
 70
     1
102
RTVSPost2010Prop41ColorIndex
 90
       18
102
RTVSPost2010Prop41ColorRGB
 90
        0
102
RTVSPost2010PropOp41
 70
     1
102
RTVSPost2010Prop42
 90
       50
102
RTVSPost2010PropOp42
 70
     1
102
RTVSPost2010Prop43
 90
        3
102
RTVSPost2010PropOp43
 70
     1
102
RTVSPost2010Prop44ColorIndex
 90
        5
102
RTVSPost2010Prop44ColorRGB
 90
      255
102
RTVSPost2010PropOp44
 70
     1
102
RTVSPost2010Prop45
280
     0
102
RTVSPost2010PropOp45
 70
     1
102
RTVSPost2010Prop46
 90
       50
102
RTVSPost2010PropOp46
 70
     1
102
RTVSPost2010Prop47
 90
       50
102
RTVSPost2010PropOp47
 70
     1
102
RTVSPost2010Prop48
 90
       50
102
RTVSPost2010PropOp48
 70
     1
102
RTVSPost2010Prop49
280
     0
102
RTVSPost2010PropOp49
 70
     1
102
RTVSPost2010Prop50
 90
       50
102
RTVSPost2010PropOp50
 70
     1
102
RTVSPost2010Prop51ColorIndex
 90
      256
102
RTVSPost2010Prop51ColorRGB
 90
-16777216
102
RTVSPost2010PropOp51
 70
     0
102
RTVSPost2010Prop52
140
1.0
102
RTVSPost2010PropOp52
 70
     0
102
RTVSPost2010Prop53
 90
        2
102
RTVSPost2010PropOp53
 70
     1
102
RTVSPost2010Prop54
  1
strokes_ogs.tif
102
RTVSPost2010PropOp54
 70
     1
102
RTVSPost2010Prop55
280
     0
102
RTVSPost2010PropOp55
 70
     1
102
RTVSPost2010Prop56
140
1.0
102
RTVSPost2010PropOp56
 70
     1
102
RTVSPost2010Prop57
140
1.0
102
RTVSPost2010PropOp57
 70
     1
  0
XRECORD
  5
3F1
102
{ACAD_REACTORS
330
3F0
102
}
330
3F0
100
AcDbXrecord
280
     1
102
RTVSPost2010Prop28
280
     0
102
RTVSPost2010PropOp28
 70
     1
102
RTVSPost2010Prop29
280
     1
102
RTVSPost2010PropOp29
 70
     1
102
RTVSPost2010Prop30
280
     1
102
RTVSPost2010PropOp30
 70
     1
102
RTVSPost2010Prop31
280
     0
102
RTVSPost2010PropOp31
 70
     1
102
RTVSPost2010Prop32
280
     0
102
RTVSPost2010PropOp32
 70
     1
102
RTVSPost2010Prop33
280
     0
102
RTVSPost2010PropOp33
 70
     1
102
RTVSPost2010Prop34
280
     0
102
RTVSPost2010PropOp34
 70
     1
102
RTVSPost2010Prop35
280
     0
102
RTVSPost2010PropOp35
 70
     1
102
RTVSPost2010Prop36
280
     0
102
RTVSPost2010PropOp36
 70
     1
102
RTVSPost2010Prop37
 90
       50
102
RTVSPost2010PropOp37
 70
     1
102
RTVSPost2010Prop38
140
0.0
102
RTVSPost2010PropOp38
 70
     1
102
RTVSPost2010Prop39
140
1.0
102
RTVSPost2010PropOp39
 70
     1
102
RTVSPost2010Prop40
 90
        0
102
RTVSPost2010PropOp40
 70
     1
102
RTVSPost2010Prop41ColorIndex
 90
       18
102
RTVSPost2010Prop41ColorRGB
 90
        0
102
RTVSPost2010PropOp41
 70
     1
102
RTVSPost2010Prop42
 90
       50
102
RTVSPost2010PropOp42
 70
     1
102
RTVSPost2010Prop43
 90
        3
102
RTVSPost2010PropOp43
 70
     1
102
RTVSPost2010Prop44ColorIndex
 90
        5
102
RTVSPost2010Prop44ColorRGB
 90
      255
102
RTVSPost2010PropOp44
 70
     1
102
RTVSPost2010Prop45
280
     0
102
RTVSPost2010PropOp45
 70
     1
102
RTVSPost2010Prop46
 90
       50
102
RTVSPost2010PropOp46
 70
     1
102
RTVSPost2010Prop47
 90
       50
102
RTVSPost2010PropOp47
 70
     1
102
RTVSPost2010Prop48
 90
       50
102
RTVSPost2010PropOp48
 70
     1
102
RTVSPost2010Prop49
280
     0
102
RTVSPost2010PropOp49
 70
     1
102
RTVSPost2010Prop50
 90
       50
102
RTVSPost2010PropOp50
 70
     1
102
RTVSPost2010Prop51ColorIndex
 90
      256
102
RTVSPost2010Prop51ColorRGB
 90
-16777216
102
RTVSPost2010PropOp51
 70
     0
102
RTVSPost2010Prop52
140
1.0
102
RTVSPost2010PropOp52
 70
     0
102
RTVSPost2010Prop53
 90
        2
102
RTVSPost2010PropOp53
 70
     1
102
RTVSPost2010Prop54
  1
strokes_ogs.tif
102
RTVSPost2010PropOp54
 70
     1
102
RTVSPost2010Prop55
280
     0
102
RTVSPost2010PropOp55
 70
     1
102
RTVSPost2010Prop56
140
1.0
102
RTVSPost2010PropOp56
 70
     1
102
RTVSPost2010Prop57
140
1.0
102
RTVSPost2010PropOp57
 70
     1
  0
XRECORD
  5
3F3
102
{ACAD_REACTORS
330
3F2
102
}
330
3F2
100
AcDbXrecord
280
     1
102
RTVSPost2010Prop28
280
     0
102
RTVSPost2010PropOp28
 70
     1
102
RTVSPost2010Prop29
280
     1
102
RTVSPost2010PropOp29
 70
     1
102
RTVSPost2010Prop30
280
     1
102
RTVSPost2010PropOp30
 70
     1
102
RTVSPost2010Prop31
280
     0
102
RTVSPost2010PropOp31
 70
     1
102
RTVSPost2010Prop32
280
     0
102
RTVSPost2010PropOp32
 70
     1
102
RTVSPost2010Prop33
280
     0
102
RTVSPost2010PropOp33
 70
     1
102
RTVSPost2010Prop34
280
     0
102
RTVSPost2010PropOp34
 70
     1
102
RTVSPost2010Prop35
280
     0
102
RTVSPost2010PropOp35
 70
     1
102
RTVSPost2010Prop36
280
     0
102
RTVSPost2010PropOp36
 70
     1
102
RTVSPost2010Prop37
 90
       50
102
RTVSPost2010PropOp37
 70
     1
102
RTVSPost2010Prop38
140
0.0
102
RTVSPost2010PropOp38
 70
     1
102
RTVSPost2010Prop39
140
1.0
102
RTVSPost2010PropOp39
 70
     1
102
RTVSPost2010Prop40
 90
        0
102
RTVSPost2010PropOp40
 70
     1
102
RTVSPost2010Prop41ColorIndex
 90
       18
102
RTVSPost2010Prop41ColorRGB
 90
        0
102
RTVSPost2010PropOp41
 70
     1
102
RTVSPost2010Prop42
 90
       50
102
RTVSPost2010PropOp42
 70
     1
102
RTVSPost2010Prop43
 90
        3
102
RTVSPost2010PropOp43
 70
     1
102
RTVSPost2010Prop44ColorIndex
 90
        5
102
RTVSPost2010Prop44ColorRGB
 90
      255
102
RTVSPost2010PropOp44
 70
     1
102
RTVSPost2010Prop45
280
     0
102
RTVSPost2010PropOp45
 70
     1
102
RTVSPost2010Prop46
 90
       50
102
RTVSPost2010PropOp46
 70
     1
102
RTVSPost2010Prop47
 90
       50
102
RTVSPost2010PropOp47
 70
     1
102
RTVSPost2010Prop48
 90
       50
102
RTVSPost2010PropOp48
 70
     1
102
RTVSPost2010Prop49
280
     0
102
RTVSPost2010PropOp49
 70
     1
102
RTVSPost2010Prop50
 90
       50
102
RTVSPost2010PropOp50
 70
     1
102
RTVSPost2010Prop51ColorIndex
 90
      256
102
RTVSPost2010Prop51ColorRGB
 90
-16777216
102
RTVSPost2010PropOp51
 70
     0
102
RTVSPost2010Prop52
140
1.0
102
RTVSPost2010PropOp52
 70
     0
102
RTVSPost2010Prop53
 90
        2
102
RTVSPost2010PropOp53
 70
     1
102
RTVSPost2010Prop54
  1
strokes_ogs.tif
102
RTVSPost2010PropOp54
 70
     1
102
RTVSPost2010Prop55
280
     0
102
RTVSPost2010PropOp55
 70
     1
102
RTVSPost2010Prop56
140
1.0
102
RTVSPost2010PropOp56
 70
     1
102
RTVSPost2010Prop57
140
1.0
102
RTVSPost2010PropOp57
 70
     1
  0
XRECORD
  5
403
102
{ACAD_REACTORS
330
402
102
}
330
402
100
AcDbXrecord
280
     1
102
RTVSPost2010Prop28
280
     0
102
RTVSPost2010PropOp28
 70
     0
102
RTVSPost2010Prop29
280
     1
102
RTVSPost2010PropOp29
 70
     0
102
RTVSPost2010Prop30
280
     1
102
RTVSPost2010PropOp30
 70
     0
102
RTVSPost2010Prop31
280
     0
102
RTVSPost2010PropOp31
 70
     0
102
RTVSPost2010Prop32
280
     0
102
RTVSPost2010PropOp32
 70
     0
102
RTVSPost2010Prop33
280
     0
102
RTVSPost2010PropOp33
 70
     0
102
RTVSPost2010Prop34
280
     0
102
RTVSPost2010PropOp34
 70
     0
102
RTVSPost2010Prop35
280
     0
102
RTVSPost2010PropOp35
 70
     0
102
RTVSPost2010Prop36
280
     0
102
RTVSPost2010PropOp36
 70
     0
102
RTVSPost2010Prop37
 90
       50
102
RTVSPost2010PropOp37
 70
     0
102
RTVSPost2010Prop38
140
0.0
102
RTVSPost2010PropOp38
 70
     0
102
RTVSPost2010Prop39
140
1.0
102
RTVSPost2010PropOp39
 70
     0
102
RTVSPost2010Prop40
 90
        0
102
RTVSPost2010PropOp40
 70
     0
102
RTVSPost2010Prop41ColorIndex
 90
       18
102
RTVSPost2010Prop41ColorRGB
 90
        0
102
RTVSPost2010PropOp41
 70
     0
102
RTVSPost2010Prop42
 90
       50
102
RTVSPost2010PropOp42
 70
     0
102
RTVSPost2010Prop43
 90
        3
102
RTVSPost2010PropOp43
 70
     0
102
RTVSPost2010Prop44ColorIndex
 90
        5
102
RTVSPost2010Prop44ColorRGB
 90
      255
102
RTVSPost2010PropOp44
 70
     0
102
RTVSPost2010Prop45
280
     0
102
RTVSPost2010PropOp45
 70
     0
102
RTVSPost2010Prop46
 90
       50
102
RTVSPost2010PropOp46
 70
     0
102
RTVSPost2010Prop47
 90
       50
102
RTVSPost2010PropOp47
 70
     0
102
RTVSPost2010Prop48
 90
       50
102
RTVSPost2010PropOp48
 70
     0
102
RTVSPost2010Prop49
280
     0
102
RTVSPost2010PropOp49
 70
     0
102
RTVSPost2010Prop50
 90
       50
102
RTVSPost2010PropOp50
 70
     0
102
RTVSPost2010Prop51ColorIndex
 90
      256
102
RTVSPost2010Prop51ColorRGB
 90
-16777216
102
RTVSPost2010PropOp51
 70
     0
102
RTVSPost2010Prop52
140
1.0
102
RTVSPost2010PropOp52
 70
     0
102
RTVSPost2010Prop53
 90
        2
102
RTVSPost2010PropOp53
 70
     0
102
RTVSPost2010Prop54
  1
strokes_ogs.tif
102
RTVSPost2010PropOp54
 70
     0
102
RTVSPost2010Prop55
280
     0
102
RTVSPost2010PropOp55
 70
     0
102
RTVSPost2010Prop56
140
1.0
102
RTVSPost2010PropOp56
 70
     0
102
RTVSPost2010Prop57
140
1.0
102
RTVSPost2010PropOp57
 70
     0
  0
XRECORD
  5
3FB
102
{ACAD_REACTORS
330
3FA
102
}
330
3FA
100
AcDbXrecord
280
     1
102
RTVSPost2010Prop28
280
     0
102
RTVSPost2010PropOp28
 70
     1
102
RTVSPost2010Prop29
280
     1
102
RTVSPost2010PropOp29
 70
     1
102
RTVSPost2010Prop30
280
     1
102
RTVSPost2010PropOp30
 70
     1
102
RTVSPost2010Prop31
280
     0
102
RTVSPost2010PropOp31
 70
     1
102
RTVSPost2010Prop32
280
     0
102
RTVSPost2010PropOp32
 70
     1
102
RTVSPost2010Prop33
280
     0
102
RTVSPost2010PropOp33
 70
     1
102
RTVSPost2010Prop34
280
     0
102
RTVSPost2010PropOp34
 70
     1
102
RTVSPost2010Prop35
280
     0
102
RTVSPost2010PropOp35
 70
     1
102
RTVSPost2010Prop36
280
     0
102
RTVSPost2010PropOp36
 70
     1
102
RTVSPost2010Prop37
 90
       50
102
RTVSPost2010PropOp37
 70
     1
102
RTVSPost2010Prop38
140
0.0
102
RTVSPost2010PropOp38
 70
     1
102
RTVSPost2010Prop39
140
1.0
102
RTVSPost2010PropOp39
 70
     1
102
RTVSPost2010Prop40
 90
        0
102
RTVSPost2010PropOp40
 70
     1
102
RTVSPost2010Prop41ColorIndex
 90
       18
102
RTVSPost2010Prop41ColorRGB
 90
        0
102
RTVSPost2010PropOp41
 70
     1
102
RTVSPost2010Prop42
 90
       50
102
RTVSPost2010PropOp42
 70
     1
102
RTVSPost2010Prop43
 90
        3
102
RTVSPost2010PropOp43
 70
     1
102
RTVSPost2010Prop44ColorIndex
 90
        5
102
RTVSPost2010Prop44ColorRGB
 90
      255
102
RTVSPost2010PropOp44
 70
     1
102
RTVSPost2010Prop45
280
     0
102
RTVSPost2010PropOp45
 70
     1
102
RTVSPost2010Prop46
 90
       50
102
RTVSPost2010PropOp46
 70
     1
102
RTVSPost2010Prop47
 90
       50
102
RTVSPost2010PropOp47
 70
     1
102
RTVSPost2010Prop48
 90
       50
102
RTVSPost2010PropOp48
 70
     1
102
RTVSPost2010Prop49
280
     0
102
RTVSPost2010PropOp49
 70
     1
102
RTVSPost2010Prop50
 90
       50
102
RTVSPost2010PropOp50
 70
     1
102
RTVSPost2010Prop51ColorIndex
 90
      256
102
RTVSPost2010Prop51ColorRGB
 90
-16777216
102
RTVSPost2010PropOp51
 70
     0
102
RTVSPost2010Prop52
140
1.0
102
RTVSPost2010PropOp52
 70
     0
102
RTVSPost2010Prop53
 90
        2
102
RTVSPost2010PropOp53
 70
     1
102
RTVSPost2010Prop54
  1
strokes_ogs.tif
102
RTVSPost2010PropOp54
 70
     1
102
RTVSPost2010Prop55
280
     0
102
RTVSPost2010PropOp55
 70
     1
102
RTVSPost2010Prop56
140
1.0
102
RTVSPost2010PropOp56
 70
     1
102
RTVSPost2010Prop57
140
1.0
102
RTVSPost2010PropOp57
 70
     1
  0
XRECORD
  5
3DF
102
{ACAD_REACTORS
330
3DE
102
}
330
3DE
100
AcDbXrecord
280
     1
102
RTVSPost2010Prop28
280
     0
102
RTVSPost2010PropOp28
 70
     1
102
RTVSPost2010Prop29
280
     1
102
RTVSPost2010PropOp29
 70
     1
102
RTVSPost2010Prop30
280
     1
102
RTVSPost2010PropOp30
 70
     1
102
RTVSPost2010Prop31
280
     0
102
RTVSPost2010PropOp31
 70
     1
102
RTVSPost2010Prop32
280
     0
102
RTVSPost2010PropOp32
 70
     1
102
RTVSPost2010Prop33
280
     0
102
RTVSPost2010PropOp33
 70
     1
102
RTVSPost2010Prop34
280
     0
102
RTVSPost2010PropOp34
 70
     1
102
RTVSPost2010Prop35
280
     0
102
RTVSPost2010PropOp35
 70
     1
102
RTVSPost2010Prop36
280
     0
102
RTVSPost2010PropOp36
 70
     1
102
RTVSPost2010Prop37
 90
       50
102
RTVSPost2010PropOp37
 70
     1
102
RTVSPost2010Prop38
140
0.0
102
RTVSPost2010PropOp38
 70
     1
102
RTVSPost2010Prop39
140
1.0
102
RTVSPost2010PropOp39
 70
     1
102
RTVSPost2010Prop40
 90
        0
102
RTVSPost2010PropOp40
 70
     1
102
RTVSPost2010Prop41ColorIndex
 90
       18
102
RTVSPost2010Prop41ColorRGB
 90
        0
102
RTVSPost2010PropOp41
 70
     1
102
RTVSPost2010Prop42
 90
       50
102
RTVSPost2010PropOp42
 70
     1
102
RTVSPost2010Prop43
 90
        3
102
RTVSPost2010PropOp43
 70
     1
102
RTVSPost2010Prop44ColorIndex
 90
        5
102
RTVSPost2010Prop44ColorRGB
 90
      255
102
RTVSPost2010PropOp44
 70
     1
102
RTVSPost2010Prop45
280
     0
102
RTVSPost2010PropOp45
 70
     1
102
RTVSPost2010Prop46
 90
       50
102
RTVSPost2010PropOp46
 70
     1
102
RTVSPost2010Prop47
 90
       50
102
RTVSPost2010PropOp47
 70
     1
102
RTVSPost2010Prop48
 90
       50
102
RTVSPost2010PropOp48
 70
     1
102
RTVSPost2010Prop49
280
     0
102
RTVSPost2010PropOp49
 70
     1
102
RTVSPost2010Prop50
 90
       50
102
RTVSPost2010PropOp50
 70
     1
102
RTVSPost2010Prop51ColorIndex
 90
      256
102
RTVSPost2010Prop51ColorRGB
 90
-16777216
102
RTVSPost2010PropOp51
 70
     0
102
RTVSPost2010Prop52
140
1.0
102
RTVSPost2010PropOp52
 70
     0
102
RTVSPost2010Prop53
 90
        2
102
RTVSPost2010PropOp53
 70
     1
102
RTVSPost2010Prop54
  1
strokes_ogs.tif
102
RTVSPost2010PropOp54
 70
     1
102
RTVSPost2010Prop55
280
     0
102
RTVSPost2010PropOp55
 70
     1
102
RTVSPost2010Prop56
140
1.0
102
RTVSPost2010PropOp56
 70
     1
102
RTVSPost2010Prop57
140
1.0
102
RTVSPost2010PropOp57
 70
     1
  0
XRECORD
  5
3E1
102
{ACAD_REACTORS
330
3E0
102
}
330
3E0
100
AcDbXrecord
280
     1
102
RTVSPost2010Prop28
280
     0
102
RTVSPost2010PropOp28
 70
     1
102
RTVSPost2010Prop29
280
     1
102
RTVSPost2010PropOp29
 70
     1
102
RTVSPost2010Prop30
280
     1
102
RTVSPost2010PropOp30
 70
     1
102
RTVSPost2010Prop31
280
     0
102
RTVSPost2010PropOp31
 70
     1
102
RTVSPost2010Prop32
280
     0
102
RTVSPost2010PropOp32
 70
     1
102
RTVSPost2010Prop33
280
     0
102
RTVSPost2010PropOp33
 70
     1
102
RTVSPost2010Prop34
280
     0
102
RTVSPost2010PropOp34
 70
     1
102
RTVSPost2010Prop35
280
     0
102
RTVSPost2010PropOp35
 70
     1
102
RTVSPost2010Prop36
280
     0
102
RTVSPost2010PropOp36
 70
     1
102
RTVSPost2010Prop37
 90
       50
102
RTVSPost2010PropOp37
 70
     1
102
RTVSPost2010Prop38
140
0.0
102
RTVSPost2010PropOp38
 70
     1
102
RTVSPost2010Prop39
140
1.0
102
RTVSPost2010PropOp39
 70
     1
102
RTVSPost2010Prop40
 90
        0
102
RTVSPost2010PropOp40
 70
     1
102
RTVSPost2010Prop41ColorIndex
 90
       18
102
RTVSPost2010Prop41ColorRGB
 90
        0
102
RTVSPost2010PropOp41
 70
     1
102
RTVSPost2010Prop42
 90
       50
102
RTVSPost2010PropOp42
 70
     1
102
RTVSPost2010Prop43
 90
        3
102
RTVSPost2010PropOp43
 70
     1
102
RTVSPost2010Prop44ColorIndex
 90
        5
102
RTVSPost2010Prop44ColorRGB
 90
      255
102
RTVSPost2010PropOp44
 70
     1
102
RTVSPost2010Prop45
280
     0
102
RTVSPost2010PropOp45
 70
     1
102
RTVSPost2010Prop46
 90
       50
102
RTVSPost2010PropOp46
 70
     1
102
RTVSPost2010Prop47
 90
       50
102
RTVSPost2010PropOp47
 70
     1
102
RTVSPost2010Prop48
 90
       50
102
RTVSPost2010PropOp48
 70
     1
102
RTVSPost2010Prop49
280
     0
102
RTVSPost2010PropOp49
 70
     1
102
RTVSPost2010Prop50
 90
       50
102
RTVSPost2010PropOp50
 70
     1
102
RTVSPost2010Prop51ColorIndex
 90
      256
102
RTVSPost2010Prop51ColorRGB
 90
-16777216
102
RTVSPost2010PropOp51
 70
     0
102
RTVSPost2010Prop52
140
1.0
102
RTVSPost2010PropOp52
 70
     0
102
RTVSPost2010Prop53
 90
        2
102
RTVSPost2010PropOp53
 70
     1
102
RTVSPost2010Prop54
  1
strokes_ogs.tif
102
RTVSPost2010PropOp54
 70
     1
102
RTVSPost2010Prop55
280
     0
102
RTVSPost2010PropOp55
 70
     1
102
RTVSPost2010Prop56
140
1.0
102
RTVSPost2010PropOp56
 70
     1
102
RTVSPost2010Prop57
140
1.0
102
RTVSPost2010PropOp57
 70
     1
  0
XRECORD
  5
3E3
102
{ACAD_REACTORS
330
3E2
102
}
330
3E2
100
AcDbXrecord
280
     1
102
RTVSPost2010Prop28
280
     0
102
RTVSPost2010PropOp28
 70
     1
102
RTVSPost2010Prop29
280
     1
102
RTVSPost2010PropOp29
 70
     1
102
RTVSPost2010Prop30
280
     1
102
RTVSPost2010PropOp30
 70
     1
102
RTVSPost2010Prop31
280
     0
102
RTVSPost2010PropOp31
 70
     1
102
RTVSPost2010Prop32
280
     0
102
RTVSPost2010PropOp32
 70
     1
102
RTVSPost2010Prop33
280
     0
102
RTVSPost2010PropOp33
 70
     1
102
RTVSPost2010Prop34
280
     0
102
RTVSPost2010PropOp34
 70
     1
102
RTVSPost2010Prop35
280
     0
102
RTVSPost2010PropOp35
 70
     1
102
RTVSPost2010Prop36
280
     0
102
RTVSPost2010PropOp36
 70
     1
102
RTVSPost2010Prop37
 90
       50
102
RTVSPost2010PropOp37
 70
     1
102
RTVSPost2010Prop38
140
0.0
102
RTVSPost2010PropOp38
 70
     1
102
RTVSPost2010Prop39
140
1.0
102
RTVSPost2010PropOp39
 70
     1
102
RTVSPost2010Prop40
 90
        0
102
RTVSPost2010PropOp40
 70
     1
102
RTVSPost2010Prop41ColorIndex
 90
       18
102
RTVSPost2010Prop41ColorRGB
 90
        0
102
RTVSPost2010PropOp41
 70
     1
102
RTVSPost2010Prop42
 90
       50
102
RTVSPost2010PropOp42
 70
     1
102
RTVSPost2010Prop43
 90
        3
102
RTVSPost2010PropOp43
 70
     1
102
RTVSPost2010Prop44ColorIndex
 90
        5
102
RTVSPost2010Prop44ColorRGB
 90
      255
102
RTVSPost2010PropOp44
 70
     1
102
RTVSPost2010Prop45
280
     0
102
RTVSPost2010PropOp45
 70
     1
102
RTVSPost2010Prop46
 90
       50
102
RTVSPost2010PropOp46
 70
     1
102
RTVSPost2010Prop47
 90
       50
102
RTVSPost2010PropOp47
 70
     1
102
RTVSPost2010Prop48
 90
       50
102
RTVSPost2010PropOp48
 70
     1
102
RTVSPost2010Prop49
280
     0
102
RTVSPost2010PropOp49
 70
     1
102
RTVSPost2010Prop50
 90
       50
102
RTVSPost2010PropOp50
 70
     1
102
RTVSPost2010Prop51ColorIndex
 90
      256
102
RTVSPost2010Prop51ColorRGB
 90
-16777216
102
RTVSPost2010PropOp51
 70
     0
102
RTVSPost2010Prop52
140
1.0
102
RTVSPost2010PropOp52
 70
     0
102
RTVSPost2010Prop53
 90
        2
102
RTVSPost2010PropOp53
 70
     1
102
RTVSPost2010Prop54
  1
strokes_ogs.tif
102
RTVSPost2010PropOp54
 70
     1
102
RTVSPost2010Prop55
280
     0
102
RTVSPost2010PropOp55
 70
     1
102
RTVSPost2010Prop56
140
1.0
102
RTVSPost2010PropOp56
 70
     1
102
RTVSPost2010Prop57
140
1.0
102
RTVSPost2010PropOp57
 70
     1
  0
XRECORD
  5
3E5
102
{ACAD_REACTORS
330
3E4
102
}
330
3E4
100
AcDbXrecord
280
     1
102
RTVSPost2010Prop28
280
     0
102
RTVSPost2010PropOp28
 70
     1
102
RTVSPost2010Prop29
280
     1
102
RTVSPost2010PropOp29
 70
     1
102
RTVSPost2010Prop30
280
     1
102
RTVSPost2010PropOp30
 70
     1
102
RTVSPost2010Prop31
280
     0
102
RTVSPost2010PropOp31
 70
     1
102
RTVSPost2010Prop32
280
     0
102
RTVSPost2010PropOp32
 70
     1
102
RTVSPost2010Prop33
280
     0
102
RTVSPost2010PropOp33
 70
     1
102
RTVSPost2010Prop34
280
     0
102
RTVSPost2010PropOp34
 70
     1
102
RTVSPost2010Prop35
280
     0
102
RTVSPost2010PropOp35
 70
     1
102
RTVSPost2010Prop36
280
     0
102
RTVSPost2010PropOp36
 70
     1
102
RTVSPost2010Prop37
 90
       50
102
RTVSPost2010PropOp37
 70
     1
102
RTVSPost2010Prop38
140
0.0
102
RTVSPost2010PropOp38
 70
     1
102
RTVSPost2010Prop39
140
1.0
102
RTVSPost2010PropOp39
 70
     1
102
RTVSPost2010Prop40
 90
        0
102
RTVSPost2010PropOp40
 70
     1
102
RTVSPost2010Prop41ColorIndex
 90
       18
102
RTVSPost2010Prop41ColorRGB
 90
        0
102
RTVSPost2010PropOp41
 70
     1
102
RTVSPost2010Prop42
 90
       50
102
RTVSPost2010PropOp42
 70
     1
102
RTVSPost2010Prop43
 90
        3
102
RTVSPost2010PropOp43
 70
     1
102
RTVSPost2010Prop44ColorIndex
 90
        5
102
RTVSPost2010Prop44ColorRGB
 90
      255
102
RTVSPost2010PropOp44
 70
     1
102
RTVSPost2010Prop45
280
     0
102
RTVSPost2010PropOp45
 70
     1
102
RTVSPost2010Prop46
 90
       50
102
RTVSPost2010PropOp46
 70
     1
102
RTVSPost2010Prop47
 90
       50
102
RTVSPost2010PropOp47
 70
     1
102
RTVSPost2010Prop48
 90
       50
102
RTVSPost2010PropOp48
 70
     1
102
RTVSPost2010Prop49
280
     0
102
RTVSPost2010PropOp49
 70
     1
102
RTVSPost2010Prop50
 90
       50
102
RTVSPost2010PropOp50
 70
     1
102
RTVSPost2010Prop51ColorIndex
 90
      256
102
RTVSPost2010Prop51ColorRGB
 90
-16777216
102
RTVSPost2010PropOp51
 70
     0
102
RTVSPost2010Prop52
140
1.0
102
RTVSPost2010PropOp52
 70
     0
102
RTVSPost2010Prop53
 90
        2
102
RTVSPost2010PropOp53
 70
     1
102
RTVSPost2010Prop54
  1
strokes_ogs.tif
102
RTVSPost2010PropOp54
 70
     1
102
RTVSPost2010Prop55
280
     0
102
RTVSPost2010PropOp55
 70
     1
102
RTVSPost2010Prop56
140
1.0
102
RTVSPost2010PropOp56
 70
     1
102
RTVSPost2010Prop57
140
1.0
102
RTVSPost2010PropOp57
 70
     1
  0
XRECORD
  5
3EB
102
{ACAD_REACTORS
330
3EA
102
}
330
3EA
100
AcDbXrecord
280
     1
102
RTVSPost2010Prop28
280
     0
102
RTVSPost2010PropOp28
 70
     1
102
RTVSPost2010Prop29
280
     1
102
RTVSPost2010PropOp29
 70
     1
102
RTVSPost2010Prop30
280
     1
102
RTVSPost2010PropOp30
 70
     1
102
RTVSPost2010Prop31
280
     0
102
RTVSPost2010PropOp31
 70
     1
102
RTVSPost2010Prop32
280
     0
102
RTVSPost2010PropOp32
 70
     1
102
RTVSPost2010Prop33
280
     0
102
RTVSPost2010PropOp33
 70
     1
102
RTVSPost2010Prop34
280
     0
102
RTVSPost2010PropOp34
 70
     1
102
RTVSPost2010Prop35
280
     0
102
RTVSPost2010PropOp35
 70
     1
102
RTVSPost2010Prop36
280
     0
102
RTVSPost2010PropOp36
 70
     1
102
RTVSPost2010Prop37
 90
       50
102
RTVSPost2010PropOp37
 70
     1
102
RTVSPost2010Prop38
140
0.0
102
RTVSPost2010PropOp38
 70
     1
102
RTVSPost2010Prop39
140
1.0
102
RTVSPost2010PropOp39
 70
     1
102
RTVSPost2010Prop40
 90
        0
102
RTVSPost2010PropOp40
 70
     1
102
RTVSPost2010Prop41ColorIndex
 90
       18
102
RTVSPost2010Prop41ColorRGB
 90
        0
102
RTVSPost2010PropOp41
 70
     1
102
RTVSPost2010Prop42
 90
       50
102
RTVSPost2010PropOp42
 70
     1
102
RTVSPost2010Prop43
 90
        3
102
RTVSPost2010PropOp43
 70
     1
102
RTVSPost2010Prop44ColorIndex
 90
        5
102
RTVSPost2010Prop44ColorRGB
 90
      255
102
RTVSPost2010PropOp44
 70
     1
102
RTVSPost2010Prop45
280
     0
102
RTVSPost2010PropOp45
 70
     1
102
RTVSPost2010Prop46
 90
       50
102
RTVSPost2010PropOp46
 70
     1
102
RTVSPost2010Prop47
 90
       50
102
RTVSPost2010PropOp47
 70
     1
102
RTVSPost2010Prop48
 90
       50
102
RTVSPost2010PropOp48
 70
     1
102
RTVSPost2010Prop49
280
     0
102
RTVSPost2010PropOp49
 70
     1
102
RTVSPost2010Prop50
 90
       50
102
RTVSPost2010PropOp50
 70
     1
102
RTVSPost2010Prop51ColorIndex
 90
      256
102
RTVSPost2010Prop51ColorRGB
 90
-16777216
102
RTVSPost2010PropOp51
 70
     0
102
RTVSPost2010Prop52
140
1.0
102
RTVSPost2010PropOp52
 70
     0
102
RTVSPost2010Prop53
 90
        2
102
RTVSPost2010PropOp53
 70
     1
102
RTVSPost2010Prop54
  1
strokes_ogs.tif
102
RTVSPost2010PropOp54
 70
     1
102
RTVSPost2010Prop55
280
     0
102
RTVSPost2010PropOp55
 70
     1
102
RTVSPost2010Prop56
140
1.0
102
RTVSPost2010PropOp56
 70
     1
102
RTVSPost2010Prop57
140
1.0
102
RTVSPost2010PropOp57
 70
     1
  0
XRECORD
  5
3FF
102
{ACAD_REACTORS
330
3FE
102
}
330
3FE
100
AcDbXrecord
280
     1
102
RTVSPost2010Prop28
280
     0
102
RTVSPost2010PropOp28
 70
     0
102
RTVSPost2010Prop29
280
     1
102
RTVSPost2010PropOp29
 70
     0
102
RTVSPost2010Prop30
280
     1
102
RTVSPost2010PropOp30
 70
     0
102
RTVSPost2010Prop31
280
     0
102
RTVSPost2010PropOp31
 70
     0
102
RTVSPost2010Prop32
280
     0
102
RTVSPost2010PropOp32
 70
     0
102
RTVSPost2010Prop33
280
     0
102
RTVSPost2010PropOp33
 70
     0
102
RTVSPost2010Prop34
280
     0
102
RTVSPost2010PropOp34
 70
     0
102
RTVSPost2010Prop35
280
     0
102
RTVSPost2010PropOp35
 70
     0
102
RTVSPost2010Prop36
280
     0
102
RTVSPost2010PropOp36
 70
     0
102
RTVSPost2010Prop37
 90
       50
102
RTVSPost2010PropOp37
 70
     0
102
RTVSPost2010Prop38
140
0.0
102
RTVSPost2010PropOp38
 70
     0
102
RTVSPost2010Prop39
140
1.0
102
RTVSPost2010PropOp39
 70
     0
102
RTVSPost2010Prop40
 90
        0
102
RTVSPost2010PropOp40
 70
     0
102
RTVSPost2010Prop41ColorIndex
 90
       18
102
RTVSPost2010Prop41ColorRGB
 90
        0
102
RTVSPost2010PropOp41
 70
     0
102
RTVSPost2010Prop42
 90
       50
102
RTVSPost2010PropOp42
 70
     0
102
RTVSPost2010Prop43
 90
        3
102
RTVSPost2010PropOp43
 70
     0
102
RTVSPost2010Prop44ColorIndex
 90
        5
102
RTVSPost2010Prop44ColorRGB
 90
      255
102
RTVSPost2010PropOp44
 70
     0
102
RTVSPost2010Prop45
280
     0
102
RTVSPost2010PropOp45
 70
     0
102
RTVSPost2010Prop46
 90
       50
102
RTVSPost2010PropOp46
 70
     0
102
RTVSPost2010Prop47
 90
       50
102
RTVSPost2010PropOp47
 70
     0
102
RTVSPost2010Prop48
 90
       50
102
RTVSPost2010PropOp48
 70
     0
102
RTVSPost2010Prop49
280
     0
102
RTVSPost2010PropOp49
 70
     0
102
RTVSPost2010Prop50
 90
       50
102
RTVSPost2010PropOp50
 70
     0
102
RTVSPost2010Prop51ColorIndex
 90
      256
102
RTVSPost2010Prop51ColorRGB
 90
-16777216
102
RTVSPost2010PropOp51
 70
     0
102
RTVSPost2010Prop52
140
1.0
102
RTVSPost2010PropOp52
 70
     0
102
RTVSPost2010Prop53
 90
        2
102
RTVSPost2010PropOp53
 70
     0
102
RTVSPost2010Prop54
  1
strokes_ogs.tif
102
RTVSPost2010PropOp54
 70
     0
102
RTVSPost2010Prop55
280
     0
102
RTVSPost2010PropOp55
 70
     0
102
RTVSPost2010Prop56
140
1.0
102
RTVSPost2010PropOp56
 70
     0
102
RTVSPost2010Prop57
140
1.0
102
RTVSPost2010PropOp57
 70
     0
  0
XRECORD
  5
3F9
102
{ACAD_REACTORS
330
3F8
102
}
330
3F8
100
AcDbXrecord
280
     1
102
RTVSPost2010Prop28
280
     0
102
RTVSPost2010PropOp28
 70
     1
102
RTVSPost2010Prop29
280
     1
102
RTVSPost2010PropOp29
 70
     1
102
RTVSPost2010Prop30
280
     1
102
RTVSPost2010PropOp30
 70
     1
102
RTVSPost2010Prop31
280
     0
102
RTVSPost2010PropOp31
 70
     1
102
RTVSPost2010Prop32
280
     0
102
RTVSPost2010PropOp32
 70
     1
102
RTVSPost2010Prop33
280
     0
102
RTVSPost2010PropOp33
 70
     1
102
RTVSPost2010Prop34
280
     0
102
RTVSPost2010PropOp34
 70
     1
102
RTVSPost2010Prop35
280
     0
102
RTVSPost2010PropOp35
 70
     1
102
RTVSPost2010Prop36
280
     0
102
RTVSPost2010PropOp36
 70
     1
102
RTVSPost2010Prop37
 90
       50
102
RTVSPost2010PropOp37
 70
     1
102
RTVSPost2010Prop38
140
0.0
102
RTVSPost2010PropOp38
 70
     1
102
RTVSPost2010Prop39
140
1.0
102
RTVSPost2010PropOp39
 70
     1
102
RTVSPost2010Prop40
 90
        0
102
RTVSPost2010PropOp40
 70
     1
102
RTVSPost2010Prop41ColorIndex
 90
       18
102
RTVSPost2010Prop41ColorRGB
 90
        0
102
RTVSPost2010PropOp41
 70
     1
102
RTVSPost2010Prop42
 90
       50
102
RTVSPost2010PropOp42
 70
     1
102
RTVSPost2010Prop43
 90
        3
102
RTVSPost2010PropOp43
 70
     1
102
RTVSPost2010Prop44ColorIndex
 90
        5
102
RTVSPost2010Prop44ColorRGB
 90
      255
102
RTVSPost2010PropOp44
 70
     1
102
RTVSPost2010Prop45
280
     0
102
RTVSPost2010PropOp45
 70
     1
102
RTVSPost2010Prop46
 90
       50
102
RTVSPost2010PropOp46
 70
     1
102
RTVSPost2010Prop47
 90
       50
102
RTVSPost2010PropOp47
 70
     1
102
RTVSPost2010Prop48
 90
       50
102
RTVSPost2010PropOp48
 70
     1
102
RTVSPost2010Prop49
280
     0
102
RTVSPost2010PropOp49
 70
     1
102
RTVSPost2010Prop50
 90
       50
102
RTVSPost2010PropOp50
 70
     1
102
RTVSPost2010Prop51ColorIndex
 90
      256
102
RTVSPost2010Prop51ColorRGB
 90
-16777216
102
RTVSPost2010PropOp51
 70
     0
102
RTVSPost2010Prop52
140
1.0
102
RTVSPost2010PropOp52
 70
     0
102
RTVSPost2010Prop53
 90
        2
102
RTVSPost2010PropOp53
 70
     1
102
RTVSPost2010Prop54
  1
strokes_ogs.tif
102
RTVSPost2010PropOp54
 70
     1
102
RTVSPost2010Prop55
280
     0
102
RTVSPost2010PropOp55
 70
     1
102
RTVSPost2010Prop56
140
1.0
102
RTVSPost2010PropOp56
 70
     1
102
RTVSPost2010Prop57
140
1.0
102
RTVSPost2010PropOp57
 70
     1
  0
XRECORD
  5
401
102
{ACAD_REACTORS
330
400
102
}
330
400
100
AcDbXrecord
280
     1
102
RTVSPost2010Prop28
280
     0
102
RTVSPost2010PropOp28
 70
     0
102
RTVSPost2010Prop29
280
     1
102
RTVSPost2010PropOp29
 70
     0
102
RTVSPost2010Prop30
280
     1
102
RTVSPost2010PropOp30
 70
     0
102
RTVSPost2010Prop31
280
     0
102
RTVSPost2010PropOp31
 70
     0
102
RTVSPost2010Prop32
280
     0
102
RTVSPost2010PropOp32
 70
     0
102
RTVSPost2010Prop33
280
     0
102
RTVSPost2010PropOp33
 70
     0
102
RTVSPost2010Prop34
280
     0
102
RTVSPost2010PropOp34
 70
     0
102
RTVSPost2010Prop35
280
     0
102
RTVSPost2010PropOp35
 70
     0
102
RTVSPost2010Prop36
280
     0
102
RTVSPost2010PropOp36
 70
     0
102
RTVSPost2010Prop37
 90
       50
102
RTVSPost2010PropOp37
 70
     0
102
RTVSPost2010Prop38
140
0.0
102
RTVSPost2010PropOp38
 70
     0
102
RTVSPost2010Prop39
140
1.0
102
RTVSPost2010PropOp39
 70
     0
102
RTVSPost2010Prop40
 90
        0
102
RTVSPost2010PropOp40
 70
     0
102
RTVSPost2010Prop41ColorIndex
 90
       18
102
RTVSPost2010Prop41ColorRGB
 90
        0
102
RTVSPost2010PropOp41
 70
     0
102
RTVSPost2010Prop42
 90
       50
102
RTVSPost2010PropOp42
 70
     0
102
RTVSPost2010Prop43
 90
        3
102
RTVSPost2010PropOp43
 70
     0
102
RTVSPost2010Prop44ColorIndex
 90
        5
102
RTVSPost2010Prop44ColorRGB
 90
      255
102
RTVSPost2010PropOp44
 70
     0
102
RTVSPost2010Prop45
280
     0
102
RTVSPost2010PropOp45
 70
     0
102
RTVSPost2010Prop46
 90
       50
102
RTVSPost2010PropOp46
 70
     0
102
RTVSPost2010Prop47
 90
       50
102
RTVSPost2010PropOp47
 70
     0
102
RTVSPost2010Prop48
 90
       50
102
RTVSPost2010PropOp48
 70
     0
102
RTVSPost2010Prop49
280
     0
102
RTVSPost2010PropOp49
 70
     0
102
RTVSPost2010Prop50
 90
       50
102
RTVSPost2010PropOp50
 70
     0
102
RTVSPost2010Prop51ColorIndex
 90
      256
102
RTVSPost2010Prop51ColorRGB
 90
-16777216
102
RTVSPost2010PropOp51
 70
     0
102
RTVSPost2010Prop52
140
1.0
102
RTVSPost2010PropOp52
 70
     0
102
RTVSPost2010Prop53
 90
        2
102
RTVSPost2010PropOp53
 70
     0
102
RTVSPost2010Prop54
  1
strokes_ogs.tif
102
RTVSPost2010PropOp54
 70
     0
102
RTVSPost2010Prop55
280
     0
102
RTVSPost2010PropOp55
 70
     0
102
RTVSPost2010Prop56
140
1.0
102
RTVSPost2010PropOp56
 70
     0
102
RTVSPost2010Prop57
140
1.0
102
RTVSPost2010PropOp57
 70
     0
  0
XRECORD
  5
3EF
102
{ACAD_REACTORS
330
3EE
102
}
330
3EE
100
AcDbXrecord
280
     1
102
RTVSPost2010Prop28
280
     0
102
RTVSPost2010PropOp28
 70
     1
102
RTVSPost2010Prop29
280
     1
102
RTVSPost2010PropOp29
 70
     1
102
RTVSPost2010Prop30
280
     1
102
RTVSPost2010PropOp30
 70
     1
102
RTVSPost2010Prop31
280
     0
102
RTVSPost2010PropOp31
 70
     1
102
RTVSPost2010Prop32
280
     0
102
RTVSPost2010PropOp32
 70
     1
102
RTVSPost2010Prop33
280
     0
102
RTVSPost2010PropOp33
 70
     1
102
RTVSPost2010Prop34
280
     0
102
RTVSPost2010PropOp34
 70
     1
102
RTVSPost2010Prop35
280
     0
102
RTVSPost2010PropOp35
 70
     1
102
RTVSPost2010Prop36
280
     0
102
RTVSPost2010PropOp36
 70
     1
102
RTVSPost2010Prop37
 90
       50
102
RTVSPost2010PropOp37
 70
     1
102
RTVSPost2010Prop38
140
0.0
102
RTVSPost2010PropOp38
 70
     1
102
RTVSPost2010Prop39
140
1.0
102
RTVSPost2010PropOp39
 70
     1
102
RTVSPost2010Prop40
 90
        0
102
RTVSPost2010PropOp40
 70
     1
102
RTVSPost2010Prop41ColorIndex
 90
       18
102
RTVSPost2010Prop41ColorRGB
 90
        0
102
RTVSPost2010PropOp41
 70
     1
102
RTVSPost2010Prop42
 90
       50
102
RTVSPost2010PropOp42
 70
     1
102
RTVSPost2010Prop43
 90
        3
102
RTVSPost2010PropOp43
 70
     1
102
RTVSPost2010Prop44ColorIndex
 90
        5
102
RTVSPost2010Prop44ColorRGB
 90
      255
102
RTVSPost2010PropOp44
 70
     1
102
RTVSPost2010Prop45
280
     0
102
RTVSPost2010PropOp45
 70
     1
102
RTVSPost2010Prop46
 90
       50
102
RTVSPost2010PropOp46
 70
     1
102
RTVSPost2010Prop47
 90
       50
102
RTVSPost2010PropOp47
 70
     1
102
RTVSPost2010Prop48
 90
       50
102
RTVSPost2010PropOp48
 70
     1
102
RTVSPost2010Prop49
280
     0
102
RTVSPost2010PropOp49
 70
     1
102
RTVSPost2010Prop50
 90
       50
102
RTVSPost2010PropOp50
 70
     1
102
RTVSPost2010Prop51ColorIndex
 90
      256
102
RTVSPost2010Prop51ColorRGB
 90
-16777216
102
RTVSPost2010PropOp51
 70
     0
102
RTVSPost2010Prop52
140
1.0
102
RTVSPost2010PropOp52
 70
     0
102
RTVSPost2010Prop53
 90
        2
102
RTVSPost2010PropOp53
 70
     1
102
RTVSPost2010Prop54
  1
strokes_ogs.tif
102
RTVSPost2010PropOp54
 70
     1
102
RTVSPost2010Prop55
280
     0
102
RTVSPost2010PropOp55
 70
     1
102
RTVSPost2010Prop56
140
1.0
102
RTVSPost2010PropOp56
 70
     1
102
RTVSPost2010Prop57
140
1.0
102
RTVSPost2010PropOp57
 70
     1
  0
XRECORD
  5
40D
102
{ACAD_REACTORS
330
40C
102
}
330
40C
100
AcDbXrecord
280
     1
102
RTVSPost2010Prop28
280
     0
102
RTVSPost2010PropOp28
 70
     1
102
RTVSPost2010Prop29
280
     1
102
RTVSPost2010PropOp29
 70
     1
102
RTVSPost2010Prop30
280
     1
102
RTVSPost2010PropOp30
 70
     1
102
RTVSPost2010Prop31
280
     0
102
RTVSPost2010PropOp31
 70
     1
102
RTVSPost2010Prop32
280
     0
102
RTVSPost2010PropOp32
 70
     1
102
RTVSPost2010Prop33
280
     0
102
RTVSPost2010PropOp33
 70
     1
102
RTVSPost2010Prop34
280
     0
102
RTVSPost2010PropOp34
 70
     1
102
RTVSPost2010Prop35
280
     0
102
RTVSPost2010PropOp35
 70
     1
102
RTVSPost2010Prop36
280
     0
102
RTVSPost2010PropOp36
 70
     1
102
RTVSPost2010Prop37
 90
       50
102
RTVSPost2010PropOp37
 70
     1
102
RTVSPost2010Prop38
140
0.0
102
RTVSPost2010PropOp38
 70
     1
102
RTVSPost2010Prop39
140
1.0
102
RTVSPost2010PropOp39
 70
     1
102
RTVSPost2010Prop40
 90
        0
102
RTVSPost2010PropOp40
 70
     1
102
RTVSPost2010Prop41ColorIndex
 90
       18
102
RTVSPost2010Prop41ColorRGB
 90
        0
102
RTVSPost2010PropOp41
 70
     1
102
RTVSPost2010Prop42
 90
       50
102
RTVSPost2010PropOp42
 70
     1
102
RTVSPost2010Prop43
 90
        3
102
RTVSPost2010PropOp43
 70
     1
102
RTVSPost2010Prop44ColorIndex
 90
        5
102
RTVSPost2010Prop44ColorRGB
 90
      255
102
RTVSPost2010PropOp44
 70
     1
102
RTVSPost2010Prop45
280
     0
102
RTVSPost2010PropOp45
 70
     1
102
RTVSPost2010Prop46
 90
       50
102
RTVSPost2010PropOp46
 70
     1
102
RTVSPost2010Prop47
 90
       50
102
RTVSPost2010PropOp47
 70
     1
102
RTVSPost2010Prop48
 90
       50
102
RTVSPost2010PropOp48
 70
     1
102
RTVSPost2010Prop49
280
     0
102
RTVSPost2010PropOp49
 70
     1
102
RTVSPost2010Prop50
 90
       50
102
RTVSPost2010PropOp50
 70
     1
102
RTVSPost2010Prop51ColorIndex
 90
      256
102
RTVSPost2010Prop51ColorRGB
 90
-16777216
102
RTVSPost2010PropOp51
 70
     0
102
RTVSPost2010Prop52
140
1.0
102
RTVSPost2010PropOp52
 70
     0
102
RTVSPost2010Prop53
 90
        2
102
RTVSPost2010PropOp53
 70
     1
102
RTVSPost2010Prop54
  1
strokes_ogs.tif
102
RTVSPost2010PropOp54
 70
     1
102
RTVSPost2010Prop55
280
     0
102
RTVSPost2010PropOp55
 70
     1
102
RTVSPost2010Prop56
140
1.0
102
RTVSPost2010PropOp56
 70
     1
102
RTVSPost2010Prop57
140
1.0
102
RTVSPost2010PropOp57
 70
     1
  0
XRECORD
  5
40B
102
{ACAD_REACTORS
330
40A
102
}
330
40A
100
AcDbXrecord
280
     1
102
RTVSPost2010Prop28
280
     0
102
RTVSPost2010PropOp28
 70
     1
102
RTVSPost2010Prop29
280
     1
102
RTVSPost2010PropOp29
 70
     1
102
RTVSPost2010Prop30
280
     1
102
RTVSPost2010PropOp30
 70
     1
102
RTVSPost2010Prop31
280
     0
102
RTVSPost2010PropOp31
 70
     1
102
RTVSPost2010Prop32
280
     0
102
RTVSPost2010PropOp32
 70
     1
102
RTVSPost2010Prop33
280
     0
102
RTVSPost2010PropOp33
 70
     1
102
RTVSPost2010Prop34
280
     0
102
RTVSPost2010PropOp34
 70
     1
102
RTVSPost2010Prop35
280
     0
102
RTVSPost2010PropOp35
 70
     1
102
RTVSPost2010Prop36
280
     0
102
RTVSPost2010PropOp36
 70
     1
102
RTVSPost2010Prop37
 90
       50
102
RTVSPost2010PropOp37
 70
     1
102
RTVSPost2010Prop38
140
0.0
102
RTVSPost2010PropOp38
 70
     1
102
RTVSPost2010Prop39
140
1.0
102
RTVSPost2010PropOp39
 70
     1
102
RTVSPost2010Prop40
 90
        0
102
RTVSPost2010PropOp40
 70
     1
102
RTVSPost2010Prop41ColorIndex
 90
       18
102
RTVSPost2010Prop41ColorRGB
 90
        0
102
RTVSPost2010PropOp41
 70
     1
102
RTVSPost2010Prop42
 90
       50
102
RTVSPost2010PropOp42
 70
     1
102
RTVSPost2010Prop43
 90
        3
102
RTVSPost2010PropOp43
 70
     1
102
RTVSPost2010Prop44ColorIndex
 90
        5
102
RTVSPost2010Prop44ColorRGB
 90
      255
102
RTVSPost2010PropOp44
 70
     1
102
RTVSPost2010Prop45
280
     0
102
RTVSPost2010PropOp45
 70
     1
102
RTVSPost2010Prop46
 90
       50
102
RTVSPost2010PropOp46
 70
     1
102
RTVSPost2010Prop47
 90
       50
102
RTVSPost2010PropOp47
 70
     1
102
RTVSPost2010Prop48
 90
       50
102
RTVSPost2010PropOp48
 70
     1
102
RTVSPost2010Prop49
280
     0
102
RTVSPost2010PropOp49
 70
     1
102
RTVSPost2010Prop50
 90
       50
102
RTVSPost2010PropOp50
 70
     1
102
RTVSPost2010Prop51ColorIndex
 90
      256
102
RTVSPost2010Prop51ColorRGB
 90
-16777216
102
RTVSPost2010PropOp51
 70
     0
102
RTVSPost2010Prop52
140
1.0
102
RTVSPost2010PropOp52
 70
     0
102
RTVSPost2010Prop53
 90
        2
102
RTVSPost2010PropOp53
 70
     1
102
RTVSPost2010Prop54
  1
strokes_ogs.tif
102
RTVSPost2010PropOp54
 70
     1
102
RTVSPost2010Prop55
280
     0
102
RTVSPost2010PropOp55
 70
     1
102
RTVSPost2010Prop56
140
1.0
102
RTVSPost2010PropOp56
 70
     1
102
RTVSPost2010Prop57
140
1.0
102
RTVSPost2010PropOp57
 70
     1
  0
XRECORD
  5
405
102
{ACAD_REACTORS
330
404
102
}
330
404
100
AcDbXrecord
280
     1
102
RTVSPost2010Prop28
280
     0
102
RTVSPost2010PropOp28
 70
     1
102
RTVSPost2010Prop29
280
     1
102
RTVSPost2010PropOp29
 70
     1
102
RTVSPost2010Prop30
280
     1
102
RTVSPost2010PropOp30
 70
     1
102
RTVSPost2010Prop31
280
     0
102
RTVSPost2010PropOp31
 70
     1
102
RTVSPost2010Prop32
280
     0
102
RTVSPost2010PropOp32
 70
     1
102
RTVSPost2010Prop33
280
     0
102
RTVSPost2010PropOp33
 70
     1
102
RTVSPost2010Prop34
280
     0
102
RTVSPost2010PropOp34
 70
     1
102
RTVSPost2010Prop35
280
     0
102
RTVSPost2010PropOp35
 70
     1
102
RTVSPost2010Prop36
280
     0
102
RTVSPost2010PropOp36
 70
     1
102
RTVSPost2010Prop37
 90
       50
102
RTVSPost2010PropOp37
 70
     1
102
RTVSPost2010Prop38
140
0.0
102
RTVSPost2010PropOp38
 70
     1
102
RTVSPost2010Prop39
140
1.0
102
RTVSPost2010PropOp39
 70
     1
102
RTVSPost2010Prop40
 90
        0
102
RTVSPost2010PropOp40
 70
     1
102
RTVSPost2010Prop41ColorIndex
 90
       18
102
RTVSPost2010Prop41ColorRGB
 90
        0
102
RTVSPost2010PropOp41
 70
     1
102
RTVSPost2010Prop42
 90
       50
102
RTVSPost2010PropOp42
 70
     1
102
RTVSPost2010Prop43
 90
        3
102
RTVSPost2010PropOp43
 70
     1
102
RTVSPost2010Prop44ColorIndex
 90
        5
102
RTVSPost2010Prop44ColorRGB
 90
      255
102
RTVSPost2010PropOp44
 70
     1
102
RTVSPost2010Prop45
280
     0
102
RTVSPost2010PropOp45
 70
     1
102
RTVSPost2010Prop46
 90
       50
102
RTVSPost2010PropOp46
 70
     1
102
RTVSPost2010Prop47
 90
       50
102
RTVSPost2010PropOp47
 70
     1
102
RTVSPost2010Prop48
 90
       50
102
RTVSPost2010PropOp48
 70
     1
102
RTVSPost2010Prop49
280
     0
102
RTVSPost2010PropOp49
 70
     1
102
RTVSPost2010Prop50
 90
       50
102
RTVSPost2010PropOp50
 70
     1
102
RTVSPost2010Prop51ColorIndex
 90
      256
102
RTVSPost2010Prop51ColorRGB
 90
-16777216
102
RTVSPost2010PropOp51
 70
     0
102
RTVSPost2010Prop52
140
1.0
102
RTVSPost2010PropOp52
 70
     0
102
RTVSPost2010Prop53
 90
        2
102
RTVSPost2010PropOp53
 70
     1
102
RTVSPost2010Prop54
  1
strokes_ogs.tif
102
RTVSPost2010PropOp54
 70
     1
102
RTVSPost2010Prop55
280
     0
102
RTVSPost2010PropOp55
 70
     1
102
RTVSPost2010Prop56
140
1.0
102
RTVSPost2010PropOp56
 70
     1
102
RTVSPost2010Prop57
140
1.0
102
RTVSPost2010PropOp57
 70
     1
  0
XRECORD
  5
407
102
{ACAD_REACTORS
330
406
102
}
330
406
100
AcDbXrecord
280
     1
102
RTVSPost2010Prop28
280
     0
102
RTVSPost2010PropOp28
 70
     1
102
RTVSPost2010Prop29
280
     1
102
RTVSPost2010PropOp29
 70
     1
102
RTVSPost2010Prop30
280
     1
102
RTVSPost2010PropOp30
 70
     1
102
RTVSPost2010Prop31
280
     0
102
RTVSPost2010PropOp31
 70
     1
102
RTVSPost2010Prop32
280
     0
102
RTVSPost2010PropOp32
 70
     1
102
RTVSPost2010Prop33
280
     0
102
RTVSPost2010PropOp33
 70
     1
102
RTVSPost2010Prop34
280
     0
102
RTVSPost2010PropOp34
 70
     1
102
RTVSPost2010Prop35
280
     0
102
RTVSPost2010PropOp35
 70
     1
102
RTVSPost2010Prop36
280
     0
102
RTVSPost2010PropOp36
 70
     1
102
RTVSPost2010Prop37
 90
       50
102
RTVSPost2010PropOp37
 70
     1
102
RTVSPost2010Prop38
140
0.0
102
RTVSPost2010PropOp38
 70
     1
102
RTVSPost2010Prop39
140
1.0
102
RTVSPost2010PropOp39
 70
     1
102
RTVSPost2010Prop40
 90
        0
102
RTVSPost2010PropOp40
 70
     1
102
RTVSPost2010Prop41ColorIndex
 90
       18
102
RTVSPost2010Prop41ColorRGB
 90
        0
102
RTVSPost2010PropOp41
 70
     1
102
RTVSPost2010Prop42
 90
       50
102
RTVSPost2010PropOp42
 70
     1
102
RTVSPost2010Prop43
 90
        3
102
RTVSPost2010PropOp43
 70
     1
102
RTVSPost2010Prop44ColorIndex
 90
        5
102
RTVSPost2010Prop44ColorRGB
 90
      255
102
RTVSPost2010PropOp44
 70
     1
102
RTVSPost2010Prop45
280
     0
102
RTVSPost2010PropOp45
 70
     1
102
RTVSPost2010Prop46
 90
       50
102
RTVSPost2010PropOp46
 70
     1
102
RTVSPost2010Prop47
 90
       50
102
RTVSPost2010PropOp47
 70
     1
102
RTVSPost2010Prop48
 90
       50
102
RTVSPost2010PropOp48
 70
     1
102
RTVSPost2010Prop49
280
     0
102
RTVSPost2010PropOp49
 70
     1
102
RTVSPost2010Prop50
 90
       50
102
RTVSPost2010PropOp50
 70
     1
102
RTVSPost2010Prop51ColorIndex
 90
      256
102
RTVSPost2010Prop51ColorRGB
 90
-16777216
102
RTVSPost2010PropOp51
 70
     0
102
RTVSPost2010Prop52
140
1.0
102
RTVSPost2010PropOp52
 70
     0
102
RTVSPost2010Prop53
 90
        2
102
RTVSPost2010PropOp53
 70
     1
102
RTVSPost2010Prop54
  1
strokes_ogs.tif
102
RTVSPost2010PropOp54
 70
     1
102
RTVSPost2010Prop55
280
     0
102
RTVSPost2010PropOp55
 70
     1
102
RTVSPost2010Prop56
140
1.0
102
RTVSPost2010PropOp56
 70
     1
102
RTVSPost2010Prop57
140
1.0
102
RTVSPost2010PropOp57
 70
     1
  0
XRECORD
  5
3F7
102
{ACAD_REACTORS
330
3F6
102
}
330
3F6
100
AcDbXrecord
280
     1
102
RTVSPost2010Prop28
280
     0
102
RTVSPost2010PropOp28
 70
     1
102
RTVSPost2010Prop29
280
     1
102
RTVSPost2010PropOp29
 70
     1
102
RTVSPost2010Prop30
280
     1
102
RTVSPost2010PropOp30
 70
     1
102
RTVSPost2010Prop31
280
     0
102
RTVSPost2010PropOp31
 70
     1
102
RTVSPost2010Prop32
280
     0
102
RTVSPost2010PropOp32
 70
     1
102
RTVSPost2010Prop33
280
     0
102
RTVSPost2010PropOp33
 70
     1
102
RTVSPost2010Prop34
280
     0
102
RTVSPost2010PropOp34
 70
     1
102
RTVSPost2010Prop35
280
     0
102
RTVSPost2010PropOp35
 70
     1
102
RTVSPost2010Prop36
280
     0
102
RTVSPost2010PropOp36
 70
     1
102
RTVSPost2010Prop37
 90
       50
102
RTVSPost2010PropOp37
 70
     1
102
RTVSPost2010Prop38
140
0.0
102
RTVSPost2010PropOp38
 70
     1
102
RTVSPost2010Prop39
140
1.0
102
RTVSPost2010PropOp39
 70
     1
102
RTVSPost2010Prop40
 90
        0
102
RTVSPost2010PropOp40
 70
     1
102
RTVSPost2010Prop41ColorIndex
 90
       18
102
RTVSPost2010Prop41ColorRGB
 90
        0
102
RTVSPost2010PropOp41
 70
     1
102
RTVSPost2010Prop42
 90
       50
102
RTVSPost2010PropOp42
 70
     1
102
RTVSPost2010Prop43
 90
        3
102
RTVSPost2010PropOp43
 70
     1
102
RTVSPost2010Prop44ColorIndex
 90
        5
102
RTVSPost2010Prop44ColorRGB
 90
      255
102
RTVSPost2010PropOp44
 70
     1
102
RTVSPost2010Prop45
280
     0
102
RTVSPost2010PropOp45
 70
     1
102
RTVSPost2010Prop46
 90
       50
102
RTVSPost2010PropOp46
 70
     1
102
RTVSPost2010Prop47
 90
       50
102
RTVSPost2010PropOp47
 70
     1
102
RTVSPost2010Prop48
 90
       50
102
RTVSPost2010PropOp48
 70
     1
102
RTVSPost2010Prop49
280
     0
102
RTVSPost2010PropOp49
 70
     1
102
RTVSPost2010Prop50
 90
       50
102
RTVSPost2010PropOp50
 70
     1
102
RTVSPost2010Prop51ColorIndex
 90
      256
102
RTVSPost2010Prop51ColorRGB
 90
-16777216
102
RTVSPost2010PropOp51
 70
     0
102
RTVSPost2010Prop52
140
1.0
102
RTVSPost2010PropOp52
 70
     0
102
RTVSPost2010Prop53
 90
        2
102
RTVSPost2010PropOp53
 70
     1
102
RTVSPost2010Prop54
  1
strokes_ogs.tif
102
RTVSPost2010PropOp54
 70
     1
102
RTVSPost2010Prop55
280
     0
102
RTVSPost2010PropOp55
 70
     1
102
RTVSPost2010Prop56
140
1.0
102
RTVSPost2010PropOp56
 70
     1
102
RTVSPost2010Prop57
140
1.0
102
RTVSPost2010PropOp57
 70
     1
  0
XRECORD
  5
3E9
102
{ACAD_REACTORS
330
3E8
102
}
330
3E8
100
AcDbXrecord
280
     1
102
RTVSPost2010Prop28
280
     0
102
RTVSPost2010PropOp28
 70
     1
102
RTVSPost2010Prop29
280
     1
102
RTVSPost2010PropOp29
 70
     1
102
RTVSPost2010Prop30
280
     1
102
RTVSPost2010PropOp30
 70
     1
102
RTVSPost2010Prop31
280
     0
102
RTVSPost2010PropOp31
 70
     1
102
RTVSPost2010Prop32
280
     0
102
RTVSPost2010PropOp32
 70
     1
102
RTVSPost2010Prop33
280
     0
102
RTVSPost2010PropOp33
 70
     1
102
RTVSPost2010Prop34
280
     0
102
RTVSPost2010PropOp34
 70
     1
102
RTVSPost2010Prop35
280
     0
102
RTVSPost2010PropOp35
 70
     1
102
RTVSPost2010Prop36
280
     0
102
RTVSPost2010PropOp36
 70
     1
102
RTVSPost2010Prop37
 90
       50
102
RTVSPost2010PropOp37
 70
     1
102
RTVSPost2010Prop38
140
0.0
102
RTVSPost2010PropOp38
 70
     1
102
RTVSPost2010Prop39
140
1.0
102
RTVSPost2010PropOp39
 70
     1
102
RTVSPost2010Prop40
 90
        0
102
RTVSPost2010PropOp40
 70
     1
102
RTVSPost2010Prop41ColorIndex
 90
       18
102
RTVSPost2010Prop41ColorRGB
 90
        0
102
RTVSPost2010PropOp41
 70
     1
102
RTVSPost2010Prop42
 90
       50
102
RTVSPost2010PropOp42
 70
     1
102
RTVSPost2010Prop43
 90
        3
102
RTVSPost2010PropOp43
 70
     1
102
RTVSPost2010Prop44ColorIndex
 90
        5
102
RTVSPost2010Prop44ColorRGB
 90
      255
102
RTVSPost2010PropOp44
 70
     1
102
RTVSPost2010Prop45
280
     0
102
RTVSPost2010PropOp45
 70
     1
102
RTVSPost2010Prop46
 90
       50
102
RTVSPost2010PropOp46
 70
     1
102
RTVSPost2010Prop47
 90
       50
102
RTVSPost2010PropOp47
 70
     1
102
RTVSPost2010Prop48
 90
       50
102
RTVSPost2010PropOp48
 70
     1
102
RTVSPost2010Prop49
280
     0
102
RTVSPost2010PropOp49
 70
     1
102
RTVSPost2010Prop50
 90
       50
102
RTVSPost2010PropOp50
 70
     1
102
RTVSPost2010Prop51ColorIndex
 90
      256
102
RTVSPost2010Prop51ColorRGB
 90
-16777216
102
RTVSPost2010PropOp51
 70
     0
102
RTVSPost2010Prop52
140
1.0
102
RTVSPost2010PropOp52
 70
     0
102
RTVSPost2010Prop53
 90
        2
102
RTVSPost2010PropOp53
 70
     1
102
RTVSPost2010Prop54
  1
strokes_ogs.tif
102
RTVSPost2010PropOp54
 70
     1
102
RTVSPost2010Prop55
280
     0
102
RTVSPost2010PropOp55
 70
     1
102
RTVSPost2010Prop56
140
1.0
102
RTVSPost2010PropOp56
 70
     1
102
RTVSPost2010Prop57
140
1.0
102
RTVSPost2010PropOp57
 70
     1
  0
XRECORD
  5
409
102
{ACAD_REACTORS
330
408
102
}
330
408
100
AcDbXrecord
280
     1
102
RTVSPost2010Prop28
280
     0
102
RTVSPost2010PropOp28
 70
     1
102
RTVSPost2010Prop29
280
     1
102
RTVSPost2010PropOp29
 70
     1
102
RTVSPost2010Prop30
280
     1
102
RTVSPost2010PropOp30
 70
     1
102
RTVSPost2010Prop31
280
     0
102
RTVSPost2010PropOp31
 70
     1
102
RTVSPost2010Prop32
280
     0
102
RTVSPost2010PropOp32
 70
     1
102
RTVSPost2010Prop33
280
     0
102
RTVSPost2010PropOp33
 70
     1
102
RTVSPost2010Prop34
280
     0
102
RTVSPost2010PropOp34
 70
     1
102
RTVSPost2010Prop35
280
     0
102
RTVSPost2010PropOp35
 70
     1
102
RTVSPost2010Prop36
280
     0
102
RTVSPost2010PropOp36
 70
     1
102
RTVSPost2010Prop37
 90
       50
102
RTVSPost2010PropOp37
 70
     1
102
RTVSPost2010Prop38
140
0.0
102
RTVSPost2010PropOp38
 70
     1
102
RTVSPost2010Prop39
140
1.0
102
RTVSPost2010PropOp39
 70
     1
102
RTVSPost2010Prop40
 90
        0
102
RTVSPost2010PropOp40
 70
     1
102
RTVSPost2010Prop41ColorIndex
 90
       18
102
RTVSPost2010Prop41ColorRGB
 90
        0
102
RTVSPost2010PropOp41
 70
     1
102
RTVSPost2010Prop42
 90
       50
102
RTVSPost2010PropOp42
 70
     1
102
RTVSPost2010Prop43
 90
        3
102
RTVSPost2010PropOp43
 70
     1
102
RTVSPost2010Prop44ColorIndex
 90
        5
102
RTVSPost2010Prop44ColorRGB
 90
      255
102
RTVSPost2010PropOp44
 70
     1
102
RTVSPost2010Prop45
280
     0
102
RTVSPost2010PropOp45
 70
     1
102
RTVSPost2010Prop46
 90
       50
102
RTVSPost2010PropOp46
 70
     1
102
RTVSPost2010Prop47
 90
       50
102
RTVSPost2010PropOp47
 70
     1
102
RTVSPost2010Prop48
 90
       50
102
RTVSPost2010PropOp48
 70
     1
102
RTVSPost2010Prop49
280
     0
102
RTVSPost2010PropOp49
 70
     1
102
RTVSPost2010Prop50
 90
       50
102
RTVSPost2010PropOp50
 70
     1
102
RTVSPost2010Prop51ColorIndex
 90
      256
102
RTVSPost2010Prop51ColorRGB
 90
-16777216
102
RTVSPost2010PropOp51
 70
     0
102
RTVSPost2010Prop52
140
1.0
102
RTVSPost2010PropOp52
 70
     0
102
RTVSPost2010Prop53
 90
        2
102
RTVSPost2010PropOp53
 70
     1
102
RTVSPost2010Prop54
  1
strokes_ogs.tif
102
RTVSPost2010PropOp54
 70
     1
102
RTVSPost2010Prop55
280
     0
102
RTVSPost2010PropOp55
 70
     1
102
RTVSPost2010Prop56
140
1.0
102
RTVSPost2010PropOp56
 70
     1
102
RTVSPost2010Prop57
140
1.0
102
RTVSPost2010PropOp57
 70
     1
  0
ENDSEC
  0
EOF
